  0
SECTION
  2
HEADER
  9
$ACADVER
  1
AC1024
  9
$ACADMAINTVER
 70
     6
  9
$DWGCODEPAGE
  3
UNDEFINED
  9
$INSBASE
 10
0.0
 20
0.0
 30
0.0
  9
$EXTMIN
 10
1.000000000000000E+20
 20
1.000000000000000E+20
 30
1.000000000000000E+20
  9
$EXTMAX
 10
-1.000000000000000E+20
 20
-1.000000000000000E+20
 30
-1.000000000000000E+20
  9
$LIMMIN
 10
0.0
 20
0.0
  9
$LIMMAX
 10
12.0
 20
9.0
  9
$ORTHOMODE
 70
     0
  9
$REGENMODE
 70
     1
  9
$FILLMODE
 70
     1
  9
$QTEXTMODE
 70
     0
  9
$MIRRTEXT
 70
     1
  9
$LTSCALE
 40
1.0
  9
$ATTMODE
 70
     1
  9
$TEXTSIZE
 40
0.2
  9
$TRACEWID
 40
0.05
  9
$TEXTSTYLE
  7
Standard
  9
$CLAYER
  8
0
  9
$CELTYPE
  6
ByLayer
  9
$CECOLOR
 62
   256
  9
$CELTSCALE
 40
1.0
  9
$DISPSILH
 70
     0
  9
$DIMSCALE
 40
1.0
  9
$DIMASZ
 40
0.18
  9
$DIMEXO
 40
0.0625
  9
$DIMDLI
 40
0.38
  9
$DIMRND
 40
0.0
  9
$DIMDLE
 40
0.0
  9
$DIMEXE
 40
0.18
  9
$DIMTP
 40
0.0
  9
$DIMTM
 40
0.0
  9
$DIMTXT
 40
0.18
  9
$DIMCEN
 40
0.09
  9
$DIMTSZ
 40
0.0
  9
$DIMTOL
 70
     0
  9
$DIMLIM
 70
     0
  9
$DIMTIH
 70
     1
  9
$DIMTOH
 70
     1
  9
$DIMSE1
 70
     0
  9
$DIMSE2
 70
     0
  9
$DIMTAD
 70
     0
  9
$DIMZIN
 70
     0
  9
$DIMBLK
  1

  9
$DIMASO
 70
     1
  9
$DIMSHO
 70
     1
  9
$DIMPOST
  1

  9
$DIMAPOST
  1

  9
$DIMALT
 70
     0
  9
$DIMALTD
 70
     2
  9
$DIMALTF
 40
25.4
  9
$DIMLFAC
 40
1.0
  9
$DIMTOFL
 70
     0
  9
$DIMTVP
 40
0.0
  9
$DIMTIX
 70
     0
  9
$DIMSOXD
 70
     0
  9
$DIMSAH
 70
     0
  9
$DIMBLK1
  1

  9
$DIMBLK2
  1

  9
$DIMSTYLE
  2
Standard
  9
$DIMCLRD
 70
     0
  9
$DIMCLRE
 70
     0
  9
$DIMCLRT
 70
     0
  9
$DIMTFAC
 40
1.0
  9
$DIMGAP
 40
0.09
  9
$DIMJUST
 70
     0
  9
$DIMSD1
 70
     0
  9
$DIMSD2
 70
     0
  9
$DIMTOLJ
 70
     1
  9
$DIMTZIN
 70
     0
  9
$DIMALTZ
 70
     0
  9
$DIMALTTZ
 70
     0
  9
$DIMUPT
 70
     0
  9
$DIMDEC
 70
     4
  9
$DIMTDEC
 70
     4
  9
$DIMALTU
 70
     2
  9
$DIMALTTD
 70
     2
  9
$DIMTXSTY
  7
Standard
  9
$DIMAUNIT
 70
     0
  9
$DIMADEC
 70
     0
  9
$DIMALTRND
 40
0.0
  9
$DIMAZIN
 70
     0
  9
$DIMDSEP
 70
    46
  9
$DIMATFIT
 70
     3
  9
$DIMFRAC
 70
     0
  9
$DIMLDRBLK
  1

  9
$DIMLUNIT
 70
     2
  9
$DIMLWD
 70
    -2
  9
$DIMLWE
 70
    -2
  9
$DIMTMOVE
 70
     0
  9
$DIMFXL
 40
1.0
  9
$DIMFXLON
 70
     0
  9
$DIMJOGANG
 40
0.7853981633974483
  9
$DIMTFILL
 70
     0
  9
$DIMTFILLCLR
 70
     0
  9
$DIMARCSYM
 70
     0
  9
$DIMLTYPE
  6

  9
$DIMLTEX1
  6

  9
$DIMLTEX2
  6

  9
$DIMTXTDIRECTION
 70
     0
  9
$LUNITS
 70
     2
  9
$LUPREC
 70
     4
  9
$SKETCHINC
 40
0.1
  9
$FILLETRAD
 40
0.5
  9
$AUNITS
 70
     0
  9
$AUPREC
 70
     0
  9
$MENU
  1
.
  9
$ELEVATION
 40
0.0
  9
$PELEVATION
 40
0.0
  9
$THICKNESS
 40
0.0
  9
$LIMCHECK
 70
     0
  9
$CHAMFERA
 40
0.5
  9
$CHAMFERB
 40
0.5
  9
$CHAMFERC
 40
1.0
  9
$CHAMFERD
 40
0.0
  9
$SKPOLY
 70
     0
  9
$TDCREATE
 40
2458263.576018507
  9
$TDUCREATE
 40
2458263.201018518
  9
$TDUPDATE
 40
2458263.576018507
  9
$TDUUPDATE
 40
2458263.201018518
  9
$TDINDWG
 40
0.0000000116
  9
$TDUSRTIMER
 40
0.0000000116
  9
$USRTIMER
 70
     1
  9
$ANGBASE
 50
0.0
  9
$ANGDIR
 70
     0
  9
$PDMODE
 70
     0
  9
$PDSIZE
 40
0.0
  9
$PLINEWID
 40
0.0
  9
$SPLFRAME
 70
     0
  9
$SPLINETYPE
 70
     6
  9
$SPLINESEGS
 70
     8
  9
$HANDSEED
  5
12F
  9
$SURFTAB1
 70
     6
  9
$SURFTAB2
 70
     6
  9
$SURFTYPE
 70
     6
  9
$SURFU
 70
     6
  9
$SURFV
 70
     6
  9
$UCSBASE
  2

  9
$UCSNAME
  2

  9
$UCSORG
 10
0.0
 20
0.0
 30
0.0
  9
$UCSXDIR
 10
1.0
 20
0.0
 30
0.0
  9
$UCSYDIR
 10
0.0
 20
1.0
 30
0.0
  9
$UCSORTHOREF
  2

  9
$UCSORTHOVIEW
 70
     0
  9
$UCSORGTOP
 10
0.0
 20
0.0
 30
0.0
  9
$UCSORGBOTTOM
 10
0.0
 20
0.0
 30
0.0
  9
$UCSORGLEFT
 10
0.0
 20
0.0
 30
0.0
  9
$UCSORGRIGHT
 10
0.0
 20
0.0
 30
0.0
  9
$UCSORGFRONT
 10
0.0
 20
0.0
 30
0.0
  9
$UCSORGBACK
 10
0.0
 20
0.0
 30
0.0
  9
$PUCSBASE
  2

  9
$PUCSNAME
  2

  9
$PUCSORG
 10
0.0
 20
0.0
 30
0.0
  9
$PUCSXDIR
 10
1.0
 20
0.0
 30
0.0
  9
$PUCSYDIR
 10
0.0
 20
1.0
 30
0.0
  9
$PUCSORTHOREF
  2

  9
$PUCSORTHOVIEW
 70
     0
  9
$PUCSORGTOP
 10
0.0
 20
0.0
 30
0.0
  9
$PUCSORGBOTTOM
 10
0.0
 20
0.0
 30
0.0
  9
$PUCSORGLEFT
 10
0.0
 20
0.0
 30
0.0
  9
$PUCSORGRIGHT
 10
0.0
 20
0.0
 30
0.0
  9
$PUCSORGFRONT
 10
0.0
 20
0.0
 30
0.0
  9
$PUCSORGBACK
 10
0.0
 20
0.0
 30
0.0
  9
$USERI1
 70
     0
  9
$USERI2
 70
     0
  9
$USERI3
 70
     0
  9
$USERI4
 70
     0
  9
$USERI5
 70
     0
  9
$USERR1
 40
0.0
  9
$USERR2
 40
0.0
  9
$USERR3
 40
0.0
  9
$USERR4
 40
0.0
  9
$USERR5
 40
0.0
  9
$WORLDVIEW
 70
     1
  9
$SHADEDGE
 70
     3
  9
$SHADEDIF
 70
    70
  9
$TILEMODE
 70
     1
  9
$MAXACTVP
 70
    64
  9
$PINSBASE
 10
0.0
 20
0.0
 30
0.0
  9
$PLIMCHECK
 70
     0
  9
$PEXTMIN
 10
1.000000000000000E+20
 20
1.000000000000000E+20
 30
1.000000000000000E+20
  9
$PEXTMAX
 10
-1.000000000000000E+20
 20
-1.000000000000000E+20
 30
-1.000000000000000E+20
  9
$PLIMMIN
 10
0.0
 20
0.0
  9
$PLIMMAX
 10
12.0
 20
9.0
  9
$UNITMODE
 70
     0
  9
$VISRETAIN
 70
     1
  9
$PLINEGEN
 70
     0
  9
$PSLTSCALE
 70
     1
  9
$TREEDEPTH
 70
  3020
  9
$CMLSTYLE
  2
Standard
  9
$CMLJUST
 70
     0
  9
$CMLSCALE
 40
1.0
  9
$PROXYGRAPHICS
 70
     1
  9
$MEASUREMENT
 70
     0
  9
$CELWEIGHT
370
    -1
  9
$ENDCAPS
280
     0
  9
$JOINSTYLE
280
     0
  9
$LWDISPLAY
290
     1
  9
$INSUNITS
 70
     1
  9
$HYPERLINKBASE
  1

  9
$STYLESHEET
  1

  9
$XEDIT
290
     1
  9
$CEPSNTYPE
380
     0
  9
$PSTYLEMODE
290
     1
  9
$FINGERPRINTGUID
  2
{11C36C6B-826B-C1EB-2A47-75683BA3C6B2}
  9
$VERSIONGUID
  2
{FAEB1C32-E019-11D5-929B-00C0DF256EC4}
  9
$EXTNAMES
290
     1
  9
$PSVPSCALE
 40
0.0
  9
$OLESTARTUP
290
     0
  9
$SORTENTS
280
   127
  9
$INDEXCTL
280
     0
  9
$HIDETEXT
280
     1
  9
$XCLIPFRAME
280
     2
  9
$HALOGAP
280
     0
  9
$OBSCOLOR
 70
   257
  9
$OBSLTYPE
280
     0
  9
$INTERSECTIONDISPLAY
280
     0
  9
$INTERSECTIONCOLOR
 70
   257
  9
$DIMASSOC
280
     2
  9
$PROJECTNAME
  1

  9
$CAMERADISPLAY
290
     0
  9
$LENSLENGTH
 40
50.0
  9
$CAMERAHEIGHT
 40
0.0
  9
$STEPSPERSEC
 40
2.0
  9
$STEPSIZE
 40
6.0
  9
$3DDWFPREC
 40
2.0
  9
$PSOLWIDTH
 40
0.25
  9
$PSOLHEIGHT
 40
4.0
  9
$LOFTANG1
 40
1.570796326794897
  9
$LOFTANG2
 40
1.570796326794897
  9
$LOFTMAG1
 40
0.0
  9
$LOFTMAG2
 40
0.0
  9
$LOFTPARAM
 70
     7
  9
$LOFTNORMALS
280
     1
  9
$LATITUDE
 40
37.795
  9
$LONGITUDE
 40
-122.394
  9
$NORTHDIRECTION
 40
0.0
  9
$TIMEZONE
 70
 -8000
  9
$LIGHTGLYPHDISPLAY
280
     1
  9
$TILEMODELIGHTSYNCH
280
     1
  9
$CMATERIAL
347
3C
  9
$SOLIDHIST
280
     1
  9
$SHOWHIST
280
     1
  9
$DWFFRAME
280
     2
  9
$DGNFRAME
280
     2
  9
$REALWORLDSCALE
290
     1
  9
$INTERFERECOLOR
 62
   256
  9
$CSHADOW
280
     0
  9
$SHADOWPLANELOCATION
 40
0.0
  0
ENDSEC
  0
SECTION
  2
CLASSES
  0
CLASS
  1
ACDBDICTIONARYWDFLT
  2
AcDbDictionaryWithDefault
  3
ObjectDBX Classes
 90
        0
 91
        4
280
     0
281
     0
  0
CLASS
  1
VISUALSTYLE
  2
AcDbVisualStyle
  3
ObjectDBX Classes
 90
     4095
 91
        4
280
     0
281
     0
  0
CLASS
  1
MATERIAL
  2
AcDbMaterial
  3
ObjectDBX Classes
 90
     1153
 91
        4
280
     0
281
     0
  0
CLASS
  1
SUN
  2
AcDbSun
  3
SCENEOE
 90
     1024
 91
        4
280
     0
281
     0
  0
ENDSEC
  0
SECTION
  2
TABLES
  0
TABLE
  2
VPORT
  5
8
330
0
100
AcDbSymbolTable
 70
     1
  0
VPORT
  5
29
330
8
100
AcDbSymbolTableRecord
100
AcDbViewportTableRecord
  2
*Active
 70
     0
 10
0.0
 20
0.0
 11
1.0
 21
1.0
 12
0.0
 22
0.0
 13
0.0
 23
0.0
 14
0.5
 24
0.5
 15
0.5
 25
0.5
 16
0.0
 26
0.0
 36
1.0
 17
105.0007777515277
 27
-148.5000416295416
 37
0.0
 40
297.0000832590831
 41
0.7070757462376333
 42
50.0
 43
0.0
 44
0.0
 50
0.0
 51
0.0
 71
     0
 72
   100
 73
     1
 74
     3
 75
     0
 76
     0
 77
     0
 78
     0
281
     0
 65
     1
110
0.0
120
0.0
130
0.0
111
1.0
121
0.0
131
0.0
112
0.0
122
1.0
132
0.0
 79
     0
146
0.0
 60
     3
 61
     5
292
     1
282
     1
141
0.0
142
0.0
 63
   250
361
3F
  0
ENDTAB
  0
TABLE
  2
LTYPE
  5
5
330
0
100
AcDbSymbolTable
 70
     1
  0
LTYPE
  5
14
330
5
100
AcDbSymbolTableRecord
100
AcDbLinetypeTableRecord
  2
ByBlock
 70
     0
  3

 72
    65
 73
     0
 40
0.0
  0
LTYPE
  5
15
330
5
100
AcDbSymbolTableRecord
100
AcDbLinetypeTableRecord
  2
ByLayer
 70
     0
  3

 72
    65
 73
     0
 40
0.0
  0
LTYPE
  5
16
330
5
100
AcDbSymbolTableRecord
100
AcDbLinetypeTableRecord
  2
Continuous
 70
     0
  3
Solid line
 72
    65
 73
     0
 40
0.0
  0
ENDTAB
  0
TABLE
  2
LAYER
  5
2
330
0
100
AcDbSymbolTable
 70
     2
  0
LAYER
  5
10
330
2
100
AcDbSymbolTableRecord
100
AcDbLayerTableRecord
  2
0
 70
     0
 62
     7
  6
Continuous
370
    -3
390
F
347
3E
  0
LAYER
  5
40
330
2
100
AcDbSymbolTableRecord
100
AcDbLayerTableRecord
  2
_U+30EC_U+30A4_U+30E4_U+30FC 1
 70
     0
 62
     7
  6
Continuous
370
    -3
390
F
347
3E
  0
ENDTAB
  0
TABLE
  2
STYLE
  5
3
330
0
100
AcDbSymbolTable
 70
     1
  0
STYLE
  5
11
330
3
100
AcDbSymbolTableRecord
100
AcDbTextStyleTableRecord
  2
Standard
 70
     0
 40
0.0
 41
1.0
 50
0.0
 71
     0
 42
0.2
  3
txt
  4

  0
ENDTAB
  0
TABLE
  2
VIEW
  5
6
330
0
100
AcDbSymbolTable
 70
     0
  0
ENDTAB
  0
TABLE
  2
UCS
  5
7
330
0
100
AcDbSymbolTable
 70
     0
  0
ENDTAB
  0
TABLE
  2
APPID
  5
9
330
0
100
AcDbSymbolTable
 70
     1
  0
APPID
  5
12
330
9
100
AcDbSymbolTableRecord
100
AcDbRegAppTableRecord
  2
ACAD
 70
     0
  0
ENDTAB
  0
TABLE
  2
DIMSTYLE
  5
A
330
0
100
AcDbSymbolTable
 70
     1
100
AcDbDimStyleTable
  0
DIMSTYLE
105
27
330
A
100
AcDbSymbolTableRecord
100
AcDbDimStyleTableRecord
  2
Standard
 70
     0
178
     0
340
11
  0
ENDTAB
  0
TABLE
  2
BLOCK_RECORD
  5
1
330
0
100
AcDbSymbolTable
 70
     5
  0
BLOCK_RECORD
  5
1F
330
1
100
AcDbSymbolTableRecord
100
AcDbBlockTableRecord
  2
*Model_Space
340
22
 70
     0
280
     1
281
     0
  0
BLOCK_RECORD
  5
1B
330
1
100
AcDbSymbolTableRecord
100
AcDbBlockTableRecord
  2
*Paper_Space
340
1E
 70
     0
280
     1
281
     0
  0
BLOCK_RECORD
  5
23
330
1
100
AcDbSymbolTableRecord
100
AcDbBlockTableRecord
  2
*Paper_Space0
340
26
 70
     0
280
     1
281
     0
  0
BLOCK_RECORD
  5
DF
330
1
100
AcDbSymbolTableRecord
100
AcDbBlockTableRecord
  2
block 2
340
0
102
{BLKREFS
331
E0
102
}
 70
     0
280
     1
281
     0
  0
BLOCK_RECORD
  5
F0
330
1
100
AcDbSymbolTableRecord
100
AcDbBlockTableRecord
  2
block 3
340
0
102
{BLKREFS
331
F1
102
}
 70
     0
280
     1
281
     0
  0
BLOCK_RECORD
  5
101
330
1
100
AcDbSymbolTableRecord
100
AcDbBlockTableRecord
  2
block 4
340
0
102
{BLKREFS
331
102
102
}
 70
     0
280
     1
281
     0
  0
BLOCK_RECORD
  5
11B
330
1
100
AcDbSymbolTableRecord
100
AcDbBlockTableRecord
  2
block 5
340
0
102
{BLKREFS
331
11C
102
}
 70
     0
280
     1
281
     0
  0
ENDTAB
  0
ENDSEC
  0
SECTION
  2
BLOCKS
  0
BLOCK
  5
20
330
1F
100
AcDbEntity
  8
0
100
AcDbBlockBegin
  2
*Model_Space
 70
     0
 10
0.0
 20
0.0
 30
0.0
  3
*Model_Space
  1

  0
ENDBLK
  5
21
330
1F
100
AcDbEntity
  8
0
100
AcDbBlockEnd
  0
BLOCK
  5
1C
330
1B
100
AcDbEntity
 67
     1
  8
0
100
AcDbBlockBegin
  2
*Paper_Space
 70
     0
 10
0.0
 20
0.0
 30
0.0
  3
*Paper_Space
  1

  0
ENDBLK
  5
1D
330
1B
100
AcDbEntity
 67
     1
  8
0
100
AcDbBlockEnd
  0
BLOCK
  5
24
330
23
100
AcDbEntity
  8
0
100
AcDbBlockBegin
  2
*Paper_Space0
 70
     0
 10
0.0
 20
0.0
 30
0.0
  3
*Paper_Space0
  1

  0
ENDBLK
  5
25
330
23
100
AcDbEntity
  8
0
100
AcDbBlockEnd
  0
BLOCK
  5
E1
330
DF
100
AcDbEntity
  8
0
100
AcDbBlockBegin
  2
block 2
 70
     0
 10
0.0
 20
0.0
 30
0.0
  3
block 2
  1

  0
SPLINE
  5
E3
330
DF
100
AcDbEntity
  8
_U+30EC_U+30A4_U+30E4_U+30FC 1
370
     0
100
AcDbSpline
210
0.0
220
0.0
230
1.0
 70
    11
 71
     3
 72
    53
 73
    49
 74
     0
 42
0.0000000001
 43
0.0000000001
 12
1.0
 22
0.0
 32
0.0
 13
1.0
 23
0.0
 33
0.0
 40
0.0
 40
0.0
 40
0.0
 40
0.0
 40
1.0
 40
1.0
 40
1.0
 40
2.0
 40
2.0
 40
2.0
 40
3.0
 40
3.0
 40
3.0
 40
4.0
 40
4.0
 40
4.0
 40
5.0
 40
5.0
 40
5.0
 40
6.0
 40
6.0
 40
6.0
 40
7.0
 40
7.0
 40
7.0
 40
8.0
 40
8.0
 40
8.0
 40
9.0
 40
9.0
 40
9.0
 40
10.0
 40
10.0
 40
10.0
 40
11.0
 40
11.0
 40
11.0
 40
12.0
 40
12.0
 40
12.0
 40
13.0
 40
13.0
 40
13.0
 40
14.0
 40
14.0
 40
14.0
 40
15.0
 40
15.0
 40
15.0
 40
16.0
 40
16.0
 40
16.0
 40
16.0
 10
111.7130777715509
 20
-135.7241875203224
 30
0.0
 10
111.6348741040357
 20
-135.7241875203224
 30
0.0
 10
111.5332437872209
 20
-135.7073065524447
 30
0.0
 10
111.431613470406
 20
-135.6439167955161
 30
0.0
 10
111.2583251674979
 20
-135.5340182495366
 30
0.0
 10
111.2369655754894
 20
-135.4027601115486
 30
0.0
 10
111.2180175503205
 20
-135.2949286228603
 30
0.0
 10
111.2180175503205
 20
-135.2949286228603
 30
0.0
 10
111.4402262091191
 20
-135.2949286228603
 30
0.0
 10
111.4402262091191
 20
-135.2949286228603
 30
0.0
 10
111.4950032273346
 20
-135.4937106323592
 30
0.0
 10
111.6221272507403
 20
-135.5233384535324
 30
0.0
 10
111.7151448288421
 20
-135.5233384535324
 30
0.0
 10
111.8546711959947
 20
-135.5233384535324
 30
0.0
 10
112.0069444164427
 20
-135.4237751940086
 30
0.0
 10
112.0069444164427
 20
-135.1912312487543
 30
0.0
 10
112.0069444164427
 20
-134.9352606542002
 30
0.0
 10
111.8271104321127
 20
-134.8653252158497
 30
0.0
 10
111.7065320901289
 20
-134.8653252158497
 30
0.0
 10
111.6748372116646
 20
-134.8653252158497
 30
0.0
 10
111.5332437872209
 20
-134.8653252158497
 30
0.0
 10
111.4443603237014
 20
-134.9945162965465
 30
0.0
 10
111.4443603237014
 20
-134.9945162965465
 30
0.0
 10
111.2686604539537
 20
-134.9755682713777
 30
0.0
 10
111.2686604539537
 20
-134.9755682713777
 30
0.0
 10
111.2686604539537
 20
-134.9755682713777
 30
0.0
 10
111.3892387959374
 20
-134.1291083106518
 30
0.0
 10
111.3892387959374
 20
-134.1291083106518
 30
0.0
 10
111.3892387959374
 20
-134.1291083106518
 30
0.0
 10
112.1678303756039
 20
-134.1291083106518
 30
0.0
 10
112.1678303756039
 20
-134.1291083106518
 30
0.0
 10
112.1678303756039
 20
-134.1291083106518
 30
0.0
 10
112.1678303756039
 20
-134.3237562055684
 30
0.0
 10
112.1678303756039
 20
-134.3237562055684
 30
0.0
 10
112.1678303756039
 20
-134.3237562055684
 30
0.0
 10
111.5521918123897
 20
-134.3237562055684
 30
0.0
 10
111.5521918123897
 20
-134.3237562055684
 30
0.0
 10
111.5521918123897
 20
-134.3237562055684
 30
0.0
 10
111.48673499817
 20
-134.746813931157
 30
0.0
 10
111.48673499817
 20
-134.746813931157
 30
0.0
 10
111.5480576978074
 20
-134.7130519954016
 30
0.0
 10
111.6303954799049
 20
-134.6727443782242
 30
0.0
 10
111.7489067645975
 20
-134.6727443782242
 30
0.0
 10
112.0028103018604
 20
-134.6727443782242
 30
0.0
 10
112.2398328712456
 20
-134.8591240439762
 30
0.0
 10
112.2398328712456
 20
-135.1722832235854
 30
0.0
 10
112.2398328712456
 20
-135.4895765177769
 30
0.0
 10
112.0155571551558
 20
-135.7241875203224
 30
0.0
 10
111.7130777715509
 20
-135.7241875203224
 30
0.0
  0
HATCH
  5
E4
330
DF
100
AcDbEntity
  8
_U+30EC_U+30A4_U+30E4_U+30FC 1
 62
   179
420
  2234388
100
AcDbHatch
 10
0.0
 20
0.0
 30
0.0
210
0.0
220
0.0
230
1.0
  2
SOLID
 70
     1
 71
     0
 91
        1
 92
        1
 93
        1
 72
     4
 94
        3
 73
     0
 74
     1
 95
       53
 96
       49
 40
0.0
 40
0.0
 40
0.0
 40
0.0
 40
1.0
 40
1.0
 40
1.0
 40
2.0
 40
2.0
 40
2.0
 40
3.0
 40
3.0
 40
3.0
 40
4.0
 40
4.0
 40
4.0
 40
5.0
 40
5.0
 40
5.0
 40
6.0
 40
6.0
 40
6.0
 40
7.0
 40
7.0
 40
7.0
 40
8.0
 40
8.0
 40
8.0
 40
9.0
 40
9.0
 40
9.0
 40
10.0
 40
10.0
 40
10.0
 40
11.0
 40
11.0
 40
11.0
 40
12.0
 40
12.0
 40
12.0
 40
13.0
 40
13.0
 40
13.0
 40
14.0
 40
14.0
 40
14.0
 40
15.0
 40
15.0
 40
15.0
 40
16.0
 40
16.0
 40
16.0
 40
16.0
 10
111.7130777715509
 20
-135.7241875203224
 10
111.6348741040357
 20
-135.7241875203224
 10
111.5332437872209
 20
-135.7073065524447
 10
111.431613470406
 20
-135.6439167955161
 10
111.2583251674979
 20
-135.5340182495366
 10
111.2369655754894
 20
-135.4027601115486
 10
111.2180175503205
 20
-135.2949286228603
 10
111.2180175503205
 20
-135.2949286228603
 10
111.4402262091191
 20
-135.2949286228603
 10
111.4402262091191
 20
-135.2949286228603
 10
111.4950032273346
 20
-135.4937106323592
 10
111.6221272507403
 20
-135.5233384535324
 10
111.7151448288421
 20
-135.5233384535324
 10
111.8546711959947
 20
-135.5233384535324
 10
112.0069444164427
 20
-135.4237751940086
 10
112.0069444164427
 20
-135.1912312487543
 10
112.0069444164427
 20
-134.9352606542002
 10
111.8271104321127
 20
-134.8653252158497
 10
111.7065320901289
 20
-134.8653252158497
 10
111.6748372116646
 20
-134.8653252158497
 10
111.5332437872209
 20
-134.8653252158497
 10
111.4443603237014
 20
-134.9945162965465
 10
111.4443603237014
 20
-134.9945162965465
 10
111.2686604539537
 20
-134.9755682713777
 10
111.2686604539537
 20
-134.9755682713777
 10
111.2686604539537
 20
-134.9755682713777
 10
111.3892387959374
 20
-134.1291083106518
 10
111.3892387959374
 20
-134.1291083106518
 10
111.3892387959374
 20
-134.1291083106518
 10
112.1678303756039
 20
-134.1291083106518
 10
112.1678303756039
 20
-134.1291083106518
 10
112.1678303756039
 20
-134.1291083106518
 10
112.1678303756039
 20
-134.3237562055684
 10
112.1678303756039
 20
-134.3237562055684
 10
112.1678303756039
 20
-134.3237562055684
 10
111.5521918123897
 20
-134.3237562055684
 10
111.5521918123897
 20
-134.3237562055684
 10
111.5521918123897
 20
-134.3237562055684
 10
111.48673499817
 20
-134.746813931157
 10
111.48673499817
 20
-134.746813931157
 10
111.5480576978074
 20
-134.7130519954016
 10
111.6303954799049
 20
-134.6727443782242
 10
111.7489067645975
 20
-134.6727443782242
 10
112.0028103018604
 20
-134.6727443782242
 10
112.2398328712456
 20
-134.8591240439762
 10
112.2398328712456
 20
-135.1722832235854
 10
112.2398328712456
 20
-135.4895765177769
 10
112.0155571551558
 20
-135.7241875203224
 10
111.7130777715509
 20
-135.7241875203224
 97
        0
 97
        0
 75
     2
 76
     1
 98
        0
  0
SPLINE
  5
E5
330
DF
100
AcDbEntity
  8
_U+30EC_U+30A4_U+30E4_U+30FC 1
370
     0
100
AcDbSpline
210
0.0
220
0.0
230
1.0
 70
    11
 71
     3
 72
    29
 73
    25
 74
     0
 42
0.0000000001
 43
0.0000000001
 12
1.0
 22
0.0
 32
0.0
 13
1.0
 23
0.0
 33
0.0
 40
0.0
 40
0.0
 40
0.0
 40
0.0
 40
1.0
 40
1.0
 40
1.0
 40
2.0
 40
2.0
 40
2.0
 40
3.0
 40
3.0
 40
3.0
 40
4.0
 40
4.0
 40
4.0
 40
5.0
 40
5.0
 40
5.0
 40
6.0
 40
6.0
 40
6.0
 40
7.0
 40
7.0
 40
7.0
 40
8.0
 40
8.0
 40
8.0
 40
8.0
 10
113.3067789430275
 20
-135.4957776896504
 30
0.0
 10
113.1986029447906
 20
-135.7052394951536
 30
0.0
 10
113.0253146418826
 20
-135.7241875203224
 30
0.0
 10
112.9088704144811
 20
-135.7241875203224
 30
0.0
 10
112.74798445532
 20
-135.7241875203224
 30
0.0
 10
112.6063910308762
 20
-135.6776787312716
 30
0.0
 10
112.5113063954833
 20
-135.4957776896504
 30
0.0
 10
112.4076090213773
 20
-135.3011297947338
 30
0.0
 10
112.3886609962084
 20
-135.0644517348971
 30
0.0
 10
112.3886609962084
 20
-134.9014987184448
 30
0.0
 10
112.3886609962084
 20
-134.7574937271613
 30
0.0
 10
112.4055419640861
 20
-134.5056572471896
 30
0.0
 10
112.5113063954833
 20
-134.3068752376907
 30
0.0
 10
112.6191378841716
 20
-134.1039591136094
 30
0.0
 10
112.7800238433328
 20
-134.0805324643097
 30
0.0
 10
112.9088704144811
 20
-134.0805324643097
 30
0.0
 10
113.0676893163511
 20
-134.0805324643097
 30
0.0
 10
113.2113497980861
 20
-134.1249741960694
 30
0.0
 10
113.3067789430275
 20
-134.3068752376907
 30
0.0
 10
113.4059976930027
 20
-134.4994560753161
 30
0.0
 10
113.4294243423024
 20
-134.7278659059882
 30
0.0
 10
113.4294243423024
 20
-134.9014987184448
 30
0.0
 10
113.4294243423024
 20
-135.0727199640617
 30
0.0
 10
113.4080647502938
 20
-135.3031968520249
 30
0.0
 10
113.3067789430275
 20
-135.4957776896504
 30
0.0
  0
SPLINE
  5
E6
330
DF
100
AcDbEntity
  8
_U+30EC_U+30A4_U+30E4_U+30FC 1
370
     0
100
AcDbSpline
210
0.0
220
0.0
230
1.0
 70
    11
 71
     3
 72
    17
 73
    13
 74
     0
 42
0.0000000001
 43
0.0000000001
 12
1.0
 22
0.0
 32
0.0
 13
1.0
 23
0.0
 33
0.0
 40
0.0
 40
0.0
 40
0.0
 40
0.0
 40
1.0
 40
1.0
 40
1.0
 40
2.0
 40
2.0
 40
2.0
 40
3.0
 40
3.0
 40
3.0
 40
4.0
 40
4.0
 40
4.0
 40
4.0
 10
112.9088704144811
 20
-134.2731133019352
 30
0.0
 10
112.659445501349
 20
-134.2731133019352
 30
0.0
 10
112.6125922027496
 20
-134.5566446603713
 30
0.0
 10
112.6125922027496
 20
-134.9014987184448
 30
0.0
 10
112.6125922027496
 20
-135.2208590699274
 30
0.0
 10
112.6487657053448
 20
-135.5295396254058
 30
0.0
 10
112.9088704144811
 20
-135.5295396254058
 30
0.0
 10
113.1565727798706
 20
-135.5295396254058
 30
0.0
 10
113.2051486262126
 20
-135.2484198338094
 30
0.0
 10
113.2051486262126
 20
-134.9014987184448
 30
0.0
 10
113.2051486262126
 20
-134.5817938574136
 30
0.0
 10
113.1669080663263
 20
-134.2731133019352
 30
0.0
 10
112.9088704144811
 20
-134.2731133019352
 30
0.0
  0
HATCH
  5
E7
330
DF
100
AcDbEntity
  8
_U+30EC_U+30A4_U+30E4_U+30FC 1
 62
   179
420
  2234388
100
AcDbHatch
 10
0.0
 20
0.0
 30
0.0
210
0.0
220
0.0
230
1.0
  2
SOLID
 70
     1
 71
     0
 91
        2
 92
        1
 93
        1
 72
     4
 94
        3
 73
     0
 74
     1
 95
       29
 96
       25
 40
0.0
 40
0.0
 40
0.0
 40
0.0
 40
1.0
 40
1.0
 40
1.0
 40
2.0
 40
2.0
 40
2.0
 40
3.0
 40
3.0
 40
3.0
 40
4.0
 40
4.0
 40
4.0
 40
5.0
 40
5.0
 40
5.0
 40
6.0
 40
6.0
 40
6.0
 40
7.0
 40
7.0
 40
7.0
 40
8.0
 40
8.0
 40
8.0
 40
8.0
 10
113.3067789430275
 20
-135.4957776896504
 10
113.1986029447906
 20
-135.7052394951536
 10
113.0253146418826
 20
-135.7241875203224
 10
112.9088704144811
 20
-135.7241875203224
 10
112.74798445532
 20
-135.7241875203224
 10
112.6063910308762
 20
-135.6776787312716
 10
112.5113063954833
 20
-135.4957776896504
 10
112.4076090213773
 20
-135.3011297947338
 10
112.3886609962084
 20
-135.0644517348971
 10
112.3886609962084
 20
-134.9014987184448
 10
112.3886609962084
 20
-134.7574937271613
 10
112.4055419640861
 20
-134.5056572471896
 10
112.5113063954833
 20
-134.3068752376907
 10
112.6191378841716
 20
-134.1039591136094
 10
112.7800238433328
 20
-134.0805324643097
 10
112.9088704144811
 20
-134.0805324643097
 10
113.0676893163511
 20
-134.0805324643097
 10
113.2113497980861
 20
-134.1249741960694
 10
113.3067789430275
 20
-134.3068752376907
 10
113.4059976930027
 20
-134.4994560753161
 10
113.4294243423024
 20
-134.7278659059882
 10
113.4294243423024
 20
-134.9014987184448
 10
113.4294243423024
 20
-135.0727199640617
 10
113.4080647502938
 20
-135.3031968520249
 10
113.3067789430275
 20
-135.4957776896504
 97
        0
 97
        0
 92
        1
 93
        1
 72
     4
 94
        3
 73
     0
 74
     1
 95
       17
 96
       13
 40
0.0
 40
0.0
 40
0.0
 40
0.0
 40
1.0
 40
1.0
 40
1.0
 40
2.0
 40
2.0
 40
2.0
 40
3.0
 40
3.0
 40
3.0
 40
4.0
 40
4.0
 40
4.0
 40
4.0
 10
112.9088704144811
 20
-134.2731133019352
 10
112.659445501349
 20
-134.2731133019352
 10
112.6125922027496
 20
-134.5566446603713
 10
112.6125922027496
 20
-134.9014987184448
 10
112.6125922027496
 20
-135.2208590699274
 10
112.6487657053448
 20
-135.5295396254058
 10
112.9088704144811
 20
-135.5295396254058
 10
113.1565727798706
 20
-135.5295396254058
 10
113.2051486262126
 20
-135.2484198338094
 10
113.2051486262126
 20
-134.9014987184448
 10
113.2051486262126
 20
-134.5817938574136
 10
113.1669080663263
 20
-134.2731133019352
 10
112.9088704144811
 20
-134.2731133019352
 97
        0
 97
        0
 75
     2
 76
     1
 98
        0
  0
ENDBLK
  5
E2
330
DF
100
AcDbEntity
  8
0
100
AcDbBlockEnd
  0
BLOCK
  5
F2
330
F0
100
AcDbEntity
  8
0
100
AcDbBlockBegin
  2
block 3
 70
     0
 10
0.0
 20
0.0
 30
0.0
  3
block 3
  1

  0
SPLINE
  5
F4
330
F0
100
AcDbEntity
  8
_U+30EC_U+30A4_U+30E4_U+30FC 1
370
     0
100
AcDbSpline
210
0.0
220
0.0
230
1.0
 70
    11
 71
     3
 72
    53
 73
    49
 74
     0
 42
0.0000000001
 43
0.0000000001
 12
1.0
 22
0.0
 32
0.0
 13
1.0
 23
0.0
 33
0.0
 40
0.0
 40
0.0
 40
0.0
 40
0.0
 40
1.0
 40
1.0
 40
1.0
 40
2.0
 40
2.0
 40
2.0
 40
3.0
 40
3.0
 40
3.0
 40
4.0
 40
4.0
 40
4.0
 40
5.0
 40
5.0
 40
5.0
 40
6.0
 40
6.0
 40
6.0
 40
7.0
 40
7.0
 40
7.0
 40
8.0
 40
8.0
 40
8.0
 40
9.0
 40
9.0
 40
9.0
 40
10.0
 40
10.0
 40
10.0
 40
11.0
 40
11.0
 40
11.0
 40
12.0
 40
12.0
 40
12.0
 40
13.0
 40
13.0
 40
13.0
 40
14.0
 40
14.0
 40
14.0
 40
15.0
 40
15.0
 40
15.0
 40
16.0
 40
16.0
 40
16.0
 40
16.0
 10
97.51377221954517
 20
-135.7241875203224
 30
0.0
 10
97.43556855203
 20
-135.7241875203224
 30
0.0
 10
97.33393823521513
 20
-135.7073065524447
 30
0.0
 10
97.23230791840027
 20
-135.6439167955161
 30
0.0
 10
97.05901961549219
 20
-135.5340182495366
 30
0.0
 10
97.03766002348364
 20
-135.4027601115486
 30
0.0
 10
97.01871199831477
 20
-135.2949286228603
 30
0.0
 10
97.01871199831477
 20
-135.2949286228603
 30
0.0
 10
97.24092065711339
 20
-135.2949286228603
 30
0.0
 10
97.24092065711339
 20
-135.2949286228603
 30
0.0
 10
97.29569767532885
 20
-135.4937106323592
 30
0.0
 10
97.42282169873458
 20
-135.5233384535324
 30
0.0
 10
97.51583927683632
 20
-135.5233384535324
 30
0.0
 10
97.65536564398894
 20
-135.5233384535324
 30
0.0
 10
97.80763886443698
 20
-135.4237751940086
 30
0.0
 10
97.80763886443698
 20
-135.1912312487543
 30
0.0
 10
97.80763886443698
 20
-134.9352606542002
 30
0.0
 10
97.62780488010694
 20
-134.8653252158497
 30
0.0
 10
97.50722653812319
 20
-134.8653252158497
 30
0.0
 10
97.4755316596589
 20
-134.8653252158497
 30
0.0
 10
97.33393823521513
 20
-134.8653252158497
 30
0.0
 10
97.24505477169569
 20
-134.9945162965465
 30
0.0
 10
97.24505477169569
 20
-134.9945162965465
 30
0.0
 10
97.06935490194795
 20
-134.9755682713777
 30
0.0
 10
97.06935490194795
 20
-134.9755682713777
 30
0.0
 10
97.06935490194795
 20
-134.9755682713777
 30
0.0
 10
97.18993324393169
 20
-134.1291083106518
 30
0.0
 10
97.18993324393169
 20
-134.1291083106518
 30
0.0
 10
97.18993324393169
 20
-134.1291083106518
 30
0.0
 10
97.96852482359814
 20
-134.1291083106518
 30
0.0
 10
97.96852482359814
 20
-134.1291083106518
 30
0.0
 10
97.96852482359814
 20
-134.1291083106518
 30
0.0
 10
97.96852482359814
 20
-134.3237562055684
 30
0.0
 10
97.96852482359814
 20
-134.3237562055684
 30
0.0
 10
97.96852482359814
 20
-134.3237562055684
 30
0.0
 10
97.35288626038401
 20
-134.3237562055684
 30
0.0
 10
97.35288626038401
 20
-134.3237562055684
 30
0.0
 10
97.35288626038401
 20
-134.3237562055684
 30
0.0
 10
97.28742944616425
 20
-134.746813931157
 30
0.0
 10
97.28742944616425
 20
-134.746813931157
 30
0.0
 10
97.34875214580171
 20
-134.7130519954016
 30
0.0
 10
97.43108992789918
 20
-134.6727443782242
 30
0.0
 10
97.54960121259177
 20
-134.6727443782242
 30
0.0
 10
97.80350474985468
 20
-134.6727443782242
 30
0.0
 10
98.04052731923987
 20
-134.8591240439762
 30
0.0
 10
98.04052731923987
 20
-135.1722832235854
 30
0.0
 10
98.04052731923987
 20
-135.4895765177769
 30
0.0
 10
97.8162516031501
 20
-135.7241875203224
 30
0.0
 10
97.51377221954517
 20
-135.7241875203224
 30
0.0
  0
HATCH
  5
F5
330
F0
100
AcDbEntity
  8
_U+30EC_U+30A4_U+30E4_U+30FC 1
 62
   179
420
  2234388
100
AcDbHatch
 10
0.0
 20
0.0
 30
0.0
210
0.0
220
0.0
230
1.0
  2
SOLID
 70
     1
 71
     0
 91
        1
 92
        1
 93
        1
 72
     4
 94
        3
 73
     0
 74
     1
 95
       53
 96
       49
 40
0.0
 40
0.0
 40
0.0
 40
0.0
 40
1.0
 40
1.0
 40
1.0
 40
2.0
 40
2.0
 40
2.0
 40
3.0
 40
3.0
 40
3.0
 40
4.0
 40
4.0
 40
4.0
 40
5.0
 40
5.0
 40
5.0
 40
6.0
 40
6.0
 40
6.0
 40
7.0
 40
7.0
 40
7.0
 40
8.0
 40
8.0
 40
8.0
 40
9.0
 40
9.0
 40
9.0
 40
10.0
 40
10.0
 40
10.0
 40
11.0
 40
11.0
 40
11.0
 40
12.0
 40
12.0
 40
12.0
 40
13.0
 40
13.0
 40
13.0
 40
14.0
 40
14.0
 40
14.0
 40
15.0
 40
15.0
 40
15.0
 40
16.0
 40
16.0
 40
16.0
 40
16.0
 10
97.51377221954517
 20
-135.7241875203224
 10
97.43556855203
 20
-135.7241875203224
 10
97.33393823521513
 20
-135.7073065524447
 10
97.23230791840027
 20
-135.6439167955161
 10
97.05901961549219
 20
-135.5340182495366
 10
97.03766002348364
 20
-135.4027601115486
 10
97.01871199831477
 20
-135.2949286228603
 10
97.01871199831477
 20
-135.2949286228603
 10
97.24092065711339
 20
-135.2949286228603
 10
97.24092065711339
 20
-135.2949286228603
 10
97.29569767532885
 20
-135.4937106323592
 10
97.42282169873458
 20
-135.5233384535324
 10
97.51583927683632
 20
-135.5233384535324
 10
97.65536564398894
 20
-135.5233384535324
 10
97.80763886443698
 20
-135.4237751940086
 10
97.80763886443698
 20
-135.1912312487543
 10
97.80763886443698
 20
-134.9352606542002
 10
97.62780488010694
 20
-134.8653252158497
 10
97.50722653812319
 20
-134.8653252158497
 10
97.4755316596589
 20
-134.8653252158497
 10
97.33393823521513
 20
-134.8653252158497
 10
97.24505477169569
 20
-134.9945162965465
 10
97.24505477169569
 20
-134.9945162965465
 10
97.06935490194795
 20
-134.9755682713777
 10
97.06935490194795
 20
-134.9755682713777
 10
97.06935490194795
 20
-134.9755682713777
 10
97.18993324393169
 20
-134.1291083106518
 10
97.18993324393169
 20
-134.1291083106518
 10
97.18993324393169
 20
-134.1291083106518
 10
97.96852482359814
 20
-134.1291083106518
 10
97.96852482359814
 20
-134.1291083106518
 10
97.96852482359814
 20
-134.1291083106518
 10
97.96852482359814
 20
-134.3237562055684
 10
97.96852482359814
 20
-134.3237562055684
 10
97.96852482359814
 20
-134.3237562055684
 10
97.35288626038401
 20
-134.3237562055684
 10
97.35288626038401
 20
-134.3237562055684
 10
97.35288626038401
 20
-134.3237562055684
 10
97.28742944616425
 20
-134.746813931157
 10
97.28742944616425
 20
-134.746813931157
 10
97.34875214580171
 20
-134.7130519954016
 10
97.43108992789918
 20
-134.6727443782242
 10
97.54960121259177
 20
-134.6727443782242
 10
97.80350474985468
 20
-134.6727443782242
 10
98.04052731923987
 20
-134.8591240439762
 10
98.04052731923987
 20
-135.1722832235854
 10
98.04052731923987
 20
-135.4895765177769
 10
97.8162516031501
 20
-135.7241875203224
 10
97.51377221954517
 20
-135.7241875203224
 97
        0
 97
        0
 75
     2
 76
     1
 98
        0
  0
SPLINE
  5
F6
330
F0
100
AcDbEntity
  8
_U+30EC_U+30A4_U+30E4_U+30FC 1
370
     0
100
AcDbSpline
210
0.0
220
0.0
230
1.0
 70
    11
 71
     3
 72
    29
 73
    25
 74
     0
 42
0.0000000001
 43
0.0000000001
 12
1.0
 22
0.0
 32
0.0
 13
1.0
 23
0.0
 33
0.0
 40
0.0
 40
0.0
 40
0.0
 40
0.0
 40
1.0
 40
1.0
 40
1.0
 40
2.0
 40
2.0
 40
2.0
 40
3.0
 40
3.0
 40
3.0
 40
4.0
 40
4.0
 40
4.0
 40
5.0
 40
5.0
 40
5.0
 40
6.0
 40
6.0
 40
6.0
 40
7.0
 40
7.0
 40
7.0
 40
8.0
 40
8.0
 40
8.0
 40
8.0
 10
99.10747339102174
 20
-135.4957776896504
 30
0.0
 10
98.9992973927849
 20
-135.7052394951536
 30
0.0
 10
98.82600908987683
 20
-135.7241875203224
 30
0.0
 10
98.70956486247539
 20
-135.7241875203224
 30
0.0
 10
98.54867890331423
 20
-135.7241875203224
 30
0.0
 10
98.40708547887046
 20
-135.6776787312716
 30
0.0
 10
98.31200084347756
 20
-135.4957776896504
 30
0.0
 10
98.20830346937154
 20
-135.3011297947338
 30
0.0
 10
98.18935544420266
 20
-135.0644517348971
 30
0.0
 10
98.18935544420266
 20
-134.9014987184448
 30
0.0
 10
98.18935544420266
 20
-134.7574937271613
 30
0.0
 10
98.20623641208039
 20
-134.5056572471896
 30
0.0
 10
98.31200084347756
 20
-134.3068752376907
 30
0.0
 10
98.41983233216588
 20
-134.1039591136094
 30
0.0
 10
98.58071829132705
 20
-134.0805324643097
 30
0.0
 10
98.70956486247539
 20
-134.0805324643097
 30
0.0
 10
98.86838376434541
 20
-134.0805324643097
 30
0.0
 10
99.01204424608032
 20
-134.1249741960694
 30
0.0
 10
99.10747339102174
 20
-134.3068752376907
 30
0.0
 10
99.20669214099695
 20
-134.4994560753161
 30
0.0
 10
99.23011879029664
 20
-134.7278659059882
 30
0.0
 10
99.23011879029664
 20
-134.9014987184448
 30
0.0
 10
99.23011879029664
 20
-135.0727199640617
 30
0.0
 10
99.20875919828809
 20
-135.3031968520249
 30
0.0
 10
99.10747339102174
 20
-135.4957776896504
 30
0.0
  0
SPLINE
  5
F7
330
F0
100
AcDbEntity
  8
_U+30EC_U+30A4_U+30E4_U+30FC 1
370
     0
100
AcDbSpline
210
0.0
220
0.0
230
1.0
 70
    11
 71
     3
 72
    17
 73
    13
 74
     0
 42
0.0000000001
 43
0.0000000001
 12
1.0
 22
0.0
 32
0.0
 13
1.0
 23
0.0
 33
0.0
 40
0.0
 40
0.0
 40
0.0
 40
0.0
 40
1.0
 40
1.0
 40
1.0
 40
2.0
 40
2.0
 40
2.0
 40
3.0
 40
3.0
 40
3.0
 40
4.0
 40
4.0
 40
4.0
 40
4.0
 10
98.70956486247539
 20
-134.2731133019352
 30
0.0
 10
98.4601399493433
 20
-134.2731133019352
 30
0.0
 10
98.4132866507439
 20
-134.5566446603713
 30
0.0
 10
98.4132866507439
 20
-134.9014987184448
 30
0.0
 10
98.4132866507439
 20
-135.2208590699274
 30
0.0
 10
98.44946015333903
 20
-135.5295396254058
 30
0.0
 10
98.70956486247539
 20
-135.5295396254058
 30
0.0
 10
98.95726722786486
 20
-135.5295396254058
 30
0.0
 10
99.00584307420688
 20
-135.2484198338094
 30
0.0
 10
99.00584307420688
 20
-134.9014987184448
 30
0.0
 10
99.00584307420688
 20
-134.5817938574136
 30
0.0
 10
98.9676025143206
 20
-134.2731133019352
 30
0.0
 10
98.70956486247539
 20
-134.2731133019352
 30
0.0
  0
HATCH
  5
F8
330
F0
100
AcDbEntity
  8
_U+30EC_U+30A4_U+30E4_U+30FC 1
 62
   179
420
  2234388
100
AcDbHatch
 10
0.0
 20
0.0
 30
0.0
210
0.0
220
0.0
230
1.0
  2
SOLID
 70
     1
 71
     0
 91
        2
 92
        1
 93
        1
 72
     4
 94
        3
 73
     0
 74
     1
 95
       29
 96
       25
 40
0.0
 40
0.0
 40
0.0
 40
0.0
 40
1.0
 40
1.0
 40
1.0
 40
2.0
 40
2.0
 40
2.0
 40
3.0
 40
3.0
 40
3.0
 40
4.0
 40
4.0
 40
4.0
 40
5.0
 40
5.0
 40
5.0
 40
6.0
 40
6.0
 40
6.0
 40
7.0
 40
7.0
 40
7.0
 40
8.0
 40
8.0
 40
8.0
 40
8.0
 10
99.10747339102174
 20
-135.4957776896504
 10
98.9992973927849
 20
-135.7052394951536
 10
98.82600908987683
 20
-135.7241875203224
 10
98.70956486247539
 20
-135.7241875203224
 10
98.54867890331423
 20
-135.7241875203224
 10
98.40708547887046
 20
-135.6776787312716
 10
98.31200084347756
 20
-135.4957776896504
 10
98.20830346937154
 20
-135.3011297947338
 10
98.18935544420266
 20
-135.0644517348971
 10
98.18935544420266
 20
-134.9014987184448
 10
98.18935544420266
 20
-134.7574937271613
 10
98.20623641208039
 20
-134.5056572471896
 10
98.31200084347756
 20
-134.3068752376907
 10
98.41983233216588
 20
-134.1039591136094
 10
98.58071829132705
 20
-134.0805324643097
 10
98.70956486247539
 20
-134.0805324643097
 10
98.86838376434541
 20
-134.0805324643097
 10
99.01204424608032
 20
-134.1249741960694
 10
99.10747339102174
 20
-134.3068752376907
 10
99.20669214099695
 20
-134.4994560753161
 10
99.23011879029664
 20
-134.7278659059882
 10
99.23011879029664
 20
-134.9014987184448
 10
99.23011879029664
 20
-135.0727199640617
 10
99.20875919828809
 20
-135.3031968520249
 10
99.10747339102174
 20
-135.4957776896504
 97
        0
 97
        0
 92
        1
 93
        1
 72
     4
 94
        3
 73
     0
 74
     1
 95
       17
 96
       13
 40
0.0
 40
0.0
 40
0.0
 40
0.0
 40
1.0
 40
1.0
 40
1.0
 40
2.0
 40
2.0
 40
2.0
 40
3.0
 40
3.0
 40
3.0
 40
4.0
 40
4.0
 40
4.0
 40
4.0
 10
98.70956486247539
 20
-134.2731133019352
 10
98.4601399493433
 20
-134.2731133019352
 10
98.4132866507439
 20
-134.5566446603713
 10
98.4132866507439
 20
-134.9014987184448
 10
98.4132866507439
 20
-135.2208590699274
 10
98.44946015333903
 20
-135.5295396254058
 10
98.70956486247539
 20
-135.5295396254058
 10
98.95726722786486
 20
-135.5295396254058
 10
99.00584307420688
 20
-135.2484198338094
 10
99.00584307420688
 20
-134.9014987184448
 10
99.00584307420688
 20
-134.5817938574136
 10
98.9676025143206
 20
-134.2731133019352
 10
98.70956486247539
 20
-134.2731133019352
 97
        0
 97
        0
 75
     2
 76
     1
 98
        0
  0
ENDBLK
  5
F3
330
F0
100
AcDbEntity
  8
0
100
AcDbBlockEnd
  0
BLOCK
  5
103
330
101
100
AcDbEntity
  8
0
100
AcDbBlockBegin
  2
block 4
 70
     0
 10
0.0
 20
0.0
 30
0.0
  3
block 4
  1

  0
SPLINE
  5
105
330
101
100
AcDbEntity
  8
_U+30EC_U+30A4_U+30E4_U+30FC 1
370
     0
100
AcDbSpline
210
0.0
220
0.0
230
1.0
 70
    11
 71
     3
 72
    44
 73
    40
 74
     0
 42
0.0000000001
 43
0.0000000001
 12
1.0
 22
0.0
 32
0.0
 13
1.0
 23
0.0
 33
0.0
 40
0.0
 40
0.0
 40
0.0
 40
0.0
 40
1.0
 40
1.0
 40
1.0
 40
2.0
 40
2.0
 40
2.0
 40
3.0
 40
3.0
 40
3.0
 40
4.0
 40
4.0
 40
4.0
 40
5.0
 40
5.0
 40
5.0
 40
6.0
 40
6.0
 40
6.0
 40
7.0
 40
7.0
 40
7.0
 40
8.0
 40
8.0
 40
8.0
 40
9.0
 40
9.0
 40
9.0
 40
10.0
 40
10.0
 40
10.0
 40
11.0
 40
11.0
 40
11.0
 40
12.0
 40
12.0
 40
12.0
 40
13.0
 40
13.0
 40
13.0
 40
13.0
 10
107.6013563099052
 20
-164.9425590950491
 30
0.0
 10
107.3836262752374
 20
-165.1013779969191
 30
0.0
 10
107.2906086971357
 20
-165.175447549852
 30
0.0
 10
107.2416883412451
 20
-165.3191080315869
 30
0.0
 10
107.2416883412451
 20
-165.3191080315869
 30
0.0
 10
108.0202799209116
 20
-165.3191080315869
 30
0.0
 10
108.0202799209116
 20
-165.3191080315869
 30
0.0
 10
108.0202799209116
 20
-165.3191080315869
 30
0.0
 10
108.0202799209116
 20
-165.5244357225078
 30
0.0
 10
108.0202799209116
 20
-165.5244357225078
 30
0.0
 10
108.0202799209116
 20
-165.5244357225078
 30
0.0
 10
106.992263428113
 20
-165.5244357225078
 30
0.0
 10
106.992263428113
 20
-165.5244357225078
 30
0.0
 10
107.0239583065773
 20
-165.1668348111388
 30
0.0
 10
107.0894151207971
 20
-165.0886311436237
 30
0.0
 10
107.474576796048
 20
-164.790285874601
 30
0.0
 10
107.7305473906021
 20
-164.5915038651021
 30
0.0
 10
107.7960042048218
 20
-164.5236354840427
 30
0.0
 10
107.7960042048218
 20
-164.3861761741812
 30
0.0
 10
107.7960042048218
 20
-164.2676648894887
 30
0.0
 10
107.7240017091801
 20
-164.1367512610491
 30
0.0
 10
107.5272867569723
 20
-164.1367512610491
 30
0.0
 10
107.267182047836
 20
-164.1367512610491
 30
0.0
 10
107.2589138186714
 20
-164.3672281490124
 30
0.0
 10
107.2544351945406
 20
-164.4836723764138
 30
0.0
 10
107.2544351945406
 20
-164.4836723764138
 30
0.0
 10
107.0301594784508
 20
-164.4836723764138
 30
0.0
 10
107.0301594784508
 20
-164.4836723764138
 30
0.0
 10
107.0387722171639
 20
-164.3565483530081
 30
0.0
 10
107.0494520131682
 20
-164.2445827497375
 30
0.0
 10
107.1297227379745
 20
-164.1260714650449
 30
0.0
 10
107.239621283954
 20
-163.9651855058837
 30
0.0
 10
107.426000949706
 20
-163.9314235701283
 30
0.0
 10
107.5421006675589
 20
-163.9314235701283
 30
0.0
 10
107.8194308541215
 20
-163.9314235701283
 30
0.0
 10
108.0268256023336
 20
-164.1153916690406
 30
0.0
 10
108.0268256023336
 20
-164.3882432314724
 30
0.0
 10
108.0268256023336
 20
-164.616997571693
 30
0.0
 10
107.9103813749321
 20
-164.7162163216682
 30
0.0
 10
107.6013563099052
 20
-164.9425590950491
 30
0.0
  0
HATCH
  5
106
330
101
100
AcDbEntity
  8
_U+30EC_U+30A4_U+30E4_U+30FC 1
 62
   179
420
  2234388
100
AcDbHatch
 10
0.0
 20
0.0
 30
0.0
210
0.0
220
0.0
230
1.0
  2
SOLID
 70
     1
 71
     0
 91
        1
 92
        1
 93
        1
 72
     4
 94
        3
 73
     0
 74
     1
 95
       44
 96
       40
 40
0.0
 40
0.0
 40
0.0
 40
0.0
 40
1.0
 40
1.0
 40
1.0
 40
2.0
 40
2.0
 40
2.0
 40
3.0
 40
3.0
 40
3.0
 40
4.0
 40
4.0
 40
4.0
 40
5.0
 40
5.0
 40
5.0
 40
6.0
 40
6.0
 40
6.0
 40
7.0
 40
7.0
 40
7.0
 40
8.0
 40
8.0
 40
8.0
 40
9.0
 40
9.0
 40
9.0
 40
10.0
 40
10.0
 40
10.0
 40
11.0
 40
11.0
 40
11.0
 40
12.0
 40
12.0
 40
12.0
 40
13.0
 40
13.0
 40
13.0
 40
13.0
 10
107.6013563099052
 20
-164.9425590950491
 10
107.3836262752374
 20
-165.1013779969191
 10
107.2906086971357
 20
-165.175447549852
 10
107.2416883412451
 20
-165.3191080315869
 10
107.2416883412451
 20
-165.3191080315869
 10
108.0202799209116
 20
-165.3191080315869
 10
108.0202799209116
 20
-165.3191080315869
 10
108.0202799209116
 20
-165.3191080315869
 10
108.0202799209116
 20
-165.5244357225078
 10
108.0202799209116
 20
-165.5244357225078
 10
108.0202799209116
 20
-165.5244357225078
 10
106.992263428113
 20
-165.5244357225078
 10
106.992263428113
 20
-165.5244357225078
 10
107.0239583065773
 20
-165.1668348111388
 10
107.0894151207971
 20
-165.0886311436237
 10
107.474576796048
 20
-164.790285874601
 10
107.7305473906021
 20
-164.5915038651021
 10
107.7960042048218
 20
-164.5236354840427
 10
107.7960042048218
 20
-164.3861761741812
 10
107.7960042048218
 20
-164.2676648894887
 10
107.7240017091801
 20
-164.1367512610491
 10
107.5272867569723
 20
-164.1367512610491
 10
107.267182047836
 20
-164.1367512610491
 10
107.2589138186714
 20
-164.3672281490124
 10
107.2544351945406
 20
-164.4836723764138
 10
107.2544351945406
 20
-164.4836723764138
 10
107.0301594784508
 20
-164.4836723764138
 10
107.0301594784508
 20
-164.4836723764138
 10
107.0387722171639
 20
-164.3565483530081
 10
107.0494520131682
 20
-164.2445827497375
 10
107.1297227379745
 20
-164.1260714650449
 10
107.239621283954
 20
-163.9651855058837
 10
107.426000949706
 20
-163.9314235701283
 10
107.5421006675589
 20
-163.9314235701283
 10
107.8194308541215
 20
-163.9314235701283
 10
108.0268256023336
 20
-164.1153916690406
 10
108.0268256023336
 20
-164.3882432314724
 10
108.0268256023336
 20
-164.616997571693
 10
107.9103813749321
 20
-164.7162163216682
 10
107.6013563099052
 20
-164.9425590950491
 97
        0
 97
        0
 75
     2
 76
     1
 98
        0
  0
SPLINE
  5
107
330
101
100
AcDbEntity
  8
_U+30EC_U+30A4_U+30E4_U+30FC 1
370
     0
100
AcDbSpline
210
0.0
220
0.0
230
1.0
 70
    11
 71
     3
 72
    26
 73
    22
 74
     0
 42
0.0000000001
 43
0.0000000001
 12
1.0
 22
0.0
 32
0.0
 13
1.0
 23
0.0
 33
0.0
 40
0.0
 40
0.0
 40
0.0
 40
0.0
 40
1.0
 40
1.0
 40
1.0
 40
2.0
 40
2.0
 40
2.0
 40
3.0
 40
3.0
 40
3.0
 40
4.0
 40
4.0
 40
4.0
 40
5.0
 40
5.0
 40
5.0
 40
6.0
 40
6.0
 40
6.0
 40
7.0
 40
7.0
 40
7.0
 40
7.0
 10
108.5962998860454
 20
-165.5244357225078
 30
0.0
 10
108.5962998860454
 20
-165.5244357225078
 30
0.0
 10
108.3592773166602
 20
-165.5244357225078
 30
0.0
 10
108.3592773166602
 20
-165.5244357225078
 30
0.0
 10
108.384771023251
 20
-165.2154106574809
 30
0.0
 10
108.5773518608765
 20
-164.6972682964993
 30
0.0
 10
108.9835286185875
 20
-164.1915282792646
 30
0.0
 10
108.9835286185875
 20
-164.1915282792646
 30
0.0
 10
108.1456813965747
 20
-164.1915282792646
 30
0.0
 10
108.1456813965747
 20
-164.1915282792646
 30
0.0
 10
108.1456813965747
 20
-164.1915282792646
 30
0.0
 10
108.1456813965747
 20
-163.9799994164703
 30
0.0
 10
108.1456813965747
 20
-163.9799994164703
 30
0.0
 10
108.1456813965747
 20
-163.9799994164703
 30
0.0
 10
109.2205511879726
 20
-163.9799994164703
 30
0.0
 10
109.2205511879726
 20
-163.9799994164703
 30
0.0
 10
109.2205511879726
 20
-163.9799994164703
 30
0.0
 10
109.2205511879726
 20
-164.1915282792646
 30
0.0
 10
109.2205511879726
 20
-164.1915282792646
 30
0.0
 10
108.8967122123592
 20
-164.4816053191227
 30
0.0
 10
108.6300618218008
 20
-165.0738172330371
 30
0.0
 10
108.5962998860454
 20
-165.5244357225078
 30
0.0
  0
HATCH
  5
108
330
101
100
AcDbEntity
  8
_U+30EC_U+30A4_U+30E4_U+30FC 1
 62
   179
420
  2234388
100
AcDbHatch
 10
0.0
 20
0.0
 30
0.0
210
0.0
220
0.0
230
1.0
  2
SOLID
 70
     1
 71
     0
 91
        1
 92
        1
 93
        1
 72
     4
 94
        3
 73
     0
 74
     1
 95
       26
 96
       22
 40
0.0
 40
0.0
 40
0.0
 40
0.0
 40
1.0
 40
1.0
 40
1.0
 40
2.0
 40
2.0
 40
2.0
 40
3.0
 40
3.0
 40
3.0
 40
4.0
 40
4.0
 40
4.0
 40
5.0
 40
5.0
 40
5.0
 40
6.0
 40
6.0
 40
6.0
 40
7.0
 40
7.0
 40
7.0
 40
7.0
 10
108.5962998860454
 20
-165.5244357225078
 10
108.5962998860454
 20
-165.5244357225078
 10
108.3592773166602
 20
-165.5244357225078
 10
108.3592773166602
 20
-165.5244357225078
 10
108.384771023251
 20
-165.2154106574809
 10
108.5773518608765
 20
-164.6972682964993
 10
108.9835286185875
 20
-164.1915282792646
 10
108.9835286185875
 20
-164.1915282792646
 10
108.1456813965747
 20
-164.1915282792646
 10
108.1456813965747
 20
-164.1915282792646
 10
108.1456813965747
 20
-164.1915282792646
 10
108.1456813965747
 20
-163.9799994164703
 10
108.1456813965747
 20
-163.9799994164703
 10
108.1456813965747
 20
-163.9799994164703
 10
109.2205511879726
 20
-163.9799994164703
 10
109.2205511879726
 20
-163.9799994164703
 10
109.2205511879726
 20
-163.9799994164703
 10
109.2205511879726
 20
-164.1915282792646
 10
109.2205511879726
 20
-164.1915282792646
 10
108.8967122123592
 20
-164.4816053191227
 10
108.6300618218008
 20
-165.0738172330371
 10
108.5962998860454
 20
-165.5244357225078
 97
        0
 97
        0
 75
     2
 76
     1
 98
        0
  0
POLYLINE
  5
109
330
101
100
AcDbEntity
  8
_U+30EC_U+30A4_U+30E4_U+30FC 1
370
     0
100
AcDb2dPolyline
 66
     1
 10
0.0
 20
0.0
 30
0.0
  0
VERTEX
  5
10A
330
109
100
AcDbEntity
  8
_U+30EC_U+30A4_U+30E4_U+30FC 1
370
     0
100
AcDbVertex
100
AcDb2dVertex
 10
109.4220892738598
 20
-165.5244357225078
 30
0.0
  0
VERTEX
  5
10B
330
109
100
AcDbEntity
  8
_U+30EC_U+30A4_U+30E4_U+30FC 1
370
     0
100
AcDbVertex
100
AcDb2dVertex
 10
109.4220892738598
 20
-165.272599242536
 30
0.0
  0
VERTEX
  5
10C
330
109
100
AcDbEntity
  8
_U+30EC_U+30A4_U+30E4_U+30FC 1
370
     0
100
AcDbVertex
100
AcDb2dVertex
 10
109.6739257538315
 20
-165.272599242536
 30
0.0
  0
VERTEX
  5
10D
330
109
100
AcDbEntity
  8
_U+30EC_U+30A4_U+30E4_U+30FC 1
370
     0
100
AcDbVertex
100
AcDb2dVertex
 10
109.6739257538315
 20
-165.5244357225078
 30
0.0
  0
VERTEX
  5
10E
330
109
100
AcDbEntity
  8
_U+30EC_U+30A4_U+30E4_U+30FC 1
370
     0
100
AcDbVertex
100
AcDb2dVertex
 10
109.4220892738598
 20
-165.5244357225078
 30
0.0
  0
SEQEND
  5
10F
330
109
100
AcDbEntity
  8
_U+30EC_U+30A4_U+30E4_U+30FC 1
370
     0
  0
HATCH
  5
110
330
101
100
AcDbEntity
  8
_U+30EC_U+30A4_U+30E4_U+30FC 1
 62
   179
420
  2234388
100
AcDbHatch
 10
0.0
 20
0.0
 30
0.0
210
0.0
220
0.0
230
1.0
  2
SOLID
 70
     1
 71
     0
 91
        1
 92
        1
 93
        4
 72
     1
 10
109.4220892738598
 20
-165.5244357225078
 11
109.4220892738598
 21
-165.272599242536
 72
     1
 10
109.4220892738598
 20
-165.272599242536
 11
109.6739257538315
 21
-165.272599242536
 72
     1
 10
109.6739257538315
 20
-165.272599242536
 11
109.6739257538315
 21
-165.5244357225078
 72
     1
 10
109.6739257538315
 20
-165.5244357225078
 11
109.4220892738598
 21
-165.5244357225078
 97
        0
 75
     2
 76
     1
 98
        0
  0
SPLINE
  5
111
330
101
100
AcDbEntity
  8
_U+30EC_U+30A4_U+30E4_U+30FC 1
370
     0
100
AcDbSpline
210
0.0
220
0.0
230
1.0
 70
    11
 71
     3
 72
    53
 73
    49
 74
     0
 42
0.0000000001
 43
0.0000000001
 12
1.0
 22
0.0
 32
0.0
 13
1.0
 23
0.0
 33
0.0
 40
0.0
 40
0.0
 40
0.0
 40
0.0
 40
1.0
 40
1.0
 40
1.0
 40
2.0
 40
2.0
 40
2.0
 40
3.0
 40
3.0
 40
3.0
 40
4.0
 40
4.0
 40
4.0
 40
5.0
 40
5.0
 40
5.0
 40
6.0
 40
6.0
 40
6.0
 40
7.0
 40
7.0
 40
7.0
 40
8.0
 40
8.0
 40
8.0
 40
9.0
 40
9.0
 40
9.0
 40
10.0
 40
10.0
 40
10.0
 40
11.0
 40
11.0
 40
11.0
 40
12.0
 40
12.0
 40
12.0
 40
13.0
 40
13.0
 40
13.0
 40
14.0
 40
14.0
 40
14.0
 40
15.0
 40
15.0
 40
15.0
 40
16.0
 40
16.0
 40
16.0
 40
16.0
 10
110.3911946338605
 20
-165.575078626141
 30
0.0
 10
110.3129909663454
 20
-165.575078626141
 30
0.0
 10
110.2113606495305
 20
-165.5581976582632
 30
0.0
 10
110.1097303327156
 20
-165.4948079013346
 30
0.0
 10
109.9364420298076
 20
-165.3849093553552
 30
0.0
 10
109.915082437799
 20
-165.2536512173671
 30
0.0
 10
109.8961344126301
 20
-165.1458197286788
 30
0.0
 10
109.8961344126301
 20
-165.1458197286788
 30
0.0
 10
110.1183430714288
 20
-165.1458197286788
 30
0.0
 10
110.1183430714288
 20
-165.1458197286788
 30
0.0
 10
110.1731200896442
 20
-165.3446017381777
 30
0.0
 10
110.3002441130499
 20
-165.3742295593509
 30
0.0
 10
110.3932616911517
 20
-165.3742295593509
 30
0.0
 10
110.5327880583043
 20
-165.3742295593509
 30
0.0
 10
110.6850612787524
 20
-165.2746662998272
 30
0.0
 10
110.6850612787524
 20
-165.0421223545728
 30
0.0
 10
110.6850612787524
 20
-164.7861517600188
 30
0.0
 10
110.5052272944223
 20
-164.7162163216682
 30
0.0
 10
110.3846489524386
 20
-164.7162163216682
 30
0.0
 10
110.3529540739743
 20
-164.7162163216682
 30
0.0
 10
110.2113606495305
 20
-164.7162163216682
 30
0.0
 10
110.1224771860111
 20
-164.8454074023651
 30
0.0
 10
110.1224771860111
 20
-164.8454074023651
 30
0.0
 10
109.9467773162633
 20
-164.8264593771962
 30
0.0
 10
109.9467773162633
 20
-164.8264593771962
 30
0.0
 10
109.9467773162633
 20
-164.8264593771962
 30
0.0
 10
110.0673556582471
 20
-163.9799994164703
 30
0.0
 10
110.0673556582471
 20
-163.9799994164703
 30
0.0
 10
110.0673556582471
 20
-163.9799994164703
 30
0.0
 10
110.8459472379135
 20
-163.9799994164703
 30
0.0
 10
110.8459472379135
 20
-163.9799994164703
 30
0.0
 10
110.8459472379135
 20
-163.9799994164703
 30
0.0
 10
110.8459472379135
 20
-164.1746473113869
 30
0.0
 10
110.8459472379135
 20
-164.1746473113869
 30
0.0
 10
110.8459472379135
 20
-164.1746473113869
 30
0.0
 10
110.2303086746994
 20
-164.1746473113869
 30
0.0
 10
110.2303086746994
 20
-164.1746473113869
 30
0.0
 10
110.2303086746994
 20
-164.1746473113869
 30
0.0
 10
110.1648518604796
 20
-164.5977050369756
 30
0.0
 10
110.1648518604796
 20
-164.5977050369756
 30
0.0
 10
110.2261745601171
 20
-164.5639431012201
 30
0.0
 10
110.3085123422145
 20
-164.5236354840427
 30
0.0
 10
110.4270236269071
 20
-164.5236354840427
 30
0.0
 10
110.6809271641701
 20
-164.5236354840427
 30
0.0
 10
110.9179497335552
 20
-164.7100151497947
 30
0.0
 10
110.9179497335552
 20
-165.0231743294039
 30
0.0
 10
110.9179497335552
 20
-165.3404676235955
 30
0.0
 10
110.6936740174655
 20
-165.575078626141
 30
0.0
 10
110.3911946338605
 20
-165.575078626141
 30
0.0
  0
HATCH
  5
112
330
101
100
AcDbEntity
  8
_U+30EC_U+30A4_U+30E4_U+30FC 1
 62
   179
420
  2234388
100
AcDbHatch
 10
0.0
 20
0.0
 30
0.0
210
0.0
220
0.0
230
1.0
  2
SOLID
 70
     1
 71
     0
 91
        1
 92
        1
 93
        1
 72
     4
 94
        3
 73
     0
 74
     1
 95
       53
 96
       49
 40
0.0
 40
0.0
 40
0.0
 40
0.0
 40
1.0
 40
1.0
 40
1.0
 40
2.0
 40
2.0
 40
2.0
 40
3.0
 40
3.0
 40
3.0
 40
4.0
 40
4.0
 40
4.0
 40
5.0
 40
5.0
 40
5.0
 40
6.0
 40
6.0
 40
6.0
 40
7.0
 40
7.0
 40
7.0
 40
8.0
 40
8.0
 40
8.0
 40
9.0
 40
9.0
 40
9.0
 40
10.0
 40
10.0
 40
10.0
 40
11.0
 40
11.0
 40
11.0
 40
12.0
 40
12.0
 40
12.0
 40
13.0
 40
13.0
 40
13.0
 40
14.0
 40
14.0
 40
14.0
 40
15.0
 40
15.0
 40
15.0
 40
16.0
 40
16.0
 40
16.0
 40
16.0
 10
110.3911946338605
 20
-165.575078626141
 10
110.3129909663454
 20
-165.575078626141
 10
110.2113606495305
 20
-165.5581976582632
 10
110.1097303327156
 20
-165.4948079013346
 10
109.9364420298076
 20
-165.3849093553552
 10
109.915082437799
 20
-165.2536512173671
 10
109.8961344126301
 20
-165.1458197286788
 10
109.8961344126301
 20
-165.1458197286788
 10
110.1183430714288
 20
-165.1458197286788
 10
110.1183430714288
 20
-165.1458197286788
 10
110.1731200896442
 20
-165.3446017381777
 10
110.3002441130499
 20
-165.3742295593509
 10
110.3932616911517
 20
-165.3742295593509
 10
110.5327880583043
 20
-165.3742295593509
 10
110.6850612787524
 20
-165.2746662998272
 10
110.6850612787524
 20
-165.0421223545728
 10
110.6850612787524
 20
-164.7861517600188
 10
110.5052272944223
 20
-164.7162163216682
 10
110.3846489524386
 20
-164.7162163216682
 10
110.3529540739743
 20
-164.7162163216682
 10
110.2113606495305
 20
-164.7162163216682
 10
110.1224771860111
 20
-164.8454074023651
 10
110.1224771860111
 20
-164.8454074023651
 10
109.9467773162633
 20
-164.8264593771962
 10
109.9467773162633
 20
-164.8264593771962
 10
109.9467773162633
 20
-164.8264593771962
 10
110.0673556582471
 20
-163.9799994164703
 10
110.0673556582471
 20
-163.9799994164703
 10
110.0673556582471
 20
-163.9799994164703
 10
110.8459472379135
 20
-163.9799994164703
 10
110.8459472379135
 20
-163.9799994164703
 10
110.8459472379135
 20
-163.9799994164703
 10
110.8459472379135
 20
-164.1746473113869
 10
110.8459472379135
 20
-164.1746473113869
 10
110.8459472379135
 20
-164.1746473113869
 10
110.2303086746994
 20
-164.1746473113869
 10
110.2303086746994
 20
-164.1746473113869
 10
110.2303086746994
 20
-164.1746473113869
 10
110.1648518604796
 20
-164.5977050369756
 10
110.1648518604796
 20
-164.5977050369756
 10
110.2261745601171
 20
-164.5639431012201
 10
110.3085123422145
 20
-164.5236354840427
 10
110.4270236269071
 20
-164.5236354840427
 10
110.6809271641701
 20
-164.5236354840427
 10
110.9179497335552
 20
-164.7100151497947
 10
110.9179497335552
 20
-165.0231743294039
 10
110.9179497335552
 20
-165.3404676235955
 10
110.6936740174655
 20
-165.575078626141
 10
110.3911946338605
 20
-165.575078626141
 97
        0
 97
        0
 75
     2
 76
     1
 98
        0
  0
ENDBLK
  5
104
330
101
100
AcDbEntity
  8
0
100
AcDbBlockEnd
  0
BLOCK
  5
11D
330
11B
100
AcDbEntity
  8
0
100
AcDbBlockBegin
  2
block 5
 70
     0
 10
0.0
 20
0.0
 30
0.0
  3
block 5
  1

  0
SPLINE
  5
11F
330
11B
100
AcDbEntity
  8
_U+30EC_U+30A4_U+30E4_U+30FC 1
370
     0
100
AcDbSpline
210
0.0
220
0.0
230
1.0
 70
    11
 71
     3
 72
    44
 73
    40
 74
     0
 42
0.0000000001
 43
0.0000000001
 12
1.0
 22
0.0
 32
0.0
 13
1.0
 23
0.0
 33
0.0
 40
0.0
 40
0.0
 40
0.0
 40
0.0
 40
1.0
 40
1.0
 40
1.0
 40
2.0
 40
2.0
 40
2.0
 40
3.0
 40
3.0
 40
3.0
 40
4.0
 40
4.0
 40
4.0
 40
5.0
 40
5.0
 40
5.0
 40
6.0
 40
6.0
 40
6.0
 40
7.0
 40
7.0
 40
7.0
 40
8.0
 40
8.0
 40
8.0
 40
9.0
 40
9.0
 40
9.0
 40
10.0
 40
10.0
 40
10.0
 40
11.0
 40
11.0
 40
11.0
 40
12.0
 40
12.0
 40
12.0
 40
13.0
 40
13.0
 40
13.0
 40
13.0
 10
100.2812174228464
 20
-164.9425590950491
 30
0.0
 10
100.0634873881786
 20
-165.1013779969191
 30
0.0
 10
99.97046981007684
 20
-165.175447549852
 30
0.0
 10
99.92154945418629
 20
-165.3191080315869
 30
0.0
 10
99.92154945418629
 20
-165.3191080315869
 30
0.0
 10
100.7001410338527
 20
-165.3191080315869
 30
0.0
 10
100.7001410338527
 20
-165.3191080315869
 30
0.0
 10
100.7001410338527
 20
-165.3191080315869
 30
0.0
 10
100.7001410338527
 20
-165.5244357225078
 30
0.0
 10
100.7001410338527
 20
-165.5244357225078
 30
0.0
 10
100.7001410338527
 20
-165.5244357225078
 30
0.0
 10
99.6721245410542
 20
-165.5244357225078
 30
0.0
 10
99.6721245410542
 20
-165.5244357225078
 30
0.0
 10
99.7038194195185
 20
-165.1668348111388
 30
0.0
 10
99.76927623373824
 20
-165.0886311436237
 30
0.0
 10
100.1544379089892
 20
-164.790285874601
 30
0.0
 10
100.4104085035432
 20
-164.5915038651021
 30
0.0
 10
100.475865317763
 20
-164.5236354840427
 30
0.0
 10
100.475865317763
 20
-164.3861761741812
 30
0.0
 10
100.475865317763
 20
-164.2676648894887
 30
0.0
 10
100.4038628221213
 20
-164.1367512610491
 30
0.0
 10
100.2071478699135
 20
-164.1367512610491
 30
0.0
 10
99.94704316077713
 20
-164.1367512610491
 30
0.0
 10
99.93877493161253
 20
-164.3672281490124
 30
0.0
 10
99.9342963074817
 20
-164.4836723764138
 30
0.0
 10
99.9342963074817
 20
-164.4836723764138
 30
0.0
 10
99.71002059139194
 20
-164.4836723764138
 30
0.0
 10
99.71002059139194
 20
-164.4836723764138
 30
0.0
 10
99.71863333010506
 20
-164.3565483530081
 30
0.0
 10
99.72931312610935
 20
-164.2445827497375
 30
0.0
 10
99.80958385091566
 20
-164.1260714650449
 30
0.0
 10
99.91948239689513
 20
-163.9651855058837
 30
0.0
 10
100.1058620626471
 20
-163.9314235701283
 30
0.0
 10
100.2219617805001
 20
-163.9314235701283
 30
0.0
 10
100.4992919670627
 20
-163.9314235701283
 30
0.0
 10
100.7066867152747
 20
-164.1153916690406
 30
0.0
 10
100.7066867152747
 20
-164.3882432314724
 30
0.0
 10
100.7066867152747
 20
-164.616997571693
 30
0.0
 10
100.5902424878733
 20
-164.7162163216682
 30
0.0
 10
100.2812174228464
 20
-164.9425590950491
 30
0.0
  0
HATCH
  5
120
330
11B
100
AcDbEntity
  8
_U+30EC_U+30A4_U+30E4_U+30FC 1
 62
   179
420
  2234388
100
AcDbHatch
 10
0.0
 20
0.0
 30
0.0
210
0.0
220
0.0
230
1.0
  2
SOLID
 70
     1
 71
     0
 91
        1
 92
        1
 93
        1
 72
     4
 94
        3
 73
     0
 74
     1
 95
       44
 96
       40
 40
0.0
 40
0.0
 40
0.0
 40
0.0
 40
1.0
 40
1.0
 40
1.0
 40
2.0
 40
2.0
 40
2.0
 40
3.0
 40
3.0
 40
3.0
 40
4.0
 40
4.0
 40
4.0
 40
5.0
 40
5.0
 40
5.0
 40
6.0
 40
6.0
 40
6.0
 40
7.0
 40
7.0
 40
7.0
 40
8.0
 40
8.0
 40
8.0
 40
9.0
 40
9.0
 40
9.0
 40
10.0
 40
10.0
 40
10.0
 40
11.0
 40
11.0
 40
11.0
 40
12.0
 40
12.0
 40
12.0
 40
13.0
 40
13.0
 40
13.0
 40
13.0
 10
100.2812174228464
 20
-164.9425590950491
 10
100.0634873881786
 20
-165.1013779969191
 10
99.97046981007684
 20
-165.175447549852
 10
99.92154945418629
 20
-165.3191080315869
 10
99.92154945418629
 20
-165.3191080315869
 10
100.7001410338527
 20
-165.3191080315869
 10
100.7001410338527
 20
-165.3191080315869
 10
100.7001410338527
 20
-165.3191080315869
 10
100.7001410338527
 20
-165.5244357225078
 10
100.7001410338527
 20
-165.5244357225078
 10
100.7001410338527
 20
-165.5244357225078
 10
99.6721245410542
 20
-165.5244357225078
 10
99.6721245410542
 20
-165.5244357225078
 10
99.7038194195185
 20
-165.1668348111388
 10
99.76927623373824
 20
-165.0886311436237
 10
100.1544379089892
 20
-164.790285874601
 10
100.4104085035432
 20
-164.5915038651021
 10
100.475865317763
 20
-164.5236354840427
 10
100.475865317763
 20
-164.3861761741812
 10
100.475865317763
 20
-164.2676648894887
 10
100.4038628221213
 20
-164.1367512610491
 10
100.2071478699135
 20
-164.1367512610491
 10
99.94704316077713
 20
-164.1367512610491
 10
99.93877493161253
 20
-164.3672281490124
 10
99.9342963074817
 20
-164.4836723764138
 10
99.9342963074817
 20
-164.4836723764138
 10
99.71002059139194
 20
-164.4836723764138
 10
99.71002059139194
 20
-164.4836723764138
 10
99.71863333010506
 20
-164.3565483530081
 10
99.72931312610935
 20
-164.2445827497375
 10
99.80958385091566
 20
-164.1260714650449
 10
99.91948239689513
 20
-163.9651855058837
 10
100.1058620626471
 20
-163.9314235701283
 10
100.2219617805001
 20
-163.9314235701283
 10
100.4992919670627
 20
-163.9314235701283
 10
100.7066867152747
 20
-164.1153916690406
 10
100.7066867152747
 20
-164.3882432314724
 10
100.7066867152747
 20
-164.616997571693
 10
100.5902424878733
 20
-164.7162163216682
 10
100.2812174228464
 20
-164.9425590950491
 97
        0
 97
        0
 75
     2
 76
     1
 98
        0
  0
SPLINE
  5
121
330
11B
100
AcDbEntity
  8
_U+30EC_U+30A4_U+30E4_U+30FC 1
370
     0
100
AcDbSpline
210
0.0
220
0.0
230
1.0
 70
    11
 71
     3
 72
    26
 73
    22
 74
     0
 42
0.0000000001
 43
0.0000000001
 12
1.0
 22
0.0
 32
0.0
 13
1.0
 23
0.0
 33
0.0
 40
0.0
 40
0.0
 40
0.0
 40
0.0
 40
1.0
 40
1.0
 40
1.0
 40
2.0
 40
2.0
 40
2.0
 40
3.0
 40
3.0
 40
3.0
 40
4.0
 40
4.0
 40
4.0
 40
5.0
 40
5.0
 40
5.0
 40
6.0
 40
6.0
 40
6.0
 40
7.0
 40
7.0
 40
7.0
 40
7.0
 10
101.2761609989865
 20
-165.5244357225078
 30
0.0
 10
101.2761609989865
 20
-165.5244357225078
 30
0.0
 10
101.0391384296013
 20
-165.5244357225078
 30
0.0
 10
101.0391384296013
 20
-165.5244357225078
 30
0.0
 10
101.0646321361922
 20
-165.2154106574809
 30
0.0
 10
101.2572129738176
 20
-164.6972682964993
 30
0.0
 10
101.6633897315286
 20
-164.1915282792646
 30
0.0
 10
101.6633897315286
 20
-164.1915282792646
 30
0.0
 10
100.8255425095158
 20
-164.1915282792646
 30
0.0
 10
100.8255425095158
 20
-164.1915282792646
 30
0.0
 10
100.8255425095158
 20
-164.1915282792646
 30
0.0
 10
100.8255425095158
 20
-163.9799994164703
 30
0.0
 10
100.8255425095158
 20
-163.9799994164703
 30
0.0
 10
100.8255425095158
 20
-163.9799994164703
 30
0.0
 10
101.9004123009138
 20
-163.9799994164703
 30
0.0
 10
101.9004123009138
 20
-163.9799994164703
 30
0.0
 10
101.9004123009138
 20
-163.9799994164703
 30
0.0
 10
101.9004123009138
 20
-164.1915282792646
 30
0.0
 10
101.9004123009138
 20
-164.1915282792646
 30
0.0
 10
101.5765733253003
 20
-164.4816053191227
 30
0.0
 10
101.309922934742
 20
-165.0738172330371
 30
0.0
 10
101.2761609989865
 20
-165.5244357225078
 30
0.0
  0
HATCH
  5
122
330
11B
100
AcDbEntity
  8
_U+30EC_U+30A4_U+30E4_U+30FC 1
 62
   179
420
  2234388
100
AcDbHatch
 10
0.0
 20
0.0
 30
0.0
210
0.0
220
0.0
230
1.0
  2
SOLID
 70
     1
 71
     0
 91
        1
 92
        1
 93
        1
 72
     4
 94
        3
 73
     0
 74
     1
 95
       26
 96
       22
 40
0.0
 40
0.0
 40
0.0
 40
0.0
 40
1.0
 40
1.0
 40
1.0
 40
2.0
 40
2.0
 40
2.0
 40
3.0
 40
3.0
 40
3.0
 40
4.0
 40
4.0
 40
4.0
 40
5.0
 40
5.0
 40
5.0
 40
6.0
 40
6.0
 40
6.0
 40
7.0
 40
7.0
 40
7.0
 40
7.0
 10
101.2761609989865
 20
-165.5244357225078
 10
101.2761609989865
 20
-165.5244357225078
 10
101.0391384296013
 20
-165.5244357225078
 10
101.0391384296013
 20
-165.5244357225078
 10
101.0646321361922
 20
-165.2154106574809
 10
101.2572129738176
 20
-164.6972682964993
 10
101.6633897315286
 20
-164.1915282792646
 10
101.6633897315286
 20
-164.1915282792646
 10
100.8255425095158
 20
-164.1915282792646
 10
100.8255425095158
 20
-164.1915282792646
 10
100.8255425095158
 20
-164.1915282792646
 10
100.8255425095158
 20
-163.9799994164703
 10
100.8255425095158
 20
-163.9799994164703
 10
100.8255425095158
 20
-163.9799994164703
 10
101.9004123009138
 20
-163.9799994164703
 10
101.9004123009138
 20
-163.9799994164703
 10
101.9004123009138
 20
-163.9799994164703
 10
101.9004123009138
 20
-164.1915282792646
 10
101.9004123009138
 20
-164.1915282792646
 10
101.5765733253003
 20
-164.4816053191227
 10
101.309922934742
 20
-165.0738172330371
 10
101.2761609989865
 20
-165.5244357225078
 97
        0
 97
        0
 75
     2
 76
     1
 98
        0
  0
POLYLINE
  5
123
330
11B
100
AcDbEntity
  8
_U+30EC_U+30A4_U+30E4_U+30FC 1
370
     0
100
AcDb2dPolyline
 66
     1
 10
0.0
 20
0.0
 30
0.0
  0
VERTEX
  5
124
330
123
100
AcDbEntity
  8
_U+30EC_U+30A4_U+30E4_U+30FC 1
370
     0
100
AcDbVertex
100
AcDb2dVertex
 10
102.1019503868009
 20
-165.5244357225078
 30
0.0
  0
VERTEX
  5
125
330
123
100
AcDbEntity
  8
_U+30EC_U+30A4_U+30E4_U+30FC 1
370
     0
100
AcDbVertex
100
AcDb2dVertex
 10
102.1019503868009
 20
-165.272599242536
 30
0.0
  0
VERTEX
  5
126
330
123
100
AcDbEntity
  8
_U+30EC_U+30A4_U+30E4_U+30FC 1
370
     0
100
AcDbVertex
100
AcDb2dVertex
 10
102.3537868667727
 20
-165.272599242536
 30
0.0
  0
VERTEX
  5
127
330
123
100
AcDbEntity
  8
_U+30EC_U+30A4_U+30E4_U+30FC 1
370
     0
100
AcDbVertex
100
AcDb2dVertex
 10
102.3537868667727
 20
-165.5244357225078
 30
0.0
  0
VERTEX
  5
128
330
123
100
AcDbEntity
  8
_U+30EC_U+30A4_U+30E4_U+30FC 1
370
     0
100
AcDbVertex
100
AcDb2dVertex
 10
102.1019503868009
 20
-165.5244357225078
 30
0.0
  0
SEQEND
  5
129
330
123
100
AcDbEntity
  8
_U+30EC_U+30A4_U+30E4_U+30FC 1
370
     0
  0
HATCH
  5
12A
330
11B
100
AcDbEntity
  8
_U+30EC_U+30A4_U+30E4_U+30FC 1
 62
   179
420
  2234388
100
AcDbHatch
 10
0.0
 20
0.0
 30
0.0
210
0.0
220
0.0
230
1.0
  2
SOLID
 70
     1
 71
     0
 91
        1
 92
        1
 93
        4
 72
     1
 10
102.1019503868009
 20
-165.5244357225078
 11
102.1019503868009
 21
-165.272599242536
 72
     1
 10
102.1019503868009
 20
-165.272599242536
 11
102.3537868667727
 21
-165.272599242536
 72
     1
 10
102.3537868667727
 20
-165.272599242536
 11
102.3537868667727
 21
-165.5244357225078
 72
     1
 10
102.3537868667727
 20
-165.5244357225078
 11
102.1019503868009
 21
-165.5244357225078
 97
        0
 75
     2
 76
     1
 98
        0
  0
SPLINE
  5
12B
330
11B
100
AcDbEntity
  8
_U+30EC_U+30A4_U+30E4_U+30FC 1
370
     0
100
AcDbSpline
210
0.0
220
0.0
230
1.0
 70
    11
 71
     3
 72
    53
 73
    49
 74
     0
 42
0.0000000001
 43
0.0000000001
 12
1.0
 22
0.0
 32
0.0
 13
1.0
 23
0.0
 33
0.0
 40
0.0
 40
0.0
 40
0.0
 40
0.0
 40
1.0
 40
1.0
 40
1.0
 40
2.0
 40
2.0
 40
2.0
 40
3.0
 40
3.0
 40
3.0
 40
4.0
 40
4.0
 40
4.0
 40
5.0
 40
5.0
 40
5.0
 40
6.0
 40
6.0
 40
6.0
 40
7.0
 40
7.0
 40
7.0
 40
8.0
 40
8.0
 40
8.0
 40
9.0
 40
9.0
 40
9.0
 40
10.0
 40
10.0
 40
10.0
 40
11.0
 40
11.0
 40
11.0
 40
12.0
 40
12.0
 40
12.0
 40
13.0
 40
13.0
 40
13.0
 40
14.0
 40
14.0
 40
14.0
 40
15.0
 40
15.0
 40
15.0
 40
16.0
 40
16.0
 40
16.0
 40
16.0
 10
103.0710557468017
 20
-165.575078626141
 30
0.0
 10
102.9928520792865
 20
-165.575078626141
 30
0.0
 10
102.8912217624716
 20
-165.5581976582632
 30
0.0
 10
102.7895914456568
 20
-165.4948079013346
 30
0.0
 10
102.6163031427487
 20
-165.3849093553552
 30
0.0
 10
102.5949435507402
 20
-165.2536512173671
 30
0.0
 10
102.5759955255713
 20
-165.1458197286788
 30
0.0
 10
102.5759955255713
 20
-165.1458197286788
 30
0.0
 10
102.7982041843699
 20
-165.1458197286788
 30
0.0
 10
102.7982041843699
 20
-165.1458197286788
 30
0.0
 10
102.8529812025854
 20
-165.3446017381777
 30
0.0
 10
102.9801052259911
 20
-165.3742295593509
 30
0.0
 10
103.0731228040928
 20
-165.3742295593509
 30
0.0
 10
103.2126491712455
 20
-165.3742295593509
 30
0.0
 10
103.3649223916935
 20
-165.2746662998272
 30
0.0
 10
103.3649223916935
 20
-165.0421223545728
 30
0.0
 10
103.3649223916935
 20
-164.7861517600188
 30
0.0
 10
103.1850884073635
 20
-164.7162163216682
 30
0.0
 10
103.0645100653797
 20
-164.7162163216682
 30
0.0
 10
103.0328151869154
 20
-164.7162163216682
 30
0.0
 10
102.8912217624716
 20
-164.7162163216682
 30
0.0
 10
102.8023382989522
 20
-164.8454074023651
 30
0.0
 10
102.8023382989522
 20
-164.8454074023651
 30
0.0
 10
102.6266384292045
 20
-164.8264593771962
 30
0.0
 10
102.6266384292045
 20
-164.8264593771962
 30
0.0
 10
102.6266384292045
 20
-164.8264593771962
 30
0.0
 10
102.7472167711882
 20
-163.9799994164703
 30
0.0
 10
102.7472167711882
 20
-163.9799994164703
 30
0.0
 10
102.7472167711882
 20
-163.9799994164703
 30
0.0
 10
103.5258083508547
 20
-163.9799994164703
 30
0.0
 10
103.5258083508547
 20
-163.9799994164703
 30
0.0
 10
103.5258083508547
 20
-163.9799994164703
 30
0.0
 10
103.5258083508547
 20
-164.1746473113869
 30
0.0
 10
103.5258083508547
 20
-164.1746473113869
 30
0.0
 10
103.5258083508547
 20
-164.1746473113869
 30
0.0
 10
102.9101697876405
 20
-164.1746473113869
 30
0.0
 10
102.9101697876405
 20
-164.1746473113869
 30
0.0
 10
102.9101697876405
 20
-164.1746473113869
 30
0.0
 10
102.8447129734208
 20
-164.5977050369756
 30
0.0
 10
102.8447129734208
 20
-164.5977050369756
 30
0.0
 10
102.9060356730582
 20
-164.5639431012201
 30
0.0
 10
102.9883734551557
 20
-164.5236354840427
 30
0.0
 10
103.1068847398483
 20
-164.5236354840427
 30
0.0
 10
103.3607882771112
 20
-164.5236354840427
 30
0.0
 10
103.5978108464964
 20
-164.7100151497947
 30
0.0
 10
103.5978108464964
 20
-165.0231743294039
 30
0.0
 10
103.5978108464964
 20
-165.3404676235955
 30
0.0
 10
103.3735351304066
 20
-165.575078626141
 30
0.0
 10
103.0710557468017
 20
-165.575078626141
 30
0.0
  0
HATCH
  5
12C
330
11B
100
AcDbEntity
  8
_U+30EC_U+30A4_U+30E4_U+30FC 1
 62
   179
420
  2234388
100
AcDbHatch
 10
0.0
 20
0.0
 30
0.0
210
0.0
220
0.0
230
1.0
  2
SOLID
 70
     1
 71
     0
 91
        1
 92
        1
 93
        1
 72
     4
 94
        3
 73
     0
 74
     1
 95
       53
 96
       49
 40
0.0
 40
0.0
 40
0.0
 40
0.0
 40
1.0
 40
1.0
 40
1.0
 40
2.0
 40
2.0
 40
2.0
 40
3.0
 40
3.0
 40
3.0
 40
4.0
 40
4.0
 40
4.0
 40
5.0
 40
5.0
 40
5.0
 40
6.0
 40
6.0
 40
6.0
 40
7.0
 40
7.0
 40
7.0
 40
8.0
 40
8.0
 40
8.0
 40
9.0
 40
9.0
 40
9.0
 40
10.0
 40
10.0
 40
10.0
 40
11.0
 40
11.0
 40
11.0
 40
12.0
 40
12.0
 40
12.0
 40
13.0
 40
13.0
 40
13.0
 40
14.0
 40
14.0
 40
14.0
 40
15.0
 40
15.0
 40
15.0
 40
16.0
 40
16.0
 40
16.0
 40
16.0
 10
103.0710557468017
 20
-165.575078626141
 10
102.9928520792865
 20
-165.575078626141
 10
102.8912217624716
 20
-165.5581976582632
 10
102.7895914456568
 20
-165.4948079013346
 10
102.6163031427487
 20
-165.3849093553552
 10
102.5949435507402
 20
-165.2536512173671
 10
102.5759955255713
 20
-165.1458197286788
 10
102.5759955255713
 20
-165.1458197286788
 10
102.7982041843699
 20
-165.1458197286788
 10
102.7982041843699
 20
-165.1458197286788
 10
102.8529812025854
 20
-165.3446017381777
 10
102.9801052259911
 20
-165.3742295593509
 10
103.0731228040928
 20
-165.3742295593509
 10
103.2126491712455
 20
-165.3742295593509
 10
103.3649223916935
 20
-165.2746662998272
 10
103.3649223916935
 20
-165.0421223545728
 10
103.3649223916935
 20
-164.7861517600188
 10
103.1850884073635
 20
-164.7162163216682
 10
103.0645100653797
 20
-164.7162163216682
 10
103.0328151869154
 20
-164.7162163216682
 10
102.8912217624716
 20
-164.7162163216682
 10
102.8023382989522
 20
-164.8454074023651
 10
102.8023382989522
 20
-164.8454074023651
 10
102.6266384292045
 20
-164.8264593771962
 10
102.6266384292045
 20
-164.8264593771962
 10
102.6266384292045
 20
-164.8264593771962
 10
102.7472167711882
 20
-163.9799994164703
 10
102.7472167711882
 20
-163.9799994164703
 10
102.7472167711882
 20
-163.9799994164703
 10
103.5258083508547
 20
-163.9799994164703
 10
103.5258083508547
 20
-163.9799994164703
 10
103.5258083508547
 20
-163.9799994164703
 10
103.5258083508547
 20
-164.1746473113869
 10
103.5258083508547
 20
-164.1746473113869
 10
103.5258083508547
 20
-164.1746473113869
 10
102.9101697876405
 20
-164.1746473113869
 10
102.9101697876405
 20
-164.1746473113869
 10
102.9101697876405
 20
-164.1746473113869
 10
102.8447129734208
 20
-164.5977050369756
 10
102.8447129734208
 20
-164.5977050369756
 10
102.9060356730582
 20
-164.5639431012201
 10
102.9883734551557
 20
-164.5236354840427
 10
103.1068847398483
 20
-164.5236354840427
 10
103.3607882771112
 20
-164.5236354840427
 10
103.5978108464964
 20
-164.7100151497947
 10
103.5978108464964
 20
-165.0231743294039
 10
103.5978108464964
 20
-165.3404676235955
 10
103.3735351304066
 20
-165.575078626141
 10
103.0710557468017
 20
-165.575078626141
 97
        0
 97
        0
 75
     2
 76
     1
 98
        0
  0
ENDBLK
  5
11E
330
11B
100
AcDbEntity
  8
0
100
AcDbBlockEnd
  0
ENDSEC
  0
SECTION
  2
ENTITIES
  0
SPLINE
  5
41
330
1F
100
AcDbEntity
  8
_U+30EC_U+30A4_U+30E4_U+30FC 1
 62
   179
420
  2234388
370
     9
100
AcDbSpline
210
0.0
220
0.0
230
1.0
 70
    27
 71
     3
 72
    17
 73
    13
 74
     0
 42
0.0000000001
 43
0.0000000001
 12
1.0
 22
0.0
 32
0.0
 13
1.0
 23
0.0
 33
0.0
 40
0.0
 40
0.0
 40
0.0
 40
0.0
 40
1.0
 40
1.0
 40
1.0
 40
2.0
 40
2.0
 40
2.0
 40
3.0
 40
3.0
 40
3.0
 40
4.0
 40
4.0
 40
4.0
 40
4.0
 10
104.925669071669
 20
-130.8723788040197
 30
0.0
 10
104.925669071669
 20
-130.8723788040197
 30
0.0
 10
104.925669071669
 20
-130.8713237435273
 30
0.0
 10
104.925669071669
 20
-130.8713237435273
 30
0.0
 10
104.925669071669
 20
-130.8713237435273
 30
0.0
 10
104.925669071669
 20
-130.8723788040197
 30
0.0
 10
104.925669071669
 20
-130.8723788040197
 30
0.0
 10
104.925669071669
 20
-130.8723788040197
 30
0.0
 10
104.925669071669
 20
-130.8737945229459
 30
0.0
 10
104.925669071669
 20
-130.8737945229459
 30
0.0
 10
104.925669071669
 20
-130.8737945229459
 30
0.0
 10
104.925669071669
 20
-130.8723788040197
 30
0.0
 10
104.925669071669
 20
-130.8723788040197
 30
0.0
  0
POLYLINE
  5
42
330
1F
100
AcDbEntity
  8
_U+30EC_U+30A4_U+30E4_U+30FC 1
 62
   179
420
  2234388
370
     9
100
AcDb2dPolyline
 66
     1
 10
0.0
 20
0.0
 30
0.0
  0
VERTEX
  5
43
330
42
100
AcDbEntity
  8
_U+30EC_U+30A4_U+30E4_U+30FC 1
 62
   179
420
  2234388
370
     9
100
AcDbVertex
100
AcDb2dVertex
 10
91.80332190019914
 20
-138.4495164313165
 30
0.0
  0
VERTEX
  5
44
330
42
100
AcDbEntity
  8
_U+30EC_U+30A4_U+30E4_U+30FC 1
 62
   179
420
  2234388
370
     9
100
AcDbVertex
100
AcDb2dVertex
 10
104.9270040461695
 20
-130.8725564417556
 30
0.0
  0
SEQEND
  5
45
330
42
100
AcDbEntity
  8
_U+30EC_U+30A4_U+30E4_U+30FC 1
 62
   179
420
  2234388
370
     9
  0
POLYLINE
  5
46
330
1F
100
AcDbEntity
  8
_U+30EC_U+30A4_U+30E4_U+30FC 1
 62
   179
420
  2234388
370
     9
100
AcDb2dPolyline
 66
     1
 10
0.0
 20
0.0
 30
0.0
  0
VERTEX
  5
47
330
46
100
AcDbEntity
  8
_U+30EC_U+30A4_U+30E4_U+30FC 1
 62
   179
420
  2234388
370
     9
100
AcDbVertex
100
AcDb2dVertex
 10
104.925669071669
 20
-130.8713560412975
 30
0.0
  0
VERTEX
  5
48
330
46
100
AcDbEntity
  8
_U+30EC_U+30A4_U+30E4_U+30FC 1
 62
   179
420
  2234388
370
     9
100
AcDbVertex
100
AcDb2dVertex
 10
104.925669071669
 20
-135.4913367462514
 30
0.0
  0
SEQEND
  5
49
330
46
100
AcDbEntity
  8
_U+30EC_U+30A4_U+30E4_U+30FC 1
 62
   179
420
  2234388
370
     9
  0
POLYLINE
  5
4A
330
1F
100
AcDbEntity
  8
_U+30EC_U+30A4_U+30E4_U+30FC 1
 62
   179
420
  2234388
370
     9
100
AcDb2dPolyline
 66
     1
 10
0.0
 20
0.0
 30
0.0
  0
VERTEX
  5
4B
330
4A
100
AcDbEntity
  8
_U+30EC_U+30A4_U+30E4_U+30FC 1
 62
   179
420
  2234388
370
     9
100
AcDbVertex
100
AcDb2dVertex
 10
91.68238828274379
 20
-138.519823294024
 30
0.0
  0
VERTEX
  5
4C
330
4A
100
AcDbEntity
  8
_U+30EC_U+30A4_U+30E4_U+30FC 1
 62
   179
420
  2234388
370
     9
100
AcDbVertex
100
AcDb2dVertex
 10
91.68238828274379
 20
-142.839235566775
 30
0.0
  0
SEQEND
  5
4D
330
4A
100
AcDbEntity
  8
_U+30EC_U+30A4_U+30E4_U+30FC 1
 62
   179
420
  2234388
370
     9
  0
SPLINE
  5
4E
330
1F
100
AcDbEntity
  8
_U+30EC_U+30A4_U+30E4_U+30FC 1
370
     0
100
AcDbSpline
210
0.0
220
0.0
230
1.0
 70
    11
 71
     3
 72
    17
 73
    13
 74
     0
 42
0.0000000001
 43
0.0000000001
 12
1.0
 22
0.0
 32
0.0
 13
1.0
 23
0.0
 33
0.0
 40
0.0
 40
0.0
 40
0.0
 40
0.0
 40
1.0
 40
1.0
 40
1.0
 40
2.0
 40
2.0
 40
2.0
 40
3.0
 40
3.0
 40
3.0
 40
4.0
 40
4.0
 40
4.0
 40
4.0
 10
91.68238828274379
 20
-138.3289380893327
 30
0.0
 10
91.74870637083485
 20
-138.3289380893327
 30
0.0
 10
91.80338649573947
 20
-138.3829184292172
 30
0.0
 10
91.80338649573947
 20
-138.4499416852904
 30
0.0
 10
91.80338649573947
 20
-138.5166204318151
 30
0.0
 10
91.74870637083485
 20
-138.57130055672
 30
0.0
 10
91.68238828274379
 20
-138.57130055672
 30
0.0
 10
91.61535964370857
 20
-138.57130055672
 30
0.0
 10
91.56067951880362
 20
-138.5166204318151
 30
0.0
 10
91.56067951880362
 20
-138.4499416852904
 30
0.0
 10
91.56067951880362
 20
-138.3829184292172
 30
0.0
 10
91.61535964370857
 20
-138.3289380893327
 30
0.0
 10
91.68238828274379
 20
-138.3289380893327
 30
0.0
  0
HATCH
  5
4F
330
1F
100
AcDbEntity
  8
_U+30EC_U+30A4_U+30E4_U+30FC 1
 62
   179
420
  2234388
100
AcDbHatch
 10
0.0
 20
0.0
 30
0.0
210
0.0
220
0.0
230
1.0
  2
SOLID
 70
     1
 71
     0
 91
        1
 92
        1
 93
        2
 72
     4
 94
        3
 73
     0
 74
     0
 95
       17
 96
       13
 40
0.0
 40
0.0
 40
0.0
 40
0.0
 40
0.3527777776895833
 40
0.3527777776895833
 40
0.3527777776895833
 40
0.7055555553791667
 40
0.7055555553791667
 40
0.7055555553791667
 40
1.05833333306875
 40
1.05833333306875
 40
1.05833333306875
 40
1.411111110758333
 40
1.411111110758333
 40
1.411111110758333
 40
1.411111110758333
 10
91.68238828274379
 20
-138.3289380893327
 10
91.74870637083485
 20
-138.3289380893327
 10
91.80338649573947
 20
-138.3829184292172
 10
91.80338649573947
 20
-138.4499416852904
 10
91.80338649573947
 20
-138.5166204318151
 10
91.74870637083485
 20
-138.57130055672
 10
91.68238828274379
 20
-138.57130055672
 10
91.61535964370857
 20
-138.57130055672
 10
91.56067951880362
 20
-138.5166204318151
 10
91.56067951880362
 20
-138.4499416852904
 10
91.56067951880362
 20
-138.3829184292172
 10
91.61535964370857
 20
-138.3289380893327
 10
91.68238828274379
 20
-138.3289380893327
 97
        0
 72
     1
 10
91.68238828274379
 20
-138.3289380893327
 11
91.68238828274379
 21
-138.3289380893327
 97
        0
 75
     2
 76
     1
 98
        0
  0
POLYLINE
  5
50
330
1F
100
AcDbEntity
  8
_U+30EC_U+30A4_U+30E4_U+30FC 1
 62
   179
420
  2234388
370
     9
100
AcDb2dPolyline
 66
     1
 10
0.0
 20
0.0
 30
0.0
  0
VERTEX
  5
51
330
50
100
AcDbEntity
  8
_U+30EC_U+30A4_U+30E4_U+30FC 1
 62
   179
420
  2234388
370
     9
100
AcDbVertex
100
AcDb2dVertex
 10
118.1720935102248
 20
-138.4495164313165
 30
0.0
  0
VERTEX
  5
52
330
50
100
AcDbEntity
  8
_U+30EC_U+30A4_U+30E4_U+30FC 1
 62
   179
420
  2234388
370
     9
100
AcDbVertex
100
AcDb2dVertex
 10
105.0477008133106
 20
-130.8725564417556
 30
0.0
  0
SEQEND
  5
53
330
50
100
AcDbEntity
  8
_U+30EC_U+30A4_U+30E4_U+30FC 1
 62
   179
420
  2234388
370
     9
  0
POLYLINE
  5
54
330
1F
100
AcDbEntity
  8
_U+30EC_U+30A4_U+30E4_U+30FC 1
 62
   179
420
  2234388
370
    25
100
AcDb2dPolyline
 66
     1
 10
0.0
 20
0.0
 30
0.0
  0
VERTEX
  5
55
330
54
100
AcDbEntity
  8
_U+30EC_U+30A4_U+30E4_U+30FC 1
 62
   179
420
  2234388
370
    25
100
AcDbVertex
100
AcDb2dVertex
 10
91.80332190019914
 20
-143.671931294445
 30
0.0
  0
VERTEX
  5
56
330
54
100
AcDbEntity
  8
_U+30EC_U+30A4_U+30E4_U+30FC 1
 62
   179
420
  2234388
370
    25
100
AcDbVertex
100
AcDb2dVertex
 10
104.9270040461695
 20
-136.0949713048842
 30
0.0
  0
SEQEND
  5
57
330
54
100
AcDbEntity
  8
_U+30EC_U+30A4_U+30E4_U+30FC 1
 62
   179
420
  2234388
370
    25
  0
POLYLINE
  5
58
330
1F
100
AcDbEntity
  8
_U+30EC_U+30A4_U+30E4_U+30FC 1
 62
   179
420
  2234388
370
    25
100
AcDb2dPolyline
 66
     1
 10
0.0
 20
0.0
 30
0.0
  0
VERTEX
  5
59
330
58
100
AcDbEntity
  8
_U+30EC_U+30A4_U+30E4_U+30FC 1
 62
   179
420
  2234388
370
    25
100
AcDbVertex
100
AcDb2dVertex
 10
118.1720935102248
 20
-143.671931294445
 30
0.0
  0
VERTEX
  5
5A
330
58
100
AcDbEntity
  8
_U+30EC_U+30A4_U+30E4_U+30FC 1
 62
   179
420
  2234388
370
    25
100
AcDbVertex
100
AcDb2dVertex
 10
105.0477008133106
 20
-136.0949713048842
 30
0.0
  0
SEQEND
  5
5B
330
58
100
AcDbEntity
  8
_U+30EC_U+30A4_U+30E4_U+30FC 1
 62
   179
420
  2234388
370
    25
  0
POLYLINE
  5
5C
330
1F
100
AcDbEntity
  8
_U+30EC_U+30A4_U+30E4_U+30FC 1
 62
   179
420
  2234388
370
    25
100
AcDb2dPolyline
 66
     1
 10
0.0
 20
0.0
 30
0.0
  0
VERTEX
  5
5D
330
5C
100
AcDbEntity
  8
_U+30EC_U+30A4_U+30E4_U+30FC 1
 62
   179
420
  2234388
370
    25
100
AcDbVertex
100
AcDb2dVertex
 10
91.80332190019914
 20
-144.1746084064748
 30
0.0
  0
VERTEX
  5
5E
330
5C
100
AcDbEntity
  8
_U+30EC_U+30A4_U+30E4_U+30FC 1
 62
   179
420
  2234388
370
    25
100
AcDbVertex
100
AcDb2dVertex
 10
104.9270040461695
 20
-136.5976484169143
 30
0.0
  0
SEQEND
  5
5F
330
5C
100
AcDbEntity
  8
_U+30EC_U+30A4_U+30E4_U+30FC 1
 62
   179
420
  2234388
370
    25
  0
POLYLINE
  5
60
330
1F
100
AcDbEntity
  8
_U+30EC_U+30A4_U+30E4_U+30FC 1
 62
   179
420
  2234388
370
    25
100
AcDb2dPolyline
 66
     1
 10
0.0
 20
0.0
 30
0.0
  0
VERTEX
  5
61
330
60
100
AcDbEntity
  8
_U+30EC_U+30A4_U+30E4_U+30FC 1
 62
   179
420
  2234388
370
    25
100
AcDbVertex
100
AcDb2dVertex
 10
118.1720935102248
 20
-144.1746084064748
 30
0.0
  0
VERTEX
  5
62
330
60
100
AcDbEntity
  8
_U+30EC_U+30A4_U+30E4_U+30FC 1
 62
   179
420
  2234388
370
    25
100
AcDbVertex
100
AcDb2dVertex
 10
105.0477008133106
 20
-136.5976484169143
 30
0.0
  0
SEQEND
  5
63
330
60
100
AcDbEntity
  8
_U+30EC_U+30A4_U+30E4_U+30FC 1
 62
   179
420
  2234388
370
    25
  0
POLYLINE
  5
64
330
1F
100
AcDbEntity
  8
_U+30EC_U+30A4_U+30E4_U+30FC 1
 62
   179
420
  2234388
370
    25
100
AcDb2dPolyline
 66
     1
 10
0.0
 20
0.0
 30
0.0
  0
VERTEX
  5
65
330
64
100
AcDbEntity
  8
_U+30EC_U+30A4_U+30E4_U+30FC 1
 62
   179
420
  2234388
370
    25
100
AcDbVertex
100
AcDb2dVertex
 10
92.2608413465637
 20
-149.5664950526692
 30
0.0
  0
VERTEX
  5
66
330
64
100
AcDbEntity
  8
_U+30EC_U+30A4_U+30E4_U+30FC 1
 62
   179
420
  2234388
370
    25
100
AcDbVertex
100
AcDb2dVertex
 10
104.9269717483997
 20
-142.2537685038653
 30
0.0
  0
SEQEND
  5
67
330
64
100
AcDbEntity
  8
_U+30EC_U+30A4_U+30E4_U+30FC 1
 62
   179
420
  2234388
370
    25
  0
POLYLINE
  5
68
330
1F
100
AcDbEntity
  8
_U+30EC_U+30A4_U+30E4_U+30FC 1
 62
   179
420
  2234388
370
    25
100
AcDb2dPolyline
 66
     1
 10
0.0
 20
0.0
 30
0.0
  0
VERTEX
  5
69
330
68
100
AcDbEntity
  8
_U+30EC_U+30A4_U+30E4_U+30FC 1
 62
   179
420
  2234388
370
    25
100
AcDbVertex
100
AcDb2dVertex
 10
117.7627946347303
 20
-149.5940827313596
 30
0.0
  0
VERTEX
  5
6A
330
68
100
AcDbEntity
  8
_U+30EC_U+30A4_U+30E4_U+30FC 1
 62
   179
420
  2234388
370
    25
100
AcDbVertex
100
AcDb2dVertex
 10
105.0476254518468
 20
-142.2534832068954
 30
0.0
  0
SEQEND
  5
6B
330
68
100
AcDbEntity
  8
_U+30EC_U+30A4_U+30E4_U+30FC 1
 62
   179
420
  2234388
370
    25
  0
POLYLINE
  5
6C
330
1F
100
AcDbEntity
  8
_U+30EC_U+30A4_U+30E4_U+30FC 1
 62
   179
420
  2234388
370
    25
100
AcDb2dPolyline
 66
     1
 10
0.0
 20
0.0
 30
0.0
  0
VERTEX
  5
6D
330
6C
100
AcDbEntity
  8
_U+30EC_U+30A4_U+30E4_U+30FC 1
 62
   179
420
  2234388
370
    25
100
AcDbVertex
100
AcDb2dVertex
 10
95.28768070805775
 20
-148.7483010238074
 30
0.0
  0
VERTEX
  5
6E
330
6C
100
AcDbEntity
  8
_U+30EC_U+30A4_U+30E4_U+30FC 1
 62
   179
420
  2234388
370
    25
100
AcDbVertex
100
AcDb2dVertex
 10
104.9269717483997
 20
-143.1832337339389
 30
0.0
  0
SEQEND
  5
6F
330
6C
100
AcDbEntity
  8
_U+30EC_U+30A4_U+30E4_U+30FC 1
 62
   179
420
  2234388
370
    25
  0
POLYLINE
  5
70
330
1F
100
AcDbEntity
  8
_U+30EC_U+30A4_U+30E4_U+30FC 1
 62
   179
420
  2234388
370
    25
100
AcDb2dPolyline
 66
     1
 10
0.0
 20
0.0
 30
0.0
  0
VERTEX
  5
71
330
70
100
AcDbEntity
  8
_U+30EC_U+30A4_U+30E4_U+30FC 1
 62
   179
420
  2234388
370
    25
100
AcDbVertex
100
AcDb2dVertex
 10
114.6884129555401
 20
-148.7483010238074
 30
0.0
  0
VERTEX
  5
72
330
70
100
AcDbEntity
  8
_U+30EC_U+30A4_U+30E4_U+30FC 1
 62
   179
420
  2234388
370
    25
100
AcDbVertex
100
AcDb2dVertex
 10
105.0477008133106
 20
-143.1832337339389
 30
0.0
  0
SEQEND
  5
73
330
70
100
AcDbEntity
  8
_U+30EC_U+30A4_U+30E4_U+30FC 1
 62
   179
420
  2234388
370
    25
  0
POLYLINE
  5
74
330
1F
100
AcDbEntity
  8
_U+30EC_U+30A4_U+30E4_U+30FC 1
 62
   179
420
  2234388
370
    25
100
AcDb2dPolyline
 66
     1
 10
0.0
 20
0.0
 30
0.0
  0
VERTEX
  5
75
330
74
100
AcDbEntity
  8
_U+30EC_U+30A4_U+30E4_U+30FC 1
 62
   179
420
  2234388
370
    25
100
AcDbVertex
100
AcDb2dVertex
 10
96.16683677812301
 20
-156.1559291873065
 30
0.0
  0
VERTEX
  5
76
330
74
100
AcDbEntity
  8
_U+30EC_U+30A4_U+30E4_U+30FC 1
 62
   179
420
  2234388
370
    25
100
AcDbVertex
100
AcDb2dVertex
 10
104.9270148120929
 20
-151.0981575906027
 30
0.0
  0
SEQEND
  5
77
330
74
100
AcDbEntity
  8
_U+30EC_U+30A4_U+30E4_U+30FC 1
 62
   179
420
  2234388
370
    25
  0
POLYLINE
  5
78
330
1F
100
AcDbEntity
  8
_U+30EC_U+30A4_U+30E4_U+30FC 1
 62
   179
420
  2234388
370
    25
100
AcDb2dPolyline
 66
     1
 10
0.0
 20
0.0
 30
0.0
  0
VERTEX
  5
79
330
78
100
AcDbEntity
  8
_U+30EC_U+30A4_U+30E4_U+30FC 1
 62
   179
420
  2234388
370
    25
100
AcDbVertex
100
AcDb2dVertex
 10
113.6300796224714
 20
-156.0532707248078
 30
0.0
  0
VERTEX
  5
7A
330
78
100
AcDbEntity
  8
_U+30EC_U+30A4_U+30E4_U+30FC 1
 62
   179
420
  2234388
370
    25
100
AcDbVertex
100
AcDb2dVertex
 10
105.0477008133106
 20
-151.0981575906027
 30
0.0
  0
SEQEND
  5
7B
330
78
100
AcDbEntity
  8
_U+30EC_U+30A4_U+30E4_U+30FC 1
 62
   179
420
  2234388
370
    25
  0
POLYLINE
  5
7C
330
1F
100
AcDbEntity
  8
_U+30EC_U+30A4_U+30E4_U+30FC 1
 62
   179
420
  2234388
370
    25
100
AcDb2dPolyline
 66
     1
 10
0.0
 20
0.0
 30
0.0
  0
VERTEX
  5
7D
330
7C
100
AcDbEntity
  8
_U+30EC_U+30A4_U+30E4_U+30FC 1
 62
   179
420
  2234388
370
    25
100
AcDbVertex
100
AcDb2dVertex
 10
92.2608413465637
 20
-153.7492070131578
 30
0.0
  0
VERTEX
  5
7E
330
7C
100
AcDbEntity
  8
_U+30EC_U+30A4_U+30E4_U+30FC 1
 62
   179
420
  2234388
370
    25
100
AcDbVertex
100
AcDb2dVertex
 10
104.9269717483997
 20
-146.405786816765
 30
0.0
  0
SEQEND
  5
7F
330
7C
100
AcDbEntity
  8
_U+30EC_U+30A4_U+30E4_U+30FC 1
 62
   179
420
  2234388
370
    25
  0
POLYLINE
  5
80
330
1F
100
AcDbEntity
  8
_U+30EC_U+30A4_U+30E4_U+30FC 1
 62
   179
420
  2234388
370
    25
100
AcDb2dPolyline
 66
     1
 10
0.0
 20
0.0
 30
0.0
  0
VERTEX
  5
81
330
80
100
AcDbEntity
  8
_U+30EC_U+30A4_U+30E4_U+30FC 1
 62
   179
420
  2234388
370
    25
100
AcDbVertex
100
AcDb2dVertex
 10
117.6470178945791
 20
-153.6796053184323
 30
0.0
  0
VERTEX
  5
82
330
80
100
AcDbEntity
  8
_U+30EC_U+30A4_U+30E4_U+30FC 1
 62
   179
420
  2234388
370
    25
100
AcDbVertex
100
AcDb2dVertex
 10
105.0475500903834
 20
-146.4056845404928
 30
0.0
  0
SEQEND
  5
83
330
80
100
AcDbEntity
  8
_U+30EC_U+30A4_U+30E4_U+30FC 1
 62
   179
420
  2234388
370
    25
  0
POLYLINE
  5
84
330
1F
100
AcDbEntity
  8
_U+30EC_U+30A4_U+30E4_U+30FC 1
 62
   179
420
  2234388
370
     9
100
AcDb2dPolyline
 66
     1
 10
0.0
 20
0.0
 30
0.0
  0
VERTEX
  5
85
330
84
100
AcDbEntity
  8
_U+30EC_U+30A4_U+30E4_U+30FC 1
 62
   179
420
  2234388
370
     9
100
AcDbVertex
100
AcDb2dVertex
 10
118.2933070416886
 20
-138.519823294024
 30
0.0
  0
VERTEX
  5
86
330
84
100
AcDbEntity
  8
_U+30EC_U+30A4_U+30E4_U+30FC 1
 62
   179
420
  2234388
370
     9
100
AcDbVertex
100
AcDb2dVertex
 10
118.2933070416886
 20
-142.839235566775
 30
0.0
  0
SEQEND
  5
87
330
84
100
AcDbEntity
  8
_U+30EC_U+30A4_U+30E4_U+30FC 1
 62
   179
420
  2234388
370
     9
  0
POLYLINE
  5
88
330
1F
100
AcDbEntity
  8
_U+30EC_U+30A4_U+30E4_U+30FC 1
 62
   179
420
  2234388
370
    25
100
AcDb2dPolyline
 66
     1
 10
0.0
 20
0.0
 30
0.0
  0
VERTEX
  5
89
330
88
100
AcDbEntity
  8
_U+30EC_U+30A4_U+30E4_U+30FC 1
 62
   179
420
  2234388
370
    25
100
AcDbVertex
100
AcDb2dVertex
 10
91.68238828274379
 20
-143.78873618028
 30
0.0
  0
VERTEX
  5
8A
330
88
100
AcDbEntity
  8
_U+30EC_U+30A4_U+30E4_U+30FC 1
 62
   179
420
  2234388
370
    25
100
AcDbVertex
100
AcDb2dVertex
 10
91.68238828274379
 20
-154.068680406836
 30
0.0
  0
SEQEND
  5
8B
330
88
100
AcDbEntity
  8
_U+30EC_U+30A4_U+30E4_U+30FC 1
 62
   179
420
  2234388
370
    25
  0
POLYLINE
  5
8C
330
1F
100
AcDbEntity
  8
_U+30EC_U+30A4_U+30E4_U+30FC 1
 62
   179
420
  2234388
370
    25
100
AcDb2dPolyline
 66
     1
 10
0.0
 20
0.0
 30
0.0
  0
VERTEX
  5
8D
330
8C
100
AcDbEntity
  8
_U+30EC_U+30A4_U+30E4_U+30FC 1
 62
   179
420
  2234388
370
    25
100
AcDbVertex
100
AcDb2dVertex
 10
118.2933070416886
 20
-143.7126103359794
 30
0.0
  0
VERTEX
  5
8E
330
8C
100
AcDbEntity
  8
_U+30EC_U+30A4_U+30E4_U+30FC 1
 62
   179
420
  2234388
370
    25
100
AcDbVertex
100
AcDb2dVertex
 10
118.2933070416886
 20
-154.0091394675198
 30
0.0
  0
SEQEND
  5
8F
330
8C
100
AcDbEntity
  8
_U+30EC_U+30A4_U+30E4_U+30FC 1
 62
   179
420
  2234388
370
    25
  0
SPLINE
  5
90
330
1F
100
AcDbEntity
  8
_U+30EC_U+30A4_U+30E4_U+30FC 1
370
     0
100
AcDbSpline
210
0.0
220
0.0
230
1.0
 70
    11
 71
     3
 72
    17
 73
    13
 74
     0
 42
0.0000000001
 43
0.0000000001
 12
1.0
 22
0.0
 32
0.0
 13
1.0
 23
0.0
 33
0.0
 40
0.0
 40
0.0
 40
0.0
 40
0.0
 40
1.0
 40
1.0
 40
1.0
 40
2.0
 40
2.0
 40
2.0
 40
3.0
 40
3.0
 40
3.0
 40
4.0
 40
4.0
 40
4.0
 40
4.0
 10
118.2933070416886
 20
-138.3289380893327
 30
0.0
 10
118.2269781876742
 20
-138.3289380893327
 30
0.0
 10
118.1719427872973
 20
-138.3829184292172
 30
0.0
 10
118.1719427872973
 20
-138.4499416852904
 30
0.0
 10
118.1719427872973
 20
-138.5166204318151
 30
0.0
 10
118.2269781876742
 20
-138.57130055672
 30
0.0
 10
118.2933070416886
 20
-138.57130055672
 30
0.0
 10
118.360680190272
 20
-138.57130055672
 30
0.0
 10
118.4146605301565
 20
-138.5166204318151
 30
0.0
 10
118.4146605301565
 20
-138.4499416852904
 30
0.0
 10
118.4146605301565
 20
-138.3829184292172
 30
0.0
 10
118.360680190272
 20
-138.3289380893327
 30
0.0
 10
118.2933070416886
 20
-138.3289380893327
 30
0.0
  0
HATCH
  5
91
330
1F
100
AcDbEntity
  8
_U+30EC_U+30A4_U+30E4_U+30FC 1
 62
   179
420
  2234388
100
AcDbHatch
 10
0.0
 20
0.0
 30
0.0
210
0.0
220
0.0
230
1.0
  2
SOLID
 70
     1
 71
     0
 91
        1
 92
        1
 93
        2
 72
     4
 94
        3
 73
     0
 74
     0
 95
       17
 96
       13
 40
0.0
 40
0.0
 40
0.0
 40
0.0
 40
0.3527777776895833
 40
0.3527777776895833
 40
0.3527777776895833
 40
0.7055555553791667
 40
0.7055555553791667
 40
0.7055555553791667
 40
1.05833333306875
 40
1.05833333306875
 40
1.05833333306875
 40
1.411111110758333
 40
1.411111110758333
 40
1.411111110758333
 40
1.411111110758333
 10
118.2933070416886
 20
-138.3289380893327
 10
118.2269781876742
 20
-138.3289380893327
 10
118.1719427872973
 20
-138.3829184292172
 10
118.1719427872973
 20
-138.4499416852904
 10
118.1719427872973
 20
-138.5166204318151
 10
118.2269781876742
 20
-138.57130055672
 10
118.2933070416886
 20
-138.57130055672
 10
118.360680190272
 20
-138.57130055672
 10
118.4146605301565
 20
-138.5166204318151
 10
118.4146605301565
 20
-138.4499416852904
 10
118.4146605301565
 20
-138.3829184292172
 10
118.360680190272
 20
-138.3289380893327
 10
118.2933070416886
 20
-138.3289380893327
 97
        0
 72
     1
 10
118.2933070416886
 20
-138.3289380893327
 11
118.2933070416886
 21
-138.3289380893327
 97
        0
 75
     2
 76
     1
 98
        0
  0
SPLINE
  5
92
330
1F
100
AcDbEntity
  8
_U+30EC_U+30A4_U+30E4_U+30FC 1
370
     0
100
AcDbSpline
210
0.0
220
0.0
230
1.0
 70
    11
 71
     3
 72
    17
 73
    13
 74
     0
 42
0.0000000001
 43
0.0000000001
 12
1.0
 22
0.0
 32
0.0
 13
1.0
 23
0.0
 33
0.0
 40
0.0
 40
0.0
 40
0.0
 40
0.0
 40
1.0
 40
1.0
 40
1.0
 40
2.0
 40
2.0
 40
2.0
 40
3.0
 40
3.0
 40
3.0
 40
4.0
 40
4.0
 40
4.0
 40
4.0
 10
104.9270148120929
 20
-130.7518004620359
 30
0.0
 10
104.9936881756559
 20
-130.7518004620359
 30
0.0
 10
105.047657749617
 20
-130.8057808019204
 30
0.0
 10
105.047657749617
 20
-130.8728040579936
 30
0.0
 10
105.047657749617
 20
-130.9394828045183
 30
0.0
 10
104.9936881756559
 20
-130.9941629294232
 30
0.0
 10
104.9270148120929
 20
-130.9941629294232
 30
0.0
 10
104.8596308975861
 20
-130.9941629294232
 30
0.0
 10
104.8056505577016
 20
-130.9394828045183
 30
0.0
 10
104.8056505577016
 20
-130.8728040579936
 30
0.0
 10
104.8056505577016
 20
-130.8057808019204
 30
0.0
 10
104.8596308975861
 20
-130.7518004620359
 30
0.0
 10
104.9270148120929
 20
-130.7518004620359
 30
0.0
  0
HATCH
  5
93
330
1F
100
AcDbEntity
  8
_U+30EC_U+30A4_U+30E4_U+30FC 1
 62
   179
420
  2234388
100
AcDbHatch
 10
0.0
 20
0.0
 30
0.0
210
0.0
220
0.0
230
1.0
  2
SOLID
 70
     1
 71
     0
 91
        1
 92
        1
 93
        2
 72
     4
 94
        3
 73
     0
 74
     0
 95
       17
 96
       13
 40
0.0
 40
0.0
 40
0.0
 40
0.0
 40
0.3527777776895833
 40
0.3527777776895833
 40
0.3527777776895833
 40
0.7055555553791667
 40
0.7055555553791667
 40
0.7055555553791667
 40
1.05833333306875
 40
1.05833333306875
 40
1.05833333306875
 40
1.411111110758333
 40
1.411111110758333
 40
1.411111110758333
 40
1.411111110758333
 10
104.9270148120929
 20
-130.7518004620359
 10
104.9936881756559
 20
-130.7518004620359
 10
105.047657749617
 20
-130.8057808019204
 10
105.047657749617
 20
-130.8728040579936
 10
105.047657749617
 20
-130.9394828045183
 10
104.9936881756559
 20
-130.9941629294232
 10
104.9270148120929
 20
-130.9941629294232
 10
104.8596308975861
 20
-130.9941629294232
 10
104.8056505577016
 20
-130.9394828045183
 10
104.8056505577016
 20
-130.8728040579936
 10
104.8056505577016
 20
-130.8057808019204
 10
104.8596308975861
 20
-130.7518004620359
 10
104.9270148120929
 20
-130.7518004620359
 97
        0
 72
     1
 10
104.9270148120929
 20
-130.7518004620359
 11
104.9270148120929
 21
-130.7518004620359
 97
        0
 75
     2
 76
     1
 98
        0
  0
POLYLINE
  5
94
330
1F
100
AcDbEntity
  8
_U+30EC_U+30A4_U+30E4_U+30FC 1
 62
   179
420
  2234388
370
    25
100
AcDb2dPolyline
 66
     1
 10
0.0
 20
0.0
 30
0.0
  0
VERTEX
  5
95
330
94
100
AcDbEntity
  8
_U+30EC_U+30A4_U+30E4_U+30FC 1
 62
   179
420
  2234388
370
    25
100
AcDbVertex
100
AcDb2dVertex
 10
104.925669071669
 20
-136.0545075818175
 30
0.0
  0
VERTEX
  5
96
330
94
100
AcDbEntity
  8
_U+30EC_U+30A4_U+30E4_U+30FC 1
 62
   179
420
  2234388
370
    25
100
AcDbVertex
100
AcDb2dVertex
 10
104.925669071669
 20
-156.678248726564
 30
0.0
  0
SEQEND
  5
97
330
94
100
AcDbEntity
  8
_U+30EC_U+30A4_U+30E4_U+30FC 1
 62
   179
420
  2234388
370
    25
  0
SPLINE
  5
98
330
1F
100
AcDbEntity
  8
_U+30EC_U+30A4_U+30E4_U+30FC 1
 62
   179
420
  2234388
370
     9
100
AcDbSpline
210
0.0
220
0.0
230
1.0
 70
    27
 71
     3
 72
    17
 73
    13
 74
     0
 42
0.0000000001
 43
0.0000000001
 12
1.0
 22
0.0
 32
0.0
 13
1.0
 23
0.0
 33
0.0
 40
0.0
 40
0.0
 40
0.0
 40
0.0
 40
1.0
 40
1.0
 40
1.0
 40
2.0
 40
2.0
 40
2.0
 40
3.0
 40
3.0
 40
3.0
 40
4.0
 40
4.0
 40
4.0
 40
4.0
 10
104.925669071669
 20
-151.7703334005069
 30
0.0
 10
104.925669071669
 20
-151.7703334005069
 30
0.0
 10
104.925669071669
 20
-151.7696282325247
 30
0.0
 10
104.925669071669
 20
-151.7696282325247
 30
0.0
 10
104.925669071669
 20
-151.7696282325247
 30
0.0
 10
104.925669071669
 20
-151.7703334005069
 30
0.0
 10
104.925669071669
 20
-151.7703334005069
 30
0.0
 10
104.925669071669
 20
-151.7703334005069
 30
0.0
 10
104.925669071669
 20
-151.7717491194328
 30
0.0
 10
104.925669071669
 20
-151.7717491194328
 30
0.0
 10
104.925669071669
 20
-151.7717491194328
 30
0.0
 10
104.925669071669
 20
-151.7703334005069
 30
0.0
 10
104.925669071669
 20
-151.7703334005069
 30
0.0
  0
POLYLINE
  5
99
330
1F
100
AcDbEntity
  8
_U+30EC_U+30A4_U+30E4_U+30FC 1
 62
   179
420
  2234388
370
    25
100
AcDb2dPolyline
 66
     1
 10
0.0
 20
0.0
 30
0.0
  0
VERTEX
  5
9A
330
99
100
AcDbEntity
  8
_U+30EC_U+30A4_U+30E4_U+30FC 1
 62
   179
420
  2234388
370
    25
100
AcDbVertex
100
AcDb2dVertex
 10
96.16683677812301
 20
-157.0440801863656
 30
0.0
  0
VERTEX
  5
9B
330
99
100
AcDbEntity
  8
_U+30EC_U+30A4_U+30E4_U+30FC 1
 62
   179
420
  2234388
370
    25
100
AcDbVertex
100
AcDb2dVertex
 10
104.9270148120929
 20
-151.9743153510038
 30
0.0
  0
SEQEND
  5
9C
330
99
100
AcDbEntity
  8
_U+30EC_U+30A4_U+30E4_U+30FC 1
 62
   179
420
  2234388
370
    25
  0
POLYLINE
  5
9D
330
1F
100
AcDbEntity
  8
_U+30EC_U+30A4_U+30E4_U+30FC 1
 62
   179
420
  2234388
370
    25
100
AcDb2dPolyline
 66
     1
 10
0.0
 20
0.0
 30
0.0
  0
VERTEX
  5
9E
330
9D
100
AcDbEntity
  8
_U+30EC_U+30A4_U+30E4_U+30FC 1
 62
   179
420
  2234388
370
    25
100
AcDbVertex
100
AcDb2dVertex
 10
113.594229097578
 20
-156.9083649560935
 30
0.0
  0
VERTEX
  5
9F
330
9D
100
AcDbEntity
  8
_U+30EC_U+30A4_U+30E4_U+30FC 1
 62
   179
420
  2234388
370
    25
100
AcDbVertex
100
AcDb2dVertex
 10
105.0474747289193
 20
-151.974417627276
 30
0.0
  0
SEQEND
  5
A0
330
9D
100
AcDbEntity
  8
_U+30EC_U+30A4_U+30E4_U+30FC 1
 62
   179
420
  2234388
370
    25
  0
POLYLINE
  5
A1
330
1F
100
AcDbEntity
  8
_U+30EC_U+30A4_U+30E4_U+30FC 1
 62
   179
420
  2234388
370
    25
100
AcDb2dPolyline
 66
     1
 10
0.0
 20
0.0
 30
0.0
  0
VERTEX
  5
A2
330
A1
100
AcDbEntity
  8
_U+30EC_U+30A4_U+30E4_U+30FC 1
 62
   179
420
  2234388
370
    25
100
AcDbVertex
100
AcDb2dVertex
 10
97.74127771265267
 20
-157.7551371285978
 30
0.0
  0
VERTEX
  5
A3
330
A1
100
AcDbEntity
  8
_U+30EC_U+30A4_U+30E4_U+30FC 1
 62
   179
420
  2234388
370
    25
100
AcDbVertex
100
AcDb2dVertex
 10
104.9270040461695
 20
-153.6068276763064
 30
0.0
  0
SEQEND
  5
A4
330
A1
100
AcDbEntity
  8
_U+30EC_U+30A4_U+30E4_U+30FC 1
 62
   179
420
  2234388
370
    25
  0
POLYLINE
  5
A5
330
1F
100
AcDbEntity
  8
_U+30EC_U+30A4_U+30E4_U+30FC 1
 62
   179
420
  2234388
370
    25
100
AcDb2dPolyline
 66
     1
 10
0.0
 20
0.0
 30
0.0
  0
VERTEX
  5
A6
330
A5
100
AcDbEntity
  8
_U+30EC_U+30A4_U+30E4_U+30FC 1
 62
   179
420
  2234388
370
    25
100
AcDbVertex
100
AcDb2dVertex
 10
111.9874042654873
 20
-157.6135706189625
 30
0.0
  0
VERTEX
  5
A7
330
A5
100
AcDbEntity
  8
_U+30EC_U+30A4_U+30E4_U+30FC 1
 62
   179
420
  2234388
370
    25
100
AcDbVertex
100
AcDb2dVertex
 10
105.0475500903834
 20
-153.6070752925444
 30
0.0
  0
SEQEND
  5
A8
330
A5
100
AcDbEntity
  8
_U+30EC_U+30A4_U+30E4_U+30FC 1
 62
   179
420
  2234388
370
    25
  0
POLYLINE
  5
A9
330
1F
100
AcDbEntity
  8
_U+30EC_U+30A4_U+30E4_U+30FC 1
 62
   179
420
  2234388
370
    25
100
AcDb2dPolyline
 66
     1
 10
0.0
 20
0.0
 30
0.0
  0
VERTEX
  5
AA
330
A9
100
AcDbEntity
  8
_U+30EC_U+30A4_U+30E4_U+30FC 1
 62
   179
420
  2234388
370
    25
100
AcDbVertex
100
AcDb2dVertex
 10
97.61999958564817
 20
-160.8223325539242
 30
0.0
  0
VERTEX
  5
AB
330
A9
100
AcDbEntity
  8
_U+30EC_U+30A4_U+30E4_U+30FC 1
 62
   179
420
  2234388
370
    25
100
AcDbVertex
100
AcDb2dVertex
 10
104.9270794076333
 20
-156.6782541095257
 30
0.0
  0
SEQEND
  5
AC
330
A9
100
AcDbEntity
  8
_U+30EC_U+30A4_U+30E4_U+30FC 1
 62
   179
420
  2234388
370
    25
  0
POLYLINE
  5
AD
330
1F
100
AcDbEntity
  8
_U+30EC_U+30A4_U+30E4_U+30FC 1
 62
   179
420
  2234388
370
    25
100
AcDb2dPolyline
 66
     1
 10
0.0
 20
0.0
 30
0.0
  0
VERTEX
  5
AE
330
AD
100
AcDbEntity
  8
_U+30EC_U+30A4_U+30E4_U+30FC 1
 62
   179
420
  2234388
370
    25
100
AcDbVertex
100
AcDb2dVertex
 10
112.1107709816294
 20
-160.8223325539242
 30
0.0
  0
VERTEX
  5
AF
330
AD
100
AcDbEntity
  8
_U+30EC_U+30A4_U+30E4_U+30FC 1
 62
   179
420
  2234388
370
    25
100
AcDbVertex
100
AcDb2dVertex
 10
105.0477977066211
 20
-156.6782541095257
 30
0.0
  0
SEQEND
  5
B0
330
AD
100
AcDbEntity
  8
_U+30EC_U+30A4_U+30E4_U+30FC 1
 62
   179
420
  2234388
370
    25
  0
POLYLINE
  5
B1
330
1F
100
AcDbEntity
  8
_U+30EC_U+30A4_U+30E4_U+30FC 1
 62
   179
420
  2234388
370
     9
100
AcDb2dPolyline
 66
     1
 10
0.0
 20
0.0
 30
0.0
  0
VERTEX
  5
B2
330
B1
100
AcDbEntity
  8
_U+30EC_U+30A4_U+30E4_U+30FC 1
 62
   179
420
  2234388
370
     9
100
AcDbVertex
100
AcDb2dVertex
 10
97.86253430780977
 20
-166.7809589392889
 30
0.0
  0
VERTEX
  5
B3
330
B1
100
AcDbEntity
  8
_U+30EC_U+30A4_U+30E4_U+30FC 1
 62
   179
420
  2234388
370
     9
100
AcDbVertex
100
AcDb2dVertex
 10
104.926907152859
 20
-162.6026610073908
 30
0.0
  0
SEQEND
  5
B4
330
B1
100
AcDbEntity
  8
_U+30EC_U+30A4_U+30E4_U+30FC 1
 62
   179
420
  2234388
370
     9
  0
POLYLINE
  5
B5
330
1F
100
AcDbEntity
  8
_U+30EC_U+30A4_U+30E4_U+30FC 1
 62
   179
420
  2234388
370
     9
100
AcDb2dPolyline
 66
     1
 10
0.0
 20
0.0
 30
0.0
  0
VERTEX
  5
B6
330
B5
100
AcDbEntity
  8
_U+30EC_U+30A4_U+30E4_U+30FC 1
 62
   179
420
  2234388
370
     9
100
AcDbVertex
100
AcDb2dVertex
 10
104.925669071669
 20
-158.1093306252133
 30
0.0
  0
VERTEX
  5
B7
330
B5
100
AcDbEntity
  8
_U+30EC_U+30A4_U+30E4_U+30FC 1
 62
   179
420
  2234388
370
     9
100
AcDbVertex
100
AcDb2dVertex
 10
104.925669071669
 20
-162.6083077342096
 30
0.0
  0
SEQEND
  5
B8
330
B5
100
AcDbEntity
  8
_U+30EC_U+30A4_U+30E4_U+30FC 1
 62
   179
420
  2234388
370
     9
  0
POLYLINE
  5
B9
330
1F
100
AcDbEntity
  8
_U+30EC_U+30A4_U+30E4_U+30FC 1
 62
   179
420
  2234388
370
     9
100
AcDb2dPolyline
 66
     1
 10
0.0
 20
0.0
 30
0.0
  0
VERTEX
  5
BA
330
B9
100
AcDbEntity
  8
_U+30EC_U+30A4_U+30E4_U+30FC 1
 62
   179
420
  2234388
370
     9
100
AcDbVertex
100
AcDb2dVertex
 10
97.74127771265267
 20
-162.480457010975
 30
0.0
  0
VERTEX
  5
BB
330
B9
100
AcDbEntity
  8
_U+30EC_U+30A4_U+30E4_U+30FC 1
 62
   179
420
  2234388
370
     9
100
AcDbVertex
100
AcDb2dVertex
 10
97.74127771265267
 20
-166.7998692837259
 30
0.0
  0
SEQEND
  5
BC
330
B9
100
AcDbEntity
  8
_U+30EC_U+30A4_U+30E4_U+30FC 1
 62
   179
420
  2234388
370
     9
  0
SPLINE
  5
BD
330
1F
100
AcDbEntity
  8
_U+30EC_U+30A4_U+30E4_U+30FC 1
370
     0
100
AcDbSpline
210
0.0
220
0.0
230
1.0
 70
    11
 71
     3
 72
    17
 73
    13
 74
     0
 42
0.0000000001
 43
0.0000000001
 12
1.0
 22
0.0
 32
0.0
 13
1.0
 23
0.0
 33
0.0
 40
0.0
 40
0.0
 40
0.0
 40
0.0
 40
1.0
 40
1.0
 40
1.0
 40
2.0
 40
2.0
 40
2.0
 40
3.0
 40
3.0
 40
3.0
 40
4.0
 40
4.0
 40
4.0
 40
4.0
 10
97.74127771265267
 20
-166.6603805973052
 30
0.0
 10
97.80795107621533
 20
-166.6603805973052
 30
0.0
 10
97.8626312011206
 20
-166.7147108296999
 30
0.0
 10
97.8626312011206
 20
-166.781736777254
 30
0.0
 10
97.8626312011206
 20
-166.8484128322978
 30
0.0
 10
97.80795107621533
 20
-166.9027403732117
 30
0.0
 10
97.74127771265267
 20
-166.9027403732117
 30
0.0
 10
97.67459358316599
 20
-166.9027403732117
 30
0.0
 10
97.61991345826104
 20
-166.8484128322978
 30
0.0
 10
97.61991345826104
 20
-166.781736777254
 30
0.0
 10
97.61991345826104
 20
-166.7147108296999
 30
0.0
 10
97.67459358316599
 20
-166.6603805973052
 30
0.0
 10
97.74127771265267
 20
-166.6603805973052
 30
0.0
  0
HATCH
  5
BE
330
1F
100
AcDbEntity
  8
_U+30EC_U+30A4_U+30E4_U+30FC 1
 62
   179
420
  2234388
100
AcDbHatch
 10
0.0
 20
0.0
 30
0.0
210
0.0
220
0.0
230
1.0
  2
SOLID
 70
     1
 71
     0
 91
        1
 92
        1
 93
        2
 72
     4
 94
        3
 73
     0
 74
     0
 95
       17
 96
       13
 40
0.0
 40
0.0
 40
0.0
 40
0.0
 40
0.3527777776895833
 40
0.3527777776895833
 40
0.3527777776895833
 40
0.7055555553791667
 40
0.7055555553791667
 40
0.7055555553791667
 40
1.05833333306875
 40
1.05833333306875
 40
1.05833333306875
 40
1.411111110758333
 40
1.411111110758333
 40
1.411111110758333
 40
1.411111110758333
 10
97.74127771265267
 20
-166.6603805973052
 10
97.80795107621533
 20
-166.6603805973052
 10
97.8626312011206
 20
-166.7147108296999
 10
97.8626312011206
 20
-166.781736777254
 10
97.8626312011206
 20
-166.8484128322978
 10
97.80795107621533
 20
-166.9027403732117
 10
97.74127771265267
 20
-166.9027403732117
 10
97.67459358316599
 20
-166.9027403732117
 10
97.61991345826104
 20
-166.8484128322978
 10
97.61991345826104
 20
-166.781736777254
 10
97.61991345826104
 20
-166.7147108296999
 10
97.67459358316599
 20
-166.6603805973052
 10
97.74127771265267
 20
-166.6603805973052
 97
        0
 72
     1
 10
97.74127771265267
 20
-166.6603805973052
 11
97.74127771265267
 21
-166.6603805973052
 97
        0
 75
     2
 76
     1
 98
        0
  0
POLYLINE
  5
BF
330
1F
100
AcDbEntity
  8
_U+30EC_U+30A4_U+30E4_U+30FC 1
 62
   179
420
  2234388
370
     9
100
AcDb2dPolyline
 66
     1
 10
0.0
 20
0.0
 30
0.0
  0
VERTEX
  5
C0
330
BF
100
AcDbEntity
  8
_U+30EC_U+30A4_U+30E4_U+30FC 1
 62
   179
420
  2234388
370
     9
100
AcDbVertex
100
AcDb2dVertex
 10
112.1121382539001
 20
-166.7809589392889
 30
0.0
  0
VERTEX
  5
C1
330
BF
100
AcDbEntity
  8
_U+30EC_U+30A4_U+30E4_U+30FC 1
 62
   179
420
  2234388
370
     9
100
AcDbVertex
100
AcDb2dVertex
 10
105.0477546429275
 20
-162.6026610073908
 30
0.0
  0
SEQEND
  5
C2
330
BF
100
AcDbEntity
  8
_U+30EC_U+30A4_U+30E4_U+30FC 1
 62
   179
420
  2234388
370
     9
  0
POLYLINE
  5
C3
330
1F
100
AcDbEntity
  8
_U+30EC_U+30A4_U+30E4_U+30FC 1
 62
   179
420
  2234388
370
     9
100
AcDb2dPolyline
 66
     1
 10
0.0
 20
0.0
 30
0.0
  0
VERTEX
  5
C4
330
C3
100
AcDbEntity
  8
_U+30EC_U+30A4_U+30E4_U+30FC 1
 62
   179
420
  2234388
370
     9
100
AcDbVertex
100
AcDb2dVertex
 10
112.2327273618073
 20
-162.480457010975
 30
0.0
  0
VERTEX
  5
C5
330
C3
100
AcDbEntity
  8
_U+30EC_U+30A4_U+30E4_U+30FC 1
 62
   179
420
  2234388
370
     9
100
AcDbVertex
100
AcDb2dVertex
 10
112.2327273618073
 20
-166.7998692837259
 30
0.0
  0
SEQEND
  5
C6
330
C3
100
AcDbEntity
  8
_U+30EC_U+30A4_U+30E4_U+30FC 1
 62
   179
420
  2234388
370
     9
  0
SPLINE
  5
C7
330
1F
100
AcDbEntity
  8
_U+30EC_U+30A4_U+30E4_U+30FC 1
370
     0
100
AcDbSpline
210
0.0
220
0.0
230
1.0
 70
    11
 71
     3
 72
    17
 73
    13
 74
     0
 42
0.0000000001
 43
0.0000000001
 12
1.0
 22
0.0
 32
0.0
 13
1.0
 23
0.0
 33
0.0
 40
0.0
 40
0.0
 40
0.0
 40
0.0
 40
1.0
 40
1.0
 40
1.0
 40
2.0
 40
2.0
 40
2.0
 40
3.0
 40
3.0
 40
3.0
 40
4.0
 40
4.0
 40
4.0
 40
4.0
 10
112.2327273618073
 20
-166.6603805973052
 30
0.0
 10
112.1663985077928
 20
-166.6603805973052
 30
0.0
 10
112.1120736583598
 20
-166.7147108296999
 30
0.0
 10
112.1120736583598
 20
-166.781736777254
 30
0.0
 10
112.1120736583598
 20
-166.8484128322978
 30
0.0
 10
112.1663985077928
 20
-166.9027403732117
 30
0.0
 10
112.2327273618073
 20
-166.9027403732117
 30
0.0
 10
112.3001005103907
 20
-166.9027403732117
 30
0.0
 10
112.3547806352956
 20
-166.8484128322978
 30
0.0
 10
112.3547806352956
 20
-166.781736777254
 30
0.0
 10
112.3547806352956
 20
-166.7147108296999
 30
0.0
 10
112.3001005103907
 20
-166.6603805973052
 30
0.0
 10
112.2327273618073
 20
-166.6603805973052
 30
0.0
  0
HATCH
  5
C8
330
1F
100
AcDbEntity
  8
_U+30EC_U+30A4_U+30E4_U+30FC 1
 62
   179
420
  2234388
100
AcDbHatch
 10
0.0
 20
0.0
 30
0.0
210
0.0
220
0.0
230
1.0
  2
SOLID
 70
     1
 71
     0
 91
        1
 92
        1
 93
        2
 72
     4
 94
        3
 73
     0
 74
     0
 95
       17
 96
       13
 40
0.0
 40
0.0
 40
0.0
 40
0.0
 40
0.3527777776895833
 40
0.3527777776895833
 40
0.3527777776895833
 40
0.7055555553791667
 40
0.7055555553791667
 40
0.7055555553791667
 40
1.05833333306875
 40
1.05833333306875
 40
1.05833333306875
 40
1.411111110758333
 40
1.411111110758333
 40
1.411111110758333
 40
1.411111110758333
 10
112.2327273618073
 20
-166.6603805973052
 10
112.1663985077928
 20
-166.6603805973052
 10
112.1120736583598
 20
-166.7147108296999
 10
112.1120736583598
 20
-166.781736777254
 10
112.1120736583598
 20
-166.8484128322978
 10
112.1663985077928
 20
-166.9027403732117
 10
112.2327273618073
 20
-166.9027403732117
 10
112.3001005103907
 20
-166.9027403732117
 10
112.3547806352956
 20
-166.8484128322978
 10
112.3547806352956
 20
-166.781736777254
 10
112.3547806352956
 20
-166.7147108296999
 10
112.3001005103907
 20
-166.6603805973052
 10
112.2327273618073
 20
-166.6603805973052
 97
        0
 72
     1
 10
112.2327273618073
 20
-166.6603805973052
 11
112.2327273618073
 21
-166.6603805973052
 97
        0
 75
     2
 76
     1
 98
        0
  0
SPLINE
  5
C9
330
1F
100
AcDbEntity
  8
_U+30EC_U+30A4_U+30E4_U+30FC 1
370
     0
100
AcDbSpline
210
0.0
220
0.0
230
1.0
 70
    11
 71
     3
 72
    17
 73
    13
 74
     0
 42
0.0000000001
 43
0.0000000001
 12
1.0
 22
0.0
 32
0.0
 13
1.0
 23
0.0
 33
0.0
 40
0.0
 40
0.0
 40
0.0
 40
0.0
 40
1.0
 40
1.0
 40
1.0
 40
2.0
 40
2.0
 40
2.0
 40
3.0
 40
3.0
 40
3.0
 40
4.0
 40
4.0
 40
4.0
 40
4.0
 10
104.9270148120929
 20
-162.4814797736971
 30
0.0
 10
104.9936881756559
 20
-162.4814797736971
 30
0.0
 10
105.047657749617
 20
-162.5358100060919
 30
0.0
 10
105.047657749617
 20
-162.6028386451268
 30
0.0
 10
105.047657749617
 20
-162.6695120086897
 30
0.0
 10
104.9936881756559
 20
-162.7238422410844
 30
0.0
 10
104.9270148120929
 20
-162.7238422410844
 30
0.0
 10
104.8596308975861
 20
-162.7238422410844
 30
0.0
 10
104.8056505577016
 20
-162.6695120086897
 30
0.0
 10
104.8056505577016
 20
-162.6028386451268
 30
0.0
 10
104.8056505577016
 20
-162.5358100060919
 30
0.0
 10
104.8596308975861
 20
-162.4814797736971
 30
0.0
 10
104.9270148120929
 20
-162.4814797736971
 30
0.0
  0
HATCH
  5
CA
330
1F
100
AcDbEntity
  8
_U+30EC_U+30A4_U+30E4_U+30FC 1
 62
   179
420
  2234388
100
AcDbHatch
 10
0.0
 20
0.0
 30
0.0
210
0.0
220
0.0
230
1.0
  2
SOLID
 70
     1
 71
     0
 91
        1
 92
        1
 93
        2
 72
     4
 94
        3
 73
     0
 74
     0
 95
       17
 96
       13
 40
0.0
 40
0.0
 40
0.0
 40
0.0
 40
0.3527777776895833
 40
0.3527777776895833
 40
0.3527777776895833
 40
0.7055555553791667
 40
0.7055555553791667
 40
0.7055555553791667
 40
1.05833333306875
 40
1.05833333306875
 40
1.05833333306875
 40
1.411111110758333
 40
1.411111110758333
 40
1.411111110758333
 40
1.411111110758333
 10
104.9270148120929
 20
-162.4814797736971
 10
104.9936881756559
 20
-162.4814797736971
 10
105.047657749617
 20
-162.5358100060919
 10
105.047657749617
 20
-162.6028386451268
 10
105.047657749617
 20
-162.6695120086897
 10
104.9936881756559
 20
-162.7238422410844
 10
104.9270148120929
 20
-162.7238422410844
 10
104.8596308975861
 20
-162.7238422410844
 10
104.8056505577016
 20
-162.6695120086897
 10
104.8056505577016
 20
-162.6028386451268
 10
104.8056505577016
 20
-162.5358100060919
 10
104.8596308975861
 20
-162.4814797736971
 10
104.9270148120929
 20
-162.4814797736971
 97
        0
 72
     1
 10
104.9270148120929
 20
-162.4814797736971
 11
104.9270148120929
 21
-162.4814797736971
 97
        0
 75
     2
 76
     1
 98
        0
  0
SPLINE
  5
CB
330
1F
100
AcDbEntity
  8
_U+30EC_U+30A4_U+30E4_U+30FC 1
 62
   179
420
  2234388
370
    25
100
AcDbSpline
210
0.0
220
0.0
230
1.0
 70
    11
 71
     3
 72
    29
 73
    25
 74
     0
 42
0.0000000001
 43
0.0000000001
 12
1.0
 22
0.0
 32
0.0
 13
1.0
 23
0.0
 33
0.0
 40
0.0
 40
0.0
 40
0.0
 40
0.0
 40
1.0
 40
1.0
 40
1.0
 40
2.0
 40
2.0
 40
2.0
 40
3.0
 40
3.0
 40
3.0
 40
4.0
 40
4.0
 40
4.0
 40
5.0
 40
5.0
 40
5.0
 40
6.0
 40
6.0
 40
6.0
 40
7.0
 40
7.0
 40
7.0
 40
8.0
 40
8.0
 40
8.0
 40
8.0
 10
95.21394489874969
 20
-148.7483010238074
 30
0.0
 10
95.21394489874969
 20
-148.7483010238074
 30
0.0
 10
95.21394489874969
 20
-152.0132610788722
 30
0.0
 10
95.21394489874969
 20
-152.0132610788722
 30
0.0
 10
95.21394489874969
 20
-152.0132610788722
 30
0.0
 10
92.18357431438358
 20
-150.1876350027363
 30
0.0
 10
92.18357431438358
 20
-150.1876350027363
 30
0.0
 10
92.18357431438358
 20
-150.1876350027363
 30
0.0
 10
92.18322980483505
 20
-149.6249540166845
 30
0.0
 10
92.18322980483505
 20
-149.6249540166845
 30
0.0
 10
92.18322980483505
 20
-149.6249540166845
 30
0.0
 10
94.85833568320848
 20
-151.3055900195467
 30
0.0
 10
94.85833568320848
 20
-151.3055900195467
 30
0.0
 10
94.85833568320848
 20
-151.3055900195467
 30
0.0
 10
94.85833568320848
 20
-148.8534302657245
 30
0.0
 10
94.85833568320848
 20
-148.8534302657245
 30
0.0
 10
94.85833568320848
 20
-148.8534302657245
 30
0.0
 10
94.32176206138082
 20
-148.3764783276384
 30
0.0
 10
94.32176206138082
 20
-148.3764783276384
 30
0.0
 10
94.32176206138082
 20
-148.3764783276384
 30
0.0
 10
94.74792037290622
 20
-148.1305900203404
 30
0.0
 10
94.74792037290622
 20
-148.1305900203404
 30
0.0
 10
94.74792037290622
 20
-148.1305900203404
 30
0.0
 10
95.21394489874969
 20
-148.5267598522591
 30
0.0
 10
95.21394489874969
 20
-148.7483010238074
 30
0.0
  0
SPLINE
  5
CC
330
1F
100
AcDbEntity
  8
_U+30EC_U+30A4_U+30E4_U+30FC 1
 62
   179
420
  2234388
370
    25
100
AcDbSpline
210
0.0
220
0.0
230
1.0
 70
    11
 71
     3
 72
    29
 73
    25
 74
     0
 42
0.0000000001
 43
0.0000000001
 12
1.0
 22
0.0
 32
0.0
 13
1.0
 23
0.0
 33
0.0
 40
0.0
 40
0.0
 40
0.0
 40
0.0
 40
1.0
 40
1.0
 40
1.0
 40
2.0
 40
2.0
 40
2.0
 40
3.0
 40
3.0
 40
3.0
 40
4.0
 40
4.0
 40
4.0
 40
5.0
 40
5.0
 40
5.0
 40
6.0
 40
6.0
 40
6.0
 40
7.0
 40
7.0
 40
7.0
 40
8.0
 40
8.0
 40
8.0
 40
8.0
 10
114.8309968449359
 20
-148.7483010238074
 30
0.0
 10
114.8309968449359
 20
-148.7483010238074
 30
0.0
 10
114.8309968449359
 20
-152.0132610788722
 30
0.0
 10
114.8309968449359
 20
-152.0132610788722
 30
0.0
 10
114.8309968449359
 20
-152.0132610788722
 30
0.0
 10
117.762923825811
 20
-150.1932817295551
 30
0.0
 10
117.762923825811
 20
-150.1932817295551
 30
0.0
 10
117.762923825811
 20
-150.1932817295551
 30
0.0
 10
117.7615134898467
 20
-149.6454200370515
 30
0.0
 10
117.7615134898467
 20
-149.6454200370515
 30
0.0
 10
117.7615134898467
 20
-149.6454200370515
 30
0.0
 10
115.2518583221528
 20
-151.2784275948301
 30
0.0
 10
115.2518583221528
 20
-151.2784275948301
 30
0.0
 10
115.2518583221528
 20
-151.2784275948301
 30
0.0
 10
115.2518583221528
 20
-148.826267841008
 30
0.0
 10
115.2518583221528
 20
-148.826267841008
 30
0.0
 10
115.2518583221528
 20
-148.826267841008
 30
0.0
 10
115.6956512161933
 20
-148.4008200804264
 30
0.0
 10
115.6956512161933
 20
-148.4008200804264
 30
0.0
 10
115.6956512161933
 20
-148.4008200804264
 30
0.0
 10
115.2698481801398
 20
-148.1545764976564
 30
0.0
 10
115.2698481801398
 20
-148.1545764976564
 30
0.0
 10
115.2698481801398
 20
-148.1545764976564
 30
0.0
 10
114.8309968449359
 20
-148.5267598522591
 30
0.0
 10
114.8309968449359
 20
-148.7483010238074
 30
0.0
  0
SPLINE
  5
CD
330
1F
100
AcDbEntity
  8
_U+30EC_U+30A4_U+30E4_U+30FC 1
 62
   179
420
  2234388
370
    25
100
AcDbSpline
210
0.0
220
0.0
230
1.0
 70
     8
 71
     3
 72
    38
 73
    34
 74
     0
 42
0.0000000001
 43
0.0000000001
 12
1.0
 22
0.0
 32
0.0
 13
1.0
 23
0.0
 33
0.0
 40
0.0
 40
0.0
 40
0.0
 40
0.0
 40
1.0
 40
1.0
 40
1.0
 40
2.0
 40
2.0
 40
2.0
 40
3.0
 40
3.0
 40
3.0
 40
4.0
 40
4.0
 40
4.0
 40
5.0
 40
5.0
 40
5.0
 40
6.0
 40
6.0
 40
6.0
 40
7.0
 40
7.0
 40
7.0
 40
8.0
 40
8.0
 40
8.0
 40
9.0
 40
9.0
 40
9.0
 40
10.0
 40
10.0
 40
10.0
 40
11.0
 40
11.0
 40
11.0
 40
11.0
 10
91.68238828274379
 20
-154.1591679929408
 30
0.0
 10
91.68238828274379
 20
-154.1591679929408
 30
0.0
 10
95.24225927726908
 20
-156.7400935734859
 30
0.0
 10
95.24225927726908
 20
-156.7400935734859
 30
0.0
 10
95.24225927726908
 20
-156.7400935734859
 30
0.0
 10
95.56858518118598
 20
-157.0960472985759
 30
0.0
 10
95.56858518118598
 20
-157.5035052011705
 30
0.0
 10
95.56858518118598
 20
-157.5035052011705
 30
0.0
 10
96.64244297578514
 20
-157.9395358644458
 30
0.0
 10
96.90419487120039
 20
-158.4175536289476
 30
0.0
 10
97.16384741155431
 20
-158.890624451651
 30
0.0
 10
97.15149889742437
 20
-159.1513266695356
 30
0.0
 10
97.15149889742437
 20
-159.2980823542456
 30
0.0
 10
97.15149889742437
 20
-159.2980823542456
 30
0.0
 10
97.15149889742437
 20
-160.8414851316375
 30
0.0
 10
97.15149889742437
 20
-160.8414851316375
 30
0.0
 10
97.15149889742437
 20
-160.8414851316375
 30
0.0
 10
97.61998881972478
 20
-160.8224348301964
 30
0.0
 10
97.61998881972478
 20
-160.8224348301964
 30
0.0
 10
97.61998881972478
 20
-160.8224348301964
 30
0.0
 10
97.61998881972478
 20
-158.8881590551944
 30
0.0
 10
97.61998881972478
 20
-158.8881590551944
 30
0.0
 10
97.61998881972478
 20
-158.7410480950126
 30
0.0
 10
97.63233733385472
 20
-158.4806957696382
 30
0.0
 10
97.37339534444463
 20
-158.0072696714628
 30
0.0
 10
97.11092213216216
 20
-157.5292572899227
 30
0.0
 10
96.03741961303524
 20
-157.0935765191576
 30
0.0
 10
96.03741961303524
 20
-157.0935765191576
 30
0.0
 10
96.03741961303524
 20
-156.6861186165631
 30
0.0
 10
95.71110447504141
 20
-156.330164891473
 30
0.0
 10
95.71110447504141
 20
-156.330164891473
 30
0.0
 10
95.71110447504141
 20
-156.330164891473
 30
0.0
 10
92.15122271459241
 20
-153.7492446938896
 30
0.0
 10
92.15122271459241
 20
-153.7492446938896
 30
0.0
  0
SPLINE
  5
CE
330
1F
100
AcDbEntity
  8
_U+30EC_U+30A4_U+30E4_U+30FC 1
 62
   179
420
  2234388
370
    25
100
AcDbSpline
210
0.0
220
0.0
230
1.0
 70
     8
 71
     3
 72
    38
 73
    34
 74
     0
 42
0.0000000001
 43
0.0000000001
 12
1.0
 22
0.0
 32
0.0
 13
1.0
 23
0.0
 33
0.0
 40
0.0
 40
0.0
 40
0.0
 40
0.0
 40
1.0
 40
1.0
 40
1.0
 40
2.0
 40
2.0
 40
2.0
 40
3.0
 40
3.0
 40
3.0
 40
4.0
 40
4.0
 40
4.0
 40
5.0
 40
5.0
 40
5.0
 40
6.0
 40
6.0
 40
6.0
 40
7.0
 40
7.0
 40
7.0
 40
8.0
 40
8.0
 40
8.0
 40
9.0
 40
9.0
 40
9.0
 40
10.0
 40
10.0
 40
10.0
 40
11.0
 40
11.0
 40
11.0
 40
11.0
 10
118.2933070416886
 20
-154.0372116127629
 30
0.0
 10
118.2933070416886
 20
-154.0372116127629
 30
0.0
 10
114.4892972024161
 20
-156.7401958497581
 30
0.0
 10
114.4892972024161
 20
-156.7401958497581
 30
0.0
 10
114.4892972024161
 20
-156.7401958497581
 30
0.0
 10
114.1633373398945
 20
-157.0961495748481
 30
0.0
 10
114.1633373398945
 20
-157.5036074774427
 30
0.0
 10
114.1633373398945
 20
-157.5036074774427
 30
0.0
 10
113.0884137188796
 20
-157.9396435236797
 30
0.0
 10
112.8266618234643
 20
-158.4176559052198
 30
0.0
 10
112.5670092831104
 20
-158.890732110885
 30
0.0
 10
112.5800683481842
 20
-159.1514343287695
 30
0.0
 10
112.5800683481842
 20
-159.2981900134795
 30
0.0
 10
112.5800683481842
 20
-159.2981900134795
 30
0.0
 10
112.5800683481842
 20
-160.8415927908714
 30
0.0
 10
112.5800683481842
 20
-160.8415927908714
 30
0.0
 10
112.5800683481842
 20
-160.8415927908714
 30
0.0
 10
112.11086787494
 20
-160.8221872139584
 30
0.0
 10
112.11086787494
 20
-160.8221872139584
 30
0.0
 10
112.11086787494
 20
-160.8221872139584
 30
0.0
 10
112.11086787494
 20
-158.8882613314666
 30
0.0
 10
112.11086787494
 20
-158.8882613314666
 30
0.0
 10
112.11086787494
 20
-158.7411503712848
 30
0.0
 10
112.0981748512615
 20
-158.4808034288721
 30
0.0
 10
112.3574613502201
 20
-158.0073773306967
 30
0.0
 10
112.6199345625026
 20
-157.5290096736847
 30
0.0
 10
113.6941368666503
 20
-157.0936787954298
 30
0.0
 10
113.6941368666503
 20
-157.0936787954298
 30
0.0
 10
113.6941368666503
 20
-156.6862208928353
 30
0.0
 10
114.0208072801157
 20
-156.3302671677452
 30
0.0
 10
114.0208072801157
 20
-156.3302671677452
 30
0.0
 10
114.0208072801157
 20
-156.3302671677452
 30
0.0
 10
117.5803337650928
 20
-153.7493469701618
 30
0.0
 10
117.5803337650928
 20
-153.7493469701618
 30
0.0
  0
POLYLINE
  5
CF
330
1F
100
AcDbEntity
  8
_U+30EC_U+30A4_U+30E4_U+30FC 1
 62
   179
420
  2234388
370
    25
100
AcDb2dPolyline
 66
     1
 10
0.0
 20
0.0
 30
0.0
  0
VERTEX
  5
D0
330
CF
100
AcDbEntity
  8
_U+30EC_U+30A4_U+30E4_U+30FC 1
 62
   179
420
  2234388
370
    25
100
AcDbVertex
100
AcDb2dVertex
 10
117.7627946347303
 20
-144.0684886996057
 30
0.0
  0
VERTEX
  5
D1
330
CF
100
AcDbEntity
  8
_U+30EC_U+30A4_U+30E4_U+30FC 1
 62
   179
420
  2234388
370
    25
100
AcDbVertex
100
AcDb2dVertex
 10
117.7627946347303
 20
-153.6068976548084
 30
0.0
  0
SEQEND
  5
D2
330
CF
100
AcDbEntity
  8
_U+30EC_U+30A4_U+30E4_U+30FC 1
 62
   179
420
  2234388
370
    25
  0
POLYLINE
  5
D3
330
1F
100
AcDbEntity
  8
_U+30EC_U+30A4_U+30E4_U+30FC 1
 62
   179
420
  2234388
370
    25
100
AcDb2dPolyline
 66
     1
 10
0.0
 20
0.0
 30
0.0
  0
VERTEX
  5
D4
330
D3
100
AcDbEntity
  8
_U+30EC_U+30A4_U+30E4_U+30FC 1
 62
   179
420
  2234388
370
    25
100
AcDbVertex
100
AcDb2dVertex
 10
92.18366044177071
 20
-144.0715946685041
 30
0.0
  0
VERTEX
  5
D5
330
D3
100
AcDbEntity
  8
_U+30EC_U+30A4_U+30E4_U+30FC 1
 62
   179
420
  2234388
370
    25
100
AcDbVertex
100
AcDb2dVertex
 10
92.18366044177071
 20
-153.6068276763064
 30
0.0
  0
SEQEND
  5
D6
330
D3
100
AcDbEntity
  8
_U+30EC_U+30A4_U+30E4_U+30FC 1
 62
   179
420
  2234388
370
    25
  0
POLYLINE
  5
D7
330
1F
100
AcDbEntity
  8
_U+30EC_U+30A4_U+30E4_U+30FC 1
370
     0
100
AcDb2dPolyline
 66
     1
 10
0.0
 20
0.0
 30
0.0
  0
VERTEX
  5
D8
330
D7
100
AcDbEntity
  8
_U+30EC_U+30A4_U+30E4_U+30FC 1
370
     0
100
AcDbVertex
100
AcDb2dVertex
 10
113.6879356947768
 20
-136.0621621533488
 30
0.0
  0
VERTEX
  5
D9
330
D7
100
AcDbEntity
  8
_U+30EC_U+30A4_U+30E4_U+30FC 1
370
     0
100
AcDbVertex
100
AcDb2dVertex
 10
110.9539079176825
 20
-136.0621621533488
 30
0.0
  0
VERTEX
  5
DA
330
D7
100
AcDbEntity
  8
_U+30EC_U+30A4_U+30E4_U+30FC 1
370
     0
100
AcDbVertex
100
AcDb2dVertex
 10
110.9539079176825
 20
-133.7691065983665
 30
0.0
  0
VERTEX
  5
DB
330
D7
100
AcDbEntity
  8
_U+30EC_U+30A4_U+30E4_U+30FC 1
370
     0
100
AcDbVertex
100
AcDb2dVertex
 10
113.6879356947768
 20
-133.7691065983665
 30
0.0
  0
VERTEX
  5
DC
330
D7
100
AcDbEntity
  8
_U+30EC_U+30A4_U+30E4_U+30FC 1
370
     0
100
AcDbVertex
100
AcDb2dVertex
 10
113.6879356947768
 20
-136.0621621533488
 30
0.0
  0
SEQEND
  5
DE
330
D7
100
AcDbEntity
  8
_U+30EC_U+30A4_U+30E4_U+30FC 1
370
     0
  0
HATCH
  5
DD
330
1F
100
AcDbEntity
  8
_U+30EC_U+30A4_U+30E4_U+30FC 1
 62
     7
420
 16711422
100
AcDbHatch
 10
0.0
 20
0.0
 30
0.0
210
0.0
220
0.0
230
1.0
  2
SOLID
 70
     1
 71
     0
 91
        1
 92
        1
 93
        4
 72
     1
 10
113.6879356947768
 20
-136.0621621533488
 11
110.9539079176825
 21
-136.0621621533488
 72
     1
 10
110.9539079176825
 20
-136.0621621533488
 11
110.9539079176825
 21
-133.7691065983665
 72
     1
 10
110.9539079176825
 20
-133.7691065983665
 11
113.6879356947768
 21
-133.7691065983665
 72
     1
 10
113.6879356947768
 20
-133.7691065983665
 11
113.6879356947768
 21
-136.0621621533488
 97
        0
 75
     2
 76
     1
 98
        0
  0
INSERT
  5
E0
330
1F
100
AcDbEntity
  8
_U+30EC_U+30A4_U+30E4_U+30FC 1
100
AcDbBlockReference
  2
block 2
 10
0.0
 20
0.0
 30
0.0
  0
POLYLINE
  5
E8
330
1F
100
AcDbEntity
  8
_U+30EC_U+30A4_U+30E4_U+30FC 1
370
     0
100
AcDb2dPolyline
 66
     1
 10
0.0
 20
0.0
 30
0.0
  0
VERTEX
  5
E9
330
E8
100
AcDbEntity
  8
_U+30EC_U+30A4_U+30E4_U+30FC 1
370
     0
100
AcDbVertex
100
AcDb2dVertex
 10
99.4886301427714
 20
-136.0621621533488
 30
0.0
  0
VERTEX
  5
EA
330
E8
100
AcDbEntity
  8
_U+30EC_U+30A4_U+30E4_U+30FC 1
370
     0
100
AcDbVertex
100
AcDb2dVertex
 10
96.75460236567713
 20
-136.0621621533488
 30
0.0
  0
VERTEX
  5
EB
330
E8
100
AcDbEntity
  8
_U+30EC_U+30A4_U+30E4_U+30FC 1
370
     0
100
AcDbVertex
100
AcDb2dVertex
 10
96.75460236567713
 20
-133.7691065983665
 30
0.0
  0
VERTEX
  5
EC
330
E8
100
AcDbEntity
  8
_U+30EC_U+30A4_U+30E4_U+30FC 1
370
     0
100
AcDbVertex
100
AcDb2dVertex
 10
99.4886301427714
 20
-133.7691065983665
 30
0.0
  0
VERTEX
  5
ED
330
E8
100
AcDbEntity
  8
_U+30EC_U+30A4_U+30E4_U+30FC 1
370
     0
100
AcDbVertex
100
AcDb2dVertex
 10
99.4886301427714
 20
-136.0621621533488
 30
0.0
  0
SEQEND
  5
EF
330
E8
100
AcDbEntity
  8
_U+30EC_U+30A4_U+30E4_U+30FC 1
370
     0
  0
HATCH
  5
EE
330
1F
100
AcDbEntity
  8
_U+30EC_U+30A4_U+30E4_U+30FC 1
 62
     7
420
 16711422
100
AcDbHatch
 10
0.0
 20
0.0
 30
0.0
210
0.0
220
0.0
230
1.0
  2
SOLID
 70
     1
 71
     0
 91
        1
 92
        1
 93
        4
 72
     1
 10
99.4886301427714
 20
-136.0621621533488
 11
96.75460236567713
 21
-136.0621621533488
 72
     1
 10
96.75460236567713
 20
-136.0621621533488
 11
96.75460236567713
 21
-133.7691065983665
 72
     1
 10
96.75460236567713
 20
-133.7691065983665
 11
99.4886301427714
 21
-133.7691065983665
 72
     1
 10
99.4886301427714
 20
-133.7691065983665
 11
99.4886301427714
 21
-136.0621621533488
 97
        0
 75
     2
 76
     1
 98
        0
  0
INSERT
  5
F1
330
1F
100
AcDbEntity
  8
_U+30EC_U+30A4_U+30E4_U+30FC 1
100
AcDbBlockReference
  2
block 3
 10
0.0
 20
0.0
 30
0.0
  0
POLYLINE
  5
F9
330
1F
100
AcDbEntity
  8
_U+30EC_U+30A4_U+30E4_U+30FC 1
370
     0
100
AcDb2dPolyline
 66
     1
 10
0.0
 20
0.0
 30
0.0
  0
VERTEX
  5
FA
330
F9
100
AcDbEntity
  8
_U+30EC_U+30A4_U+30E4_U+30FC 1
370
     0
100
AcDbVertex
100
AcDb2dVertex
 10
111.3412550753819
 20
-165.9131609184013
 30
0.0
  0
VERTEX
  5
FB
330
F9
100
AcDbEntity
  8
_U+30EC_U+30A4_U+30E4_U+30FC 1
370
     0
100
AcDbVertex
100
AcDb2dVertex
 10
106.5787550765725
 20
-165.9131609184013
 30
0.0
  0
VERTEX
  5
FC
330
F9
100
AcDbEntity
  8
_U+30EC_U+30A4_U+30E4_U+30FC 1
370
     0
100
AcDbVertex
100
AcDb2dVertex
 10
106.5787550765725
 20
-163.620105363419
 30
0.0
  0
VERTEX
  5
FD
330
F9
100
AcDbEntity
  8
_U+30EC_U+30A4_U+30E4_U+30FC 1
370
     0
100
AcDbVertex
100
AcDb2dVertex
 10
111.3412550753819
 20
-163.620105363419
 30
0.0
  0
VERTEX
  5
FE
330
F9
100
AcDbEntity
  8
_U+30EC_U+30A4_U+30E4_U+30FC 1
370
     0
100
AcDbVertex
100
AcDb2dVertex
 10
111.3412550753819
 20
-165.9131609184013
 30
0.0
  0
SEQEND
  5
100
330
F9
100
AcDbEntity
  8
_U+30EC_U+30A4_U+30E4_U+30FC 1
370
     0
  0
HATCH
  5
FF
330
1F
100
AcDbEntity
  8
_U+30EC_U+30A4_U+30E4_U+30FC 1
 62
     7
420
 16711422
100
AcDbHatch
 10
0.0
 20
0.0
 30
0.0
210
0.0
220
0.0
230
1.0
  2
SOLID
 70
     1
 71
     0
 91
        1
 92
        1
 93
        4
 72
     1
 10
111.3412550753819
 20
-165.9131609184013
 11
106.5787550765725
 21
-165.9131609184013
 72
     1
 10
106.5787550765725
 20
-165.9131609184013
 11
106.5787550765725
 21
-163.620105363419
 72
     1
 10
106.5787550765725
 20
-163.620105363419
 11
111.3412550753819
 21
-163.620105363419
 72
     1
 10
111.3412550753819
 20
-163.620105363419
 11
111.3412550753819
 21
-165.9131609184013
 97
        0
 75
     2
 76
     1
 98
        0
  0
INSERT
  5
102
330
1F
100
AcDbEntity
  8
_U+30EC_U+30A4_U+30E4_U+30FC 1
100
AcDbBlockReference
  2
block 4
 10
0.0
 20
0.0
 30
0.0
  0
POLYLINE
  5
113
330
1F
100
AcDbEntity
  8
_U+30EC_U+30A4_U+30E4_U+30FC 1
370
     0
100
AcDb2dPolyline
 66
     1
 10
0.0
 20
0.0
 30
0.0
  0
VERTEX
  5
114
330
113
100
AcDbEntity
  8
_U+30EC_U+30A4_U+30E4_U+30FC 1
370
     0
100
AcDbVertex
100
AcDb2dVertex
 10
104.0211161883231
 20
-165.9131609184013
 30
0.0
  0
VERTEX
  5
115
330
113
100
AcDbEntity
  8
_U+30EC_U+30A4_U+30E4_U+30FC 1
370
     0
100
AcDbVertex
100
AcDb2dVertex
 10
99.25861618951369
 20
-165.9131609184013
 30
0.0
  0
VERTEX
  5
116
330
113
100
AcDbEntity
  8
_U+30EC_U+30A4_U+30E4_U+30FC 1
370
     0
100
AcDbVertex
100
AcDb2dVertex
 10
99.25861618951369
 20
-163.620105363419
 30
0.0
  0
VERTEX
  5
117
330
113
100
AcDbEntity
  8
_U+30EC_U+30A4_U+30E4_U+30FC 1
370
     0
100
AcDbVertex
100
AcDb2dVertex
 10
104.0211161883231
 20
-163.620105363419
 30
0.0
  0
VERTEX
  5
118
330
113
100
AcDbEntity
  8
_U+30EC_U+30A4_U+30E4_U+30FC 1
370
     0
100
AcDbVertex
100
AcDb2dVertex
 10
104.0211161883231
 20
-165.9131609184013
 30
0.0
  0
SEQEND
  5
11A
330
113
100
AcDbEntity
  8
_U+30EC_U+30A4_U+30E4_U+30FC 1
370
     0
  0
HATCH
  5
119
330
1F
100
AcDbEntity
  8
_U+30EC_U+30A4_U+30E4_U+30FC 1
 62
     7
420
 16711422
100
AcDbHatch
 10
0.0
 20
0.0
 30
0.0
210
0.0
220
0.0
230
1.0
  2
SOLID
 70
     1
 71
     0
 91
        1
 92
        1
 93
        4
 72
     1
 10
104.0211161883231
 20
-165.9131609184013
 11
99.25861618951369
 21
-165.9131609184013
 72
     1
 10
99.25861618951369
 20
-165.9131609184013
 11
99.25861618951369
 21
-163.620105363419
 72
     1
 10
99.25861618951369
 20
-163.620105363419
 11
104.0211161883231
 21
-163.620105363419
 72
     1
 10
104.0211161883231
 20
-163.620105363419
 11
104.0211161883231
 21
-165.9131609184013
 97
        0
 75
     2
 76
     1
 98
        0
  0
INSERT
  5
11C
330
1F
100
AcDbEntity
  8
_U+30EC_U+30A4_U+30E4_U+30FC 1
100
AcDbBlockReference
  2
block 5
 10
0.0
 20
0.0
 30
0.0
  0
ENDSEC
  0
SECTION
  2
OBJECTS
  0
DICTIONARY
  5
C
330
0
100
AcDbDictionary
281
     1
  3
ACAD_GROUP
350
D
  3
ACAD_LAYOUT
350
1A
  3
ACAD_MATERIAL
350
3B
  3
ACAD_MLEADERSTYLE
350
12E
  3
ACAD_MLINESTYLE
350
17
  3
ACAD_PLOTSETTINGS
350
19
  3
ACAD_PLOTSTYLENAME
350
E
  3
ACAD_TABLESTYLE
350
12D
  3
ACAD_VISUALSTYLE
350
2A
  0
SUN
  5
3F
330
29
100
AcDbSun
 90
        1
290
     0
 63
     7
421
 16777215
 40
1.0
291
     1
 91
  2455826
 92
 54000000
292
     0
 70
     2
 71
   256
280
     1
  0
DICTIONARY
  5
D
102
{ACAD_REACTORS
330
C
102
}
330
C
100
AcDbDictionary
281
     1
  0
DICTIONARY
  5
1A
102
{ACAD_REACTORS
330
C
102
}
330
C
100
AcDbDictionary
281
     1
  3
Layout1
350
1E
  3
Layout2
350
26
  3
Model
350
22
  0
DICTIONARY
  5
3B
102
{ACAD_REACTORS
330
C
102
}
330
C
100
AcDbDictionary
281
     1
  3
ByBlock
350
3D
  3
ByLayer
350
3C
  3
Global
350
3E
  0
DICTIONARY
  5
12E
102
{ACAD_REACTORS
330
C
102
}
330
C
100
AcDbDictionary
281
     1
  0
DICTIONARY
  5
17
102
{ACAD_REACTORS
330
C
102
}
330
C
100
AcDbDictionary
281
     1
  3
Standard
350
18
  0
DICTIONARY
  5
19
102
{ACAD_REACTORS
330
C
102
}
330
C
100
AcDbDictionary
281
     1
  0
ACDBDICTIONARYWDFLT
  5
E
102
{ACAD_REACTORS
330
C
102
}
330
C
100
AcDbDictionary
281
     1
  3
Normal
350
F
100
AcDbDictionaryWithDefault
340
F
  0
DICTIONARY
  5
12D
102
{ACAD_REACTORS
330
C
102
}
330
C
100
AcDbDictionary
281
     1
  0
DICTIONARY
  5
2A
102
{ACAD_REACTORS
330
C
102
}
330
C
100
AcDbDictionary
281
     1
  3
2dWireframe
350
2F
  3
3D Hidden
350
31
  3
3dWireframe
350
30
  3
Basic
350
32
  3
Brighten
350
36
  3
ColorChange
350
3A
  3
Conceptual
350
34
  3
Dim
350
35
  3
Facepattern
350
39
  3
Flat
350
2B
  3
FlatWithEdges
350
2C
  3
Gouraud
350
2D
  3
GouraudWithEdges
350
2E
  3
Linepattern
350
38
  3
Realistic
350
33
  3
Thicken
350
37
  0
LAYOUT
  5
1E
102
{ACAD_REACTORS
330
1A
102
}
330
1A
100
AcDbPlotSettings
  1

  2
none_device
  4

  6

 40
0.0
 41
0.0
 42
0.0
 43
0.0
 44
0.0
 45
0.0
 46
0.0
 47
0.0
 48
0.0
 49
0.0
140
0.0
141
0.0
142
1.0
143
1.0
 70
   688
 72
     0
 73
     0
 74
     5
  7

 75
    16
 76
     0
 77
     2
 78
   300
147
1.0
148
0.0
149
0.0
100
AcDbLayout
  1
Layout1
 70
     1
 71
     1
 10
0.0
 20
0.0
 11
12.0
 21
9.0
 12
0.0
 22
0.0
 32
0.0
 14
1.000000000000000E+20
 24
1.000000000000000E+20
 34
1.000000000000000E+20
 15
-1.000000000000000E+20
 25
-1.000000000000000E+20
 35
-1.000000000000000E+20
146
0.0
 13
0.0
 23
0.0
 33
0.0
 16
1.0
 26
0.0
 36
0.0
 17
0.0
 27
1.0
 37
0.0
 76
     0
330
1B
  0
LAYOUT
  5
26
102
{ACAD_REACTORS
330
1A
102
}
330
1A
100
AcDbPlotSettings
  1

  2
none_device
  4

  6

 40
0.0
 41
0.0
 42
0.0
 43
0.0
 44
0.0
 45
0.0
 46
0.0
 47
0.0
 48
0.0
 49
0.0
140
0.0
141
0.0
142
1.0
143
1.0
 70
   688
 72
     0
 73
     0
 74
     5
  7

 75
    16
 76
     0
 77
     2
 78
   300
147
1.0
148
0.0
149
0.0
100
AcDbLayout
  1
Layout2
 70
     1
 71
     2
 10
0.0
 20
0.0
 11
0.0
 21
0.0
 12
0.0
 22
0.0
 32
0.0
 14
0.0
 24
0.0
 34
0.0
 15
0.0
 25
0.0
 35
0.0
146
0.0
 13
0.0
 23
0.0
 33
0.0
 16
1.0
 26
0.0
 36
0.0
 17
0.0
 27
1.0
 37
0.0
 76
     0
330
23
  0
LAYOUT
  5
22
102
{ACAD_REACTORS
330
1A
102
}
330
1A
100
AcDbPlotSettings
  1

  2
none_device
  4

  6

 40
0.0
 41
0.0
 42
0.0
 43
0.0
 44
0.0
 45
0.0
 46
0.0
 47
0.0
 48
0.0
 49
0.0
140
0.0
141
0.0
142
1.0
143
1.0
 70
  1712
 72
     0
 73
     0
 74
     0
  7

 75
     0
 76
     0
 77
     2
 78
   300
147
1.0
148
0.0
149
0.0
100
AcDbLayout
  1
Model
 70
     1
 71
     0
 10
0.0
 20
0.0
 11
12.0
 21
9.0
 12
0.0
 22
0.0
 32
0.0
 14
1.000000000000000E+20
 24
1.000000000000000E+20
 34
1.000000000000000E+20
 15
-1.000000000000000E+20
 25
-1.000000000000000E+20
 35
-1.000000000000000E+20
146
0.0
 13
0.0
 23
0.0
 33
0.0
 16
1.0
 26
0.0
 36
0.0
 17
0.0
 27
1.0
 37
0.0
 76
     0
330
1F
331
29
  0
MATERIAL
  5
3D
102
{ACAD_REACTORS
330
3B
102
}
330
3B
100
AcDbMaterial
  1
ByBlock
 72
     1
 94
      127
  0
MATERIAL
  5
3C
102
{ACAD_REACTORS
330
3B
102
}
330
3B
100
AcDbMaterial
  1
ByLayer
 72
     1
 94
      127
  0
MATERIAL
  5
3E
102
{ACAD_REACTORS
330
3B
102
}
330
3B
100
AcDbMaterial
  1
Global
 72
     1
 94
      127
  0
MLINESTYLE
  5
18
102
{ACAD_REACTORS
330
17
102
}
330
17
100
AcDbMlineStyle
  2
Standard
 70
     0
  3

 62
   256
 51
90.0
 52
90.0
 71
     2
 49
0.5
 62
   256
  6
BYLAYER
 49
-0.5
 62
   256
  6
BYLAYER
  0
ACDBPLACEHOLDER
  5
F
102
{ACAD_REACTORS
330
E
102
}
330
E
  0
VISUALSTYLE
  5
2F
102
{ACAD_REACTORS
330
2A
102
}
330
2A
100
AcDbVisualStyle
  2
2dWireframe
 70
     4
177
     2
291
     0
 71
     0
176
     1
 72
     2
176
     1
 73
     0
176
     1
 90
        0
176
     1
 40
-0.6
176
     1
 41
-30.0
176
     1
 62
     5
 63
     7
421
 16777215
176
     1
 74
     1
176
     1
 91
        4
176
     1
 64
     7
176
     1
 65
   257
176
     1
 75
     1
176
     1
175
     1
176
     1
 42
1.0
176
     1
 92
        0
176
     1
 66
   257
176
     1
 43
1.0
176
     1
 76
     1
176
     1
 77
     6
176
     1
 78
     2
176
     1
 67
     7
176
     1
 79
     5
176
     1
170
     0
176
     1
171
     0
176
     1
290
     0
176
     1
 93
        1
176
     1
 44
0.0
176
     1
173
     0
176
     1
  0
VISUALSTYLE
  5
31
102
{ACAD_REACTORS
330
2A
102
}
330
2A
100
AcDbVisualStyle
  2
3D Hidden
 70
     6
177
     2
291
     0
 71
     1
176
     1
 72
     2
176
     1
 73
     2
176
     1
 90
        0
176
     1
 40
-0.6
176
     1
 41
-30.0
176
     1
 62
     5
 63
     7
421
 16777215
176
     1
 74
     2
176
     1
 91
        2
176
     1
 64
     7
176
     1
 65
   257
176
     1
 75
     2
176
     1
175
     1
176
     1
 42
40.0
176
     1
 92
        0
176
     1
 66
   257
176
     1
 43
1.0
176
     1
 76
     1
176
     1
 77
     6
176
     1
 78
     2
176
     1
 67
     7
176
     1
 79
     3
176
     1
170
     0
176
     1
171
     0
176
     1
290
     0
176
     1
 93
        1
176
     1
 44
0.0
176
     1
173
     0
176
     1
  0
VISUALSTYLE
  5
30
102
{ACAD_REACTORS
330
2A
102
}
330
2A
100
AcDbVisualStyle
  2
3dWireframe
 70
     5
177
     2
291
     0
 71
     0
176
     1
 72
     2
176
     1
 73
     0
176
     1
 90
        0
176
     1
 40
-0.6
176
     1
 41
-30.0
176
     1
 62
     5
 63
     7
421
 16777215
176
     1
 74
     1
176
     1
 91
        4
176
     1
 64
     7
176
     1
 65
   257
176
     1
 75
     1
176
     1
175
     1
176
     1
 42
1.0
176
     1
 92
        0
176
     1
 66
   257
176
     1
 43
1.0
176
     1
 76
     1
176
     1
 77
     6
176
     1
 78
     2
176
     1
 67
     7
176
     1
 79
     5
176
     1
170
     0
176
     1
171
     0
176
     1
290
     0
176
     1
 93
        1
176
     1
 44
0.0
176
     1
173
     0
176
     1
  0
VISUALSTYLE
  5
32
102
{ACAD_REACTORS
330
2A
102
}
330
2A
100
AcDbVisualStyle
  2
Basic
 70
     7
177
     2
291
     1
 71
     1
176
     1
 72
     0
176
     1
 73
     1
176
     1
 90
        0
176
     1
 40
-0.6
176
     1
 41
-30.0
176
     1
 62
     5
 63
     7
421
 16777215
176
     1
 74
     0
176
     1
 91
        4
176
     1
 64
     7
176
     1
 65
   257
176
     1
 75
     1
176
     1
175
     1
176
     1
 42
1.0
176
     1
 92
        8
176
     1
 66
     7
176
     1
 43
1.0
176
     1
 76
     1
176
     1
 77
     6
176
     1
 78
     2
176
     1
 67
     7
176
     1
 79
     5
176
     1
170
     0
176
     1
171
     0
176
     1
290
     0
176
     1
 93
        1
176
     1
 44
0.0
176
     1
173
     0
176
     1
  0
VISUALSTYLE
  5
36
102
{ACAD_REACTORS
330
2A
102
}
330
2A
100
AcDbVisualStyle
  2
Brighten
 70
    12
177
     2
291
     1
 71
     2
176
     1
 72
     2
176
     1
 73
     0
176
     1
 90
        0
176
     1
 40
-0.6
176
     1
 41
-30.0
176
     1
 62
     5
 63
     7
421
 16777215
176
     1
 74
     1
176
     1
 91
        4
176
     1
 64
     7
176
     1
 65
   257
176
     1
 75
     1
176
     1
175
     1
176
     1
 42
1.0
176
     1
 92
        8
176
     1
 66
     7
176
     1
 43
1.0
176
     1
 76
     1
176
     1
 77
     6
176
     1
 78
     2
176
     1
 67
     7
176
     1
 79
     5
176
     1
170
     0
176
     1
171
     0
176
     1
290
     0
176
     1
 93
        1
176
     1
 44
50.0
176
     1
173
     0
176
     1
  0
VISUALSTYLE
  5
3A
102
{ACAD_REACTORS
330
2A
102
}
330
2A
100
AcDbVisualStyle
  2
ColorChange
 70
    16
177
     2
291
     1
 71
     2
176
     1
 72
     2
176
     1
 73
     3
176
     1
 90
        0
176
     1
 40
-0.6
176
     1
 41
-30.0
176
     1
 62
     5
 63
     8
421
  8421504
176
     1
 74
     1
176
     1
 91
        4
176
     1
 64
     7
176
     1
 65
   257
176
     1
 75
     1
176
     1
175
     1
176
     1
 42
1.0
176
     1
 92
        8
176
     1
 66
     8
424
  8421504
176
     1
 43
1.0
176
     1
 76
     1
176
     1
 77
     6
176
     1
 78
     2
176
     1
 67
     7
176
     1
 79
     5
176
     1
170
     0
176
     1
171
     0
176
     1
290
     0
176
     1
 93
        1
176
     1
 44
0.0
176
     1
173
     0
176
     1
  0
VISUALSTYLE
  5
34
102
{ACAD_REACTORS
330
2A
102
}
330
2A
100
AcDbVisualStyle
  2
Conceptual
 70
     9
177
     2
291
     0
 71
     3
176
     1
 72
     2
176
     1
 73
     0
176
     1
 90
        0
176
     1
 40
-0.6
176
     1
 41
-30.0
176
     1
 62
     5
 63
     7
421
 16777215
176
     1
 74
     2
176
     1
 91
        2
176
     1
 64
     7
176
     1
 65
   257
176
     1
 75
     1
176
     1
175
     1
176
     1
 42
40.0
176
     1
 92
        8
176
     1
 66
     7
176
     1
 43
1.0
176
     1
 76
     1
176
     1
 77
     6
176
     1
 78
     2
176
     1
 67
     7
176
     1
 79
     3
176
     1
170
     0
176
     1
171
     0
176
     1
290
     0
176
     1
 93
        1
176
     1
 44
0.0
176
     1
173
     0
176
     1
  0
VISUALSTYLE
  5
35
102
{ACAD_REACTORS
330
2A
102
}
330
2A
100
AcDbVisualStyle
  2
Dim
 70
    11
177
     2
291
     1
 71
     2
176
     1
 72
     2
176
     1
 73
     0
176
     1
 90
        0
176
     1
 40
-0.6
176
     1
 41
-30.0
176
     1
 62
     5
 63
     7
421
 16777215
176
     1
 74
     1
176
     1
 91
        4
176
     1
 64
     7
176
     1
 65
   257
176
     1
 75
     1
176
     1
175
     1
176
     1
 42
1.0
176
     1
 92
        8
176
     1
 66
     7
176
     1
 43
1.0
176
     1
 76
     1
176
     1
 77
     6
176
     1
 78
     2
176
     1
 67
     7
176
     1
 79
     5
176
     1
170
     0
176
     1
171
     0
176
     1
290
     0
176
     1
 93
        1
176
     1
 44
-50.0
176
     1
173
     0
176
     1
  0
VISUALSTYLE
  5
39
102
{ACAD_REACTORS
330
2A
102
}
330
2A
100
AcDbVisualStyle
  2
Facepattern
 70
    15
177
     2
291
     1
 71
     2
176
     1
 72
     2
176
     1
 73
     0
176
     1
 90
        0
176
     1
 40
-0.6
176
     1
 41
-30.0
176
     1
 62
     5
 63
     7
421
 16777215
176
     1
 74
     1
176
     1
 91
        4
176
     1
 64
     7
176
     1
 65
   257
176
     1
 75
     1
176
     1
175
     1
176
     1
 42
1.0
176
     1
 92
        8
176
     1
 66
     7
176
     1
 43
1.0
176
     1
 76
     1
176
     1
 77
     6
176
     1
 78
     2
176
     1
 67
     7
176
     1
 79
     5
176
     1
170
     0
176
     1
171
     0
176
     1
290
     0
176
     1
 93
        1
176
     1
 44
0.0
176
     1
173
     0
176
     1
  0
VISUALSTYLE
  5
2B
102
{ACAD_REACTORS
330
2A
102
}
330
2A
100
AcDbVisualStyle
  2
Flat
 70
     0
177
     2
291
     1
 71
     2
176
     1
 72
     1
176
     1
 73
     1
176
     1
 90
        2
176
     1
 40
-0.6
176
     1
 41
30.0
176
     1
 62
     5
 63
     7
421
 16777215
176
     1
 74
     0
176
     1
 91
        4
176
     1
 64
     7
176
     1
 65
   257
176
     1
 75
     1
176
     1
175
     1
176
     1
 42
1.0
176
     1
 92
        8
176
     1
 66
     7
176
     1
 43
1.0
176
     1
 76
     1
176
     1
 77
     6
176
     1
 78
     2
176
     1
 67
     7
176
     1
 79
     5
176
     1
170
     0
176
     1
171
     0
176
     1
290
     0
176
     1
 93
       13
176
     1
 44
0.0
176
     1
173
     0
176
     1
  0
VISUALSTYLE
  5
2C
102
{ACAD_REACTORS
330
2A
102
}
330
2A
100
AcDbVisualStyle
  2
FlatWithEdges
 70
     1
177
     2
291
     1
 71
     2
176
     1
 72
     1
176
     1
 73
     1
176
     1
 90
        2
176
     1
 40
-0.6
176
     1
 41
30.0
176
     1
 62
     5
 63
     7
421
 16777215
176
     1
 74
     1
176
     1
 91
        4
176
     1
 64
     7
176
     1
 65
   257
176
     1
 75
     1
176
     1
175
     1
176
     1
 42
1.0
176
     1
 92
        0
176
     1
 66
   257
176
     1
 43
1.0
176
     1
 76
     1
176
     1
 77
     6
176
     1
 78
     2
176
     1
 67
     7
176
     1
 79
     5
176
     1
170
     0
176
     1
171
     0
176
     1
290
     0
176
     1
 93
       13
176
     1
 44
0.0
176
     1
173
     0
176
     1
  0
VISUALSTYLE
  5
2D
102
{ACAD_REACTORS
330
2A
102
}
330
2A
100
AcDbVisualStyle
  2
Gouraud
 70
     2
177
     2
291
     1
 71
     2
176
     1
 72
     2
176
     1
 73
     1
176
     1
 90
        2
176
     1
 40
-0.6
176
     1
 41
30.0
176
     1
 62
     5
 63
     7
421
 16777215
176
     1
 74
     0
176
     1
 91
        4
176
     1
 64
     7
176
     1
 65
   257
176
     1
 75
     1
176
     1
175
     1
176
     1
 42
1.0
176
     1
 92
        0
176
     1
 66
     7
176
     1
 43
1.0
176
     1
 76
     1
176
     1
 77
     6
176
     1
 78
     2
176
     1
 67
     7
176
     1
 79
     5
176
     1
170
     0
176
     1
171
     0
176
     1
290
     0
176
     1
 93
       13
176
     1
 44
0.0
176
     1
173
     0
176
     1
  0
VISUALSTYLE
  5
2E
102
{ACAD_REACTORS
330
2A
102
}
330
2A
100
AcDbVisualStyle
  2
GouraudWithEdges
 70
     3
177
     2
291
     1
 71
     2
176
     1
 72
     2
176
     1
 73
     1
176
     1
 90
        2
176
     1
 40
-0.6
176
     1
 41
30.0
176
     1
 62
     5
 63
     7
421
 16777215
176
     1
 74
     1
176
     1
 91
        4
176
     1
 64
     7
176
     1
 65
   257
176
     1
 75
     1
176
     1
175
     1
176
     1
 42
1.0
176
     1
 92
        0
176
     1
 66
   257
176
     1
 43
1.0
176
     1
 76
     1
176
     1
 77
     6
176
     1
 78
     2
176
     1
 67
     7
176
     1
 79
     5
176
     1
170
     0
176
     1
171
     0
176
     1
290
     0
176
     1
 93
       13
176
     1
 44
0.0
176
     1
173
     0
176
     1
  0
VISUALSTYLE
  5
38
102
{ACAD_REACTORS
330
2A
102
}
330
2A
100
AcDbVisualStyle
  2
Linepattern
 70
    14
177
     2
291
     1
 71
     2
176
     1
 72
     2
176
     1
 73
     0
176
     1
 90
        0
176
     1
 40
-0.6
176
     1
 41
-30.0
176
     1
 62
     5
 63
     7
421
 16777215
176
     1
 74
     1
176
     1
 91
        4
176
     1
 64
     7
176
     1
 65
   257
176
     1
 75
     7
176
     1
175
     7
176
     1
 42
1.0
176
     1
 92
        8
176
     1
 66
     7
176
     1
 43
1.0
176
     1
 76
     1
176
     1
 77
     6
176
     1
 78
     2
176
     1
 67
     7
176
     1
 79
     5
176
     1
170
     0
176
     1
171
     0
176
     1
290
     0
176
     1
 93
        1
176
     1
 44
0.0
176
     1
173
     0
176
     1
  0
VISUALSTYLE
  5
33
102
{ACAD_REACTORS
330
2A
102
}
330
2A
100
AcDbVisualStyle
  2
Realistic
 70
     8
177
     2
291
     0
 71
     2
176
     1
 72
     2
176
     1
 73
     0
176
     1
 90
        0
176
     1
 40
-0.6
176
     1
 41
-30.0
176
     1
 62
     5
 63
     7
421
 16777215
176
     1
 74
     1
176
     1
 91
        0
176
     1
 64
     7
176
     1
 65
   257
176
     1
 75
     1
176
     1
175
     1
176
     1
 42
1.0
176
     1
 92
        8
176
     1
 66
     8
424
  7895160
176
     1
 43
1.0
176
     1
 76
     1
176
     1
 77
     6
176
     1
 78
     2
176
     1
 67
     7
176
     1
 79
     5
176
     1
170
     0
176
     1
171
     0
176
     1
290
     0
176
     1
 93
       13
176
     1
 44
0.0
176
     1
173
     0
176
     1
  0
VISUALSTYLE
  5
37
102
{ACAD_REACTORS
330
2A
102
}
330
2A
100
AcDbVisualStyle
  2
Thicken
 70
    13
177
     2
291
     1
 71
     2
176
     1
 72
     2
176
     1
 73
     0
176
     1
 90
        0
176
     1
 40
-0.6
176
     1
 41
-30.0
176
     1
 62
     5
 63
     7
421
 16777215
176
     1
 74
     1
176
     1
 91
        4
176
     1
 64
     7
176
     1
 65
   257
176
     1
 75
     1
176
     1
175
     1
176
     1
 42
1.0
176
     1
 92
       12
176
     1
 66
     7
176
     1
 43
1.0
176
     1
 76
     1
176
     1
 77
     6
176
     1
 78
     2
176
     1
 67
     7
176
     1
 79
     5
176
     1
170
     0
176
     1
171
     0
176
     1
290
     0
176
     1
 93
        1
176
     1
 44
0.0
176
     1
173
     0
176
     1
  0
ENDSEC
  0
EOF
