  0
SECTION
  2
HEADER
  9
$ACADVER
  1
AC1024
  9
$ACADMAINTVER
 70
     6
  9
$DWGCODEPAGE
  3
UNDEFINED
  9
$INSBASE
 10
0.0
 20
0.0
 30
0.0
  9
$EXTMIN
 10
1.000000000000000E+20
 20
1.000000000000000E+20
 30
1.000000000000000E+20
  9
$EXTMAX
 10
-1.000000000000000E+20
 20
-1.000000000000000E+20
 30
-1.000000000000000E+20
  9
$LIMMIN
 10
0.0
 20
0.0
  9
$LIMMAX
 10
12.0
 20
9.0
  9
$ORTHOMODE
 70
     0
  9
$REGENMODE
 70
     1
  9
$FILLMODE
 70
     1
  9
$QTEXTMODE
 70
     0
  9
$MIRRTEXT
 70
     1
  9
$LTSCALE
 40
1.0
  9
$ATTMODE
 70
     1
  9
$TEXTSIZE
 40
0.2
  9
$TRACEWID
 40
0.05
  9
$TEXTSTYLE
  7
Standard
  9
$CLAYER
  8
0
  9
$CELTYPE
  6
ByLayer
  9
$CECOLOR
 62
   256
  9
$CELTSCALE
 40
1.0
  9
$DISPSILH
 70
     0
  9
$DIMSCALE
 40
1.0
  9
$DIMASZ
 40
0.18
  9
$DIMEXO
 40
0.0625
  9
$DIMDLI
 40
0.38
  9
$DIMRND
 40
0.0
  9
$DIMDLE
 40
0.0
  9
$DIMEXE
 40
0.18
  9
$DIMTP
 40
0.0
  9
$DIMTM
 40
0.0
  9
$DIMTXT
 40
0.18
  9
$DIMCEN
 40
0.09
  9
$DIMTSZ
 40
0.0
  9
$DIMTOL
 70
     0
  9
$DIMLIM
 70
     0
  9
$DIMTIH
 70
     1
  9
$DIMTOH
 70
     1
  9
$DIMSE1
 70
     0
  9
$DIMSE2
 70
     0
  9
$DIMTAD
 70
     0
  9
$DIMZIN
 70
     0
  9
$DIMBLK
  1

  9
$DIMASO
 70
     1
  9
$DIMSHO
 70
     1
  9
$DIMPOST
  1

  9
$DIMAPOST
  1

  9
$DIMALT
 70
     0
  9
$DIMALTD
 70
     2
  9
$DIMALTF
 40
25.4
  9
$DIMLFAC
 40
1.0
  9
$DIMTOFL
 70
     0
  9
$DIMTVP
 40
0.0
  9
$DIMTIX
 70
     0
  9
$DIMSOXD
 70
     0
  9
$DIMSAH
 70
     0
  9
$DIMBLK1
  1

  9
$DIMBLK2
  1

  9
$DIMSTYLE
  2
Standard
  9
$DIMCLRD
 70
     0
  9
$DIMCLRE
 70
     0
  9
$DIMCLRT
 70
     0
  9
$DIMTFAC
 40
1.0
  9
$DIMGAP
 40
0.09
  9
$DIMJUST
 70
     0
  9
$DIMSD1
 70
     0
  9
$DIMSD2
 70
     0
  9
$DIMTOLJ
 70
     1
  9
$DIMTZIN
 70
     0
  9
$DIMALTZ
 70
     0
  9
$DIMALTTZ
 70
     0
  9
$DIMUPT
 70
     0
  9
$DIMDEC
 70
     4
  9
$DIMTDEC
 70
     4
  9
$DIMALTU
 70
     2
  9
$DIMALTTD
 70
     2
  9
$DIMTXSTY
  7
Standard
  9
$DIMAUNIT
 70
     0
  9
$DIMADEC
 70
     0
  9
$DIMALTRND
 40
0.0
  9
$DIMAZIN
 70
     0
  9
$DIMDSEP
 70
    46
  9
$DIMATFIT
 70
     3
  9
$DIMFRAC
 70
     0
  9
$DIMLDRBLK
  1

  9
$DIMLUNIT
 70
     2
  9
$DIMLWD
 70
    -2
  9
$DIMLWE
 70
    -2
  9
$DIMTMOVE
 70
     0
  9
$DIMFXL
 40
1.0
  9
$DIMFXLON
 70
     0
  9
$DIMJOGANG
 40
0.7853981633974483
  9
$DIMTFILL
 70
     0
  9
$DIMTFILLCLR
 70
     0
  9
$DIMARCSYM
 70
     0
  9
$DIMLTYPE
  6

  9
$DIMLTEX1
  6

  9
$DIMLTEX2
  6

  9
$DIMTXTDIRECTION
 70
     0
  9
$LUNITS
 70
     2
  9
$LUPREC
 70
     4
  9
$SKETCHINC
 40
0.1
  9
$FILLETRAD
 40
0.5
  9
$AUNITS
 70
     0
  9
$AUPREC
 70
     0
  9
$MENU
  1
.
  9
$ELEVATION
 40
0.0
  9
$PELEVATION
 40
0.0
  9
$THICKNESS
 40
0.0
  9
$LIMCHECK
 70
     0
  9
$CHAMFERA
 40
0.5
  9
$CHAMFERB
 40
0.5
  9
$CHAMFERC
 40
1.0
  9
$CHAMFERD
 40
0.0
  9
$SKPOLY
 70
     0
  9
$TDCREATE
 40
2458263.575960648
  9
$TDUCREATE
 40
2458263.200960648
  9
$TDUPDATE
 40
2458263.575972222
  9
$TDUUPDATE
 40
2458263.200972222
  9
$TDINDWG
 40
0.0000000116
  9
$TDUSRTIMER
 40
0.0000000116
  9
$USRTIMER
 70
     1
  9
$ANGBASE
 50
0.0
  9
$ANGDIR
 70
     0
  9
$PDMODE
 70
     0
  9
$PDSIZE
 40
0.0
  9
$PLINEWID
 40
0.0
  9
$SPLFRAME
 70
     0
  9
$SPLINETYPE
 70
     6
  9
$SPLINESEGS
 70
     8
  9
$HANDSEED
  5
117
  9
$SURFTAB1
 70
     6
  9
$SURFTAB2
 70
     6
  9
$SURFTYPE
 70
     6
  9
$SURFU
 70
     6
  9
$SURFV
 70
     6
  9
$UCSBASE
  2

  9
$UCSNAME
  2

  9
$UCSORG
 10
0.0
 20
0.0
 30
0.0
  9
$UCSXDIR
 10
1.0
 20
0.0
 30
0.0
  9
$UCSYDIR
 10
0.0
 20
1.0
 30
0.0
  9
$UCSORTHOREF
  2

  9
$UCSORTHOVIEW
 70
     0
  9
$UCSORGTOP
 10
0.0
 20
0.0
 30
0.0
  9
$UCSORGBOTTOM
 10
0.0
 20
0.0
 30
0.0
  9
$UCSORGLEFT
 10
0.0
 20
0.0
 30
0.0
  9
$UCSORGRIGHT
 10
0.0
 20
0.0
 30
0.0
  9
$UCSORGFRONT
 10
0.0
 20
0.0
 30
0.0
  9
$UCSORGBACK
 10
0.0
 20
0.0
 30
0.0
  9
$PUCSBASE
  2

  9
$PUCSNAME
  2

  9
$PUCSORG
 10
0.0
 20
0.0
 30
0.0
  9
$PUCSXDIR
 10
1.0
 20
0.0
 30
0.0
  9
$PUCSYDIR
 10
0.0
 20
1.0
 30
0.0
  9
$PUCSORTHOREF
  2

  9
$PUCSORTHOVIEW
 70
     0
  9
$PUCSORGTOP
 10
0.0
 20
0.0
 30
0.0
  9
$PUCSORGBOTTOM
 10
0.0
 20
0.0
 30
0.0
  9
$PUCSORGLEFT
 10
0.0
 20
0.0
 30
0.0
  9
$PUCSORGRIGHT
 10
0.0
 20
0.0
 30
0.0
  9
$PUCSORGFRONT
 10
0.0
 20
0.0
 30
0.0
  9
$PUCSORGBACK
 10
0.0
 20
0.0
 30
0.0
  9
$USERI1
 70
     0
  9
$USERI2
 70
     0
  9
$USERI3
 70
     0
  9
$USERI4
 70
     0
  9
$USERI5
 70
     0
  9
$USERR1
 40
0.0
  9
$USERR2
 40
0.0
  9
$USERR3
 40
0.0
  9
$USERR4
 40
0.0
  9
$USERR5
 40
0.0
  9
$WORLDVIEW
 70
     1
  9
$SHADEDGE
 70
     3
  9
$SHADEDIF
 70
    70
  9
$TILEMODE
 70
     1
  9
$MAXACTVP
 70
    64
  9
$PINSBASE
 10
0.0
 20
0.0
 30
0.0
  9
$PLIMCHECK
 70
     0
  9
$PEXTMIN
 10
1.000000000000000E+20
 20
1.000000000000000E+20
 30
1.000000000000000E+20
  9
$PEXTMAX
 10
-1.000000000000000E+20
 20
-1.000000000000000E+20
 30
-1.000000000000000E+20
  9
$PLIMMIN
 10
0.0
 20
0.0
  9
$PLIMMAX
 10
12.0
 20
9.0
  9
$UNITMODE
 70
     0
  9
$VISRETAIN
 70
     1
  9
$PLINEGEN
 70
     0
  9
$PSLTSCALE
 70
     1
  9
$TREEDEPTH
 70
  3020
  9
$CMLSTYLE
  2
Standard
  9
$CMLJUST
 70
     0
  9
$CMLSCALE
 40
1.0
  9
$PROXYGRAPHICS
 70
     1
  9
$MEASUREMENT
 70
     0
  9
$CELWEIGHT
370
    -1
  9
$ENDCAPS
280
     0
  9
$JOINSTYLE
280
     0
  9
$LWDISPLAY
290
     1
  9
$INSUNITS
 70
     1
  9
$HYPERLINKBASE
  1

  9
$STYLESHEET
  1

  9
$XEDIT
290
     1
  9
$CEPSNTYPE
380
     0
  9
$PSTYLEMODE
290
     1
  9
$FINGERPRINTGUID
  2
{A0ADFF13-0241-4620-FBB8-2EAF9E0B831B}
  9
$VERSIONGUID
  2
{FAEB1C32-E019-11D5-929B-00C0DF256EC4}
  9
$EXTNAMES
290
     1
  9
$PSVPSCALE
 40
0.0
  9
$OLESTARTUP
290
     0
  9
$SORTENTS
280
   127
  9
$INDEXCTL
280
     0
  9
$HIDETEXT
280
     1
  9
$XCLIPFRAME
280
     2
  9
$HALOGAP
280
     0
  9
$OBSCOLOR
 70
   257
  9
$OBSLTYPE
280
     0
  9
$INTERSECTIONDISPLAY
280
     0
  9
$INTERSECTIONCOLOR
 70
   257
  9
$DIMASSOC
280
     2
  9
$PROJECTNAME
  1

  9
$CAMERADISPLAY
290
     0
  9
$LENSLENGTH
 40
50.0
  9
$CAMERAHEIGHT
 40
0.0
  9
$STEPSPERSEC
 40
2.0
  9
$STEPSIZE
 40
6.0
  9
$3DDWFPREC
 40
2.0
  9
$PSOLWIDTH
 40
0.25
  9
$PSOLHEIGHT
 40
4.0
  9
$LOFTANG1
 40
1.570796326794897
  9
$LOFTANG2
 40
1.570796326794897
  9
$LOFTMAG1
 40
0.0
  9
$LOFTMAG2
 40
0.0
  9
$LOFTPARAM
 70
     7
  9
$LOFTNORMALS
280
     1
  9
$LATITUDE
 40
37.795
  9
$LONGITUDE
 40
-122.394
  9
$NORTHDIRECTION
 40
0.0
  9
$TIMEZONE
 70
 -8000
  9
$LIGHTGLYPHDISPLAY
280
     1
  9
$TILEMODELIGHTSYNCH
280
     1
  9
$CMATERIAL
347
3C
  9
$SOLIDHIST
280
     1
  9
$SHOWHIST
280
     1
  9
$DWFFRAME
280
     2
  9
$DGNFRAME
280
     2
  9
$REALWORLDSCALE
290
     1
  9
$INTERFERECOLOR
 62
   256
  9
$CSHADOW
280
     0
  9
$SHADOWPLANELOCATION
 40
0.0
  0
ENDSEC
  0
SECTION
  2
CLASSES
  0
CLASS
  1
ACDBDICTIONARYWDFLT
  2
AcDbDictionaryWithDefault
  3
ObjectDBX Classes
 90
        0
 91
        4
280
     0
281
     0
  0
CLASS
  1
VISUALSTYLE
  2
AcDbVisualStyle
  3
ObjectDBX Classes
 90
     4095
 91
        4
280
     0
281
     0
  0
CLASS
  1
MATERIAL
  2
AcDbMaterial
  3
ObjectDBX Classes
 90
     1153
 91
        4
280
     0
281
     0
  0
CLASS
  1
SUN
  2
AcDbSun
  3
SCENEOE
 90
     1024
 91
        4
280
     0
281
     0
  0
ENDSEC
  0
SECTION
  2
TABLES
  0
TABLE
  2
VPORT
  5
8
330
0
100
AcDbSymbolTable
 70
     1
  0
VPORT
  5
29
330
8
100
AcDbSymbolTableRecord
100
AcDbViewportTableRecord
  2
*Active
 70
     0
 10
0.0
 20
0.0
 11
1.0
 21
1.0
 12
0.0
 22
0.0
 13
0.0
 23
0.0
 14
0.5
 24
0.5
 15
0.5
 25
0.5
 16
0.0
 26
0.0
 36
1.0
 17
105.0007777515277
 27
-148.5000416295416
 37
0.0
 40
297.0000832590831
 41
0.7070757462376333
 42
50.0
 43
0.0
 44
0.0
 50
0.0
 51
0.0
 71
     0
 72
   100
 73
     1
 74
     3
 75
     0
 76
     0
 77
     0
 78
     0
281
     0
 65
     1
110
0.0
120
0.0
130
0.0
111
1.0
121
0.0
131
0.0
112
0.0
122
1.0
132
0.0
 79
     0
146
0.0
 60
     3
 61
     5
292
     1
282
     1
141
0.0
142
0.0
 63
   250
361
3F
  0
ENDTAB
  0
TABLE
  2
LTYPE
  5
5
330
0
100
AcDbSymbolTable
 70
     1
  0
LTYPE
  5
14
330
5
100
AcDbSymbolTableRecord
100
AcDbLinetypeTableRecord
  2
ByBlock
 70
     0
  3

 72
    65
 73
     0
 40
0.0
  0
LTYPE
  5
15
330
5
100
AcDbSymbolTableRecord
100
AcDbLinetypeTableRecord
  2
ByLayer
 70
     0
  3

 72
    65
 73
     0
 40
0.0
  0
LTYPE
  5
16
330
5
100
AcDbSymbolTableRecord
100
AcDbLinetypeTableRecord
  2
Continuous
 70
     0
  3
Solid line
 72
    65
 73
     0
 40
0.0
  0
ENDTAB
  0
TABLE
  2
LAYER
  5
2
330
0
100
AcDbSymbolTable
 70
     2
  0
LAYER
  5
10
330
2
100
AcDbSymbolTableRecord
100
AcDbLayerTableRecord
  2
0
 70
     0
 62
     7
  6
Continuous
370
    -3
390
F
347
3E
  0
LAYER
  5
40
330
2
100
AcDbSymbolTableRecord
100
AcDbLayerTableRecord
  2
_U+30EC_U+30A4_U+30E4_U+30FC 1
 70
     0
 62
     7
  6
Continuous
370
    -3
390
F
347
3E
  0
ENDTAB
  0
TABLE
  2
STYLE
  5
3
330
0
100
AcDbSymbolTable
 70
     1
  0
STYLE
  5
11
330
3
100
AcDbSymbolTableRecord
100
AcDbTextStyleTableRecord
  2
Standard
 70
     0
 40
0.0
 41
1.0
 50
0.0
 71
     0
 42
0.2
  3
txt
  4

  0
ENDTAB
  0
TABLE
  2
VIEW
  5
6
330
0
100
AcDbSymbolTable
 70
     0
  0
ENDTAB
  0
TABLE
  2
UCS
  5
7
330
0
100
AcDbSymbolTable
 70
     0
  0
ENDTAB
  0
TABLE
  2
APPID
  5
9
330
0
100
AcDbSymbolTable
 70
     1
  0
APPID
  5
12
330
9
100
AcDbSymbolTableRecord
100
AcDbRegAppTableRecord
  2
ACAD
 70
     0
  0
ENDTAB
  0
TABLE
  2
DIMSTYLE
  5
A
330
0
100
AcDbSymbolTable
 70
     1
100
AcDbDimStyleTable
  0
DIMSTYLE
105
27
330
A
100
AcDbSymbolTableRecord
100
AcDbDimStyleTableRecord
  2
Standard
 70
     0
178
     0
340
11
  0
ENDTAB
  0
TABLE
  2
BLOCK_RECORD
  5
1
330
0
100
AcDbSymbolTable
 70
     5
  0
BLOCK_RECORD
  5
1F
330
1
100
AcDbSymbolTableRecord
100
AcDbBlockTableRecord
  2
*Model_Space
340
22
 70
     0
280
     1
281
     0
  0
BLOCK_RECORD
  5
1B
330
1
100
AcDbSymbolTableRecord
100
AcDbBlockTableRecord
  2
*Paper_Space
340
1E
 70
     0
280
     1
281
     0
  0
BLOCK_RECORD
  5
23
330
1
100
AcDbSymbolTableRecord
100
AcDbBlockTableRecord
  2
*Paper_Space0
340
26
 70
     0
280
     1
281
     0
  0
BLOCK_RECORD
  5
C1
330
1
100
AcDbSymbolTableRecord
100
AcDbBlockTableRecord
  2
block 2
340
0
102
{BLKREFS
331
C2
102
}
 70
     0
280
     1
281
     0
  0
BLOCK_RECORD
  5
D2
330
1
100
AcDbSymbolTableRecord
100
AcDbBlockTableRecord
  2
block 3
340
0
102
{BLKREFS
331
D3
102
}
 70
     0
280
     1
281
     0
  0
BLOCK_RECORD
  5
E3
330
1
100
AcDbSymbolTableRecord
100
AcDbBlockTableRecord
  2
block 4
340
0
102
{BLKREFS
331
E4
102
}
 70
     0
280
     1
281
     0
  0
BLOCK_RECORD
  5
100
330
1
100
AcDbSymbolTableRecord
100
AcDbBlockTableRecord
  2
block 5
340
0
102
{BLKREFS
331
101
102
}
 70
     0
280
     1
281
     0
  0
ENDTAB
  0
ENDSEC
  0
SECTION
  2
BLOCKS
  0
BLOCK
  5
20
330
1F
100
AcDbEntity
  8
0
100
AcDbBlockBegin
  2
*Model_Space
 70
     0
 10
0.0
 20
0.0
 30
0.0
  3
*Model_Space
  1

  0
ENDBLK
  5
21
330
1F
100
AcDbEntity
  8
0
100
AcDbBlockEnd
  0
BLOCK
  5
1C
330
1B
100
AcDbEntity
 67
     1
  8
0
100
AcDbBlockBegin
  2
*Paper_Space
 70
     0
 10
0.0
 20
0.0
 30
0.0
  3
*Paper_Space
  1

  0
ENDBLK
  5
1D
330
1B
100
AcDbEntity
 67
     1
  8
0
100
AcDbBlockEnd
  0
BLOCK
  5
24
330
23
100
AcDbEntity
  8
0
100
AcDbBlockBegin
  2
*Paper_Space0
 70
     0
 10
0.0
 20
0.0
 30
0.0
  3
*Paper_Space0
  1

  0
ENDBLK
  5
25
330
23
100
AcDbEntity
  8
0
100
AcDbBlockEnd
  0
BLOCK
  5
C3
330
C1
100
AcDbEntity
  8
0
100
AcDbBlockBegin
  2
block 2
 70
     0
 10
0.0
 20
0.0
 30
0.0
  3
block 2
  1

  0
SPLINE
  5
C5
330
C1
100
AcDbEntity
  8
_U+30EC_U+30A4_U+30E4_U+30FC 1
370
     0
100
AcDbSpline
210
0.0
220
0.0
230
1.0
 70
    11
 71
     3
 72
    53
 73
    49
 74
     0
 42
0.0000000001
 43
0.0000000001
 12
1.0
 22
0.0
 32
0.0
 13
1.0
 23
0.0
 33
0.0
 40
0.0
 40
0.0
 40
0.0
 40
0.0
 40
1.0
 40
1.0
 40
1.0
 40
2.0
 40
2.0
 40
2.0
 40
3.0
 40
3.0
 40
3.0
 40
4.0
 40
4.0
 40
4.0
 40
5.0
 40
5.0
 40
5.0
 40
6.0
 40
6.0
 40
6.0
 40
7.0
 40
7.0
 40
7.0
 40
8.0
 40
8.0
 40
8.0
 40
9.0
 40
9.0
 40
9.0
 40
10.0
 40
10.0
 40
10.0
 40
11.0
 40
11.0
 40
11.0
 40
12.0
 40
12.0
 40
12.0
 40
13.0
 40
13.0
 40
13.0
 40
14.0
 40
14.0
 40
14.0
 40
15.0
 40
15.0
 40
15.0
 40
16.0
 40
16.0
 40
16.0
 40
16.0
 10
98.6034559215297
 20
-141.6084106091292
 30
0.0
 10
98.52507999924026
 20
-141.6084106091292
 30
0.0
 10
98.42362193719966
 20
-141.5915296412514
 30
0.0
 10
98.32199162038478
 20
-141.5281398843228
 30
0.0
 10
98.14853106270246
 20
-141.4182413383434
 30
0.0
 10
98.12734372546817
 20
-141.2869832003553
 30
0.0
 10
98.1083957002993
 20
-141.179151711667
 30
0.0
 10
98.1083957002993
 20
-141.179151711667
 30
0.0
 10
98.33043210432365
 20
-141.179151711667
 30
0.0
 10
98.33043210432365
 20
-141.179151711667
 30
0.0
 10
98.38555363208765
 20
-141.3779337211659
 30
0.0
 10
98.5125054007191
 20
-141.4075615423391
 30
0.0
 10
98.60552297882084
 20
-141.4075615423391
 30
0.0
 10
98.74504934597347
 20
-141.4075615423391
 30
0.0
 10
98.89749482119576
 20
-141.3079982828154
 30
0.0
 10
98.89749482119576
 20
-141.075454337561
 30
0.0
 10
98.89749482119576
 20
-140.8194837430069
 30
0.0
 10
98.71766083686573
 20
-140.7495483046564
 30
0.0
 10
98.59708249488199
 20
-140.7495483046564
 30
0.0
 10
98.56538761641768
 20
-140.7495483046564
 30
0.0
 10
98.42362193719966
 20
-140.7495483046564
 30
0.0
 10
98.3347384736802
 20
-140.8787393853532
 30
0.0
 10
98.3347384736802
 20
-140.8787393853532
 30
0.0
 10
98.15921085870673
 20
-140.8597913601844
 30
0.0
 10
98.15921085870673
 20
-140.8597913601844
 30
0.0
 10
98.15921085870673
 20
-140.8597913601844
 30
0.0
 10
98.27978920069047
 20
-140.0133313994585
 30
0.0
 10
98.27978920069047
 20
-140.0133313994585
 30
0.0
 10
98.27978920069047
 20
-140.0133313994585
 30
0.0
 10
99.05820852558267
 20
-140.0133313994585
 30
0.0
 10
99.05820852558267
 20
-140.0133313994585
 30
0.0
 10
99.05820852558267
 20
-140.0133313994585
 30
0.0
 10
99.05820852558267
 20
-140.2079792943751
 30
0.0
 10
99.05820852558267
 20
-140.2079792943751
 30
0.0
 10
99.05820852558267
 20
-140.2079792943751
 30
0.0
 10
98.44256996236852
 20
-140.2079792943751
 30
0.0
 10
98.44256996236852
 20
-140.2079792943751
 30
0.0
 10
98.44256996236852
 20
-140.2079792943751
 30
0.0
 10
98.37711314814878
 20
-140.6310370199638
 30
0.0
 10
98.37711314814878
 20
-140.6310370199638
 30
0.0
 10
98.43843584778622
 20
-140.5972750842083
 30
0.0
 10
98.52094588465796
 20
-140.5569674670309
 30
0.0
 10
98.6392849145763
 20
-140.5569674670309
 30
0.0
 10
98.89318845183921
 20
-140.5569674670309
 30
0.0
 10
99.1302110212244
 20
-140.7433471327829
 30
0.0
 10
99.1302110212244
 20
-141.0565063123921
 30
0.0
 10
99.1302110212244
 20
-141.3737996065836
 30
0.0
 10
98.90593530513463
 20
-141.6084106091292
 30
0.0
 10
98.6034559215297
 20
-141.6084106091292
 30
0.0
  0
HATCH
  5
C6
330
C1
100
AcDbEntity
  8
_U+30EC_U+30A4_U+30E4_U+30FC 1
 62
   179
420
  2234388
100
AcDbHatch
 10
0.0
 20
0.0
 30
0.0
210
0.0
220
0.0
230
1.0
  2
SOLID
 70
     1
 71
     0
 91
        1
 92
        1
 93
        1
 72
     4
 94
        3
 73
     0
 74
     1
 95
       53
 96
       49
 40
0.0
 40
0.0
 40
0.0
 40
0.0
 40
1.0
 40
1.0
 40
1.0
 40
2.0
 40
2.0
 40
2.0
 40
3.0
 40
3.0
 40
3.0
 40
4.0
 40
4.0
 40
4.0
 40
5.0
 40
5.0
 40
5.0
 40
6.0
 40
6.0
 40
6.0
 40
7.0
 40
7.0
 40
7.0
 40
8.0
 40
8.0
 40
8.0
 40
9.0
 40
9.0
 40
9.0
 40
10.0
 40
10.0
 40
10.0
 40
11.0
 40
11.0
 40
11.0
 40
12.0
 40
12.0
 40
12.0
 40
13.0
 40
13.0
 40
13.0
 40
14.0
 40
14.0
 40
14.0
 40
15.0
 40
15.0
 40
15.0
 40
16.0
 40
16.0
 40
16.0
 40
16.0
 10
98.6034559215297
 20
-141.6084106091292
 10
98.52507999924026
 20
-141.6084106091292
 10
98.42362193719966
 20
-141.5915296412514
 10
98.32199162038478
 20
-141.5281398843228
 10
98.14853106270246
 20
-141.4182413383434
 10
98.12734372546817
 20
-141.2869832003553
 10
98.1083957002993
 20
-141.179151711667
 10
98.1083957002993
 20
-141.179151711667
 10
98.33043210432365
 20
-141.179151711667
 10
98.33043210432365
 20
-141.179151711667
 10
98.38555363208765
 20
-141.3779337211659
 10
98.5125054007191
 20
-141.4075615423391
 10
98.60552297882084
 20
-141.4075615423391
 10
98.74504934597347
 20
-141.4075615423391
 10
98.89749482119576
 20
-141.3079982828154
 10
98.89749482119576
 20
-141.075454337561
 10
98.89749482119576
 20
-140.8194837430069
 10
98.71766083686573
 20
-140.7495483046564
 10
98.59708249488199
 20
-140.7495483046564
 10
98.56538761641768
 20
-140.7495483046564
 10
98.42362193719966
 20
-140.7495483046564
 10
98.3347384736802
 20
-140.8787393853532
 10
98.3347384736802
 20
-140.8787393853532
 10
98.15921085870673
 20
-140.8597913601844
 10
98.15921085870673
 20
-140.8597913601844
 10
98.15921085870673
 20
-140.8597913601844
 10
98.27978920069047
 20
-140.0133313994585
 10
98.27978920069047
 20
-140.0133313994585
 10
98.27978920069047
 20
-140.0133313994585
 10
99.05820852558267
 20
-140.0133313994585
 10
99.05820852558267
 20
-140.0133313994585
 10
99.05820852558267
 20
-140.0133313994585
 10
99.05820852558267
 20
-140.2079792943751
 10
99.05820852558267
 20
-140.2079792943751
 10
99.05820852558267
 20
-140.2079792943751
 10
98.44256996236852
 20
-140.2079792943751
 10
98.44256996236852
 20
-140.2079792943751
 10
98.44256996236852
 20
-140.2079792943751
 10
98.37711314814878
 20
-140.6310370199638
 10
98.37711314814878
 20
-140.6310370199638
 10
98.43843584778622
 20
-140.5972750842083
 10
98.52094588465796
 20
-140.5569674670309
 10
98.6392849145763
 20
-140.5569674670309
 10
98.89318845183921
 20
-140.5569674670309
 10
99.1302110212244
 20
-140.7433471327829
 10
99.1302110212244
 20
-141.0565063123921
 10
99.1302110212244
 20
-141.3737996065836
 10
98.90593530513463
 20
-141.6084106091292
 10
98.6034559215297
 20
-141.6084106091292
 97
        0
 97
        0
 75
     2
 76
     1
 98
        0
  0
SPLINE
  5
C7
330
C1
100
AcDbEntity
  8
_U+30EC_U+30A4_U+30E4_U+30FC 1
370
     0
100
AcDbSpline
210
0.0
220
0.0
230
1.0
 70
    11
 71
     3
 72
    29
 73
    25
 74
     0
 42
0.0000000001
 43
0.0000000001
 12
1.0
 22
0.0
 32
0.0
 13
1.0
 23
0.0
 33
0.0
 40
0.0
 40
0.0
 40
0.0
 40
0.0
 40
1.0
 40
1.0
 40
1.0
 40
2.0
 40
2.0
 40
2.0
 40
3.0
 40
3.0
 40
3.0
 40
4.0
 40
4.0
 40
4.0
 40
5.0
 40
5.0
 40
5.0
 40
6.0
 40
6.0
 40
6.0
 40
7.0
 40
7.0
 40
7.0
 40
8.0
 40
8.0
 40
8.0
 40
8.0
 10
100.196984838232
 20
-141.3800007784571
 30
0.0
 10
100.0891533495437
 20
-141.5894625839603
 30
0.0
 10
99.91569279186136
 20
-141.6084106091292
 30
0.0
 10
99.79924856445992
 20
-141.6084106091292
 30
0.0
 10
99.63853486007301
 20
-141.6084106091292
 30
0.0
 10
99.49676918085498
 20
-141.5619018200783
 30
0.0
 10
99.40151229068782
 20
-141.3800007784571
 30
0.0
 10
99.29798717135607
 20
-141.1853528835405
 30
0.0
 10
99.27886689141293
 20
-140.9486748237038
 30
0.0
 10
99.27886689141293
 20
-140.7857218072515
 30
0.0
 10
99.27886689141293
 20
-140.641716815968
 30
0.0
 10
99.29574785929066
 20
-140.3898803359963
 30
0.0
 10
99.40151229068782
 20
-140.1910983264974
 30
0.0
 10
99.50951603415041
 20
-139.9881822024162
 30
0.0
 10
99.6702297385373
 20
-139.9647555531164
 30
0.0
 10
99.79924856445992
 20
-139.9647555531164
 30
0.0
 10
99.95789521155567
 20
-139.9647555531164
 30
0.0
 10
100.1017279480648
 20
-140.0091972848762
 30
0.0
 10
100.196984838232
 20
-140.1910983264974
 30
0.0
 10
100.2963758429815
 20
-140.3836791641228
 30
0.0
 10
100.3196302375069
 20
-140.6120889947949
 30
0.0
 10
100.3196302375069
 20
-140.7857218072515
 30
0.0
 10
100.3196302375069
 20
-140.9569430528684
 30
0.0
 10
100.2986151550469
 20
-141.1874199408316
 30
0.0
 10
100.196984838232
 20
-141.3800007784571
 30
0.0
  0
SPLINE
  5
C8
330
C1
100
AcDbEntity
  8
_U+30EC_U+30A4_U+30E4_U+30FC 1
370
     0
100
AcDbSpline
210
0.0
220
0.0
230
1.0
 70
    11
 71
     3
 72
    17
 73
    13
 74
     0
 42
0.0000000001
 43
0.0000000001
 12
1.0
 22
0.0
 32
0.0
 13
1.0
 23
0.0
 33
0.0
 40
0.0
 40
0.0
 40
0.0
 40
0.0
 40
1.0
 40
1.0
 40
1.0
 40
2.0
 40
2.0
 40
2.0
 40
3.0
 40
3.0
 40
3.0
 40
4.0
 40
4.0
 40
4.0
 40
4.0
 10
99.79924856445992
 20
-140.1573363907419
 30
0.0
 10
99.54965139655356
 20
-140.1573363907419
 30
0.0
 10
99.5031426075027
 20
-140.440867749178
 30
0.0
 10
99.5031426075027
 20
-140.7857218072515
 30
0.0
 10
99.5031426075027
 20
-141.1050821587341
 30
0.0
 10
99.53914385532356
 20
-141.4137627142125
 30
0.0
 10
99.79924856445992
 20
-141.4137627142125
 30
0.0
 10
100.0467786750751
 20
-141.4137627142125
 30
0.0
 10
100.0955267761914
 20
-141.1326429226162
 30
0.0
 10
100.0955267761914
 20
-140.7857218072515
 30
0.0
 10
100.0955267761914
 20
-140.4660169462203
 30
0.0
 10
100.0572862163051
 20
-140.1573363907419
 30
0.0
 10
99.79924856445992
 20
-140.1573363907419
 30
0.0
  0
HATCH
  5
C9
330
C1
100
AcDbEntity
  8
_U+30EC_U+30A4_U+30E4_U+30FC 1
 62
   179
420
  2234388
100
AcDbHatch
 10
0.0
 20
0.0
 30
0.0
210
0.0
220
0.0
230
1.0
  2
SOLID
 70
     1
 71
     0
 91
        2
 92
        1
 93
        1
 72
     4
 94
        3
 73
     0
 74
     1
 95
       29
 96
       25
 40
0.0
 40
0.0
 40
0.0
 40
0.0
 40
1.0
 40
1.0
 40
1.0
 40
2.0
 40
2.0
 40
2.0
 40
3.0
 40
3.0
 40
3.0
 40
4.0
 40
4.0
 40
4.0
 40
5.0
 40
5.0
 40
5.0
 40
6.0
 40
6.0
 40
6.0
 40
7.0
 40
7.0
 40
7.0
 40
8.0
 40
8.0
 40
8.0
 40
8.0
 10
100.196984838232
 20
-141.3800007784571
 10
100.0891533495437
 20
-141.5894625839603
 10
99.91569279186136
 20
-141.6084106091292
 10
99.79924856445992
 20
-141.6084106091292
 10
99.63853486007301
 20
-141.6084106091292
 10
99.49676918085498
 20
-141.5619018200783
 10
99.40151229068782
 20
-141.3800007784571
 10
99.29798717135607
 20
-141.1853528835405
 10
99.27886689141293
 20
-140.9486748237038
 10
99.27886689141293
 20
-140.7857218072515
 10
99.27886689141293
 20
-140.641716815968
 10
99.29574785929066
 20
-140.3898803359963
 10
99.40151229068782
 20
-140.1910983264974
 10
99.50951603415041
 20
-139.9881822024162
 10
99.6702297385373
 20
-139.9647555531164
 10
99.79924856445992
 20
-139.9647555531164
 10
99.95789521155567
 20
-139.9647555531164
 10
100.1017279480648
 20
-140.0091972848762
 10
100.196984838232
 20
-140.1910983264974
 10
100.2963758429815
 20
-140.3836791641228
 10
100.3196302375069
 20
-140.6120889947949
 10
100.3196302375069
 20
-140.7857218072515
 10
100.3196302375069
 20
-140.9569430528684
 10
100.2986151550469
 20
-141.1874199408316
 10
100.196984838232
 20
-141.3800007784571
 97
        0
 97
        0
 92
        1
 93
        1
 72
     4
 94
        3
 73
     0
 74
     1
 95
       17
 96
       13
 40
0.0
 40
0.0
 40
0.0
 40
0.0
 40
1.0
 40
1.0
 40
1.0
 40
2.0
 40
2.0
 40
2.0
 40
3.0
 40
3.0
 40
3.0
 40
4.0
 40
4.0
 40
4.0
 40
4.0
 10
99.79924856445992
 20
-140.1573363907419
 10
99.54965139655356
 20
-140.1573363907419
 10
99.5031426075027
 20
-140.440867749178
 10
99.5031426075027
 20
-140.7857218072515
 10
99.5031426075027
 20
-141.1050821587341
 10
99.53914385532356
 20
-141.4137627142125
 10
99.79924856445992
 20
-141.4137627142125
 10
100.0467786750751
 20
-141.4137627142125
 10
100.0955267761914
 20
-141.1326429226162
 10
100.0955267761914
 20
-140.7857218072515
 10
100.0955267761914
 20
-140.4660169462203
 10
100.0572862163051
 20
-140.1573363907419
 10
99.79924856445992
 20
-140.1573363907419
 97
        0
 97
        0
 75
     2
 76
     1
 98
        0
  0
ENDBLK
  5
C4
330
C1
100
AcDbEntity
  8
0
100
AcDbBlockEnd
  0
BLOCK
  5
D4
330
D2
100
AcDbEntity
  8
0
100
AcDbBlockBegin
  2
block 3
 70
     0
 10
0.0
 20
0.0
 30
0.0
  3
block 3
  1

  0
SPLINE
  5
D6
330
D2
100
AcDbEntity
  8
_U+30EC_U+30A4_U+30E4_U+30FC 1
370
     0
100
AcDbSpline
210
0.0
220
0.0
230
1.0
 70
    11
 71
     3
 72
    53
 73
    49
 74
     0
 42
0.0000000001
 43
0.0000000001
 12
1.0
 22
0.0
 32
0.0
 13
1.0
 23
0.0
 33
0.0
 40
0.0
 40
0.0
 40
0.0
 40
0.0
 40
1.0
 40
1.0
 40
1.0
 40
2.0
 40
2.0
 40
2.0
 40
3.0
 40
3.0
 40
3.0
 40
4.0
 40
4.0
 40
4.0
 40
5.0
 40
5.0
 40
5.0
 40
6.0
 40
6.0
 40
6.0
 40
7.0
 40
7.0
 40
7.0
 40
8.0
 40
8.0
 40
8.0
 40
9.0
 40
9.0
 40
9.0
 40
10.0
 40
10.0
 40
10.0
 40
11.0
 40
11.0
 40
11.0
 40
12.0
 40
12.0
 40
12.0
 40
13.0
 40
13.0
 40
13.0
 40
14.0
 40
14.0
 40
14.0
 40
15.0
 40
15.0
 40
15.0
 40
16.0
 40
16.0
 40
16.0
 40
16.0
 10
110.362600341333
 20
-141.6084106091292
 30
0.0
 10
110.2843966738178
 20
-141.6084106091292
 30
0.0
 10
110.1827663570029
 20
-141.5915296412514
 30
0.0
 10
110.0811360401881
 20
-141.5281398843228
 30
0.0
 10
109.9075032277315
 20
-141.4182413383434
 30
0.0
 10
109.8864881452714
 20
-141.2869832003553
 30
0.0
 10
109.8675401201026
 20
-141.179151711667
 30
0.0
 10
109.8675401201026
 20
-141.179151711667
 30
0.0
 10
110.0894042693527
 20
-141.179151711667
 30
0.0
 10
110.0894042693527
 20
-141.179151711667
 30
0.0
 10
110.1445257971167
 20
-141.3779337211659
 30
0.0
 10
110.2716498205224
 20
-141.4075615423391
 30
0.0
 10
110.3646673986241
 20
-141.4075615423391
 30
0.0
 10
110.5041937657767
 20
-141.4075615423391
 30
0.0
 10
110.6564669862248
 20
-141.3079982828154
 30
0.0
 10
110.6564669862248
 20
-141.075454337561
 30
0.0
 10
110.6564669862248
 20
-140.8194837430069
 30
0.0
 10
110.4766330018947
 20
-140.7495483046564
 30
0.0
 10
110.356054659911
 20
-140.7495483046564
 30
0.0
 10
110.3243597814467
 20
-140.7495483046564
 30
0.0
 10
110.1827663570029
 20
-140.7495483046564
 30
0.0
 10
110.0938828934835
 20
-140.8787393853532
 30
0.0
 10
110.0938828934835
 20
-140.8787393853532
 30
0.0
 10
109.9185275332843
 20
-140.8597913601844
 30
0.0
 10
109.9185275332843
 20
-140.8597913601844
 30
0.0
 10
109.9185275332843
 20
-140.8597913601844
 30
0.0
 10
110.039105875268
 20
-140.0133313994585
 30
0.0
 10
110.039105875268
 20
-140.0133313994585
 30
0.0
 10
110.039105875268
 20
-140.0133313994585
 30
0.0
 10
110.8173529453859
 20
-140.0133313994585
 30
0.0
 10
110.8173529453859
 20
-140.0133313994585
 30
0.0
 10
110.8173529453859
 20
-140.0133313994585
 30
0.0
 10
110.8173529453859
 20
-140.2079792943751
 30
0.0
 10
110.8173529453859
 20
-140.2079792943751
 30
0.0
 10
110.8173529453859
 20
-140.2079792943751
 30
0.0
 10
110.2017143821718
 20
-140.2079792943751
 30
0.0
 10
110.2017143821718
 20
-140.2079792943751
 30
0.0
 10
110.2017143821718
 20
-140.2079792943751
 30
0.0
 10
110.1362575679521
 20
-140.6310370199638
 30
0.0
 10
110.1362575679521
 20
-140.6310370199638
 30
0.0
 10
110.1975802675895
 20
-140.5972750842083
 30
0.0
 10
110.2802625592355
 20
-140.5569674670309
 30
0.0
 10
110.3984293343796
 20
-140.5569674670309
 30
0.0
 10
110.6523328716425
 20
-140.5569674670309
 30
0.0
 10
110.8893554410277
 20
-140.7433471327829
 30
0.0
 10
110.8893554410277
 20
-141.0565063123921
 30
0.0
 10
110.8893554410277
 20
-141.3737996065836
 30
0.0
 10
110.6650797249379
 20
-141.6084106091292
 30
0.0
 10
110.362600341333
 20
-141.6084106091292
 30
0.0
  0
HATCH
  5
D7
330
D2
100
AcDbEntity
  8
_U+30EC_U+30A4_U+30E4_U+30FC 1
 62
   179
420
  2234388
100
AcDbHatch
 10
0.0
 20
0.0
 30
0.0
210
0.0
220
0.0
230
1.0
  2
SOLID
 70
     1
 71
     0
 91
        1
 92
        1
 93
        1
 72
     4
 94
        3
 73
     0
 74
     1
 95
       53
 96
       49
 40
0.0
 40
0.0
 40
0.0
 40
0.0
 40
1.0
 40
1.0
 40
1.0
 40
2.0
 40
2.0
 40
2.0
 40
3.0
 40
3.0
 40
3.0
 40
4.0
 40
4.0
 40
4.0
 40
5.0
 40
5.0
 40
5.0
 40
6.0
 40
6.0
 40
6.0
 40
7.0
 40
7.0
 40
7.0
 40
8.0
 40
8.0
 40
8.0
 40
9.0
 40
9.0
 40
9.0
 40
10.0
 40
10.0
 40
10.0
 40
11.0
 40
11.0
 40
11.0
 40
12.0
 40
12.0
 40
12.0
 40
13.0
 40
13.0
 40
13.0
 40
14.0
 40
14.0
 40
14.0
 40
15.0
 40
15.0
 40
15.0
 40
16.0
 40
16.0
 40
16.0
 40
16.0
 10
110.362600341333
 20
-141.6084106091292
 10
110.2843966738178
 20
-141.6084106091292
 10
110.1827663570029
 20
-141.5915296412514
 10
110.0811360401881
 20
-141.5281398843228
 10
109.9075032277315
 20
-141.4182413383434
 10
109.8864881452714
 20
-141.2869832003553
 10
109.8675401201026
 20
-141.179151711667
 10
109.8675401201026
 20
-141.179151711667
 10
110.0894042693527
 20
-141.179151711667
 10
110.0894042693527
 20
-141.179151711667
 10
110.1445257971167
 20
-141.3779337211659
 10
110.2716498205224
 20
-141.4075615423391
 10
110.3646673986241
 20
-141.4075615423391
 10
110.5041937657767
 20
-141.4075615423391
 10
110.6564669862248
 20
-141.3079982828154
 10
110.6564669862248
 20
-141.075454337561
 10
110.6564669862248
 20
-140.8194837430069
 10
110.4766330018947
 20
-140.7495483046564
 10
110.356054659911
 20
-140.7495483046564
 10
110.3243597814467
 20
-140.7495483046564
 10
110.1827663570029
 20
-140.7495483046564
 10
110.0938828934835
 20
-140.8787393853532
 10
110.0938828934835
 20
-140.8787393853532
 10
109.9185275332843
 20
-140.8597913601844
 10
109.9185275332843
 20
-140.8597913601844
 10
109.9185275332843
 20
-140.8597913601844
 10
110.039105875268
 20
-140.0133313994585
 10
110.039105875268
 20
-140.0133313994585
 10
110.039105875268
 20
-140.0133313994585
 10
110.8173529453859
 20
-140.0133313994585
 10
110.8173529453859
 20
-140.0133313994585
 10
110.8173529453859
 20
-140.0133313994585
 10
110.8173529453859
 20
-140.2079792943751
 10
110.8173529453859
 20
-140.2079792943751
 10
110.8173529453859
 20
-140.2079792943751
 10
110.2017143821718
 20
-140.2079792943751
 10
110.2017143821718
 20
-140.2079792943751
 10
110.2017143821718
 20
-140.2079792943751
 10
110.1362575679521
 20
-140.6310370199638
 10
110.1362575679521
 20
-140.6310370199638
 10
110.1975802675895
 20
-140.5972750842083
 10
110.2802625592355
 20
-140.5569674670309
 10
110.3984293343796
 20
-140.5569674670309
 10
110.6523328716425
 20
-140.5569674670309
 10
110.8893554410277
 20
-140.7433471327829
 10
110.8893554410277
 20
-141.0565063123921
 10
110.8893554410277
 20
-141.3737996065836
 10
110.6650797249379
 20
-141.6084106091292
 10
110.362600341333
 20
-141.6084106091292
 97
        0
 97
        0
 75
     2
 76
     1
 98
        0
  0
SPLINE
  5
D8
330
D2
100
AcDbEntity
  8
_U+30EC_U+30A4_U+30E4_U+30FC 1
370
     0
100
AcDbSpline
210
0.0
220
0.0
230
1.0
 70
    11
 71
     3
 72
    29
 73
    25
 74
     0
 42
0.0000000001
 43
0.0000000001
 12
1.0
 22
0.0
 32
0.0
 13
1.0
 23
0.0
 33
0.0
 40
0.0
 40
0.0
 40
0.0
 40
0.0
 40
1.0
 40
1.0
 40
1.0
 40
2.0
 40
2.0
 40
2.0
 40
3.0
 40
3.0
 40
3.0
 40
4.0
 40
4.0
 40
4.0
 40
5.0
 40
5.0
 40
5.0
 40
6.0
 40
6.0
 40
6.0
 40
7.0
 40
7.0
 40
7.0
 40
8.0
 40
8.0
 40
8.0
 40
8.0
 10
111.955957003261
 20
-141.3800007784571
 30
0.0
 10
111.8484700241212
 20
-141.5894625839603
 30
0.0
 10
111.6748372116646
 20
-141.6084106091292
 30
0.0
 10
111.5583929842632
 20
-141.6084106091292
 30
0.0
 10
111.3978515346505
 20
-141.6084106091292
 30
0.0
 10
111.2559136006582
 20
-141.5619018200783
 30
0.0
 10
111.1608289652654
 20
-141.3800007784571
 30
0.0
 10
111.0571315911593
 20
-141.1853528835405
 30
0.0
 10
111.0381835659905
 20
-140.9486748237038
 30
0.0
 10
111.0381835659905
 20
-140.7857218072515
 30
0.0
 10
111.0381835659905
 20
-140.641716815968
 30
0.0
 10
111.0547200243197
 20
-140.3898803359963
 30
0.0
 10
111.1608289652654
 20
-140.1910983264974
 30
0.0
 10
111.2686604539537
 20
-139.9881822024162
 30
0.0
 10
111.4295464131148
 20
-139.9647555531164
 30
0.0
 10
111.5583929842632
 20
-139.9647555531164
 30
0.0
 10
111.7168673765847
 20
-139.9647555531164
 30
0.0
 10
111.8608723678681
 20
-140.0091972848762
 30
0.0
 10
111.955957003261
 20
-140.1910983264974
 30
0.0
 10
112.0555202627847
 20
-140.3836791641228
 30
0.0
 10
112.0786024025359
 20
-140.6120889947949
 30
0.0
 10
112.0786024025359
 20
-140.7857218072515
 30
0.0
 10
112.0786024025359
 20
-140.9569430528684
 30
0.0
 10
112.0579318296244
 20
-141.1874199408316
 30
0.0
 10
111.955957003261
 20
-141.3800007784571
 30
0.0
  0
SPLINE
  5
D9
330
D2
100
AcDbEntity
  8
_U+30EC_U+30A4_U+30E4_U+30FC 1
370
     0
100
AcDbSpline
210
0.0
220
0.0
230
1.0
 70
    11
 71
     3
 72
    17
 73
    13
 74
     0
 42
0.0000000001
 43
0.0000000001
 12
1.0
 22
0.0
 32
0.0
 13
1.0
 23
0.0
 33
0.0
 40
0.0
 40
0.0
 40
0.0
 40
0.0
 40
1.0
 40
1.0
 40
1.0
 40
2.0
 40
2.0
 40
2.0
 40
3.0
 40
3.0
 40
3.0
 40
4.0
 40
4.0
 40
4.0
 40
4.0
 10
111.5583929842632
 20
-140.1573363907419
 30
0.0
 10
111.3089680711311
 20
-140.1573363907419
 30
0.0
 10
111.2621147725317
 20
-140.440867749178
 30
0.0
 10
111.2621147725317
 20
-140.7857218072515
 30
0.0
 10
111.2621147725317
 20
-141.1050821587341
 30
0.0
 10
111.2982882751268
 20
-141.4137627142125
 30
0.0
 10
111.5583929842632
 20
-141.4137627142125
 30
0.0
 10
111.8057508401041
 20
-141.4137627142125
 30
0.0
 10
111.8546711959947
 20
-141.1326429226162
 30
0.0
 10
111.8546711959947
 20
-140.7857218072515
 30
0.0
 10
111.8546711959947
 20
-140.4660169462203
 30
0.0
 10
111.8164306361084
 20
-140.1573363907419
 30
0.0
 10
111.5583929842632
 20
-140.1573363907419
 30
0.0
  0
HATCH
  5
DA
330
D2
100
AcDbEntity
  8
_U+30EC_U+30A4_U+30E4_U+30FC 1
 62
   179
420
  2234388
100
AcDbHatch
 10
0.0
 20
0.0
 30
0.0
210
0.0
220
0.0
230
1.0
  2
SOLID
 70
     1
 71
     0
 91
        2
 92
        1
 93
        1
 72
     4
 94
        3
 73
     0
 74
     1
 95
       29
 96
       25
 40
0.0
 40
0.0
 40
0.0
 40
0.0
 40
1.0
 40
1.0
 40
1.0
 40
2.0
 40
2.0
 40
2.0
 40
3.0
 40
3.0
 40
3.0
 40
4.0
 40
4.0
 40
4.0
 40
5.0
 40
5.0
 40
5.0
 40
6.0
 40
6.0
 40
6.0
 40
7.0
 40
7.0
 40
7.0
 40
8.0
 40
8.0
 40
8.0
 40
8.0
 10
111.955957003261
 20
-141.3800007784571
 10
111.8484700241212
 20
-141.5894625839603
 10
111.6748372116646
 20
-141.6084106091292
 10
111.5583929842632
 20
-141.6084106091292
 10
111.3978515346505
 20
-141.6084106091292
 10
111.2559136006582
 20
-141.5619018200783
 10
111.1608289652654
 20
-141.3800007784571
 10
111.0571315911593
 20
-141.1853528835405
 10
111.0381835659905
 20
-140.9486748237038
 10
111.0381835659905
 20
-140.7857218072515
 10
111.0381835659905
 20
-140.641716815968
 10
111.0547200243197
 20
-140.3898803359963
 10
111.1608289652654
 20
-140.1910983264974
 10
111.2686604539537
 20
-139.9881822024162
 10
111.4295464131148
 20
-139.9647555531164
 10
111.5583929842632
 20
-139.9647555531164
 10
111.7168673765847
 20
-139.9647555531164
 10
111.8608723678681
 20
-140.0091972848762
 10
111.955957003261
 20
-140.1910983264974
 10
112.0555202627847
 20
-140.3836791641228
 10
112.0786024025359
 20
-140.6120889947949
 10
112.0786024025359
 20
-140.7857218072515
 10
112.0786024025359
 20
-140.9569430528684
 10
112.0579318296244
 20
-141.1874199408316
 10
111.955957003261
 20
-141.3800007784571
 97
        0
 97
        0
 92
        1
 93
        1
 72
     4
 94
        3
 73
     0
 74
     1
 95
       17
 96
       13
 40
0.0
 40
0.0
 40
0.0
 40
0.0
 40
1.0
 40
1.0
 40
1.0
 40
2.0
 40
2.0
 40
2.0
 40
3.0
 40
3.0
 40
3.0
 40
4.0
 40
4.0
 40
4.0
 40
4.0
 10
111.5583929842632
 20
-140.1573363907419
 10
111.3089680711311
 20
-140.1573363907419
 10
111.2621147725317
 20
-140.440867749178
 10
111.2621147725317
 20
-140.7857218072515
 10
111.2621147725317
 20
-141.1050821587341
 10
111.2982882751268
 20
-141.4137627142125
 10
111.5583929842632
 20
-141.4137627142125
 10
111.8057508401041
 20
-141.4137627142125
 10
111.8546711959947
 20
-141.1326429226162
 10
111.8546711959947
 20
-140.7857218072515
 10
111.8546711959947
 20
-140.4660169462203
 10
111.8164306361084
 20
-140.1573363907419
 10
111.5583929842632
 20
-140.1573363907419
 97
        0
 97
        0
 75
     2
 76
     1
 98
        0
  0
ENDBLK
  5
D5
330
D2
100
AcDbEntity
  8
0
100
AcDbBlockEnd
  0
BLOCK
  5
E5
330
E3
100
AcDbEntity
  8
0
100
AcDbBlockBegin
  2
block 4
 70
     0
 10
0.0
 20
0.0
 30
0.0
  3
block 4
  1

  0
SPLINE
  5
E7
330
E3
100
AcDbEntity
  8
_U+30EC_U+30A4_U+30E4_U+30FC 1
370
     0
100
AcDbSpline
210
0.0
220
0.0
230
1.0
 70
    11
 71
     3
 72
    62
 73
    58
 74
     0
 42
0.0000000001
 43
0.0000000001
 12
1.0
 22
0.0
 32
0.0
 13
1.0
 23
0.0
 33
0.0
 40
0.0
 40
0.0
 40
0.0
 40
0.0
 40
1.0
 40
1.0
 40
1.0
 40
2.0
 40
2.0
 40
2.0
 40
3.0
 40
3.0
 40
3.0
 40
4.0
 40
4.0
 40
4.0
 40
5.0
 40
5.0
 40
5.0
 40
6.0
 40
6.0
 40
6.0
 40
7.0
 40
7.0
 40
7.0
 40
8.0
 40
8.0
 40
8.0
 40
9.0
 40
9.0
 40
9.0
 40
10.0
 40
10.0
 40
10.0
 40
11.0
 40
11.0
 40
11.0
 40
12.0
 40
12.0
 40
12.0
 40
13.0
 40
13.0
 40
13.0
 40
14.0
 40
14.0
 40
14.0
 40
15.0
 40
15.0
 40
15.0
 40
16.0
 40
16.0
 40
16.0
 40
17.0
 40
17.0
 40
17.0
 40
18.0
 40
18.0
 40
18.0
 40
19.0
 40
19.0
 40
19.0
 40
19.0
 10
99.6040839052205
 20
-158.012060507372
 30
0.0
 10
99.50882701505336
 20
-158.012060507372
 30
0.0
 10
99.2909247256113
 20
-157.991045424912
 30
0.0
 10
99.16621226904526
 20
-157.8050102687085
 30
0.0
 10
99.09214271611239
 20
-157.6927001558893
 30
0.0
 10
99.08783634675582
 20
-157.5934814059141
 30
0.0
 10
99.08370223217352
 20
-157.508732056977
 30
0.0
 10
99.08370223217352
 20
-157.508732056977
 30
0.0
 10
99.30367157890673
 20
-157.508732056977
 30
0.0
 10
99.30367157890673
 20
-157.508732056977
 30
0.0
 10
99.30573863619787
 20
-157.5828016099099
 30
0.0
 10
99.31641843220216
 20
-157.8174126124554
 30
0.0
 10
99.59977753586395
 20
-157.8174126124554
 30
0.0
 10
99.73740910049968
 20
-157.8174126124554
 30
0.0
 10
99.88968232094773
 20
-157.7478216836533
 30
0.0
 10
99.88968232094773
 20
-157.5194118529813
 30
0.0
 10
99.88968232094773
 20
-157.4029676255798
 30
0.0
 10
99.85161401583571
 20
-157.3543917792378
 30
0.0
 10
99.81991913737141
 20
-157.3226969007735
 30
0.0
 10
99.74584958443855
 20
-157.2486273478406
 30
0.0
 10
99.6294053570371
 20
-157.2358804945452
 30
0.0
 10
99.57445608404737
 20
-157.2358804945452
 30
0.0
 10
99.55550805887849
 20
-157.2358804945452
 30
0.0
 10
99.51950681105762
 20
-157.2379475518364
 30
0.0
 10
99.49194604717563
 20
-157.2420816664186
 30
0.0
 10
99.49194604717563
 20
-157.2420816664186
 30
0.0
 10
99.49194604717563
 20
-157.047433771502
 30
0.0
 10
99.49194604717563
 20
-157.047433771502
 30
0.0
 10
99.53001435228764
 20
-157.053979452924
 30
0.0
 10
99.57238902675621
 20
-157.0560465102152
 30
0.0
 10
99.57876245340393
 20
-157.0560465102152
 30
0.0
 10
99.64421926762367
 20
-157.0560465102152
 30
0.0
 10
99.84317353189685
 20
-157.0346869182066
 30
0.0
 10
99.84317353189685
 20
-156.7980088583699
 30
0.0
 10
99.84317353189685
 20
-156.6202419313311
 30
0.0
 10
99.71191539390882
 20
-156.5651204035671
 30
0.0
 10
99.60201684792936
 20
-156.5651204035671
 30
0.0
 10
99.33760576943644
 20
-156.5651204035671
 30
0.0
 10
99.32899303072331
 20
-156.7980088583699
 30
0.0
 10
99.32485891614101
 20
-156.8696668444632
 30
0.0
 10
99.32485891614101
 20
-156.8696668444632
 30
0.0
 10
99.12177053728553
 20
-156.8696668444632
 30
0.0
 10
99.12177053728553
 20
-156.8696668444632
 30
0.0
 10
99.1302110212244
 20
-156.7449543878971
 30
0.0
 10
99.15777178510639
 20
-156.3684054513593
 30
0.0
 10
99.61459144645052
 20
-156.3684054513593
 30
0.0
 10
99.83886716254028
 20
-156.3684054513593
 30
0.0
 10
100.0800238465078
 20
-156.495529474765
 30
0.0
 10
100.0800238465078
 20
-156.791463176948
 30
0.0
 10
100.0800238465078
 20
-156.9778428427
 30
0.0
 10
99.98493921111488
 20
-157.0601806247975
 30
0.0
 10
99.88537595159116
 20
-157.1215033244349
 30
0.0
 10
99.94687090600287
 20
-157.1490640883169
 30
0.0
 10
100.1287719476241
 20
-157.2293348131232
 30
0.0
 10
100.1287719476241
 20
-157.5066649996859
 30
0.0
 10
100.1287719476241
 20
-157.8449733763374
 30
0.0
 10
99.88124183700886
 20
-158.012060507372
 30
0.0
 10
99.6040839052205
 20
-158.012060507372
 30
0.0
  0
HATCH
  5
E8
330
E3
100
AcDbEntity
  8
_U+30EC_U+30A4_U+30E4_U+30FC 1
 62
   179
420
  2234388
100
AcDbHatch
 10
0.0
 20
0.0
 30
0.0
210
0.0
220
0.0
230
1.0
  2
SOLID
 70
     1
 71
     0
 91
        1
 92
        1
 93
        1
 72
     4
 94
        3
 73
     0
 74
     1
 95
       62
 96
       58
 40
0.0
 40
0.0
 40
0.0
 40
0.0
 40
1.0
 40
1.0
 40
1.0
 40
2.0
 40
2.0
 40
2.0
 40
3.0
 40
3.0
 40
3.0
 40
4.0
 40
4.0
 40
4.0
 40
5.0
 40
5.0
 40
5.0
 40
6.0
 40
6.0
 40
6.0
 40
7.0
 40
7.0
 40
7.0
 40
8.0
 40
8.0
 40
8.0
 40
9.0
 40
9.0
 40
9.0
 40
10.0
 40
10.0
 40
10.0
 40
11.0
 40
11.0
 40
11.0
 40
12.0
 40
12.0
 40
12.0
 40
13.0
 40
13.0
 40
13.0
 40
14.0
 40
14.0
 40
14.0
 40
15.0
 40
15.0
 40
15.0
 40
16.0
 40
16.0
 40
16.0
 40
17.0
 40
17.0
 40
17.0
 40
18.0
 40
18.0
 40
18.0
 40
19.0
 40
19.0
 40
19.0
 40
19.0
 10
99.6040839052205
 20
-158.012060507372
 10
99.50882701505336
 20
-158.012060507372
 10
99.2909247256113
 20
-157.991045424912
 10
99.16621226904526
 20
-157.8050102687085
 10
99.09214271611239
 20
-157.6927001558893
 10
99.08783634675582
 20
-157.5934814059141
 10
99.08370223217352
 20
-157.508732056977
 10
99.08370223217352
 20
-157.508732056977
 10
99.30367157890673
 20
-157.508732056977
 10
99.30367157890673
 20
-157.508732056977
 10
99.30573863619787
 20
-157.5828016099099
 10
99.31641843220216
 20
-157.8174126124554
 10
99.59977753586395
 20
-157.8174126124554
 10
99.73740910049968
 20
-157.8174126124554
 10
99.88968232094773
 20
-157.7478216836533
 10
99.88968232094773
 20
-157.5194118529813
 10
99.88968232094773
 20
-157.4029676255798
 10
99.85161401583571
 20
-157.3543917792378
 10
99.81991913737141
 20
-157.3226969007735
 10
99.74584958443855
 20
-157.2486273478406
 10
99.6294053570371
 20
-157.2358804945452
 10
99.57445608404737
 20
-157.2358804945452
 10
99.55550805887849
 20
-157.2358804945452
 10
99.51950681105762
 20
-157.2379475518364
 10
99.49194604717563
 20
-157.2420816664186
 10
99.49194604717563
 20
-157.2420816664186
 10
99.49194604717563
 20
-157.047433771502
 10
99.49194604717563
 20
-157.047433771502
 10
99.53001435228764
 20
-157.053979452924
 10
99.57238902675621
 20
-157.0560465102152
 10
99.57876245340393
 20
-157.0560465102152
 10
99.64421926762367
 20
-157.0560465102152
 10
99.84317353189685
 20
-157.0346869182066
 10
99.84317353189685
 20
-156.7980088583699
 10
99.84317353189685
 20
-156.6202419313311
 10
99.71191539390882
 20
-156.5651204035671
 10
99.60201684792936
 20
-156.5651204035671
 10
99.33760576943644
 20
-156.5651204035671
 10
99.32899303072331
 20
-156.7980088583699
 10
99.32485891614101
 20
-156.8696668444632
 10
99.32485891614101
 20
-156.8696668444632
 10
99.12177053728553
 20
-156.8696668444632
 10
99.12177053728553
 20
-156.8696668444632
 10
99.1302110212244
 20
-156.7449543878971
 10
99.15777178510639
 20
-156.3684054513593
 10
99.61459144645052
 20
-156.3684054513593
 10
99.83886716254028
 20
-156.3684054513593
 10
100.0800238465078
 20
-156.495529474765
 10
100.0800238465078
 20
-156.791463176948
 10
100.0800238465078
 20
-156.9778428427
 10
99.98493921111488
 20
-157.0601806247975
 10
99.88537595159116
 20
-157.1215033244349
 10
99.94687090600287
 20
-157.1490640883169
 10
100.1287719476241
 20
-157.2293348131232
 10
100.1287719476241
 20
-157.5066649996859
 10
100.1287719476241
 20
-157.8449733763374
 10
99.88124183700886
 20
-158.012060507372
 10
99.6040839052205
 20
-158.012060507372
 97
        0
 97
        0
 75
     2
 76
     1
 98
        0
  0
SPLINE
  5
E9
330
E3
100
AcDbEntity
  8
_U+30EC_U+30A4_U+30E4_U+30FC 1
370
     0
100
AcDbSpline
210
0.0
220
0.0
230
1.0
 70
    11
 71
     3
 72
    32
 73
    28
 74
     0
 42
0.0000000001
 43
0.0000000001
 12
1.0
 22
0.0
 32
0.0
 13
1.0
 23
0.0
 33
0.0
 40
0.0
 40
0.0
 40
0.0
 40
0.0
 40
1.0
 40
1.0
 40
1.0
 40
2.0
 40
2.0
 40
2.0
 40
3.0
 40
3.0
 40
3.0
 40
4.0
 40
4.0
 40
4.0
 40
5.0
 40
5.0
 40
5.0
 40
6.0
 40
6.0
 40
6.0
 40
7.0
 40
7.0
 40
7.0
 40
8.0
 40
8.0
 40
8.0
 40
9.0
 40
9.0
 40
9.0
 40
9.0
 10
100.7936753762773
 20
-158.012060507372
 30
0.0
 10
100.2774278178126
 20
-158.012060507372
 30
0.0
 10
100.2689873338737
 20
-157.4580891533438
 30
0.0
 10
100.2689873338737
 20
-157.2441487237098
 30
0.0
 10
100.2689873338737
 20
-157.0136718357466
 30
0.0
 10
100.2881076138169
 20
-156.3663383940682
 30
0.0
 10
100.8317436813893
 20
-156.3663383940682
 30
0.0
 10
101.0052042390716
 20
-156.3663383940682
 30
0.0
 10
101.2506672923957
 20
-156.4362738324187
 30
0.0
 10
101.2887355975077
 20
-156.7683810371968
 30
0.0
 10
101.2887355975077
 20
-156.7683810371968
 30
0.0
 10
101.0749674226479
 20
-156.7683810371968
 30
0.0
 10
101.0749674226479
 20
-156.7683810371968
 30
0.0
 10
101.0644598814179
 20
-156.7111924521417
 30
0.0
 10
101.0327650029536
 20
-156.5630533462759
 30
0.0
 10
100.8296766240981
 20
-156.5630533462759
 30
0.0
 10
100.5377047817232
 20
-156.5630533462759
 30
0.0
 10
100.4973971645458
 20
-156.8910264364717
 30
0.0
 10
100.4848225660246
 20
-157.0960096178441
 30
0.0
 10
100.5778401441264
 20
-157.0178059503289
 30
0.0
 10
100.6455362704115
 20
-156.9585503079826
 30
0.0
 10
100.8274373120327
 20
-156.9585503079826
 30
0.0
 10
101.0072712963628
 20
-156.9585503079826
 30
0.0
 10
101.3097506799677
 20
-157.0667263062194
 30
0.0
 10
101.3097506799677
 20
-157.4729030639304
 30
0.0
 10
101.3097506799677
 20
-157.7922634154131
 30
0.0
 10
101.1109686704688
 20
-158.012060507372
 30
0.0
 10
100.7936753762773
 20
-158.012060507372
 30
0.0
  0
SPLINE
  5
EA
330
E3
100
AcDbEntity
  8
_U+30EC_U+30A4_U+30E4_U+30FC 1
370
     0
100
AcDbSpline
210
0.0
220
0.0
230
1.0
 70
    11
 71
     3
 72
    17
 73
    13
 74
     0
 42
0.0000000001
 43
0.0000000001
 12
1.0
 22
0.0
 32
0.0
 13
1.0
 23
0.0
 33
0.0
 40
0.0
 40
0.0
 40
0.0
 40
0.0
 40
1.0
 40
1.0
 40
1.0
 40
2.0
 40
2.0
 40
2.0
 40
3.0
 40
3.0
 40
3.0
 40
4.0
 40
4.0
 40
4.0
 40
4.0
 10
100.810556344155
 20
-157.1531982028992
 30
0.0
 10
100.5482123229532
 20
-157.1531982028992
 30
0.0
 10
100.5101440178412
 20
-157.3647270656936
 30
0.0
 10
100.5101440178412
 20
-157.481171293095
 30
0.0
 10
100.5101440178412
 20
-157.6568711628427
 30
0.0
 10
100.6054009080084
 20
-157.819824179295
 30
0.0
 10
100.7893690069207
 20
-157.819824179295
 30
0.0
 10
100.9099473489045
 20
-157.819824179295
 30
0.0
 10
101.0856472186522
 20
-157.7605685369488
 30
0.0
 10
101.0856472186522
 20
-157.4749701212215
 30
0.0
 10
101.0856472186522
 20
-157.2506944051318
 30
0.0
 10
100.9459485967253
 20
-157.1531982028992
 30
0.0
 10
100.810556344155
 20
-157.1531982028992
 30
0.0
  0
HATCH
  5
EB
330
E3
100
AcDbEntity
  8
_U+30EC_U+30A4_U+30E4_U+30FC 1
 62
   179
420
  2234388
100
AcDbHatch
 10
0.0
 20
0.0
 30
0.0
210
0.0
220
0.0
230
1.0
  2
SOLID
 70
     1
 71
     0
 91
        2
 92
        1
 93
        1
 72
     4
 94
        3
 73
     0
 74
     1
 95
       32
 96
       28
 40
0.0
 40
0.0
 40
0.0
 40
0.0
 40
1.0
 40
1.0
 40
1.0
 40
2.0
 40
2.0
 40
2.0
 40
3.0
 40
3.0
 40
3.0
 40
4.0
 40
4.0
 40
4.0
 40
5.0
 40
5.0
 40
5.0
 40
6.0
 40
6.0
 40
6.0
 40
7.0
 40
7.0
 40
7.0
 40
8.0
 40
8.0
 40
8.0
 40
9.0
 40
9.0
 40
9.0
 40
9.0
 10
100.7936753762773
 20
-158.012060507372
 10
100.2774278178126
 20
-158.012060507372
 10
100.2689873338737
 20
-157.4580891533438
 10
100.2689873338737
 20
-157.2441487237098
 10
100.2689873338737
 20
-157.0136718357466
 10
100.2881076138169
 20
-156.3663383940682
 10
100.8317436813893
 20
-156.3663383940682
 10
101.0052042390716
 20
-156.3663383940682
 10
101.2506672923957
 20
-156.4362738324187
 10
101.2887355975077
 20
-156.7683810371968
 10
101.2887355975077
 20
-156.7683810371968
 10
101.0749674226479
 20
-156.7683810371968
 10
101.0749674226479
 20
-156.7683810371968
 10
101.0644598814179
 20
-156.7111924521417
 10
101.0327650029536
 20
-156.5630533462759
 10
100.8296766240981
 20
-156.5630533462759
 10
100.5377047817232
 20
-156.5630533462759
 10
100.4973971645458
 20
-156.8910264364717
 10
100.4848225660246
 20
-157.0960096178441
 10
100.5778401441264
 20
-157.0178059503289
 10
100.6455362704115
 20
-156.9585503079826
 10
100.8274373120327
 20
-156.9585503079826
 10
101.0072712963628
 20
-156.9585503079826
 10
101.3097506799677
 20
-157.0667263062194
 10
101.3097506799677
 20
-157.4729030639304
 10
101.3097506799677
 20
-157.7922634154131
 10
101.1109686704688
 20
-158.012060507372
 10
100.7936753762773
 20
-158.012060507372
 97
        0
 97
        0
 92
        1
 93
        1
 72
     4
 94
        3
 73
     0
 74
     1
 95
       17
 96
       13
 40
0.0
 40
0.0
 40
0.0
 40
0.0
 40
1.0
 40
1.0
 40
1.0
 40
2.0
 40
2.0
 40
2.0
 40
3.0
 40
3.0
 40
3.0
 40
4.0
 40
4.0
 40
4.0
 40
4.0
 10
100.810556344155
 20
-157.1531982028992
 10
100.5482123229532
 20
-157.1531982028992
 10
100.5101440178412
 20
-157.3647270656936
 10
100.5101440178412
 20
-157.481171293095
 10
100.5101440178412
 20
-157.6568711628427
 10
100.6054009080084
 20
-157.819824179295
 10
100.7893690069207
 20
-157.819824179295
 10
100.9099473489045
 20
-157.819824179295
 10
101.0856472186522
 20
-157.7605685369488
 10
101.0856472186522
 20
-157.4749701212215
 10
101.0856472186522
 20
-157.2506944051318
 10
100.9459485967253
 20
-157.1531982028992
 10
100.810556344155
 20
-157.1531982028992
 97
        0
 97
        0
 75
     2
 76
     1
 98
        0
  0
POLYLINE
  5
EC
330
E3
100
AcDbEntity
  8
_U+30EC_U+30A4_U+30E4_U+30FC 1
370
     0
100
AcDb2dPolyline
 66
     1
 10
0.0
 20
0.0
 30
0.0
  0
VERTEX
  5
ED
330
EC
100
AcDbEntity
  8
_U+30EC_U+30A4_U+30E4_U+30FC 1
370
     0
100
AcDbVertex
100
AcDb2dVertex
 10
101.5262749312157
 20
-157.9614176037388
 30
0.0
  0
VERTEX
  5
EE
330
EC
100
AcDbEntity
  8
_U+30EC_U+30A4_U+30E4_U+30FC 1
370
     0
100
AcDbVertex
100
AcDb2dVertex
 10
101.5262749312157
 20
-157.7095811237671
 30
0.0
  0
VERTEX
  5
EF
330
EC
100
AcDbEntity
  8
_U+30EC_U+30A4_U+30E4_U+30FC 1
370
     0
100
AcDbVertex
100
AcDb2dVertex
 10
101.7779391564132
 20
-157.7095811237671
 30
0.0
  0
VERTEX
  5
F0
330
EC
100
AcDbEntity
  8
_U+30EC_U+30A4_U+30E4_U+30FC 1
370
     0
100
AcDbVertex
100
AcDb2dVertex
 10
101.7779391564132
 20
-157.9614176037388
 30
0.0
  0
VERTEX
  5
F1
330
EC
100
AcDbEntity
  8
_U+30EC_U+30A4_U+30E4_U+30FC 1
370
     0
100
AcDbVertex
100
AcDb2dVertex
 10
101.5262749312157
 20
-157.9614176037388
 30
0.0
  0
SEQEND
  5
F2
330
EC
100
AcDbEntity
  8
_U+30EC_U+30A4_U+30E4_U+30FC 1
370
     0
  0
HATCH
  5
F3
330
E3
100
AcDbEntity
  8
_U+30EC_U+30A4_U+30E4_U+30FC 1
 62
   179
420
  2234388
100
AcDbHatch
 10
0.0
 20
0.0
 30
0.0
210
0.0
220
0.0
230
1.0
  2
SOLID
 70
     1
 71
     0
 91
        1
 92
        1
 93
        4
 72
     1
 10
101.5262749312157
 20
-157.9614176037388
 11
101.5262749312157
 21
-157.7095811237671
 72
     1
 10
101.5262749312157
 20
-157.7095811237671
 11
101.7779391564132
 21
-157.7095811237671
 72
     1
 10
101.7779391564132
 20
-157.7095811237671
 11
101.7779391564132
 21
-157.9614176037388
 72
     1
 10
101.7779391564132
 20
-157.9614176037388
 11
101.5262749312157
 21
-157.9614176037388
 97
        0
 75
     2
 76
     1
 98
        0
  0
SPLINE
  5
F4
330
E3
100
AcDbEntity
  8
_U+30EC_U+30A4_U+30E4_U+30FC 1
370
     0
100
AcDbSpline
210
0.0
220
0.0
230
1.0
 70
    11
 71
     3
 72
    29
 73
    25
 74
     0
 42
0.0000000001
 43
0.0000000001
 12
1.0
 22
0.0
 32
0.0
 13
1.0
 23
0.0
 33
0.0
 40
0.0
 40
0.0
 40
0.0
 40
0.0
 40
1.0
 40
1.0
 40
1.0
 40
2.0
 40
2.0
 40
2.0
 40
3.0
 40
3.0
 40
3.0
 40
4.0
 40
4.0
 40
4.0
 40
5.0
 40
5.0
 40
5.0
 40
6.0
 40
6.0
 40
6.0
 40
7.0
 40
7.0
 40
7.0
 40
8.0
 40
8.0
 40
8.0
 40
8.0
 10
102.5145005711596
 20
-158.012060507372
 30
0.0
 10
102.2480224353755
 20
-158.012060507372
 30
0.0
 10
101.9941188981126
 20
-157.8746011975105
 30
0.0
 10
101.9941188981126
 20
-157.5256130248547
 30
0.0
 10
101.9941188981126
 20
-157.2696424303006
 30
0.0
 10
102.1358845773306
 20
-157.1745577949078
 30
0.0
 10
102.2416490087278
 20
-157.1132350952703
 30
0.0
 10
102.1167642973875
 20
-157.053979452924
 30
0.0
 10
102.0406276871635
 20
-156.9396022828137
 30
0.0
 10
102.0406276871635
 20
-156.7787163236526
 30
0.0
 10
102.0406276871635
 20
-156.5037977039296
 30
0.0
 10
102.2395819514366
 20
-156.3684054513593
 30
0.0
 10
102.5145005711596
 20
-156.3684054513593
 30
0.0
 10
102.7980319295956
 20
-156.3684054513593
 30
0.0
 10
102.9883734551557
 20
-156.5124104426427
 30
0.0
 10
102.9883734551557
 20
-156.7787163236526
 30
0.0
 10
102.9883734551557
 20
-156.9396022828137
 30
0.0
 10
102.9101697876405
 20
-157.053979452924
 30
0.0
 10
102.7852850763002
 20
-157.1132350952703
 30
0.0
 10
102.8741685398197
 20
-157.1638779989035
 30
0.0
 10
103.0328151869154
 20
-157.2589626342964
 30
0.0
 10
103.0328151869154
 20
-157.5214789102724
 30
0.0
 10
103.0328151869154
 20
-157.8959607895191
 30
0.0
 10
102.7535901978359
 20
-158.012060507372
 30
0.0
 10
102.5145005711596
 20
-158.012060507372
 30
0.0
  0
SPLINE
  5
F5
330
E3
100
AcDbEntity
  8
_U+30EC_U+30A4_U+30E4_U+30FC 1
370
     0
100
AcDbSpline
210
0.0
220
0.0
230
1.0
 70
    11
 71
     3
 72
    17
 73
    13
 74
     0
 42
0.0000000001
 43
0.0000000001
 12
1.0
 22
0.0
 32
0.0
 13
1.0
 23
0.0
 33
0.0
 40
0.0
 40
0.0
 40
0.0
 40
0.0
 40
1.0
 40
1.0
 40
1.0
 40
2.0
 40
2.0
 40
2.0
 40
3.0
 40
3.0
 40
3.0
 40
4.0
 40
4.0
 40
4.0
 40
4.0
 10
102.5145005711596
 20
-157.2210665839586
 30
0.0
 10
102.3706678346504
 20
-157.2210665839586
 30
0.0
 10
102.2183946142024
 20
-157.3078829901869
 30
0.0
 10
102.2183946142024
 20
-157.5107991142681
 30
0.0
 10
102.2183946142024
 20
-157.716126805189
 30
0.0
 10
102.3453463828338
 20
-157.8174126124554
 30
0.0
 10
102.5145005711596
 20
-157.8174126124554
 30
0.0
 10
102.7007079821373
 20
-157.8174126124554
 30
0.0
 10
102.8107787828911
 20
-157.6947672131805
 30
0.0
 10
102.8107787828911
 20
-157.5170002861416
 30
0.0
 10
102.8107787828911
 20
-157.2951361368915
 30
0.0
 10
102.6478257664387
 20
-157.2210665839586
 30
0.0
 10
102.5145005711596
 20
-157.2210665839586
 30
0.0
  0
SPLINE
  5
F6
330
E3
100
AcDbEntity
  8
_U+30EC_U+30A4_U+30E4_U+30FC 1
370
     0
100
AcDbSpline
210
0.0
220
0.0
230
1.0
 70
    11
 71
     3
 72
    17
 73
    13
 74
     0
 42
0.0000000001
 43
0.0000000001
 12
1.0
 22
0.0
 32
0.0
 13
1.0
 23
0.0
 33
0.0
 40
0.0
 40
0.0
 40
0.0
 40
0.0
 40
1.0
 40
1.0
 40
1.0
 40
2.0
 40
2.0
 40
2.0
 40
3.0
 40
3.0
 40
3.0
 40
4.0
 40
4.0
 40
4.0
 40
4.0
 10
102.5145005711596
 20
-156.5609862889848
 30
0.0
 10
102.3494804974161
 20
-156.5609862889848
 30
0.0
 10
102.2649034032532
 20
-156.6560709243776
 30
0.0
 10
102.2649034032532
 20
-156.791463176948
 30
0.0
 10
102.2649034032532
 20
-156.9141085762229
 30
0.0
 10
102.3369058988949
 20
-157.0326198609155
 30
0.0
 10
102.5145005711596
 20
-157.0326198609155
 30
0.0
 10
102.6922674981985
 20
-157.0326198609155
 30
0.0
 10
102.7640977390659
 20
-156.9141085762229
 30
0.0
 10
102.7640977390659
 20
-156.791463176948
 30
0.0
 10
102.7640977390659
 20
-156.6560709243776
 30
0.0
 10
102.6774535876119
 20
-156.5609862889848
 30
0.0
 10
102.5145005711596
 20
-156.5609862889848
 30
0.0
  0
HATCH
  5
F7
330
E3
100
AcDbEntity
  8
_U+30EC_U+30A4_U+30E4_U+30FC 1
 62
   179
420
  2234388
100
AcDbHatch
 10
0.0
 20
0.0
 30
0.0
210
0.0
220
0.0
230
1.0
  2
SOLID
 70
     1
 71
     0
 91
        3
 92
        1
 93
        1
 72
     4
 94
        3
 73
     0
 74
     1
 95
       29
 96
       25
 40
0.0
 40
0.0
 40
0.0
 40
0.0
 40
1.0
 40
1.0
 40
1.0
 40
2.0
 40
2.0
 40
2.0
 40
3.0
 40
3.0
 40
3.0
 40
4.0
 40
4.0
 40
4.0
 40
5.0
 40
5.0
 40
5.0
 40
6.0
 40
6.0
 40
6.0
 40
7.0
 40
7.0
 40
7.0
 40
8.0
 40
8.0
 40
8.0
 40
8.0
 10
102.5145005711596
 20
-158.012060507372
 10
102.2480224353755
 20
-158.012060507372
 10
101.9941188981126
 20
-157.8746011975105
 10
101.9941188981126
 20
-157.5256130248547
 10
101.9941188981126
 20
-157.2696424303006
 10
102.1358845773306
 20
-157.1745577949078
 10
102.2416490087278
 20
-157.1132350952703
 10
102.1167642973875
 20
-157.053979452924
 10
102.0406276871635
 20
-156.9396022828137
 10
102.0406276871635
 20
-156.7787163236526
 10
102.0406276871635
 20
-156.5037977039296
 10
102.2395819514366
 20
-156.3684054513593
 10
102.5145005711596
 20
-156.3684054513593
 10
102.7980319295956
 20
-156.3684054513593
 10
102.9883734551557
 20
-156.5124104426427
 10
102.9883734551557
 20
-156.7787163236526
 10
102.9883734551557
 20
-156.9396022828137
 10
102.9101697876405
 20
-157.053979452924
 10
102.7852850763002
 20
-157.1132350952703
 10
102.8741685398197
 20
-157.1638779989035
 10
103.0328151869154
 20
-157.2589626342964
 10
103.0328151869154
 20
-157.5214789102724
 10
103.0328151869154
 20
-157.8959607895191
 10
102.7535901978359
 20
-158.012060507372
 10
102.5145005711596
 20
-158.012060507372
 97
        0
 97
        0
 92
        1
 93
        1
 72
     4
 94
        3
 73
     0
 74
     1
 95
       17
 96
       13
 40
0.0
 40
0.0
 40
0.0
 40
0.0
 40
1.0
 40
1.0
 40
1.0
 40
2.0
 40
2.0
 40
2.0
 40
3.0
 40
3.0
 40
3.0
 40
4.0
 40
4.0
 40
4.0
 40
4.0
 10
102.5145005711596
 20
-157.2210665839586
 10
102.3706678346504
 20
-157.2210665839586
 10
102.2183946142024
 20
-157.3078829901869
 10
102.2183946142024
 20
-157.5107991142681
 10
102.2183946142024
 20
-157.716126805189
 10
102.3453463828338
 20
-157.8174126124554
 10
102.5145005711596
 20
-157.8174126124554
 10
102.7007079821373
 20
-157.8174126124554
 10
102.8107787828911
 20
-157.6947672131805
 10
102.8107787828911
 20
-157.5170002861416
 10
102.8107787828911
 20
-157.2951361368915
 10
102.6478257664387
 20
-157.2210665839586
 10
102.5145005711596
 20
-157.2210665839586
 97
        0
 97
        0
 92
        1
 93
        1
 72
     4
 94
        3
 73
     0
 74
     1
 95
       17
 96
       13
 40
0.0
 40
0.0
 40
0.0
 40
0.0
 40
1.0
 40
1.0
 40
1.0
 40
2.0
 40
2.0
 40
2.0
 40
3.0
 40
3.0
 40
3.0
 40
4.0
 40
4.0
 40
4.0
 40
4.0
 10
102.5145005711596
 20
-156.5609862889848
 10
102.3494804974161
 20
-156.5609862889848
 10
102.2649034032532
 20
-156.6560709243776
 10
102.2649034032532
 20
-156.791463176948
 10
102.2649034032532
 20
-156.9141085762229
 10
102.3369058988949
 20
-157.0326198609155
 10
102.5145005711596
 20
-157.0326198609155
 10
102.6922674981985
 20
-157.0326198609155
 10
102.7640977390659
 20
-156.9141085762229
 10
102.7640977390659
 20
-156.791463176948
 10
102.7640977390659
 20
-156.6560709243776
 10
102.6774535876119
 20
-156.5609862889848
 10
102.5145005711596
 20
-156.5609862889848
 97
        0
 97
        0
 75
     2
 76
     1
 98
        0
  0
ENDBLK
  5
E6
330
E3
100
AcDbEntity
  8
0
100
AcDbBlockEnd
  0
BLOCK
  5
102
330
100
100
AcDbEntity
  8
0
100
AcDbBlockBegin
  2
block 5
 70
     0
 10
0.0
 20
0.0
 30
0.0
  3
block 5
  1

  0
SPLINE
  5
104
330
100
100
AcDbEntity
  8
_U+30EC_U+30A4_U+30E4_U+30FC 1
370
     0
100
AcDbSpline
210
0.0
220
0.0
230
1.0
 70
    11
 71
     3
 72
    62
 73
    58
 74
     0
 42
0.0000000001
 43
0.0000000001
 12
1.0
 22
0.0
 32
0.0
 13
1.0
 23
0.0
 33
0.0
 40
0.0
 40
0.0
 40
0.0
 40
0.0
 40
1.0
 40
1.0
 40
1.0
 40
2.0
 40
2.0
 40
2.0
 40
3.0
 40
3.0
 40
3.0
 40
4.0
 40
4.0
 40
4.0
 40
5.0
 40
5.0
 40
5.0
 40
6.0
 40
6.0
 40
6.0
 40
7.0
 40
7.0
 40
7.0
 40
8.0
 40
8.0
 40
8.0
 40
9.0
 40
9.0
 40
9.0
 40
10.0
 40
10.0
 40
10.0
 40
11.0
 40
11.0
 40
11.0
 40
12.0
 40
12.0
 40
12.0
 40
13.0
 40
13.0
 40
13.0
 40
14.0
 40
14.0
 40
14.0
 40
15.0
 40
15.0
 40
15.0
 40
16.0
 40
16.0
 40
16.0
 40
17.0
 40
17.0
 40
17.0
 40
18.0
 40
18.0
 40
18.0
 40
19.0
 40
19.0
 40
19.0
 40
19.0
 10
107.130067247523
 20
-158.012060507372
 30
0.0
 10
107.0349826121302
 20
-158.012060507372
 30
0.0
 10
106.8169080679138
 20
-157.991045424912
 30
0.0
 10
106.6921956113478
 20
-157.8050102687085
 30
0.0
 10
106.6181260584149
 20
-157.6927001558893
 30
0.0
 10
106.6139919438326
 20
-157.5934814059141
 30
0.0
 10
106.6098578292503
 20
-157.508732056977
 30
0.0
 10
106.6098578292503
 20
-157.508732056977
 30
0.0
 10
106.8296549212093
 20
-157.508732056977
 30
0.0
 10
106.8296549212093
 20
-157.508732056977
 30
0.0
 10
106.8317219785004
 20
-157.5828016099099
 30
0.0
 10
106.8424017745047
 20
-157.8174126124554
 30
0.0
 10
107.1259331329407
 20
-157.8174126124554
 30
0.0
 10
107.2633924428022
 20
-157.8174126124554
 30
0.0
 10
107.4156656632503
 20
-157.7478216836533
 30
0.0
 10
107.4156656632503
 20
-157.5194118529813
 30
0.0
 10
107.4156656632503
 20
-157.4029676255798
 30
0.0
 10
107.377425103364
 20
-157.3543917792378
 30
0.0
 10
107.3457302248997
 20
-157.3226969007735
 30
0.0
 10
107.2720051815153
 20
-157.2486273478406
 30
0.0
 10
107.1555609541139
 20
-157.2358804945452
 30
0.0
 10
107.1004394263499
 20
-157.2358804945452
 30
0.0
 10
107.081491401181
 20
-157.2358804945452
 30
0.0
 10
107.0453178985859
 20
-157.2379475518364
 30
0.0
 10
107.0177571347039
 20
-157.2420816664186
 30
0.0
 10
107.0177571347039
 20
-157.2420816664186
 30
0.0
 10
107.0177571347039
 20
-157.047433771502
 30
0.0
 10
107.0177571347039
 20
-157.047433771502
 30
0.0
 10
107.0559976945902
 20
-157.053979452924
 30
0.0
 10
107.0983723690588
 20
-157.0560465102152
 30
0.0
 10
107.1045735409322
 20
-157.0560465102152
 30
0.0
 10
107.1700303551519
 20
-157.0560465102152
 30
0.0
 10
107.3691568741994
 20
-157.0346869182066
 30
0.0
 10
107.3691568741994
 20
-156.7980088583699
 30
0.0
 10
107.3691568741994
 20
-156.6202419313311
 30
0.0
 10
107.2378987362114
 20
-156.5651204035671
 30
0.0
 10
107.1280001902319
 20
-156.5651204035671
 30
0.0
 10
106.8634168569647
 20
-156.5651204035671
 30
0.0
 10
106.8551486278001
 20
-156.7980088583699
 30
0.0
 10
106.8510145132178
 20
-156.8696668444632
 30
0.0
 10
106.8510145132178
 20
-156.8696668444632
 30
0.0
 10
106.6477538795881
 20
-156.8696668444632
 30
0.0
 10
106.6477538795881
 20
-156.8696668444632
 30
0.0
 10
106.6560221087527
 20
-156.7449543878971
 30
0.0
 10
106.6835828726347
 20
-156.3684054513593
 30
0.0
 10
107.1404025339788
 20
-156.3684054513593
 30
0.0
 10
107.3650227596171
 20
-156.3684054513593
 30
0.0
 10
107.6061794435846
 20
-156.495529474765
 30
0.0
 10
107.6061794435846
 20
-156.791463176948
 30
0.0
 10
107.6061794435846
 20
-156.9778428427
 30
0.0
 10
107.5110948081917
 20
-157.0601806247975
 30
0.0
 10
107.4111870391194
 20
-157.1215033244349
 30
0.0
 10
107.4728542483054
 20
-157.1490640883169
 30
0.0
 10
107.6547552899266
 20
-157.2293348131232
 30
0.0
 10
107.6547552899266
 20
-157.5066649996859
 30
0.0
 10
107.6547552899266
 20
-157.8449733763374
 30
0.0
 10
107.4070529245371
 20
-158.012060507372
 30
0.0
 10
107.130067247523
 20
-158.012060507372
 30
0.0
  0
HATCH
  5
105
330
100
100
AcDbEntity
  8
_U+30EC_U+30A4_U+30E4_U+30FC 1
 62
   179
420
  2234388
100
AcDbHatch
 10
0.0
 20
0.0
 30
0.0
210
0.0
220
0.0
230
1.0
  2
SOLID
 70
     1
 71
     0
 91
        1
 92
        1
 93
        1
 72
     4
 94
        3
 73
     0
 74
     1
 95
       62
 96
       58
 40
0.0
 40
0.0
 40
0.0
 40
0.0
 40
1.0
 40
1.0
 40
1.0
 40
2.0
 40
2.0
 40
2.0
 40
3.0
 40
3.0
 40
3.0
 40
4.0
 40
4.0
 40
4.0
 40
5.0
 40
5.0
 40
5.0
 40
6.0
 40
6.0
 40
6.0
 40
7.0
 40
7.0
 40
7.0
 40
8.0
 40
8.0
 40
8.0
 40
9.0
 40
9.0
 40
9.0
 40
10.0
 40
10.0
 40
10.0
 40
11.0
 40
11.0
 40
11.0
 40
12.0
 40
12.0
 40
12.0
 40
13.0
 40
13.0
 40
13.0
 40
14.0
 40
14.0
 40
14.0
 40
15.0
 40
15.0
 40
15.0
 40
16.0
 40
16.0
 40
16.0
 40
17.0
 40
17.0
 40
17.0
 40
18.0
 40
18.0
 40
18.0
 40
19.0
 40
19.0
 40
19.0
 40
19.0
 10
107.130067247523
 20
-158.012060507372
 10
107.0349826121302
 20
-158.012060507372
 10
106.8169080679138
 20
-157.991045424912
 10
106.6921956113478
 20
-157.8050102687085
 10
106.6181260584149
 20
-157.6927001558893
 10
106.6139919438326
 20
-157.5934814059141
 10
106.6098578292503
 20
-157.508732056977
 10
106.6098578292503
 20
-157.508732056977
 10
106.8296549212093
 20
-157.508732056977
 10
106.8296549212093
 20
-157.508732056977
 10
106.8317219785004
 20
-157.5828016099099
 10
106.8424017745047
 20
-157.8174126124554
 10
107.1259331329407
 20
-157.8174126124554
 10
107.2633924428022
 20
-157.8174126124554
 10
107.4156656632503
 20
-157.7478216836533
 10
107.4156656632503
 20
-157.5194118529813
 10
107.4156656632503
 20
-157.4029676255798
 10
107.377425103364
 20
-157.3543917792378
 10
107.3457302248997
 20
-157.3226969007735
 10
107.2720051815153
 20
-157.2486273478406
 10
107.1555609541139
 20
-157.2358804945452
 10
107.1004394263499
 20
-157.2358804945452
 10
107.081491401181
 20
-157.2358804945452
 10
107.0453178985859
 20
-157.2379475518364
 10
107.0177571347039
 20
-157.2420816664186
 10
107.0177571347039
 20
-157.2420816664186
 10
107.0177571347039
 20
-157.047433771502
 10
107.0177571347039
 20
-157.047433771502
 10
107.0559976945902
 20
-157.053979452924
 10
107.0983723690588
 20
-157.0560465102152
 10
107.1045735409322
 20
-157.0560465102152
 10
107.1700303551519
 20
-157.0560465102152
 10
107.3691568741994
 20
-157.0346869182066
 10
107.3691568741994
 20
-156.7980088583699
 10
107.3691568741994
 20
-156.6202419313311
 10
107.2378987362114
 20
-156.5651204035671
 10
107.1280001902319
 20
-156.5651204035671
 10
106.8634168569647
 20
-156.5651204035671
 10
106.8551486278001
 20
-156.7980088583699
 10
106.8510145132178
 20
-156.8696668444632
 10
106.8510145132178
 20
-156.8696668444632
 10
106.6477538795881
 20
-156.8696668444632
 10
106.6477538795881
 20
-156.8696668444632
 10
106.6560221087527
 20
-156.7449543878971
 10
106.6835828726347
 20
-156.3684054513593
 10
107.1404025339788
 20
-156.3684054513593
 10
107.3650227596171
 20
-156.3684054513593
 10
107.6061794435846
 20
-156.495529474765
 10
107.6061794435846
 20
-156.791463176948
 10
107.6061794435846
 20
-156.9778428427
 10
107.5110948081917
 20
-157.0601806247975
 10
107.4111870391194
 20
-157.1215033244349
 10
107.4728542483054
 20
-157.1490640883169
 10
107.6547552899266
 20
-157.2293348131232
 10
107.6547552899266
 20
-157.5066649996859
 10
107.6547552899266
 20
-157.8449733763374
 10
107.4070529245371
 20
-158.012060507372
 10
107.130067247523
 20
-158.012060507372
 97
        0
 97
        0
 75
     2
 76
     1
 98
        0
  0
SPLINE
  5
106
330
100
100
AcDbEntity
  8
_U+30EC_U+30A4_U+30E4_U+30FC 1
370
     0
100
AcDbSpline
210
0.0
220
0.0
230
1.0
 70
    11
 71
     3
 72
    32
 73
    28
 74
     0
 42
0.0000000001
 43
0.0000000001
 12
1.0
 22
0.0
 32
0.0
 13
1.0
 23
0.0
 33
0.0
 40
0.0
 40
0.0
 40
0.0
 40
0.0
 40
1.0
 40
1.0
 40
1.0
 40
2.0
 40
2.0
 40
2.0
 40
3.0
 40
3.0
 40
3.0
 40
4.0
 40
4.0
 40
4.0
 40
5.0
 40
5.0
 40
5.0
 40
6.0
 40
6.0
 40
6.0
 40
7.0
 40
7.0
 40
7.0
 40
8.0
 40
8.0
 40
8.0
 40
9.0
 40
9.0
 40
9.0
 40
9.0
 10
108.3196587185798
 20
-158.012060507372
 30
0.0
 10
107.8032389053409
 20
-158.012060507372
 30
0.0
 10
107.7949706761763
 20
-157.4580891533438
 30
0.0
 10
107.7949706761763
 20
-157.2441487237098
 30
0.0
 10
107.7949706761763
 20
-157.0136718357466
 30
0.0
 10
107.8142632108937
 20
-156.3663383940682
 30
0.0
 10
108.3578992784661
 20
-156.3663383940682
 30
0.0
 10
108.5311875813742
 20
-156.3663383940682
 30
0.0
 10
108.7764783799239
 20
-156.4362738324187
 30
0.0
 10
108.8147189398102
 20
-156.7683810371968
 30
0.0
 10
108.8147189398102
 20
-156.7683810371968
 30
0.0
 10
108.6011230197247
 20
-156.7683810371968
 30
0.0
 10
108.6011230197247
 20
-156.7683810371968
 30
0.0
 10
108.5904432237205
 20
-156.7111924521417
 30
0.0
 10
108.5587483452561
 20
-156.5630533462759
 30
0.0
 10
108.3558322211749
 20
-156.5630533462759
 30
0.0
 10
108.0636881240257
 20
-156.5630533462759
 30
0.0
 10
108.0233805068483
 20
-156.8910264364717
 30
0.0
 10
108.0106336535529
 20
-157.0960096178441
 30
0.0
 10
108.1036512316547
 20
-157.0178059503289
 30
0.0
 10
108.1715196127141
 20
-156.9585503079826
 30
0.0
 10
108.3534206543353
 20
-156.9585503079826
 30
0.0
 10
108.5332546386653
 20
-156.9585503079826
 30
0.0
 10
108.8357340222702
 20
-157.0667263062194
 30
0.0
 10
108.8357340222702
 20
-157.4729030639304
 30
0.0
 10
108.8357340222702
 20
-157.7922634154131
 30
0.0
 10
108.6369520127713
 20
-158.012060507372
 30
0.0
 10
108.3196587185798
 20
-158.012060507372
 30
0.0
  0
SPLINE
  5
107
330
100
100
AcDbEntity
  8
_U+30EC_U+30A4_U+30E4_U+30FC 1
370
     0
100
AcDbSpline
210
0.0
220
0.0
230
1.0
 70
    11
 71
     3
 72
    17
 73
    13
 74
     0
 42
0.0000000001
 43
0.0000000001
 12
1.0
 22
0.0
 32
0.0
 13
1.0
 23
0.0
 33
0.0
 40
0.0
 40
0.0
 40
0.0
 40
0.0
 40
1.0
 40
1.0
 40
1.0
 40
2.0
 40
2.0
 40
2.0
 40
3.0
 40
3.0
 40
3.0
 40
4.0
 40
4.0
 40
4.0
 40
4.0
 10
108.3365396864575
 20
-157.1531982028992
 30
0.0
 10
108.0740234104815
 20
-157.1531982028992
 30
0.0
 10
108.0361273601438
 20
-157.3647270656936
 30
0.0
 10
108.0361273601438
 20
-157.481171293095
 30
0.0
 10
108.0361273601438
 20
-157.6568711628427
 30
0.0
 10
108.1312119955366
 20
-157.819824179295
 30
0.0
 10
108.315180094449
 20
-157.819824179295
 30
0.0
 10
108.4357584364327
 20
-157.819824179295
 30
0.0
 10
108.6114583061805
 20
-157.7605685369488
 30
0.0
 10
108.6114583061805
 20
-157.4749701212215
 30
0.0
 10
108.6114583061805
 20
-157.2506944051318
 30
0.0
 10
108.4719319390279
 20
-157.1531982028992
 30
0.0
 10
108.3365396864575
 20
-157.1531982028992
 30
0.0
  0
HATCH
  5
108
330
100
100
AcDbEntity
  8
_U+30EC_U+30A4_U+30E4_U+30FC 1
 62
   179
420
  2234388
100
AcDbHatch
 10
0.0
 20
0.0
 30
0.0
210
0.0
220
0.0
230
1.0
  2
SOLID
 70
     1
 71
     0
 91
        2
 92
        1
 93
        1
 72
     4
 94
        3
 73
     0
 74
     1
 95
       32
 96
       28
 40
0.0
 40
0.0
 40
0.0
 40
0.0
 40
1.0
 40
1.0
 40
1.0
 40
2.0
 40
2.0
 40
2.0
 40
3.0
 40
3.0
 40
3.0
 40
4.0
 40
4.0
 40
4.0
 40
5.0
 40
5.0
 40
5.0
 40
6.0
 40
6.0
 40
6.0
 40
7.0
 40
7.0
 40
7.0
 40
8.0
 40
8.0
 40
8.0
 40
9.0
 40
9.0
 40
9.0
 40
9.0
 10
108.3196587185798
 20
-158.012060507372
 10
107.8032389053409
 20
-158.012060507372
 10
107.7949706761763
 20
-157.4580891533438
 10
107.7949706761763
 20
-157.2441487237098
 10
107.7949706761763
 20
-157.0136718357466
 10
107.8142632108937
 20
-156.3663383940682
 10
108.3578992784661
 20
-156.3663383940682
 10
108.5311875813742
 20
-156.3663383940682
 10
108.7764783799239
 20
-156.4362738324187
 10
108.8147189398102
 20
-156.7683810371968
 10
108.8147189398102
 20
-156.7683810371968
 10
108.6011230197247
 20
-156.7683810371968
 10
108.6011230197247
 20
-156.7683810371968
 10
108.5904432237205
 20
-156.7111924521417
 10
108.5587483452561
 20
-156.5630533462759
 10
108.3558322211749
 20
-156.5630533462759
 10
108.0636881240257
 20
-156.5630533462759
 10
108.0233805068483
 20
-156.8910264364717
 10
108.0106336535529
 20
-157.0960096178441
 10
108.1036512316547
 20
-157.0178059503289
 10
108.1715196127141
 20
-156.9585503079826
 10
108.3534206543353
 20
-156.9585503079826
 10
108.5332546386653
 20
-156.9585503079826
 10
108.8357340222702
 20
-157.0667263062194
 10
108.8357340222702
 20
-157.4729030639304
 10
108.8357340222702
 20
-157.7922634154131
 10
108.6369520127713
 20
-158.012060507372
 10
108.3196587185798
 20
-158.012060507372
 97
        0
 97
        0
 92
        1
 93
        1
 72
     4
 94
        3
 73
     0
 74
     1
 95
       17
 96
       13
 40
0.0
 40
0.0
 40
0.0
 40
0.0
 40
1.0
 40
1.0
 40
1.0
 40
2.0
 40
2.0
 40
2.0
 40
3.0
 40
3.0
 40
3.0
 40
4.0
 40
4.0
 40
4.0
 40
4.0
 10
108.3365396864575
 20
-157.1531982028992
 10
108.0740234104815
 20
-157.1531982028992
 10
108.0361273601438
 20
-157.3647270656936
 10
108.0361273601438
 20
-157.481171293095
 10
108.0361273601438
 20
-157.6568711628427
 10
108.1312119955366
 20
-157.819824179295
 10
108.315180094449
 20
-157.819824179295
 10
108.4357584364327
 20
-157.819824179295
 10
108.6114583061805
 20
-157.7605685369488
 10
108.6114583061805
 20
-157.4749701212215
 10
108.6114583061805
 20
-157.2506944051318
 10
108.4719319390279
 20
-157.1531982028992
 10
108.3365396864575
 20
-157.1531982028992
 97
        0
 97
        0
 75
     2
 76
     1
 98
        0
  0
POLYLINE
  5
109
330
100
100
AcDbEntity
  8
_U+30EC_U+30A4_U+30E4_U+30FC 1
370
     0
100
AcDb2dPolyline
 66
     1
 10
0.0
 20
0.0
 30
0.0
  0
VERTEX
  5
10A
330
109
100
AcDbEntity
  8
_U+30EC_U+30A4_U+30E4_U+30FC 1
370
     0
100
AcDbVertex
100
AcDb2dVertex
 10
109.0524305282924
 20
-157.9614176037388
 30
0.0
  0
VERTEX
  5
10B
330
109
100
AcDbEntity
  8
_U+30EC_U+30A4_U+30E4_U+30FC 1
370
     0
100
AcDbVertex
100
AcDb2dVertex
 10
109.0524305282924
 20
-157.7095811237671
 30
0.0
  0
VERTEX
  5
10C
330
109
100
AcDbEntity
  8
_U+30EC_U+30A4_U+30E4_U+30FC 1
370
     0
100
AcDbVertex
100
AcDb2dVertex
 10
109.3039224987157
 20
-157.7095811237671
 30
0.0
  0
VERTEX
  5
10D
330
109
100
AcDbEntity
  8
_U+30EC_U+30A4_U+30E4_U+30FC 1
370
     0
100
AcDbVertex
100
AcDb2dVertex
 10
109.3039224987157
 20
-157.9614176037388
 30
0.0
  0
VERTEX
  5
10E
330
109
100
AcDbEntity
  8
_U+30EC_U+30A4_U+30E4_U+30FC 1
370
     0
100
AcDbVertex
100
AcDb2dVertex
 10
109.0524305282924
 20
-157.9614176037388
 30
0.0
  0
SEQEND
  5
10F
330
109
100
AcDbEntity
  8
_U+30EC_U+30A4_U+30E4_U+30FC 1
370
     0
  0
HATCH
  5
110
330
100
100
AcDbEntity
  8
_U+30EC_U+30A4_U+30E4_U+30FC 1
 62
   179
420
  2234388
100
AcDbHatch
 10
0.0
 20
0.0
 30
0.0
210
0.0
220
0.0
230
1.0
  2
SOLID
 70
     1
 71
     0
 91
        1
 92
        1
 93
        4
 72
     1
 10
109.0524305282924
 20
-157.9614176037388
 11
109.0524305282924
 21
-157.7095811237671
 72
     1
 10
109.0524305282924
 20
-157.7095811237671
 11
109.3039224987157
 21
-157.7095811237671
 72
     1
 10
109.3039224987157
 20
-157.7095811237671
 11
109.3039224987157
 21
-157.9614176037388
 72
     1
 10
109.3039224987157
 20
-157.9614176037388
 11
109.0524305282924
 21
-157.9614176037388
 97
        0
 75
     2
 76
     1
 98
        0
  0
SPLINE
  5
111
330
100
100
AcDbEntity
  8
_U+30EC_U+30A4_U+30E4_U+30FC 1
370
     0
100
AcDbSpline
210
0.0
220
0.0
230
1.0
 70
    11
 71
     3
 72
    29
 73
    25
 74
     0
 42
0.0000000001
 43
0.0000000001
 12
1.0
 22
0.0
 32
0.0
 13
1.0
 23
0.0
 33
0.0
 40
0.0
 40
0.0
 40
0.0
 40
0.0
 40
1.0
 40
1.0
 40
1.0
 40
2.0
 40
2.0
 40
2.0
 40
3.0
 40
3.0
 40
3.0
 40
4.0
 40
4.0
 40
4.0
 40
5.0
 40
5.0
 40
5.0
 40
6.0
 40
6.0
 40
6.0
 40
7.0
 40
7.0
 40
7.0
 40
8.0
 40
8.0
 40
8.0
 40
8.0
 10
110.0404839134621
 20
-158.012060507372
 30
0.0
 10
109.7738335229038
 20
-158.012060507372
 30
0.0
 10
109.5202744951894
 20
-157.8746011975105
 30
0.0
 10
109.5202744951894
 20
-157.5256130248547
 30
0.0
 10
109.5202744951894
 20
-157.2696424303006
 30
0.0
 10
109.6618679196332
 20
-157.1745577949078
 30
0.0
 10
109.7676323510303
 20
-157.1132350952703
 30
0.0
 10
109.6429198944643
 20
-157.053979452924
 30
0.0
 10
109.5664387746917
 20
-156.9396022828137
 30
0.0
 10
109.5664387746917
 20
-156.7787163236526
 30
0.0
 10
109.5664387746917
 20
-156.5037977039296
 30
0.0
 10
109.7655652937392
 20
-156.3684054513593
 30
0.0
 10
110.0404839134621
 20
-156.3684054513593
 30
0.0
 10
110.3240152718982
 20
-156.3684054513593
 30
0.0
 10
110.5145290522325
 20
-156.5124104426427
 30
0.0
 10
110.5145290522325
 20
-156.7787163236526
 30
0.0
 10
110.5145290522325
 20
-156.9396022828137
 30
0.0
 10
110.4359808751688
 20
-157.053979452924
 30
0.0
 10
110.3112684186027
 20
-157.1132350952703
 30
0.0
 10
110.4001518821222
 20
-157.1638779989035
 30
0.0
 10
110.5586262744437
 20
-157.2589626342964
 30
0.0
 10
110.5586262744437
 20
-157.5214789102724
 30
0.0
 10
110.5586262744437
 20
-157.8959607895191
 30
0.0
 10
110.2795735401384
 20
-158.012060507372
 30
0.0
 10
110.0404839134621
 20
-158.012060507372
 30
0.0
  0
SPLINE
  5
112
330
100
100
AcDbEntity
  8
_U+30EC_U+30A4_U+30E4_U+30FC 1
370
     0
100
AcDbSpline
210
0.0
220
0.0
230
1.0
 70
    11
 71
     3
 72
    17
 73
    13
 74
     0
 42
0.0000000001
 43
0.0000000001
 12
1.0
 22
0.0
 32
0.0
 13
1.0
 23
0.0
 33
0.0
 40
0.0
 40
0.0
 40
0.0
 40
0.0
 40
1.0
 40
1.0
 40
1.0
 40
2.0
 40
2.0
 40
2.0
 40
3.0
 40
3.0
 40
3.0
 40
4.0
 40
4.0
 40
4.0
 40
4.0
 10
110.0404839134621
 20
-157.2210665839586
 30
0.0
 10
109.8964789221787
 20
-157.2210665839586
 30
0.0
 10
109.7442057017306
 20
-157.3078829901869
 30
0.0
 10
109.7442057017306
 20
-157.5107991142681
 30
0.0
 10
109.7442057017306
 20
-157.716126805189
 30
0.0
 10
109.8713297251363
 20
-157.8174126124554
 30
0.0
 10
110.0404839134621
 20
-157.8174126124554
 30
0.0
 10
110.2265190696656
 20
-157.8174126124554
 30
0.0
 10
110.3367621251936
 20
-157.6947672131805
 30
0.0
 10
110.3367621251936
 20
-157.5170002861416
 30
0.0
 10
110.3367621251936
 20
-157.2951361368915
 30
0.0
 10
110.1738091087413
 20
-157.2210665839586
 30
0.0
 10
110.0404839134621
 20
-157.2210665839586
 30
0.0
  0
SPLINE
  5
113
330
100
100
AcDbEntity
  8
_U+30EC_U+30A4_U+30E4_U+30FC 1
370
     0
100
AcDbSpline
210
0.0
220
0.0
230
1.0
 70
    11
 71
     3
 72
    17
 73
    13
 74
     0
 42
0.0000000001
 43
0.0000000001
 12
1.0
 22
0.0
 32
0.0
 13
1.0
 23
0.0
 33
0.0
 40
0.0
 40
0.0
 40
0.0
 40
0.0
 40
1.0
 40
1.0
 40
1.0
 40
2.0
 40
2.0
 40
2.0
 40
3.0
 40
3.0
 40
3.0
 40
4.0
 40
4.0
 40
4.0
 40
4.0
 10
110.0404839134621
 20
-156.5609862889848
 30
0.0
 10
109.8754638397186
 20
-156.5609862889848
 30
0.0
 10
109.79105900033
 20
-156.6560709243776
 30
0.0
 10
109.79105900033
 20
-156.791463176948
 30
0.0
 10
109.79105900033
 20
-156.9141085762229
 30
0.0
 10
109.8627169864232
 20
-157.0326198609155
 30
0.0
 10
110.0404839134621
 20
-157.0326198609155
 30
0.0
 10
110.218250840501
 20
-157.0326198609155
 30
0.0
 10
110.2899088265942
 20
-156.9141085762229
 30
0.0
 10
110.2899088265942
 20
-156.791463176948
 30
0.0
 10
110.2899088265942
 20
-156.6560709243776
 30
0.0
 10
110.2034369299144
 20
-156.5609862889848
 30
0.0
 10
110.0404839134621
 20
-156.5609862889848
 30
0.0
  0
HATCH
  5
114
330
100
100
AcDbEntity
  8
_U+30EC_U+30A4_U+30E4_U+30FC 1
 62
   179
420
  2234388
100
AcDbHatch
 10
0.0
 20
0.0
 30
0.0
210
0.0
220
0.0
230
1.0
  2
SOLID
 70
     1
 71
     0
 91
        3
 92
        1
 93
        1
 72
     4
 94
        3
 73
     0
 74
     1
 95
       29
 96
       25
 40
0.0
 40
0.0
 40
0.0
 40
0.0
 40
1.0
 40
1.0
 40
1.0
 40
2.0
 40
2.0
 40
2.0
 40
3.0
 40
3.0
 40
3.0
 40
4.0
 40
4.0
 40
4.0
 40
5.0
 40
5.0
 40
5.0
 40
6.0
 40
6.0
 40
6.0
 40
7.0
 40
7.0
 40
7.0
 40
8.0
 40
8.0
 40
8.0
 40
8.0
 10
110.0404839134621
 20
-158.012060507372
 10
109.7738335229038
 20
-158.012060507372
 10
109.5202744951894
 20
-157.8746011975105
 10
109.5202744951894
 20
-157.5256130248547
 10
109.5202744951894
 20
-157.2696424303006
 10
109.6618679196332
 20
-157.1745577949078
 10
109.7676323510303
 20
-157.1132350952703
 10
109.6429198944643
 20
-157.053979452924
 10
109.5664387746917
 20
-156.9396022828137
 10
109.5664387746917
 20
-156.7787163236526
 10
109.5664387746917
 20
-156.5037977039296
 10
109.7655652937392
 20
-156.3684054513593
 10
110.0404839134621
 20
-156.3684054513593
 10
110.3240152718982
 20
-156.3684054513593
 10
110.5145290522325
 20
-156.5124104426427
 10
110.5145290522325
 20
-156.7787163236526
 10
110.5145290522325
 20
-156.9396022828137
 10
110.4359808751688
 20
-157.053979452924
 10
110.3112684186027
 20
-157.1132350952703
 10
110.4001518821222
 20
-157.1638779989035
 10
110.5586262744437
 20
-157.2589626342964
 10
110.5586262744437
 20
-157.5214789102724
 10
110.5586262744437
 20
-157.8959607895191
 10
110.2795735401384
 20
-158.012060507372
 10
110.0404839134621
 20
-158.012060507372
 97
        0
 97
        0
 92
        1
 93
        1
 72
     4
 94
        3
 73
     0
 74
     1
 95
       17
 96
       13
 40
0.0
 40
0.0
 40
0.0
 40
0.0
 40
1.0
 40
1.0
 40
1.0
 40
2.0
 40
2.0
 40
2.0
 40
3.0
 40
3.0
 40
3.0
 40
4.0
 40
4.0
 40
4.0
 40
4.0
 10
110.0404839134621
 20
-157.2210665839586
 10
109.8964789221787
 20
-157.2210665839586
 10
109.7442057017306
 20
-157.3078829901869
 10
109.7442057017306
 20
-157.5107991142681
 10
109.7442057017306
 20
-157.716126805189
 10
109.8713297251363
 20
-157.8174126124554
 10
110.0404839134621
 20
-157.8174126124554
 10
110.2265190696656
 20
-157.8174126124554
 10
110.3367621251936
 20
-157.6947672131805
 10
110.3367621251936
 20
-157.5170002861416
 10
110.3367621251936
 20
-157.2951361368915
 10
110.1738091087413
 20
-157.2210665839586
 10
110.0404839134621
 20
-157.2210665839586
 97
        0
 97
        0
 92
        1
 93
        1
 72
     4
 94
        3
 73
     0
 74
     1
 95
       17
 96
       13
 40
0.0
 40
0.0
 40
0.0
 40
0.0
 40
1.0
 40
1.0
 40
1.0
 40
2.0
 40
2.0
 40
2.0
 40
3.0
 40
3.0
 40
3.0
 40
4.0
 40
4.0
 40
4.0
 40
4.0
 10
110.0404839134621
 20
-156.5609862889848
 10
109.8754638397186
 20
-156.5609862889848
 10
109.79105900033
 20
-156.6560709243776
 10
109.79105900033
 20
-156.791463176948
 10
109.79105900033
 20
-156.9141085762229
 10
109.8627169864232
 20
-157.0326198609155
 10
110.0404839134621
 20
-157.0326198609155
 10
110.218250840501
 20
-157.0326198609155
 10
110.2899088265942
 20
-156.9141085762229
 10
110.2899088265942
 20
-156.791463176948
 10
110.2899088265942
 20
-156.6560709243776
 10
110.2034369299144
 20
-156.5609862889848
 10
110.0404839134621
 20
-156.5609862889848
 97
        0
 97
        0
 75
     2
 76
     1
 98
        0
  0
ENDBLK
  5
103
330
100
100
AcDbEntity
  8
0
100
AcDbBlockEnd
  0
ENDSEC
  0
SECTION
  2
ENTITIES
  0
POLYLINE
  5
41
330
1F
100
AcDbEntity
  8
_U+30EC_U+30A4_U+30E4_U+30FC 1
 62
   179
420
  2234388
370
     9
100
AcDb2dPolyline
 66
     1
 10
0.0
 20
0.0
 30
0.0
  0
VERTEX
  5
42
330
41
100
AcDbEntity
  8
_U+30EC_U+30A4_U+30E4_U+30FC 1
 62
   179
420
  2234388
370
     9
100
AcDbVertex
100
AcDb2dVertex
 10
105.0932729670264
 20
-137.8700836684676
 30
0.0
  0
VERTEX
  5
43
330
41
100
AcDbEntity
  8
_U+30EC_U+30A4_U+30E4_U+30FC 1
 62
   179
420
  2234388
370
     9
100
AcDbVertex
100
AcDb2dVertex
 10
105.0932729670264
 20
-137.8693838834472
 30
0.0
  0
VERTEX
  5
44
330
41
100
AcDbEntity
  8
_U+30EC_U+30A4_U+30E4_U+30FC 1
 62
   179
420
  2234388
370
     9
100
AcDbVertex
100
AcDb2dVertex
 10
105.0929176915545
 20
-137.8700836684676
 30
0.0
  0
VERTEX
  5
45
330
41
100
AcDbEntity
  8
_U+30EC_U+30A4_U+30E4_U+30FC 1
 62
   179
420
  2234388
370
     9
100
AcDbVertex
100
AcDb2dVertex
 10
105.0932729670264
 20
-137.8711494948834
 30
0.0
  0
VERTEX
  5
46
330
41
100
AcDbEntity
  8
_U+30EC_U+30A4_U+30E4_U+30FC 1
 62
   179
420
  2234388
370
     9
100
AcDbVertex
100
AcDb2dVertex
 10
105.0932729670264
 20
-137.8700836684676
 30
0.0
  0
SEQEND
  5
47
330
41
100
AcDbEntity
  8
_U+30EC_U+30A4_U+30E4_U+30FC 1
 62
   179
420
  2234388
370
     9
  0
POLYLINE
  5
48
330
1F
100
AcDbEntity
  8
_U+30EC_U+30A4_U+30E4_U+30FC 1
 62
   179
420
  2234388
370
     9
100
AcDb2dPolyline
 66
     1
 10
0.0
 20
0.0
 30
0.0
  0
VERTEX
  5
49
330
48
100
AcDbEntity
  8
_U+30EC_U+30A4_U+30E4_U+30FC 1
 62
   179
420
  2234388
370
     9
100
AcDbVertex
100
AcDb2dVertex
 10
94.26847074059305
 20
-144.1204881095862
 30
0.0
  0
VERTEX
  5
4A
330
48
100
AcDbEntity
  8
_U+30EC_U+30A4_U+30E4_U+30FC 1
 62
   179
420
  2234388
370
     9
100
AcDbVertex
100
AcDb2dVertex
 10
105.0941557727445
 20
-137.8703312847056
 30
0.0
  0
SEQEND
  5
4B
330
48
100
AcDbEntity
  8
_U+30EC_U+30A4_U+30E4_U+30FC 1
 62
   179
420
  2234388
370
     9
  0
POLYLINE
  5
4C
330
1F
100
AcDbEntity
  8
_U+30EC_U+30A4_U+30E4_U+30FC 1
 62
   179
420
  2234388
370
     9
100
AcDb2dPolyline
 66
     1
 10
0.0
 20
0.0
 30
0.0
  0
VERTEX
  5
4D
330
4C
100
AcDbEntity
  8
_U+30EC_U+30A4_U+30E4_U+30FC 1
 62
   179
420
  2234388
370
     9
100
AcDbVertex
100
AcDb2dVertex
 10
105.0932729670264
 20
-137.8693731175238
 30
0.0
  0
VERTEX
  5
4E
330
4C
100
AcDbEntity
  8
_U+30EC_U+30A4_U+30E4_U+30FC 1
 62
   179
420
  2234388
370
     9
100
AcDbVertex
100
AcDb2dVertex
 10
105.0932729670264
 20
-141.7802778101499
 30
0.0
  0
SEQEND
  5
4F
330
4C
100
AcDbEntity
  8
_U+30EC_U+30A4_U+30E4_U+30FC 1
 62
   179
420
  2234388
370
     9
  0
POLYLINE
  5
50
330
1F
100
AcDbEntity
  8
_U+30EC_U+30A4_U+30E4_U+30FC 1
 62
   179
420
  2234388
370
     9
100
AcDb2dPolyline
 66
     1
 10
0.0
 20
0.0
 30
0.0
  0
VERTEX
  5
51
330
50
100
AcDbEntity
  8
_U+30EC_U+30A4_U+30E4_U+30FC 1
 62
   179
420
  2234388
370
     9
100
AcDbVertex
100
AcDb2dVertex
 10
94.16851990782723
 20
-144.1783764796618
 30
0.0
  0
VERTEX
  5
52
330
50
100
AcDbEntity
  8
_U+30EC_U+30A4_U+30E4_U+30FC 1
 62
   179
420
  2234388
370
     9
100
AcDbVertex
100
AcDb2dVertex
 10
94.16851990782723
 20
-147.7417894629832
 30
0.0
  0
SEQEND
  5
53
330
50
100
AcDbEntity
  8
_U+30EC_U+30A4_U+30E4_U+30FC 1
 62
   179
420
  2234388
370
     9
  0
SPLINE
  5
54
330
1F
100
AcDbEntity
  8
_U+30EC_U+30A4_U+30E4_U+30FC 1
370
     0
100
AcDbSpline
210
0.0
220
0.0
230
1.0
 70
    11
 71
     3
 72
    17
 73
    13
 74
     0
 42
0.0000000001
 43
0.0000000001
 12
1.0
 22
0.0
 32
0.0
 13
1.0
 23
0.0
 33
0.0
 40
0.0
 40
0.0
 40
0.0
 40
0.0
 40
1.0
 40
1.0
 40
1.0
 40
2.0
 40
2.0
 40
2.0
 40
3.0
 40
3.0
 40
3.0
 40
4.0
 40
4.0
 40
4.0
 40
4.0
 10
94.16851990782723
 20
-144.0209356159859
 30
0.0
 10
94.22320003273218
 20
-144.0209356159859
 30
0.0
 10
94.26835231543573
 20
-144.0657433891409
 30
0.0
 10
94.26835231543573
 20
-144.1207787895178
 30
0.0
 10
94.26835231543573
 20
-144.1758141898947
 30
0.0
 10
94.22320003273218
 20
-144.2206111971266
 30
0.0
 10
94.16851990782723
 20
-144.2206111971266
 30
0.0
 10
94.11312923197845
 20
-144.2206111971266
 30
0.0
 10
94.06832145882342
 20
-144.1758141898947
 30
0.0
 10
94.06832145882342
 20
-144.1207787895178
 30
0.0
 10
94.06832145882342
 20
-144.0657433891409
 30
0.0
 10
94.11312923197845
 20
-144.0209356159859
 30
0.0
 10
94.16851990782723
 20
-144.0209356159859
 30
0.0
  0
HATCH
  5
55
330
1F
100
AcDbEntity
  8
_U+30EC_U+30A4_U+30E4_U+30FC 1
 62
   179
420
  2234388
100
AcDbHatch
 10
0.0
 20
0.0
 30
0.0
210
0.0
220
0.0
230
1.0
  2
SOLID
 70
     1
 71
     0
 91
        1
 92
        1
 93
        2
 72
     4
 94
        3
 73
     0
 74
     0
 95
       17
 96
       13
 40
0.0
 40
0.0
 40
0.0
 40
0.0
 40
0.3527777776895833
 40
0.3527777776895833
 40
0.3527777776895833
 40
0.7055555553791667
 40
0.7055555553791667
 40
0.7055555553791667
 40
1.05833333306875
 40
1.05833333306875
 40
1.05833333306875
 40
1.411111110758333
 40
1.411111110758333
 40
1.411111110758333
 40
1.411111110758333
 10
94.16851990782723
 20
-144.0209356159859
 10
94.22320003273218
 20
-144.0209356159859
 10
94.26835231543573
 20
-144.0657433891409
 10
94.26835231543573
 20
-144.1207787895178
 10
94.26835231543573
 20
-144.1758141898947
 10
94.22320003273218
 20
-144.2206111971266
 10
94.16851990782723
 20
-144.2206111971266
 10
94.11312923197845
 20
-144.2206111971266
 10
94.06832145882342
 20
-144.1758141898947
 10
94.06832145882342
 20
-144.1207787895178
 10
94.06832145882342
 20
-144.0657433891409
 10
94.11312923197845
 20
-144.0209356159859
 10
94.16851990782723
 20
-144.0209356159859
 97
        0
 72
     1
 10
94.16851990782723
 20
-144.0209356159859
 11
94.16851990782723
 21
-144.0209356159859
 97
        0
 75
     2
 76
     1
 98
        0
  0
POLYLINE
  5
56
330
1F
100
AcDbEntity
  8
_U+30EC_U+30A4_U+30E4_U+30FC 1
 62
   179
420
  2234388
370
     9
100
AcDb2dPolyline
 66
     1
 10
0.0
 20
0.0
 30
0.0
  0
VERTEX
  5
57
330
56
100
AcDbEntity
  8
_U+30EC_U+30A4_U+30E4_U+30FC 1
 62
   179
420
  2234388
370
     9
100
AcDbVertex
100
AcDb2dVertex
 10
116.0176707507536
 20
-144.1204881095862
 30
0.0
  0
VERTEX
  5
58
330
56
100
AcDbEntity
  8
_U+30EC_U+30A4_U+30E4_U+30FC 1
 62
   179
420
  2234388
370
     9
100
AcDbVertex
100
AcDb2dVertex
 10
105.193740564115
 20
-137.8703312847056
 30
0.0
  0
SEQEND
  5
59
330
56
100
AcDbEntity
  8
_U+30EC_U+30A4_U+30E4_U+30FC 1
 62
   179
420
  2234388
370
     9
  0
POLYLINE
  5
5A
330
1F
100
AcDbEntity
  8
_U+30EC_U+30A4_U+30E4_U+30FC 1
 62
   179
420
  2234388
370
    25
100
AcDb2dPolyline
 66
     1
 10
0.0
 20
0.0
 30
0.0
  0
VERTEX
  5
5B
330
5A
100
AcDbEntity
  8
_U+30EC_U+30A4_U+30E4_U+30FC 1
 62
   179
420
  2234388
370
    25
100
AcDbVertex
100
AcDb2dVertex
 10
94.26847074059305
 20
-148.4285369501979
 30
0.0
  0
VERTEX
  5
5C
330
5A
100
AcDbEntity
  8
_U+30EC_U+30A4_U+30E4_U+30FC 1
 62
   179
420
  2234388
370
    25
100
AcDbVertex
100
AcDb2dVertex
 10
105.0941557727445
 20
-142.1783801253169
 30
0.0
  0
SEQEND
  5
5D
330
5A
100
AcDbEntity
  8
_U+30EC_U+30A4_U+30E4_U+30FC 1
 62
   179
420
  2234388
370
    25
  0
POLYLINE
  5
5E
330
1F
100
AcDbEntity
  8
_U+30EC_U+30A4_U+30E4_U+30FC 1
 62
   179
420
  2234388
370
    25
100
AcDb2dPolyline
 66
     1
 10
0.0
 20
0.0
 30
0.0
  0
VERTEX
  5
5F
330
5E
100
AcDbEntity
  8
_U+30EC_U+30A4_U+30E4_U+30FC 1
 62
   179
420
  2234388
370
    25
100
AcDbVertex
100
AcDb2dVertex
 10
116.0176707507536
 20
-148.4285369501979
 30
0.0
  0
VERTEX
  5
60
330
5E
100
AcDbEntity
  8
_U+30EC_U+30A4_U+30E4_U+30FC 1
 62
   179
420
  2234388
370
    25
100
AcDbVertex
100
AcDb2dVertex
 10
105.193740564115
 20
-142.1783801253169
 30
0.0
  0
SEQEND
  5
61
330
5E
100
AcDbEntity
  8
_U+30EC_U+30A4_U+30E4_U+30FC 1
 62
   179
420
  2234388
370
    25
  0
POLYLINE
  5
62
330
1F
100
AcDbEntity
  8
_U+30EC_U+30A4_U+30E4_U+30FC 1
 62
   179
420
  2234388
370
    25
100
AcDb2dPolyline
 66
     1
 10
0.0
 20
0.0
 30
0.0
  0
VERTEX
  5
63
330
62
100
AcDbEntity
  8
_U+30EC_U+30A4_U+30E4_U+30FC 1
 62
   179
420
  2234388
370
    25
100
AcDbVertex
100
AcDb2dVertex
 10
94.26847074059305
 20
-148.9429220039155
 30
0.0
  0
VERTEX
  5
64
330
62
100
AcDbEntity
  8
_U+30EC_U+30A4_U+30E4_U+30FC 1
 62
   179
420
  2234388
370
    25
100
AcDbVertex
100
AcDb2dVertex
 10
105.0941557727445
 20
-142.6927651790349
 30
0.0
  0
SEQEND
  5
65
330
62
100
AcDbEntity
  8
_U+30EC_U+30A4_U+30E4_U+30FC 1
 62
   179
420
  2234388
370
    25
  0
POLYLINE
  5
66
330
1F
100
AcDbEntity
  8
_U+30EC_U+30A4_U+30E4_U+30FC 1
 62
   179
420
  2234388
370
    25
100
AcDb2dPolyline
 66
     1
 10
0.0
 20
0.0
 30
0.0
  0
VERTEX
  5
67
330
66
100
AcDbEntity
  8
_U+30EC_U+30A4_U+30E4_U+30FC 1
 62
   179
420
  2234388
370
    25
100
AcDbVertex
100
AcDb2dVertex
 10
116.0176707507536
 20
-148.9429220039155
 30
0.0
  0
VERTEX
  5
68
330
66
100
AcDbEntity
  8
_U+30EC_U+30A4_U+30E4_U+30FC 1
 62
   179
420
  2234388
370
    25
100
AcDbVertex
100
AcDb2dVertex
 10
105.193740564115
 20
-142.6927651790349
 30
0.0
  0
SEQEND
  5
69
330
66
100
AcDbEntity
  8
_U+30EC_U+30A4_U+30E4_U+30FC 1
 62
   179
420
  2234388
370
    25
  0
POLYLINE
  5
6A
330
1F
100
AcDbEntity
  8
_U+30EC_U+30A4_U+30E4_U+30FC 1
 62
   179
420
  2234388
370
    25
100
AcDb2dPolyline
 66
     1
 10
0.0
 20
0.0
 30
0.0
  0
VERTEX
  5
6B
330
6A
100
AcDbEntity
  8
_U+30EC_U+30A4_U+30E4_U+30FC 1
 62
   179
420
  2234388
370
    25
100
AcDbVertex
100
AcDb2dVertex
 10
94.26847074059305
 20
-153.5087178164405
 30
0.0
  0
VERTEX
  5
6C
330
6A
100
AcDbEntity
  8
_U+30EC_U+30A4_U+30E4_U+30FC 1
 62
   179
420
  2234388
370
    25
100
AcDbVertex
100
AcDb2dVertex
 10
105.0941557727445
 20
-147.2585609915599
 30
0.0
  0
SEQEND
  5
6D
330
6A
100
AcDbEntity
  8
_U+30EC_U+30A4_U+30E4_U+30FC 1
 62
   179
420
  2234388
370
    25
  0
POLYLINE
  5
6E
330
1F
100
AcDbEntity
  8
_U+30EC_U+30A4_U+30E4_U+30FC 1
 62
   179
420
  2234388
370
    25
100
AcDb2dPolyline
 66
     1
 10
0.0
 20
0.0
 30
0.0
  0
VERTEX
  5
6F
330
6E
100
AcDbEntity
  8
_U+30EC_U+30A4_U+30E4_U+30FC 1
 62
   179
420
  2234388
370
    25
100
AcDbVertex
100
AcDb2dVertex
 10
116.0176707507536
 20
-153.5087178164405
 30
0.0
  0
VERTEX
  5
70
330
6E
100
AcDbEntity
  8
_U+30EC_U+30A4_U+30E4_U+30FC 1
 62
   179
420
  2234388
370
    25
100
AcDbVertex
100
AcDb2dVertex
 10
105.193740564115
 20
-147.2585609915599
 30
0.0
  0
SEQEND
  5
71
330
6E
100
AcDbEntity
  8
_U+30EC_U+30A4_U+30E4_U+30FC 1
 62
   179
420
  2234388
370
    25
  0
POLYLINE
  5
72
330
1F
100
AcDbEntity
  8
_U+30EC_U+30A4_U+30E4_U+30FC 1
 62
   179
420
  2234388
370
    25
100
AcDb2dPolyline
 66
     1
 10
0.0
 20
0.0
 30
0.0
  0
VERTEX
  5
73
330
72
100
AcDbEntity
  8
_U+30EC_U+30A4_U+30E4_U+30FC 1
 62
   179
420
  2234388
370
    25
100
AcDbVertex
100
AcDb2dVertex
 10
97.14233709661828
 20
-152.6161151080591
 30
0.0
  0
VERTEX
  5
74
330
72
100
AcDbEntity
  8
_U+30EC_U+30A4_U+30E4_U+30FC 1
 62
   179
420
  2234388
370
    25
100
AcDbVertex
100
AcDb2dVertex
 10
105.0939404542766
 20
-148.0250732051812
 30
0.0
  0
SEQEND
  5
75
330
72
100
AcDbEntity
  8
_U+30EC_U+30A4_U+30E4_U+30FC 1
 62
   179
420
  2234388
370
    25
  0
POLYLINE
  5
76
330
1F
100
AcDbEntity
  8
_U+30EC_U+30A4_U+30E4_U+30FC 1
 62
   179
420
  2234388
370
    25
100
AcDb2dPolyline
 66
     1
 10
0.0
 20
0.0
 30
0.0
  0
VERTEX
  5
77
330
76
100
AcDbEntity
  8
_U+30EC_U+30A4_U+30E4_U+30FC 1
 62
   179
420
  2234388
370
    25
100
AcDbVertex
100
AcDb2dVertex
 10
113.1438043947284
 20
-152.6161151080591
 30
0.0
  0
VERTEX
  5
78
330
76
100
AcDbEntity
  8
_U+30EC_U+30A4_U+30E4_U+30FC 1
 62
   179
420
  2234388
370
    25
100
AcDbVertex
100
AcDb2dVertex
 10
105.1939558825828
 20
-148.0250732051812
 30
0.0
  0
SEQEND
  5
79
330
76
100
AcDbEntity
  8
_U+30EC_U+30A4_U+30E4_U+30FC 1
 62
   179
420
  2234388
370
    25
  0
POLYLINE
  5
7A
330
1F
100
AcDbEntity
  8
_U+30EC_U+30A4_U+30E4_U+30FC 1
 62
   179
420
  2234388
370
    25
100
AcDb2dPolyline
 66
     1
 10
0.0
 20
0.0
 30
0.0
  0
VERTEX
  5
7B
330
7A
100
AcDbEntity
  8
_U+30EC_U+30A4_U+30E4_U+30FC 1
 62
   179
420
  2234388
370
    25
100
AcDbVertex
100
AcDb2dVertex
 10
94.26847074059305
 20
-156.6337639311106
 30
0.0
  0
VERTEX
  5
7C
330
7A
100
AcDbEntity
  8
_U+30EC_U+30A4_U+30E4_U+30FC 1
 62
   179
420
  2234388
370
    25
100
AcDbVertex
100
AcDb2dVertex
 10
105.0941557727445
 20
-150.3836071062301
 30
0.0
  0
SEQEND
  5
7D
330
7A
100
AcDbEntity
  8
_U+30EC_U+30A4_U+30E4_U+30FC 1
 62
   179
420
  2234388
370
    25
  0
POLYLINE
  5
7E
330
1F
100
AcDbEntity
  8
_U+30EC_U+30A4_U+30E4_U+30FC 1
 62
   179
420
  2234388
370
    25
100
AcDb2dPolyline
 66
     1
 10
0.0
 20
0.0
 30
0.0
  0
VERTEX
  5
7F
330
7E
100
AcDbEntity
  8
_U+30EC_U+30A4_U+30E4_U+30FC 1
 62
   179
420
  2234388
370
    25
100
AcDbVertex
100
AcDb2dVertex
 10
116.0176707507536
 20
-156.6337639311106
 30
0.0
  0
VERTEX
  5
80
330
7E
100
AcDbEntity
  8
_U+30EC_U+30A4_U+30E4_U+30FC 1
 62
   179
420
  2234388
370
    25
100
AcDbVertex
100
AcDb2dVertex
 10
105.193740564115
 20
-150.3836071062301
 30
0.0
  0
SEQEND
  5
81
330
7E
100
AcDbEntity
  8
_U+30EC_U+30A4_U+30E4_U+30FC 1
 62
   179
420
  2234388
370
    25
  0
POLYLINE
  5
82
330
1F
100
AcDbEntity
  8
_U+30EC_U+30A4_U+30E4_U+30FC 1
 62
   179
420
  2234388
370
     9
100
AcDb2dPolyline
 66
     1
 10
0.0
 20
0.0
 30
0.0
  0
VERTEX
  5
83
330
82
100
AcDbEntity
  8
_U+30EC_U+30A4_U+30E4_U+30FC 1
 62
   179
420
  2234388
370
     9
100
AcDbVertex
100
AcDb2dVertex
 10
116.1175785198259
 20
-144.1783764796618
 30
0.0
  0
VERTEX
  5
84
330
82
100
AcDbEntity
  8
_U+30EC_U+30A4_U+30E4_U+30FC 1
 62
   179
420
  2234388
370
     9
100
AcDbVertex
100
AcDb2dVertex
 10
116.1175785198259
 20
-147.7417894629832
 30
0.0
  0
SEQEND
  5
85
330
82
100
AcDbEntity
  8
_U+30EC_U+30A4_U+30E4_U+30FC 1
 62
   179
420
  2234388
370
     9
  0
POLYLINE
  5
86
330
1F
100
AcDbEntity
  8
_U+30EC_U+30A4_U+30E4_U+30FC 1
 62
   179
420
  2234388
370
    25
100
AcDb2dPolyline
 66
     1
 10
0.0
 20
0.0
 30
0.0
  0
VERTEX
  5
87
330
86
100
AcDbEntity
  8
_U+30EC_U+30A4_U+30E4_U+30FC 1
 62
   179
420
  2234388
370
    25
100
AcDbVertex
100
AcDb2dVertex
 10
94.16851990782723
 20
-148.524708943853
 30
0.0
  0
VERTEX
  5
88
330
86
100
AcDbEntity
  8
_U+30EC_U+30A4_U+30E4_U+30FC 1
 62
   179
420
  2234388
370
    25
100
AcDbVertex
100
AcDb2dVertex
 10
94.16851990782723
 20
-156.6248497465426
 30
0.0
  0
SEQEND
  5
89
330
86
100
AcDbEntity
  8
_U+30EC_U+30A4_U+30E4_U+30FC 1
 62
   179
420
  2234388
370
    25
  0
POLYLINE
  5
8A
330
1F
100
AcDbEntity
  8
_U+30EC_U+30A4_U+30E4_U+30FC 1
 62
   179
420
  2234388
370
    25
100
AcDb2dPolyline
 66
     1
 10
0.0
 20
0.0
 30
0.0
  0
VERTEX
  5
8B
330
8A
100
AcDbEntity
  8
_U+30EC_U+30A4_U+30E4_U+30FC 1
 62
   179
420
  2234388
370
    25
100
AcDbVertex
100
AcDb2dVertex
 10
116.1175785198259
 20
-148.524708943853
 30
0.0
  0
VERTEX
  5
8C
330
8A
100
AcDbEntity
  8
_U+30EC_U+30A4_U+30E4_U+30FC 1
 62
   179
420
  2234388
370
    25
100
AcDbVertex
100
AcDb2dVertex
 10
116.1175785198259
 20
-156.6248497465426
 30
0.0
  0
SEQEND
  5
8D
330
8A
100
AcDbEntity
  8
_U+30EC_U+30A4_U+30E4_U+30FC 1
 62
   179
420
  2234388
370
    25
  0
SPLINE
  5
8E
330
1F
100
AcDbEntity
  8
_U+30EC_U+30A4_U+30E4_U+30FC 1
370
     0
100
AcDbSpline
210
0.0
220
0.0
230
1.0
 70
    11
 71
     3
 72
    17
 73
    13
 74
     0
 42
0.0000000001
 43
0.0000000001
 12
1.0
 22
0.0
 32
0.0
 13
1.0
 23
0.0
 33
0.0
 40
0.0
 40
0.0
 40
0.0
 40
0.0
 40
1.0
 40
1.0
 40
1.0
 40
2.0
 40
2.0
 40
2.0
 40
3.0
 40
3.0
 40
3.0
 40
4.0
 40
4.0
 40
4.0
 40
4.0
 10
116.1175785198259
 20
-144.0209356159859
 30
0.0
 10
116.0628876289975
 20
-144.0209356159859
 30
0.0
 10
116.017735346294
 20
-144.0657433891409
 30
0.0
 10
116.017735346294
 20
-144.1207787895178
 30
0.0
 10
116.017735346294
 20
-144.1758141898947
 30
0.0
 10
116.0628876289975
 20
-144.2206111971266
 30
0.0
 10
116.1175785198259
 20
-144.2206111971266
 30
0.0
 10
116.1729584297512
 20
-144.2206111971266
 30
0.0
 10
116.2177662029063
 20
-144.1758141898947
 30
0.0
 10
116.2177662029063
 20
-144.1207787895178
 30
0.0
 10
116.2177662029063
 20
-144.0657433891409
 30
0.0
 10
116.1729584297512
 20
-144.0209356159859
 30
0.0
 10
116.1175785198259
 20
-144.0209356159859
 30
0.0
  0
HATCH
  5
8F
330
1F
100
AcDbEntity
  8
_U+30EC_U+30A4_U+30E4_U+30FC 1
 62
   179
420
  2234388
100
AcDbHatch
 10
0.0
 20
0.0
 30
0.0
210
0.0
220
0.0
230
1.0
  2
SOLID
 70
     1
 71
     0
 91
        1
 92
        1
 93
        2
 72
     4
 94
        3
 73
     0
 74
     0
 95
       17
 96
       13
 40
0.0
 40
0.0
 40
0.0
 40
0.0
 40
0.3527777776895833
 40
0.3527777776895833
 40
0.3527777776895833
 40
0.7055555553791667
 40
0.7055555553791667
 40
0.7055555553791667
 40
1.05833333306875
 40
1.05833333306875
 40
1.05833333306875
 40
1.411111110758333
 40
1.411111110758333
 40
1.411111110758333
 40
1.411111110758333
 10
116.1175785198259
 20
-144.0209356159859
 10
116.0628876289975
 20
-144.0209356159859
 10
116.017735346294
 20
-144.0657433891409
 10
116.017735346294
 20
-144.1207787895178
 10
116.017735346294
 20
-144.1758141898947
 10
116.0628876289975
 20
-144.2206111971266
 10
116.1175785198259
 20
-144.2206111971266
 10
116.1729584297512
 20
-144.2206111971266
 10
116.2177662029063
 20
-144.1758141898947
 10
116.2177662029063
 20
-144.1207787895178
 10
116.2177662029063
 20
-144.0657433891409
 10
116.1729584297512
 20
-144.0209356159859
 10
116.1175785198259
 20
-144.0209356159859
 97
        0
 72
     1
 10
116.1175785198259
 20
-144.0209356159859
 11
116.1175785198259
 21
-144.0209356159859
 97
        0
 75
     2
 76
     1
 98
        0
  0
SPLINE
  5
90
330
1F
100
AcDbEntity
  8
_U+30EC_U+30A4_U+30E4_U+30FC 1
370
     0
100
AcDbSpline
210
0.0
220
0.0
230
1.0
 70
    11
 71
     3
 72
    17
 73
    13
 74
     0
 42
0.0000000001
 43
0.0000000001
 12
1.0
 22
0.0
 32
0.0
 13
1.0
 23
0.0
 33
0.0
 40
0.0
 40
0.0
 40
0.0
 40
0.0
 40
1.0
 40
1.0
 40
1.0
 40
2.0
 40
2.0
 40
2.0
 40
3.0
 40
3.0
 40
3.0
 40
4.0
 40
4.0
 40
4.0
 40
4.0
 10
105.0939512202
 20
-137.7704881111737
 30
0.0
 10
105.1489758546535
 20
-137.7704881111737
 30
0.0
 10
105.1937836278085
 20
-137.8152958843287
 30
0.0
 10
105.1937836278085
 20
-137.8703312847056
 30
0.0
 10
105.1937836278085
 20
-137.9253666850825
 30
0.0
 10
105.1489758546535
 20
-137.9701636923141
 30
0.0
 10
105.0939512202
 20
-137.9701636923141
 30
0.0
 10
105.0385605443513
 20
-137.9701636923141
 30
0.0
 10
104.9941080466681
 20
-137.9253666850825
 30
0.0
 10
104.9941080466681
 20
-137.8703312847056
 30
0.0
 10
104.9941080466681
 20
-137.8152958843287
 30
0.0
 10
105.0385605443513
 20
-137.7704881111737
 30
0.0
 10
105.0939512202
 20
-137.7704881111737
 30
0.0
  0
HATCH
  5
91
330
1F
100
AcDbEntity
  8
_U+30EC_U+30A4_U+30E4_U+30FC 1
 62
   179
420
  2234388
100
AcDbHatch
 10
0.0
 20
0.0
 30
0.0
210
0.0
220
0.0
230
1.0
  2
SOLID
 70
     1
 71
     0
 91
        1
 92
        1
 93
        2
 72
     4
 94
        3
 73
     0
 74
     0
 95
       17
 96
       13
 40
0.0
 40
0.0
 40
0.0
 40
0.0
 40
0.3527777776895833
 40
0.3527777776895833
 40
0.3527777776895833
 40
0.7055555553791667
 40
0.7055555553791667
 40
0.7055555553791667
 40
1.05833333306875
 40
1.05833333306875
 40
1.05833333306875
 40
1.411111110758333
 40
1.411111110758333
 40
1.411111110758333
 40
1.411111110758333
 10
105.0939512202
 20
-137.7704881111737
 10
105.1489758546535
 20
-137.7704881111737
 10
105.1937836278085
 20
-137.8152958843287
 10
105.1937836278085
 20
-137.8703312847056
 10
105.1937836278085
 20
-137.9253666850825
 10
105.1489758546535
 20
-137.9701636923141
 10
105.0939512202
 20
-137.9701636923141
 10
105.0385605443513
 20
-137.9701636923141
 10
104.9941080466681
 20
-137.9253666850825
 10
104.9941080466681
 20
-137.8703312847056
 10
104.9941080466681
 20
-137.8152958843287
 10
105.0385605443513
 20
-137.7704881111737
 10
105.0939512202
 20
-137.7704881111737
 97
        0
 72
     1
 10
105.0939512202
 20
-137.7704881111737
 11
105.0939512202
 21
-137.7704881111737
 97
        0
 75
     2
 76
     1
 98
        0
  0
POLYLINE
  5
92
330
1F
100
AcDbEntity
  8
_U+30EC_U+30A4_U+30E4_U+30FC 1
 62
   179
420
  2234388
370
    25
100
AcDb2dPolyline
 66
     1
 10
0.0
 20
0.0
 30
0.0
  0
VERTEX
  5
93
330
92
100
AcDbEntity
  8
_U+30EC_U+30A4_U+30E4_U+30FC 1
 62
   179
420
  2234388
370
    25
100
AcDbVertex
100
AcDb2dVertex
 10
105.0932729670264
 20
-142.1446827851022
 30
0.0
  0
VERTEX
  5
94
330
92
100
AcDbEntity
  8
_U+30EC_U+30A4_U+30E4_U+30FC 1
 62
   179
420
  2234388
370
    25
100
AcDbVertex
100
AcDb2dVertex
 10
105.0932729670264
 20
-150.2448235877914
 30
0.0
  0
SEQEND
  5
95
330
92
100
AcDbEntity
  8
_U+30EC_U+30A4_U+30E4_U+30FC 1
 62
   179
420
  2234388
370
    25
  0
POLYLINE
  5
96
330
1F
100
AcDbEntity
  8
_U+30EC_U+30A4_U+30E4_U+30FC 1
 62
   179
420
  2234388
370
     9
100
AcDb2dPolyline
 66
     1
 10
0.0
 20
0.0
 30
0.0
  0
VERTEX
  5
97
330
96
100
AcDbEntity
  8
_U+30EC_U+30A4_U+30E4_U+30FC 1
 62
   179
420
  2234388
370
     9
100
AcDbVertex
100
AcDb2dVertex
 10
105.0932729670264
 20
-155.1089862011859
 30
0.0
  0
VERTEX
  5
98
330
96
100
AcDbEntity
  8
_U+30EC_U+30A4_U+30E4_U+30FC 1
 62
   179
420
  2234388
370
     9
100
AcDbVertex
100
AcDb2dVertex
 10
105.0932729670264
 20
-155.1082864161654
 30
0.0
  0
VERTEX
  5
99
330
96
100
AcDbEntity
  8
_U+30EC_U+30A4_U+30E4_U+30FC 1
 62
   179
420
  2234388
370
     9
100
AcDbVertex
100
AcDb2dVertex
 10
105.0929176915545
 20
-155.1089862011859
 30
0.0
  0
VERTEX
  5
9A
330
96
100
AcDbEntity
  8
_U+30EC_U+30A4_U+30E4_U+30FC 1
 62
   179
420
  2234388
370
     9
100
AcDbVertex
100
AcDb2dVertex
 10
105.0932729670264
 20
-155.1100520276016
 30
0.0
  0
VERTEX
  5
9B
330
96
100
AcDbEntity
  8
_U+30EC_U+30A4_U+30E4_U+30FC 1
 62
   179
420
  2234388
370
     9
100
AcDbVertex
100
AcDb2dVertex
 10
105.0932729670264
 20
-155.1089862011859
 30
0.0
  0
SEQEND
  5
9C
330
96
100
AcDbEntity
  8
_U+30EC_U+30A4_U+30E4_U+30FC 1
 62
   179
420
  2234388
370
     9
  0
POLYLINE
  5
9D
330
1F
100
AcDbEntity
  8
_U+30EC_U+30A4_U+30E4_U+30FC 1
 62
   179
420
  2234388
370
     9
100
AcDb2dPolyline
 66
     1
 10
0.0
 20
0.0
 30
0.0
  0
VERTEX
  5
9E
330
9D
100
AcDbEntity
  8
_U+30EC_U+30A4_U+30E4_U+30FC 1
 62
   179
420
  2234388
370
     9
100
AcDbVertex
100
AcDb2dVertex
 10
97.08172494792467
 20
-159.8125427694273
 30
0.0
  0
VERTEX
  5
9F
330
9D
100
AcDbEntity
  8
_U+30EC_U+30A4_U+30E4_U+30FC 1
 62
   179
420
  2234388
370
     9
100
AcDbVertex
100
AcDb2dVertex
 10
105.094005049817
 20
-155.109319944811
 30
0.0
  0
SEQEND
  5
A0
330
9D
100
AcDbEntity
  8
_U+30EC_U+30A4_U+30E4_U+30FC 1
 62
   179
420
  2234388
370
     9
  0
POLYLINE
  5
A1
330
1F
100
AcDbEntity
  8
_U+30EC_U+30A4_U+30E4_U+30FC 1
 62
   179
420
  2234388
370
     9
100
AcDb2dPolyline
 66
     1
 10
0.0
 20
0.0
 30
0.0
  0
VERTEX
  5
A2
330
A1
100
AcDbEntity
  8
_U+30EC_U+30A4_U+30E4_U+30FC 1
 62
   179
420
  2234388
370
     9
100
AcDbVertex
100
AcDb2dVertex
 10
105.0932729670264
 20
-151.2029261740862
 30
0.0
  0
VERTEX
  5
A3
330
A1
100
AcDbEntity
  8
_U+30EC_U+30A4_U+30E4_U+30FC 1
 62
   179
420
  2234388
370
     9
100
AcDbVertex
100
AcDb2dVertex
 10
105.0932729670264
 20
-155.113830866712
 30
0.0
  0
SEQEND
  5
A4
330
A1
100
AcDbEntity
  8
_U+30EC_U+30A4_U+30E4_U+30FC 1
 62
   179
420
  2234388
370
     9
  0
POLYLINE
  5
A5
330
1F
100
AcDbEntity
  8
_U+30EC_U+30A4_U+30E4_U+30FC 1
 62
   179
420
  2234388
370
     9
100
AcDb2dPolyline
 66
     1
 10
0.0
 20
0.0
 30
0.0
  0
VERTEX
  5
A6
330
A5
100
AcDbEntity
  8
_U+30EC_U+30A4_U+30E4_U+30FC 1
 62
   179
420
  2234388
370
     9
100
AcDbVertex
100
AcDb2dVertex
 10
96.98181717885242
 20
-156.3646696759425
 30
0.0
  0
VERTEX
  5
A7
330
A5
100
AcDbEntity
  8
_U+30EC_U+30A4_U+30E4_U+30FC 1
 62
   179
420
  2234388
370
     9
100
AcDbVertex
100
AcDb2dVertex
 10
96.98181717885242
 20
-159.9280826592639
 30
0.0
  0
SEQEND
  5
A8
330
A5
100
AcDbEntity
  8
_U+30EC_U+30A4_U+30E4_U+30FC 1
 62
   179
420
  2234388
370
     9
  0
SPLINE
  5
A9
330
1F
100
AcDbEntity
  8
_U+30EC_U+30A4_U+30E4_U+30FC 1
370
     0
100
AcDbSpline
210
0.0
220
0.0
230
1.0
 70
    11
 71
     3
 72
    17
 73
    13
 74
     0
 42
0.0000000001
 43
0.0000000001
 12
1.0
 22
0.0
 32
0.0
 13
1.0
 23
0.0
 33
0.0
 40
0.0
 40
0.0
 40
0.0
 40
0.0
 40
1.0
 40
1.0
 40
1.0
 40
2.0
 40
2.0
 40
2.0
 40
3.0
 40
3.0
 40
3.0
 40
4.0
 40
4.0
 40
4.0
 40
4.0
 10
96.98181717885242
 20
-159.7130225735971
 30
0.0
 10
97.0364973037577
 20
-159.7130225735971
 30
0.0
 10
97.08164958646093
 20
-159.7578303467522
 30
0.0
 10
97.08164958646093
 20
-159.8128657471291
 30
0.0
 10
97.08164958646093
 20
-159.8679011475059
 30
0.0
 10
97.0364973037577
 20
-159.9126981547375
 30
0.0
 10
96.98181717885242
 20
-159.9126981547375
 30
0.0
 10
96.92642650300397
 20
-159.9126981547375
 30
0.0
 10
96.88161872984861
 20
-159.8679011475059
 30
0.0
 10
96.88161872984861
 20
-159.8128657471291
 30
0.0
 10
96.88161872984861
 20
-159.7578303467522
 30
0.0
 10
96.92642650300397
 20
-159.7130225735971
 30
0.0
 10
96.98181717885242
 20
-159.7130225735971
 30
0.0
  0
HATCH
  5
AA
330
1F
100
AcDbEntity
  8
_U+30EC_U+30A4_U+30E4_U+30FC 1
 62
   179
420
  2234388
100
AcDbHatch
 10
0.0
 20
0.0
 30
0.0
210
0.0
220
0.0
230
1.0
  2
SOLID
 70
     1
 71
     0
 91
        1
 92
        1
 93
        2
 72
     4
 94
        3
 73
     0
 74
     0
 95
       17
 96
       13
 40
0.0
 40
0.0
 40
0.0
 40
0.0
 40
0.3527777776895833
 40
0.3527777776895833
 40
0.3527777776895833
 40
0.7055555553791667
 40
0.7055555553791667
 40
0.7055555553791667
 40
1.05833333306875
 40
1.05833333306875
 40
1.05833333306875
 40
1.411111110758333
 40
1.411111110758333
 40
1.411111110758333
 40
1.411111110758333
 10
96.98181717885242
 20
-159.7130225735971
 10
97.0364973037577
 20
-159.7130225735971
 10
97.08164958646093
 20
-159.7578303467522
 10
97.08164958646093
 20
-159.8128657471291
 10
97.08164958646093
 20
-159.8679011475059
 10
97.0364973037577
 20
-159.9126981547375
 10
96.98181717885242
 20
-159.9126981547375
 10
96.92642650300397
 20
-159.9126981547375
 10
96.88161872984861
 20
-159.8679011475059
 10
96.88161872984861
 20
-159.8128657471291
 10
96.88161872984861
 20
-159.7578303467522
 10
96.92642650300397
 20
-159.7130225735971
 10
96.98181717885242
 20
-159.7130225735971
 97
        0
 72
     1
 10
96.98181717885242
 20
-159.7130225735971
 11
96.98181717885242
 21
-159.7130225735971
 97
        0
 75
     2
 76
     1
 98
        0
  0
POLYLINE
  5
AB
330
1F
100
AcDbEntity
  8
_U+30EC_U+30A4_U+30E4_U+30FC 1
 62
   179
420
  2234388
370
     9
100
AcDb2dPolyline
 66
     1
 10
0.0
 20
0.0
 30
0.0
  0
VERTEX
  5
AC
330
AB
100
AcDbEntity
  8
_U+30EC_U+30A4_U+30E4_U+30FC 1
 62
   179
420
  2234388
370
     9
100
AcDbVertex
100
AcDb2dVertex
 10
113.2043734797284
 20
-159.8125427694273
 30
0.0
  0
VERTEX
  5
AD
330
AB
100
AcDbEntity
  8
_U+30EC_U+30A4_U+30E4_U+30FC 1
 62
   179
420
  2234388
370
     9
100
AcDbVertex
100
AcDb2dVertex
 10
105.1938482233489
 20
-155.109319944811
 30
0.0
  0
SEQEND
  5
AE
330
AB
100
AcDbEntity
  8
_U+30EC_U+30A4_U+30E4_U+30FC 1
 62
   179
420
  2234388
370
     9
  0
POLYLINE
  5
AF
330
1F
100
AcDbEntity
  8
_U+30EC_U+30A4_U+30E4_U+30FC 1
 62
   179
420
  2234388
370
     9
100
AcDb2dPolyline
 66
     1
 10
0.0
 20
0.0
 30
0.0
  0
VERTEX
  5
B0
330
AF
100
AcDbEntity
  8
_U+30EC_U+30A4_U+30E4_U+30FC 1
 62
   179
420
  2234388
370
     9
100
AcDbVertex
100
AcDb2dVertex
 10
113.3043243124942
 20
-156.3646696759425
 30
0.0
  0
VERTEX
  5
B1
330
AF
100
AcDbEntity
  8
_U+30EC_U+30A4_U+30E4_U+30FC 1
 62
   179
420
  2234388
370
     9
100
AcDbVertex
100
AcDb2dVertex
 10
113.3043243124942
 20
-159.9280826592639
 30
0.0
  0
SEQEND
  5
B2
330
AF
100
AcDbEntity
  8
_U+30EC_U+30A4_U+30E4_U+30FC 1
 62
   179
420
  2234388
370
     9
  0
SPLINE
  5
B3
330
1F
100
AcDbEntity
  8
_U+30EC_U+30A4_U+30E4_U+30FC 1
370
     0
100
AcDbSpline
210
0.0
220
0.0
230
1.0
 70
    11
 71
     3
 72
    17
 73
    13
 74
     0
 42
0.0000000001
 43
0.0000000001
 12
1.0
 22
0.0
 32
0.0
 13
1.0
 23
0.0
 33
0.0
 40
0.0
 40
0.0
 40
0.0
 40
0.0
 40
1.0
 40
1.0
 40
1.0
 40
2.0
 40
2.0
 40
2.0
 40
3.0
 40
3.0
 40
3.0
 40
4.0
 40
4.0
 40
4.0
 40
4.0
 10
113.3043243124942
 20
-159.7130225735971
 30
0.0
 10
113.2496334216659
 20
-159.7130225735971
 30
0.0
 10
113.2044811389623
 20
-159.7578303467522
 30
0.0
 10
113.2044811389623
 20
-159.8128657471291
 30
0.0
 10
113.2044811389623
 20
-159.8679011475059
 30
0.0
 10
113.2496334216659
 20
-159.9126981547375
 30
0.0
 10
113.3043243124942
 20
-159.9126981547375
 30
0.0
 10
113.3597042224196
 20
-159.9126981547375
 30
0.0
 10
113.4045119955747
 20
-159.8679011475059
 30
0.0
 10
113.4045119955747
 20
-159.8128657471291
 30
0.0
 10
113.4045119955747
 20
-159.7578303467522
 30
0.0
 10
113.3597042224196
 20
-159.7130225735971
 30
0.0
 10
113.3043243124942
 20
-159.7130225735971
 30
0.0
  0
HATCH
  5
B4
330
1F
100
AcDbEntity
  8
_U+30EC_U+30A4_U+30E4_U+30FC 1
 62
   179
420
  2234388
100
AcDbHatch
 10
0.0
 20
0.0
 30
0.0
210
0.0
220
0.0
230
1.0
  2
SOLID
 70
     1
 71
     0
 91
        1
 92
        1
 93
        2
 72
     4
 94
        3
 73
     0
 74
     0
 95
       17
 96
       13
 40
0.0
 40
0.0
 40
0.0
 40
0.0
 40
0.3527777776895833
 40
0.3527777776895833
 40
0.3527777776895833
 40
0.7055555553791667
 40
0.7055555553791667
 40
0.7055555553791667
 40
1.05833333306875
 40
1.05833333306875
 40
1.05833333306875
 40
1.411111110758333
 40
1.411111110758333
 40
1.411111110758333
 40
1.411111110758333
 10
113.3043243124942
 20
-159.7130225735971
 10
113.2496334216659
 20
-159.7130225735971
 10
113.2044811389623
 20
-159.7578303467522
 10
113.2044811389623
 20
-159.8128657471291
 10
113.2044811389623
 20
-159.8679011475059
 10
113.2496334216659
 20
-159.9126981547375
 10
113.3043243124942
 20
-159.9126981547375
 10
113.3597042224196
 20
-159.9126981547375
 10
113.4045119955747
 20
-159.8679011475059
 10
113.4045119955747
 20
-159.8128657471291
 10
113.4045119955747
 20
-159.7578303467522
 10
113.3597042224196
 20
-159.7130225735971
 10
113.3043243124942
 20
-159.7130225735971
 97
        0
 72
     1
 10
113.3043243124942
 20
-159.7130225735971
 11
113.3043243124942
 21
-159.7130225735971
 97
        0
 75
     2
 76
     1
 98
        0
  0
SPLINE
  5
B5
330
1F
100
AcDbEntity
  8
_U+30EC_U+30A4_U+30E4_U+30FC 1
370
     0
100
AcDbSpline
210
0.0
220
0.0
230
1.0
 70
    11
 71
     3
 72
    17
 73
    13
 74
     0
 42
0.0000000001
 43
0.0000000001
 12
1.0
 22
0.0
 32
0.0
 13
1.0
 23
0.0
 33
0.0
 40
0.0
 40
0.0
 40
0.0
 40
0.0
 40
1.0
 40
1.0
 40
1.0
 40
2.0
 40
2.0
 40
2.0
 40
3.0
 40
3.0
 40
3.0
 40
4.0
 40
4.0
 40
4.0
 40
4.0
 10
105.0939512202
 20
-155.0093691120452
 30
0.0
 10
105.1489758546535
 20
-155.0093691120452
 30
0.0
 10
105.1937836278085
 20
-155.0541768852002
 30
0.0
 10
105.1937836278085
 20
-155.1092122855771
 30
0.0
 10
105.1937836278085
 20
-155.164247685954
 30
0.0
 10
105.1489758546535
 20
-155.2090446931856
 30
0.0
 10
105.0939512202
 20
-155.2090446931856
 30
0.0
 10
105.0385605443513
 20
-155.2090446931856
 30
0.0
 10
104.9941080466681
 20
-155.164247685954
 30
0.0
 10
104.9941080466681
 20
-155.1092122855771
 30
0.0
 10
104.9941080466681
 20
-155.0541768852002
 30
0.0
 10
105.0385605443513
 20
-155.0093691120452
 30
0.0
 10
105.0939512202
 20
-155.0093691120452
 30
0.0
  0
HATCH
  5
B6
330
1F
100
AcDbEntity
  8
_U+30EC_U+30A4_U+30E4_U+30FC 1
 62
   179
420
  2234388
100
AcDbHatch
 10
0.0
 20
0.0
 30
0.0
210
0.0
220
0.0
230
1.0
  2
SOLID
 70
     1
 71
     0
 91
        1
 92
        1
 93
        2
 72
     4
 94
        3
 73
     0
 74
     0
 95
       17
 96
       13
 40
0.0
 40
0.0
 40
0.0
 40
0.0
 40
0.3527777776895833
 40
0.3527777776895833
 40
0.3527777776895833
 40
0.7055555553791667
 40
0.7055555553791667
 40
0.7055555553791667
 40
1.05833333306875
 40
1.05833333306875
 40
1.05833333306875
 40
1.411111110758333
 40
1.411111110758333
 40
1.411111110758333
 40
1.411111110758333
 10
105.0939512202
 20
-155.0093691120452
 10
105.1489758546535
 20
-155.0093691120452
 10
105.1937836278085
 20
-155.0541768852002
 10
105.1937836278085
 20
-155.1092122855771
 10
105.1937836278085
 20
-155.164247685954
 10
105.1489758546535
 20
-155.2090446931856
 10
105.0939512202
 20
-155.2090446931856
 10
105.0385605443513
 20
-155.2090446931856
 10
104.9941080466681
 20
-155.164247685954
 10
104.9941080466681
 20
-155.1092122855771
 10
104.9941080466681
 20
-155.0541768852002
 10
105.0385605443513
 20
-155.0093691120452
 10
105.0939512202
 20
-155.0093691120452
 97
        0
 72
     1
 10
105.0939512202
 20
-155.0093691120452
 11
105.0939512202
 21
-155.0093691120452
 97
        0
 75
     2
 76
     1
 98
        0
  0
SPLINE
  5
B7
330
1F
100
AcDbEntity
  8
_U+30EC_U+30A4_U+30E4_U+30FC 1
 62
   179
420
  2234388
370
    25
100
AcDbSpline
210
0.0
220
0.0
230
1.0
 70
    11
 71
     3
 72
    29
 73
    25
 74
     0
 42
0.0000000001
 43
0.0000000001
 12
1.0
 22
0.0
 32
0.0
 13
1.0
 23
0.0
 33
0.0
 40
0.0
 40
0.0
 40
0.0
 40
0.0
 40
1.0
 40
1.0
 40
1.0
 40
2.0
 40
2.0
 40
2.0
 40
3.0
 40
3.0
 40
3.0
 40
4.0
 40
4.0
 40
4.0
 40
5.0
 40
5.0
 40
5.0
 40
6.0
 40
6.0
 40
6.0
 40
7.0
 40
7.0
 40
7.0
 40
8.0
 40
8.0
 40
8.0
 40
8.0
 10
97.08172494792467
 20
-152.6161151080591
 30
0.0
 10
97.08172494792467
 20
-152.6161151080591
 30
0.0
 10
97.08172494792467
 20
-155.0093691120452
 30
0.0
 10
97.08172494792467
 20
-155.0093691120452
 30
0.0
 10
97.08172494792467
 20
-155.0093691120452
 30
0.0
 10
94.22527785594673
 20
-153.5887301590855
 30
0.0
 10
94.22527785594673
 20
-153.5887301590855
 30
0.0
 10
94.22527785594673
 20
-153.5887301590855
 30
0.0
 10
94.56183138708546
 20
-153.3393160118768
 30
0.0
 10
94.56183138708546
 20
-153.3393160118768
 30
0.0
 10
94.56183138708546
 20
-153.3393160118768
 30
0.0
 10
96.78855808805329
 20
-154.5017127604468
 30
0.0
 10
96.78855808805329
 20
-154.5017127604468
 30
0.0
 10
96.78855808805329
 20
-154.5017127604468
 30
0.0
 10
96.78855808805329
 20
-152.7025547069687
 30
0.0
 10
96.78855808805329
 20
-152.7025547069687
 30
0.0
 10
96.78855808805329
 20
-152.7025547069687
 30
0.0
 10
96.3454757449566
 20
-152.3095554394888
 30
0.0
 10
96.3454757449566
 20
-152.3095554394888
 30
0.0
 10
96.3454757449566
 20
-152.3095554394888
 30
0.0
 10
96.69718769623044
 20
-152.1067146768713
 30
0.0
 10
96.69718769623044
 20
-152.1067146768713
 30
0.0
 10
96.69718769623044
 20
-152.1067146768713
 30
0.0
 10
97.08172494792467
 20
-152.4330298148649
 30
0.0
 10
97.08172494792467
 20
-152.6161151080591
 30
0.0
  0
SPLINE
  5
B8
330
1F
100
AcDbEntity
  8
_U+30EC_U+30A4_U+30E4_U+30FC 1
 62
   179
420
  2234388
370
    25
100
AcDbSpline
210
0.0
220
0.0
230
1.0
 70
    11
 71
     3
 72
    29
 73
    25
 74
     0
 42
0.0000000001
 43
0.0000000001
 12
1.0
 22
0.0
 32
0.0
 13
1.0
 23
0.0
 33
0.0
 40
0.0
 40
0.0
 40
0.0
 40
0.0
 40
1.0
 40
1.0
 40
1.0
 40
2.0
 40
2.0
 40
2.0
 40
3.0
 40
3.0
 40
3.0
 40
4.0
 40
4.0
 40
4.0
 40
5.0
 40
5.0
 40
5.0
 40
6.0
 40
6.0
 40
6.0
 40
7.0
 40
7.0
 40
7.0
 40
8.0
 40
8.0
 40
8.0
 40
8.0
 10
113.2612498530052
 20
-152.6161151080591
 30
0.0
 10
113.2612498530052
 20
-152.6161151080591
 30
0.0
 10
113.2612498530052
 20
-155.0093691120452
 30
0.0
 10
113.2612498530052
 20
-155.0093691120452
 30
0.0
 10
113.2612498530052
 20
-155.0093691120452
 30
0.0
 10
116.1176861790598
 20
-153.5887301590855
 30
0.0
 10
116.1176861790598
 20
-153.5887301590855
 30
0.0
 10
116.1176861790598
 20
-153.5887301590855
 30
0.0
 10
115.781132647921
 20
-153.3393160118768
 30
0.0
 10
115.781132647921
 20
-153.3393160118768
 30
0.0
 10
115.781132647921
 20
-153.3393160118768
 30
0.0
 10
113.5544059469532
 20
-154.5017127604468
 30
0.0
 10
113.5544059469532
 20
-154.5017127604468
 30
0.0
 10
113.5544059469532
 20
-154.5017127604468
 30
0.0
 10
113.5544059469532
 20
-152.7025547069687
 30
0.0
 10
113.5544059469532
 20
-152.7025547069687
 30
0.0
 10
113.5544059469532
 20
-152.7025547069687
 30
0.0
 10
113.9974882900499
 20
-152.3095554394888
 30
0.0
 10
113.9974882900499
 20
-152.3095554394888
 30
0.0
 10
113.9974882900499
 20
-152.3095554394888
 30
0.0
 10
113.6457763387761
 20
-152.1067146768713
 30
0.0
 10
113.6457763387761
 20
-152.1067146768713
 30
0.0
 10
113.6457763387761
 20
-152.1067146768713
 30
0.0
 10
113.2612498530052
 20
-152.4330298148649
 30
0.0
 10
113.2612498530052
 20
-152.6161151080591
 30
0.0
  0
POLYLINE
  5
B9
330
1F
100
AcDbEntity
  8
_U+30EC_U+30A4_U+30E4_U+30FC 1
370
     0
100
AcDb2dPolyline
 66
     1
 10
0.0
 20
0.0
 30
0.0
  0
VERTEX
  5
BA
330
B9
100
AcDbEntity
  8
_U+30EC_U+30A4_U+30E4_U+30FC 1
370
     0
100
AcDbVertex
100
AcDb2dVertex
 10
100.9752319083499
 20
-142.1521651018589
 30
0.0
  0
VERTEX
  5
BB
330
B9
100
AcDbEntity
  8
_U+30EC_U+30A4_U+30E4_U+30FC 1
370
     0
100
AcDbVertex
100
AcDb2dVertex
 10
97.44745413145411
 20
-142.1521651018589
 30
0.0
  0
VERTEX
  5
BC
330
B9
100
AcDbEntity
  8
_U+30EC_U+30A4_U+30E4_U+30FC 1
370
     0
100
AcDbVertex
100
AcDb2dVertex
 10
97.44745413145411
 20
-139.4474206363892
 30
0.0
  0
VERTEX
  5
BD
330
B9
100
AcDbEntity
  8
_U+30EC_U+30A4_U+30E4_U+30FC 1
370
     0
100
AcDbVertex
100
AcDb2dVertex
 10
100.9752319083499
 20
-139.4474206363892
 30
0.0
  0
VERTEX
  5
BE
330
B9
100
AcDbEntity
  8
_U+30EC_U+30A4_U+30E4_U+30FC 1
370
     0
100
AcDbVertex
100
AcDb2dVertex
 10
100.9752319083499
 20
-142.1521651018589
 30
0.0
  0
SEQEND
  5
C0
330
B9
100
AcDbEntity
  8
_U+30EC_U+30A4_U+30E4_U+30FC 1
370
     0
  0
HATCH
  5
BF
330
1F
100
AcDbEntity
  8
_U+30EC_U+30A4_U+30E4_U+30FC 1
 62
     7
420
 16711422
100
AcDbHatch
 10
0.0
 20
0.0
 30
0.0
210
0.0
220
0.0
230
1.0
  2
SOLID
 70
     1
 71
     0
 91
        1
 92
        1
 93
        4
 72
     1
 10
100.9752319083499
 20
-142.1521651018589
 11
97.44745413145411
 21
-142.1521651018589
 72
     1
 10
97.44745413145411
 20
-142.1521651018589
 11
97.44745413145411
 21
-139.4474206363892
 72
     1
 10
97.44745413145411
 20
-139.4474206363892
 11
100.9752319083499
 21
-139.4474206363892
 72
     1
 10
100.9752319083499
 20
-139.4474206363892
 11
100.9752319083499
 21
-142.1521651018589
 97
        0
 75
     2
 76
     1
 98
        0
  0
INSERT
  5
C2
330
1F
100
AcDbEntity
  8
_U+30EC_U+30A4_U+30E4_U+30FC 1
100
AcDbBlockReference
  2
block 2
 10
0.0
 20
0.0
 30
0.0
  0
POLYLINE
  5
CA
330
1F
100
AcDbEntity
  8
_U+30EC_U+30A4_U+30E4_U+30FC 1
370
     0
100
AcDb2dPolyline
 66
     1
 10
0.0
 20
0.0
 30
0.0
  0
VERTEX
  5
CB
330
CA
100
AcDbEntity
  8
_U+30EC_U+30A4_U+30E4_U+30FC 1
370
     0
100
AcDbVertex
100
AcDb2dVertex
 10
112.7343763281532
 20
-142.1521651018589
 30
0.0
  0
VERTEX
  5
CC
330
CA
100
AcDbEntity
  8
_U+30EC_U+30A4_U+30E4_U+30FC 1
370
     0
100
AcDbVertex
100
AcDb2dVertex
 10
109.2065985512574
 20
-142.1521651018589
 30
0.0
  0
VERTEX
  5
CD
330
CA
100
AcDbEntity
  8
_U+30EC_U+30A4_U+30E4_U+30FC 1
370
     0
100
AcDbVertex
100
AcDb2dVertex
 10
109.2065985512574
 20
-139.4474206363892
 30
0.0
  0
VERTEX
  5
CE
330
CA
100
AcDbEntity
  8
_U+30EC_U+30A4_U+30E4_U+30FC 1
370
     0
100
AcDbVertex
100
AcDb2dVertex
 10
112.7343763281532
 20
-139.4474206363892
 30
0.0
  0
VERTEX
  5
CF
330
CA
100
AcDbEntity
  8
_U+30EC_U+30A4_U+30E4_U+30FC 1
370
     0
100
AcDbVertex
100
AcDb2dVertex
 10
112.7343763281532
 20
-142.1521651018589
 30
0.0
  0
SEQEND
  5
D1
330
CA
100
AcDbEntity
  8
_U+30EC_U+30A4_U+30E4_U+30FC 1
370
     0
  0
HATCH
  5
D0
330
1F
100
AcDbEntity
  8
_U+30EC_U+30A4_U+30E4_U+30FC 1
 62
     7
420
 16711422
100
AcDbHatch
 10
0.0
 20
0.0
 30
0.0
210
0.0
220
0.0
230
1.0
  2
SOLID
 70
     1
 71
     0
 91
        1
 92
        1
 93
        4
 72
     1
 10
112.7343763281532
 20
-142.1521651018589
 11
109.2065985512574
 21
-142.1521651018589
 72
     1
 10
109.2065985512574
 20
-142.1521651018589
 11
109.2065985512574
 21
-139.4474206363892
 72
     1
 10
109.2065985512574
 20
-139.4474206363892
 11
112.7343763281532
 21
-139.4474206363892
 72
     1
 10
112.7343763281532
 20
-139.4474206363892
 11
112.7343763281532
 21
-142.1521651018589
 97
        0
 75
     2
 76
     1
 98
        0
  0
INSERT
  5
D3
330
1F
100
AcDbEntity
  8
_U+30EC_U+30A4_U+30E4_U+30FC 1
100
AcDbBlockReference
  2
block 3
 10
0.0
 20
0.0
 30
0.0
  0
POLYLINE
  5
DB
330
1F
100
AcDbEntity
  8
_U+30EC_U+30A4_U+30E4_U+30FC 1
370
     0
100
AcDb2dPolyline
 66
     1
 10
0.0
 20
0.0
 30
0.0
  0
VERTEX
  5
DC
330
DB
100
AcDbEntity
  8
_U+30EC_U+30A4_U+30E4_U+30FC 1
370
     0
100
AcDbVertex
100
AcDb2dVertex
 10
103.5917819293972
 20
-158.32067646731
 30
0.0
  0
VERTEX
  5
DD
330
DB
100
AcDbEntity
  8
_U+30EC_U+30A4_U+30E4_U+30FC 1
370
     0
100
AcDbVertex
100
AcDb2dVertex
 10
98.53541528569602
 20
-158.32067646731
 30
0.0
  0
VERTEX
  5
DE
330
DB
100
AcDbEntity
  8
_U+30EC_U+30A4_U+30E4_U+30FC 1
370
     0
100
AcDbVertex
100
AcDb2dVertex
 10
98.53541528569602
 20
-156.0868873205974
 30
0.0
  0
VERTEX
  5
DF
330
DB
100
AcDbEntity
  8
_U+30EC_U+30A4_U+30E4_U+30FC 1
370
     0
100
AcDbVertex
100
AcDb2dVertex
 10
103.5917819293972
 20
-156.0868873205974
 30
0.0
  0
VERTEX
  5
E0
330
DB
100
AcDbEntity
  8
_U+30EC_U+30A4_U+30E4_U+30FC 1
370
     0
100
AcDbVertex
100
AcDb2dVertex
 10
103.5917819293972
 20
-158.32067646731
 30
0.0
  0
SEQEND
  5
E2
330
DB
100
AcDbEntity
  8
_U+30EC_U+30A4_U+30E4_U+30FC 1
370
     0
  0
HATCH
  5
E1
330
1F
100
AcDbEntity
  8
_U+30EC_U+30A4_U+30E4_U+30FC 1
 62
     7
420
 16711422
100
AcDbHatch
 10
0.0
 20
0.0
 30
0.0
210
0.0
220
0.0
230
1.0
  2
SOLID
 70
     1
 71
     0
 91
        1
 92
        1
 93
        4
 72
     1
 10
103.5917819293972
 20
-158.32067646731
 11
98.53541528569602
 21
-158.32067646731
 72
     1
 10
98.53541528569602
 20
-158.32067646731
 11
98.53541528569602
 21
-156.0868873205974
 72
     1
 10
98.53541528569602
 20
-156.0868873205974
 11
103.5917819293972
 21
-156.0868873205974
 72
     1
 10
103.5917819293972
 20
-156.0868873205974
 11
103.5917819293972
 21
-158.32067646731
 97
        0
 75
     2
 76
     1
 98
        0
  0
INSERT
  5
E4
330
1F
100
AcDbEntity
  8
_U+30EC_U+30A4_U+30E4_U+30FC 1
100
AcDbBlockReference
  2
block 4
 10
0.0
 20
0.0
 30
0.0
  0
POLYLINE
  5
F8
330
1F
100
AcDbEntity
  8
_U+30EC_U+30A4_U+30E4_U+30FC 1
370
     0
100
AcDb2dPolyline
 66
     1
 10
0.0
 20
0.0
 30
0.0
  0
VERTEX
  5
F9
330
F8
100
AcDbEntity
  8
_U+30EC_U+30A4_U+30E4_U+30FC 1
370
     0
100
AcDbVertex
100
AcDb2dVertex
 10
111.1179482923974
 20
-158.32067646731
 30
0.0
  0
VERTEX
  5
FA
330
F8
100
AcDbEntity
  8
_U+30EC_U+30A4_U+30E4_U+30FC 1
370
     0
100
AcDbVertex
100
AcDb2dVertex
 10
106.0615816486962
 20
-158.32067646731
 30
0.0
  0
VERTEX
  5
FB
330
F8
100
AcDbEntity
  8
_U+30EC_U+30A4_U+30E4_U+30FC 1
370
     0
100
AcDbVertex
100
AcDb2dVertex
 10
106.0615816486962
 20
-156.0868873205974
 30
0.0
  0
VERTEX
  5
FC
330
F8
100
AcDbEntity
  8
_U+30EC_U+30A4_U+30E4_U+30FC 1
370
     0
100
AcDbVertex
100
AcDb2dVertex
 10
111.1179482923974
 20
-156.0868873205974
 30
0.0
  0
VERTEX
  5
FD
330
F8
100
AcDbEntity
  8
_U+30EC_U+30A4_U+30E4_U+30FC 1
370
     0
100
AcDbVertex
100
AcDb2dVertex
 10
111.1179482923974
 20
-158.32067646731
 30
0.0
  0
SEQEND
  5
FF
330
F8
100
AcDbEntity
  8
_U+30EC_U+30A4_U+30E4_U+30FC 1
370
     0
  0
HATCH
  5
FE
330
1F
100
AcDbEntity
  8
_U+30EC_U+30A4_U+30E4_U+30FC 1
 62
     7
420
 16711422
100
AcDbHatch
 10
0.0
 20
0.0
 30
0.0
210
0.0
220
0.0
230
1.0
  2
SOLID
 70
     1
 71
     0
 91
        1
 92
        1
 93
        4
 72
     1
 10
111.1179482923974
 20
-158.32067646731
 11
106.0615816486962
 21
-158.32067646731
 72
     1
 10
106.0615816486962
 20
-158.32067646731
 11
106.0615816486962
 21
-156.0868873205974
 72
     1
 10
106.0615816486962
 20
-156.0868873205974
 11
111.1179482923974
 21
-156.0868873205974
 72
     1
 10
111.1179482923974
 20
-156.0868873205974
 11
111.1179482923974
 21
-158.32067646731
 97
        0
 75
     2
 76
     1
 98
        0
  0
INSERT
  5
101
330
1F
100
AcDbEntity
  8
_U+30EC_U+30A4_U+30E4_U+30FC 1
100
AcDbBlockReference
  2
block 5
 10
0.0
 20
0.0
 30
0.0
  0
ENDSEC
  0
SECTION
  2
OBJECTS
  0
DICTIONARY
  5
C
330
0
100
AcDbDictionary
281
     1
  3
ACAD_GROUP
350
D
  3
ACAD_LAYOUT
350
1A
  3
ACAD_MATERIAL
350
3B
  3
ACAD_MLEADERSTYLE
350
116
  3
ACAD_MLINESTYLE
350
17
  3
ACAD_PLOTSETTINGS
350
19
  3
ACAD_PLOTSTYLENAME
350
E
  3
ACAD_TABLESTYLE
350
115
  3
ACAD_VISUALSTYLE
350
2A
  0
SUN
  5
3F
330
29
100
AcDbSun
 90
        1
290
     0
 63
     7
421
 16777215
 40
1.0
291
     1
 91
  2455826
 92
 54000000
292
     0
 70
     2
 71
   256
280
     1
  0
DICTIONARY
  5
D
102
{ACAD_REACTORS
330
C
102
}
330
C
100
AcDbDictionary
281
     1
  0
DICTIONARY
  5
1A
102
{ACAD_REACTORS
330
C
102
}
330
C
100
AcDbDictionary
281
     1
  3
Layout1
350
1E
  3
Layout2
350
26
  3
Model
350
22
  0
DICTIONARY
  5
3B
102
{ACAD_REACTORS
330
C
102
}
330
C
100
AcDbDictionary
281
     1
  3
ByBlock
350
3D
  3
ByLayer
350
3C
  3
Global
350
3E
  0
DICTIONARY
  5
116
102
{ACAD_REACTORS
330
C
102
}
330
C
100
AcDbDictionary
281
     1
  0
DICTIONARY
  5
17
102
{ACAD_REACTORS
330
C
102
}
330
C
100
AcDbDictionary
281
     1
  3
Standard
350
18
  0
DICTIONARY
  5
19
102
{ACAD_REACTORS
330
C
102
}
330
C
100
AcDbDictionary
281
     1
  0
ACDBDICTIONARYWDFLT
  5
E
102
{ACAD_REACTORS
330
C
102
}
330
C
100
AcDbDictionary
281
     1
  3
Normal
350
F
100
AcDbDictionaryWithDefault
340
F
  0
DICTIONARY
  5
115
102
{ACAD_REACTORS
330
C
102
}
330
C
100
AcDbDictionary
281
     1
  0
DICTIONARY
  5
2A
102
{ACAD_REACTORS
330
C
102
}
330
C
100
AcDbDictionary
281
     1
  3
2dWireframe
350
2F
  3
3D Hidden
350
31
  3
3dWireframe
350
30
  3
Basic
350
32
  3
Brighten
350
36
  3
ColorChange
350
3A
  3
Conceptual
350
34
  3
Dim
350
35
  3
Facepattern
350
39
  3
Flat
350
2B
  3
FlatWithEdges
350
2C
  3
Gouraud
350
2D
  3
GouraudWithEdges
350
2E
  3
Linepattern
350
38
  3
Realistic
350
33
  3
Thicken
350
37
  0
LAYOUT
  5
1E
102
{ACAD_REACTORS
330
1A
102
}
330
1A
100
AcDbPlotSettings
  1

  2
none_device
  4

  6

 40
0.0
 41
0.0
 42
0.0
 43
0.0
 44
0.0
 45
0.0
 46
0.0
 47
0.0
 48
0.0
 49
0.0
140
0.0
141
0.0
142
1.0
143
1.0
 70
   688
 72
     0
 73
     0
 74
     5
  7

 75
    16
 76
     0
 77
     2
 78
   300
147
1.0
148
0.0
149
0.0
100
AcDbLayout
  1
Layout1
 70
     1
 71
     1
 10
0.0
 20
0.0
 11
12.0
 21
9.0
 12
0.0
 22
0.0
 32
0.0
 14
1.000000000000000E+20
 24
1.000000000000000E+20
 34
1.000000000000000E+20
 15
-1.000000000000000E+20
 25
-1.000000000000000E+20
 35
-1.000000000000000E+20
146
0.0
 13
0.0
 23
0.0
 33
0.0
 16
1.0
 26
0.0
 36
0.0
 17
0.0
 27
1.0
 37
0.0
 76
     0
330
1B
  0
LAYOUT
  5
26
102
{ACAD_REACTORS
330
1A
102
}
330
1A
100
AcDbPlotSettings
  1

  2
none_device
  4

  6

 40
0.0
 41
0.0
 42
0.0
 43
0.0
 44
0.0
 45
0.0
 46
0.0
 47
0.0
 48
0.0
 49
0.0
140
0.0
141
0.0
142
1.0
143
1.0
 70
   688
 72
     0
 73
     0
 74
     5
  7

 75
    16
 76
     0
 77
     2
 78
   300
147
1.0
148
0.0
149
0.0
100
AcDbLayout
  1
Layout2
 70
     1
 71
     2
 10
0.0
 20
0.0
 11
0.0
 21
0.0
 12
0.0
 22
0.0
 32
0.0
 14
0.0
 24
0.0
 34
0.0
 15
0.0
 25
0.0
 35
0.0
146
0.0
 13
0.0
 23
0.0
 33
0.0
 16
1.0
 26
0.0
 36
0.0
 17
0.0
 27
1.0
 37
0.0
 76
     0
330
23
  0
LAYOUT
  5
22
102
{ACAD_REACTORS
330
1A
102
}
330
1A
100
AcDbPlotSettings
  1

  2
none_device
  4

  6

 40
0.0
 41
0.0
 42
0.0
 43
0.0
 44
0.0
 45
0.0
 46
0.0
 47
0.0
 48
0.0
 49
0.0
140
0.0
141
0.0
142
1.0
143
1.0
 70
  1712
 72
     0
 73
     0
 74
     0
  7

 75
     0
 76
     0
 77
     2
 78
   300
147
1.0
148
0.0
149
0.0
100
AcDbLayout
  1
Model
 70
     1
 71
     0
 10
0.0
 20
0.0
 11
12.0
 21
9.0
 12
0.0
 22
0.0
 32
0.0
 14
1.000000000000000E+20
 24
1.000000000000000E+20
 34
1.000000000000000E+20
 15
-1.000000000000000E+20
 25
-1.000000000000000E+20
 35
-1.000000000000000E+20
146
0.0
 13
0.0
 23
0.0
 33
0.0
 16
1.0
 26
0.0
 36
0.0
 17
0.0
 27
1.0
 37
0.0
 76
     0
330
1F
331
29
  0
MATERIAL
  5
3D
102
{ACAD_REACTORS
330
3B
102
}
330
3B
100
AcDbMaterial
  1
ByBlock
 72
     1
 94
      127
  0
MATERIAL
  5
3C
102
{ACAD_REACTORS
330
3B
102
}
330
3B
100
AcDbMaterial
  1
ByLayer
 72
     1
 94
      127
  0
MATERIAL
  5
3E
102
{ACAD_REACTORS
330
3B
102
}
330
3B
100
AcDbMaterial
  1
Global
 72
     1
 94
      127
  0
MLINESTYLE
  5
18
102
{ACAD_REACTORS
330
17
102
}
330
17
100
AcDbMlineStyle
  2
Standard
 70
     0
  3

 62
   256
 51
90.0
 52
90.0
 71
     2
 49
0.5
 62
   256
  6
BYLAYER
 49
-0.5
 62
   256
  6
BYLAYER
  0
ACDBPLACEHOLDER
  5
F
102
{ACAD_REACTORS
330
E
102
}
330
E
  0
VISUALSTYLE
  5
2F
102
{ACAD_REACTORS
330
2A
102
}
330
2A
100
AcDbVisualStyle
  2
2dWireframe
 70
     4
177
     2
291
     0
 71
     0
176
     1
 72
     2
176
     1
 73
     0
176
     1
 90
        0
176
     1
 40
-0.6
176
     1
 41
-30.0
176
     1
 62
     5
 63
     7
421
 16777215
176
     1
 74
     1
176
     1
 91
        4
176
     1
 64
     7
176
     1
 65
   257
176
     1
 75
     1
176
     1
175
     1
176
     1
 42
1.0
176
     1
 92
        0
176
     1
 66
   257
176
     1
 43
1.0
176
     1
 76
     1
176
     1
 77
     6
176
     1
 78
     2
176
     1
 67
     7
176
     1
 79
     5
176
     1
170
     0
176
     1
171
     0
176
     1
290
     0
176
     1
 93
        1
176
     1
 44
0.0
176
     1
173
     0
176
     1
  0
VISUALSTYLE
  5
31
102
{ACAD_REACTORS
330
2A
102
}
330
2A
100
AcDbVisualStyle
  2
3D Hidden
 70
     6
177
     2
291
     0
 71
     1
176
     1
 72
     2
176
     1
 73
     2
176
     1
 90
        0
176
     1
 40
-0.6
176
     1
 41
-30.0
176
     1
 62
     5
 63
     7
421
 16777215
176
     1
 74
     2
176
     1
 91
        2
176
     1
 64
     7
176
     1
 65
   257
176
     1
 75
     2
176
     1
175
     1
176
     1
 42
40.0
176
     1
 92
        0
176
     1
 66
   257
176
     1
 43
1.0
176
     1
 76
     1
176
     1
 77
     6
176
     1
 78
     2
176
     1
 67
     7
176
     1
 79
     3
176
     1
170
     0
176
     1
171
     0
176
     1
290
     0
176
     1
 93
        1
176
     1
 44
0.0
176
     1
173
     0
176
     1
  0
VISUALSTYLE
  5
30
102
{ACAD_REACTORS
330
2A
102
}
330
2A
100
AcDbVisualStyle
  2
3dWireframe
 70
     5
177
     2
291
     0
 71
     0
176
     1
 72
     2
176
     1
 73
     0
176
     1
 90
        0
176
     1
 40
-0.6
176
     1
 41
-30.0
176
     1
 62
     5
 63
     7
421
 16777215
176
     1
 74
     1
176
     1
 91
        4
176
     1
 64
     7
176
     1
 65
   257
176
     1
 75
     1
176
     1
175
     1
176
     1
 42
1.0
176
     1
 92
        0
176
     1
 66
   257
176
     1
 43
1.0
176
     1
 76
     1
176
     1
 77
     6
176
     1
 78
     2
176
     1
 67
     7
176
     1
 79
     5
176
     1
170
     0
176
     1
171
     0
176
     1
290
     0
176
     1
 93
        1
176
     1
 44
0.0
176
     1
173
     0
176
     1
  0
VISUALSTYLE
  5
32
102
{ACAD_REACTORS
330
2A
102
}
330
2A
100
AcDbVisualStyle
  2
Basic
 70
     7
177
     2
291
     1
 71
     1
176
     1
 72
     0
176
     1
 73
     1
176
     1
 90
        0
176
     1
 40
-0.6
176
     1
 41
-30.0
176
     1
 62
     5
 63
     7
421
 16777215
176
     1
 74
     0
176
     1
 91
        4
176
     1
 64
     7
176
     1
 65
   257
176
     1
 75
     1
176
     1
175
     1
176
     1
 42
1.0
176
     1
 92
        8
176
     1
 66
     7
176
     1
 43
1.0
176
     1
 76
     1
176
     1
 77
     6
176
     1
 78
     2
176
     1
 67
     7
176
     1
 79
     5
176
     1
170
     0
176
     1
171
     0
176
     1
290
     0
176
     1
 93
        1
176
     1
 44
0.0
176
     1
173
     0
176
     1
  0
VISUALSTYLE
  5
36
102
{ACAD_REACTORS
330
2A
102
}
330
2A
100
AcDbVisualStyle
  2
Brighten
 70
    12
177
     2
291
     1
 71
     2
176
     1
 72
     2
176
     1
 73
     0
176
     1
 90
        0
176
     1
 40
-0.6
176
     1
 41
-30.0
176
     1
 62
     5
 63
     7
421
 16777215
176
     1
 74
     1
176
     1
 91
        4
176
     1
 64
     7
176
     1
 65
   257
176
     1
 75
     1
176
     1
175
     1
176
     1
 42
1.0
176
     1
 92
        8
176
     1
 66
     7
176
     1
 43
1.0
176
     1
 76
     1
176
     1
 77
     6
176
     1
 78
     2
176
     1
 67
     7
176
     1
 79
     5
176
     1
170
     0
176
     1
171
     0
176
     1
290
     0
176
     1
 93
        1
176
     1
 44
50.0
176
     1
173
     0
176
     1
  0
VISUALSTYLE
  5
3A
102
{ACAD_REACTORS
330
2A
102
}
330
2A
100
AcDbVisualStyle
  2
ColorChange
 70
    16
177
     2
291
     1
 71
     2
176
     1
 72
     2
176
     1
 73
     3
176
     1
 90
        0
176
     1
 40
-0.6
176
     1
 41
-30.0
176
     1
 62
     5
 63
     8
421
  8421504
176
     1
 74
     1
176
     1
 91
        4
176
     1
 64
     7
176
     1
 65
   257
176
     1
 75
     1
176
     1
175
     1
176
     1
 42
1.0
176
     1
 92
        8
176
     1
 66
     8
424
  8421504
176
     1
 43
1.0
176
     1
 76
     1
176
     1
 77
     6
176
     1
 78
     2
176
     1
 67
     7
176
     1
 79
     5
176
     1
170
     0
176
     1
171
     0
176
     1
290
     0
176
     1
 93
        1
176
     1
 44
0.0
176
     1
173
     0
176
     1
  0
VISUALSTYLE
  5
34
102
{ACAD_REACTORS
330
2A
102
}
330
2A
100
AcDbVisualStyle
  2
Conceptual
 70
     9
177
     2
291
     0
 71
     3
176
     1
 72
     2
176
     1
 73
     0
176
     1
 90
        0
176
     1
 40
-0.6
176
     1
 41
-30.0
176
     1
 62
     5
 63
     7
421
 16777215
176
     1
 74
     2
176
     1
 91
        2
176
     1
 64
     7
176
     1
 65
   257
176
     1
 75
     1
176
     1
175
     1
176
     1
 42
40.0
176
     1
 92
        8
176
     1
 66
     7
176
     1
 43
1.0
176
     1
 76
     1
176
     1
 77
     6
176
     1
 78
     2
176
     1
 67
     7
176
     1
 79
     3
176
     1
170
     0
176
     1
171
     0
176
     1
290
     0
176
     1
 93
        1
176
     1
 44
0.0
176
     1
173
     0
176
     1
  0
VISUALSTYLE
  5
35
102
{ACAD_REACTORS
330
2A
102
}
330
2A
100
AcDbVisualStyle
  2
Dim
 70
    11
177
     2
291
     1
 71
     2
176
     1
 72
     2
176
     1
 73
     0
176
     1
 90
        0
176
     1
 40
-0.6
176
     1
 41
-30.0
176
     1
 62
     5
 63
     7
421
 16777215
176
     1
 74
     1
176
     1
 91
        4
176
     1
 64
     7
176
     1
 65
   257
176
     1
 75
     1
176
     1
175
     1
176
     1
 42
1.0
176
     1
 92
        8
176
     1
 66
     7
176
     1
 43
1.0
176
     1
 76
     1
176
     1
 77
     6
176
     1
 78
     2
176
     1
 67
     7
176
     1
 79
     5
176
     1
170
     0
176
     1
171
     0
176
     1
290
     0
176
     1
 93
        1
176
     1
 44
-50.0
176
     1
173
     0
176
     1
  0
VISUALSTYLE
  5
39
102
{ACAD_REACTORS
330
2A
102
}
330
2A
100
AcDbVisualStyle
  2
Facepattern
 70
    15
177
     2
291
     1
 71
     2
176
     1
 72
     2
176
     1
 73
     0
176
     1
 90
        0
176
     1
 40
-0.6
176
     1
 41
-30.0
176
     1
 62
     5
 63
     7
421
 16777215
176
     1
 74
     1
176
     1
 91
        4
176
     1
 64
     7
176
     1
 65
   257
176
     1
 75
     1
176
     1
175
     1
176
     1
 42
1.0
176
     1
 92
        8
176
     1
 66
     7
176
     1
 43
1.0
176
     1
 76
     1
176
     1
 77
     6
176
     1
 78
     2
176
     1
 67
     7
176
     1
 79
     5
176
     1
170
     0
176
     1
171
     0
176
     1
290
     0
176
     1
 93
        1
176
     1
 44
0.0
176
     1
173
     0
176
     1
  0
VISUALSTYLE
  5
2B
102
{ACAD_REACTORS
330
2A
102
}
330
2A
100
AcDbVisualStyle
  2
Flat
 70
     0
177
     2
291
     1
 71
     2
176
     1
 72
     1
176
     1
 73
     1
176
     1
 90
        2
176
     1
 40
-0.6
176
     1
 41
30.0
176
     1
 62
     5
 63
     7
421
 16777215
176
     1
 74
     0
176
     1
 91
        4
176
     1
 64
     7
176
     1
 65
   257
176
     1
 75
     1
176
     1
175
     1
176
     1
 42
1.0
176
     1
 92
        8
176
     1
 66
     7
176
     1
 43
1.0
176
     1
 76
     1
176
     1
 77
     6
176
     1
 78
     2
176
     1
 67
     7
176
     1
 79
     5
176
     1
170
     0
176
     1
171
     0
176
     1
290
     0
176
     1
 93
       13
176
     1
 44
0.0
176
     1
173
     0
176
     1
  0
VISUALSTYLE
  5
2C
102
{ACAD_REACTORS
330
2A
102
}
330
2A
100
AcDbVisualStyle
  2
FlatWithEdges
 70
     1
177
     2
291
     1
 71
     2
176
     1
 72
     1
176
     1
 73
     1
176
     1
 90
        2
176
     1
 40
-0.6
176
     1
 41
30.0
176
     1
 62
     5
 63
     7
421
 16777215
176
     1
 74
     1
176
     1
 91
        4
176
     1
 64
     7
176
     1
 65
   257
176
     1
 75
     1
176
     1
175
     1
176
     1
 42
1.0
176
     1
 92
        0
176
     1
 66
   257
176
     1
 43
1.0
176
     1
 76
     1
176
     1
 77
     6
176
     1
 78
     2
176
     1
 67
     7
176
     1
 79
     5
176
     1
170
     0
176
     1
171
     0
176
     1
290
     0
176
     1
 93
       13
176
     1
 44
0.0
176
     1
173
     0
176
     1
  0
VISUALSTYLE
  5
2D
102
{ACAD_REACTORS
330
2A
102
}
330
2A
100
AcDbVisualStyle
  2
Gouraud
 70
     2
177
     2
291
     1
 71
     2
176
     1
 72
     2
176
     1
 73
     1
176
     1
 90
        2
176
     1
 40
-0.6
176
     1
 41
30.0
176
     1
 62
     5
 63
     7
421
 16777215
176
     1
 74
     0
176
     1
 91
        4
176
     1
 64
     7
176
     1
 65
   257
176
     1
 75
     1
176
     1
175
     1
176
     1
 42
1.0
176
     1
 92
        0
176
     1
 66
     7
176
     1
 43
1.0
176
     1
 76
     1
176
     1
 77
     6
176
     1
 78
     2
176
     1
 67
     7
176
     1
 79
     5
176
     1
170
     0
176
     1
171
     0
176
     1
290
     0
176
     1
 93
       13
176
     1
 44
0.0
176
     1
173
     0
176
     1
  0
VISUALSTYLE
  5
2E
102
{ACAD_REACTORS
330
2A
102
}
330
2A
100
AcDbVisualStyle
  2
GouraudWithEdges
 70
     3
177
     2
291
     1
 71
     2
176
     1
 72
     2
176
     1
 73
     1
176
     1
 90
        2
176
     1
 40
-0.6
176
     1
 41
30.0
176
     1
 62
     5
 63
     7
421
 16777215
176
     1
 74
     1
176
     1
 91
        4
176
     1
 64
     7
176
     1
 65
   257
176
     1
 75
     1
176
     1
175
     1
176
     1
 42
1.0
176
     1
 92
        0
176
     1
 66
   257
176
     1
 43
1.0
176
     1
 76
     1
176
     1
 77
     6
176
     1
 78
     2
176
     1
 67
     7
176
     1
 79
     5
176
     1
170
     0
176
     1
171
     0
176
     1
290
     0
176
     1
 93
       13
176
     1
 44
0.0
176
     1
173
     0
176
     1
  0
VISUALSTYLE
  5
38
102
{ACAD_REACTORS
330
2A
102
}
330
2A
100
AcDbVisualStyle
  2
Linepattern
 70
    14
177
     2
291
     1
 71
     2
176
     1
 72
     2
176
     1
 73
     0
176
     1
 90
        0
176
     1
 40
-0.6
176
     1
 41
-30.0
176
     1
 62
     5
 63
     7
421
 16777215
176
     1
 74
     1
176
     1
 91
        4
176
     1
 64
     7
176
     1
 65
   257
176
     1
 75
     7
176
     1
175
     7
176
     1
 42
1.0
176
     1
 92
        8
176
     1
 66
     7
176
     1
 43
1.0
176
     1
 76
     1
176
     1
 77
     6
176
     1
 78
     2
176
     1
 67
     7
176
     1
 79
     5
176
     1
170
     0
176
     1
171
     0
176
     1
290
     0
176
     1
 93
        1
176
     1
 44
0.0
176
     1
173
     0
176
     1
  0
VISUALSTYLE
  5
33
102
{ACAD_REACTORS
330
2A
102
}
330
2A
100
AcDbVisualStyle
  2
Realistic
 70
     8
177
     2
291
     0
 71
     2
176
     1
 72
     2
176
     1
 73
     0
176
     1
 90
        0
176
     1
 40
-0.6
176
     1
 41
-30.0
176
     1
 62
     5
 63
     7
421
 16777215
176
     1
 74
     1
176
     1
 91
        0
176
     1
 64
     7
176
     1
 65
   257
176
     1
 75
     1
176
     1
175
     1
176
     1
 42
1.0
176
     1
 92
        8
176
     1
 66
     8
424
  7895160
176
     1
 43
1.0
176
     1
 76
     1
176
     1
 77
     6
176
     1
 78
     2
176
     1
 67
     7
176
     1
 79
     5
176
     1
170
     0
176
     1
171
     0
176
     1
290
     0
176
     1
 93
       13
176
     1
 44
0.0
176
     1
173
     0
176
     1
  0
VISUALSTYLE
  5
37
102
{ACAD_REACTORS
330
2A
102
}
330
2A
100
AcDbVisualStyle
  2
Thicken
 70
    13
177
     2
291
     1
 71
     2
176
     1
 72
     2
176
     1
 73
     0
176
     1
 90
        0
176
     1
 40
-0.6
176
     1
 41
-30.0
176
     1
 62
     5
 63
     7
421
 16777215
176
     1
 74
     1
176
     1
 91
        4
176
     1
 64
     7
176
     1
 65
   257
176
     1
 75
     1
176
     1
175
     1
176
     1
 42
1.0
176
     1
 92
       12
176
     1
 66
     7
176
     1
 43
1.0
176
     1
 76
     1
176
     1
 77
     6
176
     1
 78
     2
176
     1
 67
     7
176
     1
 79
     5
176
     1
170
     0
176
     1
171
     0
176
     1
290
     0
176
     1
 93
        1
176
     1
 44
0.0
176
     1
173
     0
176
     1
  0
ENDSEC
  0
EOF
