  0
SECTION
  2
HEADER
  9
$ACADVER
  1
AC1024
  9
$ACADMAINTVER
 70
     6
  9
$DWGCODEPAGE
  3
UNDEFINED
  9
$INSBASE
 10
0.0
 20
0.0
 30
0.0
  9
$EXTMIN
 10
1.000000000000000E+20
 20
1.000000000000000E+20
 30
1.000000000000000E+20
  9
$EXTMAX
 10
-1.000000000000000E+20
 20
-1.000000000000000E+20
 30
-1.000000000000000E+20
  9
$LIMMIN
 10
0.0
 20
0.0
  9
$LIMMAX
 10
12.0
 20
9.0
  9
$ORTHOMODE
 70
     0
  9
$REGENMODE
 70
     1
  9
$FILLMODE
 70
     1
  9
$QTEXTMODE
 70
     0
  9
$MIRRTEXT
 70
     1
  9
$LTSCALE
 40
1.0
  9
$ATTMODE
 70
     1
  9
$TEXTSIZE
 40
0.2
  9
$TRACEWID
 40
0.05
  9
$TEXTSTYLE
  7
Standard
  9
$CLAYER
  8
0
  9
$CELTYPE
  6
ByLayer
  9
$CECOLOR
 62
   256
  9
$CELTSCALE
 40
1.0
  9
$DISPSILH
 70
     0
  9
$DIMSCALE
 40
1.0
  9
$DIMASZ
 40
0.18
  9
$DIMEXO
 40
0.0625
  9
$DIMDLI
 40
0.38
  9
$DIMRND
 40
0.0
  9
$DIMDLE
 40
0.0
  9
$DIMEXE
 40
0.18
  9
$DIMTP
 40
0.0
  9
$DIMTM
 40
0.0
  9
$DIMTXT
 40
0.18
  9
$DIMCEN
 40
0.09
  9
$DIMTSZ
 40
0.0
  9
$DIMTOL
 70
     0
  9
$DIMLIM
 70
     0
  9
$DIMTIH
 70
     1
  9
$DIMTOH
 70
     1
  9
$DIMSE1
 70
     0
  9
$DIMSE2
 70
     0
  9
$DIMTAD
 70
     0
  9
$DIMZIN
 70
     0
  9
$DIMBLK
  1

  9
$DIMASO
 70
     1
  9
$DIMSHO
 70
     1
  9
$DIMPOST
  1

  9
$DIMAPOST
  1

  9
$DIMALT
 70
     0
  9
$DIMALTD
 70
     2
  9
$DIMALTF
 40
25.4
  9
$DIMLFAC
 40
1.0
  9
$DIMTOFL
 70
     0
  9
$DIMTVP
 40
0.0
  9
$DIMTIX
 70
     0
  9
$DIMSOXD
 70
     0
  9
$DIMSAH
 70
     0
  9
$DIMBLK1
  1

  9
$DIMBLK2
  1

  9
$DIMSTYLE
  2
Standard
  9
$DIMCLRD
 70
     0
  9
$DIMCLRE
 70
     0
  9
$DIMCLRT
 70
     0
  9
$DIMTFAC
 40
1.0
  9
$DIMGAP
 40
0.09
  9
$DIMJUST
 70
     0
  9
$DIMSD1
 70
     0
  9
$DIMSD2
 70
     0
  9
$DIMTOLJ
 70
     1
  9
$DIMTZIN
 70
     0
  9
$DIMALTZ
 70
     0
  9
$DIMALTTZ
 70
     0
  9
$DIMUPT
 70
     0
  9
$DIMDEC
 70
     4
  9
$DIMTDEC
 70
     4
  9
$DIMALTU
 70
     2
  9
$DIMALTTD
 70
     2
  9
$DIMTXSTY
  7
Standard
  9
$DIMAUNIT
 70
     0
  9
$DIMADEC
 70
     0
  9
$DIMALTRND
 40
0.0
  9
$DIMAZIN
 70
     0
  9
$DIMDSEP
 70
    46
  9
$DIMATFIT
 70
     3
  9
$DIMFRAC
 70
     0
  9
$DIMLDRBLK
  1

  9
$DIMLUNIT
 70
     2
  9
$DIMLWD
 70
    -2
  9
$DIMLWE
 70
    -2
  9
$DIMTMOVE
 70
     0
  9
$DIMFXL
 40
1.0
  9
$DIMFXLON
 70
     0
  9
$DIMJOGANG
 40
0.7853981633974483
  9
$DIMTFILL
 70
     0
  9
$DIMTFILLCLR
 70
     0
  9
$DIMARCSYM
 70
     0
  9
$DIMLTYPE
  6

  9
$DIMLTEX1
  6

  9
$DIMLTEX2
  6

  9
$DIMTXTDIRECTION
 70
     0
  9
$LUNITS
 70
     2
  9
$LUPREC
 70
     4
  9
$SKETCHINC
 40
0.1
  9
$FILLETRAD
 40
0.5
  9
$AUNITS
 70
     0
  9
$AUPREC
 70
     0
  9
$MENU
  1
.
  9
$ELEVATION
 40
0.0
  9
$PELEVATION
 40
0.0
  9
$THICKNESS
 40
0.0
  9
$LIMCHECK
 70
     0
  9
$CHAMFERA
 40
0.5
  9
$CHAMFERB
 40
0.5
  9
$CHAMFERC
 40
1.0
  9
$CHAMFERD
 40
0.0
  9
$SKPOLY
 70
     0
  9
$TDCREATE
 40
2457917.607916655
  9
$TDUCREATE
 40
2457917.232916667
  9
$TDUPDATE
 40
2457917.607916655
  9
$TDUUPDATE
 40
2457917.232916667
  9
$TDINDWG
 40
0.0000000116
  9
$TDUSRTIMER
 40
0.0000000116
  9
$USRTIMER
 70
     1
  9
$ANGBASE
 50
0.0
  9
$ANGDIR
 70
     0
  9
$PDMODE
 70
     0
  9
$PDSIZE
 40
0.0
  9
$PLINEWID
 40
0.0
  9
$SPLFRAME
 70
     0
  9
$SPLINETYPE
 70
     6
  9
$SPLINESEGS
 70
     8
  9
$HANDSEED
  5
107
  9
$SURFTAB1
 70
     6
  9
$SURFTAB2
 70
     6
  9
$SURFTYPE
 70
     6
  9
$SURFU
 70
     6
  9
$SURFV
 70
     6
  9
$UCSBASE
  2

  9
$UCSNAME
  2

  9
$UCSORG
 10
0.0
 20
0.0
 30
0.0
  9
$UCSXDIR
 10
1.0
 20
0.0
 30
0.0
  9
$UCSYDIR
 10
0.0
 20
1.0
 30
0.0
  9
$UCSORTHOREF
  2

  9
$UCSORTHOVIEW
 70
     0
  9
$UCSORGTOP
 10
0.0
 20
0.0
 30
0.0
  9
$UCSORGBOTTOM
 10
0.0
 20
0.0
 30
0.0
  9
$UCSORGLEFT
 10
0.0
 20
0.0
 30
0.0
  9
$UCSORGRIGHT
 10
0.0
 20
0.0
 30
0.0
  9
$UCSORGFRONT
 10
0.0
 20
0.0
 30
0.0
  9
$UCSORGBACK
 10
0.0
 20
0.0
 30
0.0
  9
$PUCSBASE
  2

  9
$PUCSNAME
  2

  9
$PUCSORG
 10
0.0
 20
0.0
 30
0.0
  9
$PUCSXDIR
 10
1.0
 20
0.0
 30
0.0
  9
$PUCSYDIR
 10
0.0
 20
1.0
 30
0.0
  9
$PUCSORTHOREF
  2

  9
$PUCSORTHOVIEW
 70
     0
  9
$PUCSORGTOP
 10
0.0
 20
0.0
 30
0.0
  9
$PUCSORGBOTTOM
 10
0.0
 20
0.0
 30
0.0
  9
$PUCSORGLEFT
 10
0.0
 20
0.0
 30
0.0
  9
$PUCSORGRIGHT
 10
0.0
 20
0.0
 30
0.0
  9
$PUCSORGFRONT
 10
0.0
 20
0.0
 30
0.0
  9
$PUCSORGBACK
 10
0.0
 20
0.0
 30
0.0
  9
$USERI1
 70
     0
  9
$USERI2
 70
     0
  9
$USERI3
 70
     0
  9
$USERI4
 70
     0
  9
$USERI5
 70
     0
  9
$USERR1
 40
0.0
  9
$USERR2
 40
0.0
  9
$USERR3
 40
0.0
  9
$USERR4
 40
0.0
  9
$USERR5
 40
0.0
  9
$WORLDVIEW
 70
     1
  9
$SHADEDGE
 70
     3
  9
$SHADEDIF
 70
    70
  9
$TILEMODE
 70
     1
  9
$MAXACTVP
 70
    64
  9
$PINSBASE
 10
0.0
 20
0.0
 30
0.0
  9
$PLIMCHECK
 70
     0
  9
$PEXTMIN
 10
1.000000000000000E+20
 20
1.000000000000000E+20
 30
1.000000000000000E+20
  9
$PEXTMAX
 10
-1.000000000000000E+20
 20
-1.000000000000000E+20
 30
-1.000000000000000E+20
  9
$PLIMMIN
 10
0.0
 20
0.0
  9
$PLIMMAX
 10
12.0
 20
9.0
  9
$UNITMODE
 70
     0
  9
$VISRETAIN
 70
     1
  9
$PLINEGEN
 70
     0
  9
$PSLTSCALE
 70
     1
  9
$TREEDEPTH
 70
  3020
  9
$CMLSTYLE
  2
Standard
  9
$CMLJUST
 70
     0
  9
$CMLSCALE
 40
1.0
  9
$PROXYGRAPHICS
 70
     1
  9
$MEASUREMENT
 70
     0
  9
$CELWEIGHT
370
    -1
  9
$ENDCAPS
280
     0
  9
$JOINSTYLE
280
     0
  9
$LWDISPLAY
290
     1
  9
$INSUNITS
 70
     1
  9
$HYPERLINKBASE
  1

  9
$STYLESHEET
  1

  9
$XEDIT
290
     1
  9
$CEPSNTYPE
380
     0
  9
$PSTYLEMODE
290
     1
  9
$FINGERPRINTGUID
  2
{1729AB47-B708-33FB-A733-81BC3F10A520}
  9
$VERSIONGUID
  2
{FAEB1C32-E019-11D5-929B-00C0DF256EC4}
  9
$EXTNAMES
290
     1
  9
$PSVPSCALE
 40
0.0
  9
$OLESTARTUP
290
     0
  9
$SORTENTS
280
   127
  9
$INDEXCTL
280
     0
  9
$HIDETEXT
280
     1
  9
$XCLIPFRAME
280
     2
  9
$HALOGAP
280
     0
  9
$OBSCOLOR
 70
   257
  9
$OBSLTYPE
280
     0
  9
$INTERSECTIONDISPLAY
280
     0
  9
$INTERSECTIONCOLOR
 70
   257
  9
$DIMASSOC
280
     2
  9
$PROJECTNAME
  1

  9
$CAMERADISPLAY
290
     0
  9
$LENSLENGTH
 40
50.0
  9
$CAMERAHEIGHT
 40
0.0
  9
$STEPSPERSEC
 40
2.0
  9
$STEPSIZE
 40
6.0
  9
$3DDWFPREC
 40
2.0
  9
$PSOLWIDTH
 40
0.25
  9
$PSOLHEIGHT
 40
4.0
  9
$LOFTANG1
 40
1.570796326794897
  9
$LOFTANG2
 40
1.570796326794897
  9
$LOFTMAG1
 40
0.0
  9
$LOFTMAG2
 40
0.0
  9
$LOFTPARAM
 70
     7
  9
$LOFTNORMALS
280
     1
  9
$LATITUDE
 40
37.795
  9
$LONGITUDE
 40
-122.394
  9
$NORTHDIRECTION
 40
0.0
  9
$TIMEZONE
 70
 -8000
  9
$LIGHTGLYPHDISPLAY
280
     1
  9
$TILEMODELIGHTSYNCH
280
     1
  9
$CMATERIAL
347
3C
  9
$SOLIDHIST
280
     1
  9
$SHOWHIST
280
     1
  9
$DWFFRAME
280
     2
  9
$DGNFRAME
280
     2
  9
$REALWORLDSCALE
290
     1
  9
$INTERFERECOLOR
 62
   256
  9
$CSHADOW
280
     0
  9
$SHADOWPLANELOCATION
 40
0.0
  0
ENDSEC
  0
SECTION
  2
CLASSES
  0
CLASS
  1
ACDBDICTIONARYWDFLT
  2
AcDbDictionaryWithDefault
  3
ObjectDBX Classes
 90
        0
 91
        4
280
     0
281
     0
  0
CLASS
  1
VISUALSTYLE
  2
AcDbVisualStyle
  3
ObjectDBX Classes
 90
     4095
 91
        4
280
     0
281
     0
  0
CLASS
  1
MATERIAL
  2
AcDbMaterial
  3
ObjectDBX Classes
 90
     1153
 91
        4
280
     0
281
     0
  0
CLASS
  1
SUN
  2
AcDbSun
  3
SCENEOE
 90
     1024
 91
        4
280
     0
281
     0
  0
ENDSEC
  0
SECTION
  2
TABLES
  0
TABLE
  2
VPORT
  5
8
330
0
100
AcDbSymbolTable
 70
     1
  0
VPORT
  5
29
330
8
100
AcDbSymbolTableRecord
100
AcDbViewportTableRecord
  2
*Active
 70
     0
 10
0.0
 20
0.0
 11
1.0
 21
1.0
 12
0.0
 22
0.0
 13
0.0
 23
0.0
 14
0.5
 24
0.5
 15
0.5
 25
0.5
 16
0.0
 26
0.0
 36
1.0
 17
91.00082462281999
 27
-128.4993055234307
 37
0.0
 40
256.9986110468615
 41
0.7081814508812795
 42
50.0
 43
0.0
 44
0.0
 50
0.0
 51
0.0
 71
     0
 72
   100
 73
     1
 74
     3
 75
     0
 76
     0
 77
     0
 78
     0
281
     0
 65
     1
110
0.0
120
0.0
130
0.0
111
1.0
121
0.0
131
0.0
112
0.0
122
1.0
132
0.0
 79
     0
146
0.0
 60
     3
 61
     5
292
     1
282
     1
141
0.0
142
0.0
 63
   250
361
3F
  0
ENDTAB
  0
TABLE
  2
LTYPE
  5
5
330
0
100
AcDbSymbolTable
 70
     1
  0
LTYPE
  5
14
330
5
100
AcDbSymbolTableRecord
100
AcDbLinetypeTableRecord
  2
ByBlock
 70
     0
  3

 72
    65
 73
     0
 40
0.0
  0
LTYPE
  5
15
330
5
100
AcDbSymbolTableRecord
100
AcDbLinetypeTableRecord
  2
ByLayer
 70
     0
  3

 72
    65
 73
     0
 40
0.0
  0
LTYPE
  5
16
330
5
100
AcDbSymbolTableRecord
100
AcDbLinetypeTableRecord
  2
Continuous
 70
     0
  3
Solid line
 72
    65
 73
     0
 40
0.0
  0
ENDTAB
  0
TABLE
  2
LAYER
  5
2
330
0
100
AcDbSymbolTable
 70
     2
  0
LAYER
  5
10
330
2
100
AcDbSymbolTableRecord
100
AcDbLayerTableRecord
  2
0
 70
     0
 62
     7
  6
Continuous
370
    -3
390
F
347
3E
  0
LAYER
  5
40
330
2
100
AcDbSymbolTableRecord
100
AcDbLayerTableRecord
  2
_U+30EC_U+30A4_U+30E4_U+30FC 1
 70
     0
 62
     7
  6
Continuous
370
    -3
390
F
347
3E
  0
ENDTAB
  0
TABLE
  2
STYLE
  5
3
330
0
100
AcDbSymbolTable
 70
     1
  0
STYLE
  5
11
330
3
100
AcDbSymbolTableRecord
100
AcDbTextStyleTableRecord
  2
Standard
 70
     0
 40
0.0
 41
1.0
 50
0.0
 71
     0
 42
0.2
  3
txt
  4

  0
ENDTAB
  0
TABLE
  2
VIEW
  5
6
330
0
100
AcDbSymbolTable
 70
     0
  0
ENDTAB
  0
TABLE
  2
UCS
  5
7
330
0
100
AcDbSymbolTable
 70
     0
  0
ENDTAB
  0
TABLE
  2
APPID
  5
9
330
0
100
AcDbSymbolTable
 70
     1
  0
APPID
  5
12
330
9
100
AcDbSymbolTableRecord
100
AcDbRegAppTableRecord
  2
ACAD
 70
     0
  0
ENDTAB
  0
TABLE
  2
DIMSTYLE
  5
A
330
0
100
AcDbSymbolTable
 70
     1
100
AcDbDimStyleTable
  0
DIMSTYLE
105
27
330
A
100
AcDbSymbolTableRecord
100
AcDbDimStyleTableRecord
  2
Standard
 70
     0
178
     0
340
11
  0
ENDTAB
  0
TABLE
  2
BLOCK_RECORD
  5
1
330
0
100
AcDbSymbolTable
 70
     7
  0
BLOCK_RECORD
  5
1F
330
1
100
AcDbSymbolTableRecord
100
AcDbBlockTableRecord
  2
*Model_Space
340
22
 70
     0
280
     1
281
     0
  0
BLOCK_RECORD
  5
1B
330
1
100
AcDbSymbolTableRecord
100
AcDbBlockTableRecord
  2
*Paper_Space
340
1E
 70
     0
280
     1
281
     0
  0
BLOCK_RECORD
  5
23
330
1
100
AcDbSymbolTableRecord
100
AcDbBlockTableRecord
  2
*Paper_Space0
340
26
 70
     0
280
     1
281
     0
  0
BLOCK_RECORD
  5
92
330
1
100
AcDbSymbolTableRecord
100
AcDbBlockTableRecord
  2
block 2
340
0
102
{BLKREFS
331
93
102
}
 70
     0
280
     1
281
     0
  0
BLOCK_RECORD
  5
A6
330
1
100
AcDbSymbolTableRecord
100
AcDbBlockTableRecord
  2
block 3
340
0
102
{BLKREFS
331
A7
102
}
 70
     0
280
     1
281
     0
  0
BLOCK_RECORD
  5
C5
330
1
100
AcDbSymbolTableRecord
100
AcDbBlockTableRecord
  2
block 4
340
0
102
{BLKREFS
331
C6
102
}
 70
     0
280
     1
281
     0
  0
BLOCK_RECORD
  5
E8
330
1
100
AcDbSymbolTableRecord
100
AcDbBlockTableRecord
  2
block 5
340
0
102
{BLKREFS
331
E9
102
}
 70
     0
280
     1
281
     0
  0
BLOCK_RECORD
  5
F2
330
1
100
AcDbSymbolTableRecord
100
AcDbBlockTableRecord
  2
block 6
340
0
102
{BLKREFS
331
F3
102
}
 70
     0
280
     1
281
     0
  0
BLOCK_RECORD
  5
FF
330
1
100
AcDbSymbolTableRecord
100
AcDbBlockTableRecord
  2
block 7
340
0
102
{BLKREFS
331
100
102
}
 70
     0
280
     1
281
     0
  0
ENDTAB
  0
ENDSEC
  0
SECTION
  2
BLOCKS
  0
BLOCK
  5
20
330
1F
100
AcDbEntity
  8
0
100
AcDbBlockBegin
  2
*Model_Space
 70
     0
 10
0.0
 20
0.0
 30
0.0
  3
*Model_Space
  1

  0
ENDBLK
  5
21
330
1F
100
AcDbEntity
  8
0
100
AcDbBlockEnd
  0
BLOCK
  5
1C
330
1B
100
AcDbEntity
 67
     1
  8
0
100
AcDbBlockBegin
  2
*Paper_Space
 70
     0
 10
0.0
 20
0.0
 30
0.0
  3
*Paper_Space
  1

  0
ENDBLK
  5
1D
330
1B
100
AcDbEntity
 67
     1
  8
0
100
AcDbBlockEnd
  0
BLOCK
  5
24
330
23
100
AcDbEntity
  8
0
100
AcDbBlockBegin
  2
*Paper_Space0
 70
     0
 10
0.0
 20
0.0
 30
0.0
  3
*Paper_Space0
  1

  0
ENDBLK
  5
25
330
23
100
AcDbEntity
  8
0
100
AcDbBlockEnd
  0
BLOCK
  5
94
330
92
100
AcDbEntity
  8
0
100
AcDbBlockBegin
  2
block 2
 70
     0
 10
0.0
 20
0.0
 30
0.0
  3
block 2
  1

  0
SPLINE
  5
96
330
92
100
AcDbEntity
  8
_U+30EC_U+30A4_U+30E4_U+30FC 1
370
     0
100
AcDbSpline
210
0.0
220
0.0
230
1.0
 70
    11
 71
     3
 72
    62
 73
    58
 74
     0
 42
0.0000000001
 43
0.0000000001
 12
1.0
 22
0.0
 32
0.0
 13
1.0
 23
0.0
 33
0.0
 40
0.0
 40
0.0
 40
0.0
 40
0.0
 40
1.0
 40
1.0
 40
1.0
 40
2.0
 40
2.0
 40
2.0
 40
3.0
 40
3.0
 40
3.0
 40
4.0
 40
4.0
 40
4.0
 40
5.0
 40
5.0
 40
5.0
 40
6.0
 40
6.0
 40
6.0
 40
7.0
 40
7.0
 40
7.0
 40
8.0
 40
8.0
 40
8.0
 40
9.0
 40
9.0
 40
9.0
 40
10.0
 40
10.0
 40
10.0
 40
11.0
 40
11.0
 40
11.0
 40
12.0
 40
12.0
 40
12.0
 40
13.0
 40
13.0
 40
13.0
 40
14.0
 40
14.0
 40
14.0
 40
15.0
 40
15.0
 40
15.0
 40
16.0
 40
16.0
 40
16.0
 40
17.0
 40
17.0
 40
17.0
 40
18.0
 40
18.0
 40
18.0
 40
19.0
 40
19.0
 40
19.0
 40
19.0
 10
92.51666121819028
 20
-117.1995645865855
 30
0.0
 10
92.42123207324886
 20
-117.1995645865855
 30
0.0
 10
92.20315752903255
 20
-117.1783772493512
 30
0.0
 10
92.07844507246651
 20
-116.9921698383735
 30
0.0
 10
92.00472002908215
 20
-116.8800319803286
 30
0.0
 10
92.00024140495134
 20
-116.7806409755791
 30
0.0
 10
91.99610729036904
 20
-116.6960638814163
 30
0.0
 10
91.99610729036904
 20
-116.6960638814163
 30
0.0
 10
92.2162488918765
 20
-116.6960638814163
 30
0.0
 10
92.2162488918765
 20
-116.6960638814163
 30
0.0
 10
92.21831594916765
 20
-116.7701334343491
 30
0.0
 10
92.2286512356234
 20
-117.0049166916689
 30
0.0
 10
92.51218259405945
 20
-117.0049166916689
 30
0.0
 10
92.64964190392092
 20
-117.0049166916689
 30
0.0
 10
92.80191512436897
 20
-116.9351535080926
 30
0.0
 10
92.80191512436897
 20
-116.7065714226463
 30
0.0
 10
92.80191512436897
 20
-116.5902994500191
 30
0.0
 10
92.76401907403122
 20
-116.5415513489028
 30
0.0
 10
92.73232419556692
 20
-116.5098564704385
 30
0.0
 10
92.65825464263405
 20
-116.4357869175056
 30
0.0
 10
92.5418104152326
 20
-116.4232123189845
 30
0.0
 10
92.48703339701713
 20
-116.4232123189845
 30
0.0
 10
92.46774086229973
 20
-116.4232123189845
 30
0.0
 10
92.43191186925314
 20
-116.4252793762756
 30
0.0
 10
92.40435110537113
 20
-116.4294134908579
 30
0.0
 10
92.40435110537113
 20
-116.4294134908579
 30
0.0
 10
92.40435110537113
 20
-116.2347655959413
 30
0.0
 10
92.40435110537113
 20
-116.2347655959413
 30
0.0
 10
92.44224715570888
 20
-116.241139022589
 30
0.0
 10
92.48496633972599
 20
-116.2433783346544
 30
0.0
 10
92.49116751159943
 20
-116.2433783346544
 30
0.0
 10
92.55662432581919
 20
-116.2433783346544
 30
0.0
 10
92.75575084486663
 20
-116.2221909974202
 30
0.0
 10
92.75575084486663
 20
-115.985168428035
 30
0.0
 10
92.75575084486663
 20
-115.8075737557703
 30
0.0
 10
92.62414819733007
 20
-115.7524522280063
 30
0.0
 10
92.51459416089914
 20
-115.7524522280063
 30
0.0
 10
92.25001082763194
 20
-115.7524522280063
 30
0.0
 10
92.24139808891883
 20
-115.985168428035
 30
0.0
 10
92.23726397433653
 20
-116.0571709236767
 30
0.0
 10
92.23726397433653
 20
-116.0571709236767
 30
0.0
 10
92.0343478502553
 20
-116.0571709236767
 30
0.0
 10
92.0343478502553
 20
-116.0571709236767
 30
0.0
 10
92.0426160794199
 20
-115.9322862123364
 30
0.0
 10
92.07017684330191
 20
-115.5557372757986
 30
0.0
 10
92.52699650464604
 20
-115.5557372757986
 30
0.0
 10
92.7512722207358
 20
-115.5557372757986
 30
0.0
 10
92.99242890470329
 20
-115.68268904443
 30
0.0
 10
92.99242890470329
 20
-115.9787950013873
 30
0.0
 10
92.99242890470329
 20
-116.165002412365
 30
0.0
 10
92.8973442693104
 20
-116.2475124492367
 30
0.0
 10
92.79778100978668
 20
-116.3088351488742
 30
0.0
 10
92.85910370942412
 20
-116.3363959127562
 30
0.0
 10
93.0410047510453
 20
-116.4168388923368
 30
0.0
 10
93.0410047510453
 20
-116.6939968241251
 30
0.0
 10
93.0410047510453
 20
-117.0324774555509
 30
0.0
 10
92.79364689520438
 20
-117.1995645865855
 30
0.0
 10
92.51666121819028
 20
-117.1995645865855
 30
0.0
  0
HATCH
  5
97
330
92
100
AcDbEntity
  8
_U+30EC_U+30A4_U+30E4_U+30FC 1
 62
   179
420
  2234388
100
AcDbHatch
 10
0.0
 20
0.0
 30
0.0
210
0.0
220
0.0
230
1.0
  2
SOLID
 70
     1
 71
     0
 91
        1
 92
        1
 93
        1
 72
     4
 94
        3
 73
     0
 74
     1
 95
       62
 96
       58
 40
0.0
 40
0.0
 40
0.0
 40
0.0
 40
1.0
 40
1.0
 40
1.0
 40
2.0
 40
2.0
 40
2.0
 40
3.0
 40
3.0
 40
3.0
 40
4.0
 40
4.0
 40
4.0
 40
5.0
 40
5.0
 40
5.0
 40
6.0
 40
6.0
 40
6.0
 40
7.0
 40
7.0
 40
7.0
 40
8.0
 40
8.0
 40
8.0
 40
9.0
 40
9.0
 40
9.0
 40
10.0
 40
10.0
 40
10.0
 40
11.0
 40
11.0
 40
11.0
 40
12.0
 40
12.0
 40
12.0
 40
13.0
 40
13.0
 40
13.0
 40
14.0
 40
14.0
 40
14.0
 40
15.0
 40
15.0
 40
15.0
 40
16.0
 40
16.0
 40
16.0
 40
17.0
 40
17.0
 40
17.0
 40
18.0
 40
18.0
 40
18.0
 40
19.0
 40
19.0
 40
19.0
 40
19.0
 10
92.51666121819028
 20
-117.1995645865855
 10
92.42123207324886
 20
-117.1995645865855
 10
92.20315752903255
 20
-117.1783772493512
 10
92.07844507246651
 20
-116.9921698383735
 10
92.00472002908215
 20
-116.8800319803286
 10
92.00024140495134
 20
-116.7806409755791
 10
91.99610729036904
 20
-116.6960638814163
 10
91.99610729036904
 20
-116.6960638814163
 10
92.2162488918765
 20
-116.6960638814163
 10
92.2162488918765
 20
-116.6960638814163
 10
92.21831594916765
 20
-116.7701334343491
 10
92.2286512356234
 20
-117.0049166916689
 10
92.51218259405945
 20
-117.0049166916689
 10
92.64964190392092
 20
-117.0049166916689
 10
92.80191512436897
 20
-116.9351535080926
 10
92.80191512436897
 20
-116.7065714226463
 10
92.80191512436897
 20
-116.5902994500191
 10
92.76401907403122
 20
-116.5415513489028
 10
92.73232419556692
 20
-116.5098564704385
 10
92.65825464263405
 20
-116.4357869175056
 10
92.5418104152326
 20
-116.4232123189845
 10
92.48703339701713
 20
-116.4232123189845
 10
92.46774086229973
 20
-116.4232123189845
 10
92.43191186925314
 20
-116.4252793762756
 10
92.40435110537113
 20
-116.4294134908579
 10
92.40435110537113
 20
-116.4294134908579
 10
92.40435110537113
 20
-116.2347655959413
 10
92.40435110537113
 20
-116.2347655959413
 10
92.44224715570888
 20
-116.241139022589
 10
92.48496633972599
 20
-116.2433783346544
 10
92.49116751159943
 20
-116.2433783346544
 10
92.55662432581919
 20
-116.2433783346544
 10
92.75575084486663
 20
-116.2221909974202
 10
92.75575084486663
 20
-115.985168428035
 10
92.75575084486663
 20
-115.8075737557703
 10
92.62414819733007
 20
-115.7524522280063
 10
92.51459416089914
 20
-115.7524522280063
 10
92.25001082763194
 20
-115.7524522280063
 10
92.24139808891883
 20
-115.985168428035
 10
92.23726397433653
 20
-116.0571709236767
 10
92.23726397433653
 20
-116.0571709236767
 10
92.0343478502553
 20
-116.0571709236767
 10
92.0343478502553
 20
-116.0571709236767
 10
92.0426160794199
 20
-115.9322862123364
 10
92.07017684330191
 20
-115.5557372757986
 10
92.52699650464604
 20
-115.5557372757986
 10
92.7512722207358
 20
-115.5557372757986
 10
92.99242890470329
 20
-115.68268904443
 10
92.99242890470329
 20
-115.9787950013873
 10
92.99242890470329
 20
-116.165002412365
 10
92.8973442693104
 20
-116.2475124492367
 10
92.79778100978668
 20
-116.3088351488742
 10
92.85910370942412
 20
-116.3363959127562
 10
93.0410047510453
 20
-116.4168388923368
 10
93.0410047510453
 20
-116.6939968241251
 10
93.0410047510453
 20
-117.0324774555509
 10
92.79364689520438
 20
-117.1995645865855
 10
92.51666121819028
 20
-117.1995645865855
 97
        0
 97
        0
 75
     2
 76
     1
 98
        0
  0
SPLINE
  5
98
330
92
100
AcDbEntity
  8
_U+30EC_U+30A4_U+30E4_U+30FC 1
370
     0
100
AcDbSpline
210
0.0
220
0.0
230
1.0
 70
    11
 71
     3
 72
    53
 73
    49
 74
     0
 42
0.0000000001
 43
0.0000000001
 12
1.0
 22
0.0
 32
0.0
 13
1.0
 23
0.0
 33
0.0
 40
0.0
 40
0.0
 40
0.0
 40
0.0
 40
1.0
 40
1.0
 40
1.0
 40
2.0
 40
2.0
 40
2.0
 40
3.0
 40
3.0
 40
3.0
 40
4.0
 40
4.0
 40
4.0
 40
5.0
 40
5.0
 40
5.0
 40
6.0
 40
6.0
 40
6.0
 40
7.0
 40
7.0
 40
7.0
 40
8.0
 40
8.0
 40
8.0
 40
9.0
 40
9.0
 40
9.0
 40
10.0
 40
10.0
 40
10.0
 40
11.0
 40
11.0
 40
11.0
 40
12.0
 40
12.0
 40
12.0
 40
13.0
 40
13.0
 40
13.0
 40
14.0
 40
14.0
 40
14.0
 40
15.0
 40
15.0
 40
15.0
 40
16.0
 40
16.0
 40
16.0
 40
16.0
 10
93.68282603994736
 20
-117.1995645865855
 30
0.0
 10
93.60462237243219
 20
-117.1995645865855
 30
0.0
 10
93.50299205561731
 20
-117.1825113639335
 30
0.0
 10
93.40136173880244
 20
-117.1191216070049
 30
0.0
 10
93.22772892634585
 20
-117.0090508062512
 30
0.0
 10
93.20671384388582
 20
-116.8779649230375
 30
0.0
 10
93.18776581871695
 20
-116.7701334343491
 30
0.0
 10
93.18776581871695
 20
-116.7701334343491
 30
0.0
 10
93.40962996796704
 20
-116.7701334343491
 30
0.0
 10
93.40962996796704
 20
-116.7701334343491
 30
0.0
 10
93.46475149573104
 20
-116.968915443848
 30
0.0
 10
93.59187551913676
 20
-116.9985432650212
 30
0.0
 10
93.6848930972385
 20
-116.9985432650212
 30
0.0
 10
93.82441946439113
 20
-116.9985432650212
 30
0.0
 10
93.97669268483916
 20
-116.8991522602717
 30
0.0
 10
93.97669268483916
 20
-116.6664360602431
 30
0.0
 10
93.97669268483916
 20
-116.4104654656891
 30
0.0
 10
93.79685870050912
 20
-116.3407022821127
 30
0.0
 10
93.67628035852537
 20
-116.3407022821127
 30
0.0
 10
93.64458548006108
 20
-116.3407022821127
 30
0.0
 10
93.50299205561731
 20
-116.3407022821127
 30
0.0
 10
93.41410859209786
 20
-116.4697211080354
 30
0.0
 10
93.41410859209786
 20
-116.4697211080354
 30
0.0
 10
93.23875323189866
 20
-116.4506008280922
 30
0.0
 10
93.23875323189866
 20
-116.4506008280922
 30
0.0
 10
93.23875323189866
 20
-116.4506008280922
 30
0.0
 10
93.3593315738824
 20
-115.6044853769149
 30
0.0
 10
93.3593315738824
 20
-115.6044853769149
 30
0.0
 10
93.3593315738824
 20
-115.6044853769149
 30
0.0
 10
94.13757864400033
 20
-115.6044853769149
 30
0.0
 10
94.13757864400033
 20
-115.6044853769149
 30
0.0
 10
94.13757864400033
 20
-115.6044853769149
 30
0.0
 10
94.13757864400033
 20
-115.7991332718315
 30
0.0
 10
94.13757864400033
 20
-115.7991332718315
 30
0.0
 10
94.13757864400033
 20
-115.7991332718315
 30
0.0
 10
93.52194008078618
 20
-115.7991332718315
 30
0.0
 10
93.52194008078618
 20
-115.7991332718315
 30
0.0
 10
93.52194008078618
 20
-115.7991332718315
 30
0.0
 10
93.45648326656644
 20
-116.2221909974202
 30
0.0
 10
93.45648326656644
 20
-116.2221909974202
 30
0.0
 10
93.51780596620388
 20
-116.1882568068904
 30
0.0
 10
93.60014374830136
 20
-116.1481214444873
 30
0.0
 10
93.71865503299395
 20
-116.1481214444873
 30
0.0
 10
93.97255857025687
 20
-116.1481214444873
 30
0.0
 10
94.20958113964205
 20
-116.334328855465
 30
0.0
 10
94.20958113964205
 20
-116.6473157803
 30
0.0
 10
94.20958113964205
 20
-116.9647813292657
 30
0.0
 10
93.98530542355229
 20
-117.1995645865855
 30
0.0
 10
93.68282603994736
 20
-117.1995645865855
 30
0.0
  0
HATCH
  5
99
330
92
100
AcDbEntity
  8
_U+30EC_U+30A4_U+30E4_U+30FC 1
 62
   179
420
  2234388
100
AcDbHatch
 10
0.0
 20
0.0
 30
0.0
210
0.0
220
0.0
230
1.0
  2
SOLID
 70
     1
 71
     0
 91
        1
 92
        1
 93
        1
 72
     4
 94
        3
 73
     0
 74
     1
 95
       53
 96
       49
 40
0.0
 40
0.0
 40
0.0
 40
0.0
 40
1.0
 40
1.0
 40
1.0
 40
2.0
 40
2.0
 40
2.0
 40
3.0
 40
3.0
 40
3.0
 40
4.0
 40
4.0
 40
4.0
 40
5.0
 40
5.0
 40
5.0
 40
6.0
 40
6.0
 40
6.0
 40
7.0
 40
7.0
 40
7.0
 40
8.0
 40
8.0
 40
8.0
 40
9.0
 40
9.0
 40
9.0
 40
10.0
 40
10.0
 40
10.0
 40
11.0
 40
11.0
 40
11.0
 40
12.0
 40
12.0
 40
12.0
 40
13.0
 40
13.0
 40
13.0
 40
14.0
 40
14.0
 40
14.0
 40
15.0
 40
15.0
 40
15.0
 40
16.0
 40
16.0
 40
16.0
 40
16.0
 10
93.68282603994736
 20
-117.1995645865855
 10
93.60462237243219
 20
-117.1995645865855
 10
93.50299205561731
 20
-117.1825113639335
 10
93.40136173880244
 20
-117.1191216070049
 10
93.22772892634585
 20
-117.0090508062512
 10
93.20671384388582
 20
-116.8779649230375
 10
93.18776581871695
 20
-116.7701334343491
 10
93.18776581871695
 20
-116.7701334343491
 10
93.40962996796704
 20
-116.7701334343491
 10
93.40962996796704
 20
-116.7701334343491
 10
93.46475149573104
 20
-116.968915443848
 10
93.59187551913676
 20
-116.9985432650212
 10
93.6848930972385
 20
-116.9985432650212
 10
93.82441946439113
 20
-116.9985432650212
 10
93.97669268483916
 20
-116.8991522602717
 10
93.97669268483916
 20
-116.6664360602431
 10
93.97669268483916
 20
-116.4104654656891
 10
93.79685870050912
 20
-116.3407022821127
 10
93.67628035852537
 20
-116.3407022821127
 10
93.64458548006108
 20
-116.3407022821127
 10
93.50299205561731
 20
-116.3407022821127
 10
93.41410859209786
 20
-116.4697211080354
 10
93.41410859209786
 20
-116.4697211080354
 10
93.23875323189866
 20
-116.4506008280922
 10
93.23875323189866
 20
-116.4506008280922
 10
93.23875323189866
 20
-116.4506008280922
 10
93.3593315738824
 20
-115.6044853769149
 10
93.3593315738824
 20
-115.6044853769149
 10
93.3593315738824
 20
-115.6044853769149
 10
94.13757864400033
 20
-115.6044853769149
 10
94.13757864400033
 20
-115.6044853769149
 10
94.13757864400033
 20
-115.6044853769149
 10
94.13757864400033
 20
-115.7991332718315
 10
94.13757864400033
 20
-115.7991332718315
 10
94.13757864400033
 20
-115.7991332718315
 10
93.52194008078618
 20
-115.7991332718315
 10
93.52194008078618
 20
-115.7991332718315
 10
93.52194008078618
 20
-115.7991332718315
 10
93.45648326656644
 20
-116.2221909974202
 10
93.45648326656644
 20
-116.2221909974202
 10
93.51780596620388
 20
-116.1882568068904
 10
93.60014374830136
 20
-116.1481214444873
 10
93.71865503299395
 20
-116.1481214444873
 10
93.97255857025687
 20
-116.1481214444873
 10
94.20958113964205
 20
-116.334328855465
 10
94.20958113964205
 20
-116.6473157803
 10
94.20958113964205
 20
-116.9647813292657
 10
93.98530542355229
 20
-117.1995645865855
 10
93.68282603994736
 20
-117.1995645865855
 97
        0
 97
        0
 75
     2
 76
     1
 98
        0
  0
ENDBLK
  5
95
330
92
100
AcDbEntity
  8
0
100
AcDbBlockEnd
  0
BLOCK
  5
A8
330
A6
100
AcDbEntity
  8
0
100
AcDbBlockBegin
  2
block 3
 70
     0
 10
0.0
 20
0.0
 30
0.0
  3
block 3
  1

  0
SPLINE
  5
AA
330
A6
100
AcDbEntity
  8
_U+30EC_U+30A4_U+30E4_U+30FC 1
370
     0
100
AcDbSpline
210
0.0
220
0.0
230
1.0
 70
    11
 71
     3
 72
    26
 73
    22
 74
     0
 42
0.0000000001
 43
0.0000000001
 12
1.0
 22
0.0
 32
0.0
 13
1.0
 23
0.0
 33
0.0
 40
0.0
 40
0.0
 40
0.0
 40
0.0
 40
1.0
 40
1.0
 40
1.0
 40
2.0
 40
2.0
 40
2.0
 40
3.0
 40
3.0
 40
3.0
 40
4.0
 40
4.0
 40
4.0
 40
5.0
 40
5.0
 40
5.0
 40
6.0
 40
6.0
 40
6.0
 40
7.0
 40
7.0
 40
7.0
 40
7.0
 10
83.86395939743679
 20
-140.3245957765508
 30
0.0
 10
83.86395939743679
 20
-140.3245957765508
 30
0.0
 10
83.86395939743679
 20
-139.2204426735282
 30
0.0
 10
83.86395939743679
 20
-139.2204426735282
 30
0.0
 10
83.86395939743679
 20
-139.2204426735282
 30
0.0
 10
83.53391924994986
 20
-139.2204426735282
 30
0.0
 10
83.53391924994986
 20
-139.2204426735282
 30
0.0
 10
83.53391924994986
 20
-139.2204426735282
 30
0.0
 10
83.53391924994986
 20
-139.0723035676625
 30
0.0
 10
83.53391924994986
 20
-139.0723035676625
 30
0.0
 10
83.86602645472794
 20
-139.0574896570759
 30
0.0
 10
83.91253524377882
 20
-138.8945366406236
 30
0.0
 10
83.94216306495197
 20
-138.7801594705133
 30
0.0
 10
83.94216306495197
 20
-138.7801594705133
 30
0.0
 10
84.08823511352655
 20
-138.7801594705133
 30
0.0
 10
84.08823511352655
 20
-138.7801594705133
 30
0.0
 10
84.08823511352655
 20
-138.7801594705133
 30
0.0
 10
84.08823511352655
 20
-140.3245957765508
 30
0.0
 10
84.08823511352655
 20
-140.3245957765508
 30
0.0
 10
84.08823511352655
 20
-140.3245957765508
 30
0.0
 10
83.86395939743679
 20
-140.3245957765508
 30
0.0
 10
83.86395939743679
 20
-140.3245957765508
 30
0.0
  0
HATCH
  5
AB
330
A6
100
AcDbEntity
  8
_U+30EC_U+30A4_U+30E4_U+30FC 1
 62
   179
420
  2234388
100
AcDbHatch
 10
0.0
 20
0.0
 30
0.0
210
0.0
220
0.0
230
1.0
  2
SOLID
 70
     1
 71
     0
 91
        1
 92
        1
 93
        1
 72
     4
 94
        3
 73
     0
 74
     1
 95
       26
 96
       22
 40
0.0
 40
0.0
 40
0.0
 40
0.0
 40
1.0
 40
1.0
 40
1.0
 40
2.0
 40
2.0
 40
2.0
 40
3.0
 40
3.0
 40
3.0
 40
4.0
 40
4.0
 40
4.0
 40
5.0
 40
5.0
 40
5.0
 40
6.0
 40
6.0
 40
6.0
 40
7.0
 40
7.0
 40
7.0
 40
7.0
 10
83.86395939743679
 20
-140.3245957765508
 10
83.86395939743679
 20
-140.3245957765508
 10
83.86395939743679
 20
-139.2204426735282
 10
83.86395939743679
 20
-139.2204426735282
 10
83.86395939743679
 20
-139.2204426735282
 10
83.53391924994986
 20
-139.2204426735282
 10
83.53391924994986
 20
-139.2204426735282
 10
83.53391924994986
 20
-139.2204426735282
 10
83.53391924994986
 20
-139.0723035676625
 10
83.53391924994986
 20
-139.0723035676625
 10
83.86602645472794
 20
-139.0574896570759
 10
83.91253524377882
 20
-138.8945366406236
 10
83.94216306495197
 20
-138.7801594705133
 10
83.94216306495197
 20
-138.7801594705133
 10
84.08823511352655
 20
-138.7801594705133
 10
84.08823511352655
 20
-138.7801594705133
 10
84.08823511352655
 20
-138.7801594705133
 10
84.08823511352655
 20
-140.3245957765508
 10
84.08823511352655
 20
-140.3245957765508
 10
84.08823511352655
 20
-140.3245957765508
 10
83.86395939743679
 20
-140.3245957765508
 10
83.86395939743679
 20
-140.3245957765508
 97
        0
 97
        0
 75
     2
 76
     1
 98
        0
  0
SPLINE
  5
AC
330
A6
100
AcDbEntity
  8
_U+30EC_U+30A4_U+30E4_U+30FC 1
370
     0
100
AcDbSpline
210
0.0
220
0.0
230
1.0
 70
    11
 71
     3
 72
    32
 73
    28
 74
     0
 42
0.0000000001
 43
0.0000000001
 12
1.0
 22
0.0
 32
0.0
 13
1.0
 23
0.0
 33
0.0
 40
0.0
 40
0.0
 40
0.0
 40
0.0
 40
1.0
 40
1.0
 40
1.0
 40
2.0
 40
2.0
 40
2.0
 40
3.0
 40
3.0
 40
3.0
 40
4.0
 40
4.0
 40
4.0
 40
5.0
 40
5.0
 40
5.0
 40
6.0
 40
6.0
 40
6.0
 40
7.0
 40
7.0
 40
7.0
 40
8.0
 40
8.0
 40
8.0
 40
9.0
 40
9.0
 40
9.0
 40
9.0
 10
85.04717744184585
 20
-140.375238680184
 30
0.0
 10
84.87371688416351
 20
-140.375238680184
 30
0.0
 10
84.62825383083947
 20
-140.3056477513819
 30
0.0
 10
84.59018552572746
 20
-139.9735405466039
 30
0.0
 10
84.59018552572746
 20
-139.9735405466039
 30
0.0
 10
84.80378144581294
 20
-139.9735405466039
 30
0.0
 10
84.80378144581294
 20
-139.9735405466039
 30
0.0
 10
84.81446124181723
 20
-140.0327961889501
 30
0.0
 10
84.84615612028152
 20
-140.1805907852674
 30
0.0
 10
85.049244499137
 20
-140.1805907852674
 30
0.0
 10
85.34121634151192
 20
-140.1805907852674
 30
0.0
 10
85.37928464662393
 20
-139.8508951473289
 30
0.0
 10
85.3918592451451
 20
-139.6455674564081
 30
0.0
 10
85.3009087243345
 20
-139.7258381812144
 30
0.0
 10
85.23321259804933
 20
-139.7830267662695
 30
0.0
 10
85.05131155642815
 20
-139.7830267662695
 30
0.0
 10
84.8714775720981
 20
-139.7830267662695
 30
0.0
 10
84.56899818849317
 20
-139.6772623348724
 30
0.0
 10
84.56899818849317
 20
-139.2710855771614
 30
0.0
 10
84.56899818849317
 20
-138.9517252256787
 30
0.0
 10
84.76778019799208
 20
-138.7315836241713
 30
0.0
 10
85.08524574695785
 20
-138.7315836241713
 30
0.0
 10
85.59925399335714
 20
-138.7315836241713
 30
0.0
 10
85.60976153458715
 20
-139.285899487748
 30
0.0
 10
85.60976153458715
 20
-139.4994954078335
 30
0.0
 10
85.60976153458715
 20
-139.7299722957967
 30
0.0
 10
85.59081350941827
 20
-140.375238680184
 30
0.0
 10
85.04717744184585
 20
-140.375238680184
 30
0.0
  0
SPLINE
  5
AD
330
A6
100
AcDbEntity
  8
_U+30EC_U+30A4_U+30E4_U+30FC 1
370
     0
100
AcDbSpline
210
0.0
220
0.0
230
1.0
 70
    11
 71
     3
 72
    17
 73
    13
 74
     0
 42
0.0000000001
 43
0.0000000001
 12
1.0
 22
0.0
 32
0.0
 13
1.0
 23
0.0
 33
0.0
 40
0.0
 40
0.0
 40
0.0
 40
0.0
 40
1.0
 40
1.0
 40
1.0
 40
2.0
 40
2.0
 40
2.0
 40
3.0
 40
3.0
 40
3.0
 40
4.0
 40
4.0
 40
4.0
 40
4.0
 10
85.08731280424901
 20
-138.9241644617967
 30
0.0
 10
84.96880151955641
 20
-138.9241644617967
 30
0.0
 10
84.79327390458293
 20
-138.9813530468519
 30
0.0
 10
84.79327390458293
 20
-139.2669514625791
 30
0.0
 10
84.79327390458293
 20
-139.49329423596
 30
0.0
 10
84.93280027173556
 20
-139.5883788713529
 30
0.0
 10
85.06819252430587
 20
-139.5883788713529
 30
0.0
 10
85.33053654550764
 20
-139.5883788713529
 30
0.0
 10
85.36860485061966
 20
-139.3789170658497
 30
0.0
 10
85.36860485061966
 20
-139.2624728384483
 30
0.0
 10
85.36860485061966
 20
-139.0871174782491
 30
0.0
 10
85.27352021522677
 20
-138.9241644617967
 30
0.0
 10
85.08731280424901
 20
-138.9241644617967
 30
0.0
  0
HATCH
  5
AE
330
A6
100
AcDbEntity
  8
_U+30EC_U+30A4_U+30E4_U+30FC 1
 62
   179
420
  2234388
100
AcDbHatch
 10
0.0
 20
0.0
 30
0.0
210
0.0
220
0.0
230
1.0
  2
SOLID
 70
     1
 71
     0
 91
        2
 92
        1
 93
        1
 72
     4
 94
        3
 73
     0
 74
     1
 95
       32
 96
       28
 40
0.0
 40
0.0
 40
0.0
 40
0.0
 40
1.0
 40
1.0
 40
1.0
 40
2.0
 40
2.0
 40
2.0
 40
3.0
 40
3.0
 40
3.0
 40
4.0
 40
4.0
 40
4.0
 40
5.0
 40
5.0
 40
5.0
 40
6.0
 40
6.0
 40
6.0
 40
7.0
 40
7.0
 40
7.0
 40
8.0
 40
8.0
 40
8.0
 40
9.0
 40
9.0
 40
9.0
 40
9.0
 10
85.04717744184585
 20
-140.375238680184
 10
84.87371688416351
 20
-140.375238680184
 10
84.62825383083947
 20
-140.3056477513819
 10
84.59018552572746
 20
-139.9735405466039
 10
84.59018552572746
 20
-139.9735405466039
 10
84.80378144581294
 20
-139.9735405466039
 10
84.80378144581294
 20
-139.9735405466039
 10
84.81446124181723
 20
-140.0327961889501
 10
84.84615612028152
 20
-140.1805907852674
 10
85.049244499137
 20
-140.1805907852674
 10
85.34121634151192
 20
-140.1805907852674
 10
85.37928464662393
 20
-139.8508951473289
 10
85.3918592451451
 20
-139.6455674564081
 10
85.3009087243345
 20
-139.7258381812144
 10
85.23321259804933
 20
-139.7830267662695
 10
85.05131155642815
 20
-139.7830267662695
 10
84.8714775720981
 20
-139.7830267662695
 10
84.56899818849317
 20
-139.6772623348724
 10
84.56899818849317
 20
-139.2710855771614
 10
84.56899818849317
 20
-138.9517252256787
 10
84.76778019799208
 20
-138.7315836241713
 10
85.08524574695785
 20
-138.7315836241713
 10
85.59925399335714
 20
-138.7315836241713
 10
85.60976153458715
 20
-139.285899487748
 10
85.60976153458715
 20
-139.4994954078335
 10
85.60976153458715
 20
-139.7299722957967
 10
85.59081350941827
 20
-140.375238680184
 10
85.04717744184585
 20
-140.375238680184
 97
        0
 97
        0
 92
        1
 93
        1
 72
     4
 94
        3
 73
     0
 74
     1
 95
       17
 96
       13
 40
0.0
 40
0.0
 40
0.0
 40
0.0
 40
1.0
 40
1.0
 40
1.0
 40
2.0
 40
2.0
 40
2.0
 40
3.0
 40
3.0
 40
3.0
 40
4.0
 40
4.0
 40
4.0
 40
4.0
 10
85.08731280424901
 20
-138.9241644617967
 10
84.96880151955641
 20
-138.9241644617967
 10
84.79327390458293
 20
-138.9813530468519
 10
84.79327390458293
 20
-139.2669514625791
 10
84.79327390458293
 20
-139.49329423596
 10
84.93280027173556
 20
-139.5883788713529
 10
85.06819252430587
 20
-139.5883788713529
 10
85.33053654550764
 20
-139.5883788713529
 10
85.36860485061966
 20
-139.3789170658497
 10
85.36860485061966
 20
-139.2624728384483
 10
85.36860485061966
 20
-139.0871174782491
 10
85.27352021522677
 20
-138.9241644617967
 10
85.08731280424901
 20
-138.9241644617967
 97
        0
 97
        0
 75
     2
 76
     1
 98
        0
  0
POLYLINE
  5
AF
330
A6
100
AcDbEntity
  8
_U+30EC_U+30A4_U+30E4_U+30FC 1
370
     0
100
AcDb2dPolyline
 66
     1
 10
0.0
 20
0.0
 30
0.0
  0
VERTEX
  5
B0
330
AF
100
AcDbEntity
  8
_U+30EC_U+30A4_U+30E4_U+30FC 1
370
     0
100
AcDbVertex
100
AcDb2dVertex
 10
85.8262857858351
 20
-140.3245957765508
 30
0.0
  0
VERTEX
  5
B1
330
AF
100
AcDbEntity
  8
_U+30EC_U+30A4_U+30E4_U+30FC 1
370
     0
100
AcDbVertex
100
AcDb2dVertex
 10
85.8262857858351
 20
-140.0727592965791
 30
0.0
  0
VERTEX
  5
B2
330
AF
100
AcDbEntity
  8
_U+30EC_U+30A4_U+30E4_U+30FC 1
370
     0
100
AcDbVertex
100
AcDb2dVertex
 10
86.0779500110326
 20
-140.0727592965791
 30
0.0
  0
VERTEX
  5
B3
330
AF
100
AcDbEntity
  8
_U+30EC_U+30A4_U+30E4_U+30FC 1
370
     0
100
AcDbVertex
100
AcDb2dVertex
 10
86.0779500110326
 20
-140.3245957765508
 30
0.0
  0
VERTEX
  5
B4
330
AF
100
AcDbEntity
  8
_U+30EC_U+30A4_U+30E4_U+30FC 1
370
     0
100
AcDbVertex
100
AcDb2dVertex
 10
85.8262857858351
 20
-140.3245957765508
 30
0.0
  0
SEQEND
  5
B5
330
AF
100
AcDbEntity
  8
_U+30EC_U+30A4_U+30E4_U+30FC 1
370
     0
  0
HATCH
  5
B6
330
A6
100
AcDbEntity
  8
_U+30EC_U+30A4_U+30E4_U+30FC 1
 62
   179
420
  2234388
100
AcDbHatch
 10
0.0
 20
0.0
 30
0.0
210
0.0
220
0.0
230
1.0
  2
SOLID
 70
     1
 71
     0
 91
        1
 92
        1
 93
        4
 72
     1
 10
85.8262857858351
 20
-140.3245957765508
 11
85.8262857858351
 21
-140.0727592965791
 72
     1
 10
85.8262857858351
 20
-140.0727592965791
 11
86.0779500110326
 21
-140.0727592965791
 72
     1
 10
86.0779500110326
 20
-140.0727592965791
 11
86.0779500110326
 21
-140.3245957765508
 72
     1
 10
86.0779500110326
 20
-140.3245957765508
 11
85.8262857858351
 21
-140.3245957765508
 97
        0
 75
     2
 76
     1
 98
        0
  0
SPLINE
  5
B7
330
A6
100
AcDbEntity
  8
_U+30EC_U+30A4_U+30E4_U+30FC 1
370
     0
100
AcDbSpline
210
0.0
220
0.0
230
1.0
 70
    11
 71
     3
 72
    53
 73
    49
 74
     0
 42
0.0000000001
 43
0.0000000001
 12
1.0
 22
0.0
 32
0.0
 13
1.0
 23
0.0
 33
0.0
 40
0.0
 40
0.0
 40
0.0
 40
0.0
 40
1.0
 40
1.0
 40
1.0
 40
2.0
 40
2.0
 40
2.0
 40
3.0
 40
3.0
 40
3.0
 40
4.0
 40
4.0
 40
4.0
 40
5.0
 40
5.0
 40
5.0
 40
6.0
 40
6.0
 40
6.0
 40
7.0
 40
7.0
 40
7.0
 40
8.0
 40
8.0
 40
8.0
 40
9.0
 40
9.0
 40
9.0
 40
10.0
 40
10.0
 40
10.0
 40
11.0
 40
11.0
 40
11.0
 40
12.0
 40
12.0
 40
12.0
 40
13.0
 40
13.0
 40
13.0
 40
14.0
 40
14.0
 40
14.0
 40
15.0
 40
15.0
 40
15.0
 40
16.0
 40
16.0
 40
16.0
 40
16.0
 10
86.79539114583588
 20
-140.375238680184
 30
0.0
 10
86.71701522354644
 20
-140.375238680184
 30
0.0
 10
86.61555716150583
 20
-140.3583577123063
 30
0.0
 10
86.51392684469097
 20
-140.2949679553776
 30
0.0
 10
86.34046628700864
 20
-140.1850694093982
 30
0.0
 10
86.31927894977436
 20
-140.0538112714102
 30
0.0
 10
86.30033092460548
 20
-139.9459797827218
 30
0.0
 10
86.30033092460548
 20
-139.9459797827218
 30
0.0
 10
86.52236732862983
 20
-139.9459797827218
 30
0.0
 10
86.52236732862983
 20
-139.9459797827218
 30
0.0
 10
86.57748885639383
 20
-140.1447617922207
 30
0.0
 10
86.70444062502528
 20
-140.1743896133939
 30
0.0
 10
86.79745820312702
 20
-140.1743896133939
 30
0.0
 10
86.93698457027965
 20
-140.1743896133939
 30
0.0
 10
87.08943004550196
 20
-140.0748263538702
 30
0.0
 10
87.08943004550196
 20
-139.8422824086158
 30
0.0
 10
87.08943004550196
 20
-139.5863118140618
 30
0.0
 10
86.90959606117191
 20
-139.5163763757112
 30
0.0
 10
86.78901771918817
 20
-139.5163763757112
 30
0.0
 10
86.75732284072387
 20
-139.5163763757112
 30
0.0
 10
86.61555716150583
 20
-139.5163763757112
 30
0.0
 10
86.5266736979864
 20
-139.6455674564081
 30
0.0
 10
86.5266736979864
 20
-139.6455674564081
 30
0.0
 10
86.3511460830129
 20
-139.6266194312392
 30
0.0
 10
86.3511460830129
 20
-139.6266194312392
 30
0.0
 10
86.3511460830129
 20
-139.6266194312392
 30
0.0
 10
86.47172442499665
 20
-138.7801594705133
 30
0.0
 10
86.47172442499665
 20
-138.7801594705133
 30
0.0
 10
86.47172442499665
 20
-138.7801594705133
 30
0.0
 10
87.25014374988886
 20
-138.7801594705133
 30
0.0
 10
87.25014374988886
 20
-138.7801594705133
 30
0.0
 10
87.25014374988886
 20
-138.7801594705133
 30
0.0
 10
87.25014374988886
 20
-138.9748073654299
 30
0.0
 10
87.25014374988886
 20
-138.9748073654299
 30
0.0
 10
87.25014374988886
 20
-138.9748073654299
 30
0.0
 10
86.63450518667472
 20
-138.9748073654299
 30
0.0
 10
86.63450518667472
 20
-138.9748073654299
 30
0.0
 10
86.63450518667472
 20
-138.9748073654299
 30
0.0
 10
86.56904837245496
 20
-139.3978650910186
 30
0.0
 10
86.56904837245496
 20
-139.3978650910186
 30
0.0
 10
86.63037107209242
 20
-139.3641031552631
 30
0.0
 10
86.71288110896414
 20
-139.3237955380857
 30
0.0
 10
86.83122013888247
 20
-139.3237955380857
 30
0.0
 10
87.08512367614539
 20
-139.3237955380857
 30
0.0
 10
87.32214624553058
 20
-139.5101752038377
 30
0.0
 10
87.32214624553058
 20
-139.823334383447
 30
0.0
 10
87.32214624553058
 20
-140.1406276776385
 30
0.0
 10
87.09787052944081
 20
-140.375238680184
 30
0.0
 10
86.79539114583588
 20
-140.375238680184
 30
0.0
  0
HATCH
  5
B8
330
A6
100
AcDbEntity
  8
_U+30EC_U+30A4_U+30E4_U+30FC 1
 62
   179
420
  2234388
100
AcDbHatch
 10
0.0
 20
0.0
 30
0.0
210
0.0
220
0.0
230
1.0
  2
SOLID
 70
     1
 71
     0
 91
        1
 92
        1
 93
        1
 72
     4
 94
        3
 73
     0
 74
     1
 95
       53
 96
       49
 40
0.0
 40
0.0
 40
0.0
 40
0.0
 40
1.0
 40
1.0
 40
1.0
 40
2.0
 40
2.0
 40
2.0
 40
3.0
 40
3.0
 40
3.0
 40
4.0
 40
4.0
 40
4.0
 40
5.0
 40
5.0
 40
5.0
 40
6.0
 40
6.0
 40
6.0
 40
7.0
 40
7.0
 40
7.0
 40
8.0
 40
8.0
 40
8.0
 40
9.0
 40
9.0
 40
9.0
 40
10.0
 40
10.0
 40
10.0
 40
11.0
 40
11.0
 40
11.0
 40
12.0
 40
12.0
 40
12.0
 40
13.0
 40
13.0
 40
13.0
 40
14.0
 40
14.0
 40
14.0
 40
15.0
 40
15.0
 40
15.0
 40
16.0
 40
16.0
 40
16.0
 40
16.0
 10
86.79539114583588
 20
-140.375238680184
 10
86.71701522354644
 20
-140.375238680184
 10
86.61555716150583
 20
-140.3583577123063
 10
86.51392684469097
 20
-140.2949679553776
 10
86.34046628700864
 20
-140.1850694093982
 10
86.31927894977436
 20
-140.0538112714102
 10
86.30033092460548
 20
-139.9459797827218
 10
86.30033092460548
 20
-139.9459797827218
 10
86.52236732862983
 20
-139.9459797827218
 10
86.52236732862983
 20
-139.9459797827218
 10
86.57748885639383
 20
-140.1447617922207
 10
86.70444062502528
 20
-140.1743896133939
 10
86.79745820312702
 20
-140.1743896133939
 10
86.93698457027965
 20
-140.1743896133939
 10
87.08943004550196
 20
-140.0748263538702
 10
87.08943004550196
 20
-139.8422824086158
 10
87.08943004550196
 20
-139.5863118140618
 10
86.90959606117191
 20
-139.5163763757112
 10
86.78901771918817
 20
-139.5163763757112
 10
86.75732284072387
 20
-139.5163763757112
 10
86.61555716150583
 20
-139.5163763757112
 10
86.5266736979864
 20
-139.6455674564081
 10
86.5266736979864
 20
-139.6455674564081
 10
86.3511460830129
 20
-139.6266194312392
 10
86.3511460830129
 20
-139.6266194312392
 10
86.3511460830129
 20
-139.6266194312392
 10
86.47172442499665
 20
-138.7801594705133
 10
86.47172442499665
 20
-138.7801594705133
 10
86.47172442499665
 20
-138.7801594705133
 10
87.25014374988886
 20
-138.7801594705133
 10
87.25014374988886
 20
-138.7801594705133
 10
87.25014374988886
 20
-138.7801594705133
 10
87.25014374988886
 20
-138.9748073654299
 10
87.25014374988886
 20
-138.9748073654299
 10
87.25014374988886
 20
-138.9748073654299
 10
86.63450518667472
 20
-138.9748073654299
 10
86.63450518667472
 20
-138.9748073654299
 10
86.63450518667472
 20
-138.9748073654299
 10
86.56904837245496
 20
-139.3978650910186
 10
86.56904837245496
 20
-139.3978650910186
 10
86.63037107209242
 20
-139.3641031552631
 10
86.71288110896414
 20
-139.3237955380857
 10
86.83122013888247
 20
-139.3237955380857
 10
87.08512367614539
 20
-139.3237955380857
 10
87.32214624553058
 20
-139.5101752038377
 10
87.32214624553058
 20
-139.823334383447
 10
87.32214624553058
 20
-140.1406276776385
 10
87.09787052944081
 20
-140.375238680184
 10
86.79539114583588
 20
-140.375238680184
 97
        0
 97
        0
 75
     2
 76
     1
 98
        0
  0
ENDBLK
  5
A9
330
A6
100
AcDbEntity
  8
0
100
AcDbBlockEnd
  0
BLOCK
  5
C7
330
C5
100
AcDbEntity
  8
0
100
AcDbBlockBegin
  2
block 4
 70
     0
 10
0.0
 20
0.0
 30
0.0
  3
block 4
  1

  0
SPLINE
  5
C9
330
C5
100
AcDbEntity
  8
_U+30EC_U+30A4_U+30E4_U+30FC 1
370
     0
100
AcDbSpline
210
0.0
220
0.0
230
1.0
 70
    11
 71
     3
 72
    26
 73
    22
 74
     0
 42
0.0000000001
 43
0.0000000001
 12
1.0
 22
0.0
 32
0.0
 13
1.0
 23
0.0
 33
0.0
 40
0.0
 40
0.0
 40
0.0
 40
0.0
 40
1.0
 40
1.0
 40
1.0
 40
2.0
 40
2.0
 40
2.0
 40
3.0
 40
3.0
 40
3.0
 40
4.0
 40
4.0
 40
4.0
 40
5.0
 40
5.0
 40
5.0
 40
6.0
 40
6.0
 40
6.0
 40
7.0
 40
7.0
 40
7.0
 40
7.0
 10
69.55716686629127
 20
-131.5489040469739
 30
0.0
 10
69.55716686629127
 20
-131.5489040469739
 30
0.0
 10
68.4530137632687
 20
-131.5489040469739
 30
0.0
 10
68.4530137632687
 20
-131.5489040469739
 30
0.0
 10
68.4530137632687
 20
-131.5489040469739
 30
0.0
 10
68.4530137632687
 20
-131.8789441944608
 30
0.0
 10
68.4530137632687
 20
-131.8789441944608
 30
0.0
 10
68.4530137632687
 20
-131.8789441944608
 30
0.0
 10
68.30487465740295
 20
-131.8789441944608
 30
0.0
 10
68.30487465740295
 20
-131.8789441944608
 30
0.0
 10
68.29006074681638
 20
-131.5468369896827
 30
0.0
 10
68.12710773036406
 20
-131.5006727101804
 30
0.0
 10
68.01273056025377
 20
-131.4710448890072
 30
0.0
 10
68.01273056025377
 20
-131.4710448890072
 30
0.0
 10
68.01273056025377
 20
-131.3249728404327
 30
0.0
 10
68.01273056025377
 20
-131.3249728404327
 30
0.0
 10
68.01273056025377
 20
-131.3249728404327
 30
0.0
 10
69.55716686629127
 20
-131.3249728404327
 30
0.0
 10
69.55716686629127
 20
-131.3249728404327
 30
0.0
 10
69.55716686629127
 20
-131.3249728404327
 30
0.0
 10
69.55716686629127
 20
-131.5489040469739
 30
0.0
 10
69.55716686629127
 20
-131.5489040469739
 30
0.0
  0
HATCH
  5
CA
330
C5
100
AcDbEntity
  8
_U+30EC_U+30A4_U+30E4_U+30FC 1
 62
   179
420
  2234388
100
AcDbHatch
 10
0.0
 20
0.0
 30
0.0
210
0.0
220
0.0
230
1.0
  2
SOLID
 70
     1
 71
     0
 91
        1
 92
        1
 93
        1
 72
     4
 94
        3
 73
     0
 74
     1
 95
       26
 96
       22
 40
0.0
 40
0.0
 40
0.0
 40
0.0
 40
1.0
 40
1.0
 40
1.0
 40
2.0
 40
2.0
 40
2.0
 40
3.0
 40
3.0
 40
3.0
 40
4.0
 40
4.0
 40
4.0
 40
5.0
 40
5.0
 40
5.0
 40
6.0
 40
6.0
 40
6.0
 40
7.0
 40
7.0
 40
7.0
 40
7.0
 10
69.55716686629127
 20
-131.5489040469739
 10
69.55716686629127
 20
-131.5489040469739
 10
68.4530137632687
 20
-131.5489040469739
 10
68.4530137632687
 20
-131.5489040469739
 10
68.4530137632687
 20
-131.5489040469739
 10
68.4530137632687
 20
-131.8789441944608
 10
68.4530137632687
 20
-131.8789441944608
 10
68.4530137632687
 20
-131.8789441944608
 10
68.30487465740295
 20
-131.8789441944608
 10
68.30487465740295
 20
-131.8789441944608
 10
68.29006074681638
 20
-131.5468369896827
 10
68.12710773036406
 20
-131.5006727101804
 10
68.01273056025377
 20
-131.4710448890072
 10
68.01273056025377
 20
-131.4710448890072
 10
68.01273056025377
 20
-131.3249728404327
 10
68.01273056025377
 20
-131.3249728404327
 10
68.01273056025377
 20
-131.3249728404327
 10
69.55716686629127
 20
-131.3249728404327
 10
69.55716686629127
 20
-131.3249728404327
 10
69.55716686629127
 20
-131.3249728404327
 10
69.55716686629127
 20
-131.5489040469739
 10
69.55716686629127
 20
-131.5489040469739
 97
        0
 97
        0
 75
     2
 76
     1
 98
        0
  0
POLYLINE
  5
CB
330
C5
100
AcDbEntity
  8
_U+30EC_U+30A4_U+30E4_U+30FC 1
370
     0
100
AcDb2dPolyline
 66
     1
 10
0.0
 20
0.0
 30
0.0
  0
VERTEX
  5
CC
330
CB
100
AcDbEntity
  8
_U+30EC_U+30A4_U+30E4_U+30FC 1
370
     0
100
AcDbVertex
100
AcDb2dVertex
 10
69.2102457509266
 20
-129.991720887641
 30
0.0
  0
VERTEX
  5
CD
330
CB
100
AcDbEntity
  8
_U+30EC_U+30A4_U+30E4_U+30FC 1
370
     0
100
AcDbVertex
100
AcDb2dVertex
 10
69.55716686629127
 20
-129.991720887641
 30
0.0
  0
VERTEX
  5
CE
330
CB
100
AcDbEntity
  8
_U+30EC_U+30A4_U+30E4_U+30FC 1
370
     0
100
AcDbVertex
100
AcDb2dVertex
 10
69.55716686629127
 20
-130.2094509223087
 30
0.0
  0
VERTEX
  5
CF
330
CB
100
AcDbEntity
  8
_U+30EC_U+30A4_U+30E4_U+30FC 1
370
     0
100
AcDbVertex
100
AcDb2dVertex
 10
69.2102457509266
 20
-130.2094509223087
 30
0.0
  0
VERTEX
  5
D0
330
CB
100
AcDbEntity
  8
_U+30EC_U+30A4_U+30E4_U+30FC 1
370
     0
100
AcDbVertex
100
AcDb2dVertex
 10
69.2102457509266
 20
-130.8653971027003
 30
0.0
  0
VERTEX
  5
D1
330
CB
100
AcDbEntity
  8
_U+30EC_U+30A4_U+30E4_U+30FC 1
370
     0
100
AcDbVertex
100
AcDb2dVertex
 10
68.98597003483684
 20
-130.8653971027003
 30
0.0
  0
VERTEX
  5
D2
330
CB
100
AcDbEntity
  8
_U+30EC_U+30A4_U+30E4_U+30FC 1
370
     0
100
AcDbVertex
100
AcDb2dVertex
 10
68.01273056025377
 20
-130.1860242730091
 30
0.0
  0
VERTEX
  5
D3
330
CB
100
AcDbEntity
  8
_U+30EC_U+30A4_U+30E4_U+30FC 1
370
     0
100
AcDbVertex
100
AcDb2dVertex
 10
68.01273056025377
 20
-129.991720887641
 30
0.0
  0
VERTEX
  5
D4
330
CB
100
AcDbEntity
  8
_U+30EC_U+30A4_U+30E4_U+30FC 1
370
     0
100
AcDbVertex
100
AcDb2dVertex
 10
69.01146374142769
 20
-129.991720887641
 30
0.0
  0
VERTEX
  5
D5
330
CB
100
AcDbEntity
  8
_U+30EC_U+30A4_U+30E4_U+30FC 1
370
     0
100
AcDbVertex
100
AcDb2dVertex
 10
69.01146374142769
 20
-129.7843261394289
 30
0.0
  0
VERTEX
  5
D6
330
CB
100
AcDbEntity
  8
_U+30EC_U+30A4_U+30E4_U+30FC 1
370
     0
100
AcDbVertex
100
AcDb2dVertex
 10
69.2102457509266
 20
-129.7843261394289
 30
0.0
  0
VERTEX
  5
D7
330
CB
100
AcDbEntity
  8
_U+30EC_U+30A4_U+30E4_U+30FC 1
370
     0
100
AcDbVertex
100
AcDb2dVertex
 10
69.2102457509266
 20
-129.991720887641
 30
0.0
  0
SEQEND
  5
D8
330
CB
100
AcDbEntity
  8
_U+30EC_U+30A4_U+30E4_U+30FC 1
370
     0
  0
POLYLINE
  5
D9
330
C5
100
AcDbEntity
  8
_U+30EC_U+30A4_U+30E4_U+30FC 1
370
     0
100
AcDb2dPolyline
 66
     1
 10
0.0
 20
0.0
 30
0.0
  0
VERTEX
  5
DA
330
D9
100
AcDbEntity
  8
_U+30EC_U+30A4_U+30E4_U+30FC 1
370
     0
100
AcDbVertex
100
AcDb2dVertex
 10
68.35551756103612
 20
-130.2094509223087
 30
0.0
  0
VERTEX
  5
DB
330
D9
100
AcDbEntity
  8
_U+30EC_U+30A4_U+30E4_U+30FC 1
370
     0
100
AcDbVertex
100
AcDb2dVertex
 10
69.01146374142769
 20
-130.6662705836529
 30
0.0
  0
VERTEX
  5
DC
330
D9
100
AcDbEntity
  8
_U+30EC_U+30A4_U+30E4_U+30FC 1
370
     0
100
AcDbVertex
100
AcDb2dVertex
 10
69.01146374142769
 20
-130.2094509223087
 30
0.0
  0
VERTEX
  5
DD
330
D9
100
AcDbEntity
  8
_U+30EC_U+30A4_U+30E4_U+30FC 1
370
     0
100
AcDbVertex
100
AcDb2dVertex
 10
68.35551756103612
 20
-130.2094509223087
 30
0.0
  0
SEQEND
  5
DE
330
D9
100
AcDbEntity
  8
_U+30EC_U+30A4_U+30E4_U+30FC 1
370
     0
  0
HATCH
  5
DF
330
C5
100
AcDbEntity
  8
_U+30EC_U+30A4_U+30E4_U+30FC 1
 62
   179
420
  2234388
100
AcDbHatch
 10
0.0
 20
0.0
 30
0.0
210
0.0
220
0.0
230
1.0
  2
SOLID
 70
     1
 71
     0
 91
        2
 92
        1
 93
       11
 72
     1
 10
69.2102457509266
 20
-129.991720887641
 11
69.55716686629127
 21
-129.991720887641
 72
     1
 10
69.55716686629127
 20
-129.991720887641
 11
69.55716686629127
 21
-130.2094509223087
 72
     1
 10
69.55716686629127
 20
-130.2094509223087
 11
69.2102457509266
 21
-130.2094509223087
 72
     1
 10
69.2102457509266
 20
-130.2094509223087
 11
69.2102457509266
 21
-130.8653971027003
 72
     1
 10
69.2102457509266
 20
-130.8653971027003
 11
68.98597003483684
 21
-130.8653971027003
 72
     1
 10
68.98597003483684
 20
-130.8653971027003
 11
68.01273056025377
 21
-130.1860242730091
 72
     1
 10
68.01273056025377
 20
-130.1860242730091
 11
68.01273056025377
 21
-129.991720887641
 72
     1
 10
68.01273056025377
 20
-129.991720887641
 11
69.01146374142769
 21
-129.991720887641
 72
     1
 10
69.01146374142769
 20
-129.991720887641
 11
69.01146374142769
 21
-129.7843261394289
 72
     1
 10
69.01146374142769
 20
-129.7843261394289
 11
69.2102457509266
 21
-129.7843261394289
 72
     1
 10
69.2102457509266
 20
-129.7843261394289
 11
69.2102457509266
 21
-129.991720887641
 97
        0
 92
        1
 93
        3
 72
     1
 10
68.35551756103612
 20
-130.2094509223087
 11
69.01146374142769
 21
-130.6662705836529
 72
     1
 10
69.01146374142769
 20
-130.6662705836529
 11
69.01146374142769
 21
-130.2094509223087
 72
     1
 10
69.01146374142769
 20
-130.2094509223087
 11
68.35551756103612
 21
-130.2094509223087
 97
        0
 75
     2
 76
     1
 98
        0
  0
ENDBLK
  5
C8
330
C5
100
AcDbEntity
  8
0
100
AcDbBlockEnd
  0
BLOCK
  5
EA
330
E8
100
AcDbEntity
  8
0
100
AcDbBlockBegin
  2
block 5
 70
     0
 10
0.0
 20
0.0
 30
0.0
  3
block 5
  1

  0
SPLINE
  5
EC
330
E8
100
AcDbEntity
  8
_U+30EC_U+30A4_U+30E4_U+30FC 1
370
     0
100
AcDbSpline
210
0.0
220
0.0
230
1.0
 70
    11
 71
     3
 72
    26
 73
    22
 74
     0
 42
0.0000000001
 43
0.0000000001
 12
1.0
 22
0.0
 32
0.0
 13
1.0
 23
0.0
 33
0.0
 40
0.0
 40
0.0
 40
0.0
 40
0.0
 40
1.0
 40
1.0
 40
1.0
 40
2.0
 40
2.0
 40
2.0
 40
3.0
 40
3.0
 40
3.0
 40
4.0
 40
4.0
 40
4.0
 40
5.0
 40
5.0
 40
5.0
 40
6.0
 40
6.0
 40
6.0
 40
7.0
 40
7.0
 40
7.0
 40
7.0
 10
113.1445149456722
 20
-120.9604030730585
 30
0.0
 10
113.1445149456722
 20
-120.9604030730585
 30
0.0
 10
112.0403618426496
 20
-120.9604030730585
 30
0.0
 10
112.0403618426496
 20
-120.9604030730585
 30
0.0
 10
112.0403618426496
 20
-120.9604030730585
 30
0.0
 10
112.0403618426496
 20
-121.2904432205455
 30
0.0
 10
112.0403618426496
 20
-121.2904432205455
 30
0.0
 10
112.0403618426496
 20
-121.2904432205455
 30
0.0
 10
111.8922227367839
 20
-121.2904432205455
 30
0.0
 10
111.8922227367839
 20
-121.2904432205455
 30
0.0
 10
111.8774088261973
 20
-120.9583360157674
 30
0.0
 10
111.714455809745
 20
-120.9118272267165
 30
0.0
 10
111.6000786396347
 20
-120.8821994055433
 30
0.0
 10
111.6000786396347
 20
-120.8821994055433
 30
0.0
 10
111.6000786396347
 20
-120.7361273569688
 30
0.0
 10
111.6000786396347
 20
-120.7361273569688
 30
0.0
 10
111.6000786396347
 20
-120.7361273569688
 30
0.0
 10
113.1445149456722
 20
-120.7361273569688
 30
0.0
 10
113.1445149456722
 20
-120.7361273569688
 30
0.0
 10
113.1445149456722
 20
-120.7361273569688
 30
0.0
 10
113.1445149456722
 20
-120.9604030730585
 30
0.0
 10
113.1445149456722
 20
-120.9604030730585
 30
0.0
  0
HATCH
  5
ED
330
E8
100
AcDbEntity
  8
_U+30EC_U+30A4_U+30E4_U+30FC 1
 62
   179
420
  2234388
100
AcDbHatch
 10
0.0
 20
0.0
 30
0.0
210
0.0
220
0.0
230
1.0
  2
SOLID
 70
     1
 71
     0
 91
        1
 92
        1
 93
        1
 72
     4
 94
        3
 73
     0
 74
     1
 95
       26
 96
       22
 40
0.0
 40
0.0
 40
0.0
 40
0.0
 40
1.0
 40
1.0
 40
1.0
 40
2.0
 40
2.0
 40
2.0
 40
3.0
 40
3.0
 40
3.0
 40
4.0
 40
4.0
 40
4.0
 40
5.0
 40
5.0
 40
5.0
 40
6.0
 40
6.0
 40
6.0
 40
7.0
 40
7.0
 40
7.0
 40
7.0
 10
113.1445149456722
 20
-120.9604030730585
 10
113.1445149456722
 20
-120.9604030730585
 10
112.0403618426496
 20
-120.9604030730585
 10
112.0403618426496
 20
-120.9604030730585
 10
112.0403618426496
 20
-120.9604030730585
 10
112.0403618426496
 20
-121.2904432205455
 10
112.0403618426496
 20
-121.2904432205455
 10
112.0403618426496
 20
-121.2904432205455
 10
111.8922227367839
 20
-121.2904432205455
 10
111.8922227367839
 20
-121.2904432205455
 10
111.8774088261973
 20
-120.9583360157674
 10
111.714455809745
 20
-120.9118272267165
 10
111.6000786396347
 20
-120.8821994055433
 10
111.6000786396347
 20
-120.8821994055433
 10
111.6000786396347
 20
-120.7361273569688
 10
111.6000786396347
 20
-120.7361273569688
 10
111.6000786396347
 20
-120.7361273569688
 10
113.1445149456722
 20
-120.7361273569688
 10
113.1445149456722
 20
-120.7361273569688
 10
113.1445149456722
 20
-120.7361273569688
 10
113.1445149456722
 20
-120.9604030730585
 10
113.1445149456722
 20
-120.9604030730585
 97
        0
 97
        0
 75
     2
 76
     1
 98
        0
  0
ENDBLK
  5
EB
330
E8
100
AcDbEntity
  8
0
100
AcDbBlockEnd
  0
BLOCK
  5
F4
330
F2
100
AcDbEntity
  8
0
100
AcDbBlockBegin
  2
block 6
 70
     0
 10
0.0
 20
0.0
 30
0.0
  3
block 6
  1

  0
SPLINE
  5
F6
330
F2
100
AcDbEntity
  8
_U+30EC_U+30A4_U+30E4_U+30FC 1
370
     0
100
AcDbSpline
210
0.0
220
0.0
230
1.0
 70
    11
 71
     3
 72
    26
 73
    22
 74
     0
 42
0.0000000001
 43
0.0000000001
 12
1.0
 22
0.0
 32
0.0
 13
1.0
 23
0.0
 33
0.0
 40
0.0
 40
0.0
 40
0.0
 40
0.0
 40
1.0
 40
1.0
 40
1.0
 40
2.0
 40
2.0
 40
2.0
 40
3.0
 40
3.0
 40
3.0
 40
4.0
 40
4.0
 40
4.0
 40
5.0
 40
5.0
 40
5.0
 40
6.0
 40
6.0
 40
6.0
 40
7.0
 40
7.0
 40
7.0
 40
7.0
 10
113.1445149456722
 20
-130.5491373371544
 30
0.0
 10
113.1445149456722
 20
-130.5491373371544
 30
0.0
 10
112.0403618426496
 20
-130.5491373371544
 30
0.0
 10
112.0403618426496
 20
-130.5491373371544
 30
0.0
 10
112.0403618426496
 20
-130.5491373371544
 30
0.0
 10
112.0403618426496
 20
-130.8791774846413
 30
0.0
 10
112.0403618426496
 20
-130.8791774846413
 30
0.0
 10
112.0403618426496
 20
-130.8791774846413
 30
0.0
 10
111.8922227367839
 20
-130.8791774846413
 30
0.0
 10
111.8922227367839
 20
-130.8791774846413
 30
0.0
 10
111.8774088261973
 20
-130.5470702798632
 30
0.0
 10
111.714455809745
 20
-130.5002169812638
 30
0.0
 10
111.6000786396347
 20
-130.4705891600907
 30
0.0
 10
111.6000786396347
 20
-130.4705891600907
 30
0.0
 10
111.6000786396347
 20
-130.3245171115161
 30
0.0
 10
111.6000786396347
 20
-130.3245171115161
 30
0.0
 10
111.6000786396347
 20
-130.3245171115161
 30
0.0
 10
113.1445149456722
 20
-130.3245171115161
 30
0.0
 10
113.1445149456722
 20
-130.3245171115161
 30
0.0
 10
113.1445149456722
 20
-130.3245171115161
 30
0.0
 10
113.1445149456722
 20
-130.5491373371544
 30
0.0
 10
113.1445149456722
 20
-130.5491373371544
 30
0.0
  0
HATCH
  5
F7
330
F2
100
AcDbEntity
  8
_U+30EC_U+30A4_U+30E4_U+30FC 1
 62
   179
420
  2234388
100
AcDbHatch
 10
0.0
 20
0.0
 30
0.0
210
0.0
220
0.0
230
1.0
  2
SOLID
 70
     1
 71
     0
 91
        1
 92
        1
 93
        1
 72
     4
 94
        3
 73
     0
 74
     1
 95
       26
 96
       22
 40
0.0
 40
0.0
 40
0.0
 40
0.0
 40
1.0
 40
1.0
 40
1.0
 40
2.0
 40
2.0
 40
2.0
 40
3.0
 40
3.0
 40
3.0
 40
4.0
 40
4.0
 40
4.0
 40
5.0
 40
5.0
 40
5.0
 40
6.0
 40
6.0
 40
6.0
 40
7.0
 40
7.0
 40
7.0
 40
7.0
 10
113.1445149456722
 20
-130.5491373371544
 10
113.1445149456722
 20
-130.5491373371544
 10
112.0403618426496
 20
-130.5491373371544
 10
112.0403618426496
 20
-130.5491373371544
 10
112.0403618426496
 20
-130.5491373371544
 10
112.0403618426496
 20
-130.8791774846413
 10
112.0403618426496
 20
-130.8791774846413
 10
112.0403618426496
 20
-130.8791774846413
 10
111.8922227367839
 20
-130.8791774846413
 10
111.8922227367839
 20
-130.8791774846413
 10
111.8774088261973
 20
-130.5470702798632
 10
111.714455809745
 20
-130.5002169812638
 10
111.6000786396347
 20
-130.4705891600907
 10
111.6000786396347
 20
-130.4705891600907
 10
111.6000786396347
 20
-130.3245171115161
 10
111.6000786396347
 20
-130.3245171115161
 10
111.6000786396347
 20
-130.3245171115161
 10
113.1445149456722
 20
-130.3245171115161
 10
113.1445149456722
 20
-130.3245171115161
 10
113.1445149456722
 20
-130.3245171115161
 10
113.1445149456722
 20
-130.5491373371544
 10
113.1445149456722
 20
-130.5491373371544
 97
        0
 97
        0
 75
     2
 76
     1
 98
        0
  0
SPLINE
  5
F8
330
F2
100
AcDbEntity
  8
_U+30EC_U+30A4_U+30E4_U+30FC 1
370
     0
100
AcDbSpline
210
0.0
220
0.0
230
1.0
 70
    11
 71
     3
 72
    29
 73
    25
 74
     0
 42
0.0000000001
 43
0.0000000001
 12
1.0
 22
0.0
 32
0.0
 13
1.0
 23
0.0
 33
0.0
 40
0.0
 40
0.0
 40
0.0
 40
0.0
 40
1.0
 40
1.0
 40
1.0
 40
2.0
 40
2.0
 40
2.0
 40
3.0
 40
3.0
 40
3.0
 40
4.0
 40
4.0
 40
4.0
 40
5.0
 40
5.0
 40
5.0
 40
6.0
 40
6.0
 40
6.0
 40
7.0
 40
7.0
 40
7.0
 40
8.0
 40
8.0
 40
8.0
 40
8.0
 10
112.9667480186333
 20
-128.9258083445047
 30
0.0
 10
113.1762098241365
 20
-129.033639833193
 30
0.0
 10
113.1951578493054
 20
-129.2069281361011
 30
0.0
 10
113.1951578493054
 20
-129.3233723635025
 30
0.0
 10
113.1951578493054
 20
-129.4842583226637
 30
0.0
 10
113.1486490602545
 20
-129.6258517471074
 30
0.0
 10
112.9667480186333
 20
-129.7212808920488
 30
0.0
 10
112.7721001237167
 20
-129.8249782661549
 30
0.0
 10
112.53542206388
 20
-129.8439262913238
 30
0.0
 10
112.3724690474277
 20
-129.8439262913238
 30
0.0
 10
112.2284640561443
 20
-129.8439262913238
 30
0.0
 10
111.9766275761725
 20
-129.827045323446
 30
0.0
 10
111.7778455666736
 20
-129.7212808920488
 30
0.0
 10
111.5749294425924
 20
-129.6134494033605
 30
0.0
 10
111.5515027932927
 20
-129.4525634441994
 30
0.0
 10
111.5515027932927
 20
-129.3233723635025
 30
0.0
 10
111.5515027932927
 20
-129.164897971181
 30
0.0
 10
111.5959445250524
 20
-129.0208929798976
 30
0.0
 10
111.7778455666736
 20
-128.9258083445047
 30
0.0
 10
111.9704264042991
 20
-128.8265895945295
 30
0.0
 10
112.1988362349711
 20
-128.8031629452298
 30
0.0
 10
112.3724690474277
 20
-128.8031629452298
 30
0.0
 10
112.5436902930446
 20
-128.8031629452298
 30
0.0
 10
112.7741671810079
 20
-128.8241780276898
 30
0.0
 10
112.9667480186333
 20
-128.9258083445047
 30
0.0
  0
SPLINE
  5
F9
330
F2
100
AcDbEntity
  8
_U+30EC_U+30A4_U+30E4_U+30FC 1
370
     0
100
AcDbSpline
210
0.0
220
0.0
230
1.0
 70
    11
 71
     3
 72
    17
 73
    13
 74
     0
 42
0.0000000001
 43
0.0000000001
 12
1.0
 22
0.0
 32
0.0
 13
1.0
 23
0.0
 33
0.0
 40
0.0
 40
0.0
 40
0.0
 40
0.0
 40
1.0
 40
1.0
 40
1.0
 40
2.0
 40
2.0
 40
2.0
 40
3.0
 40
3.0
 40
3.0
 40
4.0
 40
4.0
 40
4.0
 40
4.0
 10
111.7440836309182
 20
-129.3233723635025
 30
0.0
 10
111.7440836309182
 20
-129.5731417861831
 30
0.0
 10
112.0276149893542
 20
-129.619650575234
 30
0.0
 10
112.3724690474277
 20
-129.619650575234
 30
0.0
 10
112.6918293989104
 20
-129.619650575234
 30
0.0
 10
113.0005099543888
 20
-129.5838215821874
 30
0.0
 10
113.0005099543888
 20
-129.3233723635025
 30
0.0
 10
113.0005099543888
 20
-129.0760145076616
 30
0.0
 10
112.7193901627924
 20
-129.027094151771
 30
0.0
 10
112.3724690474277
 20
-129.027094151771
 30
0.0
 10
112.0527641863965
 20
-129.027094151771
 30
0.0
 10
111.7440836309182
 20
-129.0653347116573
 30
0.0
 10
111.7440836309182
 20
-129.3233723635025
 30
0.0
  0
HATCH
  5
FA
330
F2
100
AcDbEntity
  8
_U+30EC_U+30A4_U+30E4_U+30FC 1
 62
   179
420
  2234388
100
AcDbHatch
 10
0.0
 20
0.0
 30
0.0
210
0.0
220
0.0
230
1.0
  2
SOLID
 70
     1
 71
     0
 91
        2
 92
        1
 93
        1
 72
     4
 94
        3
 73
     0
 74
     1
 95
       29
 96
       25
 40
0.0
 40
0.0
 40
0.0
 40
0.0
 40
1.0
 40
1.0
 40
1.0
 40
2.0
 40
2.0
 40
2.0
 40
3.0
 40
3.0
 40
3.0
 40
4.0
 40
4.0
 40
4.0
 40
5.0
 40
5.0
 40
5.0
 40
6.0
 40
6.0
 40
6.0
 40
7.0
 40
7.0
 40
7.0
 40
8.0
 40
8.0
 40
8.0
 40
8.0
 10
112.9667480186333
 20
-128.9258083445047
 10
113.1762098241365
 20
-129.033639833193
 10
113.1951578493054
 20
-129.2069281361011
 10
113.1951578493054
 20
-129.3233723635025
 10
113.1951578493054
 20
-129.4842583226637
 10
113.1486490602545
 20
-129.6258517471074
 10
112.9667480186333
 20
-129.7212808920488
 10
112.7721001237167
 20
-129.8249782661549
 10
112.53542206388
 20
-129.8439262913238
 10
112.3724690474277
 20
-129.8439262913238
 10
112.2284640561443
 20
-129.8439262913238
 10
111.9766275761725
 20
-129.827045323446
 10
111.7778455666736
 20
-129.7212808920488
 10
111.5749294425924
 20
-129.6134494033605
 10
111.5515027932927
 20
-129.4525634441994
 10
111.5515027932927
 20
-129.3233723635025
 10
111.5515027932927
 20
-129.164897971181
 10
111.5959445250524
 20
-129.0208929798976
 10
111.7778455666736
 20
-128.9258083445047
 10
111.9704264042991
 20
-128.8265895945295
 10
112.1988362349711
 20
-128.8031629452298
 10
112.3724690474277
 20
-128.8031629452298
 10
112.5436902930446
 20
-128.8031629452298
 10
112.7741671810079
 20
-128.8241780276898
 10
112.9667480186333
 20
-128.9258083445047
 97
        0
 97
        0
 92
        1
 93
        1
 72
     4
 94
        3
 73
     0
 74
     1
 95
       17
 96
       13
 40
0.0
 40
0.0
 40
0.0
 40
0.0
 40
1.0
 40
1.0
 40
1.0
 40
2.0
 40
2.0
 40
2.0
 40
3.0
 40
3.0
 40
3.0
 40
4.0
 40
4.0
 40
4.0
 40
4.0
 10
111.7440836309182
 20
-129.3233723635025
 10
111.7440836309182
 20
-129.5731417861831
 10
112.0276149893542
 20
-129.619650575234
 10
112.3724690474277
 20
-129.619650575234
 10
112.6918293989104
 20
-129.619650575234
 10
113.0005099543888
 20
-129.5838215821874
 10
113.0005099543888
 20
-129.3233723635025
 10
113.0005099543888
 20
-129.0760145076616
 10
112.7193901627924
 20
-129.027094151771
 10
112.3724690474277
 20
-129.027094151771
 10
112.0527641863965
 20
-129.027094151771
 10
111.7440836309182
 20
-129.0653347116573
 10
111.7440836309182
 20
-129.3233723635025
 97
        0
 97
        0
 75
     2
 76
     1
 98
        0
  0
ENDBLK
  5
F5
330
F2
100
AcDbEntity
  8
0
100
AcDbBlockEnd
  0
BLOCK
  5
101
330
FF
100
AcDbEntity
  8
0
100
AcDbBlockBegin
  2
block 7
 70
     0
 10
0.0
 20
0.0
 30
0.0
  3
block 7
  1

  0
SPLINE
  5
103
330
FF
100
AcDbEntity
  8
_U+30EC_U+30A4_U+30E4_U+30FC 1
370
     0
100
AcDbSpline
210
0.0
220
0.0
230
1.0
 70
    11
 71
     3
 72
    62
 73
    58
 74
     0
 42
0.0000000001
 43
0.0000000001
 12
1.0
 22
0.0
 32
0.0
 13
1.0
 23
0.0
 33
0.0
 40
0.0
 40
0.0
 40
0.0
 40
0.0
 40
1.0
 40
1.0
 40
1.0
 40
2.0
 40
2.0
 40
2.0
 40
3.0
 40
3.0
 40
3.0
 40
4.0
 40
4.0
 40
4.0
 40
5.0
 40
5.0
 40
5.0
 40
6.0
 40
6.0
 40
6.0
 40
7.0
 40
7.0
 40
7.0
 40
8.0
 40
8.0
 40
8.0
 40
9.0
 40
9.0
 40
9.0
 40
10.0
 40
10.0
 40
10.0
 40
11.0
 40
11.0
 40
11.0
 40
12.0
 40
12.0
 40
12.0
 40
13.0
 40
13.0
 40
13.0
 40
14.0
 40
14.0
 40
14.0
 40
15.0
 40
15.0
 40
15.0
 40
16.0
 40
16.0
 40
16.0
 40
17.0
 40
17.0
 40
17.0
 40
18.0
 40
18.0
 40
18.0
 40
19.0
 40
19.0
 40
19.0
 40
19.0
 10
113.1955023588539
 20
-136.4206135726657
 30
0.0
 10
113.1955023588539
 20
-136.5160427176071
 30
0.0
 10
113.1744872763939
 20
-136.7337727522749
 30
0.0
 10
112.9884521201904
 20
-136.8584852088409
 30
0.0
 10
112.8761420073712
 20
-136.9325547617738
 30
0.0
 10
112.776923257396
 20
-136.9370333859046
 30
0.0
 10
112.6921739084589
 20
-136.9411675004869
 30
0.0
 10
112.6921739084589
 20
-136.9411675004869
 30
0.0
 10
112.6921739084589
 20
-136.7210258989795
 30
0.0
 10
112.6921739084589
 20
-136.7210258989795
 30
0.0
 10
112.7662434613918
 20
-136.7189588416883
 30
0.0
 10
113.0008544639373
 20
-136.708279045684
 30
0.0
 10
113.0008544639373
 20
-136.424747687248
 30
0.0
 10
113.0008544639373
 20
-136.2872883773865
 30
0.0
 10
112.9312635351352
 20
-136.1350151569385
 30
0.0
 10
112.7028537044632
 20
-136.1350151569385
 30
0.0
 10
112.5864094770617
 20
-136.1350151569385
 30
0.0
 10
112.5378336307197
 20
-136.1729112072762
 30
0.0
 10
112.5061387522554
 20
-136.2046060857405
 30
0.0
 10
112.4320691993225
 20
-136.2790201482219
 30
0.0
 10
112.4193223460271
 20
-136.3954643756234
 30
0.0
 10
112.4193223460271
 20
-136.4502413938388
 30
0.0
 10
112.4193223460271
 20
-136.4691894190077
 30
0.0
 10
112.4213894033183
 20
-136.5050184120543
 30
0.0
 10
112.4255235179006
 20
-136.5325791759363
 30
0.0
 10
112.4255235179006
 20
-136.5325791759363
 30
0.0
 10
112.230875622984
 20
-136.5325791759363
 30
0.0
 10
112.230875622984
 20
-136.5325791759363
 30
0.0
 10
112.2374213044059
 20
-136.4946831255986
 30
0.0
 10
112.2394883616971
 20
-136.45230845113
 30
0.0
 10
112.2394883616971
 20
-136.445762769708
 30
0.0
 10
112.2394883616971
 20
-136.3803059554883
 30
0.0
 10
112.2181287696885
 20
-136.1815239459893
 30
0.0
 10
111.9814507098519
 20
-136.1815239459893
 30
0.0
 10
111.803683782813
 20
-136.1815239459893
 30
0.0
 10
111.748562255049
 20
-136.3127820839774
 30
0.0
 10
111.748562255049
 20
-136.4226806299568
 30
0.0
 10
111.748562255049
 20
-136.6869194536755
 30
0.0
 10
111.9814507098519
 20
-136.6955321923886
 30
0.0
 10
112.0531086959451
 20
-136.7000108165194
 30
0.0
 10
112.0531086959451
 20
-136.7000108165194
 30
0.0
 10
112.0531086959451
 20
-136.9029269406007
 30
0.0
 10
112.0531086959451
 20
-136.9029269406007
 30
0.0
 10
111.928396239379
 20
-136.8943142018875
 30
0.0
 10
111.5518473028412
 20
-136.8667534380055
 30
0.0
 10
111.5518473028412
 20
-136.4099337766614
 30
0.0
 10
111.5518473028412
 20
-136.1860025701202
 30
0.0
 10
111.6789713262469
 20
-135.9448458861527
 30
0.0
 10
111.9749050284299
 20
-135.9448458861527
 30
0.0
 10
112.1612846941819
 20
-135.9448458861527
 30
0.0
 10
112.2436224762794
 20
-136.0399305215456
 30
0.0
 10
112.3049451759168
 20
-136.1391492715208
 30
0.0
 10
112.3325059397988
 20
-136.0778265718833
 30
0.0
 10
112.4127766646051
 20
-135.8959255302621
 30
0.0
 10
112.6901068511678
 20
-135.8959255302621
 30
0.0
 10
113.0284152278193
 20
-135.8959255302621
 30
0.0
 10
113.1955023588539
 20
-136.1432833861031
 30
0.0
 10
113.1955023588539
 20
-136.4206135726657
 30
0.0
  0
HATCH
  5
104
330
FF
100
AcDbEntity
  8
_U+30EC_U+30A4_U+30E4_U+30FC 1
 62
   179
420
  2234388
100
AcDbHatch
 10
0.0
 20
0.0
 30
0.0
210
0.0
220
0.0
230
1.0
  2
SOLID
 70
     1
 71
     0
 91
        1
 92
        1
 93
        1
 72
     4
 94
        3
 73
     0
 74
     1
 95
       62
 96
       58
 40
0.0
 40
0.0
 40
0.0
 40
0.0
 40
1.0
 40
1.0
 40
1.0
 40
2.0
 40
2.0
 40
2.0
 40
3.0
 40
3.0
 40
3.0
 40
4.0
 40
4.0
 40
4.0
 40
5.0
 40
5.0
 40
5.0
 40
6.0
 40
6.0
 40
6.0
 40
7.0
 40
7.0
 40
7.0
 40
8.0
 40
8.0
 40
8.0
 40
9.0
 40
9.0
 40
9.0
 40
10.0
 40
10.0
 40
10.0
 40
11.0
 40
11.0
 40
11.0
 40
12.0
 40
12.0
 40
12.0
 40
13.0
 40
13.0
 40
13.0
 40
14.0
 40
14.0
 40
14.0
 40
15.0
 40
15.0
 40
15.0
 40
16.0
 40
16.0
 40
16.0
 40
17.0
 40
17.0
 40
17.0
 40
18.0
 40
18.0
 40
18.0
 40
19.0
 40
19.0
 40
19.0
 40
19.0
 10
113.1955023588539
 20
-136.4206135726657
 10
113.1955023588539
 20
-136.5160427176071
 10
113.1744872763939
 20
-136.7337727522749
 10
112.9884521201904
 20
-136.8584852088409
 10
112.8761420073712
 20
-136.9325547617738
 10
112.776923257396
 20
-136.9370333859046
 10
112.6921739084589
 20
-136.9411675004869
 10
112.6921739084589
 20
-136.9411675004869
 10
112.6921739084589
 20
-136.7210258989795
 10
112.6921739084589
 20
-136.7210258989795
 10
112.7662434613918
 20
-136.7189588416883
 10
113.0008544639373
 20
-136.708279045684
 10
113.0008544639373
 20
-136.424747687248
 10
113.0008544639373
 20
-136.2872883773865
 10
112.9312635351352
 20
-136.1350151569385
 10
112.7028537044632
 20
-136.1350151569385
 10
112.5864094770617
 20
-136.1350151569385
 10
112.5378336307197
 20
-136.1729112072762
 10
112.5061387522554
 20
-136.2046060857405
 10
112.4320691993225
 20
-136.2790201482219
 10
112.4193223460271
 20
-136.3954643756234
 10
112.4193223460271
 20
-136.4502413938388
 10
112.4193223460271
 20
-136.4691894190077
 10
112.4213894033183
 20
-136.5050184120543
 10
112.4255235179006
 20
-136.5325791759363
 10
112.4255235179006
 20
-136.5325791759363
 10
112.230875622984
 20
-136.5325791759363
 10
112.230875622984
 20
-136.5325791759363
 10
112.2374213044059
 20
-136.4946831255986
 10
112.2394883616971
 20
-136.45230845113
 10
112.2394883616971
 20
-136.445762769708
 10
112.2394883616971
 20
-136.3803059554883
 10
112.2181287696885
 20
-136.1815239459893
 10
111.9814507098519
 20
-136.1815239459893
 10
111.803683782813
 20
-136.1815239459893
 10
111.748562255049
 20
-136.3127820839774
 10
111.748562255049
 20
-136.4226806299568
 10
111.748562255049
 20
-136.6869194536755
 10
111.9814507098519
 20
-136.6955321923886
 10
112.0531086959451
 20
-136.7000108165194
 10
112.0531086959451
 20
-136.7000108165194
 10
112.0531086959451
 20
-136.9029269406007
 10
112.0531086959451
 20
-136.9029269406007
 10
111.928396239379
 20
-136.8943142018875
 10
111.5518473028412
 20
-136.8667534380055
 10
111.5518473028412
 20
-136.4099337766614
 10
111.5518473028412
 20
-136.1860025701202
 10
111.6789713262469
 20
-135.9448458861527
 10
111.9749050284299
 20
-135.9448458861527
 10
112.1612846941819
 20
-135.9448458861527
 10
112.2436224762794
 20
-136.0399305215456
 10
112.3049451759168
 20
-136.1391492715208
 10
112.3325059397988
 20
-136.0778265718833
 10
112.4127766646051
 20
-135.8959255302621
 10
112.6901068511678
 20
-135.8959255302621
 10
113.0284152278193
 20
-135.8959255302621
 10
113.1955023588539
 20
-136.1432833861031
 10
113.1955023588539
 20
-136.4206135726657
 97
        0
 97
        0
 75
     2
 76
     1
 98
        0
  0
ENDBLK
  5
102
330
FF
100
AcDbEntity
  8
0
100
AcDbBlockEnd
  0
ENDSEC
  0
SECTION
  2
ENTITIES
  0
POLYLINE
  5
41
330
1F
100
AcDbEntity
  8
_U+30EC_U+30A4_U+30E4_U+30FC 1
 62
     9
420
 13224394
370
     9
100
AcDb2dPolyline
 66
     1
 10
0.0
 20
0.0
 30
0.0
  0
VERTEX
  5
42
330
41
100
AcDbEntity
  8
_U+30EC_U+30A4_U+30E4_U+30FC 1
 62
     9
420
 13224394
370
     9
100
AcDbVertex
100
AcDb2dVertex
 10
95.07361108734271
 20
-134.9374999662656
 30
0.0
  0
VERTEX
  5
43
330
41
100
AcDbEntity
  8
_U+30EC_U+30A4_U+30E4_U+30FC 1
 62
     9
420
 13224394
370
     9
100
AcDbVertex
100
AcDb2dVertex
 10
94.98541664292031
 20
-137.5833332989375
 30
0.0
  0
VERTEX
  5
44
330
41
100
AcDbEntity
  8
_U+30EC_U+30A4_U+30E4_U+30FC 1
 62
     9
420
 13224394
370
     9
100
AcDbVertex
100
AcDb2dVertex
 10
94.45624997638595
 20
-137.6715277433599
 30
0.0
  0
VERTEX
  5
45
330
41
100
AcDbEntity
  8
_U+30EC_U+30A4_U+30E4_U+30FC 1
 62
     9
420
 13224394
370
     9
100
AcDbVertex
100
AcDb2dVertex
 10
94.54444442080833
 20
-134.9374999662656
 30
0.0
  0
VERTEX
  5
46
330
41
100
AcDbEntity
  8
_U+30EC_U+30A4_U+30E4_U+30FC 1
 62
     9
420
 13224394
370
     9
100
AcDbVertex
100
AcDb2dVertex
 10
95.07361108734271
 20
-134.9374999662656
 30
0.0
  0
SEQEND
  5
48
330
41
100
AcDbEntity
  8
_U+30EC_U+30A4_U+30E4_U+30FC 1
 62
     9
420
 13224394
370
     9
  0
HATCH
  5
47
330
1F
100
AcDbEntity
  8
_U+30EC_U+30A4_U+30E4_U+30FC 1
 62
     9
420
 13224394
100
AcDbHatch
 10
0.0
 20
0.0
 30
0.0
210
0.0
220
0.0
230
1.0
  2
SOLID
 70
     1
 71
     0
 91
        1
 92
        1
 93
        4
 72
     1
 10
95.07361108734271
 20
-134.9374999662656
 11
94.98541664292031
 21
-137.5833332989375
 72
     1
 10
94.98541664292031
 20
-137.5833332989375
 11
94.45624997638595
 21
-137.6715277433599
 72
     1
 10
94.45624997638595
 20
-137.6715277433599
 11
94.54444442080833
 21
-134.9374999662656
 72
     1
 10
94.54444442080833
 20
-134.9374999662656
 11
95.07361108734271
 21
-134.9374999662656
 97
        0
 75
     2
 76
     1
 98
        0
  0
POLYLINE
  5
49
330
1F
100
AcDbEntity
  8
_U+30EC_U+30A4_U+30E4_U+30FC 1
 62
     9
420
 13224394
370
     9
100
AcDb2dPolyline
 66
     1
 10
0.0
 20
0.0
 30
0.0
  0
VERTEX
  5
4A
330
49
100
AcDbEntity
  8
_U+30EC_U+30A4_U+30E4_U+30FC 1
 62
     9
420
 13224394
370
     9
100
AcDbVertex
100
AcDb2dVertex
 10
75.72956890131107
 20
-123.8249999690438
 30
0.0
  0
VERTEX
  5
4B
330
49
100
AcDbEntity
  8
_U+30EC_U+30A4_U+30E4_U+30FC 1
 62
     9
420
 13224394
370
     9
100
AcDbVertex
100
AcDb2dVertex
 10
110.4194444168396
 20
-124.0603027467628
 30
0.0
  0
VERTEX
  5
4C
330
49
100
AcDbEntity
  8
_U+30EC_U+30A4_U+30E4_U+30FC 1
 62
     9
420
 13224394
370
     9
100
AcDbVertex
100
AcDb2dVertex
 10
110.5372721945882
 20
-124.765858302142
 30
0.0
  0
VERTEX
  5
4D
330
49
100
AcDbEntity
  8
_U+30EC_U+30A4_U+30E4_U+30FC 1
 62
     9
420
 13224394
370
     9
100
AcDbVertex
100
AcDb2dVertex
 10
76.67042721064111
 20
-124.765858302142
 30
0.0
  0
VERTEX
  5
4E
330
49
100
AcDbEntity
  8
_U+30EC_U+30A4_U+30E4_U+30FC 1
 62
     9
420
 13224394
370
     9
100
AcDbVertex
100
AcDb2dVertex
 10
76.55277775863959
 20
-136.9956055213069
 30
0.0
  0
VERTEX
  5
4F
330
49
100
AcDbEntity
  8
_U+30EC_U+30A4_U+30E4_U+30FC 1
 62
     9
420
 13224394
370
     9
100
AcDbVertex
100
AcDb2dVertex
 10
94.19166664311875
 20
-136.7603027435875
 30
0.0
  0
VERTEX
  5
50
330
49
100
AcDbEntity
  8
_U+30EC_U+30A4_U+30E4_U+30FC 1
 62
     9
420
 13224394
370
     9
100
AcDbVertex
100
AcDb2dVertex
 10
94.19166664311875
 20
-134.8789388551694
 30
0.0
  0
VERTEX
  5
51
330
49
100
AcDbEntity
  8
_U+30EC_U+30A4_U+30E4_U+30FC 1
 62
     9
420
 13224394
370
     9
100
AcDbVertex
100
AcDb2dVertex
 10
94.89722219849791
 20
-134.8789388551694
 30
0.0
  0
VERTEX
  5
52
330
49
100
AcDbEntity
  8
_U+30EC_U+30A4_U+30E4_U+30FC 1
 62
     9
420
 13224394
370
     9
100
AcDbVertex
100
AcDb2dVertex
 10
94.89722219849791
 20
-137.9361110766271
 30
0.0
  0
VERTEX
  5
53
330
49
100
AcDbEntity
  8
_U+30EC_U+30A4_U+30E4_U+30FC 1
 62
     9
420
 13224394
370
     9
100
AcDbVertex
100
AcDb2dVertex
 10
75.61209390430811
 20
-137.9361110766271
 30
0.0
  0
VERTEX
  5
54
330
49
100
AcDbEntity
  8
_U+30EC_U+30A4_U+30E4_U+30FC 1
 62
     9
420
 13224394
370
     9
100
AcDbVertex
100
AcDb2dVertex
 10
75.72956890131107
 20
-123.8249999690438
 30
0.0
  0
SEQEND
  5
56
330
49
100
AcDbEntity
  8
_U+30EC_U+30A4_U+30E4_U+30FC 1
 62
     9
420
 13224394
370
     9
  0
HATCH
  5
55
330
1F
100
AcDbEntity
  8
_U+30EC_U+30A4_U+30E4_U+30FC 1
 62
     9
420
 13224394
100
AcDbHatch
 10
0.0
 20
0.0
 30
0.0
210
0.0
220
0.0
230
1.0
  2
SOLID
 70
     1
 71
     0
 91
        1
 92
        1
 93
       10
 72
     1
 10
75.72956890131107
 20
-123.8249999690438
 11
110.4194444168396
 21
-124.0603027467628
 72
     1
 10
110.4194444168396
 20
-124.0603027467628
 11
110.5372721945882
 21
-124.765858302142
 72
     1
 10
110.5372721945882
 20
-124.765858302142
 11
76.67042721064111
 21
-124.765858302142
 72
     1
 10
76.67042721064111
 20
-124.765858302142
 11
76.55277775863959
 21
-136.9956055213069
 72
     1
 10
76.55277775863959
 20
-136.9956055213069
 11
94.19166664311875
 21
-136.7603027435875
 72
     1
 10
94.19166664311875
 20
-136.7603027435875
 11
94.19166664311875
 21
-134.8789388551694
 72
     1
 10
94.19166664311875
 20
-134.8789388551694
 11
94.89722219849791
 21
-134.8789388551694
 72
     1
 10
94.89722219849791
 20
-134.8789388551694
 11
94.89722219849791
 21
-137.9361110766271
 72
     1
 10
94.89722219849791
 20
-137.9361110766271
 11
75.61209390430811
 21
-137.9361110766271
 72
     1
 10
75.61209390430811
 20
-137.9361110766271
 11
75.72956890131107
 21
-123.8249999690438
 97
        0
 75
     2
 76
     1
 98
        0
  0
POLYLINE
  5
57
330
1F
100
AcDbEntity
  8
_U+30EC_U+30A4_U+30E4_U+30FC 1
 62
   179
420
  2234388
370
    25
100
AcDb2dPolyline
 66
     1
 10
0.0
 20
0.0
 30
0.0
  0
VERTEX
  5
58
330
57
100
AcDbEntity
  8
_U+30EC_U+30A4_U+30E4_U+30FC 1
 62
   179
420
  2234388
370
    25
100
AcDbVertex
100
AcDb2dVertex
 10
75.6139989042595
 20
-123.9114658023555
 30
0.0
  0
VERTEX
  5
59
330
57
100
AcDbEntity
  8
_U+30EC_U+30A4_U+30E4_U+30FC 1
 62
   179
420
  2234388
370
    25
100
AcDbVertex
100
AcDb2dVertex
 10
110.6137516224525
 20
-123.9114658023555
 30
0.0
  0
SEQEND
  5
5A
330
57
100
AcDbEntity
  8
_U+30EC_U+30A4_U+30E4_U+30FC 1
 62
   179
420
  2234388
370
    25
  0
POLYLINE
  5
5B
330
1F
100
AcDbEntity
  8
_U+30EC_U+30A4_U+30E4_U+30FC 1
 62
   179
420
  2234388
370
    25
100
AcDb2dPolyline
 66
     1
 10
0.0
 20
0.0
 30
0.0
  0
VERTEX
  5
5C
330
5B
100
AcDbEntity
  8
_U+30EC_U+30A4_U+30E4_U+30FC 1
 62
   179
420
  2234388
370
    25
100
AcDbVertex
100
AcDb2dVertex
 10
75.6139989042595
 20
-137.9116635766335
 30
0.0
  0
VERTEX
  5
5D
330
5B
100
AcDbEntity
  8
_U+30EC_U+30A4_U+30E4_U+30FC 1
 62
   179
420
  2234388
370
    25
100
AcDbVertex
100
AcDb2dVertex
 10
94.61404508619461
 20
-137.9116635766335
 30
0.0
  0
SEQEND
  5
5E
330
5B
100
AcDbEntity
  8
_U+30EC_U+30A4_U+30E4_U+30FC 1
 62
   179
420
  2234388
370
    25
  0
POLYLINE
  5
5F
330
1F
100
AcDbEntity
  8
_U+30EC_U+30A4_U+30E4_U+30FC 1
 62
   179
420
  2234388
370
    25
100
AcDb2dPolyline
 66
     1
 10
0.0
 20
0.0
 30
0.0
  0
VERTEX
  5
60
330
5F
100
AcDbEntity
  8
_U+30EC_U+30A4_U+30E4_U+30FC 1
 62
   179
420
  2234388
370
    25
100
AcDbVertex
100
AcDb2dVertex
 10
75.6139989042595
 20
-123.9114658023555
 30
0.0
  0
VERTEX
  5
61
330
5F
100
AcDbEntity
  8
_U+30EC_U+30A4_U+30E4_U+30FC 1
 62
   179
420
  2234388
370
    25
100
AcDbVertex
100
AcDb2dVertex
 10
75.6139989042595
 20
-137.9116635766335
 30
0.0
  0
SEQEND
  5
62
330
5F
100
AcDbEntity
  8
_U+30EC_U+30A4_U+30E4_U+30FC 1
 62
   179
420
  2234388
370
    25
  0
POLYLINE
  5
63
330
1F
100
AcDbEntity
  8
_U+30EC_U+30A4_U+30E4_U+30FC 1
 62
   179
420
  2234388
370
    25
100
AcDb2dPolyline
 66
     1
 10
0.0
 20
0.0
 30
0.0
  0
VERTEX
  5
64
330
63
100
AcDbEntity
  8
_U+30EC_U+30A4_U+30E4_U+30FC 1
 62
   179
420
  2234388
370
    25
100
AcDbVertex
100
AcDb2dVertex
 10
110.6137516224525
 20
-123.9114658023555
 30
0.0
  0
VERTEX
  5
65
330
63
100
AcDbEntity
  8
_U+30EC_U+30A4_U+30E4_U+30FC 1
 62
   179
420
  2234388
370
    25
100
AcDbVertex
100
AcDb2dVertex
 10
110.6137516224525
 20
-124.9115908021055
 30
0.0
  0
SEQEND
  5
66
330
63
100
AcDbEntity
  8
_U+30EC_U+30A4_U+30E4_U+30FC 1
 62
   179
420
  2234388
370
    25
  0
POLYLINE
  5
67
330
1F
100
AcDbEntity
  8
_U+30EC_U+30A4_U+30E4_U+30FC 1
 62
   179
420
  2234388
370
    25
100
AcDb2dPolyline
 66
     1
 10
0.0
 20
0.0
 30
0.0
  0
VERTEX
  5
68
330
67
100
AcDbEntity
  8
_U+30EC_U+30A4_U+30E4_U+30FC 1
 62
   179
420
  2234388
370
    25
100
AcDbVertex
100
AcDb2dVertex
 10
76.61391221208292
 20
-124.9115908021055
 30
0.0
  0
VERTEX
  5
69
330
67
100
AcDbEntity
  8
_U+30EC_U+30A4_U+30E4_U+30FC 1
 62
   179
420
  2234388
370
    25
100
AcDbVertex
100
AcDb2dVertex
 10
110.6137516224525
 20
-124.9115908021055
 30
0.0
  0
SEQEND
  5
6A
330
67
100
AcDbEntity
  8
_U+30EC_U+30A4_U+30E4_U+30FC 1
 62
   179
420
  2234388
370
    25
  0
POLYLINE
  5
6B
330
1F
100
AcDbEntity
  8
_U+30EC_U+30A4_U+30E4_U+30FC 1
 62
   179
420
  2234388
370
    25
100
AcDb2dPolyline
 66
     1
 10
0.0
 20
0.0
 30
0.0
  0
VERTEX
  5
6C
330
6B
100
AcDbEntity
  8
_U+30EC_U+30A4_U+30E4_U+30FC 1
 62
   179
420
  2234388
370
    25
100
AcDbVertex
100
AcDb2dVertex
 10
76.61391221208292
 20
-124.9115908021055
 30
0.0
  0
VERTEX
  5
6D
330
6B
100
AcDbEntity
  8
_U+30EC_U+30A4_U+30E4_U+30FC 1
 62
   179
420
  2234388
370
    25
100
AcDbVertex
100
AcDb2dVertex
 10
76.61391221208292
 20
-136.9115385768832
 30
0.0
  0
SEQEND
  5
6E
330
6B
100
AcDbEntity
  8
_U+30EC_U+30A4_U+30E4_U+30FC 1
 62
   179
420
  2234388
370
    25
  0
POLYLINE
  5
6F
330
1F
100
AcDbEntity
  8
_U+30EC_U+30A4_U+30E4_U+30FC 1
 62
   179
420
  2234388
370
    25
100
AcDb2dPolyline
 66
     1
 10
0.0
 20
0.0
 30
0.0
  0
VERTEX
  5
70
330
6F
100
AcDbEntity
  8
_U+30EC_U+30A4_U+30E4_U+30FC 1
 62
   179
420
  2234388
370
    25
100
AcDbVertex
100
AcDb2dVertex
 10
76.61391221208292
 20
-136.9115385768832
 30
0.0
  0
VERTEX
  5
71
330
6F
100
AcDbEntity
  8
_U+30EC_U+30A4_U+30E4_U+30FC 1
 62
   179
420
  2234388
370
    25
100
AcDbVertex
100
AcDb2dVertex
 10
94.11380621006788
 20
-136.9115385768832
 30
0.0
  0
SEQEND
  5
72
330
6F
100
AcDbEntity
  8
_U+30EC_U+30A4_U+30E4_U+30FC 1
 62
   179
420
  2234388
370
    25
  0
POLYLINE
  5
73
330
1F
100
AcDbEntity
  8
_U+30EC_U+30A4_U+30E4_U+30FC 1
 62
   179
420
  2234388
370
    25
100
AcDb2dPolyline
 66
     1
 10
0.0
 20
0.0
 30
0.0
  0
VERTEX
  5
74
330
73
100
AcDbEntity
  8
_U+30EC_U+30A4_U+30E4_U+30FC 1
 62
   179
420
  2234388
370
    25
100
AcDbVertex
100
AcDb2dVertex
 10
95.11393118455257
 20
-134.9116766329385
 30
0.0
  0
VERTEX
  5
75
330
73
100
AcDbEntity
  8
_U+30EC_U+30A4_U+30E4_U+30FC 1
 62
   179
420
  2234388
370
    25
100
AcDbVertex
100
AcDb2dVertex
 10
95.11393118455257
 20
-137.4114246878691
 30
0.0
  0
SEQEND
  5
76
330
73
100
AcDbEntity
  8
_U+30EC_U+30A4_U+30E4_U+30FC 1
 62
   179
420
  2234388
370
    25
  0
POLYLINE
  5
77
330
1F
100
AcDbEntity
  8
_U+30EC_U+30A4_U+30E4_U+30FC 1
 62
   179
420
  2234388
370
    25
100
AcDb2dPolyline
 66
     1
 10
0.0
 20
0.0
 30
0.0
  0
VERTEX
  5
78
330
77
100
AcDbEntity
  8
_U+30EC_U+30A4_U+30E4_U+30FC 1
 62
   179
420
  2234388
370
    25
100
AcDbVertex
100
AcDb2dVertex
 10
94.11380621006788
 20
-134.9116766329385
 30
0.0
  0
VERTEX
  5
79
330
77
100
AcDbEntity
  8
_U+30EC_U+30A4_U+30E4_U+30FC 1
 62
   179
420
  2234388
370
    25
100
AcDbVertex
100
AcDb2dVertex
 10
95.11393118455257
 20
-134.9116766329385
 30
0.0
  0
SEQEND
  5
7A
330
77
100
AcDbEntity
  8
_U+30EC_U+30A4_U+30E4_U+30FC 1
 62
   179
420
  2234388
370
    25
  0
POLYLINE
  5
7B
330
1F
100
AcDbEntity
  8
_U+30EC_U+30A4_U+30E4_U+30FC 1
 62
   179
420
  2234388
370
    25
100
AcDb2dPolyline
 66
     1
 10
0.0
 20
0.0
 30
0.0
  0
VERTEX
  5
7C
330
7B
100
AcDbEntity
  8
_U+30EC_U+30A4_U+30E4_U+30FC 1
 62
   179
420
  2234388
370
    25
100
AcDbVertex
100
AcDb2dVertex
 10
94.11380621006788
 20
-134.9116766329385
 30
0.0
  0
VERTEX
  5
7D
330
7B
100
AcDbEntity
  8
_U+30EC_U+30A4_U+30E4_U+30FC 1
 62
   179
420
  2234388
370
    25
100
AcDbVertex
100
AcDb2dVertex
 10
94.11380621006788
 20
-136.9115385768832
 30
0.0
  0
SEQEND
  5
7E
330
7B
100
AcDbEntity
  8
_U+30EC_U+30A4_U+30E4_U+30FC 1
 62
   179
420
  2234388
370
    25
  0
SPLINE
  5
7F
330
1F
100
AcDbEntity
  8
_U+30EC_U+30A4_U+30E4_U+30FC 1
 62
   179
420
  2234388
370
    25
100
AcDbSpline
210
0.0
220
0.0
230
1.0
 70
     8
 71
     3
 72
     8
 73
     4
 74
     0
 42
0.0000000001
 43
0.0000000001
 12
1.0
 22
0.0
 32
0.0
 13
1.0
 23
0.0
 33
0.0
 40
0.0
 40
0.0
 40
0.0
 40
0.0
 40
1.0
 40
1.0
 40
1.0
 40
1.0
 10
94.61404508619461
 20
-137.9116635766335
 30
0.0
 10
94.8899878569325
 20
-137.9116635766335
 30
0.0
 10
95.11393118455257
 20
-137.6877202433556
 30
0.0
 10
95.11393118455257
 20
-137.4114246878691
 30
0.0
  0
SPLINE
  5
80
330
1F
100
AcDbEntity
  8
_U+30EC_U+30A4_U+30E4_U+30FC 1
 62
   179
420
  2234388
370
     9
100
AcDbSpline
210
0.0
220
0.0
230
1.0
 70
    11
 71
     3
 72
    17
 73
    13
 74
     0
 42
0.0000000001
 43
0.0000000001
 12
1.0
 22
0.0
 32
0.0
 13
1.0
 23
0.0
 33
0.0
 40
0.0
 40
0.0
 40
0.0
 40
0.0
 40
1.0
 40
1.0
 40
1.0
 40
2.0
 40
2.0
 40
2.0
 40
3.0
 40
3.0
 40
3.0
 40
4.0
 40
4.0
 40
4.0
 40
4.0
 10
110.7140138612101
 20
-119.9115302477997
 30
0.0
 10
110.7140138612101
 20
-119.8562499700359
 30
0.0
 10
110.669211083444
 20
-119.8114471922692
 30
0.0
 10
110.6137516224525
 20
-119.8114471922692
 30
0.0
 10
110.5586124571926
 20
-119.8114471922692
 30
0.0
 10
110.5138449583347
 20
-119.8562499700359
 30
0.0
 10
110.5138449583347
 20
-119.9115302477997
 30
0.0
 10
110.5138449583347
 20
-119.9668458033417
 30
0.0
 10
110.5586124571926
 20
-120.0114369144417
 30
0.0
 10
110.6137516224525
 20
-120.0114369144417
 30
0.0
 10
110.669211083444
 20
-120.0114369144417
 30
0.0
 10
110.7140138612101
 20
-119.9668458033417
 30
0.0
 10
110.7140138612101
 20
-119.9115302477997
 30
0.0
  0
SPLINE
  5
81
330
1F
100
AcDbEntity
  8
_U+30EC_U+30A4_U+30E4_U+30FC 1
 62
   179
420
  2234388
370
     9
100
AcDbSpline
210
0.0
220
0.0
230
1.0
 70
    11
 71
     3
 72
    17
 73
    13
 74
     0
 42
0.0000000001
 43
0.0000000001
 12
1.0
 22
0.0
 32
0.0
 13
1.0
 23
0.0
 33
0.0
 40
0.0
 40
0.0
 40
0.0
 40
0.0
 40
1.0
 40
1.0
 40
1.0
 40
2.0
 40
2.0
 40
2.0
 40
3.0
 40
3.0
 40
3.0
 40
4.0
 40
4.0
 40
4.0
 40
4.0
 10
75.71390556837734
 20
-119.9115302477997
 30
0.0
 10
75.71390556837734
 20
-119.8562499700359
 30
0.0
 10
75.66910279174257
 20
-119.8114471922692
 30
0.0
 10
75.6139989042595
 20
-119.8114471922692
 30
0.0
 10
75.55868335011517
 20
-119.8114471922692
 30
0.0
 10
75.51391585125728
 20
-119.8562499700359
 30
0.0
 10
75.51391585125728
 20
-119.9115302477997
 30
0.0
 10
75.51391585125728
 20
-119.9668458033417
 30
0.0
 10
75.55868335011517
 20
-120.0114369144417
 30
0.0
 10
75.6139989042595
 20
-120.0114369144417
 30
0.0
 10
75.66910279174257
 20
-120.0114369144417
 30
0.0
 10
75.71390556837734
 20
-119.9668458033417
 30
0.0
 10
75.71390556837734
 20
-119.9115302477997
 30
0.0
  0
SPLINE
  5
82
330
1F
100
AcDbEntity
  8
_U+30EC_U+30A4_U+30E4_U+30FC 1
 62
   179
420
  2234388
370
     9
100
AcDbSpline
210
0.0
220
0.0
230
1.0
 70
    11
 71
     3
 72
    17
 73
    13
 74
     0
 42
0.0000000001
 43
0.0000000001
 12
1.0
 22
0.0
 32
0.0
 13
1.0
 23
0.0
 33
0.0
 40
0.0
 40
0.0
 40
0.0
 40
0.0
 40
1.0
 40
1.0
 40
1.0
 40
2.0
 40
2.0
 40
2.0
 40
3.0
 40
3.0
 40
3.0
 40
4.0
 40
4.0
 40
4.0
 40
4.0
 10
71.71397011486864
 20
-123.9114658023555
 30
0.0
 10
71.71397011486864
 20
-123.8563619134803
 30
0.0
 10
71.66916733823388
 20
-123.8115591357139
 30
0.0
 10
71.61388887098542
 20
-123.8115591357139
 30
0.0
 10
71.55860678549895
 20
-123.8115591357139
 30
0.0
 10
71.51398039774858
 20
-123.8563619134803
 30
0.0
 10
71.51398039774858
 20
-123.9114658023555
 30
0.0
 10
71.51398039774858
 20
-123.9667813578971
 30
0.0
 10
71.55860678549895
 20
-124.011548857886
 30
0.0
 10
71.61388887098542
 20
-124.011548857886
 30
0.0
 10
71.66916733823388
 20
-124.011548857886
 30
0.0
 10
71.71397011486864
 20
-123.9667813578971
 30
0.0
 10
71.71397011486864
 20
-123.9114658023555
 30
0.0
  0
SPLINE
  5
83
330
1F
100
AcDbEntity
  8
_U+30EC_U+30A4_U+30E4_U+30FC 1
 62
   179
420
  2234388
370
     9
100
AcDbSpline
210
0.0
220
0.0
230
1.0
 70
    11
 71
     3
 72
    17
 73
    13
 74
     0
 42
0.0000000001
 43
0.0000000001
 12
1.0
 22
0.0
 32
0.0
 13
1.0
 23
0.0
 33
0.0
 40
0.0
 40
0.0
 40
0.0
 40
0.0
 40
1.0
 40
1.0
 40
1.0
 40
2.0
 40
2.0
 40
2.0
 40
3.0
 40
3.0
 40
3.0
 40
4.0
 40
4.0
 40
4.0
 40
4.0
 10
71.71397011486864
 20
-137.9116635766335
 30
0.0
 10
71.71397011486864
 20
-137.8561716322026
 30
0.0
 10
71.66916733823388
 20
-137.8114041322141
 30
0.0
 10
71.61388887098542
 20
-137.8114041322141
 30
0.0
 10
71.55860678549895
 20
-137.8114041322141
 30
0.0
 10
71.51398039774858
 20
-137.8561716322026
 30
0.0
 10
71.51398039774858
 20
-137.9116635766335
 30
0.0
 10
71.51398039774858
 20
-137.9667674655084
 30
0.0
 10
71.55860678549895
 20
-138.0115702432751
 30
0.0
 10
71.61388887098542
 20
-138.0115702432751
 30
0.0
 10
71.66916733823388
 20
-138.0115702432751
 30
0.0
 10
71.71397011486864
 20
-137.9667674655084
 30
0.0
 10
71.71397011486864
 20
-137.9116635766335
 30
0.0
  0
SPLINE
  5
84
330
1F
100
AcDbEntity
  8
_U+30EC_U+30A4_U+30E4_U+30FC 1
 62
   179
420
  2234388
370
     9
100
AcDbSpline
210
0.0
220
0.0
230
1.0
 70
    11
 71
     3
 72
    17
 73
    13
 74
     0
 42
0.0000000001
 43
0.0000000001
 12
1.0
 22
0.0
 32
0.0
 13
1.0
 23
0.0
 33
0.0
 40
0.0
 40
0.0
 40
0.0
 40
0.0
 40
1.0
 40
1.0
 40
1.0
 40
2.0
 40
2.0
 40
2.0
 40
3.0
 40
3.0
 40
3.0
 40
4.0
 40
4.0
 40
4.0
 40
4.0
 10
75.71390556837734
 20
-141.9114227422997
 30
0.0
 10
75.71390556837734
 20
-141.8562835756473
 30
0.0
 10
75.66910279174257
 20
-141.8115160756581
 30
0.0
 10
75.6139989042595
 20
-141.8115160756581
 30
0.0
 10
75.55868335011517
 20
-141.8115160756581
 30
0.0
 10
75.51391585125728
 20
-141.8562835756473
 30
0.0
 10
75.51391585125728
 20
-141.9114227422997
 30
0.0
 10
75.51391585125728
 20
-141.966879408953
 30
0.0
 10
75.55868335011517
 20
-142.0116469089416
 30
0.0
 10
75.6139989042595
 20
-142.0116469089416
 30
0.0
 10
75.66910279174257
 20
-142.0116469089416
 30
0.0
 10
75.71390556837734
 20
-141.966879408953
 30
0.0
 10
75.71390556837734
 20
-141.9114227422997
 30
0.0
  0
SPLINE
  5
85
330
1F
100
AcDbEntity
  8
_U+30EC_U+30A4_U+30E4_U+30FC 1
 62
   179
420
  2234388
370
     9
100
AcDbSpline
210
0.0
220
0.0
230
1.0
 70
    11
 71
     3
 72
    17
 73
    13
 74
     0
 42
0.0000000001
 43
0.0000000001
 12
1.0
 22
0.0
 32
0.0
 13
1.0
 23
0.0
 33
0.0
 40
0.0
 40
0.0
 40
0.0
 40
0.0
 40
1.0
 40
1.0
 40
1.0
 40
2.0
 40
2.0
 40
2.0
 40
3.0
 40
3.0
 40
3.0
 40
4.0
 40
4.0
 40
4.0
 40
4.0
 10
95.21383784867041
 20
-141.9114227422997
 30
0.0
 10
95.21383784867041
 20
-141.8562835756473
 30
0.0
 10
95.16903507203564
 20
-141.8115160756581
 30
0.0
 10
95.11393118455257
 20
-141.8115160756581
 30
0.0
 10
95.05879442067994
 20
-141.8115160756581
 30
0.0
 10
95.01402452043473
 20
-141.8562835756473
 30
0.0
 10
95.01402452043473
 20
-141.9114227422997
 30
0.0
 10
95.01402452043473
 20
-141.966879408953
 30
0.0
 10
95.05879442067994
 20
-142.0116469089416
 30
0.0
 10
95.11393118455257
 20
-142.0116469089416
 30
0.0
 10
95.16903507203564
 20
-142.0116469089416
 30
0.0
 10
95.21383784867041
 20
-141.966879408953
 30
0.0
 10
95.21383784867041
 20
-141.9114227422997
 30
0.0
  0
POLYLINE
  5
86
330
1F
100
AcDbEntity
  8
_U+30EC_U+30A4_U+30E4_U+30FC 1
 62
   179
420
  2234388
370
     9
100
AcDb2dPolyline
 66
     1
 10
0.0
 20
0.0
 30
0.0
  0
VERTEX
  5
87
330
86
100
AcDbEntity
  8
_U+30EC_U+30A4_U+30E4_U+30FC 1
 62
   179
420
  2234388
370
     9
100
AcDbVertex
100
AcDb2dVertex
 10
75.6139989042595
 20
-119.9115302477997
 30
0.0
  0
VERTEX
  5
88
330
86
100
AcDbEntity
  8
_U+30EC_U+30A4_U+30E4_U+30FC 1
 62
   179
420
  2234388
370
     9
100
AcDbVertex
100
AcDb2dVertex
 10
110.6137516224525
 20
-119.9115302477997
 30
0.0
  0
SEQEND
  5
89
330
86
100
AcDbEntity
  8
_U+30EC_U+30A4_U+30E4_U+30FC 1
 62
   179
420
  2234388
370
     9
  0
POLYLINE
  5
8A
330
1F
100
AcDbEntity
  8
_U+30EC_U+30A4_U+30E4_U+30FC 1
 62
   179
420
  2234388
370
     9
100
AcDb2dPolyline
 66
     1
 10
0.0
 20
0.0
 30
0.0
  0
VERTEX
  5
8B
330
8A
100
AcDbEntity
  8
_U+30EC_U+30A4_U+30E4_U+30FC 1
 62
   179
420
  2234388
370
     9
100
AcDbVertex
100
AcDb2dVertex
 10
75.6139989042595
 20
-121.3715716363238
 30
0.0
  0
VERTEX
  5
8C
330
8A
100
AcDbEntity
  8
_U+30EC_U+30A4_U+30E4_U+30FC 1
 62
   179
420
  2234388
370
     9
100
AcDbVertex
100
AcDb2dVertex
 10
75.6139989042595
 20
-118.9116169147165
 30
0.0
  0
SEQEND
  5
8D
330
8A
100
AcDbEntity
  8
_U+30EC_U+30A4_U+30E4_U+30FC 1
 62
   179
420
  2234388
370
     9
  0
POLYLINE
  5
8E
330
1F
100
AcDbEntity
  8
_U+30EC_U+30A4_U+30E4_U+30FC 1
 62
   179
420
  2234388
370
     9
100
AcDb2dPolyline
 66
     1
 10
0.0
 20
0.0
 30
0.0
  0
VERTEX
  5
8F
330
8E
100
AcDbEntity
  8
_U+30EC_U+30A4_U+30E4_U+30FC 1
 62
   179
420
  2234388
370
     9
100
AcDbVertex
100
AcDb2dVertex
 10
110.6137516224525
 20
-121.3715716363238
 30
0.0
  0
VERTEX
  5
90
330
8E
100
AcDbEntity
  8
_U+30EC_U+30A4_U+30E4_U+30FC 1
 62
   179
420
  2234388
370
     9
100
AcDbVertex
100
AcDb2dVertex
 10
110.6137516224525
 20
-118.9116169147165
 30
0.0
  0
SEQEND
  5
91
330
8E
100
AcDbEntity
  8
_U+30EC_U+30A4_U+30E4_U+30FC 1
 62
   179
420
  2234388
370
     9
  0
INSERT
  5
93
330
1F
100
AcDbEntity
  8
_U+30EC_U+30A4_U+30E4_U+30FC 1
100
AcDbBlockReference
  2
block 2
 10
0.0
 20
0.0
 30
0.0
  0
POLYLINE
  5
9A
330
1F
100
AcDbEntity
  8
_U+30EC_U+30A4_U+30E4_U+30FC 1
 62
   179
420
  2234388
370
     9
100
AcDb2dPolyline
 66
     1
 10
0.0
 20
0.0
 30
0.0
  0
VERTEX
  5
9B
330
9A
100
AcDbEntity
  8
_U+30EC_U+30A4_U+30E4_U+30FC 1
 62
   179
420
  2234388
370
     9
100
AcDbVertex
100
AcDb2dVertex
 10
75.6139989042595
 20
-141.9114227422997
 30
0.0
  0
VERTEX
  5
9C
330
9A
100
AcDbEntity
  8
_U+30EC_U+30A4_U+30E4_U+30FC 1
 62
   179
420
  2234388
370
     9
100
AcDbVertex
100
AcDb2dVertex
 10
95.11393118455257
 20
-141.9114227422997
 30
0.0
  0
SEQEND
  5
9D
330
9A
100
AcDbEntity
  8
_U+30EC_U+30A4_U+30E4_U+30FC 1
 62
   179
420
  2234388
370
     9
  0
POLYLINE
  5
9E
330
1F
100
AcDbEntity
  8
_U+30EC_U+30A4_U+30E4_U+30FC 1
 62
   179
420
  2234388
370
     9
100
AcDb2dPolyline
 66
     1
 10
0.0
 20
0.0
 30
0.0
  0
VERTEX
  5
9F
330
9E
100
AcDbEntity
  8
_U+30EC_U+30A4_U+30E4_U+30FC 1
 62
   179
420
  2234388
370
     9
100
AcDbVertex
100
AcDb2dVertex
 10
75.6139989042595
 20
-140.451381353776
 30
0.0
  0
VERTEX
  5
A0
330
9E
100
AcDbEntity
  8
_U+30EC_U+30A4_U+30E4_U+30FC 1
 62
   179
420
  2234388
370
     9
100
AcDbVertex
100
AcDb2dVertex
 10
75.6139989042595
 20
-142.9115124642719
 30
0.0
  0
SEQEND
  5
A1
330
9E
100
AcDbEntity
  8
_U+30EC_U+30A4_U+30E4_U+30FC 1
 62
   179
420
  2234388
370
     9
  0
POLYLINE
  5
A2
330
1F
100
AcDbEntity
  8
_U+30EC_U+30A4_U+30E4_U+30FC 1
 62
   179
420
  2234388
370
     9
100
AcDb2dPolyline
 66
     1
 10
0.0
 20
0.0
 30
0.0
  0
VERTEX
  5
A3
330
A2
100
AcDbEntity
  8
_U+30EC_U+30A4_U+30E4_U+30FC 1
 62
   179
420
  2234388
370
     9
100
AcDbVertex
100
AcDb2dVertex
 10
95.11393118455257
 20
-139.9514952427901
 30
0.0
  0
VERTEX
  5
A4
330
A2
100
AcDbEntity
  8
_U+30EC_U+30A4_U+30E4_U+30FC 1
 62
   179
420
  2234388
370
     9
100
AcDbVertex
100
AcDb2dVertex
 10
95.11393118455257
 20
-142.9115124642719
 30
0.0
  0
SEQEND
  5
A5
330
A2
100
AcDbEntity
  8
_U+30EC_U+30A4_U+30E4_U+30FC 1
 62
   179
420
  2234388
370
     9
  0
INSERT
  5
A7
330
1F
100
AcDbEntity
  8
_U+30EC_U+30A4_U+30E4_U+30FC 1
100
AcDbBlockReference
  2
block 3
 10
0.0
 20
0.0
 30
0.0
  0
POLYLINE
  5
B9
330
1F
100
AcDbEntity
  8
_U+30EC_U+30A4_U+30E4_U+30FC 1
 62
   179
420
  2234388
370
     9
100
AcDb2dPolyline
 66
     1
 10
0.0
 20
0.0
 30
0.0
  0
VERTEX
  5
BA
330
B9
100
AcDbEntity
  8
_U+30EC_U+30A4_U+30E4_U+30FC 1
 62
   179
420
  2234388
370
     9
100
AcDbVertex
100
AcDb2dVertex
 10
71.61388887098542
 20
-123.9114658023555
 30
0.0
  0
VERTEX
  5
BB
330
B9
100
AcDbEntity
  8
_U+30EC_U+30A4_U+30E4_U+30FC 1
 62
   179
420
  2234388
370
     9
100
AcDbVertex
100
AcDb2dVertex
 10
71.61388887098542
 20
-137.9116635766335
 30
0.0
  0
SEQEND
  5
BC
330
B9
100
AcDbEntity
  8
_U+30EC_U+30A4_U+30E4_U+30FC 1
 62
   179
420
  2234388
370
     9
  0
POLYLINE
  5
BD
330
1F
100
AcDbEntity
  8
_U+30EC_U+30A4_U+30E4_U+30FC 1
 62
   179
420
  2234388
370
     9
100
AcDb2dPolyline
 66
     1
 10
0.0
 20
0.0
 30
0.0
  0
VERTEX
  5
BE
330
BD
100
AcDbEntity
  8
_U+30EC_U+30A4_U+30E4_U+30FC 1
 62
   179
420
  2234388
370
     9
100
AcDbVertex
100
AcDb2dVertex
 10
73.07392841350655
 20
-123.9114658023555
 30
0.0
  0
VERTEX
  5
BF
330
BD
100
AcDbEntity
  8
_U+30EC_U+30A4_U+30E4_U+30FC 1
 62
   179
420
  2234388
370
     9
100
AcDbVertex
100
AcDb2dVertex
 10
70.61393847626613
 20
-123.9114658023555
 30
0.0
  0
SEQEND
  5
C0
330
BD
100
AcDbEntity
  8
_U+30EC_U+30A4_U+30E4_U+30FC 1
 62
   179
420
  2234388
370
     9
  0
POLYLINE
  5
C1
330
1F
100
AcDbEntity
  8
_U+30EC_U+30A4_U+30E4_U+30FC 1
 62
   179
420
  2234388
370
     9
100
AcDb2dPolyline
 66
     1
 10
0.0
 20
0.0
 30
0.0
  0
VERTEX
  5
C2
330
C1
100
AcDbEntity
  8
_U+30EC_U+30A4_U+30E4_U+30FC 1
 62
   179
420
  2234388
370
     9
100
AcDbVertex
100
AcDb2dVertex
 10
73.07392841350655
 20
-137.9116635766335
 30
0.0
  0
VERTEX
  5
C3
330
C1
100
AcDbEntity
  8
_U+30EC_U+30A4_U+30E4_U+30FC 1
 62
   179
420
  2234388
370
     9
100
AcDbVertex
100
AcDb2dVertex
 10
70.61393847626613
 20
-137.9116635766335
 30
0.0
  0
SEQEND
  5
C4
330
C1
100
AcDbEntity
  8
_U+30EC_U+30A4_U+30E4_U+30FC 1
 62
   179
420
  2234388
370
     9
  0
INSERT
  5
C6
330
1F
100
AcDbEntity
  8
_U+30EC_U+30A4_U+30E4_U+30FC 1
100
AcDbBlockReference
  2
block 4
 10
0.0
 20
0.0
 30
0.0
  0
POLYLINE
  5
E0
330
1F
100
AcDbEntity
  8
_U+30EC_U+30A4_U+30E4_U+30FC 1
 62
   179
420
  2234388
370
     9
100
AcDb2dPolyline
 66
     1
 10
0.0
 20
0.0
 30
0.0
  0
VERTEX
  5
E1
330
E0
100
AcDbEntity
  8
_U+30EC_U+30A4_U+30E4_U+30FC 1
 62
   179
420
  2234388
370
     9
100
AcDbVertex
100
AcDb2dVertex
 10
113.1538249717116
 20
-123.9114658023555
 30
0.0
  0
VERTEX
  5
E2
330
E0
100
AcDbEntity
  8
_U+30EC_U+30A4_U+30E4_U+30FC 1
 62
   179
420
  2234388
370
     9
100
AcDbVertex
100
AcDb2dVertex
 10
115.6139531615534
 20
-123.9114658023555
 30
0.0
  0
SEQEND
  5
E3
330
E0
100
AcDbEntity
  8
_U+30EC_U+30A4_U+30E4_U+30FC 1
 62
   179
420
  2234388
370
     9
  0
POLYLINE
  5
E4
330
1F
100
AcDbEntity
  8
_U+30EC_U+30A4_U+30E4_U+30FC 1
 62
   179
420
  2234388
370
     9
100
AcDb2dPolyline
 66
     1
 10
0.0
 20
0.0
 30
0.0
  0
VERTEX
  5
E5
330
E4
100
AcDbEntity
  8
_U+30EC_U+30A4_U+30E4_U+30FC 1
 62
   179
420
  2234388
370
     9
100
AcDbVertex
100
AcDb2dVertex
 10
113.1538249717116
 20
-124.9115908021055
 30
0.0
  0
VERTEX
  5
E6
330
E4
100
AcDbEntity
  8
_U+30EC_U+30A4_U+30E4_U+30FC 1
 62
   179
420
  2234388
370
     9
100
AcDbVertex
100
AcDb2dVertex
 10
115.6139531615534
 20
-124.9115908021055
 30
0.0
  0
SEQEND
  5
E7
330
E4
100
AcDbEntity
  8
_U+30EC_U+30A4_U+30E4_U+30FC 1
 62
   179
420
  2234388
370
     9
  0
INSERT
  5
E9
330
1F
100
AcDbEntity
  8
_U+30EC_U+30A4_U+30E4_U+30FC 1
100
AcDbBlockReference
  2
block 5
 10
0.0
 20
0.0
 30
0.0
  0
POLYLINE
  5
EE
330
1F
100
AcDbEntity
  8
_U+30EC_U+30A4_U+30E4_U+30FC 1
 62
   179
420
  2234388
370
     9
100
AcDb2dPolyline
 66
     1
 10
0.0
 20
0.0
 30
0.0
  0
VERTEX
  5
EF
330
EE
100
AcDbEntity
  8
_U+30EC_U+30A4_U+30E4_U+30FC 1
 62
   179
420
  2234388
370
     9
100
AcDbVertex
100
AcDb2dVertex
 10
97.65400167530552
 20
-134.9116766329385
 30
0.0
  0
VERTEX
  5
F0
330
EE
100
AcDbEntity
  8
_U+30EC_U+30A4_U+30E4_U+30FC 1
 62
   179
420
  2234388
370
     9
100
AcDbVertex
100
AcDb2dVertex
 10
115.6139531615534
 20
-134.9116766329385
 30
0.0
  0
SEQEND
  5
F1
330
EE
100
AcDbEntity
  8
_U+30EC_U+30A4_U+30E4_U+30FC 1
 62
   179
420
  2234388
370
     9
  0
INSERT
  5
F3
330
1F
100
AcDbEntity
  8
_U+30EC_U+30A4_U+30E4_U+30FC 1
100
AcDbBlockReference
  2
block 6
 10
0.0
 20
0.0
 30
0.0
  0
POLYLINE
  5
FB
330
1F
100
AcDbEntity
  8
_U+30EC_U+30A4_U+30E4_U+30FC 1
 62
   179
420
  2234388
370
     9
100
AcDb2dPolyline
 66
     1
 10
0.0
 20
0.0
 30
0.0
  0
VERTEX
  5
FC
330
FB
100
AcDbEntity
  8
_U+30EC_U+30A4_U+30E4_U+30FC 1
 62
   179
420
  2234388
370
     9
100
AcDbVertex
100
AcDb2dVertex
 10
97.15376279917879
 20
-137.9116635766335
 30
0.0
  0
VERTEX
  5
FD
330
FB
100
AcDbEntity
  8
_U+30EC_U+30A4_U+30E4_U+30FC 1
 62
   179
420
  2234388
370
     9
100
AcDbVertex
100
AcDb2dVertex
 10
115.6139531615534
 20
-137.9116635766335
 30
0.0
  0
SEQEND
  5
FE
330
FB
100
AcDbEntity
  8
_U+30EC_U+30A4_U+30E4_U+30FC 1
 62
   179
420
  2234388
370
     9
  0
INSERT
  5
100
330
1F
100
AcDbEntity
  8
_U+30EC_U+30A4_U+30E4_U+30FC 1
100
AcDbBlockReference
  2
block 7
 10
0.0
 20
0.0
 30
0.0
  0
ENDSEC
  0
SECTION
  2
OBJECTS
  0
DICTIONARY
  5
C
330
0
100
AcDbDictionary
281
     1
  3
ACAD_GROUP
350
D
  3
ACAD_LAYOUT
350
1A
  3
ACAD_MATERIAL
350
3B
  3
ACAD_MLEADERSTYLE
350
106
  3
ACAD_MLINESTYLE
350
17
  3
ACAD_PLOTSETTINGS
350
19
  3
ACAD_PLOTSTYLENAME
350
E
  3
ACAD_TABLESTYLE
350
105
  3
ACAD_VISUALSTYLE
350
2A
  0
SUN
  5
3F
330
29
100
AcDbSun
 90
        1
290
     0
 63
     7
421
 16777215
 40
1.0
291
     1
 91
  2455826
 92
 54000000
292
     0
 70
     2
 71
   256
280
     1
  0
DICTIONARY
  5
D
102
{ACAD_REACTORS
330
C
102
}
330
C
100
AcDbDictionary
281
     1
  0
DICTIONARY
  5
1A
102
{ACAD_REACTORS
330
C
102
}
330
C
100
AcDbDictionary
281
     1
  3
Layout1
350
1E
  3
Layout2
350
26
  3
Model
350
22
  0
DICTIONARY
  5
3B
102
{ACAD_REACTORS
330
C
102
}
330
C
100
AcDbDictionary
281
     1
  3
ByBlock
350
3D
  3
ByLayer
350
3C
  3
Global
350
3E
  0
DICTIONARY
  5
106
102
{ACAD_REACTORS
330
C
102
}
330
C
100
AcDbDictionary
281
     1
  0
DICTIONARY
  5
17
102
{ACAD_REACTORS
330
C
102
}
330
C
100
AcDbDictionary
281
     1
  3
Standard
350
18
  0
DICTIONARY
  5
19
102
{ACAD_REACTORS
330
C
102
}
330
C
100
AcDbDictionary
281
     1
  0
ACDBDICTIONARYWDFLT
  5
E
102
{ACAD_REACTORS
330
C
102
}
330
C
100
AcDbDictionary
281
     1
  3
Normal
350
F
100
AcDbDictionaryWithDefault
340
F
  0
DICTIONARY
  5
105
102
{ACAD_REACTORS
330
C
102
}
330
C
100
AcDbDictionary
281
     1
  0
DICTIONARY
  5
2A
102
{ACAD_REACTORS
330
C
102
}
330
C
100
AcDbDictionary
281
     1
  3
2dWireframe
350
2F
  3
3D Hidden
350
31
  3
3dWireframe
350
30
  3
Basic
350
32
  3
Brighten
350
36
  3
ColorChange
350
3A
  3
Conceptual
350
34
  3
Dim
350
35
  3
Facepattern
350
39
  3
Flat
350
2B
  3
FlatWithEdges
350
2C
  3
Gouraud
350
2D
  3
GouraudWithEdges
350
2E
  3
Linepattern
350
38
  3
Realistic
350
33
  3
Thicken
350
37
  0
LAYOUT
  5
1E
102
{ACAD_REACTORS
330
1A
102
}
330
1A
100
AcDbPlotSettings
  1

  2
none_device
  4

  6

 40
0.0
 41
0.0
 42
0.0
 43
0.0
 44
0.0
 45
0.0
 46
0.0
 47
0.0
 48
0.0
 49
0.0
140
0.0
141
0.0
142
1.0
143
1.0
 70
   688
 72
     0
 73
     0
 74
     5
  7

 75
    16
 76
     0
 77
     2
 78
   300
147
1.0
148
0.0
149
0.0
100
AcDbLayout
  1
Layout1
 70
     1
 71
     1
 10
0.0
 20
0.0
 11
12.0
 21
9.0
 12
0.0
 22
0.0
 32
0.0
 14
1.000000000000000E+20
 24
1.000000000000000E+20
 34
1.000000000000000E+20
 15
-1.000000000000000E+20
 25
-1.000000000000000E+20
 35
-1.000000000000000E+20
146
0.0
 13
0.0
 23
0.0
 33
0.0
 16
1.0
 26
0.0
 36
0.0
 17
0.0
 27
1.0
 37
0.0
 76
     0
330
1B
  0
LAYOUT
  5
26
102
{ACAD_REACTORS
330
1A
102
}
330
1A
100
AcDbPlotSettings
  1

  2
none_device
  4

  6

 40
0.0
 41
0.0
 42
0.0
 43
0.0
 44
0.0
 45
0.0
 46
0.0
 47
0.0
 48
0.0
 49
0.0
140
0.0
141
0.0
142
1.0
143
1.0
 70
   688
 72
     0
 73
     0
 74
     5
  7

 75
    16
 76
     0
 77
     2
 78
   300
147
1.0
148
0.0
149
0.0
100
AcDbLayout
  1
Layout2
 70
     1
 71
     2
 10
0.0
 20
0.0
 11
0.0
 21
0.0
 12
0.0
 22
0.0
 32
0.0
 14
0.0
 24
0.0
 34
0.0
 15
0.0
 25
0.0
 35
0.0
146
0.0
 13
0.0
 23
0.0
 33
0.0
 16
1.0
 26
0.0
 36
0.0
 17
0.0
 27
1.0
 37
0.0
 76
     0
330
23
  0
LAYOUT
  5
22
102
{ACAD_REACTORS
330
1A
102
}
330
1A
100
AcDbPlotSettings
  1

  2
none_device
  4

  6

 40
0.0
 41
0.0
 42
0.0
 43
0.0
 44
0.0
 45
0.0
 46
0.0
 47
0.0
 48
0.0
 49
0.0
140
0.0
141
0.0
142
1.0
143
1.0
 70
  1712
 72
     0
 73
     0
 74
     0
  7

 75
     0
 76
     0
 77
     2
 78
   300
147
1.0
148
0.0
149
0.0
100
AcDbLayout
  1
Model
 70
     1
 71
     0
 10
0.0
 20
0.0
 11
12.0
 21
9.0
 12
0.0
 22
0.0
 32
0.0
 14
1.000000000000000E+20
 24
1.000000000000000E+20
 34
1.000000000000000E+20
 15
-1.000000000000000E+20
 25
-1.000000000000000E+20
 35
-1.000000000000000E+20
146
0.0
 13
0.0
 23
0.0
 33
0.0
 16
1.0
 26
0.0
 36
0.0
 17
0.0
 27
1.0
 37
0.0
 76
     0
330
1F
331
29
  0
MATERIAL
  5
3D
102
{ACAD_REACTORS
330
3B
102
}
330
3B
100
AcDbMaterial
  1
ByBlock
 72
     1
 94
      127
  0
MATERIAL
  5
3C
102
{ACAD_REACTORS
330
3B
102
}
330
3B
100
AcDbMaterial
  1
ByLayer
 72
     1
 94
      127
  0
MATERIAL
  5
3E
102
{ACAD_REACTORS
330
3B
102
}
330
3B
100
AcDbMaterial
  1
Global
 72
     1
 94
      127
  0
MLINESTYLE
  5
18
102
{ACAD_REACTORS
330
17
102
}
330
17
100
AcDbMlineStyle
  2
Standard
 70
     0
  3

 62
   256
 51
90.0
 52
90.0
 71
     2
 49
0.5
 62
   256
  6
BYLAYER
 49
-0.5
 62
   256
  6
BYLAYER
  0
ACDBPLACEHOLDER
  5
F
102
{ACAD_REACTORS
330
E
102
}
330
E
  0
VISUALSTYLE
  5
2F
102
{ACAD_REACTORS
330
2A
102
}
330
2A
100
AcDbVisualStyle
  2
2dWireframe
 70
     4
177
     2
291
     0
 71
     0
176
     1
 72
     2
176
     1
 73
     0
176
     1
 90
        0
176
     1
 40
-0.6
176
     1
 41
-30.0
176
     1
 62
     5
 63
     7
421
 16777215
176
     1
 74
     1
176
     1
 91
        4
176
     1
 64
     7
176
     1
 65
   257
176
     1
 75
     1
176
     1
175
     1
176
     1
 42
1.0
176
     1
 92
        0
176
     1
 66
   257
176
     1
 43
1.0
176
     1
 76
     1
176
     1
 77
     6
176
     1
 78
     2
176
     1
 67
     7
176
     1
 79
     5
176
     1
170
     0
176
     1
171
     0
176
     1
290
     0
176
     1
 93
        1
176
     1
 44
0.0
176
     1
173
     0
176
     1
  0
VISUALSTYLE
  5
31
102
{ACAD_REACTORS
330
2A
102
}
330
2A
100
AcDbVisualStyle
  2
3D Hidden
 70
     6
177
     2
291
     0
 71
     1
176
     1
 72
     2
176
     1
 73
     2
176
     1
 90
        0
176
     1
 40
-0.6
176
     1
 41
-30.0
176
     1
 62
     5
 63
     7
421
 16777215
176
     1
 74
     2
176
     1
 91
        2
176
     1
 64
     7
176
     1
 65
   257
176
     1
 75
     2
176
     1
175
     1
176
     1
 42
40.0
176
     1
 92
        0
176
     1
 66
   257
176
     1
 43
1.0
176
     1
 76
     1
176
     1
 77
     6
176
     1
 78
     2
176
     1
 67
     7
176
     1
 79
     3
176
     1
170
     0
176
     1
171
     0
176
     1
290
     0
176
     1
 93
        1
176
     1
 44
0.0
176
     1
173
     0
176
     1
  0
VISUALSTYLE
  5
30
102
{ACAD_REACTORS
330
2A
102
}
330
2A
100
AcDbVisualStyle
  2
3dWireframe
 70
     5
177
     2
291
     0
 71
     0
176
     1
 72
     2
176
     1
 73
     0
176
     1
 90
        0
176
     1
 40
-0.6
176
     1
 41
-30.0
176
     1
 62
     5
 63
     7
421
 16777215
176
     1
 74
     1
176
     1
 91
        4
176
     1
 64
     7
176
     1
 65
   257
176
     1
 75
     1
176
     1
175
     1
176
     1
 42
1.0
176
     1
 92
        0
176
     1
 66
   257
176
     1
 43
1.0
176
     1
 76
     1
176
     1
 77
     6
176
     1
 78
     2
176
     1
 67
     7
176
     1
 79
     5
176
     1
170
     0
176
     1
171
     0
176
     1
290
     0
176
     1
 93
        1
176
     1
 44
0.0
176
     1
173
     0
176
     1
  0
VISUALSTYLE
  5
32
102
{ACAD_REACTORS
330
2A
102
}
330
2A
100
AcDbVisualStyle
  2
Basic
 70
     7
177
     2
291
     1
 71
     1
176
     1
 72
     0
176
     1
 73
     1
176
     1
 90
        0
176
     1
 40
-0.6
176
     1
 41
-30.0
176
     1
 62
     5
 63
     7
421
 16777215
176
     1
 74
     0
176
     1
 91
        4
176
     1
 64
     7
176
     1
 65
   257
176
     1
 75
     1
176
     1
175
     1
176
     1
 42
1.0
176
     1
 92
        8
176
     1
 66
     7
176
     1
 43
1.0
176
     1
 76
     1
176
     1
 77
     6
176
     1
 78
     2
176
     1
 67
     7
176
     1
 79
     5
176
     1
170
     0
176
     1
171
     0
176
     1
290
     0
176
     1
 93
        1
176
     1
 44
0.0
176
     1
173
     0
176
     1
  0
VISUALSTYLE
  5
36
102
{ACAD_REACTORS
330
2A
102
}
330
2A
100
AcDbVisualStyle
  2
Brighten
 70
    12
177
     2
291
     1
 71
     2
176
     1
 72
     2
176
     1
 73
     0
176
     1
 90
        0
176
     1
 40
-0.6
176
     1
 41
-30.0
176
     1
 62
     5
 63
     7
421
 16777215
176
     1
 74
     1
176
     1
 91
        4
176
     1
 64
     7
176
     1
 65
   257
176
     1
 75
     1
176
     1
175
     1
176
     1
 42
1.0
176
     1
 92
        8
176
     1
 66
     7
176
     1
 43
1.0
176
     1
 76
     1
176
     1
 77
     6
176
     1
 78
     2
176
     1
 67
     7
176
     1
 79
     5
176
     1
170
     0
176
     1
171
     0
176
     1
290
     0
176
     1
 93
        1
176
     1
 44
50.0
176
     1
173
     0
176
     1
  0
VISUALSTYLE
  5
3A
102
{ACAD_REACTORS
330
2A
102
}
330
2A
100
AcDbVisualStyle
  2
ColorChange
 70
    16
177
     2
291
     1
 71
     2
176
     1
 72
     2
176
     1
 73
     3
176
     1
 90
        0
176
     1
 40
-0.6
176
     1
 41
-30.0
176
     1
 62
     5
 63
     8
421
  8421504
176
     1
 74
     1
176
     1
 91
        4
176
     1
 64
     7
176
     1
 65
   257
176
     1
 75
     1
176
     1
175
     1
176
     1
 42
1.0
176
     1
 92
        8
176
     1
 66
     8
424
  8421504
176
     1
 43
1.0
176
     1
 76
     1
176
     1
 77
     6
176
     1
 78
     2
176
     1
 67
     7
176
     1
 79
     5
176
     1
170
     0
176
     1
171
     0
176
     1
290
     0
176
     1
 93
        1
176
     1
 44
0.0
176
     1
173
     0
176
     1
  0
VISUALSTYLE
  5
34
102
{ACAD_REACTORS
330
2A
102
}
330
2A
100
AcDbVisualStyle
  2
Conceptual
 70
     9
177
     2
291
     0
 71
     3
176
     1
 72
     2
176
     1
 73
     0
176
     1
 90
        0
176
     1
 40
-0.6
176
     1
 41
-30.0
176
     1
 62
     5
 63
     7
421
 16777215
176
     1
 74
     2
176
     1
 91
        2
176
     1
 64
     7
176
     1
 65
   257
176
     1
 75
     1
176
     1
175
     1
176
     1
 42
40.0
176
     1
 92
        8
176
     1
 66
     7
176
     1
 43
1.0
176
     1
 76
     1
176
     1
 77
     6
176
     1
 78
     2
176
     1
 67
     7
176
     1
 79
     3
176
     1
170
     0
176
     1
171
     0
176
     1
290
     0
176
     1
 93
        1
176
     1
 44
0.0
176
     1
173
     0
176
     1
  0
VISUALSTYLE
  5
35
102
{ACAD_REACTORS
330
2A
102
}
330
2A
100
AcDbVisualStyle
  2
Dim
 70
    11
177
     2
291
     1
 71
     2
176
     1
 72
     2
176
     1
 73
     0
176
     1
 90
        0
176
     1
 40
-0.6
176
     1
 41
-30.0
176
     1
 62
     5
 63
     7
421
 16777215
176
     1
 74
     1
176
     1
 91
        4
176
     1
 64
     7
176
     1
 65
   257
176
     1
 75
     1
176
     1
175
     1
176
     1
 42
1.0
176
     1
 92
        8
176
     1
 66
     7
176
     1
 43
1.0
176
     1
 76
     1
176
     1
 77
     6
176
     1
 78
     2
176
     1
 67
     7
176
     1
 79
     5
176
     1
170
     0
176
     1
171
     0
176
     1
290
     0
176
     1
 93
        1
176
     1
 44
-50.0
176
     1
173
     0
176
     1
  0
VISUALSTYLE
  5
39
102
{ACAD_REACTORS
330
2A
102
}
330
2A
100
AcDbVisualStyle
  2
Facepattern
 70
    15
177
     2
291
     1
 71
     2
176
     1
 72
     2
176
     1
 73
     0
176
     1
 90
        0
176
     1
 40
-0.6
176
     1
 41
-30.0
176
     1
 62
     5
 63
     7
421
 16777215
176
     1
 74
     1
176
     1
 91
        4
176
     1
 64
     7
176
     1
 65
   257
176
     1
 75
     1
176
     1
175
     1
176
     1
 42
1.0
176
     1
 92
        8
176
     1
 66
     7
176
     1
 43
1.0
176
     1
 76
     1
176
     1
 77
     6
176
     1
 78
     2
176
     1
 67
     7
176
     1
 79
     5
176
     1
170
     0
176
     1
171
     0
176
     1
290
     0
176
     1
 93
        1
176
     1
 44
0.0
176
     1
173
     0
176
     1
  0
VISUALSTYLE
  5
2B
102
{ACAD_REACTORS
330
2A
102
}
330
2A
100
AcDbVisualStyle
  2
Flat
 70
     0
177
     2
291
     1
 71
     2
176
     1
 72
     1
176
     1
 73
     1
176
     1
 90
        2
176
     1
 40
-0.6
176
     1
 41
30.0
176
     1
 62
     5
 63
     7
421
 16777215
176
     1
 74
     0
176
     1
 91
        4
176
     1
 64
     7
176
     1
 65
   257
176
     1
 75
     1
176
     1
175
     1
176
     1
 42
1.0
176
     1
 92
        8
176
     1
 66
     7
176
     1
 43
1.0
176
     1
 76
     1
176
     1
 77
     6
176
     1
 78
     2
176
     1
 67
     7
176
     1
 79
     5
176
     1
170
     0
176
     1
171
     0
176
     1
290
     0
176
     1
 93
       13
176
     1
 44
0.0
176
     1
173
     0
176
     1
  0
VISUALSTYLE
  5
2C
102
{ACAD_REACTORS
330
2A
102
}
330
2A
100
AcDbVisualStyle
  2
FlatWithEdges
 70
     1
177
     2
291
     1
 71
     2
176
     1
 72
     1
176
     1
 73
     1
176
     1
 90
        2
176
     1
 40
-0.6
176
     1
 41
30.0
176
     1
 62
     5
 63
     7
421
 16777215
176
     1
 74
     1
176
     1
 91
        4
176
     1
 64
     7
176
     1
 65
   257
176
     1
 75
     1
176
     1
175
     1
176
     1
 42
1.0
176
     1
 92
        0
176
     1
 66
   257
176
     1
 43
1.0
176
     1
 76
     1
176
     1
 77
     6
176
     1
 78
     2
176
     1
 67
     7
176
     1
 79
     5
176
     1
170
     0
176
     1
171
     0
176
     1
290
     0
176
     1
 93
       13
176
     1
 44
0.0
176
     1
173
     0
176
     1
  0
VISUALSTYLE
  5
2D
102
{ACAD_REACTORS
330
2A
102
}
330
2A
100
AcDbVisualStyle
  2
Gouraud
 70
     2
177
     2
291
     1
 71
     2
176
     1
 72
     2
176
     1
 73
     1
176
     1
 90
        2
176
     1
 40
-0.6
176
     1
 41
30.0
176
     1
 62
     5
 63
     7
421
 16777215
176
     1
 74
     0
176
     1
 91
        4
176
     1
 64
     7
176
     1
 65
   257
176
     1
 75
     1
176
     1
175
     1
176
     1
 42
1.0
176
     1
 92
        0
176
     1
 66
     7
176
     1
 43
1.0
176
     1
 76
     1
176
     1
 77
     6
176
     1
 78
     2
176
     1
 67
     7
176
     1
 79
     5
176
     1
170
     0
176
     1
171
     0
176
     1
290
     0
176
     1
 93
       13
176
     1
 44
0.0
176
     1
173
     0
176
     1
  0
VISUALSTYLE
  5
2E
102
{ACAD_REACTORS
330
2A
102
}
330
2A
100
AcDbVisualStyle
  2
GouraudWithEdges
 70
     3
177
     2
291
     1
 71
     2
176
     1
 72
     2
176
     1
 73
     1
176
     1
 90
        2
176
     1
 40
-0.6
176
     1
 41
30.0
176
     1
 62
     5
 63
     7
421
 16777215
176
     1
 74
     1
176
     1
 91
        4
176
     1
 64
     7
176
     1
 65
   257
176
     1
 75
     1
176
     1
175
     1
176
     1
 42
1.0
176
     1
 92
        0
176
     1
 66
   257
176
     1
 43
1.0
176
     1
 76
     1
176
     1
 77
     6
176
     1
 78
     2
176
     1
 67
     7
176
     1
 79
     5
176
     1
170
     0
176
     1
171
     0
176
     1
290
     0
176
     1
 93
       13
176
     1
 44
0.0
176
     1
173
     0
176
     1
  0
VISUALSTYLE
  5
38
102
{ACAD_REACTORS
330
2A
102
}
330
2A
100
AcDbVisualStyle
  2
Linepattern
 70
    14
177
     2
291
     1
 71
     2
176
     1
 72
     2
176
     1
 73
     0
176
     1
 90
        0
176
     1
 40
-0.6
176
     1
 41
-30.0
176
     1
 62
     5
 63
     7
421
 16777215
176
     1
 74
     1
176
     1
 91
        4
176
     1
 64
     7
176
     1
 65
   257
176
     1
 75
     7
176
     1
175
     7
176
     1
 42
1.0
176
     1
 92
        8
176
     1
 66
     7
176
     1
 43
1.0
176
     1
 76
     1
176
     1
 77
     6
176
     1
 78
     2
176
     1
 67
     7
176
     1
 79
     5
176
     1
170
     0
176
     1
171
     0
176
     1
290
     0
176
     1
 93
        1
176
     1
 44
0.0
176
     1
173
     0
176
     1
  0
VISUALSTYLE
  5
33
102
{ACAD_REACTORS
330
2A
102
}
330
2A
100
AcDbVisualStyle
  2
Realistic
 70
     8
177
     2
291
     0
 71
     2
176
     1
 72
     2
176
     1
 73
     0
176
     1
 90
        0
176
     1
 40
-0.6
176
     1
 41
-30.0
176
     1
 62
     5
 63
     7
421
 16777215
176
     1
 74
     1
176
     1
 91
        0
176
     1
 64
     7
176
     1
 65
   257
176
     1
 75
     1
176
     1
175
     1
176
     1
 42
1.0
176
     1
 92
        8
176
     1
 66
     8
424
  7895160
176
     1
 43
1.0
176
     1
 76
     1
176
     1
 77
     6
176
     1
 78
     2
176
     1
 67
     7
176
     1
 79
     5
176
     1
170
     0
176
     1
171
     0
176
     1
290
     0
176
     1
 93
       13
176
     1
 44
0.0
176
     1
173
     0
176
     1
  0
VISUALSTYLE
  5
37
102
{ACAD_REACTORS
330
2A
102
}
330
2A
100
AcDbVisualStyle
  2
Thicken
 70
    13
177
     2
291
     1
 71
     2
176
     1
 72
     2
176
     1
 73
     0
176
     1
 90
        0
176
     1
 40
-0.6
176
     1
 41
-30.0
176
     1
 62
     5
 63
     7
421
 16777215
176
     1
 74
     1
176
     1
 91
        4
176
     1
 64
     7
176
     1
 65
   257
176
     1
 75
     1
176
     1
175
     1
176
     1
 42
1.0
176
     1
 92
       12
176
     1
 66
     7
176
     1
 43
1.0
176
     1
 76
     1
176
     1
 77
     6
176
     1
 78
     2
176
     1
 67
     7
176
     1
 79
     5
176
     1
170
     0
176
     1
171
     0
176
     1
290
     0
176
     1
 93
        1
176
     1
 44
0.0
176
     1
173
     0
176
     1
  0
ENDSEC
  0
EOF
