  0
SECTION
  2
HEADER
  9
$ACADVER
  1
AC1024
  9
$ACADMAINTVER
 70
     6
  9
$DWGCODEPAGE
  3
UNDEFINED
  9
$INSBASE
 10
0.0
 20
0.0
 30
0.0
  9
$EXTMIN
 10
1.000000000000000E+20
 20
1.000000000000000E+20
 30
1.000000000000000E+20
  9
$EXTMAX
 10
-1.000000000000000E+20
 20
-1.000000000000000E+20
 30
-1.000000000000000E+20
  9
$LIMMIN
 10
0.0
 20
0.0
  9
$LIMMAX
 10
12.0
 20
9.0
  9
$ORTHOMODE
 70
     0
  9
$REGENMODE
 70
     1
  9
$FILLMODE
 70
     1
  9
$QTEXTMODE
 70
     0
  9
$MIRRTEXT
 70
     1
  9
$LTSCALE
 40
1.0
  9
$ATTMODE
 70
     1
  9
$TEXTSIZE
 40
0.2
  9
$TRACEWID
 40
0.05
  9
$TEXTSTYLE
  7
Standard
  9
$CLAYER
  8
0
  9
$CELTYPE
  6
ByLayer
  9
$CECOLOR
 62
   256
  9
$CELTSCALE
 40
1.0
  9
$DISPSILH
 70
     0
  9
$DIMSCALE
 40
1.0
  9
$DIMASZ
 40
0.18
  9
$DIMEXO
 40
0.0625
  9
$DIMDLI
 40
0.38
  9
$DIMRND
 40
0.0
  9
$DIMDLE
 40
0.0
  9
$DIMEXE
 40
0.18
  9
$DIMTP
 40
0.0
  9
$DIMTM
 40
0.0
  9
$DIMTXT
 40
0.18
  9
$DIMCEN
 40
0.09
  9
$DIMTSZ
 40
0.0
  9
$DIMTOL
 70
     0
  9
$DIMLIM
 70
     0
  9
$DIMTIH
 70
     1
  9
$DIMTOH
 70
     1
  9
$DIMSE1
 70
     0
  9
$DIMSE2
 70
     0
  9
$DIMTAD
 70
     0
  9
$DIMZIN
 70
     0
  9
$DIMBLK
  1

  9
$DIMASO
 70
     1
  9
$DIMSHO
 70
     1
  9
$DIMPOST
  1

  9
$DIMAPOST
  1

  9
$DIMALT
 70
     0
  9
$DIMALTD
 70
     2
  9
$DIMALTF
 40
25.4
  9
$DIMLFAC
 40
1.0
  9
$DIMTOFL
 70
     0
  9
$DIMTVP
 40
0.0
  9
$DIMTIX
 70
     0
  9
$DIMSOXD
 70
     0
  9
$DIMSAH
 70
     0
  9
$DIMBLK1
  1

  9
$DIMBLK2
  1

  9
$DIMSTYLE
  2
Standard
  9
$DIMCLRD
 70
     0
  9
$DIMCLRE
 70
     0
  9
$DIMCLRT
 70
     0
  9
$DIMTFAC
 40
1.0
  9
$DIMGAP
 40
0.09
  9
$DIMJUST
 70
     0
  9
$DIMSD1
 70
     0
  9
$DIMSD2
 70
     0
  9
$DIMTOLJ
 70
     1
  9
$DIMTZIN
 70
     0
  9
$DIMALTZ
 70
     0
  9
$DIMALTTZ
 70
     0
  9
$DIMUPT
 70
     0
  9
$DIMDEC
 70
     4
  9
$DIMTDEC
 70
     4
  9
$DIMALTU
 70
     2
  9
$DIMALTTD
 70
     2
  9
$DIMTXSTY
  7
Standard
  9
$DIMAUNIT
 70
     0
  9
$DIMADEC
 70
     0
  9
$DIMALTRND
 40
0.0
  9
$DIMAZIN
 70
     0
  9
$DIMDSEP
 70
    46
  9
$DIMATFIT
 70
     3
  9
$DIMFRAC
 70
     0
  9
$DIMLDRBLK
  1

  9
$DIMLUNIT
 70
     2
  9
$DIMLWD
 70
    -2
  9
$DIMLWE
 70
    -2
  9
$DIMTMOVE
 70
     0
  9
$DIMFXL
 40
1.0
  9
$DIMFXLON
 70
     0
  9
$DIMJOGANG
 40
0.7853981633974483
  9
$DIMTFILL
 70
     0
  9
$DIMTFILLCLR
 70
     0
  9
$DIMARCSYM
 70
     0
  9
$DIMLTYPE
  6

  9
$DIMLTEX1
  6

  9
$DIMLTEX2
  6

  9
$DIMTXTDIRECTION
 70
     0
  9
$LUNITS
 70
     2
  9
$LUPREC
 70
     4
  9
$SKETCHINC
 40
0.1
  9
$FILLETRAD
 40
0.5
  9
$AUNITS
 70
     0
  9
$AUPREC
 70
     0
  9
$MENU
  1
.
  9
$ELEVATION
 40
0.0
  9
$PELEVATION
 40
0.0
  9
$THICKNESS
 40
0.0
  9
$LIMCHECK
 70
     0
  9
$CHAMFERA
 40
0.5
  9
$CHAMFERB
 40
0.5
  9
$CHAMFERC
 40
1.0
  9
$CHAMFERD
 40
0.0
  9
$SKPOLY
 70
     0
  9
$TDCREATE
 40
2457917.607893519
  9
$TDUCREATE
 40
2457917.232893519
  9
$TDUPDATE
 40
2457917.607893519
  9
$TDUUPDATE
 40
2457917.232893519
  9
$TDINDWG
 40
0.0000000116
  9
$TDUSRTIMER
 40
0.0000000116
  9
$USRTIMER
 70
     1
  9
$ANGBASE
 50
0.0
  9
$ANGDIR
 70
     0
  9
$PDMODE
 70
     0
  9
$PDSIZE
 40
0.0
  9
$PLINEWID
 40
0.0
  9
$SPLFRAME
 70
     0
  9
$SPLINETYPE
 70
     6
  9
$SPLINESEGS
 70
     8
  9
$HANDSEED
  5
1D6
  9
$SURFTAB1
 70
     6
  9
$SURFTAB2
 70
     6
  9
$SURFTYPE
 70
     6
  9
$SURFU
 70
     6
  9
$SURFV
 70
     6
  9
$UCSBASE
  2

  9
$UCSNAME
  2

  9
$UCSORG
 10
0.0
 20
0.0
 30
0.0
  9
$UCSXDIR
 10
1.0
 20
0.0
 30
0.0
  9
$UCSYDIR
 10
0.0
 20
1.0
 30
0.0
  9
$UCSORTHOREF
  2

  9
$UCSORTHOVIEW
 70
     0
  9
$UCSORGTOP
 10
0.0
 20
0.0
 30
0.0
  9
$UCSORGBOTTOM
 10
0.0
 20
0.0
 30
0.0
  9
$UCSORGLEFT
 10
0.0
 20
0.0
 30
0.0
  9
$UCSORGRIGHT
 10
0.0
 20
0.0
 30
0.0
  9
$UCSORGFRONT
 10
0.0
 20
0.0
 30
0.0
  9
$UCSORGBACK
 10
0.0
 20
0.0
 30
0.0
  9
$PUCSBASE
  2

  9
$PUCSNAME
  2

  9
$PUCSORG
 10
0.0
 20
0.0
 30
0.0
  9
$PUCSXDIR
 10
1.0
 20
0.0
 30
0.0
  9
$PUCSYDIR
 10
0.0
 20
1.0
 30
0.0
  9
$PUCSORTHOREF
  2

  9
$PUCSORTHOVIEW
 70
     0
  9
$PUCSORGTOP
 10
0.0
 20
0.0
 30
0.0
  9
$PUCSORGBOTTOM
 10
0.0
 20
0.0
 30
0.0
  9
$PUCSORGLEFT
 10
0.0
 20
0.0
 30
0.0
  9
$PUCSORGRIGHT
 10
0.0
 20
0.0
 30
0.0
  9
$PUCSORGFRONT
 10
0.0
 20
0.0
 30
0.0
  9
$PUCSORGBACK
 10
0.0
 20
0.0
 30
0.0
  9
$USERI1
 70
     0
  9
$USERI2
 70
     0
  9
$USERI3
 70
     0
  9
$USERI4
 70
     0
  9
$USERI5
 70
     0
  9
$USERR1
 40
0.0
  9
$USERR2
 40
0.0
  9
$USERR3
 40
0.0
  9
$USERR4
 40
0.0
  9
$USERR5
 40
0.0
  9
$WORLDVIEW
 70
     1
  9
$SHADEDGE
 70
     3
  9
$SHADEDIF
 70
    70
  9
$TILEMODE
 70
     1
  9
$MAXACTVP
 70
    64
  9
$PINSBASE
 10
0.0
 20
0.0
 30
0.0
  9
$PLIMCHECK
 70
     0
  9
$PEXTMIN
 10
1.000000000000000E+20
 20
1.000000000000000E+20
 30
1.000000000000000E+20
  9
$PEXTMAX
 10
-1.000000000000000E+20
 20
-1.000000000000000E+20
 30
-1.000000000000000E+20
  9
$PLIMMIN
 10
0.0
 20
0.0
  9
$PLIMMAX
 10
12.0
 20
9.0
  9
$UNITMODE
 70
     0
  9
$VISRETAIN
 70
     1
  9
$PLINEGEN
 70
     0
  9
$PSLTSCALE
 70
     1
  9
$TREEDEPTH
 70
  3020
  9
$CMLSTYLE
  2
Standard
  9
$CMLJUST
 70
     0
  9
$CMLSCALE
 40
1.0
  9
$PROXYGRAPHICS
 70
     1
  9
$MEASUREMENT
 70
     0
  9
$CELWEIGHT
370
    -1
  9
$ENDCAPS
280
     0
  9
$JOINSTYLE
280
     0
  9
$LWDISPLAY
290
     1
  9
$INSUNITS
 70
     1
  9
$HYPERLINKBASE
  1

  9
$STYLESHEET
  1

  9
$XEDIT
290
     1
  9
$CEPSNTYPE
380
     0
  9
$PSTYLEMODE
290
     1
  9
$FINGERPRINTGUID
  2
{731F7EDE-85D1-9A65-04D2-3C7C4E3F72CD}
  9
$VERSIONGUID
  2
{FAEB1C32-E019-11D5-929B-00C0DF256EC4}
  9
$EXTNAMES
290
     1
  9
$PSVPSCALE
 40
0.0
  9
$OLESTARTUP
290
     0
  9
$SORTENTS
280
   127
  9
$INDEXCTL
280
     0
  9
$HIDETEXT
280
     1
  9
$XCLIPFRAME
280
     2
  9
$HALOGAP
280
     0
  9
$OBSCOLOR
 70
   257
  9
$OBSLTYPE
280
     0
  9
$INTERSECTIONDISPLAY
280
     0
  9
$INTERSECTIONCOLOR
 70
   257
  9
$DIMASSOC
280
     2
  9
$PROJECTNAME
  1

  9
$CAMERADISPLAY
290
     0
  9
$LENSLENGTH
 40
50.0
  9
$CAMERAHEIGHT
 40
0.0
  9
$STEPSPERSEC
 40
2.0
  9
$STEPSIZE
 40
6.0
  9
$3DDWFPREC
 40
2.0
  9
$PSOLWIDTH
 40
0.25
  9
$PSOLHEIGHT
 40
4.0
  9
$LOFTANG1
 40
1.570796326794897
  9
$LOFTANG2
 40
1.570796326794897
  9
$LOFTMAG1
 40
0.0
  9
$LOFTMAG2
 40
0.0
  9
$LOFTPARAM
 70
     7
  9
$LOFTNORMALS
280
     1
  9
$LATITUDE
 40
37.795
  9
$LONGITUDE
 40
-122.394
  9
$NORTHDIRECTION
 40
0.0
  9
$TIMEZONE
 70
 -8000
  9
$LIGHTGLYPHDISPLAY
280
     1
  9
$TILEMODELIGHTSYNCH
280
     1
  9
$CMATERIAL
347
3C
  9
$SOLIDHIST
280
     1
  9
$SHOWHIST
280
     1
  9
$DWFFRAME
280
     2
  9
$DGNFRAME
280
     2
  9
$REALWORLDSCALE
290
     1
  9
$INTERFERECOLOR
 62
   256
  9
$CSHADOW
280
     0
  9
$SHADOWPLANELOCATION
 40
0.0
  0
ENDSEC
  0
SECTION
  2
CLASSES
  0
CLASS
  1
ACDBDICTIONARYWDFLT
  2
AcDbDictionaryWithDefault
  3
ObjectDBX Classes
 90
        0
 91
        4
280
     0
281
     0
  0
CLASS
  1
VISUALSTYLE
  2
AcDbVisualStyle
  3
ObjectDBX Classes
 90
     4095
 91
        4
280
     0
281
     0
  0
CLASS
  1
MATERIAL
  2
AcDbMaterial
  3
ObjectDBX Classes
 90
     1153
 91
        4
280
     0
281
     0
  0
CLASS
  1
SUN
  2
AcDbSun
  3
SCENEOE
 90
     1024
 91
        4
280
     0
281
     0
  0
ENDSEC
  0
SECTION
  2
TABLES
  0
TABLE
  2
VPORT
  5
8
330
0
100
AcDbSymbolTable
 70
     1
  0
VPORT
  5
29
330
8
100
AcDbSymbolTableRecord
100
AcDbViewportTableRecord
  2
*Active
 70
     0
 10
0.0
 20
0.0
 11
1.0
 21
1.0
 12
0.0
 22
0.0
 13
0.0
 23
0.0
 14
0.5
 24
0.5
 15
0.5
 25
0.5
 16
0.0
 26
0.0
 36
1.0
 17
91.00082462281999
 27
-128.4993055234307
 37
0.0
 40
256.9986110468615
 41
0.7081814508812795
 42
50.0
 43
0.0
 44
0.0
 50
0.0
 51
0.0
 71
     0
 72
   100
 73
     1
 74
     3
 75
     0
 76
     0
 77
     0
 78
     0
281
     0
 65
     1
110
0.0
120
0.0
130
0.0
111
1.0
121
0.0
131
0.0
112
0.0
122
1.0
132
0.0
 79
     0
146
0.0
 60
     3
 61
     5
292
     1
282
     1
141
0.0
142
0.0
 63
   250
361
3F
  0
ENDTAB
  0
TABLE
  2
LTYPE
  5
5
330
0
100
AcDbSymbolTable
 70
    14
  0
LTYPE
  5
14
330
5
100
AcDbSymbolTableRecord
100
AcDbLinetypeTableRecord
  2
ByBlock
 70
     0
  3

 72
    65
 73
     0
 40
0.0
  0
LTYPE
  5
15
330
5
100
AcDbSymbolTableRecord
100
AcDbLinetypeTableRecord
  2
ByLayer
 70
     0
  3

 72
    65
 73
     0
 40
0.0
  0
LTYPE
  5
16
330
5
100
AcDbSymbolTableRecord
100
AcDbLinetypeTableRecord
  2
Continuous
 70
     0
  3
Solid line
 72
    65
 73
     0
 40
0.0
  0
LTYPE
  5
D8
330
5
100
AcDbSymbolTableRecord
100
AcDbLinetypeTableRecord
  2
AI-Linetype-1
 70
     0
  3
Adobe Illustrator Linetype No. 1
 72
    65
 73
     2
 40
1.411111110758333
 49
0.7055555553791667
 74
     0
 49
-0.7055555553791667
 74
     0
  0
LTYPE
  5
DD
330
5
100
AcDbSymbolTableRecord
100
AcDbLinetypeTableRecord
  2
AI-Linetype-2
 70
     0
  3
Adobe Illustrator Linetype No. 2
 72
    65
 73
     2
 40
1.411111110758333
 49
0.7055555553791667
 74
     0
 49
-0.7055555553791667
 74
     0
  0
LTYPE
  5
E2
330
5
100
AcDbSymbolTableRecord
100
AcDbLinetypeTableRecord
  2
AI-Linetype-3
 70
     0
  3
Adobe Illustrator Linetype No. 3
 72
    65
 73
     2
 40
1.411111110758333
 49
0.7055555553791667
 74
     0
 49
-0.7055555553791667
 74
     0
  0
LTYPE
  5
E7
330
5
100
AcDbSymbolTableRecord
100
AcDbLinetypeTableRecord
  2
AI-Linetype-4
 70
     0
  3
Adobe Illustrator Linetype No. 4
 72
    65
 73
     2
 40
1.411111110758333
 49
0.7055555553791667
 74
     0
 49
-0.7055555553791667
 74
     0
  0
LTYPE
  5
EC
330
5
100
AcDbSymbolTableRecord
100
AcDbLinetypeTableRecord
  2
AI-Linetype-5
 70
     0
  3
Adobe Illustrator Linetype No. 5
 72
    65
 73
     2
 40
1.411111110758333
 49
0.7055555553791667
 74
     0
 49
-0.7055555553791667
 74
     0
  0
LTYPE
  5
F1
330
5
100
AcDbSymbolTableRecord
100
AcDbLinetypeTableRecord
  2
AI-Linetype-6
 70
     0
  3
Adobe Illustrator Linetype No. 6
 72
    65
 73
     2
 40
1.411111110758333
 49
0.7055555553791667
 74
     0
 49
-0.7055555553791667
 74
     0
  0
LTYPE
  5
F6
330
5
100
AcDbSymbolTableRecord
100
AcDbLinetypeTableRecord
  2
AI-Linetype-7
 70
     0
  3
Adobe Illustrator Linetype No. 7
 72
    65
 73
     2
 40
1.411111110758333
 49
0.7055555553791667
 74
     0
 49
-0.7055555553791667
 74
     0
  0
LTYPE
  5
FB
330
5
100
AcDbSymbolTableRecord
100
AcDbLinetypeTableRecord
  2
AI-Linetype-8
 70
     0
  3
Adobe Illustrator Linetype No. 8
 72
    65
 73
     2
 40
1.411111110758333
 49
0.7055555553791667
 74
     0
 49
-0.7055555553791667
 74
     0
  0
LTYPE
  5
100
330
5
100
AcDbSymbolTableRecord
100
AcDbLinetypeTableRecord
  2
AI-Linetype-9
 70
     0
  3
Adobe Illustrator Linetype No. 9
 72
    65
 73
     2
 40
3.500014142644928
 49
2.000003083046956
 74
     0
 49
-1.500011059597972
 74
     0
  0
LTYPE
  5
105
330
5
100
AcDbSymbolTableRecord
100
AcDbLinetypeTableRecord
  2
AI-Linetype-10
 70
     0
  3
Adobe Illustrator Linetype No. 10
 72
    65
 73
     2
 40
1.411111110758333
 49
0.7055555553791667
 74
     0
 49
-0.7055555553791667
 74
     0
  0
LTYPE
  5
10A
330
5
100
AcDbSymbolTableRecord
100
AcDbLinetypeTableRecord
  2
AI-Linetype-11
 70
     0
  3
Adobe Illustrator Linetype No. 11
 72
    65
 73
     2
 40
1.411111110758333
 49
0.7055555553791667
 74
     0
 49
-0.7055555553791667
 74
     0
  0
LTYPE
  5
10F
330
5
100
AcDbSymbolTableRecord
100
AcDbLinetypeTableRecord
  2
AI-Linetype-12
 70
     0
  3
Adobe Illustrator Linetype No. 12
 72
    65
 73
     2
 40
1.411111110758333
 49
0.7055555553791667
 74
     0
 49
-0.7055555553791667
 74
     0
  0
LTYPE
  5
122
330
5
100
AcDbSymbolTableRecord
100
AcDbLinetypeTableRecord
  2
AI-Linetype-13
 70
     0
  3
Adobe Illustrator Linetype No. 13
 72
    65
 73
     2
 40
1.411111110758333
 49
0.7055555553791667
 74
     0
 49
-0.7055555553791667
 74
     0
  0
ENDTAB
  0
TABLE
  2
LAYER
  5
2
330
0
100
AcDbSymbolTable
 70
     2
  0
LAYER
  5
10
330
2
100
AcDbSymbolTableRecord
100
AcDbLayerTableRecord
  2
0
 70
     0
 62
     7
  6
Continuous
370
    -3
390
F
347
3E
  0
LAYER
  5
40
330
2
100
AcDbSymbolTableRecord
100
AcDbLayerTableRecord
  2
_U+30EC_U+30A4_U+30E4_U+30FC 1
 70
     0
 62
     7
  6
Continuous
370
    -3
390
F
347
3E
  0
ENDTAB
  0
TABLE
  2
STYLE
  5
3
330
0
100
AcDbSymbolTable
 70
     1
  0
STYLE
  5
11
330
3
100
AcDbSymbolTableRecord
100
AcDbTextStyleTableRecord
  2
Standard
 70
     0
 40
0.0
 41
1.0
 50
0.0
 71
     0
 42
0.2
  3
txt
  4

  0
ENDTAB
  0
TABLE
  2
VIEW
  5
6
330
0
100
AcDbSymbolTable
 70
     0
  0
ENDTAB
  0
TABLE
  2
UCS
  5
7
330
0
100
AcDbSymbolTable
 70
     0
  0
ENDTAB
  0
TABLE
  2
APPID
  5
9
330
0
100
AcDbSymbolTable
 70
     1
  0
APPID
  5
12
330
9
100
AcDbSymbolTableRecord
100
AcDbRegAppTableRecord
  2
ACAD
 70
     0
  0
ENDTAB
  0
TABLE
  2
DIMSTYLE
  5
A
330
0
100
AcDbSymbolTable
 70
     1
100
AcDbDimStyleTable
  0
DIMSTYLE
105
27
330
A
100
AcDbSymbolTableRecord
100
AcDbDimStyleTableRecord
  2
Standard
 70
     0
178
     0
340
11
  0
ENDTAB
  0
TABLE
  2
BLOCK_RECORD
  5
1
330
0
100
AcDbSymbolTable
 70
     9
  0
BLOCK_RECORD
  5
1F
330
1
100
AcDbSymbolTableRecord
100
AcDbBlockTableRecord
  2
*Model_Space
340
22
 70
     0
280
     1
281
     0
  0
BLOCK_RECORD
  5
1B
330
1
100
AcDbSymbolTableRecord
100
AcDbBlockTableRecord
  2
*Paper_Space
340
1E
 70
     0
280
     1
281
     0
  0
BLOCK_RECORD
  5
23
330
1
100
AcDbSymbolTableRecord
100
AcDbBlockTableRecord
  2
*Paper_Space0
340
26
 70
     0
280
     1
281
     0
  0
BLOCK_RECORD
  5
123
330
1
100
AcDbSymbolTableRecord
100
AcDbBlockTableRecord
  2
block 2
340
0
102
{BLKREFS
331
124
102
}
 70
     0
280
     1
281
     0
  0
BLOCK_RECORD
  5
13C
330
1
100
AcDbSymbolTableRecord
100
AcDbBlockTableRecord
  2
block 3
340
0
102
{BLKREFS
331
13D
102
}
 70
     0
280
     1
281
     0
  0
BLOCK_RECORD
  5
152
330
1
100
AcDbSymbolTableRecord
100
AcDbBlockTableRecord
  2
block 4
340
0
102
{BLKREFS
331
153
102
}
 70
     0
280
     1
281
     0
  0
BLOCK_RECORD
  5
176
330
1
100
AcDbSymbolTableRecord
100
AcDbBlockTableRecord
  2
block 5
340
0
102
{BLKREFS
331
177
102
}
 70
     0
280
     1
281
     0
  0
BLOCK_RECORD
  5
18A
330
1
100
AcDbSymbolTableRecord
100
AcDbBlockTableRecord
  2
block 6
340
0
102
{BLKREFS
331
18B
102
}
 70
     0
280
     1
281
     0
  0
BLOCK_RECORD
  5
19F
330
1
100
AcDbSymbolTableRecord
100
AcDbBlockTableRecord
  2
block 7
340
0
102
{BLKREFS
331
1A0
102
}
 70
     0
280
     1
281
     0
  0
BLOCK_RECORD
  5
1B3
330
1
100
AcDbSymbolTableRecord
100
AcDbBlockTableRecord
  2
block 8
340
0
102
{BLKREFS
331
1B4
102
}
 70
     0
280
     1
281
     0
  0
BLOCK_RECORD
  5
1C1
330
1
100
AcDbSymbolTableRecord
100
AcDbBlockTableRecord
  2
block 9
340
0
102
{BLKREFS
331
1C2
102
}
 70
     0
280
     1
281
     0
  0
ENDTAB
  0
ENDSEC
  0
SECTION
  2
BLOCKS
  0
BLOCK
  5
20
330
1F
100
AcDbEntity
  8
0
100
AcDbBlockBegin
  2
*Model_Space
 70
     0
 10
0.0
 20
0.0
 30
0.0
  3
*Model_Space
  1

  0
ENDBLK
  5
21
330
1F
100
AcDbEntity
  8
0
100
AcDbBlockEnd
  0
BLOCK
  5
1C
330
1B
100
AcDbEntity
 67
     1
  8
0
100
AcDbBlockBegin
  2
*Paper_Space
 70
     0
 10
0.0
 20
0.0
 30
0.0
  3
*Paper_Space
  1

  0
ENDBLK
  5
1D
330
1B
100
AcDbEntity
 67
     1
  8
0
100
AcDbBlockEnd
  0
BLOCK
  5
24
330
23
100
AcDbEntity
  8
0
100
AcDbBlockBegin
  2
*Paper_Space0
 70
     0
 10
0.0
 20
0.0
 30
0.0
  3
*Paper_Space0
  1

  0
ENDBLK
  5
25
330
23
100
AcDbEntity
  8
0
100
AcDbBlockEnd
  0
BLOCK
  5
125
330
123
100
AcDbEntity
  8
0
100
AcDbBlockBegin
  2
block 2
 70
     0
 10
0.0
 20
0.0
 30
0.0
  3
block 2
  1

  0
SPLINE
  5
127
330
123
100
AcDbEntity
  8
_U+30EC_U+30A4_U+30E4_U+30FC 1
370
     0
100
AcDbSpline
210
0.0
220
0.0
230
1.0
 70
    11
 71
     3
 72
    32
 73
    28
 74
     0
 42
0.0000000001
 43
0.0000000001
 12
1.0
 22
0.0
 32
0.0
 13
1.0
 23
0.0
 33
0.0
 40
0.0
 40
0.0
 40
0.0
 40
0.0
 40
1.0
 40
1.0
 40
1.0
 40
2.0
 40
2.0
 40
2.0
 40
3.0
 40
3.0
 40
3.0
 40
4.0
 40
4.0
 40
4.0
 40
5.0
 40
5.0
 40
5.0
 40
6.0
 40
6.0
 40
6.0
 40
7.0
 40
7.0
 40
7.0
 40
8.0
 40
8.0
 40
8.0
 40
9.0
 40
9.0
 40
9.0
 40
9.0
 10
88.66590573955227
 20
-118.6106756973439
 30
0.0
 10
88.49244518186995
 20
-118.6106756973439
 30
0.0
 10
88.2469821285459
 20
-118.5407402589933
 30
0.0
 10
88.20891382343389
 20
-118.2086330542152
 30
0.0
 10
88.20891382343389
 20
-118.2086330542152
 30
0.0
 10
88.42250974351937
 20
-118.2086330542152
 30
0.0
 10
88.42250974351937
 20
-118.2086330542152
 30
0.0
 10
88.43318953952365
 20
-118.2678886965615
 30
0.0
 10
88.46488441798795
 20
-118.4160278024273
 30
0.0
 10
88.66797279684343
 20
-118.4160278024273
 30
0.0
 10
88.95994463921835
 20
-118.4160278024273
 30
0.0
 10
88.99801294433036
 20
-118.0859876549403
 30
0.0
 10
89.01058754285152
 20
-117.8808322187937
 30
0.0
 10
88.91963702204093
 20
-117.9611029436
 30
0.0
 10
88.85194089575577
 20
-118.0182915286552
 30
0.0
 10
88.67003985413457
 20
-118.0182915286552
 30
0.0
 10
88.49020586980454
 20
-118.0182915286552
 30
0.0
 10
88.1877264861996
 20
-117.912527097258
 30
0.0
 10
88.1877264861996
 20
-117.506350339547
 30
0.0
 10
88.1877264861996
 20
-117.1868177332901
 30
0.0
 10
88.38650849569852
 20
-116.9668483865569
 30
0.0
 10
88.70397404466429
 20
-116.9668483865569
 30
0.0
 10
89.21798229106356
 20
-116.9668483865569
 30
0.0
 10
89.22848983229358
 20
-117.5211642501336
 30
0.0
 10
89.22848983229358
 20
-117.7347601702191
 30
0.0
 10
89.22848983229358
 20
-117.9654093129566
 30
0.0
 10
89.20954180712471
 20
-118.6106756973439
 30
0.0
 10
88.66590573955227
 20
-118.6106756973439
 30
0.0
  0
SPLINE
  5
128
330
123
100
AcDbEntity
  8
_U+30EC_U+30A4_U+30E4_U+30FC 1
370
     0
100
AcDbSpline
210
0.0
220
0.0
230
1.0
 70
    11
 71
     3
 72
    17
 73
    13
 74
     0
 42
0.0000000001
 43
0.0000000001
 12
1.0
 22
0.0
 32
0.0
 13
1.0
 23
0.0
 33
0.0
 40
0.0
 40
0.0
 40
0.0
 40
0.0
 40
1.0
 40
1.0
 40
1.0
 40
2.0
 40
2.0
 40
2.0
 40
3.0
 40
3.0
 40
3.0
 40
4.0
 40
4.0
 40
4.0
 40
4.0
 10
88.70604110195544
 20
-117.1594292241824
 30
0.0
 10
88.58752981726285
 20
-117.1594292241824
 30
0.0
 10
88.41200220228936
 20
-117.2164455544632
 30
0.0
 10
88.41200220228936
 20
-117.5020439701905
 30
0.0
 10
88.41200220228936
 20
-117.7283867435714
 30
0.0
 10
88.55152856944198
 20
-117.8236436337385
 30
0.0
 10
88.6869208220123
 20
-117.8236436337385
 30
0.0
 10
88.94926484321408
 20
-117.8236436337385
 30
0.0
 10
88.98733314832609
 20
-117.6141818282353
 30
0.0
 10
88.98733314832609
 20
-117.4979098556082
 30
0.0
 10
88.98733314832609
 20
-117.3222099858604
 30
0.0
 10
88.8922485129332
 20
-117.1594292241824
 30
0.0
 10
88.70604110195544
 20
-117.1594292241824
 30
0.0
  0
HATCH
  5
129
330
123
100
AcDbEntity
  8
_U+30EC_U+30A4_U+30E4_U+30FC 1
 62
   179
420
  2234388
100
AcDbHatch
 10
0.0
 20
0.0
 30
0.0
210
0.0
220
0.0
230
1.0
  2
SOLID
 70
     1
 71
     0
 91
        2
 92
        1
 93
        1
 72
     4
 94
        3
 73
     0
 74
     1
 95
       32
 96
       28
 40
0.0
 40
0.0
 40
0.0
 40
0.0
 40
1.0
 40
1.0
 40
1.0
 40
2.0
 40
2.0
 40
2.0
 40
3.0
 40
3.0
 40
3.0
 40
4.0
 40
4.0
 40
4.0
 40
5.0
 40
5.0
 40
5.0
 40
6.0
 40
6.0
 40
6.0
 40
7.0
 40
7.0
 40
7.0
 40
8.0
 40
8.0
 40
8.0
 40
9.0
 40
9.0
 40
9.0
 40
9.0
 10
88.66590573955227
 20
-118.6106756973439
 10
88.49244518186995
 20
-118.6106756973439
 10
88.2469821285459
 20
-118.5407402589933
 10
88.20891382343389
 20
-118.2086330542152
 10
88.20891382343389
 20
-118.2086330542152
 10
88.42250974351937
 20
-118.2086330542152
 10
88.42250974351937
 20
-118.2086330542152
 10
88.43318953952365
 20
-118.2678886965615
 10
88.46488441798795
 20
-118.4160278024273
 10
88.66797279684343
 20
-118.4160278024273
 10
88.95994463921835
 20
-118.4160278024273
 10
88.99801294433036
 20
-118.0859876549403
 10
89.01058754285152
 20
-117.8808322187937
 10
88.91963702204093
 20
-117.9611029436
 10
88.85194089575577
 20
-118.0182915286552
 10
88.67003985413457
 20
-118.0182915286552
 10
88.49020586980454
 20
-118.0182915286552
 10
88.1877264861996
 20
-117.912527097258
 10
88.1877264861996
 20
-117.506350339547
 10
88.1877264861996
 20
-117.1868177332901
 10
88.38650849569852
 20
-116.9668483865569
 10
88.70397404466429
 20
-116.9668483865569
 10
89.21798229106356
 20
-116.9668483865569
 10
89.22848983229358
 20
-117.5211642501336
 10
89.22848983229358
 20
-117.7347601702191
 10
89.22848983229358
 20
-117.9654093129566
 10
89.20954180712471
 20
-118.6106756973439
 10
88.66590573955227
 20
-118.6106756973439
 97
        0
 97
        0
 92
        1
 93
        1
 72
     4
 94
        3
 73
     0
 74
     1
 95
       17
 96
       13
 40
0.0
 40
0.0
 40
0.0
 40
0.0
 40
1.0
 40
1.0
 40
1.0
 40
2.0
 40
2.0
 40
2.0
 40
3.0
 40
3.0
 40
3.0
 40
4.0
 40
4.0
 40
4.0
 40
4.0
 10
88.70604110195544
 20
-117.1594292241824
 10
88.58752981726285
 20
-117.1594292241824
 10
88.41200220228936
 20
-117.2164455544632
 10
88.41200220228936
 20
-117.5020439701905
 10
88.41200220228936
 20
-117.7283867435714
 10
88.55152856944198
 20
-117.8236436337385
 10
88.6869208220123
 20
-117.8236436337385
 10
88.94926484321408
 20
-117.8236436337385
 10
88.98733314832609
 20
-117.6141818282353
 10
88.98733314832609
 20
-117.4979098556082
 10
88.98733314832609
 20
-117.3222099858604
 10
88.8922485129332
 20
-117.1594292241824
 10
88.70604110195544
 20
-117.1594292241824
 97
        0
 97
        0
 75
     2
 76
     1
 98
        0
  0
SPLINE
  5
12A
330
123
100
AcDbEntity
  8
_U+30EC_U+30A4_U+30E4_U+30FC 1
370
     0
100
AcDbSpline
210
0.0
220
0.0
230
1.0
 70
    11
 71
     3
 72
    29
 73
    25
 74
     0
 42
0.0000000001
 43
0.0000000001
 12
1.0
 22
0.0
 32
0.0
 13
1.0
 23
0.0
 33
0.0
 40
0.0
 40
0.0
 40
0.0
 40
0.0
 40
1.0
 40
1.0
 40
1.0
 40
2.0
 40
2.0
 40
2.0
 40
3.0
 40
3.0
 40
3.0
 40
4.0
 40
4.0
 40
4.0
 40
5.0
 40
5.0
 40
5.0
 40
6.0
 40
6.0
 40
6.0
 40
7.0
 40
7.0
 40
7.0
 40
8.0
 40
8.0
 40
8.0
 40
8.0
 10
90.28268905078002
 20
-118.3820936118975
 30
0.0
 10
90.1748575620917
 20
-118.5915554174007
 30
0.0
 10
90.00139700440938
 20
-118.6106756973439
 30
0.0
 10
89.88495277700794
 20
-118.6106756973439
 30
0.0
 10
89.72423907262103
 20
-118.6106756973439
 30
0.0
 10
89.58247339340299
 20
-118.564166908293
 30
0.0
 10
89.48721650323584
 20
-118.3820936118975
 30
0.0
 10
89.38369138390408
 20
-118.1874457169809
 30
0.0
 10
89.36457110396094
 20
-117.95059540237
 30
0.0
 10
89.36457110396094
 20
-117.7876423859177
 30
0.0
 10
89.36457110396094
 20
-117.6438096494085
 30
0.0
 10
89.38145207183867
 20
-117.392145424211
 30
0.0
 10
89.48721650323584
 20
-117.1931911599378
 30
0.0
 10
89.59522024669842
 20
-116.9901027810823
 30
0.0
 10
89.75593395108532
 20
-116.9668483865569
 30
0.0
 10
89.88495277700794
 20
-116.9668483865569
 30
0.0
 10
90.04359942410369
 20
-116.9668483865569
 30
0.0
 10
90.18743216061287
 20
-117.0112901183166
 30
0.0
 10
90.28268905078002
 20
-117.1931911599378
 30
0.0
 10
90.38208005552949
 20
-117.3857719975633
 30
0.0
 10
90.40533445005492
 20
-117.6141818282353
 30
0.0
 10
90.40533445005492
 20
-117.7876423859177
 30
0.0
 10
90.40533445005492
 20
-117.9590358863089
 30
0.0
 10
90.3843193675949
 20
-118.1896850290463
 30
0.0
 10
90.28268905078002
 20
-118.3820936118975
 30
0.0
  0
SPLINE
  5
12B
330
123
100
AcDbEntity
  8
_U+30EC_U+30A4_U+30E4_U+30FC 1
370
     0
100
AcDbSpline
210
0.0
220
0.0
230
1.0
 70
    11
 71
     3
 72
    17
 73
    13
 74
     0
 42
0.0000000001
 43
0.0000000001
 12
1.0
 22
0.0
 32
0.0
 13
1.0
 23
0.0
 33
0.0
 40
0.0
 40
0.0
 40
0.0
 40
0.0
 40
1.0
 40
1.0
 40
1.0
 40
2.0
 40
2.0
 40
2.0
 40
3.0
 40
3.0
 40
3.0
 40
4.0
 40
4.0
 40
4.0
 40
4.0
 10
89.88495277700794
 20
-117.1594292241824
 30
0.0
 10
89.63535560910158
 20
-117.1594292241824
 30
0.0
 10
89.5888468200507
 20
-117.4429605826184
 30
0.0
 10
89.5888468200507
 20
-117.7876423859177
 30
0.0
 10
89.5888468200507
 20
-118.1071749921746
 30
0.0
 10
89.62484806787157
 20
-118.4160278024273
 30
0.0
 10
89.88495277700794
 20
-118.4160278024273
 30
0.0
 10
90.13248288762313
 20
-118.4160278024273
 30
0.0
 10
90.18123098873942
 20
-118.1345635012823
 30
0.0
 10
90.18123098873942
 20
-117.7876423859177
 30
0.0
 10
90.18123098873942
 20
-117.468282034435
 30
0.0
 10
90.14299042885314
 20
-117.1594292241824
 30
0.0
 10
89.88495277700794
 20
-117.1594292241824
 30
0.0
  0
HATCH
  5
12C
330
123
100
AcDbEntity
  8
_U+30EC_U+30A4_U+30E4_U+30FC 1
 62
   179
420
  2234388
100
AcDbHatch
 10
0.0
 20
0.0
 30
0.0
210
0.0
220
0.0
230
1.0
  2
SOLID
 70
     1
 71
     0
 91
        2
 92
        1
 93
        1
 72
     4
 94
        3
 73
     0
 74
     1
 95
       29
 96
       25
 40
0.0
 40
0.0
 40
0.0
 40
0.0
 40
1.0
 40
1.0
 40
1.0
 40
2.0
 40
2.0
 40
2.0
 40
3.0
 40
3.0
 40
3.0
 40
4.0
 40
4.0
 40
4.0
 40
5.0
 40
5.0
 40
5.0
 40
6.0
 40
6.0
 40
6.0
 40
7.0
 40
7.0
 40
7.0
 40
8.0
 40
8.0
 40
8.0
 40
8.0
 10
90.28268905078002
 20
-118.3820936118975
 10
90.1748575620917
 20
-118.5915554174007
 10
90.00139700440938
 20
-118.6106756973439
 10
89.88495277700794
 20
-118.6106756973439
 10
89.72423907262103
 20
-118.6106756973439
 10
89.58247339340299
 20
-118.564166908293
 10
89.48721650323584
 20
-118.3820936118975
 10
89.38369138390408
 20
-118.1874457169809
 10
89.36457110396094
 20
-117.95059540237
 10
89.36457110396094
 20
-117.7876423859177
 10
89.36457110396094
 20
-117.6438096494085
 10
89.38145207183867
 20
-117.392145424211
 10
89.48721650323584
 20
-117.1931911599378
 10
89.59522024669842
 20
-116.9901027810823
 10
89.75593395108532
 20
-116.9668483865569
 10
89.88495277700794
 20
-116.9668483865569
 10
90.04359942410369
 20
-116.9668483865569
 10
90.18743216061287
 20
-117.0112901183166
 10
90.28268905078002
 20
-117.1931911599378
 10
90.38208005552949
 20
-117.3857719975633
 10
90.40533445005492
 20
-117.6141818282353
 10
90.40533445005492
 20
-117.7876423859177
 10
90.40533445005492
 20
-117.9590358863089
 10
90.3843193675949
 20
-118.1896850290463
 10
90.28268905078002
 20
-118.3820936118975
 97
        0
 97
        0
 92
        1
 93
        1
 72
     4
 94
        3
 73
     0
 74
     1
 95
       17
 96
       13
 40
0.0
 40
0.0
 40
0.0
 40
0.0
 40
1.0
 40
1.0
 40
1.0
 40
2.0
 40
2.0
 40
2.0
 40
3.0
 40
3.0
 40
3.0
 40
4.0
 40
4.0
 40
4.0
 40
4.0
 10
89.88495277700794
 20
-117.1594292241824
 10
89.63535560910158
 20
-117.1594292241824
 10
89.5888468200507
 20
-117.4429605826184
 10
89.5888468200507
 20
-117.7876423859177
 10
89.5888468200507
 20
-118.1071749921746
 10
89.62484806787157
 20
-118.4160278024273
 10
89.88495277700794
 20
-118.4160278024273
 10
90.13248288762313
 20
-118.4160278024273
 10
90.18123098873942
 20
-118.1345635012823
 10
90.18123098873942
 20
-117.7876423859177
 10
90.18123098873942
 20
-117.468282034435
 10
90.14299042885314
 20
-117.1594292241824
 10
89.88495277700794
 20
-117.1594292241824
 97
        0
 97
        0
 75
     2
 76
     1
 98
        0
  0
SPLINE
  5
12D
330
123
100
AcDbEntity
  8
_U+30EC_U+30A4_U+30E4_U+30FC 1
370
     0
100
AcDbSpline
210
0.0
220
0.0
230
1.0
 70
    11
 71
     3
 72
    17
 73
    13
 74
     0
 42
0.0000000001
 43
0.0000000001
 12
1.0
 22
0.0
 32
0.0
 13
1.0
 23
0.0
 33
0.0
 40
0.0
 40
0.0
 40
0.0
 40
0.0
 40
1.0
 40
1.0
 40
1.0
 40
2.0
 40
2.0
 40
2.0
 40
3.0
 40
3.0
 40
3.0
 40
4.0
 40
4.0
 40
4.0
 40
4.0
 10
91.18874916340073
 20
-117.2715670822273
 30
0.0
 10
91.18874916340073
 20
-117.4365871559707
 30
0.0
 10
91.05542396812156
 20
-117.5761135231233
 30
0.0
 10
90.88403046773038
 20
-117.5761135231233
 30
0.0
 10
90.71487627940462
 20
-117.5761135231233
 30
0.0
 10
90.5794840268343
 20
-117.4386542132619
 30
0.0
 10
90.5794840268343
 20
-117.2715670822273
 30
0.0
 10
90.5794840268343
 20
-117.1043076964184
 30
0.0
 10
90.71487627940462
 20
-116.9668483865569
 30
0.0
 10
90.88403046773038
 20
-116.9668483865569
 30
0.0
 10
91.05542396812156
 20
-116.9668483865569
 30
0.0
 10
91.18874916340073
 20
-117.1065470084838
 30
0.0
 10
91.18874916340073
 20
-117.2715670822273
 30
0.0
  0
SPLINE
  5
12E
330
123
100
AcDbEntity
  8
_U+30EC_U+30A4_U+30E4_U+30FC 1
370
     0
100
AcDbSpline
210
0.0
220
0.0
230
1.0
 70
    11
 71
     3
 72
    17
 73
    13
 74
     0
 42
0.0000000001
 43
0.0000000001
 12
1.0
 22
0.0
 32
0.0
 13
1.0
 23
0.0
 33
0.0
 40
0.0
 40
0.0
 40
0.0
 40
0.0
 40
1.0
 40
1.0
 40
1.0
 40
2.0
 40
2.0
 40
2.0
 40
3.0
 40
3.0
 40
3.0
 40
4.0
 40
4.0
 40
4.0
 40
4.0
 10
90.70419648340034
 20
-117.2715670822273
 30
0.0
 10
90.70419648340034
 20
-117.3709580869767
 30
0.0
 10
90.78463946298093
 20
-117.4514010665573
 30
0.0
 10
90.88403046773038
 20
-117.4514010665573
 30
0.0
 10
90.98342147247985
 20
-117.4514010665573
 30
0.0
 10
91.06386445206043
 20
-117.3709580869767
 30
0.0
 10
91.06386445206043
 20
-117.2715670822273
 30
0.0
 10
91.06386445206043
 20
-117.1721760774778
 30
0.0
 10
90.98566078454526
 20
-117.0917330978972
 30
0.0
 10
90.88403046773038
 20
-117.0917330978972
 30
0.0
 10
90.78257240568978
 20
-117.0917330978972
 30
0.0
 10
90.70419648340034
 20
-117.1721760774778
 30
0.0
 10
90.70419648340034
 20
-117.2715670822273
 30
0.0
  0
HATCH
  5
12F
330
123
100
AcDbEntity
  8
_U+30EC_U+30A4_U+30E4_U+30FC 1
 62
   179
420
  2234388
100
AcDbHatch
 10
0.0
 20
0.0
 30
0.0
210
0.0
220
0.0
230
1.0
  2
SOLID
 70
     1
 71
     0
 91
        2
 92
        1
 93
        1
 72
     4
 94
        3
 73
     0
 74
     1
 95
       17
 96
       13
 40
0.0
 40
0.0
 40
0.0
 40
0.0
 40
1.0
 40
1.0
 40
1.0
 40
2.0
 40
2.0
 40
2.0
 40
3.0
 40
3.0
 40
3.0
 40
4.0
 40
4.0
 40
4.0
 40
4.0
 10
91.18874916340073
 20
-117.2715670822273
 10
91.18874916340073
 20
-117.4365871559707
 10
91.05542396812156
 20
-117.5761135231233
 10
90.88403046773038
 20
-117.5761135231233
 10
90.71487627940462
 20
-117.5761135231233
 10
90.5794840268343
 20
-117.4386542132619
 10
90.5794840268343
 20
-117.2715670822273
 10
90.5794840268343
 20
-117.1043076964184
 10
90.71487627940462
 20
-116.9668483865569
 10
90.88403046773038
 20
-116.9668483865569
 10
91.05542396812156
 20
-116.9668483865569
 10
91.18874916340073
 20
-117.1065470084838
 10
91.18874916340073
 20
-117.2715670822273
 97
        0
 97
        0
 92
        1
 93
        1
 72
     4
 94
        3
 73
     0
 74
     1
 95
       17
 96
       13
 40
0.0
 40
0.0
 40
0.0
 40
0.0
 40
1.0
 40
1.0
 40
1.0
 40
2.0
 40
2.0
 40
2.0
 40
3.0
 40
3.0
 40
3.0
 40
4.0
 40
4.0
 40
4.0
 40
4.0
 10
90.70419648340034
 20
-117.2715670822273
 10
90.70419648340034
 20
-117.3709580869767
 10
90.78463946298093
 20
-117.4514010665573
 10
90.88403046773038
 20
-117.4514010665573
 10
90.98342147247985
 20
-117.4514010665573
 10
91.06386445206043
 20
-117.3709580869767
 10
91.06386445206043
 20
-117.2715670822273
 10
91.06386445206043
 20
-117.1721760774778
 10
90.98566078454526
 20
-117.0917330978972
 10
90.88403046773038
 20
-117.0917330978972
 10
90.78257240568978
 20
-117.0917330978972
 10
90.70419648340034
 20
-117.1721760774778
 10
90.70419648340034
 20
-117.2715670822273
 97
        0
 97
        0
 75
     2
 76
     1
 98
        0
  0
ENDBLK
  5
126
330
123
100
AcDbEntity
  8
0
100
AcDbBlockEnd
  0
BLOCK
  5
13E
330
13C
100
AcDbEntity
  8
0
100
AcDbBlockBegin
  2
block 3
 70
     0
 10
0.0
 20
0.0
 30
0.0
  3
block 3
  1

  0
SPLINE
  5
140
330
13C
100
AcDbEntity
  8
_U+30EC_U+30A4_U+30E4_U+30FC 1
370
     0
100
AcDbSpline
210
0.0
220
0.0
230
1.0
 70
    11
 71
     3
 72
    62
 73
    58
 74
     0
 42
0.0000000001
 43
0.0000000001
 12
1.0
 22
0.0
 32
0.0
 13
1.0
 23
0.0
 33
0.0
 40
0.0
 40
0.0
 40
0.0
 40
0.0
 40
1.0
 40
1.0
 40
1.0
 40
2.0
 40
2.0
 40
2.0
 40
3.0
 40
3.0
 40
3.0
 40
4.0
 40
4.0
 40
4.0
 40
5.0
 40
5.0
 40
5.0
 40
6.0
 40
6.0
 40
6.0
 40
7.0
 40
7.0
 40
7.0
 40
8.0
 40
8.0
 40
8.0
 40
9.0
 40
9.0
 40
9.0
 40
10.0
 40
10.0
 40
10.0
 40
11.0
 40
11.0
 40
11.0
 40
12.0
 40
12.0
 40
12.0
 40
13.0
 40
13.0
 40
13.0
 40
14.0
 40
14.0
 40
14.0
 40
15.0
 40
15.0
 40
15.0
 40
16.0
 40
16.0
 40
16.0
 40
17.0
 40
17.0
 40
17.0
 40
18.0
 40
18.0
 40
18.0
 40
19.0
 40
19.0
 40
19.0
 40
19.0
 10
87.19157712663961
 20
-139.5043185415128
 30
0.0
 10
87.09632023647245
 20
-139.5043185415128
 30
0.0
 10
86.8784179470304
 20
-139.4833034590528
 30
0.0
 10
86.75370549046436
 20
-139.2969237933008
 30
0.0
 10
86.67963593753149
 20
-139.1849581900302
 30
0.0
 10
86.67532956817492
 20
-139.0853949305064
 30
0.0
 10
86.67119545359262
 20
-139.0009900911178
 30
0.0
 10
86.67119545359262
 20
-139.0009900911178
 30
0.0
 10
86.89116480032583
 20
-139.0009900911178
 30
0.0
 10
86.89116480032583
 20
-139.0009900911178
 30
0.0
 10
86.89323185761697
 20
-139.0750596440507
 30
0.0
 10
86.90391165362125
 20
-139.3100151561447
 30
0.0
 10
87.18744301205732
 20
-139.3100151561447
 30
0.0
 10
87.32490232191878
 20
-139.3100151561447
 30
0.0
 10
87.47717554236682
 20
-139.2400797177941
 30
0.0
 10
87.47717554236682
 20
-139.0116698871221
 30
0.0
 10
87.47717554236682
 20
-138.8952256597206
 30
0.0
 10
87.43910723725482
 20
-138.8463053038301
 30
0.0
 10
87.40741235879051
 20
-138.8146104253658
 30
0.0
 10
87.33334280585764
 20
-138.7408853819815
 30
0.0
 10
87.2168985784562
 20
-138.728138528686
 30
0.0
 10
87.16194930546646
 20
-138.728138528686
 30
0.0
 10
87.14300128029758
 20
-138.728138528686
 30
0.0
 10
87.10700003247672
 20
-138.7302055859772
 30
0.0
 10
87.07943926859473
 20
-138.7343397005595
 30
0.0
 10
87.07943926859473
 20
-138.7343397005595
 30
0.0
 10
87.07943926859473
 20
-138.5396918056429
 30
0.0
 10
87.07943926859473
 20
-138.5396918056429
 30
0.0
 10
87.11750757370673
 20
-138.5458929775163
 30
0.0
 10
87.15988224817531
 20
-138.548304544356
 30
0.0
 10
87.16625567482302
 20
-138.548304544356
 30
0.0
 10
87.23171248904276
 20
-138.548304544356
 30
0.0
 10
87.43066675331595
 20
-138.527289461896
 30
0.0
 10
87.43066675331595
 20
-138.2902668925108
 30
0.0
 10
87.43066675331595
 20
-138.1124999654719
 30
0.0
 10
87.29940861532793
 20
-138.0573784377079
 30
0.0
 10
87.18951006934846
 20
-138.0573784377079
 30
0.0
 10
86.92509899085553
 20
-138.0573784377079
 30
0.0
 10
86.91665850691668
 20
-138.2902668925108
 30
0.0
 10
86.9123521375601
 20
-138.361924878604
 30
0.0
 10
86.9123521375601
 20
-138.361924878604
 30
0.0
 10
86.70926375870464
 20
-138.361924878604
 30
0.0
 10
86.70926375870464
 20
-138.361924878604
 30
0.0
 10
86.71770424264349
 20
-138.2372124220379
 30
0.0
 10
86.7452650065255
 20
-137.8606634855001
 30
0.0
 10
87.20208466786963
 20
-137.8606634855001
 30
0.0
 10
87.42636038395939
 20
-137.8606634855001
 30
0.0
 10
87.66751706792688
 20
-137.9877875089058
 30
0.0
 10
87.66751706792688
 20
-138.2837212110888
 30
0.0
 10
87.66751706792688
 20
-138.4701008768408
 30
0.0
 10
87.57243243253397
 20
-138.5524386589383
 30
0.0
 10
87.47286917301025
 20
-138.6137613585757
 30
0.0
 10
87.53436412742197
 20
-138.6413221224577
 30
0.0
 10
87.71626516904315
 20
-138.721592847264
 30
0.0
 10
87.71626516904315
 20
-138.9989230338267
 30
0.0
 10
87.71626516904315
 20
-139.3375759200267
 30
0.0
 10
87.46873505842795
 20
-139.5043185415128
 30
0.0
 10
87.19157712663961
 20
-139.5043185415128
 30
0.0
  0
HATCH
  5
141
330
13C
100
AcDbEntity
  8
_U+30EC_U+30A4_U+30E4_U+30FC 1
 62
   179
420
  2234388
100
AcDbHatch
 10
0.0
 20
0.0
 30
0.0
210
0.0
220
0.0
230
1.0
  2
SOLID
 70
     1
 71
     0
 91
        1
 92
        1
 93
        1
 72
     4
 94
        3
 73
     0
 74
     1
 95
       62
 96
       58
 40
0.0
 40
0.0
 40
0.0
 40
0.0
 40
1.0
 40
1.0
 40
1.0
 40
2.0
 40
2.0
 40
2.0
 40
3.0
 40
3.0
 40
3.0
 40
4.0
 40
4.0
 40
4.0
 40
5.0
 40
5.0
 40
5.0
 40
6.0
 40
6.0
 40
6.0
 40
7.0
 40
7.0
 40
7.0
 40
8.0
 40
8.0
 40
8.0
 40
9.0
 40
9.0
 40
9.0
 40
10.0
 40
10.0
 40
10.0
 40
11.0
 40
11.0
 40
11.0
 40
12.0
 40
12.0
 40
12.0
 40
13.0
 40
13.0
 40
13.0
 40
14.0
 40
14.0
 40
14.0
 40
15.0
 40
15.0
 40
15.0
 40
16.0
 40
16.0
 40
16.0
 40
17.0
 40
17.0
 40
17.0
 40
18.0
 40
18.0
 40
18.0
 40
19.0
 40
19.0
 40
19.0
 40
19.0
 10
87.19157712663961
 20
-139.5043185415128
 10
87.09632023647245
 20
-139.5043185415128
 10
86.8784179470304
 20
-139.4833034590528
 10
86.75370549046436
 20
-139.2969237933008
 10
86.67963593753149
 20
-139.1849581900302
 10
86.67532956817492
 20
-139.0853949305064
 10
86.67119545359262
 20
-139.0009900911178
 10
86.67119545359262
 20
-139.0009900911178
 10
86.89116480032583
 20
-139.0009900911178
 10
86.89116480032583
 20
-139.0009900911178
 10
86.89323185761697
 20
-139.0750596440507
 10
86.90391165362125
 20
-139.3100151561447
 10
87.18744301205732
 20
-139.3100151561447
 10
87.32490232191878
 20
-139.3100151561447
 10
87.47717554236682
 20
-139.2400797177941
 10
87.47717554236682
 20
-139.0116698871221
 10
87.47717554236682
 20
-138.8952256597206
 10
87.43910723725482
 20
-138.8463053038301
 10
87.40741235879051
 20
-138.8146104253658
 10
87.33334280585764
 20
-138.7408853819815
 10
87.2168985784562
 20
-138.728138528686
 10
87.16194930546646
 20
-138.728138528686
 10
87.14300128029758
 20
-138.728138528686
 10
87.10700003247672
 20
-138.7302055859772
 10
87.07943926859473
 20
-138.7343397005595
 10
87.07943926859473
 20
-138.7343397005595
 10
87.07943926859473
 20
-138.5396918056429
 10
87.07943926859473
 20
-138.5396918056429
 10
87.11750757370673
 20
-138.5458929775163
 10
87.15988224817531
 20
-138.548304544356
 10
87.16625567482302
 20
-138.548304544356
 10
87.23171248904276
 20
-138.548304544356
 10
87.43066675331595
 20
-138.527289461896
 10
87.43066675331595
 20
-138.2902668925108
 10
87.43066675331595
 20
-138.1124999654719
 10
87.29940861532793
 20
-138.0573784377079
 10
87.18951006934846
 20
-138.0573784377079
 10
86.92509899085553
 20
-138.0573784377079
 10
86.91665850691668
 20
-138.2902668925108
 10
86.9123521375601
 20
-138.361924878604
 10
86.9123521375601
 20
-138.361924878604
 10
86.70926375870464
 20
-138.361924878604
 10
86.70926375870464
 20
-138.361924878604
 10
86.71770424264349
 20
-138.2372124220379
 10
86.7452650065255
 20
-137.8606634855001
 10
87.20208466786963
 20
-137.8606634855001
 10
87.42636038395939
 20
-137.8606634855001
 10
87.66751706792688
 20
-137.9877875089058
 10
87.66751706792688
 20
-138.2837212110888
 10
87.66751706792688
 20
-138.4701008768408
 10
87.57243243253397
 20
-138.5524386589383
 10
87.47286917301025
 20
-138.6137613585757
 10
87.53436412742197
 20
-138.6413221224577
 10
87.71626516904315
 20
-138.721592847264
 10
87.71626516904315
 20
-138.9989230338267
 10
87.71626516904315
 20
-139.3375759200267
 10
87.46873505842795
 20
-139.5043185415128
 10
87.19157712663961
 20
-139.5043185415128
 97
        0
 97
        0
 75
     2
 76
     1
 98
        0
  0
SPLINE
  5
142
330
13C
100
AcDbEntity
  8
_U+30EC_U+30A4_U+30E4_U+30FC 1
370
     0
100
AcDbSpline
210
0.0
220
0.0
230
1.0
 70
    11
 71
     3
 72
    29
 73
    25
 74
     0
 42
0.0000000001
 43
0.0000000001
 12
1.0
 22
0.0
 32
0.0
 13
1.0
 23
0.0
 33
0.0
 40
0.0
 40
0.0
 40
0.0
 40
0.0
 40
1.0
 40
1.0
 40
1.0
 40
2.0
 40
2.0
 40
2.0
 40
3.0
 40
3.0
 40
3.0
 40
4.0
 40
4.0
 40
4.0
 40
5.0
 40
5.0
 40
5.0
 40
6.0
 40
6.0
 40
6.0
 40
7.0
 40
7.0
 40
7.0
 40
8.0
 40
8.0
 40
8.0
 40
8.0
 10
88.37686222833982
 20
-139.5043185415128
 30
0.0
 10
88.11038409255575
 20
-139.5043185415128
 30
0.0
 10
87.85648055529283
 20
-139.3668592316513
 30
0.0
 10
87.85648055529283
 20
-139.0178710589955
 30
0.0
 10
87.85648055529283
 20
-138.7619004644415
 30
0.0
 10
87.99824623451086
 20
-138.6664713195001
 30
0.0
 10
88.10401066590804
 20
-138.6051486198626
 30
0.0
 10
87.97912595456772
 20
-138.5458929775163
 30
0.0
 10
87.9029893443437
 20
-138.4318603169546
 30
0.0
 10
87.9029893443437
 20
-138.2709743577934
 30
0.0
 10
87.9029893443437
 20
-137.9960557380704
 30
0.0
 10
88.10194360861688
 20
-137.8606634855001
 30
0.0
 10
88.37686222833982
 20
-137.8606634855001
 30
0.0
 10
88.66039358677588
 20
-137.8606634855001
 30
0.0
 10
88.85073511233593
 20
-138.004323967235
 30
0.0
 10
88.85073511233593
 20
-138.2709743577934
 30
0.0
 10
88.85073511233593
 20
-138.4318603169546
 30
0.0
 10
88.77253144482076
 20
-138.5458929775163
 30
0.0
 10
88.64764673348046
 20
-138.6051486198626
 30
0.0
 10
88.7365301969999
 20
-138.6561360330443
 30
0.0
 10
88.89517684409566
 20
-138.7512206684372
 30
0.0
 10
88.89517684409566
 20
-139.0137369444132
 30
0.0
 10
88.89517684409566
 20
-139.3878743141114
 30
0.0
 10
88.61595185501615
 20
-139.5043185415128
 30
0.0
 10
88.37686222833982
 20
-139.5043185415128
 30
0.0
  0
SPLINE
  5
143
330
13C
100
AcDbEntity
  8
_U+30EC_U+30A4_U+30E4_U+30FC 1
370
     0
100
AcDbSpline
210
0.0
220
0.0
230
1.0
 70
    11
 71
     3
 72
    17
 73
    13
 74
     0
 42
0.0000000001
 43
0.0000000001
 12
1.0
 22
0.0
 32
0.0
 13
1.0
 23
0.0
 33
0.0
 40
0.0
 40
0.0
 40
0.0
 40
0.0
 40
1.0
 40
1.0
 40
1.0
 40
2.0
 40
2.0
 40
2.0
 40
3.0
 40
3.0
 40
3.0
 40
4.0
 40
4.0
 40
4.0
 40
4.0
 10
88.37686222833982
 20
-138.7133246180994
 30
0.0
 10
88.23302949183064
 20
-138.7133246180994
 30
0.0
 10
88.0807562713826
 20
-138.8001410243278
 30
0.0
 10
88.0807562713826
 20
-139.003057148409
 30
0.0
 10
88.0807562713826
 20
-139.2080403297813
 30
0.0
 10
88.20770804001405
 20
-139.3100151561447
 30
0.0
 10
88.37686222833982
 20
-139.3100151561447
 30
0.0
 10
88.56306963931758
 20
-139.3100151561447
 30
0.0
 10
88.67314044007131
 20
-139.1873697568698
 30
0.0
 10
88.67314044007131
 20
-139.0096028298309
 30
0.0
 10
88.67314044007131
 20
-138.7870496614838
 30
0.0
 10
88.51018742361899
 20
-138.7133246180994
 30
0.0
 10
88.37686222833982
 20
-138.7133246180994
 30
0.0
  0
SPLINE
  5
144
330
13C
100
AcDbEntity
  8
_U+30EC_U+30A4_U+30E4_U+30FC 1
370
     0
100
AcDbSpline
210
0.0
220
0.0
230
1.0
 70
    11
 71
     3
 72
    17
 73
    13
 74
     0
 42
0.0000000001
 43
0.0000000001
 12
1.0
 22
0.0
 32
0.0
 13
1.0
 23
0.0
 33
0.0
 40
0.0
 40
0.0
 40
0.0
 40
0.0
 40
1.0
 40
1.0
 40
1.0
 40
2.0
 40
2.0
 40
2.0
 40
3.0
 40
3.0
 40
3.0
 40
4.0
 40
4.0
 40
4.0
 40
4.0
 10
88.37686222833982
 20
-138.0532443231256
 30
0.0
 10
88.21184215459635
 20
-138.0532443231256
 30
0.0
 10
88.12726506043346
 20
-138.1483289585185
 30
0.0
 10
88.12726506043346
 20
-138.2837212110888
 30
0.0
 10
88.12726506043346
 20
-138.4067111199122
 30
0.0
 10
88.19926755607518
 20
-138.5252224046048
 30
0.0
 10
88.37686222833982
 20
-138.5252224046048
 30
0.0
 10
88.5546291553787
 20
-138.5252224046048
 30
0.0
 10
88.62645939624616
 20
-138.4067111199122
 30
0.0
 10
88.62645939624616
 20
-138.2837212110888
 30
0.0
 10
88.62645939624616
 20
-138.1483289585185
 30
0.0
 10
88.53981524479214
 20
-138.0532443231256
 30
0.0
 10
88.37686222833982
 20
-138.0532443231256
 30
0.0
  0
HATCH
  5
145
330
13C
100
AcDbEntity
  8
_U+30EC_U+30A4_U+30E4_U+30FC 1
 62
   179
420
  2234388
100
AcDbHatch
 10
0.0
 20
0.0
 30
0.0
210
0.0
220
0.0
230
1.0
  2
SOLID
 70
     1
 71
     0
 91
        3
 92
        1
 93
        1
 72
     4
 94
        3
 73
     0
 74
     1
 95
       29
 96
       25
 40
0.0
 40
0.0
 40
0.0
 40
0.0
 40
1.0
 40
1.0
 40
1.0
 40
2.0
 40
2.0
 40
2.0
 40
3.0
 40
3.0
 40
3.0
 40
4.0
 40
4.0
 40
4.0
 40
5.0
 40
5.0
 40
5.0
 40
6.0
 40
6.0
 40
6.0
 40
7.0
 40
7.0
 40
7.0
 40
8.0
 40
8.0
 40
8.0
 40
8.0
 10
88.37686222833982
 20
-139.5043185415128
 10
88.11038409255575
 20
-139.5043185415128
 10
87.85648055529283
 20
-139.3668592316513
 10
87.85648055529283
 20
-139.0178710589955
 10
87.85648055529283
 20
-138.7619004644415
 10
87.99824623451086
 20
-138.6664713195001
 10
88.10401066590804
 20
-138.6051486198626
 10
87.97912595456772
 20
-138.5458929775163
 10
87.9029893443437
 20
-138.4318603169546
 10
87.9029893443437
 20
-138.2709743577934
 10
87.9029893443437
 20
-137.9960557380704
 10
88.10194360861688
 20
-137.8606634855001
 10
88.37686222833982
 20
-137.8606634855001
 10
88.66039358677588
 20
-137.8606634855001
 10
88.85073511233593
 20
-138.004323967235
 10
88.85073511233593
 20
-138.2709743577934
 10
88.85073511233593
 20
-138.4318603169546
 10
88.77253144482076
 20
-138.5458929775163
 10
88.64764673348046
 20
-138.6051486198626
 10
88.7365301969999
 20
-138.6561360330443
 10
88.89517684409566
 20
-138.7512206684372
 10
88.89517684409566
 20
-139.0137369444132
 10
88.89517684409566
 20
-139.3878743141114
 10
88.61595185501615
 20
-139.5043185415128
 10
88.37686222833982
 20
-139.5043185415128
 97
        0
 97
        0
 92
        1
 93
        1
 72
     4
 94
        3
 73
     0
 74
     1
 95
       17
 96
       13
 40
0.0
 40
0.0
 40
0.0
 40
0.0
 40
1.0
 40
1.0
 40
1.0
 40
2.0
 40
2.0
 40
2.0
 40
3.0
 40
3.0
 40
3.0
 40
4.0
 40
4.0
 40
4.0
 40
4.0
 10
88.37686222833982
 20
-138.7133246180994
 10
88.23302949183064
 20
-138.7133246180994
 10
88.0807562713826
 20
-138.8001410243278
 10
88.0807562713826
 20
-139.003057148409
 10
88.0807562713826
 20
-139.2080403297813
 10
88.20770804001405
 20
-139.3100151561447
 10
88.37686222833982
 20
-139.3100151561447
 10
88.56306963931758
 20
-139.3100151561447
 10
88.67314044007131
 20
-139.1873697568698
 10
88.67314044007131
 20
-139.0096028298309
 10
88.67314044007131
 20
-138.7870496614838
 10
88.51018742361899
 20
-138.7133246180994
 10
88.37686222833982
 20
-138.7133246180994
 97
        0
 97
        0
 92
        1
 93
        1
 72
     4
 94
        3
 73
     0
 74
     1
 95
       17
 96
       13
 40
0.0
 40
0.0
 40
0.0
 40
0.0
 40
1.0
 40
1.0
 40
1.0
 40
2.0
 40
2.0
 40
2.0
 40
3.0
 40
3.0
 40
3.0
 40
4.0
 40
4.0
 40
4.0
 40
4.0
 10
88.37686222833982
 20
-138.0532443231256
 10
88.21184215459635
 20
-138.0532443231256
 10
88.12726506043346
 20
-138.1483289585185
 10
88.12726506043346
 20
-138.2837212110888
 10
88.12726506043346
 20
-138.4067111199122
 10
88.19926755607518
 20
-138.5252224046048
 10
88.37686222833982
 20
-138.5252224046048
 10
88.5546291553787
 20
-138.5252224046048
 10
88.62645939624616
 20
-138.4067111199122
 10
88.62645939624616
 20
-138.2837212110888
 10
88.62645939624616
 20
-138.1483289585185
 10
88.53981524479214
 20
-138.0532443231256
 10
88.37686222833982
 20
-138.0532443231256
 97
        0
 97
        0
 75
     2
 76
     1
 98
        0
  0
ENDBLK
  5
13F
330
13C
100
AcDbEntity
  8
0
100
AcDbBlockEnd
  0
BLOCK
  5
154
330
152
100
AcDbEntity
  8
0
100
AcDbBlockBegin
  2
block 4
 70
     0
 10
0.0
 20
0.0
 30
0.0
  3
block 4
  1

  0
POLYLINE
  5
156
330
152
100
AcDbEntity
  8
_U+30EC_U+30A4_U+30E4_U+30FC 1
370
     0
100
AcDb2dPolyline
 66
     1
 10
0.0
 20
0.0
 30
0.0
  0
VERTEX
  5
157
330
156
100
AcDbEntity
  8
_U+30EC_U+30A4_U+30E4_U+30FC 1
370
     0
100
AcDbVertex
100
AcDb2dVertex
 10
96.26768118253031
 20
-123.959703202517
 30
0.0
  0
VERTEX
  5
158
330
156
100
AcDbEntity
  8
_U+30EC_U+30A4_U+30E4_U+30FC 1
370
     0
100
AcDbVertex
100
AcDb2dVertex
 10
96.26768118253031
 20
-124.3066243178817
 30
0.0
  0
VERTEX
  5
159
330
156
100
AcDbEntity
  8
_U+30EC_U+30A4_U+30E4_U+30FC 1
370
     0
100
AcDbVertex
100
AcDb2dVertex
 10
96.04960663831399
 20
-124.3066243178817
 30
0.0
  0
VERTEX
  5
15A
330
156
100
AcDbEntity
  8
_U+30EC_U+30A4_U+30E4_U+30FC 1
370
     0
100
AcDbVertex
100
AcDb2dVertex
 10
96.04960663831399
 20
-123.959703202517
 30
0.0
  0
VERTEX
  5
15B
330
156
100
AcDbEntity
  8
_U+30EC_U+30A4_U+30E4_U+30FC 1
370
     0
100
AcDbVertex
100
AcDb2dVertex
 10
95.39400496747095
 20
-123.959703202517
 30
0.0
  0
VERTEX
  5
15C
330
156
100
AcDbEntity
  8
_U+30EC_U+30A4_U+30E4_U+30FC 1
370
     0
100
AcDbVertex
100
AcDb2dVertex
 10
95.39400496747095
 20
-123.7354274864273
 30
0.0
  0
VERTEX
  5
15D
330
156
100
AcDbEntity
  8
_U+30EC_U+30A4_U+30E4_U+30FC 1
370
     0
100
AcDbVertex
100
AcDb2dVertex
 10
96.0730332876137
 20
-122.7623602666184
 30
0.0
  0
VERTEX
  5
15E
330
156
100
AcDbEntity
  8
_U+30EC_U+30A4_U+30E4_U+30FC 1
370
     0
100
AcDbVertex
100
AcDb2dVertex
 10
96.26768118253031
 20
-122.7623602666184
 30
0.0
  0
VERTEX
  5
15F
330
156
100
AcDbEntity
  8
_U+30EC_U+30A4_U+30E4_U+30FC 1
370
     0
100
AcDbVertex
100
AcDb2dVertex
 10
96.26768118253031
 20
-123.7607489382439
 30
0.0
  0
VERTEX
  5
160
330
156
100
AcDbEntity
  8
_U+30EC_U+30A4_U+30E4_U+30FC 1
370
     0
100
AcDbVertex
100
AcDb2dVertex
 10
96.47507593074235
 20
-123.7607489382439
 30
0.0
  0
VERTEX
  5
161
330
156
100
AcDbEntity
  8
_U+30EC_U+30A4_U+30E4_U+30FC 1
370
     0
100
AcDbVertex
100
AcDb2dVertex
 10
96.47507593074235
 20
-123.959703202517
 30
0.0
  0
VERTEX
  5
162
330
156
100
AcDbEntity
  8
_U+30EC_U+30A4_U+30E4_U+30FC 1
370
     0
100
AcDbVertex
100
AcDb2dVertex
 10
96.26768118253031
 20
-123.959703202517
 30
0.0
  0
SEQEND
  5
163
330
156
100
AcDbEntity
  8
_U+30EC_U+30A4_U+30E4_U+30FC 1
370
     0
  0
POLYLINE
  5
164
330
152
100
AcDbEntity
  8
_U+30EC_U+30A4_U+30E4_U+30FC 1
370
     0
100
AcDb2dPolyline
 66
     1
 10
0.0
 20
0.0
 30
0.0
  0
VERTEX
  5
165
330
164
100
AcDbEntity
  8
_U+30EC_U+30A4_U+30E4_U+30FC 1
370
     0
100
AcDbVertex
100
AcDb2dVertex
 10
96.04960663831399
 20
-123.1049750126265
 30
0.0
  0
VERTEX
  5
166
330
164
100
AcDbEntity
  8
_U+30EC_U+30A4_U+30E4_U+30FC 1
370
     0
100
AcDbVertex
100
AcDb2dVertex
 10
95.59278697696986
 20
-123.7607489382439
 30
0.0
  0
VERTEX
  5
167
330
164
100
AcDbEntity
  8
_U+30EC_U+30A4_U+30E4_U+30FC 1
370
     0
100
AcDbVertex
100
AcDb2dVertex
 10
96.04960663831399
 20
-123.7607489382439
 30
0.0
  0
VERTEX
  5
168
330
164
100
AcDbEntity
  8
_U+30EC_U+30A4_U+30E4_U+30FC 1
370
     0
100
AcDbVertex
100
AcDb2dVertex
 10
96.04960663831399
 20
-123.1049750126265
 30
0.0
  0
SEQEND
  5
169
330
164
100
AcDbEntity
  8
_U+30EC_U+30A4_U+30E4_U+30FC 1
370
     0
  0
HATCH
  5
16A
330
152
100
AcDbEntity
  8
_U+30EC_U+30A4_U+30E4_U+30FC 1
 62
   179
420
  2234388
100
AcDbHatch
 10
0.0
 20
0.0
 30
0.0
210
0.0
220
0.0
230
1.0
  2
SOLID
 70
     1
 71
     0
 91
        2
 92
        1
 93
       11
 72
     1
 10
96.26768118253031
 20
-123.959703202517
 11
96.26768118253031
 21
-124.3066243178817
 72
     1
 10
96.26768118253031
 20
-124.3066243178817
 11
96.04960663831399
 21
-124.3066243178817
 72
     1
 10
96.04960663831399
 20
-124.3066243178817
 11
96.04960663831399
 21
-123.959703202517
 72
     1
 10
96.04960663831399
 20
-123.959703202517
 11
95.39400496747095
 21
-123.959703202517
 72
     1
 10
95.39400496747095
 20
-123.959703202517
 11
95.39400496747095
 21
-123.7354274864273
 72
     1
 10
95.39400496747095
 20
-123.7354274864273
 11
96.0730332876137
 21
-122.7623602666184
 72
     1
 10
96.0730332876137
 20
-122.7623602666184
 11
96.26768118253031
 21
-122.7623602666184
 72
     1
 10
96.26768118253031
 20
-122.7623602666184
 11
96.26768118253031
 21
-123.7607489382439
 72
     1
 10
96.26768118253031
 20
-123.7607489382439
 11
96.47507593074235
 21
-123.7607489382439
 72
     1
 10
96.47507593074235
 20
-123.7607489382439
 11
96.47507593074235
 21
-123.959703202517
 72
     1
 10
96.47507593074235
 20
-123.959703202517
 11
96.26768118253031
 21
-123.959703202517
 97
        0
 92
        1
 93
        3
 72
     1
 10
96.04960663831399
 20
-123.1049750126265
 11
95.59278697696986
 21
-123.7607489382439
 72
     1
 10
95.59278697696986
 20
-123.7607489382439
 11
96.04960663831399
 21
-123.7607489382439
 72
     1
 10
96.04960663831399
 20
-123.7607489382439
 11
96.04960663831399
 21
-123.1049750126265
 97
        0
 75
     2
 76
     1
 98
        0
  0
SPLINE
  5
16B
330
152
100
AcDbEntity
  8
_U+30EC_U+30A4_U+30E4_U+30FC 1
370
     0
100
AcDbSpline
210
0.0
220
0.0
230
1.0
 70
    11
 71
     3
 72
    29
 73
    25
 74
     0
 42
0.0000000001
 43
0.0000000001
 12
1.0
 22
0.0
 32
0.0
 13
1.0
 23
0.0
 33
0.0
 40
0.0
 40
0.0
 40
0.0
 40
0.0
 40
1.0
 40
1.0
 40
1.0
 40
2.0
 40
2.0
 40
2.0
 40
3.0
 40
3.0
 40
3.0
 40
4.0
 40
4.0
 40
4.0
 40
5.0
 40
5.0
 40
5.0
 40
6.0
 40
6.0
 40
6.0
 40
7.0
 40
7.0
 40
7.0
 40
8.0
 40
8.0
 40
8.0
 40
8.0
 10
97.5099826145114
 20
-124.1288573908428
 30
0.0
 10
97.40215112582308
 20
-124.338319196346
 30
0.0
 10
97.228862822915
 20
-124.3574394762891
 30
0.0
 10
97.11241859551356
 20
-124.3574394762891
 30
0.0
 10
96.9515326363524
 20
-124.3574394762891
 30
0.0
 10
96.80993921190863
 20
-124.3109306872382
 30
0.0
 10
96.71451006696721
 20
-124.1288573908428
 30
0.0
 10
96.61115720240971
 20
-123.9342094959262
 30
0.0
 10
96.59186466769232
 20
-123.6973591813152
 30
0.0
 10
96.59186466769232
 20
-123.5344061648629
 30
0.0
 10
96.59186466769232
 20
-123.3905734283537
 30
0.0
 10
96.60874563557005
 20
-123.1389092031562
 30
0.0
 10
96.71451006696721
 20
-122.9399549388831
 30
0.0
 10
96.82268606520405
 20
-122.7368665600276
 30
0.0
 10
96.9832275148167
 20
-122.7136121655022
 30
0.0
 10
97.11241859551356
 20
-122.7136121655022
 30
0.0
 10
97.27089298783505
 20
-122.7136121655022
 30
0.0
 10
97.4148979791185
 20
-122.7580538972619
 30
0.0
 10
97.5099826145114
 20
-122.9399549388831
 30
0.0
 10
97.60954587403512
 20
-123.1325357765085
 30
0.0
 10
97.63262801378629
 20
-123.3609456071806
 30
0.0
 10
97.63262801378629
 20
-123.5344061648629
 30
0.0
 10
97.63262801378629
 20
-123.7057996652541
 30
0.0
 10
97.61161293132626
 20
-123.9364488079916
 30
0.0
 10
97.5099826145114
 20
-124.1288573908428
 30
0.0
  0
SPLINE
  5
16C
330
152
100
AcDbEntity
  8
_U+30EC_U+30A4_U+30E4_U+30FC 1
370
     0
100
AcDbSpline
210
0.0
220
0.0
230
1.0
 70
    11
 71
     3
 72
    17
 73
    13
 74
     0
 42
0.0000000001
 43
0.0000000001
 12
1.0
 22
0.0
 32
0.0
 13
1.0
 23
0.0
 33
0.0
 40
0.0
 40
0.0
 40
0.0
 40
0.0
 40
1.0
 40
1.0
 40
1.0
 40
2.0
 40
2.0
 40
2.0
 40
3.0
 40
3.0
 40
3.0
 40
4.0
 40
4.0
 40
4.0
 40
4.0
 10
97.11241859551356
 20
-122.9061930031276
 30
0.0
 10
96.86264917283296
 20
-122.9061930031276
 30
0.0
 10
96.81614038378208
 20
-123.1897243615637
 30
0.0
 10
96.81614038378208
 20
-123.5344061648629
 30
0.0
 10
96.81614038378208
 20
-123.8539387711199
 30
0.0
 10
96.8523138863772
 20
-124.1627915813725
 30
0.0
 10
97.11241859551356
 20
-124.1627915813725
 30
0.0
 10
97.3597764513545
 20
-124.1627915813725
 30
0.0
 10
97.40869680724505
 20
-123.8813272802276
 30
0.0
 10
97.40869680724505
 20
-123.5344061648629
 30
0.0
 10
97.40869680724505
 20
-123.2150458133803
 30
0.0
 10
97.37045624735877
 20
-122.9061930031276
 30
0.0
 10
97.11241859551356
 20
-122.9061930031276
 30
0.0
  0
HATCH
  5
16D
330
152
100
AcDbEntity
  8
_U+30EC_U+30A4_U+30E4_U+30FC 1
 62
   179
420
  2234388
100
AcDbHatch
 10
0.0
 20
0.0
 30
0.0
210
0.0
220
0.0
230
1.0
  2
SOLID
 70
     1
 71
     0
 91
        2
 92
        1
 93
        1
 72
     4
 94
        3
 73
     0
 74
     1
 95
       29
 96
       25
 40
0.0
 40
0.0
 40
0.0
 40
0.0
 40
1.0
 40
1.0
 40
1.0
 40
2.0
 40
2.0
 40
2.0
 40
3.0
 40
3.0
 40
3.0
 40
4.0
 40
4.0
 40
4.0
 40
5.0
 40
5.0
 40
5.0
 40
6.0
 40
6.0
 40
6.0
 40
7.0
 40
7.0
 40
7.0
 40
8.0
 40
8.0
 40
8.0
 40
8.0
 10
97.5099826145114
 20
-124.1288573908428
 10
97.40215112582308
 20
-124.338319196346
 10
97.228862822915
 20
-124.3574394762891
 10
97.11241859551356
 20
-124.3574394762891
 10
96.9515326363524
 20
-124.3574394762891
 10
96.80993921190863
 20
-124.3109306872382
 10
96.71451006696721
 20
-124.1288573908428
 10
96.61115720240971
 20
-123.9342094959262
 10
96.59186466769232
 20
-123.6973591813152
 10
96.59186466769232
 20
-123.5344061648629
 10
96.59186466769232
 20
-123.3905734283537
 10
96.60874563557005
 20
-123.1389092031562
 10
96.71451006696721
 20
-122.9399549388831
 10
96.82268606520405
 20
-122.7368665600276
 10
96.9832275148167
 20
-122.7136121655022
 10
97.11241859551356
 20
-122.7136121655022
 10
97.27089298783505
 20
-122.7136121655022
 10
97.4148979791185
 20
-122.7580538972619
 10
97.5099826145114
 20
-122.9399549388831
 10
97.60954587403512
 20
-123.1325357765085
 10
97.63262801378629
 20
-123.3609456071806
 10
97.63262801378629
 20
-123.5344061648629
 10
97.63262801378629
 20
-123.7057996652541
 10
97.61161293132626
 20
-123.9364488079916
 10
97.5099826145114
 20
-124.1288573908428
 97
        0
 97
        0
 92
        1
 93
        1
 72
     4
 94
        3
 73
     0
 74
     1
 95
       17
 96
       13
 40
0.0
 40
0.0
 40
0.0
 40
0.0
 40
1.0
 40
1.0
 40
1.0
 40
2.0
 40
2.0
 40
2.0
 40
3.0
 40
3.0
 40
3.0
 40
4.0
 40
4.0
 40
4.0
 40
4.0
 10
97.11241859551356
 20
-122.9061930031276
 10
96.86264917283296
 20
-122.9061930031276
 10
96.81614038378208
 20
-123.1897243615637
 10
96.81614038378208
 20
-123.5344061648629
 10
96.81614038378208
 20
-123.8539387711199
 10
96.8523138863772
 20
-124.1627915813725
 10
97.11241859551356
 20
-124.1627915813725
 10
97.3597764513545
 20
-124.1627915813725
 10
97.40869680724505
 20
-123.8813272802276
 10
97.40869680724505
 20
-123.5344061648629
 10
97.40869680724505
 20
-123.2150458133803
 10
97.37045624735877
 20
-122.9061930031276
 10
97.11241859551356
 20
-122.9061930031276
 97
        0
 97
        0
 75
     2
 76
     1
 98
        0
  0
ENDBLK
  5
155
330
152
100
AcDbEntity
  8
0
100
AcDbBlockEnd
  0
BLOCK
  5
178
330
176
100
AcDbEntity
  8
0
100
AcDbBlockBegin
  2
block 5
 70
     0
 10
0.0
 20
0.0
 30
0.0
  3
block 5
  1

  0
SPLINE
  5
17A
330
176
100
AcDbEntity
  8
_U+30EC_U+30A4_U+30E4_U+30FC 1
370
     0
100
AcDbSpline
210
0.0
220
0.0
230
1.0
 70
    11
 71
     3
 72
    26
 73
    22
 74
     0
 42
0.0000000001
 43
0.0000000001
 12
1.0
 22
0.0
 32
0.0
 13
1.0
 23
0.0
 33
0.0
 40
0.0
 40
0.0
 40
0.0
 40
0.0
 40
1.0
 40
1.0
 40
1.0
 40
2.0
 40
2.0
 40
2.0
 40
3.0
 40
3.0
 40
3.0
 40
4.0
 40
4.0
 40
4.0
 40
5.0
 40
5.0
 40
5.0
 40
6.0
 40
6.0
 40
6.0
 40
7.0
 40
7.0
 40
7.0
 40
7.0
 10
81.90146075426422
 20
-123.9538465401921
 30
0.0
 10
81.90146075426422
 20
-123.9538465401921
 30
0.0
 10
81.90146075426422
 20
-122.8495211823953
 30
0.0
 10
81.90146075426422
 20
-122.8495211823953
 30
0.0
 10
81.90146075426422
 20
-122.8495211823953
 30
0.0
 10
81.57142060677728
 20
-122.8495211823953
 30
0.0
 10
81.57142060677728
 20
-122.8495211823953
 30
0.0
 10
81.57142060677728
 20
-122.8495211823953
 30
0.0
 10
81.57142060677728
 20
-122.7015543313038
 30
0.0
 10
81.57142060677728
 20
-122.7015543313038
 30
0.0
 10
81.90352781155538
 20
-122.6867404207172
 30
0.0
 10
81.95003660060624
 20
-122.5237874042649
 30
0.0
 10
81.97966442177939
 20
-122.4095824889289
 30
0.0
 10
81.97966442177939
 20
-122.4095824889289
 30
0.0
 10
82.12573647035398
 20
-122.4095824889289
 30
0.0
 10
82.12573647035398
 20
-122.4095824889289
 30
0.0
 10
82.12573647035398
 20
-122.4095824889289
 30
0.0
 10
82.12573647035398
 20
-123.9538465401921
 30
0.0
 10
82.12573647035398
 20
-123.9538465401921
 30
0.0
 10
82.12573647035398
 20
-123.9538465401921
 30
0.0
 10
81.90146075426422
 20
-123.9538465401921
 30
0.0
 10
81.90146075426422
 20
-123.9538465401921
 30
0.0
  0
HATCH
  5
17B
330
176
100
AcDbEntity
  8
_U+30EC_U+30A4_U+30E4_U+30FC 1
 62
   179
420
  2234388
100
AcDbHatch
 10
0.0
 20
0.0
 30
0.0
210
0.0
220
0.0
230
1.0
  2
SOLID
 70
     1
 71
     0
 91
        1
 92
        1
 93
        1
 72
     4
 94
        3
 73
     0
 74
     1
 95
       26
 96
       22
 40
0.0
 40
0.0
 40
0.0
 40
0.0
 40
1.0
 40
1.0
 40
1.0
 40
2.0
 40
2.0
 40
2.0
 40
3.0
 40
3.0
 40
3.0
 40
4.0
 40
4.0
 40
4.0
 40
5.0
 40
5.0
 40
5.0
 40
6.0
 40
6.0
 40
6.0
 40
7.0
 40
7.0
 40
7.0
 40
7.0
 10
81.90146075426422
 20
-123.9538465401921
 10
81.90146075426422
 20
-123.9538465401921
 10
81.90146075426422
 20
-122.8495211823953
 10
81.90146075426422
 20
-122.8495211823953
 10
81.90146075426422
 20
-122.8495211823953
 10
81.57142060677728
 20
-122.8495211823953
 10
81.57142060677728
 20
-122.8495211823953
 10
81.57142060677728
 20
-122.8495211823953
 10
81.57142060677728
 20
-122.7015543313038
 10
81.57142060677728
 20
-122.7015543313038
 10
81.90352781155538
 20
-122.6867404207172
 10
81.95003660060624
 20
-122.5237874042649
 10
81.97966442177939
 20
-122.4095824889289
 10
81.97966442177939
 20
-122.4095824889289
 10
82.12573647035398
 20
-122.4095824889289
 10
82.12573647035398
 20
-122.4095824889289
 10
82.12573647035398
 20
-122.4095824889289
 10
82.12573647035398
 20
-123.9538465401921
 10
82.12573647035398
 20
-123.9538465401921
 10
82.12573647035398
 20
-123.9538465401921
 10
81.90146075426422
 20
-123.9538465401921
 10
81.90146075426422
 20
-123.9538465401921
 97
        0
 97
        0
 75
     2
 76
     1
 98
        0
  0
SPLINE
  5
17C
330
176
100
AcDbEntity
  8
_U+30EC_U+30A4_U+30E4_U+30FC 1
370
     0
100
AcDbSpline
210
0.0
220
0.0
230
1.0
 70
    11
 71
     3
 72
    26
 73
    22
 74
     0
 42
0.0000000001
 43
0.0000000001
 12
1.0
 22
0.0
 32
0.0
 13
1.0
 23
0.0
 33
0.0
 40
0.0
 40
0.0
 40
0.0
 40
0.0
 40
1.0
 40
1.0
 40
1.0
 40
2.0
 40
2.0
 40
2.0
 40
3.0
 40
3.0
 40
3.0
 40
4.0
 40
4.0
 40
4.0
 40
5.0
 40
5.0
 40
5.0
 40
6.0
 40
6.0
 40
6.0
 40
7.0
 40
7.0
 40
7.0
 40
7.0
 10
83.03799775484815
 20
-123.9538465401921
 30
0.0
 10
83.03799775484815
 20
-123.9538465401921
 30
0.0
 10
82.80114744023722
 20
-123.9538465401921
 30
0.0
 10
82.80114744023722
 20
-123.9538465401921
 30
0.0
 10
82.8264688920538
 20
-123.6449937299395
 30
0.0
 10
83.01904972967927
 20
-123.1266791141836
 30
0.0
 10
83.42522648739022
 20
-122.6211113517232
 30
0.0
 10
83.42522648739022
 20
-122.6211113517232
 30
0.0
 10
82.58737926537746
 20
-122.6211113517232
 30
0.0
 10
82.58737926537746
 20
-122.6211113517232
 30
0.0
 10
82.58737926537746
 20
-122.6211113517232
 30
0.0
 10
82.58737926537746
 20
-122.4095824889289
 30
0.0
 10
82.58737926537746
 20
-122.4095824889289
 30
0.0
 10
82.58737926537746
 20
-122.4095824889289
 30
0.0
 10
83.66207680200115
 20
-122.4095824889289
 30
0.0
 10
83.66207680200115
 20
-122.4095824889289
 30
0.0
 10
83.66207680200115
 20
-122.4095824889289
 30
0.0
 10
83.66207680200115
 20
-122.6211113517232
 30
0.0
 10
83.66207680200115
 20
-122.6211113517232
 30
0.0
 10
83.33841008116192
 20
-122.9108438820327
 30
0.0
 10
83.07193194537786
 20
-123.5032280507214
 30
0.0
 10
83.03799775484815
 20
-123.9538465401921
 30
0.0
  0
HATCH
  5
17D
330
176
100
AcDbEntity
  8
_U+30EC_U+30A4_U+30E4_U+30FC 1
 62
   179
420
  2234388
100
AcDbHatch
 10
0.0
 20
0.0
 30
0.0
210
0.0
220
0.0
230
1.0
  2
SOLID
 70
     1
 71
     0
 91
        1
 92
        1
 93
        1
 72
     4
 94
        3
 73
     0
 74
     1
 95
       26
 96
       22
 40
0.0
 40
0.0
 40
0.0
 40
0.0
 40
1.0
 40
1.0
 40
1.0
 40
2.0
 40
2.0
 40
2.0
 40
3.0
 40
3.0
 40
3.0
 40
4.0
 40
4.0
 40
4.0
 40
5.0
 40
5.0
 40
5.0
 40
6.0
 40
6.0
 40
6.0
 40
7.0
 40
7.0
 40
7.0
 40
7.0
 10
83.03799775484815
 20
-123.9538465401921
 10
83.03799775484815
 20
-123.9538465401921
 10
82.80114744023722
 20
-123.9538465401921
 10
82.80114744023722
 20
-123.9538465401921
 10
82.8264688920538
 20
-123.6449937299395
 10
83.01904972967927
 20
-123.1266791141836
 10
83.42522648739022
 20
-122.6211113517232
 10
83.42522648739022
 20
-122.6211113517232
 10
82.58737926537746
 20
-122.6211113517232
 10
82.58737926537746
 20
-122.6211113517232
 10
82.58737926537746
 20
-122.6211113517232
 10
82.58737926537746
 20
-122.4095824889289
 10
82.58737926537746
 20
-122.4095824889289
 10
82.58737926537746
 20
-122.4095824889289
 10
83.66207680200115
 20
-122.4095824889289
 10
83.66207680200115
 20
-122.4095824889289
 10
83.66207680200115
 20
-122.4095824889289
 10
83.66207680200115
 20
-122.6211113517232
 10
83.66207680200115
 20
-122.6211113517232
 10
83.33841008116192
 20
-122.9108438820327
 10
83.07193194537786
 20
-123.5032280507214
 10
83.03799775484815
 20
-123.9538465401921
 97
        0
 97
        0
 75
     2
 76
     1
 98
        0
  0
ENDBLK
  5
179
330
176
100
AcDbEntity
  8
0
100
AcDbBlockEnd
  0
BLOCK
  5
18C
330
18A
100
AcDbEntity
  8
0
100
AcDbBlockBegin
  2
block 6
 70
     0
 10
0.0
 20
0.0
 30
0.0
  3
block 6
  1

  0
SPLINE
  5
18E
330
18A
100
AcDbEntity
  8
_U+30EC_U+30A4_U+30E4_U+30FC 1
370
     0
100
AcDbSpline
210
0.0
220
0.0
230
1.0
 70
    11
 71
     3
 72
    26
 73
    22
 74
     0
 42
0.0000000001
 43
0.0000000001
 12
1.0
 22
0.0
 32
0.0
 13
1.0
 23
0.0
 33
0.0
 40
0.0
 40
0.0
 40
0.0
 40
0.0
 40
1.0
 40
1.0
 40
1.0
 40
2.0
 40
2.0
 40
2.0
 40
3.0
 40
3.0
 40
3.0
 40
4.0
 40
4.0
 40
4.0
 40
5.0
 40
5.0
 40
5.0
 40
6.0
 40
6.0
 40
6.0
 40
7.0
 40
7.0
 40
7.0
 40
7.0
 10
76.55071070134844
 20
-135.7829263983459
 30
0.0
 10
76.55071070134844
 20
-135.7829263983459
 30
0.0
 10
75.4463853435516
 20
-135.7829263983459
 30
0.0
 10
75.4463853435516
 20
-135.7829263983459
 30
0.0
 10
75.4463853435516
 20
-135.7829263983459
 30
0.0
 10
75.4463853435516
 20
-136.1129665458329
 30
0.0
 10
75.4463853435516
 20
-136.1129665458329
 30
0.0
 10
75.4463853435516
 20
-136.1129665458329
 30
0.0
 10
75.29841849246012
 20
-136.1129665458329
 30
0.0
 10
75.29841849246012
 20
-136.1129665458329
 30
0.0
 10
75.28360458187355
 20
-135.7808593410548
 30
0.0
 10
75.12065156542123
 20
-135.7343505520039
 30
0.0
 10
75.0064466500852
 20
-135.7047227308308
 30
0.0
 10
75.0064466500852
 20
-135.7047227308308
 30
0.0
 10
75.0064466500852
 20
-135.5586506822562
 30
0.0
 10
75.0064466500852
 20
-135.5586506822562
 30
0.0
 10
75.0064466500852
 20
-135.5586506822562
 30
0.0
 10
76.55071070134844
 20
-135.5586506822562
 30
0.0
 10
76.55071070134844
 20
-135.5586506822562
 30
0.0
 10
76.55071070134844
 20
-135.5586506822562
 30
0.0
 10
76.55071070134844
 20
-135.7829263983459
 30
0.0
 10
76.55071070134844
 20
-135.7829263983459
 30
0.0
  0
HATCH
  5
18F
330
18A
100
AcDbEntity
  8
_U+30EC_U+30A4_U+30E4_U+30FC 1
 62
   179
420
  2234388
100
AcDbHatch
 10
0.0
 20
0.0
 30
0.0
210
0.0
220
0.0
230
1.0
  2
SOLID
 70
     1
 71
     0
 91
        1
 92
        1
 93
        1
 72
     4
 94
        3
 73
     0
 74
     1
 95
       26
 96
       22
 40
0.0
 40
0.0
 40
0.0
 40
0.0
 40
1.0
 40
1.0
 40
1.0
 40
2.0
 40
2.0
 40
2.0
 40
3.0
 40
3.0
 40
3.0
 40
4.0
 40
4.0
 40
4.0
 40
5.0
 40
5.0
 40
5.0
 40
6.0
 40
6.0
 40
6.0
 40
7.0
 40
7.0
 40
7.0
 40
7.0
 10
76.55071070134844
 20
-135.7829263983459
 10
76.55071070134844
 20
-135.7829263983459
 10
75.4463853435516
 20
-135.7829263983459
 10
75.4463853435516
 20
-135.7829263983459
 10
75.4463853435516
 20
-135.7829263983459
 10
75.4463853435516
 20
-136.1129665458329
 10
75.4463853435516
 20
-136.1129665458329
 10
75.4463853435516
 20
-136.1129665458329
 10
75.29841849246012
 20
-136.1129665458329
 10
75.29841849246012
 20
-136.1129665458329
 10
75.28360458187355
 20
-135.7808593410548
 10
75.12065156542123
 20
-135.7343505520039
 10
75.0064466500852
 20
-135.7047227308308
 10
75.0064466500852
 20
-135.7047227308308
 10
75.0064466500852
 20
-135.5586506822562
 10
75.0064466500852
 20
-135.5586506822562
 10
75.0064466500852
 20
-135.5586506822562
 10
76.55071070134844
 20
-135.5586506822562
 10
76.55071070134844
 20
-135.5586506822562
 10
76.55071070134844
 20
-135.5586506822562
 10
76.55071070134844
 20
-135.7829263983459
 10
76.55071070134844
 20
-135.7829263983459
 97
        0
 97
        0
 75
     2
 76
     1
 98
        0
  0
SPLINE
  5
190
330
18A
100
AcDbEntity
  8
_U+30EC_U+30A4_U+30E4_U+30FC 1
370
     0
100
AcDbSpline
210
0.0
220
0.0
230
1.0
 70
    11
 71
     3
 72
    29
 73
    25
 74
     0
 42
0.0000000001
 43
0.0000000001
 12
1.0
 22
0.0
 32
0.0
 13
1.0
 23
0.0
 33
0.0
 40
0.0
 40
0.0
 40
0.0
 40
0.0
 40
1.0
 40
1.0
 40
1.0
 40
2.0
 40
2.0
 40
2.0
 40
3.0
 40
3.0
 40
3.0
 40
4.0
 40
4.0
 40
4.0
 40
5.0
 40
5.0
 40
5.0
 40
6.0
 40
6.0
 40
6.0
 40
7.0
 40
7.0
 40
7.0
 40
8.0
 40
8.0
 40
8.0
 40
8.0
 10
76.37294377430955
 20
-134.1595974056962
 30
0.0
 10
76.58240557981273
 20
-134.2677734039331
 30
0.0
 10
76.60152585975587
 20
-134.4410617068411
 30
0.0
 10
76.60152585975587
 20
-134.5575059342426
 30
0.0
 10
76.60152585975587
 20
-134.7183918934037
 30
0.0
 10
76.555017070705
 20
-134.8599853178475
 30
0.0
 10
76.37294377430955
 20
-134.9554144627889
 30
0.0
 10
76.17829587939293
 20
-135.0587673273464
 30
0.0
 10
75.941445564782
 20
-135.0780598620638
 30
0.0
 10
75.77849254832968
 20
-135.0780598620638
 30
0.0
 10
75.63465981182051
 20
-135.0780598620638
 30
0.0
 10
75.38299558662301
 20
-135.0608343846376
 30
0.0
 10
75.18404132234983
 20
-134.9554144627889
 30
0.0
 10
74.98095294349434
 20
-134.8472384645521
 30
0.0
 10
74.9576985489689
 20
-134.6866970149395
 30
0.0
 10
74.9576985489689
 20
-134.5575059342426
 30
0.0
 10
74.9576985489689
 20
-134.3986870323725
 30
0.0
 10
75.00214028072864
 20
-134.2550265506376
 30
0.0
 10
75.18404132234983
 20
-134.1595974056962
 30
0.0
 10
75.3766221599753
 20
-134.060378655721
 30
0.0
 10
75.60503199064736
 20
-134.0369520064213
 30
0.0
 10
75.77849254832968
 20
-134.0369520064213
 30
0.0
 10
75.94988604872087
 20
-134.0369520064213
 30
0.0
 10
76.18053519145835
 20
-134.0583115984299
 30
0.0
 10
76.37294377430955
 20
-134.1595974056962
 30
0.0
  0
SPLINE
  5
191
330
18A
100
AcDbEntity
  8
_U+30EC_U+30A4_U+30E4_U+30FC 1
370
     0
100
AcDbSpline
210
0.0
220
0.0
230
1.0
 70
    11
 71
     3
 72
    17
 73
    13
 74
     0
 42
0.0000000001
 43
0.0000000001
 12
1.0
 22
0.0
 32
0.0
 13
1.0
 23
0.0
 33
0.0
 40
0.0
 40
0.0
 40
0.0
 40
0.0
 40
1.0
 40
1.0
 40
1.0
 40
2.0
 40
2.0
 40
2.0
 40
3.0
 40
3.0
 40
3.0
 40
4.0
 40
4.0
 40
4.0
 40
4.0
 10
75.15027938659438
 20
-134.5575059342426
 30
0.0
 10
75.15027938659438
 20
-134.8072753569232
 30
0.0
 10
75.43381074503044
 20
-134.8534396364255
 30
0.0
 10
75.77849254832968
 20
-134.8534396364255
 30
0.0
 10
76.09802515458661
 20
-134.8534396364255
 30
0.0
 10
76.40687796483925
 20
-134.8176106433789
 30
0.0
 10
76.40687796483925
 20
-134.5575059342426
 30
0.0
 10
76.40687796483925
 20
-134.3098035688531
 30
0.0
 10
76.12541366369435
 20
-134.2612277225111
 30
0.0
 10
75.77849254832968
 20
-134.2612277225111
 30
0.0
 10
75.45913219684702
 20
-134.2612277225111
 30
0.0
 10
75.15027938659438
 20
-134.2994682823974
 30
0.0
 10
75.15027938659438
 20
-134.5575059342426
 30
0.0
  0
HATCH
  5
192
330
18A
100
AcDbEntity
  8
_U+30EC_U+30A4_U+30E4_U+30FC 1
 62
   179
420
  2234388
100
AcDbHatch
 10
0.0
 20
0.0
 30
0.0
210
0.0
220
0.0
230
1.0
  2
SOLID
 70
     1
 71
     0
 91
        2
 92
        1
 93
        1
 72
     4
 94
        3
 73
     0
 74
     1
 95
       29
 96
       25
 40
0.0
 40
0.0
 40
0.0
 40
0.0
 40
1.0
 40
1.0
 40
1.0
 40
2.0
 40
2.0
 40
2.0
 40
3.0
 40
3.0
 40
3.0
 40
4.0
 40
4.0
 40
4.0
 40
5.0
 40
5.0
 40
5.0
 40
6.0
 40
6.0
 40
6.0
 40
7.0
 40
7.0
 40
7.0
 40
8.0
 40
8.0
 40
8.0
 40
8.0
 10
76.37294377430955
 20
-134.1595974056962
 10
76.58240557981273
 20
-134.2677734039331
 10
76.60152585975587
 20
-134.4410617068411
 10
76.60152585975587
 20
-134.5575059342426
 10
76.60152585975587
 20
-134.7183918934037
 10
76.555017070705
 20
-134.8599853178475
 10
76.37294377430955
 20
-134.9554144627889
 10
76.17829587939293
 20
-135.0587673273464
 10
75.941445564782
 20
-135.0780598620638
 10
75.77849254832968
 20
-135.0780598620638
 10
75.63465981182051
 20
-135.0780598620638
 10
75.38299558662301
 20
-135.0608343846376
 10
75.18404132234983
 20
-134.9554144627889
 10
74.98095294349434
 20
-134.8472384645521
 10
74.9576985489689
 20
-134.6866970149395
 10
74.9576985489689
 20
-134.5575059342426
 10
74.9576985489689
 20
-134.3986870323725
 10
75.00214028072864
 20
-134.2550265506376
 10
75.18404132234983
 20
-134.1595974056962
 10
75.3766221599753
 20
-134.060378655721
 10
75.60503199064736
 20
-134.0369520064213
 10
75.77849254832968
 20
-134.0369520064213
 10
75.94988604872087
 20
-134.0369520064213
 10
76.18053519145835
 20
-134.0583115984299
 10
76.37294377430955
 20
-134.1595974056962
 97
        0
 97
        0
 92
        1
 93
        1
 72
     4
 94
        3
 73
     0
 74
     1
 95
       17
 96
       13
 40
0.0
 40
0.0
 40
0.0
 40
0.0
 40
1.0
 40
1.0
 40
1.0
 40
2.0
 40
2.0
 40
2.0
 40
3.0
 40
3.0
 40
3.0
 40
4.0
 40
4.0
 40
4.0
 40
4.0
 10
75.15027938659438
 20
-134.5575059342426
 10
75.15027938659438
 20
-134.8072753569232
 10
75.43381074503044
 20
-134.8534396364255
 10
75.77849254832968
 20
-134.8534396364255
 10
76.09802515458661
 20
-134.8534396364255
 10
76.40687796483925
 20
-134.8176106433789
 10
76.40687796483925
 20
-134.5575059342426
 10
76.40687796483925
 20
-134.3098035688531
 10
76.12541366369435
 20
-134.2612277225111
 10
75.77849254832968
 20
-134.2612277225111
 10
75.45913219684702
 20
-134.2612277225111
 10
75.15027938659438
 20
-134.2994682823974
 10
75.15027938659438
 20
-134.5575059342426
 97
        0
 97
        0
 75
     2
 76
     1
 98
        0
  0
ENDBLK
  5
18D
330
18A
100
AcDbEntity
  8
0
100
AcDbBlockEnd
  0
BLOCK
  5
1A1
330
19F
100
AcDbEntity
  8
0
100
AcDbBlockBegin
  2
block 7
 70
     0
 10
0.0
 20
0.0
 30
0.0
  3
block 7
  1

  0
SPLINE
  5
1A3
330
19F
100
AcDbEntity
  8
_U+30EC_U+30A4_U+30E4_U+30FC 1
370
     0
100
AcDbSpline
210
0.0
220
0.0
230
1.0
 70
    11
 71
     3
 72
    44
 73
    40
 74
     0
 42
0.0000000001
 43
0.0000000001
 12
1.0
 22
0.0
 32
0.0
 13
1.0
 23
0.0
 33
0.0
 40
0.0
 40
0.0
 40
0.0
 40
0.0
 40
1.0
 40
1.0
 40
1.0
 40
2.0
 40
2.0
 40
2.0
 40
3.0
 40
3.0
 40
3.0
 40
4.0
 40
4.0
 40
4.0
 40
5.0
 40
5.0
 40
5.0
 40
6.0
 40
6.0
 40
6.0
 40
7.0
 40
7.0
 40
7.0
 40
8.0
 40
8.0
 40
8.0
 40
9.0
 40
9.0
 40
9.0
 40
10.0
 40
10.0
 40
10.0
 40
11.0
 40
11.0
 40
11.0
 40
12.0
 40
12.0
 40
12.0
 40
13.0
 40
13.0
 40
13.0
 40
13.0
 10
73.70454506620928
 20
-131.8617187170346
 30
0.0
 10
73.86319171330504
 20
-132.0797932612509
 30
0.0
 10
73.93726126623791
 20
-132.1731553489012
 30
0.0
 10
74.0810940027471
 20
-132.2213866856947
 30
0.0
 10
74.0810940027471
 20
-132.2213866856947
 30
0.0
 10
74.0810940027471
 20
-131.4431396155767
 30
0.0
 10
74.0810940027471
 20
-131.4431396155767
 30
0.0
 10
74.0810940027471
 20
-131.4431396155767
 30
0.0
 10
74.28624943889372
 20
-131.4431396155767
 30
0.0
 10
74.28624943889372
 20
-131.4431396155767
 30
0.0
 10
74.28624943889372
 20
-131.4431396155767
 30
0.0
 10
74.28624943889372
 20
-132.4711561083753
 30
0.0
 10
74.28624943889372
 20
-132.4711561083753
 30
0.0
 10
73.92864852752479
 20
-132.439461229911
 30
0.0
 10
73.85044486000962
 20
-132.3740044156912
 30
0.0
 10
73.55209959098698
 20
-131.9888427404403
 30
0.0
 10
73.35331758148806
 20
-131.7328721458862
 30
0.0
 10
73.2856214552029
 20
-131.6674153316665
 30
0.0
 10
73.14816214534143
 20
-131.6674153316665
 30
0.0
 10
73.02965086064884
 20
-131.6674153316665
 30
0.0
 10
72.89856497743509
 20
-131.7390733177597
 30
0.0
 10
72.89856497743509
 20
-131.936132779516
 30
0.0
 10
72.89856497743509
 20
-132.1962374886523
 30
0.0
 10
73.12904186539829
 20
-132.2048502273655
 30
0.0
 10
73.24548609279974
 20
-132.2089843419478
 30
0.0
 10
73.24548609279974
 20
-132.2089843419478
 30
0.0
 10
73.24548609279974
 20
-132.432915548489
 30
0.0
 10
73.24548609279974
 20
-132.432915548489
 30
0.0
 10
73.11853432416828
 20
-132.4246473193244
 30
0.0
 10
73.0063964661234
 20
-132.4143120328687
 30
0.0
 10
72.8878851814308
 20
-132.3336967985138
 30
0.0
 10
72.72717147704391
 20
-132.2237982525343
 30
0.0
 10
72.69323728651419
 20
-132.0374185867823
 30
0.0
 10
72.69323728651419
 20
-131.9209743593809
 30
0.0
 10
72.69323728651419
 20
-131.6439886823668
 30
0.0
 10
72.87737764020079
 20
-131.4365939341548
 30
0.0
 10
73.15022920263259
 20
-131.4365939341548
 30
0.0
 10
73.37863903330465
 20
-131.4365939341548
 30
0.0
 10
73.47820229282837
 20
-131.5530381615562
 30
0.0
 10
73.70454506620928
 20
-131.8617187170346
 30
0.0
  0
HATCH
  5
1A4
330
19F
100
AcDbEntity
  8
_U+30EC_U+30A4_U+30E4_U+30FC 1
 62
   179
420
  2234388
100
AcDbHatch
 10
0.0
 20
0.0
 30
0.0
210
0.0
220
0.0
230
1.0
  2
SOLID
 70
     1
 71
     0
 91
        1
 92
        1
 93
        1
 72
     4
 94
        3
 73
     0
 74
     1
 95
       44
 96
       40
 40
0.0
 40
0.0
 40
0.0
 40
0.0
 40
1.0
 40
1.0
 40
1.0
 40
2.0
 40
2.0
 40
2.0
 40
3.0
 40
3.0
 40
3.0
 40
4.0
 40
4.0
 40
4.0
 40
5.0
 40
5.0
 40
5.0
 40
6.0
 40
6.0
 40
6.0
 40
7.0
 40
7.0
 40
7.0
 40
8.0
 40
8.0
 40
8.0
 40
9.0
 40
9.0
 40
9.0
 40
10.0
 40
10.0
 40
10.0
 40
11.0
 40
11.0
 40
11.0
 40
12.0
 40
12.0
 40
12.0
 40
13.0
 40
13.0
 40
13.0
 40
13.0
 10
73.70454506620928
 20
-131.8617187170346
 10
73.86319171330504
 20
-132.0797932612509
 10
73.93726126623791
 20
-132.1731553489012
 10
74.0810940027471
 20
-132.2213866856947
 10
74.0810940027471
 20
-132.2213866856947
 10
74.0810940027471
 20
-131.4431396155767
 10
74.0810940027471
 20
-131.4431396155767
 10
74.0810940027471
 20
-131.4431396155767
 10
74.28624943889372
 20
-131.4431396155767
 10
74.28624943889372
 20
-131.4431396155767
 10
74.28624943889372
 20
-131.4431396155767
 10
74.28624943889372
 20
-132.4711561083753
 10
74.28624943889372
 20
-132.4711561083753
 10
73.92864852752479
 20
-132.439461229911
 10
73.85044486000962
 20
-132.3740044156912
 10
73.55209959098698
 20
-131.9888427404403
 10
73.35331758148806
 20
-131.7328721458862
 10
73.2856214552029
 20
-131.6674153316665
 10
73.14816214534143
 20
-131.6674153316665
 10
73.02965086064884
 20
-131.6674153316665
 10
72.89856497743509
 20
-131.7390733177597
 10
72.89856497743509
 20
-131.936132779516
 10
72.89856497743509
 20
-132.1962374886523
 10
73.12904186539829
 20
-132.2048502273655
 10
73.24548609279974
 20
-132.2089843419478
 10
73.24548609279974
 20
-132.2089843419478
 10
73.24548609279974
 20
-132.432915548489
 10
73.24548609279974
 20
-132.432915548489
 10
73.11853432416828
 20
-132.4246473193244
 10
73.0063964661234
 20
-132.4143120328687
 10
72.8878851814308
 20
-132.3336967985138
 10
72.72717147704391
 20
-132.2237982525343
 10
72.69323728651419
 20
-132.0374185867823
 10
72.69323728651419
 20
-131.9209743593809
 10
72.69323728651419
 20
-131.6439886823668
 10
72.87737764020079
 20
-131.4365939341548
 10
73.15022920263259
 20
-131.4365939341548
 10
73.37863903330465
 20
-131.4365939341548
 10
73.47820229282837
 20
-131.5530381615562
 10
73.70454506620928
 20
-131.8617187170346
 97
        0
 97
        0
 75
     2
 76
     1
 98
        0
  0
SPLINE
  5
1A5
330
19F
100
AcDbEntity
  8
_U+30EC_U+30A4_U+30E4_U+30FC 1
370
     0
100
AcDbSpline
210
0.0
220
0.0
230
1.0
 70
    11
 71
     3
 72
    62
 73
    58
 74
     0
 42
0.0000000001
 43
0.0000000001
 12
1.0
 22
0.0
 32
0.0
 13
1.0
 23
0.0
 33
0.0
 40
0.0
 40
0.0
 40
0.0
 40
0.0
 40
1.0
 40
1.0
 40
1.0
 40
2.0
 40
2.0
 40
2.0
 40
3.0
 40
3.0
 40
3.0
 40
4.0
 40
4.0
 40
4.0
 40
5.0
 40
5.0
 40
5.0
 40
6.0
 40
6.0
 40
6.0
 40
7.0
 40
7.0
 40
7.0
 40
8.0
 40
8.0
 40
8.0
 40
9.0
 40
9.0
 40
9.0
 40
10.0
 40
10.0
 40
10.0
 40
11.0
 40
11.0
 40
11.0
 40
12.0
 40
12.0
 40
12.0
 40
13.0
 40
13.0
 40
13.0
 40
14.0
 40
14.0
 40
14.0
 40
15.0
 40
15.0
 40
15.0
 40
16.0
 40
16.0
 40
16.0
 40
17.0
 40
17.0
 40
17.0
 40
18.0
 40
18.0
 40
18.0
 40
19.0
 40
19.0
 40
19.0
 40
19.0
 10
74.33706459730115
 20
-130.7868489256366
 30
0.0
 10
74.33706459730115
 20
-130.8819335610295
 30
0.0
 10
74.31587726006687
 20
-131.0996635956973
 30
0.0
 10
74.12966984908911
 20
-131.2243760522634
 30
0.0
 10
74.01753199104424
 20
-131.2987901147447
 30
0.0
 10
73.91814098629477
 20
-131.3029242293271
 30
0.0
 10
73.83356389213189
 20
-131.3070583439093
 30
0.0
 10
73.83356389213189
 20
-131.3070583439093
 30
0.0
 10
73.83356389213189
 20
-131.0872612519504
 30
0.0
 10
73.83356389213189
 20
-131.0872612519504
 30
0.0
 10
73.90763344506476
 20
-131.0851941946593
 30
0.0
 10
74.14241670238454
 20
-131.0741698891065
 30
0.0
 10
74.14241670238454
 20
-130.7909830402189
 30
0.0
 10
74.14241670238454
 20
-130.6531792208089
 30
0.0
 10
74.07265351880822
 20
-130.5009060003609
 30
0.0
 10
73.8440714333619
 20
-130.5009060003609
 30
0.0
 10
73.72779946073472
 20
-130.5009060003609
 30
0.0
 10
73.67905135961844
 20
-130.5391465602472
 30
0.0
 10
73.64735648115413
 20
-130.5708414387115
 30
0.0
 10
73.57328692822126
 20
-130.6449109916443
 30
0.0
 10
73.56071232970011
 20
-130.7613552190458
 30
0.0
 10
73.56071232970011
 20
-130.8164767468098
 30
0.0
 10
73.56071232970011
 20
-130.8350802624301
 30
0.0
 10
73.56277938699125
 20
-130.8712537650252
 30
0.0
 10
73.56691350157355
 20
-130.8988145289073
 30
0.0
 10
73.56691350157355
 20
-130.8988145289073
 30
0.0
 10
73.37226560665694
 20
-130.8988145289073
 30
0.0
 10
73.37226560665694
 20
-130.8988145289073
 30
0.0
 10
73.37863903330465
 20
-130.860573969021
 30
0.0
 10
73.38087834537006
 20
-130.8185438041009
 30
0.0
 10
73.38087834537006
 20
-130.8119981226789
 30
0.0
 10
73.38087834537006
 20
-130.7465413084592
 30
0.0
 10
73.35969100813577
 20
-130.5477592989603
 30
0.0
 10
73.12266843875058
 20
-130.5477592989603
 30
0.0
 10
72.94507376648596
 20
-130.5477592989603
 30
0.0
 10
72.88995223872196
 20
-130.6786729273998
 30
0.0
 10
72.88995223872196
 20
-130.7889159829278
 30
0.0
 10
72.88995223872196
 20
-131.0531548066464
 30
0.0
 10
73.12266843875058
 20
-131.0617675453596
 30
0.0
 10
73.1946709343923
 20
-131.0659016599419
 30
0.0
 10
73.1946709343923
 20
-131.0659016599419
 30
0.0
 10
73.1946709343923
 20
-131.2691622935716
 30
0.0
 10
73.1946709343923
 20
-131.2691622935716
 30
0.0
 10
73.069786223052
 20
-131.2605495548585
 30
0.0
 10
72.69323728651419
 20
-131.2329887909765
 30
0.0
 10
72.69323728651419
 20
-130.7761691296324
 30
0.0
 10
72.69323728651419
 20
-130.5518934135426
 30
0.0
 10
72.82018905514565
 20
-130.3107367295751
 30
0.0
 10
73.11629501210287
 20
-130.3107367295751
 30
0.0
 10
73.30250242308063
 20
-130.3107367295751
 30
0.0
 10
73.38501245995236
 20
-130.405821364968
 30
0.0
 10
73.44633515958981
 20
-130.5053846244917
 30
0.0
 10
73.4738959234718
 20
-130.4437174153057
 30
0.0
 10
73.5543389030524
 20
-130.2618163736846
 30
0.0
 10
73.83149683484073
 20
-130.2618163736846
 30
0.0
 10
74.16997746626653
 20
-130.2618163736846
 30
0.0
 10
74.33706459730115
 20
-130.509518739074
 30
0.0
 10
74.33706459730115
 20
-130.7868489256366
 30
0.0
  0
HATCH
  5
1A6
330
19F
100
AcDbEntity
  8
_U+30EC_U+30A4_U+30E4_U+30FC 1
 62
   179
420
  2234388
100
AcDbHatch
 10
0.0
 20
0.0
 30
0.0
210
0.0
220
0.0
230
1.0
  2
SOLID
 70
     1
 71
     0
 91
        1
 92
        1
 93
        1
 72
     4
 94
        3
 73
     0
 74
     1
 95
       62
 96
       58
 40
0.0
 40
0.0
 40
0.0
 40
0.0
 40
1.0
 40
1.0
 40
1.0
 40
2.0
 40
2.0
 40
2.0
 40
3.0
 40
3.0
 40
3.0
 40
4.0
 40
4.0
 40
4.0
 40
5.0
 40
5.0
 40
5.0
 40
6.0
 40
6.0
 40
6.0
 40
7.0
 40
7.0
 40
7.0
 40
8.0
 40
8.0
 40
8.0
 40
9.0
 40
9.0
 40
9.0
 40
10.0
 40
10.0
 40
10.0
 40
11.0
 40
11.0
 40
11.0
 40
12.0
 40
12.0
 40
12.0
 40
13.0
 40
13.0
 40
13.0
 40
14.0
 40
14.0
 40
14.0
 40
15.0
 40
15.0
 40
15.0
 40
16.0
 40
16.0
 40
16.0
 40
17.0
 40
17.0
 40
17.0
 40
18.0
 40
18.0
 40
18.0
 40
19.0
 40
19.0
 40
19.0
 40
19.0
 10
74.33706459730115
 20
-130.7868489256366
 10
74.33706459730115
 20
-130.8819335610295
 10
74.31587726006687
 20
-131.0996635956973
 10
74.12966984908911
 20
-131.2243760522634
 10
74.01753199104424
 20
-131.2987901147447
 10
73.91814098629477
 20
-131.3029242293271
 10
73.83356389213189
 20
-131.3070583439093
 10
73.83356389213189
 20
-131.3070583439093
 10
73.83356389213189
 20
-131.0872612519504
 10
73.83356389213189
 20
-131.0872612519504
 10
73.90763344506476
 20
-131.0851941946593
 10
74.14241670238454
 20
-131.0741698891065
 10
74.14241670238454
 20
-130.7909830402189
 10
74.14241670238454
 20
-130.6531792208089
 10
74.07265351880822
 20
-130.5009060003609
 10
73.8440714333619
 20
-130.5009060003609
 10
73.72779946073472
 20
-130.5009060003609
 10
73.67905135961844
 20
-130.5391465602472
 10
73.64735648115413
 20
-130.5708414387115
 10
73.57328692822126
 20
-130.6449109916443
 10
73.56071232970011
 20
-130.7613552190458
 10
73.56071232970011
 20
-130.8164767468098
 10
73.56071232970011
 20
-130.8350802624301
 10
73.56277938699125
 20
-130.8712537650252
 10
73.56691350157355
 20
-130.8988145289073
 10
73.56691350157355
 20
-130.8988145289073
 10
73.37226560665694
 20
-130.8988145289073
 10
73.37226560665694
 20
-130.8988145289073
 10
73.37863903330465
 20
-130.860573969021
 10
73.38087834537006
 20
-130.8185438041009
 10
73.38087834537006
 20
-130.8119981226789
 10
73.38087834537006
 20
-130.7465413084592
 10
73.35969100813577
 20
-130.5477592989603
 10
73.12266843875058
 20
-130.5477592989603
 10
72.94507376648596
 20
-130.5477592989603
 10
72.88995223872196
 20
-130.6786729273998
 10
72.88995223872196
 20
-130.7889159829278
 10
72.88995223872196
 20
-131.0531548066464
 10
73.12266843875058
 20
-131.0617675453596
 10
73.1946709343923
 20
-131.0659016599419
 10
73.1946709343923
 20
-131.0659016599419
 10
73.1946709343923
 20
-131.2691622935716
 10
73.1946709343923
 20
-131.2691622935716
 10
73.069786223052
 20
-131.2605495548585
 10
72.69323728651419
 20
-131.2329887909765
 10
72.69323728651419
 20
-130.7761691296324
 10
72.69323728651419
 20
-130.5518934135426
 10
72.82018905514565
 20
-130.3107367295751
 10
73.11629501210287
 20
-130.3107367295751
 10
73.30250242308063
 20
-130.3107367295751
 10
73.38501245995236
 20
-130.405821364968
 10
73.44633515958981
 20
-130.5053846244917
 10
73.4738959234718
 20
-130.4437174153057
 10
73.5543389030524
 20
-130.2618163736846
 10
73.83149683484073
 20
-130.2618163736846
 10
74.16997746626653
 20
-130.2618163736846
 10
74.33706459730115
 20
-130.509518739074
 10
74.33706459730115
 20
-130.7868489256366
 97
        0
 97
        0
 75
     2
 76
     1
 98
        0
  0
ENDBLK
  5
1A2
330
19F
100
AcDbEntity
  8
0
100
AcDbBlockEnd
  0
BLOCK
  5
1B5
330
1B3
100
AcDbEntity
  8
0
100
AcDbBlockBegin
  2
block 8
 70
     0
 10
0.0
 20
0.0
 30
0.0
  3
block 8
  1

  0
SPLINE
  5
1B7
330
1B3
100
AcDbEntity
  8
_U+30EC_U+30A4_U+30E4_U+30FC 1
370
     0
100
AcDbSpline
210
0.0
220
0.0
230
1.0
 70
    11
 71
     3
 72
    53
 73
    49
 74
     0
 42
0.0000000001
 43
0.0000000001
 12
1.0
 22
0.0
 32
0.0
 13
1.0
 23
0.0
 33
0.0
 40
0.0
 40
0.0
 40
0.0
 40
0.0
 40
1.0
 40
1.0
 40
1.0
 40
2.0
 40
2.0
 40
2.0
 40
3.0
 40
3.0
 40
3.0
 40
4.0
 40
4.0
 40
4.0
 40
5.0
 40
5.0
 40
5.0
 40
6.0
 40
6.0
 40
6.0
 40
7.0
 40
7.0
 40
7.0
 40
8.0
 40
8.0
 40
8.0
 40
9.0
 40
9.0
 40
9.0
 40
10.0
 40
10.0
 40
10.0
 40
11.0
 40
11.0
 40
11.0
 40
12.0
 40
12.0
 40
12.0
 40
13.0
 40
13.0
 40
13.0
 40
14.0
 40
14.0
 40
14.0
 40
15.0
 40
15.0
 40
15.0
 40
16.0
 40
16.0
 40
16.0
 40
16.0
 10
99.77788897245136
 20
-135.7977403089325
 30
0.0
 10
99.77788897245136
 20
-135.8759439764477
 30
0.0
 10
99.76100800457364
 20
-135.9775742932626
 30
0.0
 10
99.69761824764504
 20
-136.0792046100774
 30
0.0
 10
99.58737519211705
 20
-136.252837422534
 30
0.0
 10
99.45646156367755
 20
-136.273852504994
 30
0.0
 10
99.34863007498923
 20
-136.2928005301629
 30
0.0
 10
99.34863007498923
 20
-136.2928005301629
 30
0.0
 10
99.34863007498923
 20
-136.0709363809128
 30
0.0
 10
99.34863007498923
 20
-136.0709363809128
 30
0.0
 10
99.54741208448816
 20
-136.0158148531488
 30
0.0
 10
99.5770399056613
 20
-135.8886908297431
 30
0.0
 10
99.5770399056613
 20
-135.7956732516414
 30
0.0
 10
99.5770399056613
 20
-135.6561468844887
 30
0.0
 10
99.47747664613757
 20
-135.5038736640407
 30
0.0
 10
99.24493270088321
 20
-135.5038736640407
 30
0.0
 10
98.98896210632915
 20
-135.5038736640407
 30
0.0
 10
98.91902666797859
 20
-135.6837076483708
 30
0.0
 10
98.91902666797859
 20
-135.8042859903545
 30
0.0
 10
98.91902666797859
 20
-135.8359808688188
 30
0.0
 10
98.91902666797859
 20
-135.9775742932626
 30
0.0
 10
99.04821774867546
 20
-136.066457756782
 30
0.0
 10
99.04821774867546
 20
-136.066457756782
 30
0.0
 10
99.02892521395805
 20
-136.2418131169812
 30
0.0
 10
99.02892521395805
 20
-136.2418131169812
 30
0.0
 10
99.02892521395805
 20
-136.2418131169812
 30
0.0
 10
98.18280976278069
 20
-136.1212347749975
 30
0.0
 10
98.18280976278069
 20
-136.1212347749975
 30
0.0
 10
98.18280976278069
 20
-136.1212347749975
 30
0.0
 10
98.18280976278069
 20
-135.3429877048795
 30
0.0
 10
98.18280976278069
 20
-135.3429877048795
 30
0.0
 10
98.18280976278069
 20
-135.3429877048795
 30
0.0
 10
98.3774576576973
 20
-135.3429877048795
 30
0.0
 10
98.3774576576973
 20
-135.3429877048795
 30
0.0
 10
98.3774576576973
 20
-135.3429877048795
 30
0.0
 10
98.3774576576973
 20
-135.9586262680937
 30
0.0
 10
98.3774576576973
 20
-135.9586262680937
 30
0.0
 10
98.3774576576973
 20
-135.9586262680937
 30
0.0
 10
98.80051538328598
 20
-136.0240830823134
 30
0.0
 10
98.80051538328598
 20
-136.0240830823134
 30
0.0
 10
98.76675344753053
 20
-135.962760382676
 30
0.0
 10
98.72644583035311
 20
-135.88007809103
 30
0.0
 10
98.72644583035311
 20
-135.7619113158859
 30
0.0
 10
98.72644583035311
 20
-135.508007778623
 30
0.0
 10
98.91282549610513
 20
-135.2709852092378
 30
0.0
 10
99.22564016616582
 20
-135.2709852092378
 30
0.0
 10
99.54327796990586
 20
-135.2709852092378
 30
0.0
 10
99.77788897245136
 20
-135.4952609253276
 30
0.0
 10
99.77788897245136
 20
-135.7977403089325
 30
0.0
  0
HATCH
  5
1B8
330
1B3
100
AcDbEntity
  8
_U+30EC_U+30A4_U+30E4_U+30FC 1
 62
   179
420
  2234388
100
AcDbHatch
 10
0.0
 20
0.0
 30
0.0
210
0.0
220
0.0
230
1.0
  2
SOLID
 70
     1
 71
     0
 91
        1
 92
        1
 93
        1
 72
     4
 94
        3
 73
     0
 74
     1
 95
       53
 96
       49
 40
0.0
 40
0.0
 40
0.0
 40
0.0
 40
1.0
 40
1.0
 40
1.0
 40
2.0
 40
2.0
 40
2.0
 40
3.0
 40
3.0
 40
3.0
 40
4.0
 40
4.0
 40
4.0
 40
5.0
 40
5.0
 40
5.0
 40
6.0
 40
6.0
 40
6.0
 40
7.0
 40
7.0
 40
7.0
 40
8.0
 40
8.0
 40
8.0
 40
9.0
 40
9.0
 40
9.0
 40
10.0
 40
10.0
 40
10.0
 40
11.0
 40
11.0
 40
11.0
 40
12.0
 40
12.0
 40
12.0
 40
13.0
 40
13.0
 40
13.0
 40
14.0
 40
14.0
 40
14.0
 40
15.0
 40
15.0
 40
15.0
 40
16.0
 40
16.0
 40
16.0
 40
16.0
 10
99.77788897245136
 20
-135.7977403089325
 10
99.77788897245136
 20
-135.8759439764477
 10
99.76100800457364
 20
-135.9775742932626
 10
99.69761824764504
 20
-136.0792046100774
 10
99.58737519211705
 20
-136.252837422534
 10
99.45646156367755
 20
-136.273852504994
 10
99.34863007498923
 20
-136.2928005301629
 10
99.34863007498923
 20
-136.2928005301629
 10
99.34863007498923
 20
-136.0709363809128
 10
99.34863007498923
 20
-136.0709363809128
 10
99.54741208448816
 20
-136.0158148531488
 10
99.5770399056613
 20
-135.8886908297431
 10
99.5770399056613
 20
-135.7956732516414
 10
99.5770399056613
 20
-135.6561468844887
 10
99.47747664613757
 20
-135.5038736640407
 10
99.24493270088321
 20
-135.5038736640407
 10
98.98896210632915
 20
-135.5038736640407
 10
98.91902666797859
 20
-135.6837076483708
 10
98.91902666797859
 20
-135.8042859903545
 10
98.91902666797859
 20
-135.8359808688188
 10
98.91902666797859
 20
-135.9775742932626
 10
99.04821774867546
 20
-136.066457756782
 10
99.04821774867546
 20
-136.066457756782
 10
99.02892521395805
 20
-136.2418131169812
 10
99.02892521395805
 20
-136.2418131169812
 10
99.02892521395805
 20
-136.2418131169812
 10
98.18280976278069
 20
-136.1212347749975
 10
98.18280976278069
 20
-136.1212347749975
 10
98.18280976278069
 20
-136.1212347749975
 10
98.18280976278069
 20
-135.3429877048795
 10
98.18280976278069
 20
-135.3429877048795
 10
98.18280976278069
 20
-135.3429877048795
 10
98.3774576576973
 20
-135.3429877048795
 10
98.3774576576973
 20
-135.3429877048795
 10
98.3774576576973
 20
-135.3429877048795
 10
98.3774576576973
 20
-135.9586262680937
 10
98.3774576576973
 20
-135.9586262680937
 10
98.3774576576973
 20
-135.9586262680937
 10
98.80051538328598
 20
-136.0240830823134
 10
98.80051538328598
 20
-136.0240830823134
 10
98.76675344753053
 20
-135.962760382676
 10
98.72644583035311
 20
-135.88007809103
 10
98.72644583035311
 20
-135.7619113158859
 10
98.72644583035311
 20
-135.508007778623
 10
98.91282549610513
 20
-135.2709852092378
 10
99.22564016616582
 20
-135.2709852092378
 10
99.54327796990586
 20
-135.2709852092378
 10
99.77788897245136
 20
-135.4952609253276
 10
99.77788897245136
 20
-135.7977403089325
 97
        0
 97
        0
 75
     2
 76
     1
 98
        0
  0
ENDBLK
  5
1B6
330
1B3
100
AcDbEntity
  8
0
100
AcDbBlockEnd
  0
BLOCK
  5
1C3
330
1C1
100
AcDbEntity
  8
0
100
AcDbBlockBegin
  2
block 9
 70
     0
 10
0.0
 20
0.0
 30
0.0
  3
block 9
  1

  0
SPLINE
  5
1C5
330
1C1
100
AcDbEntity
  8
_U+30EC_U+30A4_U+30E4_U+30FC 1
370
     0
100
AcDbSpline
210
0.0
220
0.0
230
1.0
 70
    11
 71
     3
 72
    26
 73
    22
 74
     0
 42
0.0000000001
 43
0.0000000001
 12
1.0
 22
0.0
 32
0.0
 13
1.0
 23
0.0
 33
0.0
 40
0.0
 40
0.0
 40
0.0
 40
0.0
 40
1.0
 40
1.0
 40
1.0
 40
2.0
 40
2.0
 40
2.0
 40
3.0
 40
3.0
 40
3.0
 40
4.0
 40
4.0
 40
4.0
 40
5.0
 40
5.0
 40
5.0
 40
6.0
 40
6.0
 40
6.0
 40
7.0
 40
7.0
 40
7.0
 40
7.0
 10
108.6979302028602
 20
-130.7530869898812
 30
0.0
 10
108.6979302028602
 20
-130.7530869898812
 30
0.0
 10
107.5934325902891
 20
-130.7530869898812
 30
0.0
 10
107.5934325902891
 20
-130.7530869898812
 30
0.0
 10
107.5934325902891
 20
-130.7530869898812
 30
0.0
 10
107.5934325902891
 20
-131.0831271373681
 30
0.0
 10
107.5934325902891
 20
-131.0831271373681
 30
0.0
 10
107.5934325902891
 20
-131.0831271373681
 30
0.0
 10
107.4456379939719
 20
-131.0831271373681
 30
0.0
 10
107.4456379939719
 20
-131.0831271373681
 30
0.0
 10
107.4308240833854
 20
-130.75101993259
 30
0.0
 10
107.267871066933
 20
-130.7045111435392
 30
0.0
 10
107.1534938968227
 20
-130.674883322366
 30
0.0
 10
107.1534938968227
 20
-130.674883322366
 30
0.0
 10
107.1534938968227
 20
-130.5288112737914
 30
0.0
 10
107.1534938968227
 20
-130.5288112737914
 30
0.0
 10
107.1534938968227
 20
-130.5288112737914
 30
0.0
 10
108.6979302028602
 20
-130.5288112737914
 30
0.0
 10
108.6979302028602
 20
-130.5288112737914
 30
0.0
 10
108.6979302028602
 20
-130.5288112737914
 30
0.0
 10
108.6979302028602
 20
-130.7530869898812
 30
0.0
 10
108.6979302028602
 20
-130.7530869898812
 30
0.0
  0
HATCH
  5
1C6
330
1C1
100
AcDbEntity
  8
_U+30EC_U+30A4_U+30E4_U+30FC 1
 62
   179
420
  2234388
100
AcDbHatch
 10
0.0
 20
0.0
 30
0.0
210
0.0
220
0.0
230
1.0
  2
SOLID
 70
     1
 71
     0
 91
        1
 92
        1
 93
        1
 72
     4
 94
        3
 73
     0
 74
     1
 95
       26
 96
       22
 40
0.0
 40
0.0
 40
0.0
 40
0.0
 40
1.0
 40
1.0
 40
1.0
 40
2.0
 40
2.0
 40
2.0
 40
3.0
 40
3.0
 40
3.0
 40
4.0
 40
4.0
 40
4.0
 40
5.0
 40
5.0
 40
5.0
 40
6.0
 40
6.0
 40
6.0
 40
7.0
 40
7.0
 40
7.0
 40
7.0
 10
108.6979302028602
 20
-130.7530869898812
 10
108.6979302028602
 20
-130.7530869898812
 10
107.5934325902891
 20
-130.7530869898812
 10
107.5934325902891
 20
-130.7530869898812
 10
107.5934325902891
 20
-130.7530869898812
 10
107.5934325902891
 20
-131.0831271373681
 10
107.5934325902891
 20
-131.0831271373681
 10
107.5934325902891
 20
-131.0831271373681
 10
107.4456379939719
 20
-131.0831271373681
 10
107.4456379939719
 20
-131.0831271373681
 10
107.4308240833854
 20
-130.75101993259
 10
107.267871066933
 20
-130.7045111435392
 10
107.1534938968227
 20
-130.674883322366
 10
107.1534938968227
 20
-130.674883322366
 10
107.1534938968227
 20
-130.5288112737914
 10
107.1534938968227
 20
-130.5288112737914
 10
107.1534938968227
 20
-130.5288112737914
 10
108.6979302028602
 20
-130.5288112737914
 10
108.6979302028602
 20
-130.5288112737914
 10
108.6979302028602
 20
-130.5288112737914
 10
108.6979302028602
 20
-130.7530869898812
 10
108.6979302028602
 20
-130.7530869898812
 97
        0
 97
        0
 75
     2
 76
     1
 98
        0
  0
SPLINE
  5
1C7
330
1C1
100
AcDbEntity
  8
_U+30EC_U+30A4_U+30E4_U+30FC 1
370
     0
100
AcDbSpline
210
0.0
220
0.0
230
1.0
 70
    11
 71
     3
 72
    29
 73
    25
 74
     0
 42
0.0000000001
 43
0.0000000001
 12
1.0
 22
0.0
 32
0.0
 13
1.0
 23
0.0
 33
0.0
 40
0.0
 40
0.0
 40
0.0
 40
0.0
 40
1.0
 40
1.0
 40
1.0
 40
2.0
 40
2.0
 40
2.0
 40
3.0
 40
3.0
 40
3.0
 40
4.0
 40
4.0
 40
4.0
 40
5.0
 40
5.0
 40
5.0
 40
6.0
 40
6.0
 40
6.0
 40
7.0
 40
7.0
 40
7.0
 40
8.0
 40
8.0
 40
8.0
 40
8.0
 10
108.5201632758213
 20
-129.1297579972315
 30
0.0
 10
108.7296250813245
 20
-129.2379339954683
 30
0.0
 10
108.7485731064934
 20
-129.4112222983764
 30
0.0
 10
108.7485731064934
 20
-129.5276665257778
 30
0.0
 10
108.7485731064934
 20
-129.688552484939
 30
0.0
 10
108.7020643174425
 20
-129.8301459093827
 30
0.0
 10
108.5201632758213
 20
-129.9255750543242
 30
0.0
 10
108.3255153809047
 20
-130.0289279188817
 30
0.0
 10
108.0884928115195
 20
-130.0482204535991
 30
0.0
 10
107.9255397950672
 20
-130.0482204535991
 30
0.0
 10
107.7818793133323
 20
-130.0482204535991
 30
0.0
 10
107.5300428333606
 20
-130.0309949761728
 30
0.0
 10
107.3312608238616
 20
-129.9255750543242
 30
0.0
 10
107.1280001902319
 20
-129.8173990560873
 30
0.0
 10
107.1049180504807
 20
-129.6568576064747
 30
0.0
 10
107.1049180504807
 20
-129.5276665257778
 30
0.0
 10
107.1049180504807
 20
-129.3688476239078
 30
0.0
 10
107.1493597822404
 20
-129.2251871421729
 30
0.0
 10
107.3312608238616
 20
-129.1297579972315
 30
0.0
 10
107.5238416614871
 20
-129.0305392472563
 30
0.0
 10
107.7522514921592
 20
-129.0071125979566
 30
0.0
 10
107.9255397950672
 20
-129.0071125979566
 30
0.0
 10
108.0971055502327
 20
-129.0071125979566
 30
0.0
 10
108.3275824381959
 20
-129.0284721899651
 30
0.0
 10
108.5201632758213
 20
-129.1297579972315
 30
0.0
  0
SPLINE
  5
1C8
330
1C1
100
AcDbEntity
  8
_U+30EC_U+30A4_U+30E4_U+30FC 1
370
     0
100
AcDbSpline
210
0.0
220
0.0
230
1.0
 70
    11
 71
     3
 72
    17
 73
    13
 74
     0
 42
0.0000000001
 43
0.0000000001
 12
1.0
 22
0.0
 32
0.0
 13
1.0
 23
0.0
 33
0.0
 40
0.0
 40
0.0
 40
0.0
 40
0.0
 40
1.0
 40
1.0
 40
1.0
 40
2.0
 40
2.0
 40
2.0
 40
3.0
 40
3.0
 40
3.0
 40
4.0
 40
4.0
 40
4.0
 40
4.0
 10
107.2974988881062
 20
-129.5276665257778
 30
0.0
 10
107.2974988881062
 20
-129.7774359484584
 30
0.0
 10
107.5810302465422
 20
-129.8236002279608
 30
0.0
 10
107.9255397950672
 20
-129.8236002279608
 30
0.0
 10
108.2452446560984
 20
-129.8236002279608
 30
0.0
 10
108.5539252115768
 20
-129.7877712349142
 30
0.0
 10
108.5539252115768
 20
-129.5276665257778
 30
0.0
 10
108.5539252115768
 20
-129.2799641603883
 30
0.0
 10
108.2724609104319
 20
-129.2313883140463
 30
0.0
 10
107.9255397950672
 20
-129.2313883140463
 30
0.0
 10
107.6061794435846
 20
-129.2313883140463
 30
0.0
 10
107.2974988881062
 20
-129.2696288739326
 30
0.0
 10
107.2974988881062
 20
-129.5276665257778
 30
0.0
  0
HATCH
  5
1C9
330
1C1
100
AcDbEntity
  8
_U+30EC_U+30A4_U+30E4_U+30FC 1
 62
   179
420
  2234388
100
AcDbHatch
 10
0.0
 20
0.0
 30
0.0
210
0.0
220
0.0
230
1.0
  2
SOLID
 70
     1
 71
     0
 91
        2
 92
        1
 93
        1
 72
     4
 94
        3
 73
     0
 74
     1
 95
       29
 96
       25
 40
0.0
 40
0.0
 40
0.0
 40
0.0
 40
1.0
 40
1.0
 40
1.0
 40
2.0
 40
2.0
 40
2.0
 40
3.0
 40
3.0
 40
3.0
 40
4.0
 40
4.0
 40
4.0
 40
5.0
 40
5.0
 40
5.0
 40
6.0
 40
6.0
 40
6.0
 40
7.0
 40
7.0
 40
7.0
 40
8.0
 40
8.0
 40
8.0
 40
8.0
 10
108.5201632758213
 20
-129.1297579972315
 10
108.7296250813245
 20
-129.2379339954683
 10
108.7485731064934
 20
-129.4112222983764
 10
108.7485731064934
 20
-129.5276665257778
 10
108.7485731064934
 20
-129.688552484939
 10
108.7020643174425
 20
-129.8301459093827
 10
108.5201632758213
 20
-129.9255750543242
 10
108.3255153809047
 20
-130.0289279188817
 10
108.0884928115195
 20
-130.0482204535991
 10
107.9255397950672
 20
-130.0482204535991
 10
107.7818793133323
 20
-130.0482204535991
 10
107.5300428333606
 20
-130.0309949761728
 10
107.3312608238616
 20
-129.9255750543242
 10
107.1280001902319
 20
-129.8173990560873
 10
107.1049180504807
 20
-129.6568576064747
 10
107.1049180504807
 20
-129.5276665257778
 10
107.1049180504807
 20
-129.3688476239078
 10
107.1493597822404
 20
-129.2251871421729
 10
107.3312608238616
 20
-129.1297579972315
 10
107.5238416614871
 20
-129.0305392472563
 10
107.7522514921592
 20
-129.0071125979566
 10
107.9255397950672
 20
-129.0071125979566
 10
108.0971055502327
 20
-129.0071125979566
 10
108.3275824381959
 20
-129.0284721899651
 10
108.5201632758213
 20
-129.1297579972315
 97
        0
 97
        0
 92
        1
 93
        1
 72
     4
 94
        3
 73
     0
 74
     1
 95
       17
 96
       13
 40
0.0
 40
0.0
 40
0.0
 40
0.0
 40
1.0
 40
1.0
 40
1.0
 40
2.0
 40
2.0
 40
2.0
 40
3.0
 40
3.0
 40
3.0
 40
4.0
 40
4.0
 40
4.0
 40
4.0
 10
107.2974988881062
 20
-129.5276665257778
 10
107.2974988881062
 20
-129.7774359484584
 10
107.5810302465422
 20
-129.8236002279608
 10
107.9255397950672
 20
-129.8236002279608
 10
108.2452446560984
 20
-129.8236002279608
 10
108.5539252115768
 20
-129.7877712349142
 10
108.5539252115768
 20
-129.5276665257778
 10
108.5539252115768
 20
-129.2799641603883
 10
108.2724609104319
 20
-129.2313883140463
 10
107.9255397950672
 20
-129.2313883140463
 10
107.6061794435846
 20
-129.2313883140463
 10
107.2974988881062
 20
-129.2696288739326
 10
107.2974988881062
 20
-129.5276665257778
 97
        0
 97
        0
 75
     2
 76
     1
 98
        0
  0
ENDBLK
  5
1C4
330
1C1
100
AcDbEntity
  8
0
100
AcDbBlockEnd
  0
ENDSEC
  0
SECTION
  2
ENTITIES
  0
POLYLINE
  5
41
330
1F
100
AcDbEntity
  8
_U+30EC_U+30A4_U+30E4_U+30FC 1
370
     0
100
AcDb2dPolyline
 66
     1
 10
0.0
 20
0.0
 30
0.0
  0
VERTEX
  5
42
330
41
100
AcDbEntity
  8
_U+30EC_U+30A4_U+30E4_U+30FC 1
370
     0
100
AcDbVertex
100
AcDb2dVertex
 10
79.33090275794505
 20
-138.1183560765818
 30
0.0
  0
VERTEX
  5
43
330
41
100
AcDbEntity
  8
_U+30EC_U+30A4_U+30E4_U+30FC 1
370
     0
100
AcDbVertex
100
AcDb2dVertex
 10
78.75763886919948
 20
-138.1183560765818
 30
0.0
  0
VERTEX
  5
44
330
41
100
AcDbEntity
  8
_U+30EC_U+30A4_U+30E4_U+30FC 1
370
     0
100
AcDbVertex
100
AcDb2dVertex
 10
78.75763886919948
 20
-133.0471755222941
 30
0.0
  0
VERTEX
  5
45
330
41
100
AcDbEntity
  8
_U+30EC_U+30A4_U+30E4_U+30FC 1
370
     0
100
AcDbVertex
100
AcDb2dVertex
 10
79.33090275794505
 20
-133.0471755222941
 30
0.0
  0
VERTEX
  5
46
330
41
100
AcDbEntity
  8
_U+30EC_U+30A4_U+30E4_U+30FC 1
370
     0
100
AcDbVertex
100
AcDb2dVertex
 10
79.33090275794505
 20
-138.1183560765818
 30
0.0
  0
SEQEND
  5
48
330
41
100
AcDbEntity
  8
_U+30EC_U+30A4_U+30E4_U+30FC 1
370
     0
  0
HATCH
  5
47
330
1F
100
AcDbEntity
  8
_U+30EC_U+30A4_U+30E4_U+30FC 1
 62
     9
420
 13224394
100
AcDbHatch
 10
0.0
 20
0.0
 30
0.0
210
0.0
220
0.0
230
1.0
  2
SOLID
 70
     1
 71
     0
 91
        1
 92
        1
 93
        4
 72
     1
 10
79.33090275794505
 20
-138.1183560765818
 11
78.75763886919948
 21
-138.1183560765818
 72
     1
 10
78.75763886919948
 20
-138.1183560765818
 11
78.75763886919948
 21
-133.0471755222941
 72
     1
 10
78.75763886919948
 20
-133.0471755222941
 11
79.33090275794505
 21
-133.0471755222941
 72
     1
 10
79.33090275794505
 20
-133.0471755222941
 11
79.33090275794505
 21
-138.1183560765818
 97
        0
 75
     2
 76
     1
 98
        0
  0
POLYLINE
  5
49
330
1F
100
AcDbEntity
  8
_U+30EC_U+30A4_U+30E4_U+30FC 1
370
     0
100
AcDb2dPolyline
 66
     1
 10
0.0
 20
0.0
 30
0.0
  0
VERTEX
  5
4A
330
49
100
AcDbEntity
  8
_U+30EC_U+30A4_U+30E4_U+30FC 1
370
     0
100
AcDbVertex
100
AcDb2dVertex
 10
97.71944442001458
 20
-137.0159255213019
 30
0.0
  0
VERTEX
  5
4B
330
49
100
AcDbEntity
  8
_U+30EC_U+30A4_U+30E4_U+30FC 1
370
     0
100
AcDbVertex
100
AcDb2dVertex
 10
79.19861109131146
 20
-137.0159255213019
 30
0.0
  0
VERTEX
  5
4C
330
49
100
AcDbEntity
  8
_U+30EC_U+30A4_U+30E4_U+30FC 1
370
     0
100
AcDbVertex
100
AcDb2dVertex
 10
79.19861109131146
 20
-136.5308560769787
 30
0.0
  0
VERTEX
  5
4D
330
49
100
AcDbEntity
  8
_U+30EC_U+30A4_U+30E4_U+30FC 1
370
     0
100
AcDbVertex
100
AcDb2dVertex
 10
97.71944442001458
 20
-136.5308560769787
 30
0.0
  0
VERTEX
  5
4E
330
49
100
AcDbEntity
  8
_U+30EC_U+30A4_U+30E4_U+30FC 1
370
     0
100
AcDbVertex
100
AcDb2dVertex
 10
97.71944442001458
 20
-137.0159255213019
 30
0.0
  0
SEQEND
  5
50
330
49
100
AcDbEntity
  8
_U+30EC_U+30A4_U+30E4_U+30FC 1
370
     0
  0
HATCH
  5
4F
330
1F
100
AcDbEntity
  8
_U+30EC_U+30A4_U+30E4_U+30FC 1
 62
     9
420
 13224394
100
AcDbHatch
 10
0.0
 20
0.0
 30
0.0
210
0.0
220
0.0
230
1.0
  2
SOLID
 70
     1
 71
     0
 91
        1
 92
        1
 93
        4
 72
     1
 10
97.71944442001458
 20
-137.0159255213019
 11
79.19861109131146
 21
-137.0159255213019
 72
     1
 10
79.19861109131146
 20
-137.0159255213019
 11
79.19861109131146
 21
-136.5308560769787
 72
     1
 10
79.19861109131146
 20
-136.5308560769787
 11
97.71944442001458
 21
-136.5308560769787
 72
     1
 10
97.71944442001458
 20
-136.5308560769787
 11
97.71944442001458
 21
-137.0159255213019
 97
        0
 75
     2
 76
     1
 98
        0
  0
POLYLINE
  5
51
330
1F
100
AcDbEntity
  8
_U+30EC_U+30A4_U+30E4_U+30FC 1
370
     0
100
AcDb2dPolyline
 66
     1
 10
0.0
 20
0.0
 30
0.0
  0
VERTEX
  5
52
330
51
100
AcDbEntity
  8
_U+30EC_U+30A4_U+30E4_U+30FC 1
370
     0
100
AcDbVertex
100
AcDb2dVertex
 10
97.71944442001458
 20
-137.0159255213019
 30
0.0
  0
VERTEX
  5
53
330
51
100
AcDbEntity
  8
_U+30EC_U+30A4_U+30E4_U+30FC 1
370
     0
100
AcDbVertex
100
AcDb2dVertex
 10
97.2784721979026
 20
-137.0159255213019
 30
0.0
  0
VERTEX
  5
54
330
51
100
AcDbEntity
  8
_U+30EC_U+30A4_U+30E4_U+30FC 1
370
     0
100
AcDbVertex
100
AcDb2dVertex
 10
97.2784721979026
 20
-134.5464810774748
 30
0.0
  0
VERTEX
  5
55
330
51
100
AcDbEntity
  8
_U+30EC_U+30A4_U+30E4_U+30FC 1
370
     0
100
AcDbVertex
100
AcDb2dVertex
 10
97.71944442001458
 20
-134.5464810774748
 30
0.0
  0
VERTEX
  5
56
330
51
100
AcDbEntity
  8
_U+30EC_U+30A4_U+30E4_U+30FC 1
370
     0
100
AcDbVertex
100
AcDb2dVertex
 10
97.71944442001458
 20
-137.0159255213019
 30
0.0
  0
SEQEND
  5
58
330
51
100
AcDbEntity
  8
_U+30EC_U+30A4_U+30E4_U+30FC 1
370
     0
  0
HATCH
  5
57
330
1F
100
AcDbEntity
  8
_U+30EC_U+30A4_U+30E4_U+30FC 1
 62
     9
420
 13224394
100
AcDbHatch
 10
0.0
 20
0.0
 30
0.0
210
0.0
220
0.0
230
1.0
  2
SOLID
 70
     1
 71
     0
 91
        1
 92
        1
 93
        4
 72
     1
 10
97.71944442001458
 20
-137.0159255213019
 11
97.2784721979026
 21
-137.0159255213019
 72
     1
 10
97.2784721979026
 20
-137.0159255213019
 11
97.2784721979026
 21
-134.5464810774748
 72
     1
 10
97.2784721979026
 20
-134.5464810774748
 11
97.71944442001458
 21
-134.5464810774748
 72
     1
 10
97.71944442001458
 20
-134.5464810774748
 11
97.71944442001458
 21
-137.0159255213019
 97
        0
 75
     2
 76
     1
 98
        0
  0
POLYLINE
  5
59
330
1F
100
AcDbEntity
  8
_U+30EC_U+30A4_U+30E4_U+30FC 1
370
     0
100
AcDb2dPolyline
 66
     1
 10
0.0
 20
0.0
 30
0.0
  0
VERTEX
  5
5A
330
59
100
AcDbEntity
  8
_U+30EC_U+30A4_U+30E4_U+30FC 1
370
     0
100
AcDbVertex
100
AcDb2dVertex
 10
107.3326388620557
 20
-127.094050523782
 30
0.0
  0
VERTEX
  5
5B
330
59
100
AcDbEntity
  8
_U+30EC_U+30A4_U+30E4_U+30FC 1
370
     0
100
AcDbVertex
100
AcDb2dVertex
 10
87.35659720038308
 20
-127.094050523782
 30
0.0
  0
VERTEX
  5
5C
330
59
100
AcDbEntity
  8
_U+30EC_U+30A4_U+30E4_U+30FC 1
370
     0
100
AcDbVertex
100
AcDb2dVertex
 10
87.35659720038308
 20
-126.5648838572477
 30
0.0
  0
VERTEX
  5
5D
330
59
100
AcDbEntity
  8
_U+30EC_U+30A4_U+30E4_U+30FC 1
370
     0
100
AcDbVertex
100
AcDb2dVertex
 10
107.3326388620557
 20
-126.5648838572477
 30
0.0
  0
VERTEX
  5
5E
330
59
100
AcDbEntity
  8
_U+30EC_U+30A4_U+30E4_U+30FC 1
370
     0
100
AcDbVertex
100
AcDb2dVertex
 10
107.3326388620557
 20
-127.094050523782
 30
0.0
  0
SEQEND
  5
60
330
59
100
AcDbEntity
  8
_U+30EC_U+30A4_U+30E4_U+30FC 1
370
     0
  0
HATCH
  5
5F
330
1F
100
AcDbEntity
  8
_U+30EC_U+30A4_U+30E4_U+30FC 1
 62
     9
420
 13224394
100
AcDbHatch
 10
0.0
 20
0.0
 30
0.0
210
0.0
220
0.0
230
1.0
  2
SOLID
 70
     1
 71
     0
 91
        1
 92
        1
 93
        4
 72
     1
 10
107.3326388620557
 20
-127.094050523782
 11
87.35659720038308
 21
-127.094050523782
 72
     1
 10
87.35659720038308
 20
-127.094050523782
 11
87.35659720038308
 21
-126.5648838572477
 72
     1
 10
87.35659720038308
 20
-126.5648838572477
 11
107.3326388620557
 21
-126.5648838572477
 72
     1
 10
107.3326388620557
 20
-126.5648838572477
 11
107.3326388620557
 21
-127.094050523782
 97
        0
 75
     2
 76
     1
 98
        0
  0
POLYLINE
  5
61
330
1F
100
AcDbEntity
  8
_U+30EC_U+30A4_U+30E4_U+30FC 1
370
     0
100
AcDb2dPolyline
 66
     1
 10
0.0
 20
0.0
 30
0.0
  0
VERTEX
  5
62
330
61
100
AcDbEntity
  8
_U+30EC_U+30A4_U+30E4_U+30FC 1
370
     0
100
AcDbVertex
100
AcDb2dVertex
 10
87.70937497807266
 20
-132.9148838556605
 30
0.0
  0
VERTEX
  5
63
330
61
100
AcDbEntity
  8
_U+30EC_U+30A4_U+30E4_U+30FC 1
370
     0
100
AcDbVertex
100
AcDb2dVertex
 10
87.35659720038308
 20
-132.9148838556605
 30
0.0
  0
VERTEX
  5
64
330
61
100
AcDbEntity
  8
_U+30EC_U+30A4_U+30E4_U+30FC 1
370
     0
100
AcDbVertex
100
AcDb2dVertex
 10
87.35659720038308
 20
-126.5648838572477
 30
0.0
  0
VERTEX
  5
65
330
61
100
AcDbEntity
  8
_U+30EC_U+30A4_U+30E4_U+30FC 1
370
     0
100
AcDbVertex
100
AcDb2dVertex
 10
87.70937497807266
 20
-126.5648838572477
 30
0.0
  0
VERTEX
  5
66
330
61
100
AcDbEntity
  8
_U+30EC_U+30A4_U+30E4_U+30FC 1
370
     0
100
AcDbVertex
100
AcDb2dVertex
 10
87.70937497807266
 20
-132.9148838556605
 30
0.0
  0
SEQEND
  5
68
330
61
100
AcDbEntity
  8
_U+30EC_U+30A4_U+30E4_U+30FC 1
370
     0
  0
HATCH
  5
67
330
1F
100
AcDbEntity
  8
_U+30EC_U+30A4_U+30E4_U+30FC 1
 62
     9
420
 13224394
100
AcDbHatch
 10
0.0
 20
0.0
 30
0.0
210
0.0
220
0.0
230
1.0
  2
SOLID
 70
     1
 71
     0
 91
        1
 92
        1
 93
        4
 72
     1
 10
87.70937497807266
 20
-132.9148838556605
 11
87.35659720038308
 21
-132.9148838556605
 72
     1
 10
87.35659720038308
 20
-132.9148838556605
 11
87.35659720038308
 21
-126.5648838572477
 72
     1
 10
87.35659720038308
 20
-126.5648838572477
 11
87.70937497807266
 21
-126.5648838572477
 72
     1
 10
87.70937497807266
 20
-126.5648838572477
 11
87.70937497807266
 21
-132.9148838556605
 97
        0
 75
     2
 76
     1
 98
        0
  0
POLYLINE
  5
69
330
1F
100
AcDbEntity
  8
_U+30EC_U+30A4_U+30E4_U+30FC 1
370
     0
100
AcDb2dPolyline
 66
     1
 10
0.0
 20
0.0
 30
0.0
  0
VERTEX
  5
6A
330
69
100
AcDbEntity
  8
_U+30EC_U+30A4_U+30E4_U+30FC 1
370
     0
100
AcDbVertex
100
AcDb2dVertex
 10
92.73645831014922
 20
-132.5180088557597
 30
0.0
  0
VERTEX
  5
6B
330
69
100
AcDbEntity
  8
_U+30EC_U+30A4_U+30E4_U+30FC 1
370
     0
100
AcDbVertex
100
AcDb2dVertex
 10
87.53298608922786
 20
-132.5180088557597
 30
0.0
  0
VERTEX
  5
6C
330
69
100
AcDbEntity
  8
_U+30EC_U+30A4_U+30E4_U+30FC 1
370
     0
100
AcDbVertex
100
AcDb2dVertex
 10
87.53298608922786
 20
-132.1652310780701
 30
0.0
  0
VERTEX
  5
6D
330
69
100
AcDbEntity
  8
_U+30EC_U+30A4_U+30E4_U+30FC 1
370
     0
100
AcDbVertex
100
AcDb2dVertex
 10
92.73645831014922
 20
-132.1652310780701
 30
0.0
  0
VERTEX
  5
6E
330
69
100
AcDbEntity
  8
_U+30EC_U+30A4_U+30E4_U+30FC 1
370
     0
100
AcDbVertex
100
AcDb2dVertex
 10
92.73645831014922
 20
-132.5180088557597
 30
0.0
  0
SEQEND
  5
70
330
69
100
AcDbEntity
  8
_U+30EC_U+30A4_U+30E4_U+30FC 1
370
     0
  0
HATCH
  5
6F
330
1F
100
AcDbEntity
  8
_U+30EC_U+30A4_U+30E4_U+30FC 1
 62
     9
420
 13224394
100
AcDbHatch
 10
0.0
 20
0.0
 30
0.0
210
0.0
220
0.0
230
1.0
  2
SOLID
 70
     1
 71
     0
 91
        1
 92
        1
 93
        4
 72
     1
 10
92.73645831014922
 20
-132.5180088557597
 11
87.53298608922786
 21
-132.5180088557597
 72
     1
 10
87.53298608922786
 20
-132.5180088557597
 11
87.53298608922786
 21
-132.1652310780701
 72
     1
 10
87.53298608922786
 20
-132.1652310780701
 11
92.73645831014922
 21
-132.1652310780701
 72
     1
 10
92.73645831014922
 20
-132.1652310780701
 11
92.73645831014922
 21
-132.5180088557597
 97
        0
 75
     2
 76
     1
 98
        0
  0
SPLINE
  5
71
330
1F
100
AcDbEntity
  8
_U+30EC_U+30A4_U+30E4_U+30FC 1
370
     0
100
AcDbSpline
210
0.0
220
0.0
230
1.0
 70
    11
 71
     3
 72
    35
 73
    31
 74
     0
 42
0.0000000001
 43
0.0000000001
 12
1.0
 22
0.0
 32
0.0
 13
1.0
 23
0.0
 33
0.0
 40
0.0
 40
0.0
 40
0.0
 40
0.0
 40
1.0
 40
1.0
 40
1.0
 40
2.0
 40
2.0
 40
2.0
 40
3.0
 40
3.0
 40
3.0
 40
4.0
 40
4.0
 40
4.0
 40
5.0
 40
5.0
 40
5.0
 40
6.0
 40
6.0
 40
6.0
 40
7.0
 40
7.0
 40
7.0
 40
8.0
 40
8.0
 40
8.0
 40
9.0
 40
9.0
 40
9.0
 40
10.0
 40
10.0
 40
10.0
 40
10.0
 10
85.54861108972396
 20
-134.1937032997852
 30
0.0
 10
85.54861108972396
 20
-134.1937032997852
 30
0.0
 10
85.98958331183594
 20
-134.2818977442076
 30
0.0
 10
85.98958331183594
 20
-134.2818977442076
 30
0.0
 10
85.98958331183594
 20
-134.2818977442076
 30
0.0
 10
86.43055553394792
 20
-132.8266894112381
 30
0.0
 10
87.57708331143907
 20
-132.9589810778717
 30
0.0
 10
87.57708331143907
 20
-132.9589810778717
 30
0.0
 10
88.67951386671902
 20
-133.0471755222941
 30
0.0
 10
88.9881944221974
 20
-134.0614116331516
 30
0.0
 10
88.9881944221974
 20
-134.0614116331516
 30
0.0
 10
89.64965275536537
 20
-135.2961338550652
 30
0.0
 10
87.79756942249506
 20
-135.9575921882331
 30
0.0
 10
87.79756942249506
 20
-135.9575921882331
 30
0.0
 10
87.79756942249506
 20
-136.5749532991899
 30
0.0
 10
87.79756942249506
 20
-136.5749532991899
 30
0.0
 10
87.79756942249506
 20
-136.5749532991899
 30
0.0
 10
88.15034720018464
 20
-136.5749532991899
 30
0.0
 10
88.15034720018464
 20
-136.5749532991899
 30
0.0
 10
88.15034720018464
 20
-136.5749532991899
 30
0.0
 10
88.19444442239583
 20
-136.3985644103451
 30
0.0
 10
88.19444442239583
 20
-136.3985644103451
 30
0.0
 10
88.19444442239583
 20
-136.3985644103451
 30
0.0
 10
89.69374997757657
 20
-135.9134949660219
 30
0.0
 10
89.60555553315417
 20
-134.1937032997852
 30
0.0
 10
89.60555553315417
 20
-134.1937032997852
 30
0.0
 10
88.89999997777501
 20
-131.9888421892253
 30
0.0
 10
86.8715277560599
 20
-132.5621060779709
 30
0.0
 10
86.8715277560599
 20
-132.5621060779709
 30
0.0
 10
85.59270831193516
 20
-133.1794671889276
 30
0.0
 10
85.54861108972396
 20
-134.1937032997852
 30
0.0
  0
HATCH
  5
72
330
1F
100
AcDbEntity
  8
_U+30EC_U+30A4_U+30E4_U+30FC 1
 62
     9
420
 13224394
100
AcDbHatch
 10
0.0
 20
0.0
 30
0.0
210
0.0
220
0.0
230
1.0
  2
SOLID
 70
     1
 71
     0
 91
        1
 92
        1
 93
        1
 72
     4
 94
        3
 73
     0
 74
     1
 95
       35
 96
       31
 40
0.0
 40
0.0
 40
0.0
 40
0.0
 40
1.0
 40
1.0
 40
1.0
 40
2.0
 40
2.0
 40
2.0
 40
3.0
 40
3.0
 40
3.0
 40
4.0
 40
4.0
 40
4.0
 40
5.0
 40
5.0
 40
5.0
 40
6.0
 40
6.0
 40
6.0
 40
7.0
 40
7.0
 40
7.0
 40
8.0
 40
8.0
 40
8.0
 40
9.0
 40
9.0
 40
9.0
 40
10.0
 40
10.0
 40
10.0
 40
10.0
 10
85.54861108972396
 20
-134.1937032997852
 10
85.54861108972396
 20
-134.1937032997852
 10
85.98958331183594
 20
-134.2818977442076
 10
85.98958331183594
 20
-134.2818977442076
 10
85.98958331183594
 20
-134.2818977442076
 10
86.43055553394792
 20
-132.8266894112381
 10
87.57708331143907
 20
-132.9589810778717
 10
87.57708331143907
 20
-132.9589810778717
 10
88.67951386671902
 20
-133.0471755222941
 10
88.9881944221974
 20
-134.0614116331516
 10
88.9881944221974
 20
-134.0614116331516
 10
89.64965275536537
 20
-135.2961338550652
 10
87.79756942249506
 20
-135.9575921882331
 10
87.79756942249506
 20
-135.9575921882331
 10
87.79756942249506
 20
-136.5749532991899
 10
87.79756942249506
 20
-136.5749532991899
 10
87.79756942249506
 20
-136.5749532991899
 10
88.15034720018464
 20
-136.5749532991899
 10
88.15034720018464
 20
-136.5749532991899
 10
88.15034720018464
 20
-136.5749532991899
 10
88.19444442239583
 20
-136.3985644103451
 10
88.19444442239583
 20
-136.3985644103451
 10
88.19444442239583
 20
-136.3985644103451
 10
89.69374997757657
 20
-135.9134949660219
 10
89.60555553315417
 20
-134.1937032997852
 10
89.60555553315417
 20
-134.1937032997852
 10
88.89999997777501
 20
-131.9888421892253
 10
86.8715277560599
 20
-132.5621060779709
 10
86.8715277560599
 20
-132.5621060779709
 10
85.59270831193516
 20
-133.1794671889276
 10
85.54861108972396
 20
-134.1937032997852
 97
        0
 97
        0
 75
     2
 76
     1
 98
        0
  0
SPLINE
  5
73
330
1F
100
AcDbEntity
  8
_U+30EC_U+30A4_U+30E4_U+30FC 1
370
     0
100
AcDbSpline
210
0.0
220
0.0
230
1.0
 70
    11
 71
     3
 72
    35
 73
    31
 74
     0
 42
0.0000000001
 43
0.0000000001
 12
1.0
 22
0.0
 32
0.0
 13
1.0
 23
0.0
 33
0.0
 40
0.0
 40
0.0
 40
0.0
 40
0.0
 40
1.0
 40
1.0
 40
1.0
 40
2.0
 40
2.0
 40
2.0
 40
3.0
 40
3.0
 40
3.0
 40
4.0
 40
4.0
 40
4.0
 40
5.0
 40
5.0
 40
5.0
 40
6.0
 40
6.0
 40
6.0
 40
7.0
 40
7.0
 40
7.0
 40
8.0
 40
8.0
 40
8.0
 40
9.0
 40
9.0
 40
9.0
 40
10.0
 40
10.0
 40
10.0
 40
10.0
 10
87.40069442259427
 20
-136.5749532991899
 30
0.0
 10
87.40069442259427
 20
-136.5749532991899
 30
0.0
 10
87.35659720038308
 20
-135.9575921882331
 30
0.0
 10
87.35659720038308
 20
-135.9575921882331
 30
0.0
 10
87.35659720038308
 20
-135.9575921882331
 30
0.0
 10
85.98958331183594
 20
-135.3843282994875
 30
0.0
 10
86.03368053404714
 20
-134.590578299686
 30
0.0
 10
86.03368053404714
 20
-134.590578299686
 30
0.0
 10
85.94548608962474
 20
-133.8409255220956
 30
0.0
 10
86.56284720058152
 20
-133.5322449666172
 30
0.0
 10
86.56284720058152
 20
-133.5322449666172
 30
0.0
 10
86.7833333116375
 20
-133.7968282998844
 30
0.0
 10
86.7833333116375
 20
-133.7968282998844
 30
0.0
 10
86.7833333116375
 20
-133.7968282998844
 30
0.0
 10
86.16597220068073
 20
-134.9874532995868
 30
0.0
 10
87.04791664490469
 20
-135.2961338550652
 30
0.0
 10
87.04791664490469
 20
-135.2961338550652
 30
0.0
 10
88.9881944221974
 20
-135.9575921882331
 30
0.0
 10
88.50312497787422
 20
-134.0173144109404
 30
0.0
 10
88.50312497787422
 20
-134.0173144109404
 30
0.0
 10
88.8559027555638
 20
-133.7527310776732
 30
0.0
 10
88.8559027555638
 20
-133.7527310776732
 30
0.0
 10
88.8559027555638
 20
-133.7527310776732
 30
0.0
 10
89.95833331084376
 20
-135.2961338550652
 30
0.0
 10
87.79756942249506
 20
-135.9575921882331
 30
0.0
 10
87.79756942249506
 20
-135.9575921882331
 30
0.0
 10
87.79756942249506
 20
-136.5749532991899
 30
0.0
 10
87.79756942249506
 20
-136.5749532991899
 30
0.0
 10
87.79756942249506
 20
-136.5749532991899
 30
0.0
 10
87.40069442259427
 20
-136.5749532991899
 30
0.0
 10
87.40069442259427
 20
-136.5749532991899
 30
0.0
  0
HATCH
  5
74
330
1F
100
AcDbEntity
  8
_U+30EC_U+30A4_U+30E4_U+30FC 1
 62
     9
420
 13224394
100
AcDbHatch
 10
0.0
 20
0.0
 30
0.0
210
0.0
220
0.0
230
1.0
  2
SOLID
 70
     1
 71
     0
 91
        1
 92
        1
 93
        1
 72
     4
 94
        3
 73
     0
 74
     1
 95
       35
 96
       31
 40
0.0
 40
0.0
 40
0.0
 40
0.0
 40
1.0
 40
1.0
 40
1.0
 40
2.0
 40
2.0
 40
2.0
 40
3.0
 40
3.0
 40
3.0
 40
4.0
 40
4.0
 40
4.0
 40
5.0
 40
5.0
 40
5.0
 40
6.0
 40
6.0
 40
6.0
 40
7.0
 40
7.0
 40
7.0
 40
8.0
 40
8.0
 40
8.0
 40
9.0
 40
9.0
 40
9.0
 40
10.0
 40
10.0
 40
10.0
 40
10.0
 10
87.40069442259427
 20
-136.5749532991899
 10
87.40069442259427
 20
-136.5749532991899
 10
87.35659720038308
 20
-135.9575921882331
 10
87.35659720038308
 20
-135.9575921882331
 10
87.35659720038308
 20
-135.9575921882331
 10
85.98958331183594
 20
-135.3843282994875
 10
86.03368053404714
 20
-134.590578299686
 10
86.03368053404714
 20
-134.590578299686
 10
85.94548608962474
 20
-133.8409255220956
 10
86.56284720058152
 20
-133.5322449666172
 10
86.56284720058152
 20
-133.5322449666172
 10
86.7833333116375
 20
-133.7968282998844
 10
86.7833333116375
 20
-133.7968282998844
 10
86.7833333116375
 20
-133.7968282998844
 10
86.16597220068073
 20
-134.9874532995868
 10
87.04791664490469
 20
-135.2961338550652
 10
87.04791664490469
 20
-135.2961338550652
 10
88.9881944221974
 20
-135.9575921882331
 10
88.50312497787422
 20
-134.0173144109404
 10
88.50312497787422
 20
-134.0173144109404
 10
88.8559027555638
 20
-133.7527310776732
 10
88.8559027555638
 20
-133.7527310776732
 10
88.8559027555638
 20
-133.7527310776732
 10
89.95833331084376
 20
-135.2961338550652
 10
87.79756942249506
 20
-135.9575921882331
 10
87.79756942249506
 20
-135.9575921882331
 10
87.79756942249506
 20
-136.5749532991899
 10
87.79756942249506
 20
-136.5749532991899
 10
87.79756942249506
 20
-136.5749532991899
 10
87.40069442259427
 20
-136.5749532991899
 10
87.40069442259427
 20
-136.5749532991899
 97
        0
 97
        0
 75
     2
 76
     1
 98
        0
  0
POLYLINE
  5
75
330
1F
100
AcDbEntity
  8
_U+30EC_U+30A4_U+30E4_U+30FC 1
 62
   179
420
  2234388
370
    25
100
AcDb2dPolyline
 66
     1
 10
0.0
 20
0.0
 30
0.0
  0
VERTEX
  5
76
330
75
100
AcDbEntity
  8
_U+30EC_U+30A4_U+30E4_U+30FC 1
 62
   179
420
  2234388
370
    25
100
AcDbVertex
100
AcDb2dVertex
 10
79.42424575149646
 20
-137.0799899657303
 30
0.0
  0
VERTEX
  5
77
330
75
100
AcDbEntity
  8
_U+30EC_U+30A4_U+30E4_U+30FC 1
 62
   179
420
  2234388
370
    25
100
AcDbVertex
100
AcDb2dVertex
 10
97.82418167096387
 20
-137.0799899657303
 30
0.0
  0
SEQEND
  5
78
330
75
100
AcDbEntity
  8
_U+30EC_U+30A4_U+30E4_U+30FC 1
 62
   179
420
  2234388
370
    25
  0
POLYLINE
  5
79
330
1F
100
AcDbEntity
  8
_U+30EC_U+30A4_U+30E4_U+30FC 1
 62
   179
420
  2234388
370
    25
100
AcDb2dPolyline
 66
     1
 10
0.0
 20
0.0
 30
0.0
  0
VERTEX
  5
7A
330
79
100
AcDbEntity
  8
_U+30EC_U+30A4_U+30E4_U+30FC 1
 62
   179
420
  2234388
370
    25
100
AcDbVertex
100
AcDb2dVertex
 10
97.82418167096387
 20
-134.5798891330219
 30
0.0
  0
VERTEX
  5
7B
330
79
100
AcDbEntity
  8
_U+30EC_U+30A4_U+30E4_U+30FC 1
 62
   179
420
  2234388
370
    25
100
AcDbVertex
100
AcDb2dVertex
 10
97.82418167096387
 20
-137.0799899657303
 30
0.0
  0
SEQEND
  5
7C
330
79
100
AcDbEntity
  8
_U+30EC_U+30A4_U+30E4_U+30FC 1
 62
   179
420
  2234388
370
    25
  0
POLYLINE
  5
7D
330
1F
100
AcDbEntity
  8
_U+30EC_U+30A4_U+30E4_U+30FC 1
 62
   179
420
  2234388
370
    25
100
AcDb2dPolyline
 66
     1
 10
0.0
 20
0.0
 30
0.0
  0
VERTEX
  5
7E
330
7D
100
AcDbEntity
  8
_U+30EC_U+30A4_U+30E4_U+30FC 1
 62
   179
420
  2234388
370
    25
100
AcDbVertex
100
AcDb2dVertex
 10
78.82448826679754
 20
-133.0799133000631
 30
0.0
  0
VERTEX
  5
7F
330
7D
100
AcDbEntity
  8
_U+30EC_U+30A4_U+30E4_U+30FC 1
 62
   179
420
  2234388
370
    25
100
AcDbVertex
100
AcDb2dVertex
 10
78.82448826679754
 20
-138.0801149654799
 30
0.0
  0
SEQEND
  5
80
330
7D
100
AcDbEntity
  8
_U+30EC_U+30A4_U+30E4_U+30FC 1
 62
   179
420
  2234388
370
    25
  0
POLYLINE
  5
81
330
1F
100
AcDbEntity
  8
_U+30EC_U+30A4_U+30E4_U+30FC 1
 62
   179
420
  2234388
370
    25
100
AcDb2dPolyline
 66
     1
 10
0.0
 20
0.0
 30
0.0
  0
VERTEX
  5
82
330
81
100
AcDbEntity
  8
_U+30EC_U+30A4_U+30E4_U+30FC 1
 62
   179
420
  2234388
370
    25
100
AcDbVertex
100
AcDb2dVertex
 10
97.22438890848808
 20
-134.5798891330219
 30
0.0
  0
VERTEX
  5
83
330
81
100
AcDbEntity
  8
_U+30EC_U+30A4_U+30E4_U+30FC 1
 62
   179
420
  2234388
370
    25
100
AcDbVertex
100
AcDb2dVertex
 10
97.82418167096387
 20
-134.5798891330219
 30
0.0
  0
SEQEND
  5
84
330
81
100
AcDbEntity
  8
_U+30EC_U+30A4_U+30E4_U+30FC 1
 62
   179
420
  2234388
370
    25
  0
POLYLINE
  5
85
330
1F
100
AcDbEntity
  8
_U+30EC_U+30A4_U+30E4_U+30FC 1
 62
   179
420
  2234388
370
    25
100
AcDb2dPolyline
 66
     1
 10
0.0
 20
0.0
 30
0.0
  0
VERTEX
  5
86
330
85
100
AcDbEntity
  8
_U+30EC_U+30A4_U+30E4_U+30FC 1
 62
   179
420
  2234388
370
    25
100
AcDbVertex
100
AcDb2dVertex
 10
97.22438890848808
 20
-134.5798891330219
 30
0.0
  0
VERTEX
  5
87
330
85
100
AcDbEntity
  8
_U+30EC_U+30A4_U+30E4_U+30FC 1
 62
   179
420
  2234388
370
    25
100
AcDbVertex
100
AcDb2dVertex
 10
97.22438890848808
 20
-136.480197188102
 30
0.0
  0
SEQEND
  5
88
330
85
100
AcDbEntity
  8
_U+30EC_U+30A4_U+30E4_U+30FC 1
 62
   179
420
  2234388
370
    25
  0
POLYLINE
  5
89
330
1F
100
AcDbEntity
  8
_U+30EC_U+30A4_U+30E4_U+30FC 1
 62
   179
420
  2234388
370
    25
100
AcDb2dPolyline
 66
     1
 10
0.0
 20
0.0
 30
0.0
  0
VERTEX
  5
8A
330
89
100
AcDbEntity
  8
_U+30EC_U+30A4_U+30E4_U+30FC 1
 62
   179
420
  2234388
370
    25
100
AcDbVertex
100
AcDb2dVertex
 10
79.42424575149646
 20
-136.480197188102
 30
0.0
  0
VERTEX
  5
8B
330
89
100
AcDbEntity
  8
_U+30EC_U+30A4_U+30E4_U+30FC 1
 62
   179
420
  2234388
370
    25
100
AcDbVertex
100
AcDb2dVertex
 10
87.32420999439603
 20
-136.480197188102
 30
0.0
  0
SEQEND
  5
8C
330
89
100
AcDbEntity
  8
_U+30EC_U+30A4_U+30E4_U+30FC 1
 62
   179
420
  2234388
370
    25
  0
POLYLINE
  5
8D
330
1F
100
AcDbEntity
  8
_U+30EC_U+30A4_U+30E4_U+30FC 1
 62
   179
420
  2234388
370
    25
100
AcDb2dPolyline
 66
     1
 10
0.0
 20
0.0
 30
0.0
  0
VERTEX
  5
8E
330
8D
100
AcDbEntity
  8
_U+30EC_U+30A4_U+30E4_U+30FC 1
 62
   179
420
  2234388
370
    25
100
AcDbVertex
100
AcDb2dVertex
 10
79.42424575149646
 20
-133.0799133000631
 30
0.0
  0
VERTEX
  5
8F
330
8D
100
AcDbEntity
  8
_U+30EC_U+30A4_U+30E4_U+30FC 1
 62
   179
420
  2234388
370
    25
100
AcDbVertex
100
AcDb2dVertex
 10
79.42424575149646
 20
-136.480197188102
 30
0.0
  0
SEQEND
  5
90
330
8D
100
AcDbEntity
  8
_U+30EC_U+30A4_U+30E4_U+30FC 1
 62
   179
420
  2234388
370
    25
  0
POLYLINE
  5
91
330
1F
100
AcDbEntity
  8
_U+30EC_U+30A4_U+30E4_U+30FC 1
 62
   179
420
  2234388
370
    25
100
AcDb2dPolyline
 66
     1
 10
0.0
 20
0.0
 30
0.0
  0
VERTEX
  5
92
330
91
100
AcDbEntity
  8
_U+30EC_U+30A4_U+30E4_U+30FC 1
 62
   179
420
  2234388
370
    25
100
AcDbVertex
100
AcDb2dVertex
 10
79.42424575149646
 20
-137.0799899657303
 30
0.0
  0
VERTEX
  5
93
330
91
100
AcDbEntity
  8
_U+30EC_U+30A4_U+30E4_U+30FC 1
 62
   179
420
  2234388
370
    25
100
AcDbVertex
100
AcDb2dVertex
 10
79.42424575149646
 20
-138.0801149654799
 30
0.0
  0
SEQEND
  5
94
330
91
100
AcDbEntity
  8
_U+30EC_U+30A4_U+30E4_U+30FC 1
 62
   179
420
  2234388
370
    25
  0
POLYLINE
  5
95
330
1F
100
AcDbEntity
  8
_U+30EC_U+30A4_U+30E4_U+30FC 1
 62
   179
420
  2234388
370
    25
100
AcDb2dPolyline
 66
     1
 10
0.0
 20
0.0
 30
0.0
  0
VERTEX
  5
96
330
95
100
AcDbEntity
  8
_U+30EC_U+30A4_U+30E4_U+30FC 1
 62
   179
420
  2234388
370
    25
100
AcDbVertex
100
AcDb2dVertex
 10
78.82448826679754
 20
-138.0801149654799
 30
0.0
  0
VERTEX
  5
97
330
95
100
AcDbEntity
  8
_U+30EC_U+30A4_U+30E4_U+30FC 1
 62
   179
420
  2234388
370
    25
100
AcDbVertex
100
AcDb2dVertex
 10
79.42424575149646
 20
-138.0801149654799
 30
0.0
  0
SEQEND
  5
98
330
95
100
AcDbEntity
  8
_U+30EC_U+30A4_U+30E4_U+30FC 1
 62
   179
420
  2234388
370
    25
  0
POLYLINE
  5
99
330
1F
100
AcDbEntity
  8
_U+30EC_U+30A4_U+30E4_U+30FC 1
 62
   179
420
  2234388
370
    25
100
AcDb2dPolyline
 66
     1
 10
0.0
 20
0.0
 30
0.0
  0
VERTEX
  5
9A
330
99
100
AcDbEntity
  8
_U+30EC_U+30A4_U+30E4_U+30FC 1
 62
   179
420
  2234388
370
    25
100
AcDbVertex
100
AcDb2dVertex
 10
78.82448826679754
 20
-133.0799133000631
 30
0.0
  0
VERTEX
  5
9B
330
99
100
AcDbEntity
  8
_U+30EC_U+30A4_U+30E4_U+30FC 1
 62
   179
420
  2234388
370
    25
100
AcDbVertex
100
AcDb2dVertex
 10
79.42424575149646
 20
-133.0799133000631
 30
0.0
  0
SEQEND
  5
9C
330
99
100
AcDbEntity
  8
_U+30EC_U+30A4_U+30E4_U+30FC 1
 62
   179
420
  2234388
370
    25
  0
POLYLINE
  5
9D
330
1F
100
AcDbEntity
  8
_U+30EC_U+30A4_U+30E4_U+30FC 1
 62
   179
420
  2234388
370
    25
100
AcDb2dPolyline
 66
     1
 10
0.0
 20
0.0
 30
0.0
  0
VERTEX
  5
9E
330
9D
100
AcDbEntity
  8
_U+30EC_U+30A4_U+30E4_U+30FC 1
 62
   179
420
  2234388
370
    25
100
AcDbVertex
100
AcDb2dVertex
 10
87.32420999439603
 20
-135.958968021566
 30
0.0
  0
VERTEX
  5
9F
330
9D
100
AcDbEntity
  8
_U+30EC_U+30A4_U+30E4_U+30FC 1
 62
   179
420
  2234388
370
    25
100
AcDbVertex
100
AcDb2dVertex
 10
87.32420999439603
 20
-136.480197188102
 30
0.0
  0
SEQEND
  5
A0
330
9D
100
AcDbEntity
  8
_U+30EC_U+30A4_U+30E4_U+30FC 1
 62
   179
420
  2234388
370
    25
  0
POLYLINE
  5
A1
330
1F
100
AcDbEntity
  8
_U+30EC_U+30A4_U+30E4_U+30FC 1
 62
   179
420
  2234388
370
    25
100
AcDb2dPolyline
 66
     1
 10
0.0
 20
0.0
 30
0.0
  0
VERTEX
  5
A2
330
A1
100
AcDbEntity
  8
_U+30EC_U+30A4_U+30E4_U+30FC 1
 62
   179
420
  2234388
370
    25
100
AcDbVertex
100
AcDb2dVertex
 10
87.82444887052276
 20
-135.958968021566
 30
0.0
  0
VERTEX
  5
A3
330
A1
100
AcDbEntity
  8
_U+30EC_U+30A4_U+30E4_U+30FC 1
 62
   179
420
  2234388
370
    25
100
AcDbVertex
100
AcDb2dVertex
 10
87.82444887052276
 20
-136.480197188102
 30
0.0
  0
SEQEND
  5
A4
330
A1
100
AcDbEntity
  8
_U+30EC_U+30A4_U+30E4_U+30FC 1
 62
   179
420
  2234388
370
    25
  0
POLYLINE
  5
A5
330
1F
100
AcDbEntity
  8
_U+30EC_U+30A4_U+30E4_U+30FC 1
 62
   179
420
  2234388
370
    25
100
AcDb2dPolyline
 66
     1
 10
0.0
 20
0.0
 30
0.0
  0
VERTEX
  5
A6
330
A5
100
AcDbEntity
  8
_U+30EC_U+30A4_U+30E4_U+30FC 1
 62
   179
420
  2234388
370
    25
100
AcDbVertex
100
AcDb2dVertex
 10
87.32420999439603
 20
-126.5800533016882
 30
0.0
  0
VERTEX
  5
A7
330
A5
100
AcDbEntity
  8
_U+30EC_U+30A4_U+30E4_U+30FC 1
 62
   179
420
  2234388
370
    25
100
AcDbVertex
100
AcDb2dVertex
 10
107.3243811508158
 20
-126.5800533016882
 30
0.0
  0
SEQEND
  5
A8
330
A5
100
AcDbEntity
  8
_U+30EC_U+30A4_U+30E4_U+30FC 1
 62
   179
420
  2234388
370
    25
  0
POLYLINE
  5
A9
330
1F
100
AcDbEntity
  8
_U+30EC_U+30A4_U+30E4_U+30FC 1
 62
   179
420
  2234388
370
    25
100
AcDb2dPolyline
 66
     1
 10
0.0
 20
0.0
 30
0.0
  0
VERTEX
  5
AA
330
A9
100
AcDbEntity
  8
_U+30EC_U+30A4_U+30E4_U+30FC 1
 62
   179
420
  2234388
370
    25
100
AcDbVertex
100
AcDb2dVertex
 10
87.82444887052276
 20
-127.0801158015633
 30
0.0
  0
VERTEX
  5
AB
330
A9
100
AcDbEntity
  8
_U+30EC_U+30A4_U+30E4_U+30FC 1
 62
   179
420
  2234388
370
    25
100
AcDbVertex
100
AcDb2dVertex
 10
107.3243811508158
 20
-127.0801158015633
 30
0.0
  0
SEQEND
  5
AC
330
A9
100
AcDbEntity
  8
_U+30EC_U+30A4_U+30E4_U+30FC 1
 62
   179
420
  2234388
370
    25
  0
POLYLINE
  5
AD
330
1F
100
AcDbEntity
  8
_U+30EC_U+30A4_U+30E4_U+30FC 1
 62
   179
420
  2234388
370
    25
100
AcDb2dPolyline
 66
     1
 10
0.0
 20
0.0
 30
0.0
  0
VERTEX
  5
AE
330
AD
100
AcDbEntity
  8
_U+30EC_U+30A4_U+30E4_U+30FC 1
 62
   179
420
  2234388
370
    25
100
AcDbVertex
100
AcDb2dVertex
 10
87.82444887052276
 20
-132.0801410780912
 30
0.0
  0
VERTEX
  5
AF
330
AD
100
AcDbEntity
  8
_U+30EC_U+30A4_U+30E4_U+30FC 1
 62
   179
420
  2234388
370
    25
100
AcDbVertex
100
AcDb2dVertex
 10
92.82429997679385
 20
-132.0801410780912
 30
0.0
  0
SEQEND
  5
B0
330
AD
100
AcDbEntity
  8
_U+30EC_U+30A4_U+30E4_U+30FC 1
 62
   179
420
  2234388
370
    25
  0
POLYLINE
  5
B1
330
1F
100
AcDbEntity
  8
_U+30EC_U+30A4_U+30E4_U+30FC 1
 62
   179
420
  2234388
370
    25
100
AcDb2dPolyline
 66
     1
 10
0.0
 20
0.0
 30
0.0
  0
VERTEX
  5
B2
330
B1
100
AcDbEntity
  8
_U+30EC_U+30A4_U+30E4_U+30FC 1
 62
   179
420
  2234388
370
    25
100
AcDbVertex
100
AcDb2dVertex
 10
88.19892247208026
 20
-132.5800271890772
 30
0.0
  0
VERTEX
  5
B3
330
B1
100
AcDbEntity
  8
_U+30EC_U+30A4_U+30E4_U+30FC 1
 62
   179
420
  2234388
370
    25
100
AcDbVertex
100
AcDb2dVertex
 10
92.82429997679385
 20
-132.5800271890772
 30
0.0
  0
SEQEND
  5
B4
330
B1
100
AcDbEntity
  8
_U+30EC_U+30A4_U+30E4_U+30FC 1
 62
   179
420
  2234388
370
    25
  0
POLYLINE
  5
B5
330
1F
100
AcDbEntity
  8
_U+30EC_U+30A4_U+30E4_U+30FC 1
 62
   179
420
  2234388
370
    25
100
AcDb2dPolyline
 66
     1
 10
0.0
 20
0.0
 30
0.0
  0
VERTEX
  5
B6
330
B5
100
AcDbEntity
  8
_U+30EC_U+30A4_U+30E4_U+30FC 1
 62
   179
420
  2234388
370
    25
100
AcDbVertex
100
AcDb2dVertex
 10
85.58995448308501
 20
-134.2298630219981
 30
0.0
  0
VERTEX
  5
B7
330
B5
100
AcDbEntity
  8
_U+30EC_U+30A4_U+30E4_U+30FC 1
 62
   179
420
  2234388
370
    25
100
AcDbVertex
100
AcDb2dVertex
 10
86.0953439146359
 20
-134.2298630219981
 30
0.0
  0
SEQEND
  5
B8
330
B5
100
AcDbEntity
  8
_U+30EC_U+30A4_U+30E4_U+30FC 1
 62
   179
420
  2234388
370
    25
  0
POLYLINE
  5
B9
330
1F
100
AcDbEntity
  8
_U+30EC_U+30A4_U+30E4_U+30FC 1
 62
   179
420
  2234388
370
    25
100
AcDb2dPolyline
 66
     1
 10
0.0
 20
0.0
 30
0.0
  0
VERTEX
  5
BA
330
B9
100
AcDbEntity
  8
_U+30EC_U+30A4_U+30E4_U+30FC 1
 62
   179
420
  2234388
370
    25
100
AcDbVertex
100
AcDb2dVertex
 10
87.32420999439603
 20
-126.5800533016882
 30
0.0
  0
VERTEX
  5
BB
330
B9
100
AcDbEntity
  8
_U+30EC_U+30A4_U+30E4_U+30FC 1
 62
   179
420
  2234388
370
    25
100
AcDbVertex
100
AcDb2dVertex
 10
87.32420999439603
 20
-132.4956074668763
 30
0.0
  0
SEQEND
  5
BC
330
B9
100
AcDbEntity
  8
_U+30EC_U+30A4_U+30E4_U+30FC 1
 62
   179
420
  2234388
370
    25
  0
POLYLINE
  5
BD
330
1F
100
AcDbEntity
  8
_U+30EC_U+30A4_U+30E4_U+30FC 1
 62
   179
420
  2234388
370
    25
100
AcDb2dPolyline
 66
     1
 10
0.0
 20
0.0
 30
0.0
  0
VERTEX
  5
BE
330
BD
100
AcDbEntity
  8
_U+30EC_U+30A4_U+30E4_U+30FC 1
 62
   179
420
  2234388
370
    25
100
AcDbVertex
100
AcDb2dVertex
 10
87.82444887052276
 20
-127.0801158015633
 30
0.0
  0
VERTEX
  5
BF
330
BD
100
AcDbEntity
  8
_U+30EC_U+30A4_U+30E4_U+30FC 1
 62
   179
420
  2234388
370
    25
100
AcDbVertex
100
AcDb2dVertex
 10
87.82444887052276
 20
-132.0801410780912
 30
0.0
  0
SEQEND
  5
C0
330
BD
100
AcDbEntity
  8
_U+30EC_U+30A4_U+30E4_U+30FC 1
 62
   179
420
  2234388
370
    25
  0
POLYLINE
  5
C1
330
1F
100
AcDbEntity
  8
_U+30EC_U+30A4_U+30E4_U+30FC 1
 62
   179
420
  2234388
370
    25
100
AcDb2dPolyline
 66
     1
 10
0.0
 20
0.0
 30
0.0
  0
VERTEX
  5
C2
330
C1
100
AcDbEntity
  8
_U+30EC_U+30A4_U+30E4_U+30FC 1
 62
   179
420
  2234388
370
    25
100
AcDbVertex
100
AcDb2dVertex
 10
107.3243811508158
 20
-126.5800533016882
 30
0.0
  0
VERTEX
  5
C3
330
C1
100
AcDbEntity
  8
_U+30EC_U+30A4_U+30E4_U+30FC 1
 62
   179
420
  2234388
370
    25
100
AcDbVertex
100
AcDb2dVertex
 10
107.3243811508158
 20
-127.0801158015633
 30
0.0
  0
SEQEND
  5
C4
330
C1
100
AcDbEntity
  8
_U+30EC_U+30A4_U+30E4_U+30FC 1
 62
   179
420
  2234388
370
    25
  0
POLYLINE
  5
C5
330
1F
100
AcDbEntity
  8
_U+30EC_U+30A4_U+30E4_U+30FC 1
 62
   179
420
  2234388
370
    25
100
AcDb2dPolyline
 66
     1
 10
0.0
 20
0.0
 30
0.0
  0
VERTEX
  5
C6
330
C5
100
AcDbEntity
  8
_U+30EC_U+30A4_U+30E4_U+30FC 1
 62
   179
420
  2234388
370
    25
100
AcDbVertex
100
AcDb2dVertex
 10
92.82429997679385
 20
-132.0801410780912
 30
0.0
  0
VERTEX
  5
C7
330
C5
100
AcDbEntity
  8
_U+30EC_U+30A4_U+30E4_U+30FC 1
 62
   179
420
  2234388
370
    25
100
AcDbVertex
100
AcDb2dVertex
 10
92.82429997679385
 20
-132.5800271890772
 30
0.0
  0
SEQEND
  5
C8
330
C5
100
AcDbEntity
  8
_U+30EC_U+30A4_U+30E4_U+30FC 1
 62
   179
420
  2234388
370
    25
  0
POLYLINE
  5
C9
330
1F
100
AcDbEntity
  8
_U+30EC_U+30A4_U+30E4_U+30FC 1
 62
   179
420
  2234388
370
    25
100
AcDb2dPolyline
 66
     1
 10
0.0
 20
0.0
 30
0.0
  0
VERTEX
  5
CA
330
C9
100
AcDbEntity
  8
_U+30EC_U+30A4_U+30E4_U+30FC 1
 62
   179
420
  2234388
370
    25
100
AcDbVertex
100
AcDb2dVertex
 10
87.82444887052276
 20
-136.480197188102
 30
0.0
  0
VERTEX
  5
CB
330
C9
100
AcDbEntity
  8
_U+30EC_U+30A4_U+30E4_U+30FC 1
 62
   179
420
  2234388
370
    25
100
AcDbVertex
100
AcDb2dVertex
 10
97.22438890848808
 20
-136.480197188102
 30
0.0
  0
SEQEND
  5
CC
330
C9
100
AcDbEntity
  8
_U+30EC_U+30A4_U+30E4_U+30FC 1
 62
   179
420
  2234388
370
    25
  0
POLYLINE
  5
CD
330
1F
100
AcDbEntity
  8
_U+30EC_U+30A4_U+30E4_U+30FC 1
 62
   179
420
  2234388
370
     9
100
AcDb2dPolyline
 66
     1
 10
0.0
 20
0.0
 30
0.0
  0
VERTEX
  5
CE
330
CD
100
AcDbEntity
  8
_U+30EC_U+30A4_U+30E4_U+30FC 1
 62
   179
420
  2234388
370
     9
100
AcDbVertex
100
AcDb2dVertex
 10
85.23735310319174
 20
-117.6746369150256
 30
0.0
  0
VERTEX
  5
CF
330
CD
100
AcDbEntity
  8
_U+30EC_U+30A4_U+30E4_U+30FC 1
 62
   179
420
  2234388
370
     9
100
AcDbVertex
100
AcDb2dVertex
 10
84.8415011688463
 20
-117.36923719288
 30
0.0
  0
SEQEND
  5
D0
330
CD
100
AcDbEntity
  8
_U+30EC_U+30A4_U+30E4_U+30FC 1
 62
   179
420
  2234388
370
     9
  0
POLYLINE
  5
D1
330
1F
100
AcDbEntity
  8
_U+30EC_U+30A4_U+30E4_U+30FC 1
 62
   179
420
  2234388
370
     9
100
AcDb2dPolyline
 66
     1
 10
0.0
 20
0.0
 30
0.0
  0
VERTEX
  5
D2
330
D1
100
AcDbEntity
  8
_U+30EC_U+30A4_U+30E4_U+30FC 1
 62
   179
420
  2234388
370
     9
100
AcDbVertex
100
AcDb2dVertex
 10
85.33708337842518
 20
-117.4357358039746
 30
0.0
  0
VERTEX
  5
D3
330
D1
100
AcDbEntity
  8
_U+30EC_U+30A4_U+30E4_U+30FC 1
 62
   179
420
  2234388
370
     9
100
AcDbVertex
100
AcDb2dVertex
 10
84.8415011688463
 20
-117.36923719288
 30
0.0
  0
SEQEND
  5
D4
330
D1
100
AcDbEntity
  8
_U+30EC_U+30A4_U+30E4_U+30FC 1
 62
   179
420
  2234388
370
     9
  0
POLYLINE
  5
D5
330
1F
100
AcDbEntity
  8
_U+30EC_U+30A4_U+30E4_U+30FC 1
  6
AI-Linetype-1
 62
   179
420
  2234388
370
    25
100
AcDb2dPolyline
 66
     1
 10
0.0
 20
0.0
 30
0.0
  0
VERTEX
  5
D6
330
D5
100
AcDbEntity
  8
_U+30EC_U+30A4_U+30E4_U+30FC 1
  6
AI-Linetype-1
 62
   179
420
  2234388
370
    25
100
AcDbVertex
100
AcDb2dVertex
 10
84.67424922866883
 20
-134.2298630219981
 30
0.0
  0
VERTEX
  5
D7
330
D5
100
AcDbEntity
  8
_U+30EC_U+30A4_U+30E4_U+30FC 1
  6
AI-Linetype-1
 62
   179
420
  2234388
370
    25
100
AcDbVertex
100
AcDb2dVertex
 10
84.67424922866883
 20
-131.7301149670674
 30
0.0
  0
SEQEND
  5
D9
330
D5
100
AcDbEntity
  8
_U+30EC_U+30A4_U+30E4_U+30FC 1
  6
AI-Linetype-1
 62
   179
420
  2234388
370
    25
  0
POLYLINE
  5
DA
330
1F
100
AcDbEntity
  8
_U+30EC_U+30A4_U+30E4_U+30FC 1
  6
AI-Linetype-2
 62
   179
420
  2234388
370
    25
100
AcDb2dPolyline
 66
     1
 10
0.0
 20
0.0
 30
0.0
  0
VERTEX
  5
DB
330
DA
100
AcDbEntity
  8
_U+30EC_U+30A4_U+30E4_U+30FC 1
  6
AI-Linetype-2
 62
   179
420
  2234388
370
    25
100
AcDbVertex
100
AcDb2dVertex
 10
79.67436518955982
 20
-114.7299655268729
 30
0.0
  0
VERTEX
  5
DC
330
DA
100
AcDbEntity
  8
_U+30EC_U+30A4_U+30E4_U+30FC 1
  6
AI-Linetype-2
 62
   179
420
  2234388
370
    25
100
AcDbVertex
100
AcDb2dVertex
 10
80.17425128791778
 20
-114.7299655268729
 30
0.0
  0
SEQEND
  5
DE
330
DA
100
AcDbEntity
  8
_U+30EC_U+30A4_U+30E4_U+30FC 1
  6
AI-Linetype-2
 62
   179
420
  2234388
370
    25
  0
POLYLINE
  5
DF
330
1F
100
AcDbEntity
  8
_U+30EC_U+30A4_U+30E4_U+30FC 1
  6
AI-Linetype-3
 62
   179
420
  2234388
370
    25
100
AcDb2dPolyline
 66
     1
 10
0.0
 20
0.0
 30
0.0
  0
VERTEX
  5
E0
330
DF
100
AcDbEntity
  8
_U+30EC_U+30A4_U+30E4_U+30FC 1
  6
AI-Linetype-3
 62
   179
420
  2234388
370
    25
100
AcDbVertex
100
AcDb2dVertex
 10
80.17425128791778
 20
-134.2298630219981
 30
0.0
  0
VERTEX
  5
E1
330
DF
100
AcDbEntity
  8
_U+30EC_U+30A4_U+30E4_U+30FC 1
  6
AI-Linetype-3
 62
   179
420
  2234388
370
    25
100
AcDbVertex
100
AcDb2dVertex
 10
85.17448810479556
 20
-134.2298630219981
 30
0.0
  0
SEQEND
  5
E3
330
DF
100
AcDbEntity
  8
_U+30EC_U+30A4_U+30E4_U+30FC 1
  6
AI-Linetype-3
 62
   179
420
  2234388
370
    25
  0
POLYLINE
  5
E4
330
1F
100
AcDbEntity
  8
_U+30EC_U+30A4_U+30E4_U+30FC 1
  6
AI-Linetype-4
 62
   179
420
  2234388
370
    25
100
AcDb2dPolyline
 66
     1
 10
0.0
 20
0.0
 30
0.0
  0
VERTEX
  5
E5
330
E4
100
AcDbEntity
  8
_U+30EC_U+30A4_U+30E4_U+30FC 1
  6
AI-Linetype-4
 62
   179
420
  2234388
370
    25
100
AcDbVertex
100
AcDb2dVertex
 10
79.67436518955982
 20
-134.7301019107618
 30
0.0
  0
VERTEX
  5
E6
330
E4
100
AcDbEntity
  8
_U+30EC_U+30A4_U+30E4_U+30FC 1
  6
AI-Linetype-4
 62
   179
420
  2234388
370
    25
100
AcDbVertex
100
AcDb2dVertex
 10
85.58995448308501
 20
-134.7301019107618
 30
0.0
  0
SEQEND
  5
E8
330
E4
100
AcDbEntity
  8
_U+30EC_U+30A4_U+30E4_U+30FC 1
  6
AI-Linetype-4
 62
   179
420
  2234388
370
    25
  0
POLYLINE
  5
E9
330
1F
100
AcDbEntity
  8
_U+30EC_U+30A4_U+30E4_U+30FC 1
  6
AI-Linetype-5
 62
   179
420
  2234388
370
    25
100
AcDb2dPolyline
 66
     1
 10
0.0
 20
0.0
 30
0.0
  0
VERTEX
  5
EA
330
E9
100
AcDbEntity
  8
_U+30EC_U+30A4_U+30E4_U+30FC 1
  6
AI-Linetype-5
 62
   179
420
  2234388
370
    25
100
AcDbVertex
100
AcDb2dVertex
 10
85.67433892537663
 20
-133.8557421887584
 30
0.0
  0
VERTEX
  5
EB
330
E9
100
AcDbEntity
  8
_U+30EC_U+30A4_U+30E4_U+30FC 1
  6
AI-Linetype-5
 62
   179
420
  2234388
370
    25
100
AcDbVertex
100
AcDb2dVertex
 10
85.67433892537663
 20
-129.230014134359
 30
0.0
  0
SEQEND
  5
ED
330
E9
100
AcDbEntity
  8
_U+30EC_U+30A4_U+30E4_U+30FC 1
  6
AI-Linetype-5
 62
   179
420
  2234388
370
    25
  0
POLYLINE
  5
EE
330
1F
100
AcDbEntity
  8
_U+30EC_U+30A4_U+30E4_U+30FC 1
  6
AI-Linetype-6
 62
   179
420
  2234388
370
    25
100
AcDb2dPolyline
 66
     1
 10
0.0
 20
0.0
 30
0.0
  0
VERTEX
  5
EF
330
EE
100
AcDbEntity
  8
_U+30EC_U+30A4_U+30E4_U+30FC 1
  6
AI-Linetype-6
 62
   179
420
  2234388
370
    25
100
AcDbVertex
100
AcDb2dVertex
 10
80.17425128791778
 20
-134.2298630219981
 30
0.0
  0
VERTEX
  5
F0
330
EE
100
AcDbEntity
  8
_U+30EC_U+30A4_U+30E4_U+30FC 1
  6
AI-Linetype-6
 62
   179
420
  2234388
370
    25
100
AcDbVertex
100
AcDb2dVertex
 10
80.17425128791778
 20
-114.7299655268729
 30
0.0
  0
SEQEND
  5
F2
330
EE
100
AcDbEntity
  8
_U+30EC_U+30A4_U+30E4_U+30FC 1
  6
AI-Linetype-6
 62
   179
420
  2234388
370
    25
  0
POLYLINE
  5
F3
330
1F
100
AcDbEntity
  8
_U+30EC_U+30A4_U+30E4_U+30FC 1
  6
AI-Linetype-7
 62
   179
420
  2234388
370
    25
100
AcDb2dPolyline
 66
     1
 10
0.0
 20
0.0
 30
0.0
  0
VERTEX
  5
F4
330
F3
100
AcDbEntity
  8
_U+30EC_U+30A4_U+30E4_U+30FC 1
  6
AI-Linetype-7
 62
   179
420
  2234388
370
    25
100
AcDbVertex
100
AcDb2dVertex
 10
85.17448810479556
 20
-134.2298630219981
 30
0.0
  0
VERTEX
  5
F5
330
F3
100
AcDbEntity
  8
_U+30EC_U+30A4_U+30E4_U+30FC 1
  6
AI-Linetype-7
 62
   179
420
  2234388
370
    25
100
AcDbVertex
100
AcDb2dVertex
 10
85.17448810479556
 20
-129.230014134359
 30
0.0
  0
SEQEND
  5
F7
330
F3
100
AcDbEntity
  8
_U+30EC_U+30A4_U+30E4_U+30FC 1
  6
AI-Linetype-7
 62
   179
420
  2234388
370
    25
  0
POLYLINE
  5
F8
330
1F
100
AcDbEntity
  8
_U+30EC_U+30A4_U+30E4_U+30FC 1
  6
AI-Linetype-8
 62
   179
420
  2234388
370
    25
100
AcDb2dPolyline
 66
     1
 10
0.0
 20
0.0
 30
0.0
  0
VERTEX
  5
F9
330
F8
100
AcDbEntity
  8
_U+30EC_U+30A4_U+30E4_U+30FC 1
  6
AI-Linetype-8
 62
   179
420
  2234388
370
    25
100
AcDbVertex
100
AcDb2dVertex
 10
79.67436518955982
 20
-134.7301019107618
 30
0.0
  0
VERTEX
  5
FA
330
F8
100
AcDbEntity
  8
_U+30EC_U+30A4_U+30E4_U+30FC 1
  6
AI-Linetype-8
 62
   179
420
  2234388
370
    25
100
AcDbVertex
100
AcDb2dVertex
 10
79.67436518955982
 20
-114.7299655268729
 30
0.0
  0
SEQEND
  5
FC
330
F8
100
AcDbEntity
  8
_U+30EC_U+30A4_U+30E4_U+30FC 1
  6
AI-Linetype-8
 62
   179
420
  2234388
370
    25
  0
POLYLINE
  5
FD
330
1F
100
AcDbEntity
  8
_U+30EC_U+30A4_U+30E4_U+30FC 1
  6
AI-Linetype-9
 62
   179
420
  2234388
370
    25
100
AcDb2dPolyline
 66
     1
 10
0.0
 20
0.0
 30
0.0
  0
VERTEX
  5
FE
330
FD
100
AcDbEntity
  8
_U+30EC_U+30A4_U+30E4_U+30FC 1
  6
AI-Linetype-9
 62
   179
420
  2234388
370
    25
100
AcDbVertex
100
AcDb2dVertex
 10
89.05331495028288
 20
-134.2298630219981
 30
0.0
  0
VERTEX
  5
FF
330
FD
100
AcDbEntity
  8
_U+30EC_U+30A4_U+30E4_U+30FC 1
  6
AI-Linetype-9
 62
   179
420
  2234388
370
    25
100
AcDbVertex
100
AcDb2dVertex
 10
89.5741913258831
 20
-134.2298630219981
 30
0.0
  0
SEQEND
  5
101
330
FD
100
AcDbEntity
  8
_U+30EC_U+30A4_U+30E4_U+30FC 1
  6
AI-Linetype-9
 62
   179
420
  2234388
370
    25
  0
POLYLINE
  5
102
330
1F
100
AcDbEntity
  8
_U+30EC_U+30A4_U+30E4_U+30FC 1
  6
AI-Linetype-10
 62
   179
420
  2234388
370
    25
100
AcDb2dPolyline
 66
     1
 10
0.0
 20
0.0
 30
0.0
  0
VERTEX
  5
103
330
102
100
AcDbEntity
  8
_U+30EC_U+30A4_U+30E4_U+30FC 1
  6
AI-Linetype-10
 62
   179
420
  2234388
370
    25
100
AcDbVertex
100
AcDb2dVertex
 10
85.17448810479556
 20
-129.230014134359
 30
0.0
  0
VERTEX
  5
104
330
102
100
AcDbEntity
  8
_U+30EC_U+30A4_U+30E4_U+30FC 1
  6
AI-Linetype-10
 62
   179
420
  2234388
370
    25
100
AcDbVertex
100
AcDb2dVertex
 10
85.67433892537663
 20
-129.230014134359
 30
0.0
  0
SEQEND
  5
106
330
102
100
AcDbEntity
  8
_U+30EC_U+30A4_U+30E4_U+30FC 1
  6
AI-Linetype-10
 62
   179
420
  2234388
370
    25
  0
POLYLINE
  5
107
330
1F
100
AcDbEntity
  8
_U+30EC_U+30A4_U+30E4_U+30FC 1
  6
AI-Linetype-11
 62
   179
420
  2234388
370
    25
100
AcDb2dPolyline
 66
     1
 10
0.0
 20
0.0
 30
0.0
  0
VERTEX
  5
108
330
107
100
AcDbEntity
  8
_U+30EC_U+30A4_U+30E4_U+30FC 1
  6
AI-Linetype-11
 62
   179
420
  2234388
370
    25
100
AcDbVertex
100
AcDb2dVertex
 10
80.9242568243391
 20
-131.7301149670674
 30
0.0
  0
VERTEX
  5
109
330
107
100
AcDbEntity
  8
_U+30EC_U+30A4_U+30E4_U+30FC 1
  6
AI-Linetype-11
 62
   179
420
  2234388
370
    25
100
AcDbVertex
100
AcDb2dVertex
 10
84.67424922866883
 20
-131.7301149670674
 30
0.0
  0
SEQEND
  5
10B
330
107
100
AcDbEntity
  8
_U+30EC_U+30A4_U+30E4_U+30FC 1
  6
AI-Linetype-11
 62
   179
420
  2234388
370
    25
  0
POLYLINE
  5
10C
330
1F
100
AcDbEntity
  8
_U+30EC_U+30A4_U+30E4_U+30FC 1
  6
AI-Linetype-12
 62
   179
420
  2234388
370
    25
100
AcDb2dPolyline
 66
     1
 10
0.0
 20
0.0
 30
0.0
  0
VERTEX
  5
10D
330
10C
100
AcDbEntity
  8
_U+30EC_U+30A4_U+30E4_U+30FC 1
  6
AI-Linetype-12
 62
   179
420
  2234388
370
    25
100
AcDbVertex
100
AcDb2dVertex
 10
80.9242568243391
 20
-134.2298630219981
 30
0.0
  0
VERTEX
  5
10E
330
10C
100
AcDbEntity
  8
_U+30EC_U+30A4_U+30E4_U+30FC 1
  6
AI-Linetype-12
 62
   179
420
  2234388
370
    25
100
AcDbVertex
100
AcDb2dVertex
 10
80.9242568243391
 20
-131.7301149670674
 30
0.0
  0
SEQEND
  5
110
330
10C
100
AcDbEntity
  8
_U+30EC_U+30A4_U+30E4_U+30FC 1
  6
AI-Linetype-12
 62
   179
420
  2234388
370
    25
  0
SPLINE
  5
111
330
1F
100
AcDbEntity
  8
_U+30EC_U+30A4_U+30E4_U+30FC 1
 62
   179
420
  2234388
370
    25
100
AcDbSpline
210
0.0
220
0.0
230
1.0
 70
    11
 71
     3
 72
    17
 73
    13
 74
     0
 42
0.0000000001
 43
0.0000000001
 12
1.0
 22
0.0
 32
0.0
 13
1.0
 23
0.0
 33
0.0
 40
0.0
 40
0.0
 40
0.0
 40
0.0
 40
1.0
 40
1.0
 40
1.0
 40
2.0
 40
2.0
 40
2.0
 40
3.0
 40
3.0
 40
3.0
 40
4.0
 40
4.0
 40
4.0
 40
4.0
 10
88.5744191291672
 20
-134.4799824663802
 30
0.0
 10
88.5744191291672
 20
-133.9277441331845
 30
0.0
 10
88.12656775170394
 20
-133.4802102444077
 30
0.0
 10
87.5743294324594
 20
-133.4802102444077
 30
0.0
 10
87.02209111321483
 20
-133.4802102444077
 30
0.0
 10
86.5742044579747
 20
-133.9277441331845
 30
0.0
 10
86.5742044579747
 20
-134.4799824663802
 30
0.0
 10
86.5742044579747
 20
-135.0322560773529
 30
0.0
 10
87.02209111321483
 20
-135.4801074661299
 30
0.0
 10
87.5743294324594
 20
-135.4801074661299
 30
0.0
 10
88.12656775170394
 20
-135.4801074661299
 30
0.0
 10
88.5744191291672
 20
-135.0322560773529
 30
0.0
 10
88.5744191291672
 20
-134.4799824663802
 30
0.0
  0
SPLINE
  5
112
330
1F
100
AcDbEntity
  8
_U+30EC_U+30A4_U+30E4_U+30FC 1
 62
   179
420
  2234388
370
    25
100
AcDbSpline
210
0.0
220
0.0
230
1.0
 70
     8
 71
     3
 72
    17
 73
    13
 74
     0
 42
0.0000000001
 43
0.0000000001
 12
1.0
 22
0.0
 32
0.0
 13
1.0
 23
0.0
 33
0.0
 40
0.0
 40
0.0
 40
0.0
 40
0.0
 40
1.0
 40
1.0
 40
1.0
 40
2.0
 40
2.0
 40
2.0
 40
3.0
 40
3.0
 40
3.0
 40
4.0
 40
4.0
 40
4.0
 40
4.0
 10
87.82444887052276
 20
-135.958968021566
 30
0.0
 10
88.64127051635056
 20
-135.8208202438225
 30
0.0
 10
89.19146272453621
 20
-135.0470374662381
 30
0.0
 10
89.05331495028288
 20
-134.2298630219981
 30
0.0
 10
88.91516942221554
 20
-133.4133941333135
 30
0.0
 10
88.14103164022383
 20
-132.8628491334509
 30
0.0
 10
87.32420999439603
 20
-133.0009969111944
 30
0.0
 10
86.50738834856821
 20
-133.1391446889374
 30
0.0
 10
85.95719614038256
 20
-133.9132802442995
 30
0.0
 10
86.0953439146359
 20
-134.7301019107618
 30
0.0
 10
86.201812245253
 20
-135.3595280217155
 30
0.0
 10
86.69478608943734
 20
-135.8525349660371
 30
0.0
 10
87.32420999439603
 20
-135.958968021566
 30
0.0
  0
SPLINE
  5
113
330
1F
100
AcDbEntity
  8
_U+30EC_U+30A4_U+30E4_U+30FC 1
 62
   179
420
  2234388
370
    25
100
AcDbSpline
210
0.0
220
0.0
230
1.0
 70
     8
 71
     3
 72
    11
 73
     7
 74
     0
 42
0.0000000001
 43
0.0000000001
 12
1.0
 22
0.0
 32
0.0
 13
1.0
 23
0.0
 33
0.0
 40
0.0
 40
0.0
 40
0.0
 40
0.0
 40
1.0
 40
1.0
 40
1.0
 40
2.0
 40
2.0
 40
2.0
 40
2.0
 10
87.82444887052276
 20
-136.4643574658841
 30
0.0
 10
88.92031773145371
 20
-136.3262096881406
 30
0.0
 10
89.6968521560871
 20
-135.3261199661685
 30
0.0
 10
89.55870438183376
 20
-134.2298630219981
 30
0.0
 10
89.46225493984996
 20
-133.4637002444118
 30
0.0
 10
88.93273550891467
 20
-132.8211860779059
 30
0.0
 10
88.19892247208026
 20
-132.5800271890772
 30
0.0
  0
SPLINE
  5
114
330
1F
100
AcDbEntity
  8
_U+30EC_U+30A4_U+30E4_U+30FC 1
 62
   179
420
  2234388
370
    25
100
AcDbSpline
210
0.0
220
0.0
230
1.0
 70
     8
 71
     3
 72
     8
 73
     4
 74
     0
 42
0.0000000001
 43
0.0000000001
 12
1.0
 22
0.0
 32
0.0
 13
1.0
 23
0.0
 33
0.0
 40
0.0
 40
0.0
 40
0.0
 40
0.0
 40
1.0
 40
1.0
 40
1.0
 40
1.0
 10
87.32420999439603
 20
-132.4956074668763
 30
0.0
 10
86.41799446195995
 20
-132.609978022403
 30
0.0
 10
85.70432503572273
 20
-133.3238238555583
 30
0.0
 10
85.58995448308501
 20
-134.2298630219981
 30
0.0
  0
SPLINE
  5
115
330
1F
100
AcDbEntity
  8
_U+30EC_U+30A4_U+30E4_U+30FC 1
 62
   179
420
  2234388
370
     9
100
AcDbSpline
210
0.0
220
0.0
230
1.0
 70
    11
 71
     3
 72
    17
 73
    13
 74
     0
 42
0.0000000001
 43
0.0000000001
 12
1.0
 22
0.0
 32
0.0
 13
1.0
 23
0.0
 33
0.0
 40
0.0
 40
0.0
 40
0.0
 40
0.0
 40
1.0
 40
1.0
 40
1.0
 40
2.0
 40
2.0
 40
2.0
 40
3.0
 40
3.0
 40
3.0
 40
4.0
 40
4.0
 40
4.0
 40
4.0
 10
99.87434967421528
 20
-134.5798891330219
 30
0.0
 10
99.87434967421528
 20
-134.5523371885841
 30
0.0
 10
99.8519482858979
 20
-134.5299357997007
 30
0.0
 10
99.82439634215636
 20
-134.5299357997007
 30
0.0
 10
99.79684439841483
 20
-134.5299357997007
 30
0.0
 10
99.77444301009746
 20
-134.5523371885841
 30
0.0
 10
99.77444301009746
 20
-134.5798891330219
 30
0.0
 10
99.77444301009746
 20
-134.6077938552368
 30
0.0
 10
99.79684439841483
 20
-134.6301952441201
 30
0.0
 10
99.82439634215636
 20
-134.6301952441201
 30
0.0
 10
99.8519482858979
 20
-134.6301952441201
 30
0.0
 10
99.87434967421528
 20
-134.6077938552368
 30
0.0
 10
99.87434967421528
 20
-134.5798891330219
 30
0.0
  0
SPLINE
  5
116
330
1F
100
AcDbEntity
  8
_U+30EC_U+30A4_U+30E4_U+30FC 1
 62
   179
420
  2234388
370
     9
100
AcDbSpline
210
0.0
220
0.0
230
1.0
 70
    11
 71
     3
 72
    17
 73
    13
 74
     0
 42
0.0000000001
 43
0.0000000001
 12
1.0
 22
0.0
 32
0.0
 13
1.0
 23
0.0
 33
0.0
 40
0.0
 40
0.0
 40
0.0
 40
0.0
 40
1.0
 40
1.0
 40
1.0
 40
2.0
 40
2.0
 40
2.0
 40
3.0
 40
3.0
 40
3.0
 40
4.0
 40
4.0
 40
4.0
 40
4.0
 10
99.87434967421528
 20
-137.0799899657303
 30
0.0
 10
99.87434967421528
 20
-137.0524380212925
 30
0.0
 10
99.8519482858979
 20
-137.0300366324091
 30
0.0
 10
99.82439634215636
 20
-137.0300366324091
 30
0.0
 10
99.79684439841483
 20
-137.0300366324091
 30
0.0
 10
99.77444301009746
 20
-137.0524380212925
 30
0.0
 10
99.77444301009746
 20
-137.0799899657303
 30
0.0
 10
99.77444301009746
 20
-137.1075771879456
 30
0.0
 10
99.79684439841483
 20
-137.1299432990508
 30
0.0
 10
99.82439634215636
 20
-137.1299432990508
 30
0.0
 10
99.8519482858979
 20
-137.1299432990508
 30
0.0
 10
99.87434967421528
 20
-137.1075771879456
 30
0.0
 10
99.87434967421528
 20
-137.0799899657303
 30
0.0
  0
SPLINE
  5
117
330
1F
100
AcDbEntity
  8
_U+30EC_U+30A4_U+30E4_U+30FC 1
 62
   179
420
  2234388
370
     9
100
AcDbSpline
210
0.0
220
0.0
230
1.0
 70
    11
 71
     3
 72
    17
 73
    13
 74
     0
 42
0.0000000001
 43
0.0000000001
 12
1.0
 22
0.0
 32
0.0
 13
1.0
 23
0.0
 33
0.0
 40
0.0
 40
0.0
 40
0.0
 40
0.0
 40
1.0
 40
1.0
 40
1.0
 40
2.0
 40
2.0
 40
2.0
 40
3.0
 40
3.0
 40
3.0
 40
4.0
 40
4.0
 40
4.0
 40
4.0
 10
97.87448778079157
 20
-140.0799769094246
 30
0.0
 10
97.87448778079157
 20
-140.0524249649868
 30
0.0
 10
97.85208886442594
 20
-140.0300235761035
 30
0.0
 10
97.82418167096387
 20
-140.0300235761035
 30
0.0
 10
97.79662972722234
 20
-140.0300235761035
 30
0.0
 10
97.77422833890496
 20
-140.0524249649868
 30
0.0
 10
97.77422833890496
 20
-140.0799769094246
 30
0.0
 10
97.77422833890496
 20
-140.1075641316399
 30
0.0
 10
97.79662972722234
 20
-140.1299655205233
 30
0.0
 10
97.82418167096387
 20
-140.1299655205233
 30
0.0
 10
97.85208886442594
 20
-140.1299655205233
 30
0.0
 10
97.87448778079157
 20
-140.1075641316399
 30
0.0
 10
97.87448778079157
 20
-140.0799769094246
 30
0.0
  0
SPLINE
  5
118
330
1F
100
AcDbEntity
  8
_U+30EC_U+30A4_U+30E4_U+30FC 1
 62
   179
420
  2234388
370
     9
100
AcDbSpline
210
0.0
220
0.0
230
1.0
 70
    11
 71
     3
 72
    17
 73
    13
 74
     0
 42
0.0000000001
 43
0.0000000001
 12
1.0
 22
0.0
 32
0.0
 13
1.0
 23
0.0
 33
0.0
 40
0.0
 40
0.0
 40
0.0
 40
0.0
 40
1.0
 40
1.0
 40
1.0
 40
2.0
 40
2.0
 40
2.0
 40
3.0
 40
3.0
 40
3.0
 40
4.0
 40
4.0
 40
4.0
 40
4.0
 10
78.87444159885646
 20
-140.0799769094246
 30
0.0
 10
78.87444159885646
 20
-140.0524249649868
 30
0.0
 10
78.85204021053909
 20
-140.0300235761035
 30
0.0
 10
78.82448826679754
 20
-140.0300235761035
 30
0.0
 10
78.79672465639474
 20
-140.0300235761035
 30
0.0
 10
78.77435854585424
 20
-140.0524249649868
 30
0.0
 10
78.77435854585424
 20
-140.0799769094246
 30
0.0
 10
78.77435854585424
 20
-140.1075641316399
 30
0.0
 10
78.79672465639474
 20
-140.1299655205233
 30
0.0
 10
78.82448826679754
 20
-140.1299655205233
 30
0.0
 10
78.85204021053909
 20
-140.1299655205233
 30
0.0
 10
78.87444159885646
 20
-140.1075641316399
 30
0.0
 10
78.87444159885646
 20
-140.0799769094246
 30
0.0
  0
SPLINE
  5
119
330
1F
100
AcDbEntity
  8
_U+30EC_U+30A4_U+30E4_U+30FC 1
 62
   179
420
  2234388
370
     9
100
AcDbSpline
210
0.0
220
0.0
230
1.0
 70
    11
 71
     3
 72
    17
 73
    13
 74
     0
 42
0.0000000001
 43
0.0000000001
 12
1.0
 22
0.0
 32
0.0
 13
1.0
 23
0.0
 33
0.0
 40
0.0
 40
0.0
 40
0.0
 40
0.0
 40
1.0
 40
1.0
 40
1.0
 40
2.0
 40
2.0
 40
2.0
 40
3.0
 40
3.0
 40
3.0
 40
4.0
 40
4.0
 40
4.0
 40
4.0
 10
76.87436803877148
 20
-138.0801149654799
 30
0.0
 10
76.87436803877148
 20
-138.0525630210421
 30
0.0
 10
76.8519666504541
 20
-138.0301616321594
 30
0.0
 10
76.82423831782818
 20
-138.0301616321594
 30
0.0
 10
76.79668637408663
 20
-138.0301616321594
 30
0.0
 10
76.77428498576926
 20
-138.0525630210421
 30
0.0
 10
76.77428498576926
 20
-138.0801149654799
 30
0.0
 10
76.77428498576926
 20
-138.1076669099177
 30
0.0
 10
76.79668637408663
 20
-138.1300682988011
 30
0.0
 10
76.82423831782818
 20
-138.1300682988011
 30
0.0
 10
76.8519666504541
 20
-138.1300682988011
 30
0.0
 10
76.87436803877148
 20
-138.1076669099177
 30
0.0
 10
76.87436803877148
 20
-138.0801149654799
 30
0.0
  0
SPLINE
  5
11A
330
1F
100
AcDbEntity
  8
_U+30EC_U+30A4_U+30E4_U+30FC 1
 62
   179
420
  2234388
370
     9
100
AcDbSpline
210
0.0
220
0.0
230
1.0
 70
    11
 71
     3
 72
    17
 73
    13
 74
     0
 42
0.0000000001
 43
0.0000000001
 12
1.0
 22
0.0
 32
0.0
 13
1.0
 23
0.0
 33
0.0
 40
0.0
 40
0.0
 40
0.0
 40
0.0
 40
1.0
 40
1.0
 40
1.0
 40
2.0
 40
2.0
 40
2.0
 40
3.0
 40
3.0
 40
3.0
 40
4.0
 40
4.0
 40
4.0
 40
4.0
 10
76.87436803877148
 20
-133.0799133000631
 30
0.0
 10
76.87436803877148
 20
-133.052361355626
 30
0.0
 10
76.8519666504541
 20
-133.0299599667426
 30
0.0
 10
76.82423831782818
 20
-133.0299599667426
 30
0.0
 10
76.79668637408663
 20
-133.0299599667426
 30
0.0
 10
76.77428498576926
 20
-133.052361355626
 30
0.0
 10
76.77428498576926
 20
-133.0799133000631
 30
0.0
 10
76.77428498576926
 20
-133.1078180222787
 30
0.0
 10
76.79668637408663
 20
-133.130219411162
 30
0.0
 10
76.82423831782818
 20
-133.130219411162
 30
0.0
 10
76.8519666504541
 20
-133.130219411162
 30
0.0
 10
76.87436803877148
 20
-133.1078180222787
 30
0.0
 10
76.87436803877148
 20
-133.0799133000631
 30
0.0
  0
SPLINE
  5
11B
330
1F
100
AcDbEntity
  8
_U+30EC_U+30A4_U+30E4_U+30FC 1
 62
   179
420
  2234388
370
     9
100
AcDbSpline
210
0.0
220
0.0
230
1.0
 70
    11
 71
     3
 72
    17
 73
    13
 74
     0
 42
0.0000000001
 43
0.0000000001
 12
1.0
 22
0.0
 32
0.0
 13
1.0
 23
0.0
 33
0.0
 40
0.0
 40
0.0
 40
0.0
 40
0.0
 40
1.0
 40
1.0
 40
1.0
 40
2.0
 40
2.0
 40
2.0
 40
3.0
 40
3.0
 40
3.0
 40
4.0
 40
4.0
 40
4.0
 40
4.0
 10
74.87432975646337
 20
-138.0801149654799
 30
0.0
 10
74.87432975646337
 20
-138.0525630210421
 30
0.0
 10
74.85192836814599
 20
-138.0301616321594
 30
0.0
 10
74.82437642440446
 20
-138.0301616321594
 30
0.0
 10
74.79682448066292
 20
-138.0301616321594
 30
0.0
 10
74.77442498130634
 20
-138.0525630210421
 30
0.0
 10
74.77442498130634
 20
-138.0801149654799
 30
0.0
 10
74.77442498130634
 20
-138.1076669099177
 30
0.0
 10
74.79682448066292
 20
-138.1300682988011
 30
0.0
 10
74.82437642440446
 20
-138.1300682988011
 30
0.0
 10
74.85192836814599
 20
-138.1300682988011
 30
0.0
 10
74.87432975646337
 20
-138.1076669099177
 30
0.0
 10
74.87432975646337
 20
-138.0801149654799
 30
0.0
  0
SPLINE
  5
11C
330
1F
100
AcDbEntity
  8
_U+30EC_U+30A4_U+30E4_U+30FC 1
 62
   179
420
  2234388
370
     9
100
AcDbSpline
210
0.0
220
0.0
230
1.0
 70
    11
 71
     3
 72
    17
 73
    13
 74
     0
 42
0.0000000001
 43
0.0000000001
 12
1.0
 22
0.0
 32
0.0
 13
1.0
 23
0.0
 33
0.0
 40
0.0
 40
0.0
 40
0.0
 40
0.0
 40
1.0
 40
1.0
 40
1.0
 40
2.0
 40
2.0
 40
2.0
 40
3.0
 40
3.0
 40
3.0
 40
4.0
 40
4.0
 40
4.0
 40
4.0
 10
74.87432975646337
 20
-126.5800533016882
 30
0.0
 10
74.87432975646337
 20
-126.5524660794729
 30
0.0
 10
74.85192836814599
 20
-126.5300999683674
 30
0.0
 10
74.82437642440446
 20
-126.5300999683674
 30
0.0
 10
74.79682448066292
 20
-126.5300999683674
 30
0.0
 10
74.77442498130634
 20
-126.5524660794729
 30
0.0
 10
74.77442498130634
 20
-126.5800533016882
 30
0.0
 10
74.77442498130634
 20
-126.607605246126
 30
0.0
 10
74.79682448066292
 20
-126.6300066350093
 30
0.0
 10
74.82437642440446
 20
-126.6300066350093
 30
0.0
 10
74.85192836814599
 20
-126.6300066350093
 30
0.0
 10
74.87432975646337
 20
-126.607605246126
 30
0.0
 10
74.87432975646337
 20
-126.5800533016882
 30
0.0
  0
SPLINE
  5
11D
330
1F
100
AcDbEntity
  8
_U+30EC_U+30A4_U+30E4_U+30FC 1
 62
   179
420
  2234388
370
     9
100
AcDbSpline
210
0.0
220
0.0
230
1.0
 70
    11
 71
     3
 72
    17
 73
    13
 74
     0
 42
0.0000000001
 43
0.0000000001
 12
1.0
 22
0.0
 32
0.0
 13
1.0
 23
0.0
 33
0.0
 40
0.0
 40
0.0
 40
0.0
 40
0.0
 40
1.0
 40
1.0
 40
1.0
 40
2.0
 40
2.0
 40
2.0
 40
3.0
 40
3.0
 40
3.0
 40
4.0
 40
4.0
 40
4.0
 40
4.0
 10
78.87444159885646
 20
-124.580156079966
 30
0.0
 10
78.87444159885646
 20
-124.5524277466396
 30
0.0
 10
78.85204021053909
 20
-124.5300263577563
 30
0.0
 10
78.82448826679754
 20
-124.5300263577563
 30
0.0
 10
78.79672465639474
 20
-124.5300263577563
 30
0.0
 10
78.77435854585424
 20
-124.5524277466396
 30
0.0
 10
78.77435854585424
 20
-124.580156079966
 30
0.0
 10
78.77435854585424
 20
-124.6077433021813
 30
0.0
 10
78.79672465639474
 20
-124.6301094132868
 30
0.0
 10
78.82448826679754
 20
-124.6301094132868
 30
0.0
 10
78.85204021053909
 20
-124.6301094132868
 30
0.0
 10
78.87444159885646
 20
-124.6077433021813
 30
0.0
 10
78.87444159885646
 20
-124.580156079966
 30
0.0
  0
SPLINE
  5
11E
330
1F
100
AcDbEntity
  8
_U+30EC_U+30A4_U+30E4_U+30FC 1
 62
   179
420
  2234388
370
     9
100
AcDbSpline
210
0.0
220
0.0
230
1.0
 70
    11
 71
     3
 72
    17
 73
    13
 74
     0
 42
0.0000000001
 43
0.0000000001
 12
1.0
 22
0.0
 32
0.0
 13
1.0
 23
0.0
 33
0.0
 40
0.0
 40
0.0
 40
0.0
 40
0.0
 40
1.0
 40
1.0
 40
1.0
 40
2.0
 40
2.0
 40
2.0
 40
3.0
 40
3.0
 40
3.0
 40
4.0
 40
4.0
 40
4.0
 40
4.0
 10
87.37433971533933
 20
-124.580156079966
 30
0.0
 10
87.37433971533933
 20
-124.5524277466396
 30
0.0
 10
87.35193832702195
 20
-124.5300263577563
 30
0.0
 10
87.32420999439603
 20
-124.5300263577563
 30
0.0
 10
87.29665805065449
 20
-124.5300263577563
 30
0.0
 10
87.27425666233711
 20
-124.5524277466396
 30
0.0
 10
87.27425666233711
 20
-124.580156079966
 30
0.0
 10
87.27425666233711
 20
-124.6077433021813
 30
0.0
 10
87.29665805065449
 20
-124.6301094132868
 30
0.0
 10
87.32420999439603
 20
-124.6301094132868
 30
0.0
 10
87.35193832702195
 20
-124.6301094132868
 30
0.0
 10
87.37433971533933
 20
-124.6077433021813
 30
0.0
 10
87.37433971533933
 20
-124.580156079966
 30
0.0
  0
SPLINE
  5
11F
330
1F
100
AcDbEntity
  8
_U+30EC_U+30A4_U+30E4_U+30FC 1
 62
   179
420
  2234388
370
     9
100
AcDbSpline
210
0.0
220
0.0
230
1.0
 70
    11
 71
     3
 72
    17
 73
    13
 74
     0
 42
0.0000000001
 43
0.0000000001
 12
1.0
 22
0.0
 32
0.0
 13
1.0
 23
0.0
 33
0.0
 40
0.0
 40
0.0
 40
0.0
 40
0.0
 40
1.0
 40
1.0
 40
1.0
 40
2.0
 40
2.0
 40
2.0
 40
3.0
 40
3.0
 40
3.0
 40
4.0
 40
4.0
 40
4.0
 40
4.0
 10
107.3743344828747
 20
-124.580156079966
 30
0.0
 10
107.3743344828747
 20
-124.5524277466396
 30
0.0
 10
107.3519330945574
 20
-124.5300263577563
 30
0.0
 10
107.3243811508158
 20
-124.5300263577563
 30
0.0
 10
107.2967939292974
 20
-124.5300263577563
 30
0.0
 10
107.2744305287366
 20
-124.5524277466396
 30
0.0
 10
107.2744305287366
 20
-124.580156079966
 30
0.0
 10
107.2744305287366
 20
-124.6077433021813
 30
0.0
 10
107.2967939292974
 20
-124.6301094132868
 30
0.0
 10
107.3243811508158
 20
-124.6301094132868
 30
0.0
 10
107.3519330945574
 20
-124.6301094132868
 30
0.0
 10
107.3743344828747
 20
-124.6077433021813
 30
0.0
 10
107.3743344828747
 20
-124.580156079966
 30
0.0
  0
SPLINE
  5
120
330
1F
100
AcDbEntity
  8
_U+30EC_U+30A4_U+30E4_U+30FC 1
 62
   179
420
  2234388
370
     9
100
AcDbSpline
210
0.0
220
0.0
230
1.0
 70
     8
 71
     3
 72
     8
 73
     4
 74
     0
 42
0.0000000001
 43
0.0000000001
 12
1.0
 22
0.0
 32
0.0
 13
1.0
 23
0.0
 33
0.0
 40
0.0
 40
0.0
 40
0.0
 40
0.0
 40
1.0
 40
1.0
 40
1.0
 40
1.0
 10
90.98875962312779
 20
-123.8435913579281
 30
0.0
 10
89.98898742641188
 20
-120.8880544142224
 30
0.0
 10
87.7412285948681
 20
-118.5207744148142
 30
0.0
 10
84.8415011688463
 20
-117.36923719288
 30
0.0
  0
SPLINE
  5
121
330
1F
100
AcDbEntity
  8
_U+30EC_U+30A4_U+30E4_U+30FC 1
  6
AI-Linetype-13
 62
   179
420
  2234388
370
    25
100
AcDbSpline
210
0.0
220
0.0
230
1.0
 70
     8
 71
     3
 72
     8
 73
     4
 74
     0
 42
0.0000000001
 43
0.0000000001
 12
1.0
 22
0.0
 32
0.0
 13
1.0
 23
0.0
 33
0.0
 40
0.0
 40
0.0
 40
0.0
 40
0.0
 40
1.0
 40
1.0
 40
1.0
 40
1.0
 10
85.58995448308501
 20
-134.7301019107618
 30
0.0
 10
85.70432503572273
 20
-135.63649385498
 30
0.0
 10
86.41799446195995
 20
-136.3499869103568
 30
0.0
 10
87.32420999439603
 20
-136.4643574658841
 30
0.0
  0
INSERT
  5
124
330
1F
100
AcDbEntity
  8
_U+30EC_U+30A4_U+30E4_U+30FC 1
100
AcDbBlockReference
  2
block 2
 10
0.0
 20
0.0
 30
0.0
  0
POLYLINE
  5
130
330
1F
100
AcDbEntity
  8
_U+30EC_U+30A4_U+30E4_U+30FC 1
 62
   179
420
  2234388
370
     9
100
AcDb2dPolyline
 66
     1
 10
0.0
 20
0.0
 30
0.0
  0
VERTEX
  5
131
330
130
100
AcDbEntity
  8
_U+30EC_U+30A4_U+30E4_U+30FC 1
 62
   179
420
  2234388
370
     9
100
AcDbVertex
100
AcDb2dVertex
 10
97.82418167096387
 20
-140.0799769094246
 30
0.0
  0
VERTEX
  5
132
330
130
100
AcDbEntity
  8
_U+30EC_U+30A4_U+30E4_U+30FC 1
 62
   179
420
  2234388
370
     9
100
AcDbVertex
100
AcDb2dVertex
 10
78.82448826679754
 20
-140.0799769094246
 30
0.0
  0
SEQEND
  5
133
330
130
100
AcDbEntity
  8
_U+30EC_U+30A4_U+30E4_U+30FC 1
 62
   179
420
  2234388
370
     9
  0
POLYLINE
  5
134
330
1F
100
AcDbEntity
  8
_U+30EC_U+30A4_U+30E4_U+30FC 1
 62
   179
420
  2234388
370
     9
100
AcDb2dPolyline
 66
     1
 10
0.0
 20
0.0
 30
0.0
  0
VERTEX
  5
135
330
134
100
AcDbEntity
  8
_U+30EC_U+30A4_U+30E4_U+30FC 1
 62
   179
420
  2234388
370
     9
100
AcDbVertex
100
AcDb2dVertex
 10
97.82418167096387
 20
-138.3502016320793
 30
0.0
  0
VERTEX
  5
136
330
134
100
AcDbEntity
  8
_U+30EC_U+30A4_U+30E4_U+30FC 1
 62
   179
420
  2234388
370
     9
100
AcDbVertex
100
AcDb2dVertex
 10
97.82418167096387
 20
-140.5802157981883
 30
0.0
  0
SEQEND
  5
137
330
134
100
AcDbEntity
  8
_U+30EC_U+30A4_U+30E4_U+30FC 1
 62
   179
420
  2234388
370
     9
  0
POLYLINE
  5
138
330
1F
100
AcDbEntity
  8
_U+30EC_U+30A4_U+30E4_U+30FC 1
 62
   179
420
  2234388
370
     9
100
AcDb2dPolyline
 66
     1
 10
0.0
 20
0.0
 30
0.0
  0
VERTEX
  5
139
330
138
100
AcDbEntity
  8
_U+30EC_U+30A4_U+30E4_U+30FC 1
 62
   179
420
  2234388
370
     9
100
AcDbVertex
100
AcDb2dVertex
 10
78.82448826679754
 20
-139.3499738540512
 30
0.0
  0
VERTEX
  5
13A
330
138
100
AcDbEntity
  8
_U+30EC_U+30A4_U+30E4_U+30FC 1
 62
   179
420
  2234388
370
     9
100
AcDbVertex
100
AcDb2dVertex
 10
78.82448826679754
 20
-140.5802157981883
 30
0.0
  0
SEQEND
  5
13B
330
138
100
AcDbEntity
  8
_U+30EC_U+30A4_U+30E4_U+30FC 1
 62
   179
420
  2234388
370
     9
  0
INSERT
  5
13D
330
1F
100
AcDbEntity
  8
_U+30EC_U+30A4_U+30E4_U+30FC 1
100
AcDbBlockReference
  2
block 3
 10
0.0
 20
0.0
 30
0.0
  0
POLYLINE
  5
146
330
1F
100
AcDbEntity
  8
_U+30EC_U+30A4_U+30E4_U+30FC 1
 62
   179
420
  2234388
370
     9
100
AcDb2dPolyline
 66
     1
 10
0.0
 20
0.0
 30
0.0
  0
VERTEX
  5
147
330
146
100
AcDbEntity
  8
_U+30EC_U+30A4_U+30E4_U+30FC 1
 62
   179
420
  2234388
370
     9
100
AcDbVertex
100
AcDb2dVertex
 10
87.32420999439603
 20
-124.580156079966
 30
0.0
  0
VERTEX
  5
148
330
146
100
AcDbEntity
  8
_U+30EC_U+30A4_U+30E4_U+30FC 1
 62
   179
420
  2234388
370
     9
100
AcDbVertex
100
AcDb2dVertex
 10
107.3243811508158
 20
-124.580156079966
 30
0.0
  0
SEQEND
  5
149
330
146
100
AcDbEntity
  8
_U+30EC_U+30A4_U+30E4_U+30FC 1
 62
   179
420
  2234388
370
     9
  0
POLYLINE
  5
14A
330
1F
100
AcDbEntity
  8
_U+30EC_U+30A4_U+30E4_U+30FC 1
 62
   179
420
  2234388
370
     9
100
AcDb2dPolyline
 66
     1
 10
0.0
 20
0.0
 30
0.0
  0
VERTEX
  5
14B
330
14A
100
AcDbEntity
  8
_U+30EC_U+30A4_U+30E4_U+30FC 1
 62
   179
420
  2234388
370
     9
100
AcDbVertex
100
AcDb2dVertex
 10
87.32420999439603
 20
-125.3101944131169
 30
0.0
  0
VERTEX
  5
14C
330
14A
100
AcDbEntity
  8
_U+30EC_U+30A4_U+30E4_U+30FC 1
 62
   179
420
  2234388
370
     9
100
AcDbVertex
100
AcDb2dVertex
 10
87.32420999439603
 20
-124.0800935800911
 30
0.0
  0
SEQEND
  5
14D
330
14A
100
AcDbEntity
  8
_U+30EC_U+30A4_U+30E4_U+30FC 1
 62
   179
420
  2234388
370
     9
  0
POLYLINE
  5
14E
330
1F
100
AcDbEntity
  8
_U+30EC_U+30A4_U+30E4_U+30FC 1
 62
   179
420
  2234388
370
     9
100
AcDb2dPolyline
 66
     1
 10
0.0
 20
0.0
 30
0.0
  0
VERTEX
  5
14F
330
14E
100
AcDbEntity
  8
_U+30EC_U+30A4_U+30E4_U+30FC 1
 62
   179
420
  2234388
370
     9
100
AcDbVertex
100
AcDb2dVertex
 10
107.3243811508158
 20
-125.3101944131169
 30
0.0
  0
VERTEX
  5
150
330
14E
100
AcDbEntity
  8
_U+30EC_U+30A4_U+30E4_U+30FC 1
 62
   179
420
  2234388
370
     9
100
AcDbVertex
100
AcDb2dVertex
 10
107.3243811508158
 20
-124.0800935800911
 30
0.0
  0
SEQEND
  5
151
330
14E
100
AcDbEntity
  8
_U+30EC_U+30A4_U+30E4_U+30FC 1
 62
   179
420
  2234388
370
     9
  0
INSERT
  5
153
330
1F
100
AcDbEntity
  8
_U+30EC_U+30A4_U+30E4_U+30FC 1
100
AcDbBlockReference
  2
block 4
 10
0.0
 20
0.0
 30
0.0
  0
POLYLINE
  5
16E
330
1F
100
AcDbEntity
  8
_U+30EC_U+30A4_U+30E4_U+30FC 1
 62
   179
420
  2234388
370
     9
100
AcDb2dPolyline
 66
     1
 10
0.0
 20
0.0
 30
0.0
  0
VERTEX
  5
16F
330
16E
100
AcDbEntity
  8
_U+30EC_U+30A4_U+30E4_U+30FC 1
 62
   179
420
  2234388
370
     9
100
AcDbVertex
100
AcDb2dVertex
 10
87.32420999439603
 20
-124.580156079966
 30
0.0
  0
VERTEX
  5
170
330
16E
100
AcDbEntity
  8
_U+30EC_U+30A4_U+30E4_U+30FC 1
 62
   179
420
  2234388
370
     9
100
AcDbVertex
100
AcDb2dVertex
 10
78.82448826679754
 20
-124.580156079966
 30
0.0
  0
SEQEND
  5
171
330
16E
100
AcDbEntity
  8
_U+30EC_U+30A4_U+30E4_U+30FC 1
 62
   179
420
  2234388
370
     9
  0
POLYLINE
  5
172
330
1F
100
AcDbEntity
  8
_U+30EC_U+30A4_U+30E4_U+30FC 1
 62
   179
420
  2234388
370
     9
100
AcDb2dPolyline
 66
     1
 10
0.0
 20
0.0
 30
0.0
  0
VERTEX
  5
173
330
172
100
AcDbEntity
  8
_U+30EC_U+30A4_U+30E4_U+30FC 1
 62
   179
420
  2234388
370
     9
100
AcDbVertex
100
AcDb2dVertex
 10
78.82448826679754
 20
-131.8100544114919
 30
0.0
  0
VERTEX
  5
174
330
172
100
AcDbEntity
  8
_U+30EC_U+30A4_U+30E4_U+30FC 1
 62
   179
420
  2234388
370
     9
100
AcDbVertex
100
AcDb2dVertex
 10
78.82448826679754
 20
-124.0800935800911
 30
0.0
  0
SEQEND
  5
175
330
172
100
AcDbEntity
  8
_U+30EC_U+30A4_U+30E4_U+30FC 1
 62
   179
420
  2234388
370
     9
  0
INSERT
  5
177
330
1F
100
AcDbEntity
  8
_U+30EC_U+30A4_U+30E4_U+30FC 1
100
AcDbBlockReference
  2
block 5
 10
0.0
 20
0.0
 30
0.0
  0
POLYLINE
  5
17E
330
1F
100
AcDbEntity
  8
_U+30EC_U+30A4_U+30E4_U+30FC 1
 62
   179
420
  2234388
370
     9
100
AcDb2dPolyline
 66
     1
 10
0.0
 20
0.0
 30
0.0
  0
VERTEX
  5
17F
330
17E
100
AcDbEntity
  8
_U+30EC_U+30A4_U+30E4_U+30FC 1
 62
   179
420
  2234388
370
     9
100
AcDbVertex
100
AcDb2dVertex
 10
76.82423831782818
 20
-133.0799133000631
 30
0.0
  0
VERTEX
  5
180
330
17E
100
AcDbEntity
  8
_U+30EC_U+30A4_U+30E4_U+30FC 1
 62
   179
420
  2234388
370
     9
100
AcDbVertex
100
AcDb2dVertex
 10
76.82423831782818
 20
-138.0801149654799
 30
0.0
  0
SEQEND
  5
181
330
17E
100
AcDbEntity
  8
_U+30EC_U+30A4_U+30E4_U+30FC 1
 62
   179
420
  2234388
370
     9
  0
POLYLINE
  5
182
330
1F
100
AcDbEntity
  8
_U+30EC_U+30A4_U+30E4_U+30FC 1
 62
   179
420
  2234388
370
     9
100
AcDb2dPolyline
 66
     1
 10
0.0
 20
0.0
 30
0.0
  0
VERTEX
  5
183
330
182
100
AcDbEntity
  8
_U+30EC_U+30A4_U+30E4_U+30FC 1
 62
   179
420
  2234388
370
     9
100
AcDbVertex
100
AcDb2dVertex
 10
77.55427663253668
 20
-133.0799133000631
 30
0.0
  0
VERTEX
  5
184
330
182
100
AcDbEntity
  8
_U+30EC_U+30A4_U+30E4_U+30FC 1
 62
   179
420
  2234388
370
     9
100
AcDbVertex
100
AcDb2dVertex
 10
76.32435221947021
 20
-133.0799133000631
 30
0.0
  0
SEQEND
  5
185
330
182
100
AcDbEntity
  8
_U+30EC_U+30A4_U+30E4_U+30FC 1
 62
   179
420
  2234388
370
     9
  0
POLYLINE
  5
186
330
1F
100
AcDbEntity
  8
_U+30EC_U+30A4_U+30E4_U+30FC 1
 62
   179
420
  2234388
370
     9
100
AcDb2dPolyline
 66
     1
 10
0.0
 20
0.0
 30
0.0
  0
VERTEX
  5
187
330
186
100
AcDbEntity
  8
_U+30EC_U+30A4_U+30E4_U+30FC 1
 62
   179
420
  2234388
370
     9
100
AcDbVertex
100
AcDb2dVertex
 10
77.55427663253668
 20
-138.0801149654799
 30
0.0
  0
VERTEX
  5
188
330
186
100
AcDbEntity
  8
_U+30EC_U+30A4_U+30E4_U+30FC 1
 62
   179
420
  2234388
370
     9
100
AcDbVertex
100
AcDb2dVertex
 10
76.32435221947021
 20
-138.0801149654799
 30
0.0
  0
SEQEND
  5
189
330
186
100
AcDbEntity
  8
_U+30EC_U+30A4_U+30E4_U+30FC 1
 62
   179
420
  2234388
370
     9
  0
INSERT
  5
18B
330
1F
100
AcDbEntity
  8
_U+30EC_U+30A4_U+30E4_U+30FC 1
100
AcDbBlockReference
  2
block 6
 10
0.0
 20
0.0
 30
0.0
  0
POLYLINE
  5
193
330
1F
100
AcDbEntity
  8
_U+30EC_U+30A4_U+30E4_U+30FC 1
 62
   179
420
  2234388
370
     9
100
AcDb2dPolyline
 66
     1
 10
0.0
 20
0.0
 30
0.0
  0
VERTEX
  5
194
330
193
100
AcDbEntity
  8
_U+30EC_U+30A4_U+30E4_U+30FC 1
 62
   179
420
  2234388
370
     9
100
AcDbVertex
100
AcDb2dVertex
 10
74.82437642440446
 20
-138.0801149654799
 30
0.0
  0
VERTEX
  5
195
330
193
100
AcDbEntity
  8
_U+30EC_U+30A4_U+30E4_U+30FC 1
 62
   179
420
  2234388
370
     9
100
AcDbVertex
100
AcDb2dVertex
 10
74.82437642440446
 20
-126.5800533016882
 30
0.0
  0
SEQEND
  5
196
330
193
100
AcDbEntity
  8
_U+30EC_U+30A4_U+30E4_U+30FC 1
 62
   179
420
  2234388
370
     9
  0
POLYLINE
  5
197
330
1F
100
AcDbEntity
  8
_U+30EC_U+30A4_U+30E4_U+30FC 1
 62
   179
420
  2234388
370
     9
100
AcDb2dPolyline
 66
     1
 10
0.0
 20
0.0
 30
0.0
  0
VERTEX
  5
198
330
197
100
AcDbEntity
  8
_U+30EC_U+30A4_U+30E4_U+30FC 1
 62
   179
420
  2234388
370
     9
100
AcDbVertex
100
AcDb2dVertex
 10
77.55427663253668
 20
-138.0801149654799
 30
0.0
  0
VERTEX
  5
199
330
197
100
AcDbEntity
  8
_U+30EC_U+30A4_U+30E4_U+30FC 1
 62
   179
420
  2234388
370
     9
100
AcDbVertex
100
AcDb2dVertex
 10
74.32431393716212
 20
-138.0801149654799
 30
0.0
  0
SEQEND
  5
19A
330
197
100
AcDbEntity
  8
_U+30EC_U+30A4_U+30E4_U+30FC 1
 62
   179
420
  2234388
370
     9
  0
POLYLINE
  5
19B
330
1F
100
AcDbEntity
  8
_U+30EC_U+30A4_U+30E4_U+30FC 1
 62
   179
420
  2234388
370
     9
100
AcDb2dPolyline
 66
     1
 10
0.0
 20
0.0
 30
0.0
  0
VERTEX
  5
19C
330
19B
100
AcDbEntity
  8
_U+30EC_U+30A4_U+30E4_U+30FC 1
 62
   179
420
  2234388
370
     9
100
AcDbVertex
100
AcDb2dVertex
 10
86.05435113790394
 20
-126.5800533016882
 30
0.0
  0
VERTEX
  5
19D
330
19B
100
AcDbEntity
  8
_U+30EC_U+30A4_U+30E4_U+30FC 1
 62
   179
420
  2234388
370
     9
100
AcDbVertex
100
AcDb2dVertex
 10
74.32431393716212
 20
-126.5800533016882
 30
0.0
  0
SEQEND
  5
19E
330
19B
100
AcDbEntity
  8
_U+30EC_U+30A4_U+30E4_U+30FC 1
 62
   179
420
  2234388
370
     9
  0
INSERT
  5
1A0
330
1F
100
AcDbEntity
  8
_U+30EC_U+30A4_U+30E4_U+30FC 1
100
AcDbBlockReference
  2
block 7
 10
0.0
 20
0.0
 30
0.0
  0
POLYLINE
  5
1A7
330
1F
100
AcDbEntity
  8
_U+30EC_U+30A4_U+30E4_U+30FC 1
 62
   179
420
  2234388
370
     9
100
AcDb2dPolyline
 66
     1
 10
0.0
 20
0.0
 30
0.0
  0
VERTEX
  5
1A8
330
1A7
100
AcDbEntity
  8
_U+30EC_U+30A4_U+30E4_U+30FC 1
 62
   179
420
  2234388
370
     9
100
AcDbVertex
100
AcDb2dVertex
 10
99.82439634215636
 20
-134.5798891330219
 30
0.0
  0
VERTEX
  5
1A9
330
1A7
100
AcDbEntity
  8
_U+30EC_U+30A4_U+30E4_U+30FC 1
 62
   179
420
  2234388
370
     9
100
AcDbVertex
100
AcDb2dVertex
 10
99.82439634215636
 20
-137.0799899657303
 30
0.0
  0
SEQEND
  5
1AA
330
1A7
100
AcDbEntity
  8
_U+30EC_U+30A4_U+30E4_U+30FC 1
 62
   179
420
  2234388
370
     9
  0
POLYLINE
  5
1AB
330
1F
100
AcDbEntity
  8
_U+30EC_U+30A4_U+30E4_U+30FC 1
 62
   179
420
  2234388
370
     9
100
AcDb2dPolyline
 66
     1
 10
0.0
 20
0.0
 30
0.0
  0
VERTEX
  5
1AC
330
1AB
100
AcDbEntity
  8
_U+30EC_U+30A4_U+30E4_U+30FC 1
 62
   179
420
  2234388
370
     9
100
AcDbVertex
100
AcDb2dVertex
 10
99.09439330522474
 20
-134.5798891330219
 30
0.0
  0
VERTEX
  5
1AD
330
1AB
100
AcDbEntity
  8
_U+30EC_U+30A4_U+30E4_U+30FC 1
 62
   179
420
  2234388
370
     9
100
AcDbVertex
100
AcDb2dVertex
 10
100.3242824405143
 20
-134.5798891330219
 30
0.0
  0
SEQEND
  5
1AE
330
1AB
100
AcDbEntity
  8
_U+30EC_U+30A4_U+30E4_U+30FC 1
 62
   179
420
  2234388
370
     9
  0
POLYLINE
  5
1AF
330
1F
100
AcDbEntity
  8
_U+30EC_U+30A4_U+30E4_U+30FC 1
 62
   179
420
  2234388
370
     9
100
AcDb2dPolyline
 66
     1
 10
0.0
 20
0.0
 30
0.0
  0
VERTEX
  5
1B0
330
1AF
100
AcDbEntity
  8
_U+30EC_U+30A4_U+30E4_U+30FC 1
 62
   179
420
  2234388
370
     9
100
AcDbVertex
100
AcDb2dVertex
 10
99.09439330522474
 20
-137.0799899657303
 30
0.0
  0
VERTEX
  5
1B1
330
1AF
100
AcDbEntity
  8
_U+30EC_U+30A4_U+30E4_U+30FC 1
 62
   179
420
  2234388
370
     9
100
AcDbVertex
100
AcDb2dVertex
 10
100.3242824405143
 20
-137.0799899657303
 30
0.0
  0
SEQEND
  5
1B2
330
1AF
100
AcDbEntity
  8
_U+30EC_U+30A4_U+30E4_U+30FC 1
 62
   179
420
  2234388
370
     9
  0
INSERT
  5
1B4
330
1F
100
AcDbEntity
  8
_U+30EC_U+30A4_U+30E4_U+30FC 1
100
AcDbBlockReference
  2
block 8
 10
0.0
 20
0.0
 30
0.0
  0
POLYLINE
  5
1B9
330
1F
100
AcDbEntity
  8
_U+30EC_U+30A4_U+30E4_U+30FC 1
 62
   179
420
  2234388
370
     9
100
AcDb2dPolyline
 66
     1
 10
0.0
 20
0.0
 30
0.0
  0
VERTEX
  5
1BA
330
1B9
100
AcDbEntity
  8
_U+30EC_U+30A4_U+30E4_U+30FC 1
 62
   179
420
  2234388
370
     9
100
AcDbVertex
100
AcDb2dVertex
 10
108.5942400073079
 20
-127.0801158015633
 30
0.0
  0
VERTEX
  5
1BB
330
1B9
100
AcDbEntity
  8
_U+30EC_U+30A4_U+30E4_U+30FC 1
 62
   179
420
  2234388
370
     9
100
AcDbVertex
100
AcDb2dVertex
 10
109.8244819203663
 20
-127.0801158015633
 30
0.0
  0
SEQEND
  5
1BC
330
1B9
100
AcDbEntity
  8
_U+30EC_U+30A4_U+30E4_U+30FC 1
 62
   179
420
  2234388
370
     9
  0
POLYLINE
  5
1BD
330
1F
100
AcDbEntity
  8
_U+30EC_U+30A4_U+30E4_U+30FC 1
 62
   179
420
  2234388
370
     9
100
AcDb2dPolyline
 66
     1
 10
0.0
 20
0.0
 30
0.0
  0
VERTEX
  5
1BE
330
1BD
100
AcDbEntity
  8
_U+30EC_U+30A4_U+30E4_U+30FC 1
 62
   179
420
  2234388
370
     9
100
AcDbVertex
100
AcDb2dVertex
 10
94.09415648834697
 20
-132.0801410780912
 30
0.0
  0
VERTEX
  5
1BF
330
1BD
100
AcDbEntity
  8
_U+30EC_U+30A4_U+30E4_U+30FC 1
 62
   179
420
  2234388
370
     9
100
AcDbVertex
100
AcDb2dVertex
 10
109.8244819203663
 20
-132.0801410780912
 30
0.0
  0
SEQEND
  5
1C0
330
1BD
100
AcDbEntity
  8
_U+30EC_U+30A4_U+30E4_U+30FC 1
 62
   179
420
  2234388
370
     9
  0
INSERT
  5
1C2
330
1F
100
AcDbEntity
  8
_U+30EC_U+30A4_U+30E4_U+30FC 1
100
AcDbBlockReference
  2
block 9
 10
0.0
 20
0.0
 30
0.0
  0
SPLINE
  5
1CA
330
1F
100
AcDbEntity
  8
_U+30EC_U+30A4_U+30E4_U+30FC 1
 62
     7
420
 16711422
370
    35
100
AcDbSpline
210
0.0
220
0.0
230
1.0
 70
    11
 71
     3
 72
    17
 73
    13
 74
     0
 42
0.0000000001
 43
0.0000000001
 12
1.0
 22
0.0
 32
0.0
 13
1.0
 23
0.0
 33
0.0
 40
0.0
 40
0.0
 40
0.0
 40
0.0
 40
1.0
 40
1.0
 40
1.0
 40
2.0
 40
2.0
 40
2.0
 40
3.0
 40
3.0
 40
3.0
 40
4.0
 40
4.0
 40
4.0
 40
4.0
 10
86.7833333116375
 20
-133.5322449666172
 30
0.0
 10
86.7833333116375
 20
-133.5322449666172
 30
0.0
 10
87.18020831153828
 20
-134.1055088553628
 30
0.0
 10
87.18020831153828
 20
-134.1055088553628
 30
0.0
 10
87.18020831153828
 20
-134.1055088553628
 30
0.0
 10
87.66527775586147
 20
-133.708633855462
 30
0.0
 10
88.15034720018464
 20
-134.2378005219964
 30
0.0
 10
88.15034720018464
 20
-134.2378005219964
 30
0.0
 10
88.50312497787422
 20
-133.708633855462
 30
0.0
 10
88.50312497787422
 20
-133.708633855462
 30
0.0
 10
88.50312497787422
 20
-133.708633855462
 30
0.0
 10
87.88576386691746
 20
-132.9589810778717
 30
0.0
 10
86.7833333116375
 20
-133.5322449666172
 30
0.0
  0
HATCH
  5
1CB
330
1F
100
AcDbEntity
  8
_U+30EC_U+30A4_U+30E4_U+30FC 1
 62
     7
420
 16711422
100
AcDbHatch
 10
0.0
 20
0.0
 30
0.0
210
0.0
220
0.0
230
1.0
  2
SOLID
 70
     1
 71
     0
 91
        1
 92
        1
 93
        1
 72
     4
 94
        3
 73
     0
 74
     1
 95
       17
 96
       13
 40
0.0
 40
0.0
 40
0.0
 40
0.0
 40
1.0
 40
1.0
 40
1.0
 40
2.0
 40
2.0
 40
2.0
 40
3.0
 40
3.0
 40
3.0
 40
4.0
 40
4.0
 40
4.0
 40
4.0
 10
86.7833333116375
 20
-133.5322449666172
 10
86.7833333116375
 20
-133.5322449666172
 10
87.18020831153828
 20
-134.1055088553628
 10
87.18020831153828
 20
-134.1055088553628
 10
87.18020831153828
 20
-134.1055088553628
 10
87.66527775586147
 20
-133.708633855462
 10
88.15034720018464
 20
-134.2378005219964
 10
88.15034720018464
 20
-134.2378005219964
 10
88.50312497787422
 20
-133.708633855462
 10
88.50312497787422
 20
-133.708633855462
 10
88.50312497787422
 20
-133.708633855462
 10
87.88576386691746
 20
-132.9589810778717
 10
86.7833333116375
 20
-133.5322449666172
 97
        0
 97
        0
 75
     2
 76
     1
 98
        0
  0
POLYLINE
  5
1CC
330
1F
100
AcDbEntity
  8
_U+30EC_U+30A4_U+30E4_U+30FC 1
 62
   179
420
  2234388
370
    25
100
AcDb2dPolyline
 66
     1
 10
0.0
 20
0.0
 30
0.0
  0
VERTEX
  5
1CD
330
1CC
100
AcDbEntity
  8
_U+30EC_U+30A4_U+30E4_U+30FC 1
 62
   179
420
  2234388
370
    25
100
AcDbVertex
100
AcDb2dVertex
 10
86.56284720058152
 20
-133.488147744406
 30
0.0
  0
VERTEX
  5
1CE
330
1CC
100
AcDbEntity
  8
_U+30EC_U+30A4_U+30E4_U+30FC 1
 62
   179
420
  2234388
370
    25
100
AcDbVertex
100
AcDb2dVertex
 10
86.8274305338487
 20
-133.7968282998844
 30
0.0
  0
SEQEND
  5
1CF
330
1CC
100
AcDbEntity
  8
_U+30EC_U+30A4_U+30E4_U+30FC 1
 62
   179
420
  2234388
370
    25
  0
POLYLINE
  5
1D0
330
1F
100
AcDbEntity
  8
_U+30EC_U+30A4_U+30E4_U+30FC 1
 62
   179
420
  2234388
370
    25
100
AcDb2dPolyline
 66
     1
 10
0.0
 20
0.0
 30
0.0
  0
VERTEX
  5
1D1
330
1D0
100
AcDbEntity
  8
_U+30EC_U+30A4_U+30E4_U+30FC 1
 62
   179
420
  2234388
370
    25
100
AcDbVertex
100
AcDb2dVertex
 10
88.45902775566303
 20
-134.0173144109404
 30
0.0
  0
VERTEX
  5
1D2
330
1D0
100
AcDbEntity
  8
_U+30EC_U+30A4_U+30E4_U+30FC 1
 62
   179
420
  2234388
370
    25
100
AcDbVertex
100
AcDb2dVertex
 10
88.8559027555638
 20
-133.6645366332508
 30
0.0
  0
SEQEND
  5
1D3
330
1D0
100
AcDbEntity
  8
_U+30EC_U+30A4_U+30E4_U+30FC 1
 62
   179
420
  2234388
370
    25
  0
ENDSEC
  0
SECTION
  2
OBJECTS
  0
DICTIONARY
  5
C
330
0
100
AcDbDictionary
281
     1
  3
ACAD_GROUP
350
D
  3
ACAD_LAYOUT
350
1A
  3
ACAD_MATERIAL
350
3B
  3
ACAD_MLEADERSTYLE
350
1D5
  3
ACAD_MLINESTYLE
350
17
  3
ACAD_PLOTSETTINGS
350
19
  3
ACAD_PLOTSTYLENAME
350
E
  3
ACAD_TABLESTYLE
350
1D4
  3
ACAD_VISUALSTYLE
350
2A
  0
SUN
  5
3F
330
29
100
AcDbSun
 90
        1
290
     0
 63
     7
421
 16777215
 40
1.0
291
     1
 91
  2455826
 92
 54000000
292
     0
 70
     2
 71
   256
280
     1
  0
DICTIONARY
  5
D
102
{ACAD_REACTORS
330
C
102
}
330
C
100
AcDbDictionary
281
     1
  0
DICTIONARY
  5
1A
102
{ACAD_REACTORS
330
C
102
}
330
C
100
AcDbDictionary
281
     1
  3
Layout1
350
1E
  3
Layout2
350
26
  3
Model
350
22
  0
DICTIONARY
  5
3B
102
{ACAD_REACTORS
330
C
102
}
330
C
100
AcDbDictionary
281
     1
  3
ByBlock
350
3D
  3
ByLayer
350
3C
  3
Global
350
3E
  0
DICTIONARY
  5
1D5
102
{ACAD_REACTORS
330
C
102
}
330
C
100
AcDbDictionary
281
     1
  0
DICTIONARY
  5
17
102
{ACAD_REACTORS
330
C
102
}
330
C
100
AcDbDictionary
281
     1
  3
Standard
350
18
  0
DICTIONARY
  5
19
102
{ACAD_REACTORS
330
C
102
}
330
C
100
AcDbDictionary
281
     1
  0
ACDBDICTIONARYWDFLT
  5
E
102
{ACAD_REACTORS
330
C
102
}
330
C
100
AcDbDictionary
281
     1
  3
Normal
350
F
100
AcDbDictionaryWithDefault
340
F
  0
DICTIONARY
  5
1D4
102
{ACAD_REACTORS
330
C
102
}
330
C
100
AcDbDictionary
281
     1
  0
DICTIONARY
  5
2A
102
{ACAD_REACTORS
330
C
102
}
330
C
100
AcDbDictionary
281
     1
  3
2dWireframe
350
2F
  3
3D Hidden
350
31
  3
3dWireframe
350
30
  3
Basic
350
32
  3
Brighten
350
36
  3
ColorChange
350
3A
  3
Conceptual
350
34
  3
Dim
350
35
  3
Facepattern
350
39
  3
Flat
350
2B
  3
FlatWithEdges
350
2C
  3
Gouraud
350
2D
  3
GouraudWithEdges
350
2E
  3
Linepattern
350
38
  3
Realistic
350
33
  3
Thicken
350
37
  0
LAYOUT
  5
1E
102
{ACAD_REACTORS
330
1A
102
}
330
1A
100
AcDbPlotSettings
  1

  2
none_device
  4

  6

 40
0.0
 41
0.0
 42
0.0
 43
0.0
 44
0.0
 45
0.0
 46
0.0
 47
0.0
 48
0.0
 49
0.0
140
0.0
141
0.0
142
1.0
143
1.0
 70
   688
 72
     0
 73
     0
 74
     5
  7

 75
    16
 76
     0
 77
     2
 78
   300
147
1.0
148
0.0
149
0.0
100
AcDbLayout
  1
Layout1
 70
     1
 71
     1
 10
0.0
 20
0.0
 11
12.0
 21
9.0
 12
0.0
 22
0.0
 32
0.0
 14
1.000000000000000E+20
 24
1.000000000000000E+20
 34
1.000000000000000E+20
 15
-1.000000000000000E+20
 25
-1.000000000000000E+20
 35
-1.000000000000000E+20
146
0.0
 13
0.0
 23
0.0
 33
0.0
 16
1.0
 26
0.0
 36
0.0
 17
0.0
 27
1.0
 37
0.0
 76
     0
330
1B
  0
LAYOUT
  5
26
102
{ACAD_REACTORS
330
1A
102
}
330
1A
100
AcDbPlotSettings
  1

  2
none_device
  4

  6

 40
0.0
 41
0.0
 42
0.0
 43
0.0
 44
0.0
 45
0.0
 46
0.0
 47
0.0
 48
0.0
 49
0.0
140
0.0
141
0.0
142
1.0
143
1.0
 70
   688
 72
     0
 73
     0
 74
     5
  7

 75
    16
 76
     0
 77
     2
 78
   300
147
1.0
148
0.0
149
0.0
100
AcDbLayout
  1
Layout2
 70
     1
 71
     2
 10
0.0
 20
0.0
 11
0.0
 21
0.0
 12
0.0
 22
0.0
 32
0.0
 14
0.0
 24
0.0
 34
0.0
 15
0.0
 25
0.0
 35
0.0
146
0.0
 13
0.0
 23
0.0
 33
0.0
 16
1.0
 26
0.0
 36
0.0
 17
0.0
 27
1.0
 37
0.0
 76
     0
330
23
  0
LAYOUT
  5
22
102
{ACAD_REACTORS
330
1A
102
}
330
1A
100
AcDbPlotSettings
  1

  2
none_device
  4

  6

 40
0.0
 41
0.0
 42
0.0
 43
0.0
 44
0.0
 45
0.0
 46
0.0
 47
0.0
 48
0.0
 49
0.0
140
0.0
141
0.0
142
1.0
143
1.0
 70
  1712
 72
     0
 73
     0
 74
     0
  7

 75
     0
 76
     0
 77
     2
 78
   300
147
1.0
148
0.0
149
0.0
100
AcDbLayout
  1
Model
 70
     1
 71
     0
 10
0.0
 20
0.0
 11
12.0
 21
9.0
 12
0.0
 22
0.0
 32
0.0
 14
1.000000000000000E+20
 24
1.000000000000000E+20
 34
1.000000000000000E+20
 15
-1.000000000000000E+20
 25
-1.000000000000000E+20
 35
-1.000000000000000E+20
146
0.0
 13
0.0
 23
0.0
 33
0.0
 16
1.0
 26
0.0
 36
0.0
 17
0.0
 27
1.0
 37
0.0
 76
     0
330
1F
331
29
  0
MATERIAL
  5
3D
102
{ACAD_REACTORS
330
3B
102
}
330
3B
100
AcDbMaterial
  1
ByBlock
 72
     1
 94
      127
  0
MATERIAL
  5
3C
102
{ACAD_REACTORS
330
3B
102
}
330
3B
100
AcDbMaterial
  1
ByLayer
 72
     1
 94
      127
  0
MATERIAL
  5
3E
102
{ACAD_REACTORS
330
3B
102
}
330
3B
100
AcDbMaterial
  1
Global
 72
     1
 94
      127
  0
MLINESTYLE
  5
18
102
{ACAD_REACTORS
330
17
102
}
330
17
100
AcDbMlineStyle
  2
Standard
 70
     0
  3

 62
   256
 51
90.0
 52
90.0
 71
     2
 49
0.5
 62
   256
  6
BYLAYER
 49
-0.5
 62
   256
  6
BYLAYER
  0
ACDBPLACEHOLDER
  5
F
102
{ACAD_REACTORS
330
E
102
}
330
E
  0
VISUALSTYLE
  5
2F
102
{ACAD_REACTORS
330
2A
102
}
330
2A
100
AcDbVisualStyle
  2
2dWireframe
 70
     4
177
     2
291
     0
 71
     0
176
     1
 72
     2
176
     1
 73
     0
176
     1
 90
        0
176
     1
 40
-0.6
176
     1
 41
-30.0
176
     1
 62
     5
 63
     7
421
 16777215
176
     1
 74
     1
176
     1
 91
        4
176
     1
 64
     7
176
     1
 65
   257
176
     1
 75
     1
176
     1
175
     1
176
     1
 42
1.0
176
     1
 92
        0
176
     1
 66
   257
176
     1
 43
1.0
176
     1
 76
     1
176
     1
 77
     6
176
     1
 78
     2
176
     1
 67
     7
176
     1
 79
     5
176
     1
170
     0
176
     1
171
     0
176
     1
290
     0
176
     1
 93
        1
176
     1
 44
0.0
176
     1
173
     0
176
     1
  0
VISUALSTYLE
  5
31
102
{ACAD_REACTORS
330
2A
102
}
330
2A
100
AcDbVisualStyle
  2
3D Hidden
 70
     6
177
     2
291
     0
 71
     1
176
     1
 72
     2
176
     1
 73
     2
176
     1
 90
        0
176
     1
 40
-0.6
176
     1
 41
-30.0
176
     1
 62
     5
 63
     7
421
 16777215
176
     1
 74
     2
176
     1
 91
        2
176
     1
 64
     7
176
     1
 65
   257
176
     1
 75
     2
176
     1
175
     1
176
     1
 42
40.0
176
     1
 92
        0
176
     1
 66
   257
176
     1
 43
1.0
176
     1
 76
     1
176
     1
 77
     6
176
     1
 78
     2
176
     1
 67
     7
176
     1
 79
     3
176
     1
170
     0
176
     1
171
     0
176
     1
290
     0
176
     1
 93
        1
176
     1
 44
0.0
176
     1
173
     0
176
     1
  0
VISUALSTYLE
  5
30
102
{ACAD_REACTORS
330
2A
102
}
330
2A
100
AcDbVisualStyle
  2
3dWireframe
 70
     5
177
     2
291
     0
 71
     0
176
     1
 72
     2
176
     1
 73
     0
176
     1
 90
        0
176
     1
 40
-0.6
176
     1
 41
-30.0
176
     1
 62
     5
 63
     7
421
 16777215
176
     1
 74
     1
176
     1
 91
        4
176
     1
 64
     7
176
     1
 65
   257
176
     1
 75
     1
176
     1
175
     1
176
     1
 42
1.0
176
     1
 92
        0
176
     1
 66
   257
176
     1
 43
1.0
176
     1
 76
     1
176
     1
 77
     6
176
     1
 78
     2
176
     1
 67
     7
176
     1
 79
     5
176
     1
170
     0
176
     1
171
     0
176
     1
290
     0
176
     1
 93
        1
176
     1
 44
0.0
176
     1
173
     0
176
     1
  0
VISUALSTYLE
  5
32
102
{ACAD_REACTORS
330
2A
102
}
330
2A
100
AcDbVisualStyle
  2
Basic
 70
     7
177
     2
291
     1
 71
     1
176
     1
 72
     0
176
     1
 73
     1
176
     1
 90
        0
176
     1
 40
-0.6
176
     1
 41
-30.0
176
     1
 62
     5
 63
     7
421
 16777215
176
     1
 74
     0
176
     1
 91
        4
176
     1
 64
     7
176
     1
 65
   257
176
     1
 75
     1
176
     1
175
     1
176
     1
 42
1.0
176
     1
 92
        8
176
     1
 66
     7
176
     1
 43
1.0
176
     1
 76
     1
176
     1
 77
     6
176
     1
 78
     2
176
     1
 67
     7
176
     1
 79
     5
176
     1
170
     0
176
     1
171
     0
176
     1
290
     0
176
     1
 93
        1
176
     1
 44
0.0
176
     1
173
     0
176
     1
  0
VISUALSTYLE
  5
36
102
{ACAD_REACTORS
330
2A
102
}
330
2A
100
AcDbVisualStyle
  2
Brighten
 70
    12
177
     2
291
     1
 71
     2
176
     1
 72
     2
176
     1
 73
     0
176
     1
 90
        0
176
     1
 40
-0.6
176
     1
 41
-30.0
176
     1
 62
     5
 63
     7
421
 16777215
176
     1
 74
     1
176
     1
 91
        4
176
     1
 64
     7
176
     1
 65
   257
176
     1
 75
     1
176
     1
175
     1
176
     1
 42
1.0
176
     1
 92
        8
176
     1
 66
     7
176
     1
 43
1.0
176
     1
 76
     1
176
     1
 77
     6
176
     1
 78
     2
176
     1
 67
     7
176
     1
 79
     5
176
     1
170
     0
176
     1
171
     0
176
     1
290
     0
176
     1
 93
        1
176
     1
 44
50.0
176
     1
173
     0
176
     1
  0
VISUALSTYLE
  5
3A
102
{ACAD_REACTORS
330
2A
102
}
330
2A
100
AcDbVisualStyle
  2
ColorChange
 70
    16
177
     2
291
     1
 71
     2
176
     1
 72
     2
176
     1
 73
     3
176
     1
 90
        0
176
     1
 40
-0.6
176
     1
 41
-30.0
176
     1
 62
     5
 63
     8
421
  8421504
176
     1
 74
     1
176
     1
 91
        4
176
     1
 64
     7
176
     1
 65
   257
176
     1
 75
     1
176
     1
175
     1
176
     1
 42
1.0
176
     1
 92
        8
176
     1
 66
     8
424
  8421504
176
     1
 43
1.0
176
     1
 76
     1
176
     1
 77
     6
176
     1
 78
     2
176
     1
 67
     7
176
     1
 79
     5
176
     1
170
     0
176
     1
171
     0
176
     1
290
     0
176
     1
 93
        1
176
     1
 44
0.0
176
     1
173
     0
176
     1
  0
VISUALSTYLE
  5
34
102
{ACAD_REACTORS
330
2A
102
}
330
2A
100
AcDbVisualStyle
  2
Conceptual
 70
     9
177
     2
291
     0
 71
     3
176
     1
 72
     2
176
     1
 73
     0
176
     1
 90
        0
176
     1
 40
-0.6
176
     1
 41
-30.0
176
     1
 62
     5
 63
     7
421
 16777215
176
     1
 74
     2
176
     1
 91
        2
176
     1
 64
     7
176
     1
 65
   257
176
     1
 75
     1
176
     1
175
     1
176
     1
 42
40.0
176
     1
 92
        8
176
     1
 66
     7
176
     1
 43
1.0
176
     1
 76
     1
176
     1
 77
     6
176
     1
 78
     2
176
     1
 67
     7
176
     1
 79
     3
176
     1
170
     0
176
     1
171
     0
176
     1
290
     0
176
     1
 93
        1
176
     1
 44
0.0
176
     1
173
     0
176
     1
  0
VISUALSTYLE
  5
35
102
{ACAD_REACTORS
330
2A
102
}
330
2A
100
AcDbVisualStyle
  2
Dim
 70
    11
177
     2
291
     1
 71
     2
176
     1
 72
     2
176
     1
 73
     0
176
     1
 90
        0
176
     1
 40
-0.6
176
     1
 41
-30.0
176
     1
 62
     5
 63
     7
421
 16777215
176
     1
 74
     1
176
     1
 91
        4
176
     1
 64
     7
176
     1
 65
   257
176
     1
 75
     1
176
     1
175
     1
176
     1
 42
1.0
176
     1
 92
        8
176
     1
 66
     7
176
     1
 43
1.0
176
     1
 76
     1
176
     1
 77
     6
176
     1
 78
     2
176
     1
 67
     7
176
     1
 79
     5
176
     1
170
     0
176
     1
171
     0
176
     1
290
     0
176
     1
 93
        1
176
     1
 44
-50.0
176
     1
173
     0
176
     1
  0
VISUALSTYLE
  5
39
102
{ACAD_REACTORS
330
2A
102
}
330
2A
100
AcDbVisualStyle
  2
Facepattern
 70
    15
177
     2
291
     1
 71
     2
176
     1
 72
     2
176
     1
 73
     0
176
     1
 90
        0
176
     1
 40
-0.6
176
     1
 41
-30.0
176
     1
 62
     5
 63
     7
421
 16777215
176
     1
 74
     1
176
     1
 91
        4
176
     1
 64
     7
176
     1
 65
   257
176
     1
 75
     1
176
     1
175
     1
176
     1
 42
1.0
176
     1
 92
        8
176
     1
 66
     7
176
     1
 43
1.0
176
     1
 76
     1
176
     1
 77
     6
176
     1
 78
     2
176
     1
 67
     7
176
     1
 79
     5
176
     1
170
     0
176
     1
171
     0
176
     1
290
     0
176
     1
 93
        1
176
     1
 44
0.0
176
     1
173
     0
176
     1
  0
VISUALSTYLE
  5
2B
102
{ACAD_REACTORS
330
2A
102
}
330
2A
100
AcDbVisualStyle
  2
Flat
 70
     0
177
     2
291
     1
 71
     2
176
     1
 72
     1
176
     1
 73
     1
176
     1
 90
        2
176
     1
 40
-0.6
176
     1
 41
30.0
176
     1
 62
     5
 63
     7
421
 16777215
176
     1
 74
     0
176
     1
 91
        4
176
     1
 64
     7
176
     1
 65
   257
176
     1
 75
     1
176
     1
175
     1
176
     1
 42
1.0
176
     1
 92
        8
176
     1
 66
     7
176
     1
 43
1.0
176
     1
 76
     1
176
     1
 77
     6
176
     1
 78
     2
176
     1
 67
     7
176
     1
 79
     5
176
     1
170
     0
176
     1
171
     0
176
     1
290
     0
176
     1
 93
       13
176
     1
 44
0.0
176
     1
173
     0
176
     1
  0
VISUALSTYLE
  5
2C
102
{ACAD_REACTORS
330
2A
102
}
330
2A
100
AcDbVisualStyle
  2
FlatWithEdges
 70
     1
177
     2
291
     1
 71
     2
176
     1
 72
     1
176
     1
 73
     1
176
     1
 90
        2
176
     1
 40
-0.6
176
     1
 41
30.0
176
     1
 62
     5
 63
     7
421
 16777215
176
     1
 74
     1
176
     1
 91
        4
176
     1
 64
     7
176
     1
 65
   257
176
     1
 75
     1
176
     1
175
     1
176
     1
 42
1.0
176
     1
 92
        0
176
     1
 66
   257
176
     1
 43
1.0
176
     1
 76
     1
176
     1
 77
     6
176
     1
 78
     2
176
     1
 67
     7
176
     1
 79
     5
176
     1
170
     0
176
     1
171
     0
176
     1
290
     0
176
     1
 93
       13
176
     1
 44
0.0
176
     1
173
     0
176
     1
  0
VISUALSTYLE
  5
2D
102
{ACAD_REACTORS
330
2A
102
}
330
2A
100
AcDbVisualStyle
  2
Gouraud
 70
     2
177
     2
291
     1
 71
     2
176
     1
 72
     2
176
     1
 73
     1
176
     1
 90
        2
176
     1
 40
-0.6
176
     1
 41
30.0
176
     1
 62
     5
 63
     7
421
 16777215
176
     1
 74
     0
176
     1
 91
        4
176
     1
 64
     7
176
     1
 65
   257
176
     1
 75
     1
176
     1
175
     1
176
     1
 42
1.0
176
     1
 92
        0
176
     1
 66
     7
176
     1
 43
1.0
176
     1
 76
     1
176
     1
 77
     6
176
     1
 78
     2
176
     1
 67
     7
176
     1
 79
     5
176
     1
170
     0
176
     1
171
     0
176
     1
290
     0
176
     1
 93
       13
176
     1
 44
0.0
176
     1
173
     0
176
     1
  0
VISUALSTYLE
  5
2E
102
{ACAD_REACTORS
330
2A
102
}
330
2A
100
AcDbVisualStyle
  2
GouraudWithEdges
 70
     3
177
     2
291
     1
 71
     2
176
     1
 72
     2
176
     1
 73
     1
176
     1
 90
        2
176
     1
 40
-0.6
176
     1
 41
30.0
176
     1
 62
     5
 63
     7
421
 16777215
176
     1
 74
     1
176
     1
 91
        4
176
     1
 64
     7
176
     1
 65
   257
176
     1
 75
     1
176
     1
175
     1
176
     1
 42
1.0
176
     1
 92
        0
176
     1
 66
   257
176
     1
 43
1.0
176
     1
 76
     1
176
     1
 77
     6
176
     1
 78
     2
176
     1
 67
     7
176
     1
 79
     5
176
     1
170
     0
176
     1
171
     0
176
     1
290
     0
176
     1
 93
       13
176
     1
 44
0.0
176
     1
173
     0
176
     1
  0
VISUALSTYLE
  5
38
102
{ACAD_REACTORS
330
2A
102
}
330
2A
100
AcDbVisualStyle
  2
Linepattern
 70
    14
177
     2
291
     1
 71
     2
176
     1
 72
     2
176
     1
 73
     0
176
     1
 90
        0
176
     1
 40
-0.6
176
     1
 41
-30.0
176
     1
 62
     5
 63
     7
421
 16777215
176
     1
 74
     1
176
     1
 91
        4
176
     1
 64
     7
176
     1
 65
   257
176
     1
 75
     7
176
     1
175
     7
176
     1
 42
1.0
176
     1
 92
        8
176
     1
 66
     7
176
     1
 43
1.0
176
     1
 76
     1
176
     1
 77
     6
176
     1
 78
     2
176
     1
 67
     7
176
     1
 79
     5
176
     1
170
     0
176
     1
171
     0
176
     1
290
     0
176
     1
 93
        1
176
     1
 44
0.0
176
     1
173
     0
176
     1
  0
VISUALSTYLE
  5
33
102
{ACAD_REACTORS
330
2A
102
}
330
2A
100
AcDbVisualStyle
  2
Realistic
 70
     8
177
     2
291
     0
 71
     2
176
     1
 72
     2
176
     1
 73
     0
176
     1
 90
        0
176
     1
 40
-0.6
176
     1
 41
-30.0
176
     1
 62
     5
 63
     7
421
 16777215
176
     1
 74
     1
176
     1
 91
        0
176
     1
 64
     7
176
     1
 65
   257
176
     1
 75
     1
176
     1
175
     1
176
     1
 42
1.0
176
     1
 92
        8
176
     1
 66
     8
424
  7895160
176
     1
 43
1.0
176
     1
 76
     1
176
     1
 77
     6
176
     1
 78
     2
176
     1
 67
     7
176
     1
 79
     5
176
     1
170
     0
176
     1
171
     0
176
     1
290
     0
176
     1
 93
       13
176
     1
 44
0.0
176
     1
173
     0
176
     1
  0
VISUALSTYLE
  5
37
102
{ACAD_REACTORS
330
2A
102
}
330
2A
100
AcDbVisualStyle
  2
Thicken
 70
    13
177
     2
291
     1
 71
     2
176
     1
 72
     2
176
     1
 73
     0
176
     1
 90
        0
176
     1
 40
-0.6
176
     1
 41
-30.0
176
     1
 62
     5
 63
     7
421
 16777215
176
     1
 74
     1
176
     1
 91
        4
176
     1
 64
     7
176
     1
 65
   257
176
     1
 75
     1
176
     1
175
     1
176
     1
 42
1.0
176
     1
 92
       12
176
     1
 66
     7
176
     1
 43
1.0
176
     1
 76
     1
176
     1
 77
     6
176
     1
 78
     2
176
     1
 67
     7
176
     1
 79
     5
176
     1
170
     0
176
     1
171
     0
176
     1
290
     0
176
     1
 93
        1
176
     1
 44
0.0
176
     1
173
     0
176
     1
  0
ENDSEC
  0
EOF
