  0
SECTION
  2
HEADER
  9
$ACADVER
  1
AC1024
  9
$ACADMAINTVER
 70
     6
  9
$DWGCODEPAGE
  3
UNDEFINED
  9
$INSBASE
 10
0.0
 20
0.0
 30
0.0
  9
$EXTMIN
 10
1.000000000000000E+20
 20
1.000000000000000E+20
 30
1.000000000000000E+20
  9
$EXTMAX
 10
-1.000000000000000E+20
 20
-1.000000000000000E+20
 30
-1.000000000000000E+20
  9
$LIMMIN
 10
0.0
 20
0.0
  9
$LIMMAX
 10
12.0
 20
9.0
  9
$ORTHOMODE
 70
     0
  9
$REGENMODE
 70
     1
  9
$FILLMODE
 70
     1
  9
$QTEXTMODE
 70
     0
  9
$MIRRTEXT
 70
     1
  9
$LTSCALE
 40
1.0
  9
$ATTMODE
 70
     1
  9
$TEXTSIZE
 40
0.2
  9
$TRACEWID
 40
0.05
  9
$TEXTSTYLE
  7
Standard
  9
$CLAYER
  8
0
  9
$CELTYPE
  6
ByLayer
  9
$CECOLOR
 62
   256
  9
$CELTSCALE
 40
1.0
  9
$DISPSILH
 70
     0
  9
$DIMSCALE
 40
1.0
  9
$DIMASZ
 40
0.18
  9
$DIMEXO
 40
0.0625
  9
$DIMDLI
 40
0.38
  9
$DIMRND
 40
0.0
  9
$DIMDLE
 40
0.0
  9
$DIMEXE
 40
0.18
  9
$DIMTP
 40
0.0
  9
$DIMTM
 40
0.0
  9
$DIMTXT
 40
0.18
  9
$DIMCEN
 40
0.09
  9
$DIMTSZ
 40
0.0
  9
$DIMTOL
 70
     0
  9
$DIMLIM
 70
     0
  9
$DIMTIH
 70
     1
  9
$DIMTOH
 70
     1
  9
$DIMSE1
 70
     0
  9
$DIMSE2
 70
     0
  9
$DIMTAD
 70
     0
  9
$DIMZIN
 70
     0
  9
$DIMBLK
  1

  9
$DIMASO
 70
     1
  9
$DIMSHO
 70
     1
  9
$DIMPOST
  1

  9
$DIMAPOST
  1

  9
$DIMALT
 70
     0
  9
$DIMALTD
 70
     2
  9
$DIMALTF
 40
25.4
  9
$DIMLFAC
 40
1.0
  9
$DIMTOFL
 70
     0
  9
$DIMTVP
 40
0.0
  9
$DIMTIX
 70
     0
  9
$DIMSOXD
 70
     0
  9
$DIMSAH
 70
     0
  9
$DIMBLK1
  1

  9
$DIMBLK2
  1

  9
$DIMSTYLE
  2
Standard
  9
$DIMCLRD
 70
     0
  9
$DIMCLRE
 70
     0
  9
$DIMCLRT
 70
     0
  9
$DIMTFAC
 40
1.0
  9
$DIMGAP
 40
0.09
  9
$DIMJUST
 70
     0
  9
$DIMSD1
 70
     0
  9
$DIMSD2
 70
     0
  9
$DIMTOLJ
 70
     1
  9
$DIMTZIN
 70
     0
  9
$DIMALTZ
 70
     0
  9
$DIMALTTZ
 70
     0
  9
$DIMUPT
 70
     0
  9
$DIMDEC
 70
     4
  9
$DIMTDEC
 70
     4
  9
$DIMALTU
 70
     2
  9
$DIMALTTD
 70
     2
  9
$DIMTXSTY
  7
Standard
  9
$DIMAUNIT
 70
     0
  9
$DIMADEC
 70
     0
  9
$DIMALTRND
 40
0.0
  9
$DIMAZIN
 70
     0
  9
$DIMDSEP
 70
    46
  9
$DIMATFIT
 70
     3
  9
$DIMFRAC
 70
     0
  9
$DIMLDRBLK
  1

  9
$DIMLUNIT
 70
     2
  9
$DIMLWD
 70
    -2
  9
$DIMLWE
 70
    -2
  9
$DIMTMOVE
 70
     0
  9
$DIMFXL
 40
1.0
  9
$DIMFXLON
 70
     0
  9
$DIMJOGANG
 40
0.7853981633974483
  9
$DIMTFILL
 70
     0
  9
$DIMTFILLCLR
 70
     0
  9
$DIMARCSYM
 70
     0
  9
$DIMLTYPE
  6

  9
$DIMLTEX1
  6

  9
$DIMLTEX2
  6

  9
$DIMTXTDIRECTION
 70
     0
  9
$LUNITS
 70
     2
  9
$LUPREC
 70
     4
  9
$SKETCHINC
 40
0.1
  9
$FILLETRAD
 40
0.5
  9
$AUNITS
 70
     0
  9
$AUPREC
 70
     0
  9
$MENU
  1
.
  9
$ELEVATION
 40
0.0
  9
$PELEVATION
 40
0.0
  9
$THICKNESS
 40
0.0
  9
$LIMCHECK
 70
     0
  9
$CHAMFERA
 40
0.5
  9
$CHAMFERB
 40
0.5
  9
$CHAMFERC
 40
1.0
  9
$CHAMFERD
 40
0.0
  9
$SKPOLY
 70
     0
  9
$TDCREATE
 40
2457917.608611099
  9
$TDUCREATE
 40
2457917.233611111
  9
$TDUPDATE
 40
2457917.608611099
  9
$TDUUPDATE
 40
2457917.233611111
  9
$TDINDWG
 40
0.0000000116
  9
$TDUSRTIMER
 40
0.0000000116
  9
$USRTIMER
 70
     1
  9
$ANGBASE
 50
0.0
  9
$ANGDIR
 70
     0
  9
$PDMODE
 70
     0
  9
$PDSIZE
 40
0.0
  9
$PLINEWID
 40
0.0
  9
$SPLFRAME
 70
     0
  9
$SPLINETYPE
 70
     6
  9
$SPLINESEGS
 70
     8
  9
$HANDSEED
  5
F6
  9
$SURFTAB1
 70
     6
  9
$SURFTAB2
 70
     6
  9
$SURFTYPE
 70
     6
  9
$SURFU
 70
     6
  9
$SURFV
 70
     6
  9
$UCSBASE
  2

  9
$UCSNAME
  2

  9
$UCSORG
 10
0.0
 20
0.0
 30
0.0
  9
$UCSXDIR
 10
1.0
 20
0.0
 30
0.0
  9
$UCSYDIR
 10
0.0
 20
1.0
 30
0.0
  9
$UCSORTHOREF
  2

  9
$UCSORTHOVIEW
 70
     0
  9
$UCSORGTOP
 10
0.0
 20
0.0
 30
0.0
  9
$UCSORGBOTTOM
 10
0.0
 20
0.0
 30
0.0
  9
$UCSORGLEFT
 10
0.0
 20
0.0
 30
0.0
  9
$UCSORGRIGHT
 10
0.0
 20
0.0
 30
0.0
  9
$UCSORGFRONT
 10
0.0
 20
0.0
 30
0.0
  9
$UCSORGBACK
 10
0.0
 20
0.0
 30
0.0
  9
$PUCSBASE
  2

  9
$PUCSNAME
  2

  9
$PUCSORG
 10
0.0
 20
0.0
 30
0.0
  9
$PUCSXDIR
 10
1.0
 20
0.0
 30
0.0
  9
$PUCSYDIR
 10
0.0
 20
1.0
 30
0.0
  9
$PUCSORTHOREF
  2

  9
$PUCSORTHOVIEW
 70
     0
  9
$PUCSORGTOP
 10
0.0
 20
0.0
 30
0.0
  9
$PUCSORGBOTTOM
 10
0.0
 20
0.0
 30
0.0
  9
$PUCSORGLEFT
 10
0.0
 20
0.0
 30
0.0
  9
$PUCSORGRIGHT
 10
0.0
 20
0.0
 30
0.0
  9
$PUCSORGFRONT
 10
0.0
 20
0.0
 30
0.0
  9
$PUCSORGBACK
 10
0.0
 20
0.0
 30
0.0
  9
$USERI1
 70
     0
  9
$USERI2
 70
     0
  9
$USERI3
 70
     0
  9
$USERI4
 70
     0
  9
$USERI5
 70
     0
  9
$USERR1
 40
0.0
  9
$USERR2
 40
0.0
  9
$USERR3
 40
0.0
  9
$USERR4
 40
0.0
  9
$USERR5
 40
0.0
  9
$WORLDVIEW
 70
     1
  9
$SHADEDGE
 70
     3
  9
$SHADEDIF
 70
    70
  9
$TILEMODE
 70
     1
  9
$MAXACTVP
 70
    64
  9
$PINSBASE
 10
0.0
 20
0.0
 30
0.0
  9
$PLIMCHECK
 70
     0
  9
$PEXTMIN
 10
1.000000000000000E+20
 20
1.000000000000000E+20
 30
1.000000000000000E+20
  9
$PEXTMAX
 10
-1.000000000000000E+20
 20
-1.000000000000000E+20
 30
-1.000000000000000E+20
  9
$PLIMMIN
 10
0.0
 20
0.0
  9
$PLIMMAX
 10
12.0
 20
9.0
  9
$UNITMODE
 70
     0
  9
$VISRETAIN
 70
     1
  9
$PLINEGEN
 70
     0
  9
$PSLTSCALE
 70
     1
  9
$TREEDEPTH
 70
  3020
  9
$CMLSTYLE
  2
Standard
  9
$CMLJUST
 70
     0
  9
$CMLSCALE
 40
1.0
  9
$PROXYGRAPHICS
 70
     1
  9
$MEASUREMENT
 70
     0
  9
$CELWEIGHT
370
    -1
  9
$ENDCAPS
280
     0
  9
$JOINSTYLE
280
     0
  9
$LWDISPLAY
290
     1
  9
$INSUNITS
 70
     1
  9
$HYPERLINKBASE
  1

  9
$STYLESHEET
  1

  9
$XEDIT
290
     1
  9
$CEPSNTYPE
380
     0
  9
$PSTYLEMODE
290
     1
  9
$FINGERPRINTGUID
  2
{5AD6BB08-AE32-968B-0169-BC37771B6DA0}
  9
$VERSIONGUID
  2
{FAEB1C32-E019-11D5-929B-00C0DF256EC4}
  9
$EXTNAMES
290
     1
  9
$PSVPSCALE
 40
0.0
  9
$OLESTARTUP
290
     0
  9
$SORTENTS
280
   127
  9
$INDEXCTL
280
     0
  9
$HIDETEXT
280
     1
  9
$XCLIPFRAME
280
     2
  9
$HALOGAP
280
     0
  9
$OBSCOLOR
 70
   257
  9
$OBSLTYPE
280
     0
  9
$INTERSECTIONDISPLAY
280
     0
  9
$INTERSECTIONCOLOR
 70
   257
  9
$DIMASSOC
280
     2
  9
$PROJECTNAME
  1

  9
$CAMERADISPLAY
290
     0
  9
$LENSLENGTH
 40
50.0
  9
$CAMERAHEIGHT
 40
0.0
  9
$STEPSPERSEC
 40
2.0
  9
$STEPSIZE
 40
6.0
  9
$3DDWFPREC
 40
2.0
  9
$PSOLWIDTH
 40
0.25
  9
$PSOLHEIGHT
 40
4.0
  9
$LOFTANG1
 40
1.570796326794897
  9
$LOFTANG2
 40
1.570796326794897
  9
$LOFTMAG1
 40
0.0
  9
$LOFTMAG2
 40
0.0
  9
$LOFTPARAM
 70
     7
  9
$LOFTNORMALS
280
     1
  9
$LATITUDE
 40
37.795
  9
$LONGITUDE
 40
-122.394
  9
$NORTHDIRECTION
 40
0.0
  9
$TIMEZONE
 70
 -8000
  9
$LIGHTGLYPHDISPLAY
280
     1
  9
$TILEMODELIGHTSYNCH
280
     1
  9
$CMATERIAL
347
3C
  9
$SOLIDHIST
280
     1
  9
$SHOWHIST
280
     1
  9
$DWFFRAME
280
     2
  9
$DGNFRAME
280
     2
  9
$REALWORLDSCALE
290
     1
  9
$INTERFERECOLOR
 62
   256
  9
$CSHADOW
280
     0
  9
$SHADOWPLANELOCATION
 40
0.0
  0
ENDSEC
  0
SECTION
  2
CLASSES
  0
CLASS
  1
ACDBDICTIONARYWDFLT
  2
AcDbDictionaryWithDefault
  3
ObjectDBX Classes
 90
        0
 91
        4
280
     0
281
     0
  0
CLASS
  1
VISUALSTYLE
  2
AcDbVisualStyle
  3
ObjectDBX Classes
 90
     4095
 91
        4
280
     0
281
     0
  0
CLASS
  1
MATERIAL
  2
AcDbMaterial
  3
ObjectDBX Classes
 90
     1153
 91
        4
280
     0
281
     0
  0
CLASS
  1
SUN
  2
AcDbSun
  3
SCENEOE
 90
     1024
 91
        4
280
     0
281
     0
  0
ENDSEC
  0
SECTION
  2
TABLES
  0
TABLE
  2
VPORT
  5
8
330
0
100
AcDbSymbolTable
 70
     1
  0
VPORT
  5
29
330
8
100
AcDbSymbolTableRecord
100
AcDbViewportTableRecord
  2
*Active
 70
     0
 10
0.0
 20
0.0
 11
1.0
 21
1.0
 12
0.0
 22
0.0
 13
0.0
 23
0.0
 14
0.5
 24
0.5
 15
0.5
 25
0.5
 16
0.0
 26
0.0
 36
1.0
 17
91.00082462281999
 27
-128.4993055234307
 37
0.0
 40
256.9986110468615
 41
0.7081814508812795
 42
50.0
 43
0.0
 44
0.0
 50
0.0
 51
0.0
 71
     0
 72
   100
 73
     1
 74
     3
 75
     0
 76
     0
 77
     0
 78
     0
281
     0
 65
     1
110
0.0
120
0.0
130
0.0
111
1.0
121
0.0
131
0.0
112
0.0
122
1.0
132
0.0
 79
     0
146
0.0
 60
     3
 61
     5
292
     1
282
     1
141
0.0
142
0.0
 63
   250
361
3F
  0
ENDTAB
  0
TABLE
  2
LTYPE
  5
5
330
0
100
AcDbSymbolTable
 70
     1
  0
LTYPE
  5
14
330
5
100
AcDbSymbolTableRecord
100
AcDbLinetypeTableRecord
  2
ByBlock
 70
     0
  3

 72
    65
 73
     0
 40
0.0
  0
LTYPE
  5
15
330
5
100
AcDbSymbolTableRecord
100
AcDbLinetypeTableRecord
  2
ByLayer
 70
     0
  3

 72
    65
 73
     0
 40
0.0
  0
LTYPE
  5
16
330
5
100
AcDbSymbolTableRecord
100
AcDbLinetypeTableRecord
  2
Continuous
 70
     0
  3
Solid line
 72
    65
 73
     0
 40
0.0
  0
ENDTAB
  0
TABLE
  2
LAYER
  5
2
330
0
100
AcDbSymbolTable
 70
     2
  0
LAYER
  5
10
330
2
100
AcDbSymbolTableRecord
100
AcDbLayerTableRecord
  2
0
 70
     0
 62
     7
  6
Continuous
370
    -3
390
F
347
3E
  0
LAYER
  5
40
330
2
100
AcDbSymbolTableRecord
100
AcDbLayerTableRecord
  2
_U+30EC_U+30A4_U+30E4_U+30FC 1
 70
     0
 62
     7
  6
Continuous
370
    -3
390
F
347
3E
  0
ENDTAB
  0
TABLE
  2
STYLE
  5
3
330
0
100
AcDbSymbolTable
 70
     1
  0
STYLE
  5
11
330
3
100
AcDbSymbolTableRecord
100
AcDbTextStyleTableRecord
  2
Standard
 70
     0
 40
0.0
 41
1.0
 50
0.0
 71
     0
 42
0.2
  3
txt
  4

  0
ENDTAB
  0
TABLE
  2
VIEW
  5
6
330
0
100
AcDbSymbolTable
 70
     0
  0
ENDTAB
  0
TABLE
  2
UCS
  5
7
330
0
100
AcDbSymbolTable
 70
     0
  0
ENDTAB
  0
TABLE
  2
APPID
  5
9
330
0
100
AcDbSymbolTable
 70
     1
  0
APPID
  5
12
330
9
100
AcDbSymbolTableRecord
100
AcDbRegAppTableRecord
  2
ACAD
 70
     0
  0
ENDTAB
  0
TABLE
  2
DIMSTYLE
  5
A
330
0
100
AcDbSymbolTable
 70
     1
100
AcDbDimStyleTable
  0
DIMSTYLE
105
27
330
A
100
AcDbSymbolTableRecord
100
AcDbDimStyleTableRecord
  2
Standard
 70
     0
178
     0
340
11
  0
ENDTAB
  0
TABLE
  2
BLOCK_RECORD
  5
1
330
0
100
AcDbSymbolTable
 70
     4
  0
BLOCK_RECORD
  5
1F
330
1
100
AcDbSymbolTableRecord
100
AcDbBlockTableRecord
  2
*Model_Space
340
22
 70
     0
280
     1
281
     0
  0
BLOCK_RECORD
  5
1B
330
1
100
AcDbSymbolTableRecord
100
AcDbBlockTableRecord
  2
*Paper_Space
340
1E
 70
     0
280
     1
281
     0
  0
BLOCK_RECORD
  5
23
330
1
100
AcDbSymbolTableRecord
100
AcDbBlockTableRecord
  2
*Paper_Space0
340
26
 70
     0
280
     1
281
     0
  0
BLOCK_RECORD
  5
C7
330
1
100
AcDbSymbolTableRecord
100
AcDbBlockTableRecord
  2
block 2
340
0
102
{BLKREFS
331
C8
102
}
 70
     0
280
     1
281
     0
  0
BLOCK_RECORD
  5
DC
330
1
100
AcDbSymbolTableRecord
100
AcDbBlockTableRecord
  2
block 3
340
0
102
{BLKREFS
331
DD
102
}
 70
     0
280
     1
281
     0
  0
BLOCK_RECORD
  5
E4
330
1
100
AcDbSymbolTableRecord
100
AcDbBlockTableRecord
  2
block 4
340
0
102
{BLKREFS
331
E5
102
}
 70
     0
280
     1
281
     0
  0
ENDTAB
  0
ENDSEC
  0
SECTION
  2
BLOCKS
  0
BLOCK
  5
20
330
1F
100
AcDbEntity
  8
0
100
AcDbBlockBegin
  2
*Model_Space
 70
     0
 10
0.0
 20
0.0
 30
0.0
  3
*Model_Space
  1

  0
ENDBLK
  5
21
330
1F
100
AcDbEntity
  8
0
100
AcDbBlockEnd
  0
BLOCK
  5
1C
330
1B
100
AcDbEntity
 67
     1
  8
0
100
AcDbBlockBegin
  2
*Paper_Space
 70
     0
 10
0.0
 20
0.0
 30
0.0
  3
*Paper_Space
  1

  0
ENDBLK
  5
1D
330
1B
100
AcDbEntity
 67
     1
  8
0
100
AcDbBlockEnd
  0
BLOCK
  5
24
330
23
100
AcDbEntity
  8
0
100
AcDbBlockBegin
  2
*Paper_Space0
 70
     0
 10
0.0
 20
0.0
 30
0.0
  3
*Paper_Space0
  1

  0
ENDBLK
  5
25
330
23
100
AcDbEntity
  8
0
100
AcDbBlockEnd
  0
BLOCK
  5
C9
330
C7
100
AcDbEntity
  8
0
100
AcDbBlockBegin
  2
block 2
 70
     0
 10
0.0
 20
0.0
 30
0.0
  3
block 2
  1

  0
SPLINE
  5
CB
330
C7
100
AcDbEntity
  8
_U+30EC_U+30A4_U+30E4_U+30FC 1
370
     0
100
AcDbSpline
210
0.0
220
0.0
230
1.0
 70
    11
 71
     3
 72
    26
 73
    22
 74
     0
 42
0.0000000001
 43
0.0000000001
 12
1.0
 22
0.0
 32
0.0
 13
1.0
 23
0.0
 33
0.0
 40
0.0
 40
0.0
 40
0.0
 40
0.0
 40
1.0
 40
1.0
 40
1.0
 40
2.0
 40
2.0
 40
2.0
 40
3.0
 40
3.0
 40
3.0
 40
4.0
 40
4.0
 40
4.0
 40
5.0
 40
5.0
 40
5.0
 40
6.0
 40
6.0
 40
6.0
 40
7.0
 40
7.0
 40
7.0
 40
7.0
 10
95.60553383026529
 20
-133.0213378573697
 30
0.0
 10
95.60553383026529
 20
-133.0213378573697
 30
0.0
 10
95.60553383026529
 20
-131.9168402447986
 30
0.0
 10
95.60553383026529
 20
-131.9168402447986
 30
0.0
 10
95.60553383026529
 20
-131.9168402447986
 30
0.0
 10
95.32406952912038
 20
-131.9168402447986
 30
0.0
 10
95.32406952912038
 20
-131.9168402447986
 30
0.0
 10
95.32406952912038
 20
-131.9168402447986
 30
0.0
 10
95.32406952912038
 20
-131.7690456484814
 30
0.0
 10
95.32406952912038
 20
-131.7690456484814
 30
0.0
 10
95.60725637800792
 20
-131.7542317378948
 30
0.0
 10
95.64687497608828
 20
-131.5912787214425
 30
0.0
 10
95.67202417313061
 20
-131.4769015513322
 30
0.0
 10
95.67202417313061
 20
-131.4769015513322
 30
0.0
 10
95.79639212014813
 20
-131.4769015513322
 30
0.0
 10
95.79639212014813
 20
-131.4769015513322
 30
0.0
 10
95.79639212014813
 20
-131.4769015513322
 30
0.0
 10
95.79639212014813
 20
-133.0213378573697
 30
0.0
 10
95.79639212014813
 20
-133.0213378573697
 30
0.0
 10
95.79639212014813
 20
-133.0213378573697
 30
0.0
 10
95.60553383026529
 20
-133.0213378573697
 30
0.0
 10
95.60553383026529
 20
-133.0213378573697
 30
0.0
  0
HATCH
  5
CC
330
C7
100
AcDbEntity
  8
_U+30EC_U+30A4_U+30E4_U+30FC 1
 62
   179
420
  2234388
100
AcDbHatch
 10
0.0
 20
0.0
 30
0.0
210
0.0
220
0.0
230
1.0
  2
SOLID
 70
     1
 71
     0
 91
        1
 92
        1
 93
        1
 72
     4
 94
        3
 73
     0
 74
     1
 95
       26
 96
       22
 40
0.0
 40
0.0
 40
0.0
 40
0.0
 40
1.0
 40
1.0
 40
1.0
 40
2.0
 40
2.0
 40
2.0
 40
3.0
 40
3.0
 40
3.0
 40
4.0
 40
4.0
 40
4.0
 40
5.0
 40
5.0
 40
5.0
 40
6.0
 40
6.0
 40
6.0
 40
7.0
 40
7.0
 40
7.0
 40
7.0
 10
95.60553383026529
 20
-133.0213378573697
 10
95.60553383026529
 20
-133.0213378573697
 10
95.60553383026529
 20
-131.9168402447986
 10
95.60553383026529
 20
-131.9168402447986
 10
95.60553383026529
 20
-131.9168402447986
 10
95.32406952912038
 20
-131.9168402447986
 10
95.32406952912038
 20
-131.9168402447986
 10
95.32406952912038
 20
-131.9168402447986
 10
95.32406952912038
 20
-131.7690456484814
 10
95.32406952912038
 20
-131.7690456484814
 10
95.60725637800792
 20
-131.7542317378948
 10
95.64687497608828
 20
-131.5912787214425
 10
95.67202417313061
 20
-131.4769015513322
 10
95.67202417313061
 20
-131.4769015513322
 10
95.79639212014813
 20
-131.4769015513322
 10
95.79639212014813
 20
-131.4769015513322
 10
95.79639212014813
 20
-131.4769015513322
 10
95.79639212014813
 20
-133.0213378573697
 10
95.79639212014813
 20
-133.0213378573697
 10
95.79639212014813
 20
-133.0213378573697
 10
95.60553383026529
 20
-133.0213378573697
 10
95.60553383026529
 20
-133.0213378573697
 97
        0
 97
        0
 75
     2
 76
     1
 98
        0
  0
SPLINE
  5
CD
330
C7
100
AcDbEntity
  8
_U+30EC_U+30A4_U+30E4_U+30FC 1
370
     0
100
AcDbSpline
210
0.0
220
0.0
230
1.0
 70
    11
 71
     3
 72
    29
 73
    25
 74
     0
 42
0.0000000001
 43
0.0000000001
 12
1.0
 22
0.0
 32
0.0
 13
1.0
 23
0.0
 33
0.0
 40
0.0
 40
0.0
 40
0.0
 40
0.0
 40
1.0
 40
1.0
 40
1.0
 40
2.0
 40
2.0
 40
2.0
 40
3.0
 40
3.0
 40
3.0
 40
4.0
 40
4.0
 40
4.0
 40
5.0
 40
5.0
 40
5.0
 40
6.0
 40
6.0
 40
6.0
 40
7.0
 40
7.0
 40
7.0
 40
8.0
 40
8.0
 40
8.0
 40
8.0
 10
96.64870874319894
 20
-133.0719807610028
 30
0.0
 10
96.42133244117245
 20
-133.0719807610028
 30
0.0
 10
96.20498044469876
 20
-132.9345214511414
 30
0.0
 10
96.20498044469876
 20
-132.5855332784856
 30
0.0
 10
96.20498044469876
 20
-132.3295626839315
 30
0.0
 10
96.32590329623103
 20
-132.2344780485386
 30
0.0
 10
96.41616479794457
 20
-132.1731553489012
 30
0.0
 10
96.30971134745036
 20
-132.1138997065549
 30
0.0
 10
96.24459904277913
 20
-131.9995225364446
 30
0.0
 10
96.24459904277913
 20
-131.8386365772834
 30
0.0
 10
96.24459904277913
 20
-131.5637179575605
 30
0.0
 10
96.41409774065342
 20
-131.4283257049902
 30
0.0
 10
96.64870874319894
 20
-131.4283257049902
 30
0.0
 10
96.89020993671495
 20
-131.4283257049902
 30
0.0
 10
97.05247393407022
 20
-131.5719861867251
 30
0.0
 10
97.05247393407022
 20
-131.8386365772834
 30
0.0
 10
97.05247393407022
 20
-131.9995225364446
 30
0.0
 10
96.9859835912049
 20
-132.1138997065549
 30
0.0
 10
96.87953014071067
 20
-132.1731553489012
 30
0.0
 10
96.95532224138617
 20
-132.2237982525343
 30
0.0
 10
97.09036998440797
 20
-132.3188828879272
 30
0.0
 10
97.09036998440797
 20
-132.5813991639033
 30
0.0
 10
97.09036998440797
 20
-132.9558810431499
 30
0.0
 10
96.8523138863772
 20
-133.0719807610028
 30
0.0
 10
96.64870874319894
 20
-133.0719807610028
 30
0.0
  0
SPLINE
  5
CE
330
C7
100
AcDbEntity
  8
_U+30EC_U+30A4_U+30E4_U+30FC 1
370
     0
100
AcDbSpline
210
0.0
220
0.0
230
1.0
 70
    11
 71
     3
 72
    17
 73
    13
 74
     0
 42
0.0000000001
 43
0.0000000001
 12
1.0
 22
0.0
 32
0.0
 13
1.0
 23
0.0
 33
0.0
 40
0.0
 40
0.0
 40
0.0
 40
0.0
 40
1.0
 40
1.0
 40
1.0
 40
2.0
 40
2.0
 40
2.0
 40
3.0
 40
3.0
 40
3.0
 40
4.0
 40
4.0
 40
4.0
 40
4.0
 10
96.64870874319894
 20
-132.2809868375895
 30
0.0
 10
96.52606334392405
 20
-132.2809868375895
 30
0.0
 10
96.39618324413013
 20
-132.3678032438178
 30
0.0
 10
96.39618324413013
 20
-132.570719367899
 30
0.0
 10
96.39618324413013
 20
-132.7760470588199
 30
0.0
 10
96.50435924236697
 20
-132.8773328660862
 30
0.0
 10
96.64870874319894
 20
-132.8773328660862
 30
0.0
 10
96.80752764506896
 20
-132.8773328660862
 30
0.0
 10
96.90123424226775
 20
-132.7546874668113
 30
0.0
 10
96.90123424226775
 20
-132.5769205397724
 30
0.0
 10
96.90123424226775
 20
-132.3550563905223
 30
0.0
 10
96.76239689421219
 20
-132.2809868375895
 30
0.0
 10
96.64870874319894
 20
-132.2809868375895
 30
0.0
  0
SPLINE
  5
CF
330
C7
100
AcDbEntity
  8
_U+30EC_U+30A4_U+30E4_U+30FC 1
370
     0
100
AcDbSpline
210
0.0
220
0.0
230
1.0
 70
    11
 71
     3
 72
    17
 73
    13
 74
     0
 42
0.0000000001
 43
0.0000000001
 12
1.0
 22
0.0
 32
0.0
 13
1.0
 23
0.0
 33
0.0
 40
0.0
 40
0.0
 40
0.0
 40
0.0
 40
1.0
 40
1.0
 40
1.0
 40
2.0
 40
2.0
 40
2.0
 40
3.0
 40
3.0
 40
3.0
 40
4.0
 40
4.0
 40
4.0
 40
4.0
 10
96.64870874319894
 20
-131.6209065426156
 30
0.0
 10
96.50814884740075
 20
-131.6209065426156
 30
0.0
 10
96.4358018422105
 20
-131.7159911780085
 30
0.0
 10
96.4358018422105
 20
-131.8513834305788
 30
0.0
 10
96.4358018422105
 20
-131.9740288298537
 30
0.0
 10
96.49712454184794
 20
-132.0925401145463
 30
0.0
 10
96.64870874319894
 20
-132.0925401145463
 30
0.0
 10
96.80029294454994
 20
-132.0925401145463
 30
0.0
 10
96.86161564418738
 20
-131.9740288298537
 30
0.0
 10
96.86161564418738
 20
-131.8513834305788
 30
0.0
 10
96.86161564418738
 20
-131.7159911780085
 30
0.0
 10
96.78754609125451
 20
-131.6209065426156
 30
0.0
 10
96.64870874319894
 20
-131.6209065426156
 30
0.0
  0
HATCH
  5
D0
330
C7
100
AcDbEntity
  8
_U+30EC_U+30A4_U+30E4_U+30FC 1
 62
   179
420
  2234388
100
AcDbHatch
 10
0.0
 20
0.0
 30
0.0
210
0.0
220
0.0
230
1.0
  2
SOLID
 70
     1
 71
     0
 91
        3
 92
        1
 93
        1
 72
     4
 94
        3
 73
     0
 74
     1
 95
       29
 96
       25
 40
0.0
 40
0.0
 40
0.0
 40
0.0
 40
1.0
 40
1.0
 40
1.0
 40
2.0
 40
2.0
 40
2.0
 40
3.0
 40
3.0
 40
3.0
 40
4.0
 40
4.0
 40
4.0
 40
5.0
 40
5.0
 40
5.0
 40
6.0
 40
6.0
 40
6.0
 40
7.0
 40
7.0
 40
7.0
 40
8.0
 40
8.0
 40
8.0
 40
8.0
 10
96.64870874319894
 20
-133.0719807610028
 10
96.42133244117245
 20
-133.0719807610028
 10
96.20498044469876
 20
-132.9345214511414
 10
96.20498044469876
 20
-132.5855332784856
 10
96.20498044469876
 20
-132.3295626839315
 10
96.32590329623103
 20
-132.2344780485386
 10
96.41616479794457
 20
-132.1731553489012
 10
96.30971134745036
 20
-132.1138997065549
 10
96.24459904277913
 20
-131.9995225364446
 10
96.24459904277913
 20
-131.8386365772834
 10
96.24459904277913
 20
-131.5637179575605
 10
96.41409774065342
 20
-131.4283257049902
 10
96.64870874319894
 20
-131.4283257049902
 10
96.89020993671495
 20
-131.4283257049902
 10
97.05247393407022
 20
-131.5719861867251
 10
97.05247393407022
 20
-131.8386365772834
 10
97.05247393407022
 20
-131.9995225364446
 10
96.9859835912049
 20
-132.1138997065549
 10
96.87953014071067
 20
-132.1731553489012
 10
96.95532224138617
 20
-132.2237982525343
 10
97.09036998440797
 20
-132.3188828879272
 10
97.09036998440797
 20
-132.5813991639033
 10
97.09036998440797
 20
-132.9558810431499
 10
96.8523138863772
 20
-133.0719807610028
 10
96.64870874319894
 20
-133.0719807610028
 97
        0
 97
        0
 92
        1
 93
        1
 72
     4
 94
        3
 73
     0
 74
     1
 95
       17
 96
       13
 40
0.0
 40
0.0
 40
0.0
 40
0.0
 40
1.0
 40
1.0
 40
1.0
 40
2.0
 40
2.0
 40
2.0
 40
3.0
 40
3.0
 40
3.0
 40
4.0
 40
4.0
 40
4.0
 40
4.0
 10
96.64870874319894
 20
-132.2809868375895
 10
96.52606334392405
 20
-132.2809868375895
 10
96.39618324413013
 20
-132.3678032438178
 10
96.39618324413013
 20
-132.570719367899
 10
96.39618324413013
 20
-132.7760470588199
 10
96.50435924236697
 20
-132.8773328660862
 10
96.64870874319894
 20
-132.8773328660862
 10
96.80752764506896
 20
-132.8773328660862
 10
96.90123424226775
 20
-132.7546874668113
 10
96.90123424226775
 20
-132.5769205397724
 10
96.90123424226775
 20
-132.3550563905223
 10
96.76239689421219
 20
-132.2809868375895
 10
96.64870874319894
 20
-132.2809868375895
 97
        0
 97
        0
 92
        1
 93
        1
 72
     4
 94
        3
 73
     0
 74
     1
 95
       17
 96
       13
 40
0.0
 40
0.0
 40
0.0
 40
0.0
 40
1.0
 40
1.0
 40
1.0
 40
2.0
 40
2.0
 40
2.0
 40
3.0
 40
3.0
 40
3.0
 40
4.0
 40
4.0
 40
4.0
 40
4.0
 10
96.64870874319894
 20
-131.6209065426156
 10
96.50814884740075
 20
-131.6209065426156
 10
96.4358018422105
 20
-131.7159911780085
 10
96.4358018422105
 20
-131.8513834305788
 10
96.4358018422105
 20
-131.9740288298537
 10
96.49712454184794
 20
-132.0925401145463
 10
96.64870874319894
 20
-132.0925401145463
 10
96.80029294454994
 20
-132.0925401145463
 10
96.86161564418738
 20
-131.9740288298537
 10
96.86161564418738
 20
-131.8513834305788
 10
96.86161564418738
 20
-131.7159911780085
 10
96.78754609125451
 20
-131.6209065426156
 10
96.64870874319894
 20
-131.6209065426156
 97
        0
 97
        0
 75
     2
 76
     1
 98
        0
  0
POLYLINE
  5
D1
330
C7
100
AcDbEntity
  8
_U+30EC_U+30A4_U+30E4_U+30FC 1
370
     0
100
AcDb2dPolyline
 66
     1
 10
0.0
 20
0.0
 30
0.0
  0
VERTEX
  5
D2
330
D1
100
AcDbEntity
  8
_U+30EC_U+30A4_U+30E4_U+30FC 1
370
     0
100
AcDbVertex
100
AcDb2dVertex
 10
97.27537161196588
 20
-133.0213378573697
 30
0.0
  0
VERTEX
  5
D3
330
D1
100
AcDbEntity
  8
_U+30EC_U+30A4_U+30E4_U+30FC 1
370
     0
100
AcDbVertex
100
AcDb2dVertex
 10
97.27537161196588
 20
-132.7695013773979
 30
0.0
  0
VERTEX
  5
D4
330
D1
100
AcDbEntity
  8
_U+30EC_U+30A4_U+30E4_U+30FC 1
370
     0
100
AcDbVertex
100
AcDb2dVertex
 10
97.49000106069695
 20
-132.7695013773979
 30
0.0
  0
VERTEX
  5
D5
330
D1
100
AcDbEntity
  8
_U+30EC_U+30A4_U+30E4_U+30FC 1
370
     0
100
AcDbVertex
100
AcDb2dVertex
 10
97.49000106069695
 20
-133.0213378573697
 30
0.0
  0
VERTEX
  5
D6
330
D1
100
AcDbEntity
  8
_U+30EC_U+30A4_U+30E4_U+30FC 1
370
     0
100
AcDbVertex
100
AcDb2dVertex
 10
97.27537161196588
 20
-133.0213378573697
 30
0.0
  0
SEQEND
  5
D7
330
D1
100
AcDbEntity
  8
_U+30EC_U+30A4_U+30E4_U+30FC 1
370
     0
  0
HATCH
  5
D8
330
C7
100
AcDbEntity
  8
_U+30EC_U+30A4_U+30E4_U+30FC 1
 62
   179
420
  2234388
100
AcDbHatch
 10
0.0
 20
0.0
 30
0.0
210
0.0
220
0.0
230
1.0
  2
SOLID
 70
     1
 71
     0
 91
        1
 92
        1
 93
        4
 72
     1
 10
97.27537161196588
 20
-133.0213378573697
 11
97.27537161196588
 21
-132.7695013773979
 72
     1
 10
97.27537161196588
 20
-132.7695013773979
 11
97.49000106069695
 21
-132.7695013773979
 72
     1
 10
97.49000106069695
 20
-132.7695013773979
 11
97.49000106069695
 21
-133.0213378573697
 72
     1
 10
97.49000106069695
 20
-133.0213378573697
 11
97.27537161196588
 21
-133.0213378573697
 97
        0
 75
     2
 76
     1
 98
        0
  0
SPLINE
  5
D9
330
C7
100
AcDbEntity
  8
_U+30EC_U+30A4_U+30E4_U+30FC 1
370
     0
100
AcDbSpline
210
0.0
220
0.0
230
1.0
 70
    11
 71
     3
 72
    32
 73
    28
 74
     0
 42
0.0000000001
 43
0.0000000001
 12
1.0
 22
0.0
 32
0.0
 13
1.0
 23
0.0
 33
0.0
 40
0.0
 40
0.0
 40
0.0
 40
0.0
 40
1.0
 40
1.0
 40
1.0
 40
2.0
 40
2.0
 40
2.0
 40
3.0
 40
3.0
 40
3.0
 40
4.0
 40
4.0
 40
4.0
 40
5.0
 40
5.0
 40
5.0
 40
6.0
 40
6.0
 40
6.0
 40
7.0
 40
7.0
 40
7.0
 40
8.0
 40
8.0
 40
8.0
 40
9.0
 40
9.0
 40
9.0
 40
9.0
 10
98.08117944596582
 20
-133.0719807610028
 30
0.0
 10
97.93304034010008
 20
-133.0719807610028
 30
0.0
 10
97.72392304414541
 20
-133.0023898322008
 30
0.0
 10
97.69153914658406
 20
-132.6702826274227
 30
0.0
 10
97.69153914658406
 20
-132.6702826274227
 30
0.0
 10
97.87378469775378
 20
-132.6702826274227
 30
0.0
 10
97.87378469775378
 20
-132.6702826274227
 30
0.0
 10
97.88274194601543
 20
-132.729538269769
 30
0.0
 10
97.90961369080038
 20
-132.8773328660862
 30
0.0
 10
98.08290199370845
 20
-132.8773328660862
 30
0.0
 10
98.33163788774348
 20
-132.8773328660862
 30
0.0
 10
98.36436629485335
 20
-132.5472927185993
 30
0.0
 10
98.37504609085764
 20
-132.3423095372269
 30
0.0
 10
98.2975314424395
 20
-132.4225802620333
 30
0.0
 10
98.23965383828731
 20
-132.4797688470884
 30
0.0
 10
98.08462454145108
 20
-132.4797688470884
 30
0.0
 10
97.93131779235745
 20
-132.4797688470884
 30
0.0
 10
97.67362465006076
 20
-132.3740044156912
 30
0.0
 10
97.67362465006076
 20
-131.9678276579803
 30
0.0
 10
97.67362465006076
 20
-131.6481227969491
 30
0.0
 10
97.84312334793506
 20
-131.4283257049902
 30
0.0
 10
98.11356334352718
 20
-131.4283257049902
 30
0.0
 10
98.55177948925095
 20
-131.4283257049902
 30
0.0
 10
98.5607367375126
 20
-131.9826415685668
 30
0.0
 10
98.5607367375126
 20
-132.1962374886523
 30
0.0
 10
98.5607367375126
 20
-132.4267143766155
 30
0.0
 10
98.54454478873193
 20
-133.0719807610028
 30
0.0
 10
98.08117944596582
 20
-133.0719807610028
 30
0.0
  0
SPLINE
  5
DA
330
C7
100
AcDbEntity
  8
_U+30EC_U+30A4_U+30E4_U+30FC 1
370
     0
100
AcDbSpline
210
0.0
220
0.0
230
1.0
 70
    11
 71
     3
 72
    17
 73
    13
 74
     0
 42
0.0000000001
 43
0.0000000001
 12
1.0
 22
0.0
 32
0.0
 13
1.0
 23
0.0
 33
0.0
 40
0.0
 40
0.0
 40
0.0
 40
0.0
 40
1.0
 40
1.0
 40
1.0
 40
2.0
 40
2.0
 40
2.0
 40
3.0
 40
3.0
 40
3.0
 40
4.0
 40
4.0
 40
4.0
 40
4.0
 10
98.11528589126979
 20
-131.6209065426156
 30
0.0
 10
98.01434459355197
 20
-131.6209065426156
 30
0.0
 10
97.86482744949213
 20
-131.6777506181222
 30
0.0
 10
97.86482744949213
 20
-131.9633490338495
 30
0.0
 10
97.86482744949213
 20
-132.1900363167789
 30
0.0
 10
97.98368324373325
 20
-132.2851209521718
 30
0.0
 10
98.09909394248912
 20
-132.2851209521718
 30
0.0
 10
98.32268063948183
 20
-132.2851209521718
 30
0.0
 10
98.35506453704318
 20
-132.0756591466686
 30
0.0
 10
98.35506453704318
 20
-131.9592149192671
 30
0.0
 10
98.35506453704318
 20
-131.7835150495194
 30
0.0
 10
98.27410479313981
 20
-131.6209065426156
 30
0.0
 10
98.11528589126979
 20
-131.6209065426156
 30
0.0
  0
HATCH
  5
DB
330
C7
100
AcDbEntity
  8
_U+30EC_U+30A4_U+30E4_U+30FC 1
 62
   179
420
  2234388
100
AcDbHatch
 10
0.0
 20
0.0
 30
0.0
210
0.0
220
0.0
230
1.0
  2
SOLID
 70
     1
 71
     0
 91
        2
 92
        1
 93
        1
 72
     4
 94
        3
 73
     0
 74
     1
 95
       32
 96
       28
 40
0.0
 40
0.0
 40
0.0
 40
0.0
 40
1.0
 40
1.0
 40
1.0
 40
2.0
 40
2.0
 40
2.0
 40
3.0
 40
3.0
 40
3.0
 40
4.0
 40
4.0
 40
4.0
 40
5.0
 40
5.0
 40
5.0
 40
6.0
 40
6.0
 40
6.0
 40
7.0
 40
7.0
 40
7.0
 40
8.0
 40
8.0
 40
8.0
 40
9.0
 40
9.0
 40
9.0
 40
9.0
 10
98.08117944596582
 20
-133.0719807610028
 10
97.93304034010008
 20
-133.0719807610028
 10
97.72392304414541
 20
-133.0023898322008
 10
97.69153914658406
 20
-132.6702826274227
 10
97.69153914658406
 20
-132.6702826274227
 10
97.87378469775378
 20
-132.6702826274227
 10
97.87378469775378
 20
-132.6702826274227
 10
97.88274194601543
 20
-132.729538269769
 10
97.90961369080038
 20
-132.8773328660862
 10
98.08290199370845
 20
-132.8773328660862
 10
98.33163788774348
 20
-132.8773328660862
 10
98.36436629485335
 20
-132.5472927185993
 10
98.37504609085764
 20
-132.3423095372269
 10
98.2975314424395
 20
-132.4225802620333
 10
98.23965383828731
 20
-132.4797688470884
 10
98.08462454145108
 20
-132.4797688470884
 10
97.93131779235745
 20
-132.4797688470884
 10
97.67362465006076
 20
-132.3740044156912
 10
97.67362465006076
 20
-131.9678276579803
 10
97.67362465006076
 20
-131.6481227969491
 10
97.84312334793506
 20
-131.4283257049902
 10
98.11356334352718
 20
-131.4283257049902
 10
98.55177948925095
 20
-131.4283257049902
 10
98.5607367375126
 20
-131.9826415685668
 10
98.5607367375126
 20
-132.1962374886523
 10
98.5607367375126
 20
-132.4267143766155
 10
98.54454478873193
 20
-133.0719807610028
 10
98.08117944596582
 20
-133.0719807610028
 97
        0
 97
        0
 92
        1
 93
        1
 72
     4
 94
        3
 73
     0
 74
     1
 95
       17
 96
       13
 40
0.0
 40
0.0
 40
0.0
 40
0.0
 40
1.0
 40
1.0
 40
1.0
 40
2.0
 40
2.0
 40
2.0
 40
3.0
 40
3.0
 40
3.0
 40
4.0
 40
4.0
 40
4.0
 40
4.0
 10
98.11528589126979
 20
-131.6209065426156
 10
98.01434459355197
 20
-131.6209065426156
 10
97.86482744949213
 20
-131.6777506181222
 10
97.86482744949213
 20
-131.9633490338495
 10
97.86482744949213
 20
-132.1900363167789
 10
97.98368324373325
 20
-132.2851209521718
 10
98.09909394248912
 20
-132.2851209521718
 10
98.32268063948183
 20
-132.2851209521718
 10
98.35506453704318
 20
-132.0756591466686
 10
98.35506453704318
 20
-131.9592149192671
 10
98.35506453704318
 20
-131.7835150495194
 10
98.27410479313981
 20
-131.6209065426156
 10
98.11528589126979
 20
-131.6209065426156
 97
        0
 97
        0
 75
     2
 76
     1
 98
        0
  0
ENDBLK
  5
CA
330
C7
100
AcDbEntity
  8
0
100
AcDbBlockEnd
  0
BLOCK
  5
DE
330
DC
100
AcDbEntity
  8
0
100
AcDbBlockBegin
  2
block 3
 70
     0
 10
0.0
 20
0.0
 30
0.0
  3
block 3
  1

  0
SPLINE
  5
E0
330
DC
100
AcDbEntity
  8
_U+30EC_U+30A4_U+30E4_U+30FC 1
370
     0
100
AcDbSpline
210
0.0
220
0.0
230
1.0
 70
    11
 71
     3
 72
    44
 73
    40
 74
     0
 42
0.0000000001
 43
0.0000000001
 12
1.0
 22
0.0
 32
0.0
 13
1.0
 23
0.0
 33
0.0
 40
0.0
 40
0.0
 40
0.0
 40
0.0
 40
1.0
 40
1.0
 40
1.0
 40
2.0
 40
2.0
 40
2.0
 40
3.0
 40
3.0
 40
3.0
 40
4.0
 40
4.0
 40
4.0
 40
5.0
 40
5.0
 40
5.0
 40
6.0
 40
6.0
 40
6.0
 40
7.0
 40
7.0
 40
7.0
 40
8.0
 40
8.0
 40
8.0
 40
9.0
 40
9.0
 40
9.0
 40
10.0
 40
10.0
 40
10.0
 40
11.0
 40
11.0
 40
11.0
 40
12.0
 40
12.0
 40
12.0
 40
13.0
 40
13.0
 40
13.0
 40
13.0
 10
85.30831567962778
 20
-122.5510036585984
 30
0.0
 10
85.12262503297282
 20
-122.7096503056941
 30
0.0
 10
85.04321558203782
 20
-122.783719858627
 30
0.0
 10
85.00170218144055
 20
-122.9275525951362
 30
0.0
 10
85.00170218144055
 20
-122.9275525951362
 30
0.0
 10
85.66539982667393
 20
-122.9275525951362
 30
0.0
 10
85.66539982667393
 20
-122.9275525951362
 30
0.0
 10
85.66539982667393
 20
-122.9275525951362
 30
0.0
 10
85.66539982667393
 20
-123.1327080312828
 30
0.0
 10
85.66539982667393
 20
-123.1327080312828
 30
0.0
 10
85.66539982667393
 20
-123.1327080312828
 30
0.0
 10
84.78896753522638
 20
-123.1327080312828
 30
0.0
 10
84.78896753522638
 20
-123.1327080312828
 30
0.0
 10
84.81601153478559
 20
-122.7751071199139
 30
0.0
 10
84.87182208164663
 20
-122.6969034523987
 30
0.0
 10
85.20013968139094
 20
-122.3985581833761
 30
0.0
 10
85.41838648038151
 20
-122.1997761738771
 30
0.0
 10
85.47419702724257
 20
-122.132080047592
 30
0.0
 10
85.47419702724257
 20
-121.9946207377305
 30
0.0
 10
85.47419702724257
 20
-121.8761094530379
 30
0.0
 10
85.41287432760512
 20
-121.7448513150499
 30
0.0
 10
85.24527043224771
 20
-121.7448513150499
 30
0.0
 10
85.02340628299763
 20
-121.7448513150499
 30
0.0
 10
85.0161715824786
 20
-121.9755004577874
 30
0.0
 10
85.01255423221909
 20
-122.0919446851888
 30
0.0
 10
85.01255423221909
 20
-122.0919446851888
 30
0.0
 10
84.82135143278772
 20
-122.0919446851888
 30
0.0
 10
84.82135143278772
 20
-122.0919446851888
 30
0.0
 10
84.82858613330674
 20
-121.9649929165574
 30
0.0
 10
84.83771563634266
 20
-121.8528550585125
 30
0.0
 10
84.90610078172487
 20
-121.7343437738199
 30
0.0
 10
84.99997963369792
 20
-121.573630069433
 30
0.0
 10
85.15862628079368
 20
-121.5396958789033
 30
0.0
 10
85.25784503076888
 20
-121.5396958789033
 30
0.0
 10
85.49400632628276
 20
-121.5396958789033
 30
0.0
 10
85.67073972467607
 20
-121.7238362325899
 30
0.0
 10
85.67073972467607
 20
-121.9966877950217
 30
0.0
 10
85.67073972467607
 20
-122.2250976256937
 30
0.0
 10
85.57152097470087
 20
-122.3246608852175
 30
0.0
 10
85.30831567962778
 20
-122.5510036585984
 30
0.0
  0
HATCH
  5
E1
330
DC
100
AcDbEntity
  8
_U+30EC_U+30A4_U+30E4_U+30FC 1
 62
   179
420
  2234388
100
AcDbHatch
 10
0.0
 20
0.0
 30
0.0
210
0.0
220
0.0
230
1.0
  2
SOLID
 70
     1
 71
     0
 91
        1
 92
        1
 93
        1
 72
     4
 94
        3
 73
     0
 74
     1
 95
       44
 96
       40
 40
0.0
 40
0.0
 40
0.0
 40
0.0
 40
1.0
 40
1.0
 40
1.0
 40
2.0
 40
2.0
 40
2.0
 40
3.0
 40
3.0
 40
3.0
 40
4.0
 40
4.0
 40
4.0
 40
5.0
 40
5.0
 40
5.0
 40
6.0
 40
6.0
 40
6.0
 40
7.0
 40
7.0
 40
7.0
 40
8.0
 40
8.0
 40
8.0
 40
9.0
 40
9.0
 40
9.0
 40
10.0
 40
10.0
 40
10.0
 40
11.0
 40
11.0
 40
11.0
 40
12.0
 40
12.0
 40
12.0
 40
13.0
 40
13.0
 40
13.0
 40
13.0
 10
85.30831567962778
 20
-122.5510036585984
 10
85.12262503297282
 20
-122.7096503056941
 10
85.04321558203782
 20
-122.783719858627
 10
85.00170218144055
 20
-122.9275525951362
 10
85.00170218144055
 20
-122.9275525951362
 10
85.66539982667393
 20
-122.9275525951362
 10
85.66539982667393
 20
-122.9275525951362
 10
85.66539982667393
 20
-122.9275525951362
 10
85.66539982667393
 20
-123.1327080312828
 10
85.66539982667393
 20
-123.1327080312828
 10
85.66539982667393
 20
-123.1327080312828
 10
84.78896753522638
 20
-123.1327080312828
 10
84.78896753522638
 20
-123.1327080312828
 10
84.81601153478559
 20
-122.7751071199139
 10
84.87182208164663
 20
-122.6969034523987
 10
85.20013968139094
 20
-122.3985581833761
 10
85.41838648038151
 20
-122.1997761738771
 10
85.47419702724257
 20
-122.132080047592
 10
85.47419702724257
 20
-121.9946207377305
 10
85.47419702724257
 20
-121.8761094530379
 10
85.41287432760512
 20
-121.7448513150499
 10
85.24527043224771
 20
-121.7448513150499
 10
85.02340628299763
 20
-121.7448513150499
 10
85.0161715824786
 20
-121.9755004577874
 10
85.01255423221909
 20
-122.0919446851888
 10
85.01255423221909
 20
-122.0919446851888
 10
84.82135143278772
 20
-122.0919446851888
 10
84.82135143278772
 20
-122.0919446851888
 10
84.82858613330674
 20
-121.9649929165574
 10
84.83771563634266
 20
-121.8528550585125
 10
84.90610078172487
 20
-121.7343437738199
 10
84.99997963369792
 20
-121.573630069433
 10
85.15862628079368
 20
-121.5396958789033
 10
85.25784503076888
 20
-121.5396958789033
 10
85.49400632628276
 20
-121.5396958789033
 10
85.67073972467607
 20
-121.7238362325899
 10
85.67073972467607
 20
-121.9966877950217
 10
85.67073972467607
 20
-122.2250976256937
 10
85.57152097470087
 20
-122.3246608852175
 10
85.30831567962778
 20
-122.5510036585984
 97
        0
 97
        0
 75
     2
 76
     1
 98
        0
  0
SPLINE
  5
E2
330
DC
100
AcDbEntity
  8
_U+30EC_U+30A4_U+30E4_U+30FC 1
370
     0
100
AcDbSpline
210
0.0
220
0.0
230
1.0
 70
    11
 71
     3
 72
    53
 73
    49
 74
     0
 42
0.0000000001
 43
0.0000000001
 12
1.0
 22
0.0
 32
0.0
 13
1.0
 23
0.0
 33
0.0
 40
0.0
 40
0.0
 40
0.0
 40
0.0
 40
1.0
 40
1.0
 40
1.0
 40
2.0
 40
2.0
 40
2.0
 40
3.0
 40
3.0
 40
3.0
 40
4.0
 40
4.0
 40
4.0
 40
5.0
 40
5.0
 40
5.0
 40
6.0
 40
6.0
 40
6.0
 40
7.0
 40
7.0
 40
7.0
 40
8.0
 40
8.0
 40
8.0
 40
9.0
 40
9.0
 40
9.0
 40
10.0
 40
10.0
 40
10.0
 40
11.0
 40
11.0
 40
11.0
 40
12.0
 40
12.0
 40
12.0
 40
13.0
 40
13.0
 40
13.0
 40
14.0
 40
14.0
 40
14.0
 40
15.0
 40
15.0
 40
15.0
 40
16.0
 40
16.0
 40
16.0
 40
16.0
 10
86.21454804702276
 20
-123.1835231896902
 30
0.0
 10
86.14788544938317
 20
-123.1835231896902
 30
0.0
 10
86.06124129792914
 20
-123.1666422218125
 30
0.0
 10
85.97476940124936
 20
-123.1030802101097
 30
0.0
 10
85.8268025501579
 20
-122.9930094093559
 30
0.0
 10
85.80888805363459
 20
-122.8619235261422
 30
0.0
 10
85.79252385007965
 20
-122.7540920374538
 30
0.0
 10
85.79252385007965
 20
-122.7540920374538
 30
0.0
 10
85.9820041017684
 20
-122.7540920374538
 30
0.0
 10
85.9820041017684
 20
-122.7540920374538
 30
0.0
 10
86.02885740036778
 20
-122.9528740469528
 30
0.0
 10
86.13703339860463
 20
-122.9825018681259
 30
0.0
 10
86.21644284953965
 20
-122.9825018681259
 30
0.0
 10
86.33529864378076
 20
-122.9825018681259
 30
0.0
 10
86.46517874357468
 20
-122.8831108633764
 30
0.0
 10
86.46517874357468
 20
-122.6503946633478
 30
0.0
 10
86.46517874357468
 20
-122.3944240687938
 30
0.0
 10
86.31187199448107
 20
-122.3246608852175
 30
0.0
 10
86.20920814902063
 20
-122.3246608852175
 30
0.0
 10
86.18216414946141
 20
-122.3246608852175
 30
0.0
 10
86.06124129792914
 20
-122.3246608852175
 30
0.0
 10
85.9856214520279
 20
-122.4536797111401
 30
0.0
 10
85.9856214520279
 20
-122.4536797111401
 30
0.0
 10
85.8359320531938
 20
-122.4345594311969
 30
0.0
 10
85.8359320531938
 20
-122.4345594311969
 30
0.0
 10
85.8359320531938
 20
-122.4345594311969
 30
0.0
 10
85.93859589865424
 20
-121.5884439800196
 30
0.0
 10
85.93859589865424
 20
-121.5884439800196
 30
0.0
 10
85.93859589865424
 20
-121.5884439800196
 30
0.0
 10
86.60229354388763
 20
-121.5884439800196
 30
0.0
 10
86.60229354388763
 20
-121.5884439800196
 30
0.0
 10
86.60229354388763
 20
-121.5884439800196
 30
0.0
 10
86.60229354388763
 20
-121.7830918749362
 30
0.0
 10
86.60229354388763
 20
-121.7830918749362
 30
0.0
 10
86.60229354388763
 20
-121.7830918749362
 30
0.0
 10
86.07743324670982
 20
-121.7830918749362
 30
0.0
 10
86.07743324670982
 20
-121.7830918749362
 30
0.0
 10
86.07743324670982
 20
-121.7830918749362
 30
0.0
 10
86.02162269984876
 20
-122.2061496005249
 30
0.0
 10
86.02162269984876
 20
-122.2061496005249
 30
0.0
 10
86.07398815122457
 20
-122.1722154099951
 30
0.0
 10
86.14426809912366
 20
-122.132080047592
 30
0.0
 10
86.24520939684147
 20
-122.132080047592
 30
0.0
 10
86.46156139331516
 20
-122.132080047592
 30
0.0
 10
86.66361624352507
 20
-122.3182874585697
 30
0.0
 10
86.66361624352507
 20
-122.6312743834047
 30
0.0
 10
86.66361624352507
 20
-122.9487399323705
 30
0.0
 10
86.4724134440937
 20
-123.1835231896902
 30
0.0
 10
86.21454804702276
 20
-123.1835231896902
 30
0.0
  0
HATCH
  5
E3
330
DC
100
AcDbEntity
  8
_U+30EC_U+30A4_U+30E4_U+30FC 1
 62
   179
420
  2234388
100
AcDbHatch
 10
0.0
 20
0.0
 30
0.0
210
0.0
220
0.0
230
1.0
  2
SOLID
 70
     1
 71
     0
 91
        1
 92
        1
 93
        1
 72
     4
 94
        3
 73
     0
 74
     1
 95
       53
 96
       49
 40
0.0
 40
0.0
 40
0.0
 40
0.0
 40
1.0
 40
1.0
 40
1.0
 40
2.0
 40
2.0
 40
2.0
 40
3.0
 40
3.0
 40
3.0
 40
4.0
 40
4.0
 40
4.0
 40
5.0
 40
5.0
 40
5.0
 40
6.0
 40
6.0
 40
6.0
 40
7.0
 40
7.0
 40
7.0
 40
8.0
 40
8.0
 40
8.0
 40
9.0
 40
9.0
 40
9.0
 40
10.0
 40
10.0
 40
10.0
 40
11.0
 40
11.0
 40
11.0
 40
12.0
 40
12.0
 40
12.0
 40
13.0
 40
13.0
 40
13.0
 40
14.0
 40
14.0
 40
14.0
 40
15.0
 40
15.0
 40
15.0
 40
16.0
 40
16.0
 40
16.0
 40
16.0
 10
86.21454804702276
 20
-123.1835231896902
 10
86.14788544938317
 20
-123.1835231896902
 10
86.06124129792914
 20
-123.1666422218125
 10
85.97476940124936
 20
-123.1030802101097
 10
85.8268025501579
 20
-122.9930094093559
 10
85.80888805363459
 20
-122.8619235261422
 10
85.79252385007965
 20
-122.7540920374538
 10
85.79252385007965
 20
-122.7540920374538
 10
85.9820041017684
 20
-122.7540920374538
 10
85.9820041017684
 20
-122.7540920374538
 10
86.02885740036778
 20
-122.9528740469528
 10
86.13703339860463
 20
-122.9825018681259
 10
86.21644284953965
 20
-122.9825018681259
 10
86.33529864378076
 20
-122.9825018681259
 10
86.46517874357468
 20
-122.8831108633764
 10
86.46517874357468
 20
-122.6503946633478
 10
86.46517874357468
 20
-122.3944240687938
 10
86.31187199448107
 20
-122.3246608852175
 10
86.20920814902063
 20
-122.3246608852175
 10
86.18216414946141
 20
-122.3246608852175
 10
86.06124129792914
 20
-122.3246608852175
 10
85.9856214520279
 20
-122.4536797111401
 10
85.9856214520279
 20
-122.4536797111401
 10
85.8359320531938
 20
-122.4345594311969
 10
85.8359320531938
 20
-122.4345594311969
 10
85.8359320531938
 20
-122.4345594311969
 10
85.93859589865424
 20
-121.5884439800196
 10
85.93859589865424
 20
-121.5884439800196
 10
85.93859589865424
 20
-121.5884439800196
 10
86.60229354388763
 20
-121.5884439800196
 10
86.60229354388763
 20
-121.5884439800196
 10
86.60229354388763
 20
-121.5884439800196
 10
86.60229354388763
 20
-121.7830918749362
 10
86.60229354388763
 20
-121.7830918749362
 10
86.60229354388763
 20
-121.7830918749362
 10
86.07743324670982
 20
-121.7830918749362
 10
86.07743324670982
 20
-121.7830918749362
 10
86.07743324670982
 20
-121.7830918749362
 10
86.02162269984876
 20
-122.2061496005249
 10
86.02162269984876
 20
-122.2061496005249
 10
86.07398815122457
 20
-122.1722154099951
 10
86.14426809912366
 20
-122.132080047592
 10
86.24520939684147
 20
-122.132080047592
 10
86.46156139331516
 20
-122.132080047592
 10
86.66361624352507
 20
-122.3182874585697
 10
86.66361624352507
 20
-122.6312743834047
 10
86.66361624352507
 20
-122.9487399323705
 10
86.4724134440937
 20
-123.1835231896902
 10
86.21454804702276
 20
-123.1835231896902
 97
        0
 97
        0
 75
     2
 76
     1
 98
        0
  0
ENDBLK
  5
DF
330
DC
100
AcDbEntity
  8
0
100
AcDbBlockEnd
  0
BLOCK
  5
E6
330
E4
100
AcDbEntity
  8
0
100
AcDbBlockBegin
  2
block 4
 70
     0
 10
0.0
 20
0.0
 30
0.0
  3
block 4
  1

  0
SPLINE
  5
E8
330
E4
100
AcDbEntity
  8
_U+30EC_U+30A4_U+30E4_U+30FC 1
370
     0
100
AcDbSpline
210
0.0
220
0.0
230
1.0
 70
    11
 71
     3
 72
    53
 73
    49
 74
     0
 42
0.0000000001
 43
0.0000000001
 12
1.0
 22
0.0
 32
0.0
 13
1.0
 23
0.0
 33
0.0
 40
0.0
 40
0.0
 40
0.0
 40
0.0
 40
1.0
 40
1.0
 40
1.0
 40
2.0
 40
2.0
 40
2.0
 40
3.0
 40
3.0
 40
3.0
 40
4.0
 40
4.0
 40
4.0
 40
5.0
 40
5.0
 40
5.0
 40
6.0
 40
6.0
 40
6.0
 40
7.0
 40
7.0
 40
7.0
 40
8.0
 40
8.0
 40
8.0
 40
9.0
 40
9.0
 40
9.0
 40
10.0
 40
10.0
 40
10.0
 40
11.0
 40
11.0
 40
11.0
 40
12.0
 40
12.0
 40
12.0
 40
13.0
 40
13.0
 40
13.0
 40
14.0
 40
14.0
 40
14.0
 40
15.0
 40
15.0
 40
15.0
 40
16.0
 40
16.0
 40
16.0
 40
16.0
 10
97.41662052686112
 20
-120.6369086069936
 30
0.0
 10
97.34978567444728
 20
-120.6369086069936
 30
0.0
 10
97.26331377776751
 20
-120.6200276391158
 30
0.0
 10
97.17684188108774
 20
-120.556465627413
 30
0.0
 10
97.028702775222
 20
-120.4463948266592
 30
0.0
 10
97.0107882786987
 20
-120.3153089434455
 30
0.0
 10
96.99459632991802
 20
-120.2074774547572
 30
0.0
 10
96.99459632991802
 20
-120.2074774547572
 30
0.0
 10
97.18407658160676
 20
-120.2074774547572
 30
0.0
 10
97.18407658160676
 20
-120.2074774547572
 30
0.0
 10
97.23092988020616
 20
-120.4062594642561
 30
0.0
 10
97.33910587844301
 20
-120.4358872854292
 30
0.0
 10
97.41834307460375
 20
-120.4358872854292
 30
0.0
 10
97.53719886884487
 20
-120.4358872854292
 30
0.0
 10
97.66707896863879
 20
-120.3364962806798
 30
0.0
 10
97.66707896863879
 20
-120.1037800806511
 30
0.0
 10
97.66707896863879
 20
-119.8478094860971
 30
0.0
 10
97.51377221954517
 20
-119.7780463025208
 30
0.0
 10
97.41110837408473
 20
-119.7780463025208
 30
0.0
 10
97.38423662929978
 20
-119.7780463025208
 30
0.0
 10
97.26331377776751
 20
-119.7780463025208
 30
0.0
 10
97.18752167709201
 20
-119.9070651284434
 30
0.0
 10
97.18752167709201
 20
-119.9070651284434
 30
0.0
 10
97.03800453303216
 20
-119.8879448485002
 30
0.0
 10
97.03800453303216
 20
-119.8879448485002
 30
0.0
 10
97.03800453303216
 20
-119.8879448485002
 30
0.0
 10
97.14066837849262
 20
-119.0418293973229
 30
0.0
 10
97.14066837849262
 20
-119.0418293973229
 30
0.0
 10
97.14066837849262
 20
-119.0418293973229
 30
0.0
 10
97.80419376895173
 20
-119.0418293973229
 30
0.0
 10
97.80419376895173
 20
-119.0418293973229
 30
0.0
 10
97.80419376895173
 20
-119.0418293973229
 30
0.0
 10
97.80419376895173
 20
-119.2364772922395
 30
0.0
 10
97.80419376895173
 20
-119.2364772922395
 30
0.0
 10
97.80419376895173
 20
-119.2364772922395
 30
0.0
 10
97.27950572654818
 20
-119.2364772922395
 30
0.0
 10
97.27950572654818
 20
-119.2364772922395
 30
0.0
 10
97.27950572654818
 20
-119.2364772922395
 30
0.0
 10
97.22369517968714
 20
-119.6595350178282
 30
0.0
 10
97.22369517968714
 20
-119.6595350178282
 30
0.0
 10
97.27606063106293
 20
-119.6256008272985
 30
0.0
 10
97.34634057896203
 20
-119.5854654648953
 30
0.0
 10
97.44728187667985
 20
-119.5854654648953
 30
0.0
 10
97.66363387315354
 20
-119.5854654648953
 30
0.0
 10
97.86551646858918
 20
-119.7716728758731
 30
0.0
 10
97.86551646858918
 20
-120.084659800708
 30
0.0
 10
97.86551646858918
 20
-120.4021253496738
 30
0.0
 10
97.67431366915781
 20
-120.6369086069936
 30
0.0
 10
97.41662052686112
 20
-120.6369086069936
 30
0.0
  0
HATCH
  5
E9
330
E4
100
AcDbEntity
  8
_U+30EC_U+30A4_U+30E4_U+30FC 1
 62
   179
420
  2234388
100
AcDbHatch
 10
0.0
 20
0.0
 30
0.0
210
0.0
220
0.0
230
1.0
  2
SOLID
 70
     1
 71
     0
 91
        1
 92
        1
 93
        1
 72
     4
 94
        3
 73
     0
 74
     1
 95
       53
 96
       49
 40
0.0
 40
0.0
 40
0.0
 40
0.0
 40
1.0
 40
1.0
 40
1.0
 40
2.0
 40
2.0
 40
2.0
 40
3.0
 40
3.0
 40
3.0
 40
4.0
 40
4.0
 40
4.0
 40
5.0
 40
5.0
 40
5.0
 40
6.0
 40
6.0
 40
6.0
 40
7.0
 40
7.0
 40
7.0
 40
8.0
 40
8.0
 40
8.0
 40
9.0
 40
9.0
 40
9.0
 40
10.0
 40
10.0
 40
10.0
 40
11.0
 40
11.0
 40
11.0
 40
12.0
 40
12.0
 40
12.0
 40
13.0
 40
13.0
 40
13.0
 40
14.0
 40
14.0
 40
14.0
 40
15.0
 40
15.0
 40
15.0
 40
16.0
 40
16.0
 40
16.0
 40
16.0
 10
97.41662052686112
 20
-120.6369086069936
 10
97.34978567444728
 20
-120.6369086069936
 10
97.26331377776751
 20
-120.6200276391158
 10
97.17684188108774
 20
-120.556465627413
 10
97.028702775222
 20
-120.4463948266592
 10
97.0107882786987
 20
-120.3153089434455
 10
96.99459632991802
 20
-120.2074774547572
 10
96.99459632991802
 20
-120.2074774547572
 10
97.18407658160676
 20
-120.2074774547572
 10
97.18407658160676
 20
-120.2074774547572
 10
97.23092988020616
 20
-120.4062594642561
 10
97.33910587844301
 20
-120.4358872854292
 10
97.41834307460375
 20
-120.4358872854292
 10
97.53719886884487
 20
-120.4358872854292
 10
97.66707896863879
 20
-120.3364962806798
 10
97.66707896863879
 20
-120.1037800806511
 10
97.66707896863879
 20
-119.8478094860971
 10
97.51377221954517
 20
-119.7780463025208
 10
97.41110837408473
 20
-119.7780463025208
 10
97.38423662929978
 20
-119.7780463025208
 10
97.26331377776751
 20
-119.7780463025208
 10
97.18752167709201
 20
-119.9070651284434
 10
97.18752167709201
 20
-119.9070651284434
 10
97.03800453303216
 20
-119.8879448485002
 10
97.03800453303216
 20
-119.8879448485002
 10
97.03800453303216
 20
-119.8879448485002
 10
97.14066837849262
 20
-119.0418293973229
 10
97.14066837849262
 20
-119.0418293973229
 10
97.14066837849262
 20
-119.0418293973229
 10
97.80419376895173
 20
-119.0418293973229
 10
97.80419376895173
 20
-119.0418293973229
 10
97.80419376895173
 20
-119.0418293973229
 10
97.80419376895173
 20
-119.2364772922395
 10
97.80419376895173
 20
-119.2364772922395
 10
97.80419376895173
 20
-119.2364772922395
 10
97.27950572654818
 20
-119.2364772922395
 10
97.27950572654818
 20
-119.2364772922395
 10
97.27950572654818
 20
-119.2364772922395
 10
97.22369517968714
 20
-119.6595350178282
 10
97.22369517968714
 20
-119.6595350178282
 10
97.27606063106293
 20
-119.6256008272985
 10
97.34634057896203
 20
-119.5854654648953
 10
97.44728187667985
 20
-119.5854654648953
 10
97.66363387315354
 20
-119.5854654648953
 10
97.86551646858918
 20
-119.7716728758731
 10
97.86551646858918
 20
-120.084659800708
 10
97.86551646858918
 20
-120.4021253496738
 10
97.67431366915781
 20
-120.6369086069936
 10
97.41662052686112
 20
-120.6369086069936
 97
        0
 97
        0
 75
     2
 76
     1
 98
        0
  0
POLYLINE
  5
EA
330
E4
100
AcDbEntity
  8
_U+30EC_U+30A4_U+30E4_U+30FC 1
370
     0
100
AcDb2dPolyline
 66
     1
 10
0.0
 20
0.0
 30
0.0
  0
VERTEX
  5
EB
330
EA
100
AcDbEntity
  8
_U+30EC_U+30A4_U+30E4_U+30FC 1
370
     0
100
AcDbVertex
100
AcDb2dVertex
 10
98.05947534440875
 20
-120.5860934485861
 30
0.0
  0
VERTEX
  5
EC
330
EA
100
AcDbEntity
  8
_U+30EC_U+30A4_U+30E4_U+30FC 1
370
     0
100
AcDbVertex
100
AcDb2dVertex
 10
98.05947534440875
 20
-120.3344292233886
 30
0.0
  0
VERTEX
  5
ED
330
EA
100
AcDbEntity
  8
_U+30EC_U+30A4_U+30E4_U+30FC 1
370
     0
100
AcDbVertex
100
AcDb2dVertex
 10
98.27410479313981
 20
-120.3344292233886
 30
0.0
  0
VERTEX
  5
EE
330
EA
100
AcDbEntity
  8
_U+30EC_U+30A4_U+30E4_U+30FC 1
370
     0
100
AcDbVertex
100
AcDb2dVertex
 10
98.27410479313981
 20
-120.5860934485861
 30
0.0
  0
VERTEX
  5
EF
330
EA
100
AcDbEntity
  8
_U+30EC_U+30A4_U+30E4_U+30FC 1
370
     0
100
AcDbVertex
100
AcDb2dVertex
 10
98.05947534440875
 20
-120.5860934485861
 30
0.0
  0
SEQEND
  5
F0
330
EA
100
AcDbEntity
  8
_U+30EC_U+30A4_U+30E4_U+30FC 1
370
     0
  0
HATCH
  5
F1
330
E4
100
AcDbEntity
  8
_U+30EC_U+30A4_U+30E4_U+30FC 1
 62
   179
420
  2234388
100
AcDbHatch
 10
0.0
 20
0.0
 30
0.0
210
0.0
220
0.0
230
1.0
  2
SOLID
 70
     1
 71
     0
 91
        1
 92
        1
 93
        4
 72
     1
 10
98.05947534440875
 20
-120.5860934485861
 11
98.05947534440875
 21
-120.3344292233886
 72
     1
 10
98.05947534440875
 20
-120.3344292233886
 11
98.27410479313981
 21
-120.3344292233886
 72
     1
 10
98.27410479313981
 20
-120.3344292233886
 11
98.27410479313981
 21
-120.5860934485861
 72
     1
 10
98.27410479313981
 20
-120.5860934485861
 11
98.05947534440875
 21
-120.5860934485861
 97
        0
 75
     2
 76
     1
 98
        0
  0
SPLINE
  5
F2
330
E4
100
AcDbEntity
  8
_U+30EC_U+30A4_U+30E4_U+30FC 1
370
     0
100
AcDbSpline
210
0.0
220
0.0
230
1.0
 70
    11
 71
     3
 72
    53
 73
    49
 74
     0
 42
0.0000000001
 43
0.0000000001
 12
1.0
 22
0.0
 32
0.0
 13
1.0
 23
0.0
 33
0.0
 40
0.0
 40
0.0
 40
0.0
 40
0.0
 40
1.0
 40
1.0
 40
1.0
 40
2.0
 40
2.0
 40
2.0
 40
3.0
 40
3.0
 40
3.0
 40
4.0
 40
4.0
 40
4.0
 40
5.0
 40
5.0
 40
5.0
 40
6.0
 40
6.0
 40
6.0
 40
7.0
 40
7.0
 40
7.0
 40
8.0
 40
8.0
 40
8.0
 40
9.0
 40
9.0
 40
9.0
 40
10.0
 40
10.0
 40
10.0
 40
11.0
 40
11.0
 40
11.0
 40
12.0
 40
12.0
 40
12.0
 40
13.0
 40
13.0
 40
13.0
 40
14.0
 40
14.0
 40
14.0
 40
15.0
 40
15.0
 40
15.0
 40
16.0
 40
16.0
 40
16.0
 40
16.0
 10
98.88492022267461
 20
-120.6369086069936
 30
0.0
 10
98.81842987980929
 20
-120.6369086069936
 30
0.0
 10
98.73161347358099
 20
-120.6200276391158
 30
0.0
 10
98.64514157690122
 20
-120.556465627413
 30
0.0
 10
98.497346980584
 20
-120.4463948266592
 30
0.0
 10
98.47943248406071
 20
-120.3153089434455
 30
0.0
 10
98.4628960257315
 20
-120.2074774547572
 30
0.0
 10
98.4628960257315
 20
-120.2074774547572
 30
0.0
 10
98.65237627742025
 20
-120.2074774547572
 30
0.0
 10
98.65237627742025
 20
-120.2074774547572
 30
0.0
 10
98.69922957601965
 20
-120.4062594642561
 30
0.0
 10
98.80740557425649
 20
-120.4358872854292
 30
0.0
 10
98.88698727996575
 20
-120.4358872854292
 30
0.0
 10
99.00584307420688
 20
-120.4358872854292
 30
0.0
 10
99.1357231740008
 20
-120.3364962806798
 30
0.0
 10
99.1357231740008
 20
-120.1037800806511
 30
0.0
 10
99.1357231740008
 20
-119.8478094860971
 30
0.0
 10
98.98241642490717
 20
-119.7780463025208
 30
0.0
 10
98.87975257944673
 20
-119.7780463025208
 30
0.0
 10
98.85253632511326
 20
-119.7780463025208
 30
0.0
 10
98.73161347358099
 20
-119.7780463025208
 30
0.0
 10
98.65616588245402
 20
-119.9070651284434
 30
0.0
 10
98.65616588245402
 20
-119.9070651284434
 30
0.0
 10
98.50630422884565
 20
-119.8879448485002
 30
0.0
 10
98.50630422884565
 20
-119.8879448485002
 30
0.0
 10
98.50630422884565
 20
-119.8879448485002
 30
0.0
 10
98.60896807430609
 20
-119.0418293973229
 30
0.0
 10
98.60896807430609
 20
-119.0418293973229
 30
0.0
 10
98.60896807430609
 20
-119.0418293973229
 30
0.0
 10
99.27283797431375
 20
-119.0418293973229
 30
0.0
 10
99.27283797431375
 20
-119.0418293973229
 30
0.0
 10
99.27283797431375
 20
-119.0418293973229
 30
0.0
 10
99.27283797431375
 20
-119.2364772922395
 30
0.0
 10
99.27283797431375
 20
-119.2364772922395
 30
0.0
 10
99.27283797431375
 20
-119.2364772922395
 30
0.0
 10
98.74780542236167
 20
-119.2364772922395
 30
0.0
 10
98.74780542236167
 20
-119.2364772922395
 30
0.0
 10
98.74780542236167
 20
-119.2364772922395
 30
0.0
 10
98.69199487550061
 20
-119.6595350178282
 30
0.0
 10
98.69199487550061
 20
-119.6595350178282
 30
0.0
 10
98.74436032687642
 20
-119.6256008272985
 30
0.0
 10
98.81464027477551
 20
-119.5854654648953
 30
0.0
 10
98.91558157249334
 20
-119.5854654648953
 30
0.0
 10
99.13193356896703
 20
-119.5854654648953
 30
0.0
 10
99.33416067395119
 20
-119.7716728758731
 30
0.0
 10
99.33416067395119
 20
-120.084659800708
 30
0.0
 10
99.33416067395119
 20
-120.4021253496738
 30
0.0
 10
99.14295787451982
 20
-120.6369086069936
 30
0.0
 10
98.88492022267461
 20
-120.6369086069936
 30
0.0
  0
HATCH
  5
F3
330
E4
100
AcDbEntity
  8
_U+30EC_U+30A4_U+30E4_U+30FC 1
 62
   179
420
  2234388
100
AcDbHatch
 10
0.0
 20
0.0
 30
0.0
210
0.0
220
0.0
230
1.0
  2
SOLID
 70
     1
 71
     0
 91
        1
 92
        1
 93
        1
 72
     4
 94
        3
 73
     0
 74
     1
 95
       53
 96
       49
 40
0.0
 40
0.0
 40
0.0
 40
0.0
 40
1.0
 40
1.0
 40
1.0
 40
2.0
 40
2.0
 40
2.0
 40
3.0
 40
3.0
 40
3.0
 40
4.0
 40
4.0
 40
4.0
 40
5.0
 40
5.0
 40
5.0
 40
6.0
 40
6.0
 40
6.0
 40
7.0
 40
7.0
 40
7.0
 40
8.0
 40
8.0
 40
8.0
 40
9.0
 40
9.0
 40
9.0
 40
10.0
 40
10.0
 40
10.0
 40
11.0
 40
11.0
 40
11.0
 40
12.0
 40
12.0
 40
12.0
 40
13.0
 40
13.0
 40
13.0
 40
14.0
 40
14.0
 40
14.0
 40
15.0
 40
15.0
 40
15.0
 40
16.0
 40
16.0
 40
16.0
 40
16.0
 10
98.88492022267461
 20
-120.6369086069936
 10
98.81842987980929
 20
-120.6369086069936
 10
98.73161347358099
 20
-120.6200276391158
 10
98.64514157690122
 20
-120.556465627413
 10
98.497346980584
 20
-120.4463948266592
 10
98.47943248406071
 20
-120.3153089434455
 10
98.4628960257315
 20
-120.2074774547572
 10
98.4628960257315
 20
-120.2074774547572
 10
98.65237627742025
 20
-120.2074774547572
 10
98.65237627742025
 20
-120.2074774547572
 10
98.69922957601965
 20
-120.4062594642561
 10
98.80740557425649
 20
-120.4358872854292
 10
98.88698727996575
 20
-120.4358872854292
 10
99.00584307420688
 20
-120.4358872854292
 10
99.1357231740008
 20
-120.3364962806798
 10
99.1357231740008
 20
-120.1037800806511
 10
99.1357231740008
 20
-119.8478094860971
 10
98.98241642490717
 20
-119.7780463025208
 10
98.87975257944673
 20
-119.7780463025208
 10
98.85253632511326
 20
-119.7780463025208
 10
98.73161347358099
 20
-119.7780463025208
 10
98.65616588245402
 20
-119.9070651284434
 10
98.65616588245402
 20
-119.9070651284434
 10
98.50630422884565
 20
-119.8879448485002
 10
98.50630422884565
 20
-119.8879448485002
 10
98.50630422884565
 20
-119.8879448485002
 10
98.60896807430609
 20
-119.0418293973229
 10
98.60896807430609
 20
-119.0418293973229
 10
98.60896807430609
 20
-119.0418293973229
 10
99.27283797431375
 20
-119.0418293973229
 10
99.27283797431375
 20
-119.0418293973229
 10
99.27283797431375
 20
-119.0418293973229
 10
99.27283797431375
 20
-119.2364772922395
 10
99.27283797431375
 20
-119.2364772922395
 10
99.27283797431375
 20
-119.2364772922395
 10
98.74780542236167
 20
-119.2364772922395
 10
98.74780542236167
 20
-119.2364772922395
 10
98.74780542236167
 20
-119.2364772922395
 10
98.69199487550061
 20
-119.6595350178282
 10
98.69199487550061
 20
-119.6595350178282
 10
98.74436032687642
 20
-119.6256008272985
 10
98.81464027477551
 20
-119.5854654648953
 10
98.91558157249334
 20
-119.5854654648953
 10
99.13193356896703
 20
-119.5854654648953
 10
99.33416067395119
 20
-119.7716728758731
 10
99.33416067395119
 20
-120.084659800708
 10
99.33416067395119
 20
-120.4021253496738
 10
99.14295787451982
 20
-120.6369086069936
 10
98.88492022267461
 20
-120.6369086069936
 97
        0
 97
        0
 75
     2
 76
     1
 98
        0
  0
ENDBLK
  5
E7
330
E4
100
AcDbEntity
  8
0
100
AcDbBlockEnd
  0
ENDSEC
  0
SECTION
  2
ENTITIES
  0
POLYLINE
  5
41
330
1F
100
AcDbEntity
  8
_U+30EC_U+30A4_U+30E4_U+30FC 1
 62
   178
420
        0
370
     9
100
AcDb2dPolyline
 66
     1
 10
0.0
 20
0.0
 30
0.0
  0
VERTEX
  5
42
330
41
100
AcDbEntity
  8
_U+30EC_U+30A4_U+30E4_U+30FC 1
 62
   178
420
        0
370
     9
100
AcDbVertex
100
AcDb2dVertex
 10
87.05412333461985
 20
-128.9747441344231
 30
0.0
  0
VERTEX
  5
43
330
41
100
AcDbEntity
  8
_U+30EC_U+30A4_U+30E4_U+30FC 1
 62
   178
420
        0
370
     9
100
AcDbVertex
100
AcDb2dVertex
 10
87.03136916853369
 20
-131.5771505226611
 30
0.0
  0
VERTEX
  5
44
330
41
100
AcDbEntity
  8
_U+30EC_U+30A4_U+30E4_U+30FC 1
 62
   178
420
        0
370
     9
100
AcDbVertex
100
AcDb2dVertex
 10
85.24543171409674
 20
-132.8335685779025
 30
0.0
  0
VERTEX
  5
45
330
41
100
AcDbEntity
  8
_U+30EC_U+30A4_U+30E4_U+30FC 1
 62
   178
420
        0
370
     9
100
AcDbVertex
100
AcDb2dVertex
 10
84.98084838751349
 20
-132.6792283001633
 30
0.0
  0
VERTEX
  5
46
330
41
100
AcDbEntity
  8
_U+30EC_U+30A4_U+30E4_U+30FC 1
 62
   178
420
        0
370
     9
100
AcDbVertex
100
AcDb2dVertex
 10
84.45168173434699
 20
-133.0761033000641
 30
0.0
  0
VERTEX
  5
47
330
41
100
AcDbEntity
  8
_U+30EC_U+30A4_U+30E4_U+30FC 1
 62
   178
420
        0
370
     9
100
AcDbVertex
100
AcDb2dVertex
 10
84.45168173434699
 20
-133.8037074665488
 30
0.0
  0
VERTEX
  5
48
330
41
100
AcDbEntity
  8
_U+30EC_U+30A4_U+30E4_U+30FC 1
 62
   178
420
        0
370
     9
100
AcDbVertex
100
AcDb2dVertex
 10
92.65376485842775
 20
-138.3457213543022
 30
0.0
  0
VERTEX
  5
49
330
41
100
AcDbEntity
  8
_U+30EC_U+30A4_U+30E4_U+30FC 1
 62
   178
420
        0
370
     9
100
AcDbVertex
100
AcDb2dVertex
 10
93.47026900426366
 20
-137.8386032988735
 30
0.0
  0
VERTEX
  5
4A
330
41
100
AcDbEntity
  8
_U+30EC_U+30A4_U+30E4_U+30FC 1
 62
   178
420
        0
370
     9
100
AcDbVertex
100
AcDb2dVertex
 10
94.1978731523676
 20
-136.3833949659039
 30
0.0
  0
VERTEX
  5
4B
330
41
100
AcDbEntity
  8
_U+30EC_U+30A4_U+30E4_U+30FC 1
 62
   178
420
        0
370
     9
100
AcDbVertex
100
AcDb2dVertex
 10
94.17511898628145
 20
-131.3342630227218
 30
0.0
  0
VERTEX
  5
4C
330
41
100
AcDbEntity
  8
_U+30EC_U+30A4_U+30E4_U+30FC 1
 62
   178
420
        0
370
     9
100
AcDbVertex
100
AcDb2dVertex
 10
93.38136900653168
 20
-130.9818380228099
 30
0.0
  0
VERTEX
  5
4D
330
41
100
AcDbEntity
  8
_U+30EC_U+30A4_U+30E4_U+30FC 1
 62
   178
420
        0
370
     9
100
AcDbVertex
100
AcDb2dVertex
 10
92.21349820299322
 20
-130.2094663563366
 30
0.0
  0
VERTEX
  5
4E
330
41
100
AcDbEntity
  8
_U+30EC_U+30A4_U+30E4_U+30FC 1
 62
   178
420
        0
370
     9
100
AcDbVertex
100
AcDb2dVertex
 10
94.33016481565923
 20
-129.0849871899511
 30
0.0
  0
VERTEX
  5
4F
330
41
100
AcDbEntity
  8
_U+30EC_U+30A4_U+30E4_U+30FC 1
 62
   178
420
        0
370
     9
100
AcDbVertex
100
AcDb2dVertex
 10
94.28606759456201
 20
-124.0580449689856
 30
0.0
  0
VERTEX
  5
50
330
41
100
AcDbEntity
  8
_U+30EC_U+30A4_U+30E4_U+30FC 1
 62
   178
420
        0
370
     9
100
AcDbVertex
100
AcDb2dVertex
 10
93.22773428822902
 20
-122.5366908026992
 30
0.0
  0
VERTEX
  5
51
330
41
100
AcDbEntity
  8
_U+30EC_U+30A4_U+30E4_U+30FC 1
 62
   178
420
        0
370
     9
100
AcDbVertex
100
AcDb2dVertex
 10
92.34578986628485
 20
-122.0075241361648
 30
0.0
  0
VERTEX
  5
52
330
41
100
AcDbEntity
  8
_U+30EC_U+30A4_U+30E4_U+30FC 1
 62
   178
420
        0
370
     9
100
AcDbVertex
100
AcDb2dVertex
 10
84.36419284769013
 20
-126.7478344127576
 30
0.0
  0
VERTEX
  5
53
330
41
100
AcDbEntity
  8
_U+30EC_U+30A4_U+30E4_U+30FC 1
 62
   178
420
        0
370
     9
100
AcDbVertex
100
AcDb2dVertex
 10
84.36419284769013
 20
-127.3651955237143
 30
0.0
  0
VERTEX
  5
54
330
41
100
AcDbEntity
  8
_U+30EC_U+30A4_U+30E4_U+30FC 1
 62
   178
420
        0
370
     9
100
AcDbVertex
100
AcDb2dVertex
 10
87.05412333461985
 20
-128.9747441344231
 30
0.0
  0
SEQEND
  5
55
330
41
100
AcDbEntity
  8
_U+30EC_U+30A4_U+30E4_U+30FC 1
 62
   178
420
        0
370
     9
  0
SPLINE
  5
56
330
1F
100
AcDbEntity
  8
_U+30EC_U+30A4_U+30E4_U+30FC 1
 62
   178
420
        0
370
     9
100
AcDbSpline
210
0.0
220
0.0
230
1.0
 70
    11
 71
     3
 72
    29
 73
    25
 74
     0
 42
0.0000000001
 43
0.0000000001
 12
1.0
 22
0.0
 32
0.0
 13
1.0
 23
0.0
 33
0.0
 40
0.0
 40
0.0
 40
0.0
 40
0.0
 40
1.0
 40
1.0
 40
1.0
 40
2.0
 40
2.0
 40
2.0
 40
3.0
 40
3.0
 40
3.0
 40
4.0
 40
4.0
 40
4.0
 40
5.0
 40
5.0
 40
5.0
 40
6.0
 40
6.0
 40
6.0
 40
7.0
 40
7.0
 40
7.0
 40
8.0
 40
8.0
 40
8.0
 40
8.0
 10
90.5378038012993
 20
-130.407903856287
 30
0.0
 10
90.5378038012993
 20
-130.407903856287
 30
0.0
 10
90.93467879117418
 20
-130.628389967343
 30
0.0
 10
90.93467879117418
 20
-130.628389967343
 30
0.0
 10
90.93467879117418
 20
-130.628389967343
 30
0.0
 10
90.95672740172279
 20
-134.5313116330336
 30
0.0
 10
90.95672740172279
 20
-134.5313116330336
 30
0.0
 10
90.95672740172279
 20
-134.5313116330336
 30
0.0
 10
90.14092881142443
 20
-135.8101310771584
 30
0.0
 10
90.14092881142443
 20
-135.8101310771584
 30
0.0
 10
90.14092881142443
 20
-135.8101310771584
 30
0.0
 10
89.61105660272037
 20
-136.0967630215311
 30
0.0
 10
89.58971354770932
 20
-136.5156866325375
 30
0.0
 10
89.58971354770932
 20
-136.5156866325375
 30
0.0
 10
89.34717883167468
 20
-136.3833949659039
 30
0.0
 10
89.34717883167468
 20
-136.3833949659039
 30
0.0
 10
89.34717883167468
 20
-136.3833949659039
 30
0.0
 10
89.19283855783445
 20
-135.611693577208
 30
0.0
 10
89.83224826374396
 20
-135.50145052168
 30
0.0
 10
89.83224826374396
 20
-135.50145052168
 30
0.0
 10
90.5157551907507
 20
-134.4210685775056
 30
0.0
 10
90.5157551907507
 20
-134.4210685775056
 30
0.0
 10
90.5157551907507
 20
-134.4210685775056
 30
0.0
 10
90.5378038012993
 20
-130.407903856287
 30
0.0
 10
90.5378038012993
 20
-130.407903856287
 30
0.0
  0
POLYLINE
  5
57
330
1F
100
AcDbEntity
  8
_U+30EC_U+30A4_U+30E4_U+30FC 1
 62
     7
420
 16777215
370
    18
100
AcDb2dPolyline
 66
     1
 10
0.0
 20
0.0
 30
0.0
  0
VERTEX
  5
58
330
57
100
AcDbEntity
  8
_U+30EC_U+30A4_U+30E4_U+30FC 1
 62
     7
420
 16777215
370
    18
100
AcDbVertex
100
AcDb2dVertex
 10
84.3972481246246
 20
-126.7919316349688
 30
0.0
  0
VERTEX
  5
59
330
57
100
AcDbEntity
  8
_U+30EC_U+30A4_U+30E4_U+30FC 1
 62
     7
420
 16777215
370
    18
100
AcDbVertex
100
AcDb2dVertex
 10
92.53318541705954
 20
-131.5216938560084
 30
0.0
  0
VERTEX
  5
5A
330
57
100
AcDbEntity
  8
_U+30EC_U+30A4_U+30E4_U+30FC 1
 62
     7
420
 16777215
370
    18
100
AcDbVertex
100
AcDb2dVertex
 10
93.3930812284551
 20
-130.9921744116963
 30
0.0
  0
VERTEX
  5
5B
330
57
100
AcDbEntity
  8
_U+30EC_U+30A4_U+30E4_U+30FC 1
 62
     7
420
 16777215
370
    18
100
AcDbVertex
100
AcDb2dVertex
 10
94.18683120820486
 20
-131.323256356058
 30
0.0
  0
VERTEX
  5
5C
330
57
100
AcDbEntity
  8
_U+30EC_U+30A4_U+30E4_U+30FC 1
 62
     7
420
 16777215
370
    18
100
AcDbVertex
100
AcDb2dVertex
 10
94.18683120820486
 20
-136.3833949659039
 30
0.0
  0
VERTEX
  5
5D
330
57
100
AcDbEntity
  8
_U+30EC_U+30A4_U+30E4_U+30FC 1
 62
     7
420
 16777215
370
    18
100
AcDbVertex
100
AcDb2dVertex
 10
93.45922706010091
 20
-137.8716938544209
 30
0.0
  0
VERTEX
  5
5E
330
57
100
AcDbEntity
  8
_U+30EC_U+30A4_U+30E4_U+30FC 1
 62
     7
420
 16777215
370
    18
100
AcDbVertex
100
AcDb2dVertex
 10
92.66547708035117
 20
-138.3347146876385
 30
0.0
  0
VERTEX
  5
5F
330
57
100
AcDbEntity
  8
_U+30EC_U+30A4_U+30E4_U+30FC 1
 62
     7
420
 16777215
370
    18
100
AcDbVertex
100
AcDb2dVertex
 10
84.52953978791622
 20
-133.7706521887795
 30
0.0
  0
SEQEND
  5
60
330
57
100
AcDbEntity
  8
_U+30EC_U+30A4_U+30E4_U+30FC 1
 62
     7
420
 16777215
370
    18
  0
POLYLINE
  5
61
330
1F
100
AcDbEntity
  8
_U+30EC_U+30A4_U+30E4_U+30FC 1
 62
     7
420
 16777215
370
     9
100
AcDb2dPolyline
 66
     1
 10
0.0
 20
0.0
 30
0.0
  0
VERTEX
  5
62
330
61
100
AcDbEntity
  8
_U+30EC_U+30A4_U+30E4_U+30FC 1
 62
     7
420
 16777215
370
     9
100
AcDbVertex
100
AcDb2dVertex
 10
93.49231761481226
 20
-130.9921744116963
 30
0.0
  0
VERTEX
  5
63
330
61
100
AcDbEntity
  8
_U+30EC_U+30A4_U+30E4_U+30FC 1
 62
     7
420
 16777215
370
     9
100
AcDbVertex
100
AcDb2dVertex
 10
86.28242196541869
 20
-126.6926952461045
 30
0.0
  0
VERTEX
  5
64
330
61
100
AcDbEntity
  8
_U+30EC_U+30A4_U+30E4_U+30FC 1
 62
     7
420
 16777215
370
     9
100
AcDbVertex
100
AcDb2dVertex
 10
84.36419284769013
 20
-126.7588410794213
 30
0.0
  0
SEQEND
  5
65
330
61
100
AcDbEntity
  8
_U+30EC_U+30A4_U+30E4_U+30FC 1
 62
     7
420
 16777215
370
     9
  0
POLYLINE
  5
66
330
1F
100
AcDbEntity
  8
_U+30EC_U+30A4_U+30E4_U+30FC 1
 62
     7
420
 16777215
370
     9
100
AcDb2dPolyline
 66
     1
 10
0.0
 20
0.0
 30
0.0
  0
VERTEX
  5
67
330
66
100
AcDbEntity
  8
_U+30EC_U+30A4_U+30E4_U+30FC 1
 62
     7
420
 16777215
370
     9
100
AcDbVertex
100
AcDb2dVertex
 10
84.33110229297878
 20
-126.725785801652
 30
0.0
  0
VERTEX
  5
68
330
66
100
AcDbEntity
  8
_U+30EC_U+30A4_U+30E4_U+30FC 1
 62
     7
420
 16777215
370
     9
100
AcDbVertex
100
AcDb2dVertex
 10
92.36783847683346
 20
-121.9965174695008
 30
0.0
  0
VERTEX
  5
69
330
66
100
AcDbEntity
  8
_U+30EC_U+30A4_U+30E4_U+30FC 1
 62
     7
420
 16777215
370
     9
100
AcDbVertex
100
AcDb2dVertex
 10
93.32693539680929
 20
-122.591829969352
 30
0.0
  0
VERTEX
  5
6A
330
66
100
AcDbEntity
  8
_U+30EC_U+30A4_U+30E4_U+30FC 1
 62
     7
420
 16777215
370
     9
100
AcDbVertex
100
AcDb2dVertex
 10
94.28606759456201
 20
-124.0470383023215
 30
0.0
  0
VERTEX
  5
6B
330
66
100
AcDbEntity
  8
_U+30EC_U+30A4_U+30E4_U+30FC 1
 62
     7
420
 16777215
370
     9
100
AcDbVertex
100
AcDb2dVertex
 10
94.31912287149649
 20
-129.0739452455092
 30
0.0
  0
VERTEX
  5
6C
330
66
100
AcDbEntity
  8
_U+30EC_U+30A4_U+30E4_U+30FC 1
 62
     7
420
 16777215
370
     9
100
AcDbVertex
100
AcDb2dVertex
 10
92.20245625883048
 20
-130.1984244118947
 30
0.0
  0
SEQEND
  5
6D
330
66
100
AcDbEntity
  8
_U+30EC_U+30A4_U+30E4_U+30FC 1
 62
     7
420
 16777215
370
     9
  0
POLYLINE
  5
6E
330
1F
100
AcDbEntity
  8
_U+30EC_U+30A4_U+30E4_U+30FC 1
 62
     7
420
 16777215
370
     9
100
AcDb2dPolyline
 66
     1
 10
0.0
 20
0.0
 30
0.0
  0
VERTEX
  5
6F
330
6E
100
AcDbEntity
  8
_U+30EC_U+30A4_U+30E4_U+30FC 1
 62
     7
420
 16777215
370
     9
100
AcDbVertex
100
AcDb2dVertex
 10
86.28242196541869
 20
-126.6926952461045
 30
0.0
  0
VERTEX
  5
70
330
6E
100
AcDbEntity
  8
_U+30EC_U+30A4_U+30E4_U+30FC 1
 62
     7
420
 16777215
370
     9
100
AcDbVertex
100
AcDb2dVertex
 10
93.1615884565832
 20
-122.5256841360352
 30
0.0
  0
SEQEND
  5
71
330
6E
100
AcDbEntity
  8
_U+30EC_U+30A4_U+30E4_U+30FC 1
 62
     7
420
 16777215
370
     9
  0
POLYLINE
  5
72
330
1F
100
AcDbEntity
  8
_U+30EC_U+30A4_U+30E4_U+30FC 1
 62
     7
420
 16777215
370
     9
100
AcDb2dPolyline
 66
     1
 10
0.0
 20
0.0
 30
0.0
  0
VERTEX
  5
73
330
72
100
AcDbEntity
  8
_U+30EC_U+30A4_U+30E4_U+30FC 1
 62
     7
420
 16777215
370
     9
100
AcDbVertex
100
AcDb2dVertex
 10
94.2199217629162
 20
-124.1131841356383
 30
0.0
  0
VERTEX
  5
74
330
72
100
AcDbEntity
  8
_U+30EC_U+30A4_U+30E4_U+30FC 1
 62
     7
420
 16777215
370
     9
100
AcDbVertex
100
AcDb2dVertex
 10
88.06835941985564
 20
-127.7179733014039
 30
0.0
  0
SEQEND
  5
75
330
72
100
AcDbEntity
  8
_U+30EC_U+30A4_U+30E4_U+30FC 1
 62
     7
420
 16777215
370
     9
  0
POLYLINE
  5
76
330
1F
100
AcDbEntity
  8
_U+30EC_U+30A4_U+30E4_U+30FC 1
 62
     7
420
 16777215
370
     9
100
AcDb2dPolyline
 66
     1
 10
0.0
 20
0.0
 30
0.0
  0
VERTEX
  5
77
330
76
100
AcDbEntity
  8
_U+30EC_U+30A4_U+30E4_U+30FC 1
 62
     7
420
 16777215
370
     9
100
AcDbVertex
100
AcDb2dVertex
 10
84.33110229297878
 20
-126.7919316349688
 30
0.0
  0
VERTEX
  5
78
330
76
100
AcDbEntity
  8
_U+30EC_U+30A4_U+30E4_U+30FC 1
 62
     7
420
 16777215
370
     9
100
AcDbVertex
100
AcDb2dVertex
 10
84.36419284769013
 20
-127.38724413482
 30
0.0
  0
VERTEX
  5
79
330
76
100
AcDbEntity
  8
_U+30EC_U+30A4_U+30E4_U+30FC 1
 62
     7
420
 16777215
370
     9
100
AcDbVertex
100
AcDb2dVertex
 10
89.32513022112607
 20
-130.2315149674422
 30
0.0
  0
VERTEX
  5
7A
330
76
100
AcDbEntity
  8
_U+30EC_U+30A4_U+30E4_U+30FC 1
 62
     7
420
 16777215
370
     9
100
AcDbVertex
100
AcDb2dVertex
 10
89.72200521100095
 20
-129.966931634175
 30
0.0
  0
SEQEND
  5
7B
330
76
100
AcDbEntity
  8
_U+30EC_U+30A4_U+30E4_U+30FC 1
 62
     7
420
 16777215
370
     9
  0
POLYLINE
  5
7C
330
1F
100
AcDbEntity
  8
_U+30EC_U+30A4_U+30E4_U+30FC 1
 62
     7
420
 16777215
370
     9
100
AcDb2dPolyline
 66
     1
 10
0.0
 20
0.0
 30
0.0
  0
VERTEX
  5
7D
330
7C
100
AcDbEntity
  8
_U+30EC_U+30A4_U+30E4_U+30FC 1
 62
     7
420
 16777215
370
     9
100
AcDbVertex
100
AcDb2dVertex
 10
89.32513022112607
 20
-130.2315149674422
 30
0.0
  0
VERTEX
  5
7E
330
7C
100
AcDbEntity
  8
_U+30EC_U+30A4_U+30E4_U+30FC 1
 62
     7
420
 16777215
370
     9
100
AcDbVertex
100
AcDb2dVertex
 10
89.32513022112607
 20
-129.636202467591
 30
0.0
  0
SEQEND
  5
7F
330
7C
100
AcDbEntity
  8
_U+30EC_U+30A4_U+30E4_U+30FC 1
 62
     7
420
 16777215
370
     9
  0
POLYLINE
  5
80
330
1F
100
AcDbEntity
  8
_U+30EC_U+30A4_U+30E4_U+30FC 1
 62
     7
420
 16777215
370
     9
100
AcDb2dPolyline
 66
     1
 10
0.0
 20
0.0
 30
0.0
  0
VERTEX
  5
81
330
80
100
AcDbEntity
  8
_U+30EC_U+30A4_U+30E4_U+30FC 1
 62
     7
420
 16777215
370
     9
100
AcDbVertex
100
AcDb2dVertex
 10
87.0430813904571
 20
-128.9416535788756
 30
0.0
  0
VERTEX
  5
82
330
80
100
AcDbEntity
  8
_U+30EC_U+30A4_U+30E4_U+30FC 1
 62
     7
420
 16777215
370
     9
100
AcDbVertex
100
AcDb2dVertex
 10
87.0430813904571
 20
-132.5138813557604
 30
0.0
  0
VERTEX
  5
83
330
80
100
AcDbEntity
  8
_U+30EC_U+30A4_U+30E4_U+30FC 1
 62
     7
420
 16777215
370
     9
100
AcDbVertex
100
AcDb2dVertex
 10
85.19099810437434
 20
-132.7784646890276
 30
0.0
  0
SEQEND
  5
84
330
80
100
AcDbEntity
  8
_U+30EC_U+30A4_U+30E4_U+30FC 1
 62
     7
420
 16777215
370
     9
  0
POLYLINE
  5
85
330
1F
100
AcDbEntity
  8
_U+30EC_U+30A4_U+30E4_U+30FC 1
 62
     7
420
 16777215
370
     9
100
AcDb2dPolyline
 66
     1
 10
0.0
 20
0.0
 30
0.0
  0
VERTEX
  5
86
330
85
100
AcDbEntity
  8
_U+30EC_U+30A4_U+30E4_U+30FC 1
 62
     7
420
 16777215
370
     9
100
AcDbVertex
100
AcDb2dVertex
 10
87.0430813904571
 20
-132.5138813557604
 30
0.0
  0
VERTEX
  5
87
330
85
100
AcDbEntity
  8
_U+30EC_U+30A4_U+30E4_U+30FC 1
 62
     7
420
 16777215
370
     9
100
AcDbVertex
100
AcDb2dVertex
 10
90.5157551907507
 20
-134.3990199664
 30
0.0
  0
SEQEND
  5
88
330
85
100
AcDbEntity
  8
_U+30EC_U+30A4_U+30E4_U+30FC 1
 62
     7
420
 16777215
370
     9
  0
POLYLINE
  5
89
330
1F
100
AcDbEntity
  8
_U+30EC_U+30A4_U+30E4_U+30FC 1
 62
     7
420
 16777215
370
     9
100
AcDb2dPolyline
 66
     1
 10
0.0
 20
0.0
 30
0.0
  0
VERTEX
  5
8A
330
89
100
AcDbEntity
  8
_U+30EC_U+30A4_U+30E4_U+30FC 1
 62
     7
420
 16777215
370
     9
100
AcDbVertex
100
AcDb2dVertex
 10
90.94568545756005
 20
-134.5644021885811
 30
0.0
  0
VERTEX
  5
8B
330
89
100
AcDbEntity
  8
_U+30EC_U+30A4_U+30E4_U+30FC 1
 62
     7
420
 16777215
370
     9
100
AcDbVertex
100
AcDb2dVertex
 10
94.05453954491324
 20
-136.3833949659039
 30
0.0
  0
SEQEND
  5
8C
330
89
100
AcDbEntity
  8
_U+30EC_U+30A4_U+30E4_U+30FC 1
 62
     7
420
 16777215
370
     9
  0
POLYLINE
  5
8D
330
1F
100
AcDbEntity
  8
_U+30EC_U+30A4_U+30E4_U+30FC 1
 62
     7
420
 16777215
370
     9
100
AcDb2dPolyline
 66
     1
 10
0.0
 20
0.0
 30
0.0
  0
VERTEX
  5
8E
330
8D
100
AcDbEntity
  8
_U+30EC_U+30A4_U+30E4_U+30FC 1
 62
     7
420
 16777215
370
     9
100
AcDbVertex
100
AcDb2dVertex
 10
93.42617178316645
 20
-137.8386032988735
 30
0.0
  0
VERTEX
  5
8F
330
8D
100
AcDbEntity
  8
_U+30EC_U+30A4_U+30E4_U+30FC 1
 62
     7
420
 16777215
370
     9
100
AcDbVertex
100
AcDb2dVertex
 10
90.1519354778103
 20
-135.8211730216002
 30
0.0
  0
SEQEND
  5
90
330
8D
100
AcDbEntity
  8
_U+30EC_U+30A4_U+30E4_U+30FC 1
 62
     7
420
 16777215
370
     9
  0
SPLINE
  5
91
330
1F
100
AcDbEntity
  8
_U+30EC_U+30A4_U+30E4_U+30FC 1
 62
     7
420
 16777215
370
     9
100
AcDbSpline
210
0.0
220
0.0
230
1.0
 70
     8
 71
     3
 72
    14
 73
    10
 74
     0
 42
0.0000000001
 43
0.0000000001
 12
1.0
 22
0.0
 32
0.0
 13
1.0
 23
0.0
 33
0.0
 40
0.0
 40
0.0
 40
0.0
 40
0.0
 40
1.0
 40
1.0
 40
1.0
 40
2.0
 40
2.0
 40
2.0
 40
3.0
 40
3.0
 40
3.0
 40
3.0
 10
90.94568545756005
 20
-130.7275910784291
 30
0.0
 10
90.94568545756005
 20
-130.7275910784291
 30
0.0
 10
90.94568545756005
 20
-134.5313116330336
 30
0.0
 10
90.94568545756005
 20
-134.5313116330336
 30
0.0
 10
90.94568545756005
 20
-134.5313116330336
 30
0.0
 10
90.1519354778103
 20
-135.8211730216002
 30
0.0
 10
90.1519354778103
 20
-135.8211730216002
 30
0.0
 10
90.1519354778103
 20
-135.8211730216002
 30
0.0
 10
89.58971354770932
 20
-135.9865199660032
 30
0.0
 10
89.58971354770932
 20
-136.5156866325375
 30
0.0
  0
SPLINE
  5
92
330
1F
100
AcDbEntity
  8
_U+30EC_U+30A4_U+30E4_U+30FC 1
 62
     7
420
 16777215
370
     9
100
AcDbSpline
210
0.0
220
0.0
230
1.0
 70
     8
 71
     3
 72
    14
 73
    10
 74
     0
 42
0.0000000001
 43
0.0000000001
 12
1.0
 22
0.0
 32
0.0
 13
1.0
 23
0.0
 33
0.0
 40
0.0
 40
0.0
 40
0.0
 40
0.0
 40
1.0
 40
1.0
 40
1.0
 40
2.0
 40
2.0
 40
2.0
 40
3.0
 40
3.0
 40
3.0
 40
3.0
 10
90.54881046768517
 20
-130.4299524673926
 30
0.0
 10
90.54881046768517
 20
-130.4299524673926
 30
0.0
 10
90.5157551907507
 20
-134.3990199664
 30
0.0
 10
90.5157551907507
 20
-134.3990199664
 30
0.0
 10
90.5157551907507
 20
-134.3990199664
 30
0.0
 10
89.78815104264676
 20
-135.5234991327856
 30
0.0
 10
89.78815104264676
 20
-135.5234991327856
 30
0.0
 10
89.78815104264676
 20
-135.5234991327856
 30
0.0
 10
89.12669272618864
 20
-135.6888813549666
 30
0.0
 10
89.32513022112607
 20
-136.3833949659039
 30
0.0
  0
POLYLINE
  5
93
330
1F
100
AcDbEntity
  8
_U+30EC_U+30A4_U+30E4_U+30FC 1
 62
     7
420
 16777215
370
     9
100
AcDb2dPolyline
 66
     1
 10
0.0
 20
0.0
 30
0.0
  0
VERTEX
  5
94
330
93
100
AcDbEntity
  8
_U+30EC_U+30A4_U+30E4_U+30FC 1
 62
     7
420
 16777215
370
     9
100
AcDbVertex
100
AcDb2dVertex
 10
89.75506048793541
 20
-135.4242980216995
 30
0.0
  0
VERTEX
  5
95
330
93
100
AcDbEntity
  8
_U+30EC_U+30A4_U+30E4_U+30FC 1
 62
     7
420
 16777215
370
     9
100
AcDbVertex
100
AcDb2dVertex
 10
84.99256060943691
 20
-132.646173022394
 30
0.0
  0
VERTEX
  5
96
330
93
100
AcDbEntity
  8
_U+30EC_U+30A4_U+30E4_U+30FC 1
 62
     7
420
 16777215
370
     9
100
AcDbVertex
100
AcDb2dVertex
 10
84.43033867933595
 20
-133.0430480222948
 30
0.0
  0
VERTEX
  5
97
330
93
100
AcDbEntity
  8
_U+30EC_U+30A4_U+30E4_U+30FC 1
 62
     7
420
 16777215
370
     9
100
AcDbVertex
100
AcDb2dVertex
 10
84.46339395627041
 20
-133.7706521887795
 30
0.0
  0
SEQEND
  5
98
330
93
100
AcDbEntity
  8
_U+30EC_U+30A4_U+30E4_U+30FC 1
 62
     7
420
 16777215
370
     9
  0
POLYLINE
  5
99
330
1F
100
AcDbEntity
  8
_U+30EC_U+30A4_U+30E4_U+30FC 1
 62
     7
420
 16777215
370
     9
100
AcDb2dPolyline
 66
     1
 10
0.0
 20
0.0
 30
0.0
  0
VERTEX
  5
9A
330
99
100
AcDbEntity
  8
_U+30EC_U+30A4_U+30E4_U+30FC 1
 62
     7
420
 16777215
370
     9
100
AcDbVertex
100
AcDb2dVertex
 10
89.35818549806054
 20
-135.8211730216002
 30
0.0
  0
VERTEX
  5
9B
330
99
100
AcDbEntity
  8
_U+30EC_U+30A4_U+30E4_U+30FC 1
 62
     7
420
 16777215
370
     9
100
AcDbVertex
100
AcDb2dVertex
 10
84.43033867933595
 20
-133.0430480222948
 30
0.0
  0
SEQEND
  5
9C
330
99
100
AcDbEntity
  8
_U+30EC_U+30A4_U+30E4_U+30FC 1
 62
     7
420
 16777215
370
     9
  0
POLYLINE
  5
9D
330
1F
100
AcDbEntity
  8
_U+30EC_U+30A4_U+30E4_U+30FC 1
 62
     7
420
 16777215
370
     9
100
AcDb2dPolyline
 66
     1
 10
0.0
 20
0.0
 30
0.0
  0
VERTEX
  5
9E
330
9D
100
AcDbEntity
  8
_U+30EC_U+30A4_U+30E4_U+30FC 1
 62
     7
420
 16777215
370
     9
100
AcDbVertex
100
AcDb2dVertex
 10
85.2902344907315
 20
-132.7123188557108
 30
0.0
  0
VERTEX
  5
9F
330
9D
100
AcDbEntity
  8
_U+30EC_U+30A4_U+30E4_U+30FC 1
 62
     7
420
 16777215
370
     9
100
AcDbVertex
100
AcDb2dVertex
 10
87.01002611352263
 20
-131.5547491337778
 30
0.0
  0
SEQEND
  5
A0
330
9D
100
AcDbEntity
  8
_U+30EC_U+30A4_U+30E4_U+30FC 1
 62
     7
420
 16777215
370
     9
  0
POLYLINE
  5
A1
330
1F
100
AcDbEntity
  8
_U+30EC_U+30A4_U+30E4_U+30FC 1
 62
     7
420
 16777215
370
     9
100
AcDb2dPolyline
 66
     1
 10
0.0
 20
0.0
 30
0.0
  0
VERTEX
  5
A2
330
A1
100
AcDbEntity
  8
_U+30EC_U+30A4_U+30E4_U+30FC 1
 62
     7
420
 16777215
370
     9
100
AcDbVertex
100
AcDb2dVertex
 10
83.1735678780655
 20
-126.4612024683848
 30
0.0
  0
VERTEX
  5
A3
330
A1
100
AcDbEntity
  8
_U+30EC_U+30A4_U+30E4_U+30FC 1
 62
     7
420
 16777215
370
     9
100
AcDbVertex
100
AcDb2dVertex
 10
81.48683153220884
 20
-125.3697785797686
 30
0.0
  0
VERTEX
  5
A4
330
A1
100
AcDbEntity
  8
_U+30EC_U+30A4_U+30E4_U+30FC 1
 62
     7
420
 16777215
370
     9
100
AcDbVertex
100
AcDb2dVertex
 10
84.09960952110688
 20
-123.8486008023711
 30
0.0
  0
SEQEND
  5
A5
330
A1
100
AcDbEntity
  8
_U+30EC_U+30A4_U+30E4_U+30FC 1
 62
     7
420
 16777215
370
     9
  0
POLYLINE
  5
A6
330
1F
100
AcDbEntity
  8
_U+30EC_U+30A4_U+30E4_U+30FC 1
 62
     7
420
 16777215
370
     9
100
AcDb2dPolyline
 66
     1
 10
0.0
 20
0.0
 30
0.0
  0
VERTEX
  5
A7
330
A6
100
AcDbEntity
  8
_U+30EC_U+30A4_U+30E4_U+30FC 1
 62
     7
420
 16777215
370
     9
100
AcDbVertex
100
AcDb2dVertex
 10
88.06835941985564
 20
-121.4673508029664
 30
0.0
  0
VERTEX
  5
A8
330
A6
100
AcDbEntity
  8
_U+30EC_U+30A4_U+30E4_U+30FC 1
 62
     7
420
 16777215
370
     9
100
AcDbVertex
100
AcDb2dVertex
 10
89.78815104264676
 20
-120.4420727476673
 30
0.0
  0
VERTEX
  5
A9
330
A6
100
AcDbEntity
  8
_U+30EC_U+30A4_U+30E4_U+30FC 1
 62
     7
420
 16777215
370
     9
100
AcDbVertex
100
AcDb2dVertex
 10
91.70638016037533
 20
-121.6657883029168
 30
0.0
  0
SEQEND
  5
AA
330
A6
100
AcDbEntity
  8
_U+30EC_U+30A4_U+30E4_U+30FC 1
 62
     7
420
 16777215
370
     9
  0
POLYLINE
  5
AB
330
1F
100
AcDbEntity
  8
_U+30EC_U+30A4_U+30E4_U+30FC 1
 62
     7
420
 16777215
370
     9
100
AcDb2dPolyline
 66
     1
 10
0.0
 20
0.0
 30
0.0
  0
VERTEX
  5
AC
330
AB
100
AcDbEntity
  8
_U+30EC_U+30A4_U+30E4_U+30FC 1
 62
     7
420
 16777215
370
     9
100
AcDbVertex
100
AcDb2dVertex
 10
94.18683120820486
 20
-130.5952994117955
 30
0.0
  0
VERTEX
  5
AD
330
AB
100
AcDbEntity
  8
_U+30EC_U+30A4_U+30E4_U+30FC 1
 62
     7
420
 16777215
370
     9
100
AcDbVertex
100
AcDb2dVertex
 10
96.66731753381127
 20
-129.0408899677399
 30
0.0
  0
VERTEX
  5
AE
330
AB
100
AcDbEntity
  8
_U+30EC_U+30A4_U+30E4_U+30FC 1
 62
     7
420
 16777215
370
     9
100
AcDbVertex
100
AcDb2dVertex
 10
96.60117170216546
 20
-131.1244660783299
 30
0.0
  0
SEQEND
  5
AF
330
AB
100
AcDbEntity
  8
_U+30EC_U+30A4_U+30E4_U+30FC 1
 62
     7
420
 16777215
370
     9
  0
POLYLINE
  5
B0
330
1F
100
AcDbEntity
  8
_U+30EC_U+30A4_U+30E4_U+30FC 1
 62
     7
420
 16777215
370
     9
100
AcDb2dPolyline
 66
     1
 10
0.0
 20
0.0
 30
0.0
  0
VERTEX
  5
B1
330
B0
100
AcDbEntity
  8
_U+30EC_U+30A4_U+30E4_U+30FC 1
 62
     7
420
 16777215
370
     9
100
AcDbVertex
100
AcDb2dVertex
 10
94.18683120820486
 20
-137.5078741322895
 30
0.0
  0
VERTEX
  5
B2
330
B0
100
AcDbEntity
  8
_U+30EC_U+30A4_U+30E4_U+30FC 1
 62
     7
420
 16777215
370
     9
100
AcDbVertex
100
AcDb2dVertex
 10
96.66731753381127
 20
-136.1188116326367
 30
0.0
  0
VERTEX
  5
B3
330
B0
100
AcDbEntity
  8
_U+30EC_U+30A4_U+30E4_U+30FC 1
 62
     7
420
 16777215
370
     9
100
AcDbVertex
100
AcDb2dVertex
 10
96.66731753381127
 20
-134.6305480218979
 30
0.0
  0
SEQEND
  5
B4
330
B0
100
AcDbEntity
  8
_U+30EC_U+30A4_U+30E4_U+30FC 1
 62
     7
420
 16777215
370
     9
  0
POLYLINE
  5
B5
330
1F
100
AcDbEntity
  8
_U+30EC_U+30A4_U+30E4_U+30FC 1
 62
     7
420
 16777215
370
     9
100
AcDb2dPolyline
 66
     1
 10
0.0
 20
0.0
 30
0.0
  0
VERTEX
  5
B6
330
B5
100
AcDbEntity
  8
_U+30EC_U+30A4_U+30E4_U+30FC 1
 62
     7
420
 16777215
370
     9
100
AcDbVertex
100
AcDb2dVertex
 10
92.96315096164577
 20
-121.8642258028672
 30
0.0
  0
VERTEX
  5
B7
330
B5
100
AcDbEntity
  8
_U+30EC_U+30A4_U+30E4_U+30FC 1
 62
     7
420
 16777215
370
     9
100
AcDbVertex
100
AcDb2dVertex
 10
94.7490884160827
 20
-120.8389477475681
 30
0.0
  0
VERTEX
  5
B8
330
B5
100
AcDbEntity
  8
_U+30EC_U+30A4_U+30E4_U+30FC 1
 62
     7
420
 16777215
370
     9
100
AcDbVertex
100
AcDb2dVertex
 10
96.13815088064477
 20
-121.6326977473697
 30
0.0
  0
VERTEX
  5
B9
330
B5
100
AcDbEntity
  8
_U+30EC_U+30A4_U+30E4_U+30FC 1
 62
     7
420
 16777215
370
     9
100
AcDbVertex
100
AcDb2dVertex
 10
94.28606759456201
 20
-122.7571769137552
 30
0.0
  0
SEQEND
  5
BA
330
B5
100
AcDbEntity
  8
_U+30EC_U+30A4_U+30E4_U+30FC 1
 62
     7
420
 16777215
370
     9
  0
SPLINE
  5
BB
330
1F
100
AcDbEntity
  8
_U+30EC_U+30A4_U+30E4_U+30FC 1
 62
     7
420
 16777215
370
     9
100
AcDbSpline
210
0.0
220
0.0
230
1.0
 70
    11
 71
     3
 72
    17
 73
    13
 74
     0
 42
0.0000000001
 43
0.0000000001
 12
1.0
 22
0.0
 32
0.0
 13
1.0
 23
0.0
 33
0.0
 40
0.0
 40
0.0
 40
0.0
 40
0.0
 40
1.0
 40
1.0
 40
1.0
 40
2.0
 40
2.0
 40
2.0
 40
3.0
 40
3.0
 40
3.0
 40
4.0
 40
4.0
 40
4.0
 40
4.0
 10
81.61912319550046
 20
-125.3697785797686
 30
0.0
 10
81.61912319550046
 20
-125.4428035797504
 30
0.0
 10
81.5598918081227
 20
-125.5020702464022
 30
0.0
 10
81.48683153220884
 20
-125.5020702464022
 30
0.0
 10
81.41310097853432
 20
-125.5020702464022
 30
0.0
 10
81.35453986891721
 20
-125.4428035797504
 30
0.0
 10
81.35453986891721
 20
-125.3697785797686
 30
0.0
 10
81.35453986891721
 20
-125.2974238575647
 30
0.0
 10
81.41310097853432
 20
-125.237486913135
 30
0.0
 10
81.48683153220884
 20
-125.237486913135
 30
0.0
 10
81.5598918081227
 20
-125.237486913135
 30
0.0
 10
81.61912319550046
 20
-125.2974238575647
 30
0.0
 10
81.61912319550046
 20
-125.3697785797686
 30
0.0
  0
HATCH
  5
BC
330
1F
100
AcDbEntity
  8
_U+30EC_U+30A4_U+30E4_U+30FC 1
 62
     7
420
 16777215
100
AcDbHatch
 10
0.0
 20
0.0
 30
0.0
210
0.0
220
0.0
230
1.0
  2
SOLID
 70
     1
 71
     0
 91
        1
 92
        1
 93
        1
 72
     4
 94
        3
 73
     0
 74
     1
 95
       17
 96
       13
 40
0.0
 40
0.0
 40
0.0
 40
0.0
 40
1.0
 40
1.0
 40
1.0
 40
2.0
 40
2.0
 40
2.0
 40
3.0
 40
3.0
 40
3.0
 40
4.0
 40
4.0
 40
4.0
 40
4.0
 10
81.61912319550046
 20
-125.3697785797686
 10
81.61912319550046
 20
-125.4428035797504
 10
81.5598918081227
 20
-125.5020702464022
 10
81.48683153220884
 20
-125.5020702464022
 10
81.41310097853432
 20
-125.5020702464022
 10
81.35453986891721
 20
-125.4428035797504
 10
81.35453986891721
 20
-125.3697785797686
 10
81.35453986891721
 20
-125.2974238575647
 10
81.41310097853432
 20
-125.237486913135
 10
81.48683153220884
 20
-125.237486913135
 10
81.5598918081227
 20
-125.237486913135
 10
81.61912319550046
 20
-125.2974238575647
 10
81.61912319550046
 20
-125.3697785797686
 97
        0
 97
        0
 75
     2
 76
     1
 98
        0
  0
SPLINE
  5
BD
330
1F
100
AcDbEntity
  8
_U+30EC_U+30A4_U+30E4_U+30FC 1
 62
     7
420
 16777215
370
     9
100
AcDbSpline
210
0.0
220
0.0
230
1.0
 70
    11
 71
     3
 72
    17
 73
    13
 74
     0
 42
0.0000000001
 43
0.0000000001
 12
1.0
 22
0.0
 32
0.0
 13
1.0
 23
0.0
 33
0.0
 40
0.0
 40
0.0
 40
0.0
 40
0.0
 40
1.0
 40
1.0
 40
1.0
 40
2.0
 40
2.0
 40
2.0
 40
3.0
 40
3.0
 40
3.0
 40
4.0
 40
4.0
 40
4.0
 40
4.0
 10
89.92044270593838
 20
-120.4420727476673
 30
0.0
 10
89.92044270593838
 20
-120.5151330254267
 30
0.0
 10
89.86117604078373
 20
-120.5743644143009
 30
0.0
 10
89.78815104264676
 20
-120.5743644143009
 30
0.0
 10
89.71442048897222
 20
-120.5743644143009
 30
0.0
 10
89.65585937935514
 20
-120.5151330254267
 30
0.0
 10
89.65585937935514
 20
-120.4420727476673
 30
0.0
 10
89.65585937935514
 20
-120.3694005254632
 30
0.0
 10
89.71442048897222
 20
-120.3097810810337
 30
0.0
 10
89.78815104264676
 20
-120.3097810810337
 30
0.0
 10
89.86117604078373
 20
-120.3097810810337
 30
0.0
 10
89.92044270593838
 20
-120.3694005254632
 30
0.0
 10
89.92044270593838
 20
-120.4420727476673
 30
0.0
  0
HATCH
  5
BE
330
1F
100
AcDbEntity
  8
_U+30EC_U+30A4_U+30E4_U+30FC 1
 62
     7
420
 16777215
100
AcDbHatch
 10
0.0
 20
0.0
 30
0.0
210
0.0
220
0.0
230
1.0
  2
SOLID
 70
     1
 71
     0
 91
        1
 92
        1
 93
        1
 72
     4
 94
        3
 73
     0
 74
     1
 95
       17
 96
       13
 40
0.0
 40
0.0
 40
0.0
 40
0.0
 40
1.0
 40
1.0
 40
1.0
 40
2.0
 40
2.0
 40
2.0
 40
3.0
 40
3.0
 40
3.0
 40
4.0
 40
4.0
 40
4.0
 40
4.0
 10
89.92044270593838
 20
-120.4420727476673
 10
89.92044270593838
 20
-120.5151330254267
 10
89.86117604078373
 20
-120.5743644143009
 10
89.78815104264676
 20
-120.5743644143009
 10
89.71442048897222
 20
-120.5743644143009
 10
89.65585937935514
 20
-120.5151330254267
 10
89.65585937935514
 20
-120.4420727476673
 10
89.65585937935514
 20
-120.3694005254632
 10
89.71442048897222
 20
-120.3097810810337
 10
89.78815104264676
 20
-120.3097810810337
 10
89.86117604078373
 20
-120.3097810810337
 10
89.92044270593838
 20
-120.3694005254632
 10
89.92044270593838
 20
-120.4420727476673
 97
        0
 97
        0
 75
     2
 76
     1
 98
        0
  0
SPLINE
  5
BF
330
1F
100
AcDbEntity
  8
_U+30EC_U+30A4_U+30E4_U+30FC 1
 62
     7
420
 16777215
370
     9
100
AcDbSpline
210
0.0
220
0.0
230
1.0
 70
    11
 71
     3
 72
    17
 73
    13
 74
     0
 42
0.0000000001
 43
0.0000000001
 12
1.0
 22
0.0
 32
0.0
 13
1.0
 23
0.0
 33
0.0
 40
0.0
 40
0.0
 40
0.0
 40
0.0
 40
1.0
 40
1.0
 40
1.0
 40
2.0
 40
2.0
 40
2.0
 40
3.0
 40
3.0
 40
3.0
 40
4.0
 40
4.0
 40
4.0
 40
4.0
 10
94.94752591102014
 20
-120.8389477475681
 30
0.0
 10
94.94752591102014
 20
-120.9120080253275
 30
0.0
 10
94.8882592458655
 20
-120.9712394142017
 30
0.0
 10
94.81523424772851
 20
-120.9712394142017
 30
0.0
 10
94.74150369405399
 20
-120.9712394142017
 30
0.0
 10
94.68294258443689
 20
-120.9120080253275
 30
0.0
 10
94.68294258443689
 20
-120.8389477475681
 30
0.0
 10
94.68294258443689
 20
-120.766275525364
 30
0.0
 10
94.74150369405399
 20
-120.7066560809345
 30
0.0
 10
94.81523424772851
 20
-120.7066560809345
 30
0.0
 10
94.8882592458655
 20
-120.7066560809345
 30
0.0
 10
94.94752591102014
 20
-120.766275525364
 30
0.0
 10
94.94752591102014
 20
-120.8389477475681
 30
0.0
  0
HATCH
  5
C0
330
1F
100
AcDbEntity
  8
_U+30EC_U+30A4_U+30E4_U+30FC 1
 62
     7
420
 16777215
100
AcDbHatch
 10
0.0
 20
0.0
 30
0.0
210
0.0
220
0.0
230
1.0
  2
SOLID
 70
     1
 71
     0
 91
        1
 92
        1
 93
        1
 72
     4
 94
        3
 73
     0
 74
     1
 95
       17
 96
       13
 40
0.0
 40
0.0
 40
0.0
 40
0.0
 40
1.0
 40
1.0
 40
1.0
 40
2.0
 40
2.0
 40
2.0
 40
3.0
 40
3.0
 40
3.0
 40
4.0
 40
4.0
 40
4.0
 40
4.0
 10
94.94752591102014
 20
-120.8389477475681
 10
94.94752591102014
 20
-120.9120080253275
 10
94.8882592458655
 20
-120.9712394142017
 10
94.81523424772851
 20
-120.9712394142017
 10
94.74150369405399
 20
-120.9712394142017
 10
94.68294258443689
 20
-120.9120080253275
 10
94.68294258443689
 20
-120.8389477475681
 10
94.68294258443689
 20
-120.766275525364
 10
94.74150369405399
 20
-120.7066560809345
 10
94.81523424772851
 20
-120.7066560809345
 10
94.8882592458655
 20
-120.7066560809345
 10
94.94752591102014
 20
-120.766275525364
 10
94.94752591102014
 20
-120.8389477475681
 97
        0
 97
        0
 75
     2
 76
     1
 98
        0
  0
SPLINE
  5
C1
330
1F
100
AcDbEntity
  8
_U+30EC_U+30A4_U+30E4_U+30FC 1
 62
     7
420
 16777215
370
     9
100
AcDbSpline
210
0.0
220
0.0
230
1.0
 70
    11
 71
     3
 72
    17
 73
    13
 74
     0
 42
0.0000000001
 43
0.0000000001
 12
1.0
 22
0.0
 32
0.0
 13
1.0
 23
0.0
 33
0.0
 40
0.0
 40
0.0
 40
0.0
 40
0.0
 40
1.0
 40
1.0
 40
1.0
 40
2.0
 40
2.0
 40
2.0
 40
3.0
 40
3.0
 40
3.0
 40
4.0
 40
4.0
 40
4.0
 40
4.0
 10
96.23735198922505
 20
-121.6326977473697
 30
0.0
 10
96.23735198922505
 20
-121.705758025129
 30
0.0
 10
96.17812060184728
 20
-121.7649894140033
 30
0.0
 10
96.10506032593342
 20
-121.7649894140033
 30
0.0
 10
96.03132977225889
 20
-121.7649894140033
 30
0.0
 10
95.9727686626418
 20
-121.705758025129
 30
0.0
 10
95.9727686626418
 20
-121.6326977473697
 30
0.0
 10
95.9727686626418
 20
-121.5600255251656
 30
0.0
 10
96.03132977225889
 20
-121.5004060807361
 30
0.0
 10
96.10506032593342
 20
-121.5004060807361
 30
0.0
 10
96.17812060184728
 20
-121.5004060807361
 30
0.0
 10
96.23735198922505
 20
-121.5600255251656
 30
0.0
 10
96.23735198922505
 20
-121.6326977473697
 30
0.0
  0
HATCH
  5
C2
330
1F
100
AcDbEntity
  8
_U+30EC_U+30A4_U+30E4_U+30FC 1
 62
     7
420
 16777215
100
AcDbHatch
 10
0.0
 20
0.0
 30
0.0
210
0.0
220
0.0
230
1.0
  2
SOLID
 70
     1
 71
     0
 91
        1
 92
        1
 93
        1
 72
     4
 94
        3
 73
     0
 74
     1
 95
       17
 96
       13
 40
0.0
 40
0.0
 40
0.0
 40
0.0
 40
1.0
 40
1.0
 40
1.0
 40
2.0
 40
2.0
 40
2.0
 40
3.0
 40
3.0
 40
3.0
 40
4.0
 40
4.0
 40
4.0
 40
4.0
 10
96.23735198922505
 20
-121.6326977473697
 10
96.23735198922505
 20
-121.705758025129
 10
96.17812060184728
 20
-121.7649894140033
 10
96.10506032593342
 20
-121.7649894140033
 10
96.03132977225889
 20
-121.7649894140033
 10
95.9727686626418
 20
-121.705758025129
 10
95.9727686626418
 20
-121.6326977473697
 10
95.9727686626418
 20
-121.5600255251656
 10
96.03132977225889
 20
-121.5004060807361
 10
96.10506032593342
 20
-121.5004060807361
 10
96.17812060184728
 20
-121.5004060807361
 10
96.23735198922505
 20
-121.5600255251656
 10
96.23735198922505
 20
-121.6326977473697
 97
        0
 97
        0
 75
     2
 76
     1
 98
        0
  0
SPLINE
  5
C3
330
1F
100
AcDbEntity
  8
_U+30EC_U+30A4_U+30E4_U+30FC 1
 62
     7
420
 16777215
370
     9
100
AcDbSpline
210
0.0
220
0.0
230
1.0
 70
    11
 71
     3
 72
    17
 73
    13
 74
     0
 42
0.0000000001
 43
0.0000000001
 12
1.0
 22
0.0
 32
0.0
 13
1.0
 23
0.0
 33
0.0
 40
0.0
 40
0.0
 40
0.0
 40
0.0
 40
1.0
 40
1.0
 40
1.0
 40
2.0
 40
2.0
 40
2.0
 40
3.0
 40
3.0
 40
3.0
 40
4.0
 40
4.0
 40
4.0
 40
4.0
 10
96.76651864239155
 20
-129.0739452455092
 30
0.0
 10
96.76651864239155
 20
-129.146970245491
 30
0.0
 10
96.70728725501378
 20
-129.2062369121428
 30
0.0
 10
96.63422697909992
 20
-129.2062369121428
 30
0.0
 10
96.5604964254254
 20
-129.2062369121428
 30
0.0
 10
96.5019353158083
 20
-129.146970245491
 30
0.0
 10
96.5019353158083
 20
-129.0739452455092
 30
0.0
 10
96.5019353158083
 20
-129.0015905233053
 30
0.0
 10
96.5604964254254
 20
-128.9416535788756
 30
0.0
 10
96.63422697909992
 20
-128.9416535788756
 30
0.0
 10
96.70728725501378
 20
-128.9416535788756
 30
0.0
 10
96.76651864239155
 20
-129.0015905233053
 30
0.0
 10
96.76651864239155
 20
-129.0739452455092
 30
0.0
  0
HATCH
  5
C4
330
1F
100
AcDbEntity
  8
_U+30EC_U+30A4_U+30E4_U+30FC 1
 62
     7
420
 16777215
100
AcDbHatch
 10
0.0
 20
0.0
 30
0.0
210
0.0
220
0.0
230
1.0
  2
SOLID
 70
     1
 71
     0
 91
        1
 92
        1
 93
        1
 72
     4
 94
        3
 73
     0
 74
     1
 95
       17
 96
       13
 40
0.0
 40
0.0
 40
0.0
 40
0.0
 40
1.0
 40
1.0
 40
1.0
 40
2.0
 40
2.0
 40
2.0
 40
3.0
 40
3.0
 40
3.0
 40
4.0
 40
4.0
 40
4.0
 40
4.0
 10
96.76651864239155
 20
-129.0739452455092
 10
96.76651864239155
 20
-129.146970245491
 10
96.70728725501378
 20
-129.2062369121428
 10
96.63422697909992
 20
-129.2062369121428
 10
96.5604964254254
 20
-129.2062369121428
 10
96.5019353158083
 20
-129.146970245491
 10
96.5019353158083
 20
-129.0739452455092
 10
96.5019353158083
 20
-129.0015905233053
 10
96.5604964254254
 20
-128.9416535788756
 10
96.63422697909992
 20
-128.9416535788756
 10
96.70728725501378
 20
-128.9416535788756
 10
96.76651864239155
 20
-129.0015905233053
 10
96.76651864239155
 20
-129.0739452455092
 97
        0
 97
        0
 75
     2
 76
     1
 98
        0
  0
SPLINE
  5
C5
330
1F
100
AcDbEntity
  8
_U+30EC_U+30A4_U+30E4_U+30FC 1
 62
     7
420
 16777215
370
     9
100
AcDbSpline
210
0.0
220
0.0
230
1.0
 70
    11
 71
     3
 72
    17
 73
    13
 74
     0
 42
0.0000000001
 43
0.0000000001
 12
1.0
 22
0.0
 32
0.0
 13
1.0
 23
0.0
 33
0.0
 40
0.0
 40
0.0
 40
0.0
 40
0.0
 40
1.0
 40
1.0
 40
1.0
 40
2.0
 40
2.0
 40
2.0
 40
3.0
 40
3.0
 40
3.0
 40
4.0
 40
4.0
 40
4.0
 40
4.0
 10
96.7996091971029
 20
-136.0857563548674
 30
0.0
 10
96.7996091971029
 20
-136.1587813548493
 30
0.0
 10
96.74034253194824
 20
-136.218048021501
 30
0.0
 10
96.66731753381127
 20
-136.218048021501
 30
0.0
 10
96.59358698013673
 20
-136.218048021501
 30
0.0
 10
96.53502587051965
 20
-136.1587813548493
 30
0.0
 10
96.53502587051965
 20
-136.0857563548674
 30
0.0
 10
96.53502587051965
 20
-136.0127313548856
 30
0.0
 10
96.59358698013673
 20
-135.9534646882338
 30
0.0
 10
96.66731753381127
 20
-135.9534646882338
 30
0.0
 10
96.74034253194824
 20
-135.9534646882338
 30
0.0
 10
96.7996091971029
 20
-136.0127313548856
 30
0.0
 10
96.7996091971029
 20
-136.0857563548674
 30
0.0
  0
HATCH
  5
C6
330
1F
100
AcDbEntity
  8
_U+30EC_U+30A4_U+30E4_U+30FC 1
 62
     7
420
 16777215
100
AcDbHatch
 10
0.0
 20
0.0
 30
0.0
210
0.0
220
0.0
230
1.0
  2
SOLID
 70
     1
 71
     0
 91
        1
 92
        1
 93
        1
 72
     4
 94
        3
 73
     0
 74
     1
 95
       17
 96
       13
 40
0.0
 40
0.0
 40
0.0
 40
0.0
 40
1.0
 40
1.0
 40
1.0
 40
2.0
 40
2.0
 40
2.0
 40
3.0
 40
3.0
 40
3.0
 40
4.0
 40
4.0
 40
4.0
 40
4.0
 10
96.7996091971029
 20
-136.0857563548674
 10
96.7996091971029
 20
-136.1587813548493
 10
96.74034253194824
 20
-136.218048021501
 10
96.66731753381127
 20
-136.218048021501
 10
96.59358698013673
 20
-136.218048021501
 10
96.53502587051965
 20
-136.1587813548493
 10
96.53502587051965
 20
-136.0857563548674
 10
96.53502587051965
 20
-136.0127313548856
 10
96.59358698013673
 20
-135.9534646882338
 10
96.66731753381127
 20
-135.9534646882338
 10
96.74034253194824
 20
-135.9534646882338
 10
96.7996091971029
 20
-136.0127313548856
 10
96.7996091971029
 20
-136.0857563548674
 97
        0
 97
        0
 75
     2
 76
     1
 98
        0
  0
INSERT
  5
C8
330
1F
100
AcDbEntity
  8
_U+30EC_U+30A4_U+30E4_U+30FC 1
100
AcDbBlockReference
  2
block 2
 10
0.0
 20
0.0
 30
0.0
  0
INSERT
  5
DD
330
1F
100
AcDbEntity
  8
_U+30EC_U+30A4_U+30E4_U+30FC 1
100
AcDbBlockReference
  2
block 3
 10
0.0
 20
0.0
 30
0.0
  0
INSERT
  5
E5
330
1F
100
AcDbEntity
  8
_U+30EC_U+30A4_U+30E4_U+30FC 1
100
AcDbBlockReference
  2
block 4
 10
0.0
 20
0.0
 30
0.0
  0
ENDSEC
  0
SECTION
  2
OBJECTS
  0
DICTIONARY
  5
C
330
0
100
AcDbDictionary
281
     1
  3
ACAD_GROUP
350
D
  3
ACAD_LAYOUT
350
1A
  3
ACAD_MATERIAL
350
3B
  3
ACAD_MLEADERSTYLE
350
F5
  3
ACAD_MLINESTYLE
350
17
  3
ACAD_PLOTSETTINGS
350
19
  3
ACAD_PLOTSTYLENAME
350
E
  3
ACAD_TABLESTYLE
350
F4
  3
ACAD_VISUALSTYLE
350
2A
  0
SUN
  5
3F
330
29
100
AcDbSun
 90
        1
290
     0
 63
     7
421
 16777215
 40
1.0
291
     1
 91
  2455826
 92
 54000000
292
     0
 70
     2
 71
   256
280
     1
  0
DICTIONARY
  5
D
102
{ACAD_REACTORS
330
C
102
}
330
C
100
AcDbDictionary
281
     1
  0
DICTIONARY
  5
1A
102
{ACAD_REACTORS
330
C
102
}
330
C
100
AcDbDictionary
281
     1
  3
Layout1
350
1E
  3
Layout2
350
26
  3
Model
350
22
  0
DICTIONARY
  5
3B
102
{ACAD_REACTORS
330
C
102
}
330
C
100
AcDbDictionary
281
     1
  3
ByBlock
350
3D
  3
ByLayer
350
3C
  3
Global
350
3E
  0
DICTIONARY
  5
F5
102
{ACAD_REACTORS
330
C
102
}
330
C
100
AcDbDictionary
281
     1
  0
DICTIONARY
  5
17
102
{ACAD_REACTORS
330
C
102
}
330
C
100
AcDbDictionary
281
     1
  3
Standard
350
18
  0
DICTIONARY
  5
19
102
{ACAD_REACTORS
330
C
102
}
330
C
100
AcDbDictionary
281
     1
  0
ACDBDICTIONARYWDFLT
  5
E
102
{ACAD_REACTORS
330
C
102
}
330
C
100
AcDbDictionary
281
     1
  3
Normal
350
F
100
AcDbDictionaryWithDefault
340
F
  0
DICTIONARY
  5
F4
102
{ACAD_REACTORS
330
C
102
}
330
C
100
AcDbDictionary
281
     1
  0
DICTIONARY
  5
2A
102
{ACAD_REACTORS
330
C
102
}
330
C
100
AcDbDictionary
281
     1
  3
2dWireframe
350
2F
  3
3D Hidden
350
31
  3
3dWireframe
350
30
  3
Basic
350
32
  3
Brighten
350
36
  3
ColorChange
350
3A
  3
Conceptual
350
34
  3
Dim
350
35
  3
Facepattern
350
39
  3
Flat
350
2B
  3
FlatWithEdges
350
2C
  3
Gouraud
350
2D
  3
GouraudWithEdges
350
2E
  3
Linepattern
350
38
  3
Realistic
350
33
  3
Thicken
350
37
  0
LAYOUT
  5
1E
102
{ACAD_REACTORS
330
1A
102
}
330
1A
100
AcDbPlotSettings
  1

  2
none_device
  4

  6

 40
0.0
 41
0.0
 42
0.0
 43
0.0
 44
0.0
 45
0.0
 46
0.0
 47
0.0
 48
0.0
 49
0.0
140
0.0
141
0.0
142
1.0
143
1.0
 70
   688
 72
     0
 73
     0
 74
     5
  7

 75
    16
 76
     0
 77
     2
 78
   300
147
1.0
148
0.0
149
0.0
100
AcDbLayout
  1
Layout1
 70
     1
 71
     1
 10
0.0
 20
0.0
 11
12.0
 21
9.0
 12
0.0
 22
0.0
 32
0.0
 14
1.000000000000000E+20
 24
1.000000000000000E+20
 34
1.000000000000000E+20
 15
-1.000000000000000E+20
 25
-1.000000000000000E+20
 35
-1.000000000000000E+20
146
0.0
 13
0.0
 23
0.0
 33
0.0
 16
1.0
 26
0.0
 36
0.0
 17
0.0
 27
1.0
 37
0.0
 76
     0
330
1B
  0
LAYOUT
  5
26
102
{ACAD_REACTORS
330
1A
102
}
330
1A
100
AcDbPlotSettings
  1

  2
none_device
  4

  6

 40
0.0
 41
0.0
 42
0.0
 43
0.0
 44
0.0
 45
0.0
 46
0.0
 47
0.0
 48
0.0
 49
0.0
140
0.0
141
0.0
142
1.0
143
1.0
 70
   688
 72
     0
 73
     0
 74
     5
  7

 75
    16
 76
     0
 77
     2
 78
   300
147
1.0
148
0.0
149
0.0
100
AcDbLayout
  1
Layout2
 70
     1
 71
     2
 10
0.0
 20
0.0
 11
0.0
 21
0.0
 12
0.0
 22
0.0
 32
0.0
 14
0.0
 24
0.0
 34
0.0
 15
0.0
 25
0.0
 35
0.0
146
0.0
 13
0.0
 23
0.0
 33
0.0
 16
1.0
 26
0.0
 36
0.0
 17
0.0
 27
1.0
 37
0.0
 76
     0
330
23
  0
LAYOUT
  5
22
102
{ACAD_REACTORS
330
1A
102
}
330
1A
100
AcDbPlotSettings
  1

  2
none_device
  4

  6

 40
0.0
 41
0.0
 42
0.0
 43
0.0
 44
0.0
 45
0.0
 46
0.0
 47
0.0
 48
0.0
 49
0.0
140
0.0
141
0.0
142
1.0
143
1.0
 70
  1712
 72
     0
 73
     0
 74
     0
  7

 75
     0
 76
     0
 77
     2
 78
   300
147
1.0
148
0.0
149
0.0
100
AcDbLayout
  1
Model
 70
     1
 71
     0
 10
0.0
 20
0.0
 11
12.0
 21
9.0
 12
0.0
 22
0.0
 32
0.0
 14
1.000000000000000E+20
 24
1.000000000000000E+20
 34
1.000000000000000E+20
 15
-1.000000000000000E+20
 25
-1.000000000000000E+20
 35
-1.000000000000000E+20
146
0.0
 13
0.0
 23
0.0
 33
0.0
 16
1.0
 26
0.0
 36
0.0
 17
0.0
 27
1.0
 37
0.0
 76
     0
330
1F
331
29
  0
MATERIAL
  5
3D
102
{ACAD_REACTORS
330
3B
102
}
330
3B
100
AcDbMaterial
  1
ByBlock
 72
     1
 94
      127
  0
MATERIAL
  5
3C
102
{ACAD_REACTORS
330
3B
102
}
330
3B
100
AcDbMaterial
  1
ByLayer
 72
     1
 94
      127
  0
MATERIAL
  5
3E
102
{ACAD_REACTORS
330
3B
102
}
330
3B
100
AcDbMaterial
  1
Global
 72
     1
 94
      127
  0
MLINESTYLE
  5
18
102
{ACAD_REACTORS
330
17
102
}
330
17
100
AcDbMlineStyle
  2
Standard
 70
     0
  3

 62
   256
 51
90.0
 52
90.0
 71
     2
 49
0.5
 62
   256
  6
BYLAYER
 49
-0.5
 62
   256
  6
BYLAYER
  0
ACDBPLACEHOLDER
  5
F
102
{ACAD_REACTORS
330
E
102
}
330
E
  0
VISUALSTYLE
  5
2F
102
{ACAD_REACTORS
330
2A
102
}
330
2A
100
AcDbVisualStyle
  2
2dWireframe
 70
     4
177
     2
291
     0
 71
     0
176
     1
 72
     2
176
     1
 73
     0
176
     1
 90
        0
176
     1
 40
-0.6
176
     1
 41
-30.0
176
     1
 62
     5
 63
     7
421
 16777215
176
     1
 74
     1
176
     1
 91
        4
176
     1
 64
     7
176
     1
 65
   257
176
     1
 75
     1
176
     1
175
     1
176
     1
 42
1.0
176
     1
 92
        0
176
     1
 66
   257
176
     1
 43
1.0
176
     1
 76
     1
176
     1
 77
     6
176
     1
 78
     2
176
     1
 67
     7
176
     1
 79
     5
176
     1
170
     0
176
     1
171
     0
176
     1
290
     0
176
     1
 93
        1
176
     1
 44
0.0
176
     1
173
     0
176
     1
  0
VISUALSTYLE
  5
31
102
{ACAD_REACTORS
330
2A
102
}
330
2A
100
AcDbVisualStyle
  2
3D Hidden
 70
     6
177
     2
291
     0
 71
     1
176
     1
 72
     2
176
     1
 73
     2
176
     1
 90
        0
176
     1
 40
-0.6
176
     1
 41
-30.0
176
     1
 62
     5
 63
     7
421
 16777215
176
     1
 74
     2
176
     1
 91
        2
176
     1
 64
     7
176
     1
 65
   257
176
     1
 75
     2
176
     1
175
     1
176
     1
 42
40.0
176
     1
 92
        0
176
     1
 66
   257
176
     1
 43
1.0
176
     1
 76
     1
176
     1
 77
     6
176
     1
 78
     2
176
     1
 67
     7
176
     1
 79
     3
176
     1
170
     0
176
     1
171
     0
176
     1
290
     0
176
     1
 93
        1
176
     1
 44
0.0
176
     1
173
     0
176
     1
  0
VISUALSTYLE
  5
30
102
{ACAD_REACTORS
330
2A
102
}
330
2A
100
AcDbVisualStyle
  2
3dWireframe
 70
     5
177
     2
291
     0
 71
     0
176
     1
 72
     2
176
     1
 73
     0
176
     1
 90
        0
176
     1
 40
-0.6
176
     1
 41
-30.0
176
     1
 62
     5
 63
     7
421
 16777215
176
     1
 74
     1
176
     1
 91
        4
176
     1
 64
     7
176
     1
 65
   257
176
     1
 75
     1
176
     1
175
     1
176
     1
 42
1.0
176
     1
 92
        0
176
     1
 66
   257
176
     1
 43
1.0
176
     1
 76
     1
176
     1
 77
     6
176
     1
 78
     2
176
     1
 67
     7
176
     1
 79
     5
176
     1
170
     0
176
     1
171
     0
176
     1
290
     0
176
     1
 93
        1
176
     1
 44
0.0
176
     1
173
     0
176
     1
  0
VISUALSTYLE
  5
32
102
{ACAD_REACTORS
330
2A
102
}
330
2A
100
AcDbVisualStyle
  2
Basic
 70
     7
177
     2
291
     1
 71
     1
176
     1
 72
     0
176
     1
 73
     1
176
     1
 90
        0
176
     1
 40
-0.6
176
     1
 41
-30.0
176
     1
 62
     5
 63
     7
421
 16777215
176
     1
 74
     0
176
     1
 91
        4
176
     1
 64
     7
176
     1
 65
   257
176
     1
 75
     1
176
     1
175
     1
176
     1
 42
1.0
176
     1
 92
        8
176
     1
 66
     7
176
     1
 43
1.0
176
     1
 76
     1
176
     1
 77
     6
176
     1
 78
     2
176
     1
 67
     7
176
     1
 79
     5
176
     1
170
     0
176
     1
171
     0
176
     1
290
     0
176
     1
 93
        1
176
     1
 44
0.0
176
     1
173
     0
176
     1
  0
VISUALSTYLE
  5
36
102
{ACAD_REACTORS
330
2A
102
}
330
2A
100
AcDbVisualStyle
  2
Brighten
 70
    12
177
     2
291
     1
 71
     2
176
     1
 72
     2
176
     1
 73
     0
176
     1
 90
        0
176
     1
 40
-0.6
176
     1
 41
-30.0
176
     1
 62
     5
 63
     7
421
 16777215
176
     1
 74
     1
176
     1
 91
        4
176
     1
 64
     7
176
     1
 65
   257
176
     1
 75
     1
176
     1
175
     1
176
     1
 42
1.0
176
     1
 92
        8
176
     1
 66
     7
176
     1
 43
1.0
176
     1
 76
     1
176
     1
 77
     6
176
     1
 78
     2
176
     1
 67
     7
176
     1
 79
     5
176
     1
170
     0
176
     1
171
     0
176
     1
290
     0
176
     1
 93
        1
176
     1
 44
50.0
176
     1
173
     0
176
     1
  0
VISUALSTYLE
  5
3A
102
{ACAD_REACTORS
330
2A
102
}
330
2A
100
AcDbVisualStyle
  2
ColorChange
 70
    16
177
     2
291
     1
 71
     2
176
     1
 72
     2
176
     1
 73
     3
176
     1
 90
        0
176
     1
 40
-0.6
176
     1
 41
-30.0
176
     1
 62
     5
 63
     8
421
  8421504
176
     1
 74
     1
176
     1
 91
        4
176
     1
 64
     7
176
     1
 65
   257
176
     1
 75
     1
176
     1
175
     1
176
     1
 42
1.0
176
     1
 92
        8
176
     1
 66
     8
424
  8421504
176
     1
 43
1.0
176
     1
 76
     1
176
     1
 77
     6
176
     1
 78
     2
176
     1
 67
     7
176
     1
 79
     5
176
     1
170
     0
176
     1
171
     0
176
     1
290
     0
176
     1
 93
        1
176
     1
 44
0.0
176
     1
173
     0
176
     1
  0
VISUALSTYLE
  5
34
102
{ACAD_REACTORS
330
2A
102
}
330
2A
100
AcDbVisualStyle
  2
Conceptual
 70
     9
177
     2
291
     0
 71
     3
176
     1
 72
     2
176
     1
 73
     0
176
     1
 90
        0
176
     1
 40
-0.6
176
     1
 41
-30.0
176
     1
 62
     5
 63
     7
421
 16777215
176
     1
 74
     2
176
     1
 91
        2
176
     1
 64
     7
176
     1
 65
   257
176
     1
 75
     1
176
     1
175
     1
176
     1
 42
40.0
176
     1
 92
        8
176
     1
 66
     7
176
     1
 43
1.0
176
     1
 76
     1
176
     1
 77
     6
176
     1
 78
     2
176
     1
 67
     7
176
     1
 79
     3
176
     1
170
     0
176
     1
171
     0
176
     1
290
     0
176
     1
 93
        1
176
     1
 44
0.0
176
     1
173
     0
176
     1
  0
VISUALSTYLE
  5
35
102
{ACAD_REACTORS
330
2A
102
}
330
2A
100
AcDbVisualStyle
  2
Dim
 70
    11
177
     2
291
     1
 71
     2
176
     1
 72
     2
176
     1
 73
     0
176
     1
 90
        0
176
     1
 40
-0.6
176
     1
 41
-30.0
176
     1
 62
     5
 63
     7
421
 16777215
176
     1
 74
     1
176
     1
 91
        4
176
     1
 64
     7
176
     1
 65
   257
176
     1
 75
     1
176
     1
175
     1
176
     1
 42
1.0
176
     1
 92
        8
176
     1
 66
     7
176
     1
 43
1.0
176
     1
 76
     1
176
     1
 77
     6
176
     1
 78
     2
176
     1
 67
     7
176
     1
 79
     5
176
     1
170
     0
176
     1
171
     0
176
     1
290
     0
176
     1
 93
        1
176
     1
 44
-50.0
176
     1
173
     0
176
     1
  0
VISUALSTYLE
  5
39
102
{ACAD_REACTORS
330
2A
102
}
330
2A
100
AcDbVisualStyle
  2
Facepattern
 70
    15
177
     2
291
     1
 71
     2
176
     1
 72
     2
176
     1
 73
     0
176
     1
 90
        0
176
     1
 40
-0.6
176
     1
 41
-30.0
176
     1
 62
     5
 63
     7
421
 16777215
176
     1
 74
     1
176
     1
 91
        4
176
     1
 64
     7
176
     1
 65
   257
176
     1
 75
     1
176
     1
175
     1
176
     1
 42
1.0
176
     1
 92
        8
176
     1
 66
     7
176
     1
 43
1.0
176
     1
 76
     1
176
     1
 77
     6
176
     1
 78
     2
176
     1
 67
     7
176
     1
 79
     5
176
     1
170
     0
176
     1
171
     0
176
     1
290
     0
176
     1
 93
        1
176
     1
 44
0.0
176
     1
173
     0
176
     1
  0
VISUALSTYLE
  5
2B
102
{ACAD_REACTORS
330
2A
102
}
330
2A
100
AcDbVisualStyle
  2
Flat
 70
     0
177
     2
291
     1
 71
     2
176
     1
 72
     1
176
     1
 73
     1
176
     1
 90
        2
176
     1
 40
-0.6
176
     1
 41
30.0
176
     1
 62
     5
 63
     7
421
 16777215
176
     1
 74
     0
176
     1
 91
        4
176
     1
 64
     7
176
     1
 65
   257
176
     1
 75
     1
176
     1
175
     1
176
     1
 42
1.0
176
     1
 92
        8
176
     1
 66
     7
176
     1
 43
1.0
176
     1
 76
     1
176
     1
 77
     6
176
     1
 78
     2
176
     1
 67
     7
176
     1
 79
     5
176
     1
170
     0
176
     1
171
     0
176
     1
290
     0
176
     1
 93
       13
176
     1
 44
0.0
176
     1
173
     0
176
     1
  0
VISUALSTYLE
  5
2C
102
{ACAD_REACTORS
330
2A
102
}
330
2A
100
AcDbVisualStyle
  2
FlatWithEdges
 70
     1
177
     2
291
     1
 71
     2
176
     1
 72
     1
176
     1
 73
     1
176
     1
 90
        2
176
     1
 40
-0.6
176
     1
 41
30.0
176
     1
 62
     5
 63
     7
421
 16777215
176
     1
 74
     1
176
     1
 91
        4
176
     1
 64
     7
176
     1
 65
   257
176
     1
 75
     1
176
     1
175
     1
176
     1
 42
1.0
176
     1
 92
        0
176
     1
 66
   257
176
     1
 43
1.0
176
     1
 76
     1
176
     1
 77
     6
176
     1
 78
     2
176
     1
 67
     7
176
     1
 79
     5
176
     1
170
     0
176
     1
171
     0
176
     1
290
     0
176
     1
 93
       13
176
     1
 44
0.0
176
     1
173
     0
176
     1
  0
VISUALSTYLE
  5
2D
102
{ACAD_REACTORS
330
2A
102
}
330
2A
100
AcDbVisualStyle
  2
Gouraud
 70
     2
177
     2
291
     1
 71
     2
176
     1
 72
     2
176
     1
 73
     1
176
     1
 90
        2
176
     1
 40
-0.6
176
     1
 41
30.0
176
     1
 62
     5
 63
     7
421
 16777215
176
     1
 74
     0
176
     1
 91
        4
176
     1
 64
     7
176
     1
 65
   257
176
     1
 75
     1
176
     1
175
     1
176
     1
 42
1.0
176
     1
 92
        0
176
     1
 66
     7
176
     1
 43
1.0
176
     1
 76
     1
176
     1
 77
     6
176
     1
 78
     2
176
     1
 67
     7
176
     1
 79
     5
176
     1
170
     0
176
     1
171
     0
176
     1
290
     0
176
     1
 93
       13
176
     1
 44
0.0
176
     1
173
     0
176
     1
  0
VISUALSTYLE
  5
2E
102
{ACAD_REACTORS
330
2A
102
}
330
2A
100
AcDbVisualStyle
  2
GouraudWithEdges
 70
     3
177
     2
291
     1
 71
     2
176
     1
 72
     2
176
     1
 73
     1
176
     1
 90
        2
176
     1
 40
-0.6
176
     1
 41
30.0
176
     1
 62
     5
 63
     7
421
 16777215
176
     1
 74
     1
176
     1
 91
        4
176
     1
 64
     7
176
     1
 65
   257
176
     1
 75
     1
176
     1
175
     1
176
     1
 42
1.0
176
     1
 92
        0
176
     1
 66
   257
176
     1
 43
1.0
176
     1
 76
     1
176
     1
 77
     6
176
     1
 78
     2
176
     1
 67
     7
176
     1
 79
     5
176
     1
170
     0
176
     1
171
     0
176
     1
290
     0
176
     1
 93
       13
176
     1
 44
0.0
176
     1
173
     0
176
     1
  0
VISUALSTYLE
  5
38
102
{ACAD_REACTORS
330
2A
102
}
330
2A
100
AcDbVisualStyle
  2
Linepattern
 70
    14
177
     2
291
     1
 71
     2
176
     1
 72
     2
176
     1
 73
     0
176
     1
 90
        0
176
     1
 40
-0.6
176
     1
 41
-30.0
176
     1
 62
     5
 63
     7
421
 16777215
176
     1
 74
     1
176
     1
 91
        4
176
     1
 64
     7
176
     1
 65
   257
176
     1
 75
     7
176
     1
175
     7
176
     1
 42
1.0
176
     1
 92
        8
176
     1
 66
     7
176
     1
 43
1.0
176
     1
 76
     1
176
     1
 77
     6
176
     1
 78
     2
176
     1
 67
     7
176
     1
 79
     5
176
     1
170
     0
176
     1
171
     0
176
     1
290
     0
176
     1
 93
        1
176
     1
 44
0.0
176
     1
173
     0
176
     1
  0
VISUALSTYLE
  5
33
102
{ACAD_REACTORS
330
2A
102
}
330
2A
100
AcDbVisualStyle
  2
Realistic
 70
     8
177
     2
291
     0
 71
     2
176
     1
 72
     2
176
     1
 73
     0
176
     1
 90
        0
176
     1
 40
-0.6
176
     1
 41
-30.0
176
     1
 62
     5
 63
     7
421
 16777215
176
     1
 74
     1
176
     1
 91
        0
176
     1
 64
     7
176
     1
 65
   257
176
     1
 75
     1
176
     1
175
     1
176
     1
 42
1.0
176
     1
 92
        8
176
     1
 66
     8
424
  7895160
176
     1
 43
1.0
176
     1
 76
     1
176
     1
 77
     6
176
     1
 78
     2
176
     1
 67
     7
176
     1
 79
     5
176
     1
170
     0
176
     1
171
     0
176
     1
290
     0
176
     1
 93
       13
176
     1
 44
0.0
176
     1
173
     0
176
     1
  0
VISUALSTYLE
  5
37
102
{ACAD_REACTORS
330
2A
102
}
330
2A
100
AcDbVisualStyle
  2
Thicken
 70
    13
177
     2
291
     1
 71
     2
176
     1
 72
     2
176
     1
 73
     0
176
     1
 90
        0
176
     1
 40
-0.6
176
     1
 41
-30.0
176
     1
 62
     5
 63
     7
421
 16777215
176
     1
 74
     1
176
     1
 91
        4
176
     1
 64
     7
176
     1
 65
   257
176
     1
 75
     1
176
     1
175
     1
176
     1
 42
1.0
176
     1
 92
       12
176
     1
 66
     7
176
     1
 43
1.0
176
     1
 76
     1
176
     1
 77
     6
176
     1
 78
     2
176
     1
 67
     7
176
     1
 79
     5
176
     1
170
     0
176
     1
171
     0
176
     1
290
     0
176
     1
 93
        1
176
     1
 44
0.0
176
     1
173
     0
176
     1
  0
ENDSEC
  0
EOF
