  0
SECTION
  2
HEADER
  9
$ACADVER
  1
AC1024
  9
$ACADMAINTVER
 70
     6
  9
$DWGCODEPAGE
  3
UNDEFINED
  9
$INSBASE
 10
0.0
 20
0.0
 30
0.0
  9
$EXTMIN
 10
1.000000000000000E+20
 20
1.000000000000000E+20
 30
1.000000000000000E+20
  9
$EXTMAX
 10
-1.000000000000000E+20
 20
-1.000000000000000E+20
 30
-1.000000000000000E+20
  9
$LIMMIN
 10
0.0
 20
0.0
  9
$LIMMAX
 10
12.0
 20
9.0
  9
$ORTHOMODE
 70
     0
  9
$REGENMODE
 70
     1
  9
$FILLMODE
 70
     1
  9
$QTEXTMODE
 70
     0
  9
$MIRRTEXT
 70
     1
  9
$LTSCALE
 40
1.0
  9
$ATTMODE
 70
     1
  9
$TEXTSIZE
 40
0.2
  9
$TRACEWID
 40
0.05
  9
$TEXTSTYLE
  7
Standard
  9
$CLAYER
  8
0
  9
$CELTYPE
  6
ByLayer
  9
$CECOLOR
 62
   256
  9
$CELTSCALE
 40
1.0
  9
$DISPSILH
 70
     0
  9
$DIMSCALE
 40
1.0
  9
$DIMASZ
 40
0.18
  9
$DIMEXO
 40
0.0625
  9
$DIMDLI
 40
0.38
  9
$DIMRND
 40
0.0
  9
$DIMDLE
 40
0.0
  9
$DIMEXE
 40
0.18
  9
$DIMTP
 40
0.0
  9
$DIMTM
 40
0.0
  9
$DIMTXT
 40
0.18
  9
$DIMCEN
 40
0.09
  9
$DIMTSZ
 40
0.0
  9
$DIMTOL
 70
     0
  9
$DIMLIM
 70
     0
  9
$DIMTIH
 70
     1
  9
$DIMTOH
 70
     1
  9
$DIMSE1
 70
     0
  9
$DIMSE2
 70
     0
  9
$DIMTAD
 70
     0
  9
$DIMZIN
 70
     0
  9
$DIMBLK
  1

  9
$DIMASO
 70
     1
  9
$DIMSHO
 70
     1
  9
$DIMPOST
  1

  9
$DIMAPOST
  1

  9
$DIMALT
 70
     0
  9
$DIMALTD
 70
     2
  9
$DIMALTF
 40
25.4
  9
$DIMLFAC
 40
1.0
  9
$DIMTOFL
 70
     0
  9
$DIMTVP
 40
0.0
  9
$DIMTIX
 70
     0
  9
$DIMSOXD
 70
     0
  9
$DIMSAH
 70
     0
  9
$DIMBLK1
  1

  9
$DIMBLK2
  1

  9
$DIMSTYLE
  2
Standard
  9
$DIMCLRD
 70
     0
  9
$DIMCLRE
 70
     0
  9
$DIMCLRT
 70
     0
  9
$DIMTFAC
 40
1.0
  9
$DIMGAP
 40
0.09
  9
$DIMJUST
 70
     0
  9
$DIMSD1
 70
     0
  9
$DIMSD2
 70
     0
  9
$DIMTOLJ
 70
     1
  9
$DIMTZIN
 70
     0
  9
$DIMALTZ
 70
     0
  9
$DIMALTTZ
 70
     0
  9
$DIMUPT
 70
     0
  9
$DIMDEC
 70
     4
  9
$DIMTDEC
 70
     4
  9
$DIMALTU
 70
     2
  9
$DIMALTTD
 70
     2
  9
$DIMTXSTY
  7
Standard
  9
$DIMAUNIT
 70
     0
  9
$DIMADEC
 70
     0
  9
$DIMALTRND
 40
0.0
  9
$DIMAZIN
 70
     0
  9
$DIMDSEP
 70
    46
  9
$DIMATFIT
 70
     3
  9
$DIMFRAC
 70
     0
  9
$DIMLDRBLK
  1

  9
$DIMLUNIT
 70
     2
  9
$DIMLWD
 70
    -2
  9
$DIMLWE
 70
    -2
  9
$DIMTMOVE
 70
     0
  9
$DIMFXL
 40
1.0
  9
$DIMFXLON
 70
     0
  9
$DIMJOGANG
 40
0.7853981633974483
  9
$DIMTFILL
 70
     0
  9
$DIMTFILLCLR
 70
     0
  9
$DIMARCSYM
 70
     0
  9
$DIMLTYPE
  6

  9
$DIMLTEX1
  6

  9
$DIMLTEX2
  6

  9
$DIMTXTDIRECTION
 70
     0
  9
$LUNITS
 70
     2
  9
$LUPREC
 70
     4
  9
$SKETCHINC
 40
0.1
  9
$FILLETRAD
 40
0.5
  9
$AUNITS
 70
     0
  9
$AUPREC
 70
     0
  9
$MENU
  1
.
  9
$ELEVATION
 40
0.0
  9
$PELEVATION
 40
0.0
  9
$THICKNESS
 40
0.0
  9
$LIMCHECK
 70
     0
  9
$CHAMFERA
 40
0.5
  9
$CHAMFERB
 40
0.5
  9
$CHAMFERC
 40
1.0
  9
$CHAMFERD
 40
0.0
  9
$SKPOLY
 70
     0
  9
$TDCREATE
 40
2457917.608576389
  9
$TDUCREATE
 40
2457917.233576389
  9
$TDUPDATE
 40
2457917.608576389
  9
$TDUUPDATE
 40
2457917.233576389
  9
$TDINDWG
 40
0.0000000116
  9
$TDUSRTIMER
 40
0.0000000116
  9
$USRTIMER
 70
     1
  9
$ANGBASE
 50
0.0
  9
$ANGDIR
 70
     0
  9
$PDMODE
 70
     0
  9
$PDSIZE
 40
0.0
  9
$PLINEWID
 40
0.0
  9
$SPLFRAME
 70
     0
  9
$SPLINETYPE
 70
     6
  9
$SPLINESEGS
 70
     8
  9
$HANDSEED
  5
AA
  9
$SURFTAB1
 70
     6
  9
$SURFTAB2
 70
     6
  9
$SURFTYPE
 70
     6
  9
$SURFU
 70
     6
  9
$SURFV
 70
     6
  9
$UCSBASE
  2

  9
$UCSNAME
  2

  9
$UCSORG
 10
0.0
 20
0.0
 30
0.0
  9
$UCSXDIR
 10
1.0
 20
0.0
 30
0.0
  9
$UCSYDIR
 10
0.0
 20
1.0
 30
0.0
  9
$UCSORTHOREF
  2

  9
$UCSORTHOVIEW
 70
     0
  9
$UCSORGTOP
 10
0.0
 20
0.0
 30
0.0
  9
$UCSORGBOTTOM
 10
0.0
 20
0.0
 30
0.0
  9
$UCSORGLEFT
 10
0.0
 20
0.0
 30
0.0
  9
$UCSORGRIGHT
 10
0.0
 20
0.0
 30
0.0
  9
$UCSORGFRONT
 10
0.0
 20
0.0
 30
0.0
  9
$UCSORGBACK
 10
0.0
 20
0.0
 30
0.0
  9
$PUCSBASE
  2

  9
$PUCSNAME
  2

  9
$PUCSORG
 10
0.0
 20
0.0
 30
0.0
  9
$PUCSXDIR
 10
1.0
 20
0.0
 30
0.0
  9
$PUCSYDIR
 10
0.0
 20
1.0
 30
0.0
  9
$PUCSORTHOREF
  2

  9
$PUCSORTHOVIEW
 70
     0
  9
$PUCSORGTOP
 10
0.0
 20
0.0
 30
0.0
  9
$PUCSORGBOTTOM
 10
0.0
 20
0.0
 30
0.0
  9
$PUCSORGLEFT
 10
0.0
 20
0.0
 30
0.0
  9
$PUCSORGRIGHT
 10
0.0
 20
0.0
 30
0.0
  9
$PUCSORGFRONT
 10
0.0
 20
0.0
 30
0.0
  9
$PUCSORGBACK
 10
0.0
 20
0.0
 30
0.0
  9
$USERI1
 70
     0
  9
$USERI2
 70
     0
  9
$USERI3
 70
     0
  9
$USERI4
 70
     0
  9
$USERI5
 70
     0
  9
$USERR1
 40
0.0
  9
$USERR2
 40
0.0
  9
$USERR3
 40
0.0
  9
$USERR4
 40
0.0
  9
$USERR5
 40
0.0
  9
$WORLDVIEW
 70
     1
  9
$SHADEDGE
 70
     3
  9
$SHADEDIF
 70
    70
  9
$TILEMODE
 70
     1
  9
$MAXACTVP
 70
    64
  9
$PINSBASE
 10
0.0
 20
0.0
 30
0.0
  9
$PLIMCHECK
 70
     0
  9
$PEXTMIN
 10
1.000000000000000E+20
 20
1.000000000000000E+20
 30
1.000000000000000E+20
  9
$PEXTMAX
 10
-1.000000000000000E+20
 20
-1.000000000000000E+20
 30
-1.000000000000000E+20
  9
$PLIMMIN
 10
0.0
 20
0.0
  9
$PLIMMAX
 10
12.0
 20
9.0
  9
$UNITMODE
 70
     0
  9
$VISRETAIN
 70
     1
  9
$PLINEGEN
 70
     0
  9
$PSLTSCALE
 70
     1
  9
$TREEDEPTH
 70
  3020
  9
$CMLSTYLE
  2
Standard
  9
$CMLJUST
 70
     0
  9
$CMLSCALE
 40
1.0
  9
$PROXYGRAPHICS
 70
     1
  9
$MEASUREMENT
 70
     0
  9
$CELWEIGHT
370
    -1
  9
$ENDCAPS
280
     0
  9
$JOINSTYLE
280
     0
  9
$LWDISPLAY
290
     1
  9
$INSUNITS
 70
     1
  9
$HYPERLINKBASE
  1

  9
$STYLESHEET
  1

  9
$XEDIT
290
     1
  9
$CEPSNTYPE
380
     0
  9
$PSTYLEMODE
290
     1
  9
$FINGERPRINTGUID
  2
{48917E03-43A6-1F55-6B0C-08FE6B2FCD86}
  9
$VERSIONGUID
  2
{FAEB1C32-E019-11D5-929B-00C0DF256EC4}
  9
$EXTNAMES
290
     1
  9
$PSVPSCALE
 40
0.0
  9
$OLESTARTUP
290
     0
  9
$SORTENTS
280
   127
  9
$INDEXCTL
280
     0
  9
$HIDETEXT
280
     1
  9
$XCLIPFRAME
280
     2
  9
$HALOGAP
280
     0
  9
$OBSCOLOR
 70
   257
  9
$OBSLTYPE
280
     0
  9
$INTERSECTIONDISPLAY
280
     0
  9
$INTERSECTIONCOLOR
 70
   257
  9
$DIMASSOC
280
     2
  9
$PROJECTNAME
  1

  9
$CAMERADISPLAY
290
     0
  9
$LENSLENGTH
 40
50.0
  9
$CAMERAHEIGHT
 40
0.0
  9
$STEPSPERSEC
 40
2.0
  9
$STEPSIZE
 40
6.0
  9
$3DDWFPREC
 40
2.0
  9
$PSOLWIDTH
 40
0.25
  9
$PSOLHEIGHT
 40
4.0
  9
$LOFTANG1
 40
1.570796326794897
  9
$LOFTANG2
 40
1.570796326794897
  9
$LOFTMAG1
 40
0.0
  9
$LOFTMAG2
 40
0.0
  9
$LOFTPARAM
 70
     7
  9
$LOFTNORMALS
280
     1
  9
$LATITUDE
 40
37.795
  9
$LONGITUDE
 40
-122.394
  9
$NORTHDIRECTION
 40
0.0
  9
$TIMEZONE
 70
 -8000
  9
$LIGHTGLYPHDISPLAY
280
     1
  9
$TILEMODELIGHTSYNCH
280
     1
  9
$CMATERIAL
347
3C
  9
$SOLIDHIST
280
     1
  9
$SHOWHIST
280
     1
  9
$DWFFRAME
280
     2
  9
$DGNFRAME
280
     2
  9
$REALWORLDSCALE
290
     1
  9
$INTERFERECOLOR
 62
   256
  9
$CSHADOW
280
     0
  9
$SHADOWPLANELOCATION
 40
0.0
  0
ENDSEC
  0
SECTION
  2
CLASSES
  0
CLASS
  1
ACDBDICTIONARYWDFLT
  2
AcDbDictionaryWithDefault
  3
ObjectDBX Classes
 90
        0
 91
        4
280
     0
281
     0
  0
CLASS
  1
VISUALSTYLE
  2
AcDbVisualStyle
  3
ObjectDBX Classes
 90
     4095
 91
        4
280
     0
281
     0
  0
CLASS
  1
MATERIAL
  2
AcDbMaterial
  3
ObjectDBX Classes
 90
     1153
 91
        4
280
     0
281
     0
  0
CLASS
  1
SUN
  2
AcDbSun
  3
SCENEOE
 90
     1024
 91
        4
280
     0
281
     0
  0
ENDSEC
  0
SECTION
  2
TABLES
  0
TABLE
  2
VPORT
  5
8
330
0
100
AcDbSymbolTable
 70
     1
  0
VPORT
  5
29
330
8
100
AcDbSymbolTableRecord
100
AcDbViewportTableRecord
  2
*Active
 70
     0
 10
0.0
 20
0.0
 11
1.0
 21
1.0
 12
0.0
 22
0.0
 13
0.0
 23
0.0
 14
0.5
 24
0.5
 15
0.5
 25
0.5
 16
0.0
 26
0.0
 36
1.0
 17
91.00082462281999
 27
-128.4993055234307
 37
0.0
 40
256.9986110468615
 41
0.7081814508812795
 42
50.0
 43
0.0
 44
0.0
 50
0.0
 51
0.0
 71
     0
 72
   100
 73
     1
 74
     3
 75
     0
 76
     0
 77
     0
 78
     0
281
     0
 65
     1
110
0.0
120
0.0
130
0.0
111
1.0
121
0.0
131
0.0
112
0.0
122
1.0
132
0.0
 79
     0
146
0.0
 60
     3
 61
     5
292
     1
282
     1
141
0.0
142
0.0
 63
   250
361
3F
  0
ENDTAB
  0
TABLE
  2
LTYPE
  5
5
330
0
100
AcDbSymbolTable
 70
     1
  0
LTYPE
  5
14
330
5
100
AcDbSymbolTableRecord
100
AcDbLinetypeTableRecord
  2
ByBlock
 70
     0
  3

 72
    65
 73
     0
 40
0.0
  0
LTYPE
  5
15
330
5
100
AcDbSymbolTableRecord
100
AcDbLinetypeTableRecord
  2
ByLayer
 70
     0
  3

 72
    65
 73
     0
 40
0.0
  0
LTYPE
  5
16
330
5
100
AcDbSymbolTableRecord
100
AcDbLinetypeTableRecord
  2
Continuous
 70
     0
  3
Solid line
 72
    65
 73
     0
 40
0.0
  0
ENDTAB
  0
TABLE
  2
LAYER
  5
2
330
0
100
AcDbSymbolTable
 70
     2
  0
LAYER
  5
10
330
2
100
AcDbSymbolTableRecord
100
AcDbLayerTableRecord
  2
0
 70
     0
 62
     7
  6
Continuous
370
    -3
390
F
347
3E
  0
LAYER
  5
40
330
2
100
AcDbSymbolTableRecord
100
AcDbLayerTableRecord
  2
_U+30EC_U+30A4_U+30E4_U+30FC 1
 70
     0
 62
     7
  6
Continuous
370
    -3
390
F
347
3E
  0
ENDTAB
  0
TABLE
  2
STYLE
  5
3
330
0
100
AcDbSymbolTable
 70
     1
  0
STYLE
  5
11
330
3
100
AcDbSymbolTableRecord
100
AcDbTextStyleTableRecord
  2
Standard
 70
     0
 40
0.0
 41
1.0
 50
0.0
 71
     0
 42
0.2
  3
txt
  4

  0
ENDTAB
  0
TABLE
  2
VIEW
  5
6
330
0
100
AcDbSymbolTable
 70
     0
  0
ENDTAB
  0
TABLE
  2
UCS
  5
7
330
0
100
AcDbSymbolTable
 70
     0
  0
ENDTAB
  0
TABLE
  2
APPID
  5
9
330
0
100
AcDbSymbolTable
 70
     1
  0
APPID
  5
12
330
9
100
AcDbSymbolTableRecord
100
AcDbRegAppTableRecord
  2
ACAD
 70
     0
  0
ENDTAB
  0
TABLE
  2
DIMSTYLE
  5
A
330
0
100
AcDbSymbolTable
 70
     1
100
AcDbDimStyleTable
  0
DIMSTYLE
105
27
330
A
100
AcDbSymbolTableRecord
100
AcDbDimStyleTableRecord
  2
Standard
 70
     0
178
     0
340
11
  0
ENDTAB
  0
TABLE
  2
BLOCK_RECORD
  5
1
330
0
100
AcDbSymbolTable
 70
     4
  0
BLOCK_RECORD
  5
1F
330
1
100
AcDbSymbolTableRecord
100
AcDbBlockTableRecord
  2
*Model_Space
340
22
 70
     0
280
     1
281
     0
  0
BLOCK_RECORD
  5
1B
330
1
100
AcDbSymbolTableRecord
100
AcDbBlockTableRecord
  2
*Paper_Space
340
1E
 70
     0
280
     1
281
     0
  0
BLOCK_RECORD
  5
23
330
1
100
AcDbSymbolTableRecord
100
AcDbBlockTableRecord
  2
*Paper_Space0
340
26
 70
     0
280
     1
281
     0
  0
BLOCK_RECORD
  5
7B
330
1
100
AcDbSymbolTableRecord
100
AcDbBlockTableRecord
  2
block 2
340
0
102
{BLKREFS
331
7C
102
}
 70
     0
280
     1
281
     0
  0
BLOCK_RECORD
  5
83
330
1
100
AcDbSymbolTableRecord
100
AcDbBlockTableRecord
  2
block 3
340
0
102
{BLKREFS
331
84
102
}
 70
     0
280
     1
281
     0
  0
BLOCK_RECORD
  5
93
330
1
100
AcDbSymbolTableRecord
100
AcDbBlockTableRecord
  2
block 4
340
0
102
{BLKREFS
331
94
102
}
 70
     0
280
     1
281
     0
  0
ENDTAB
  0
ENDSEC
  0
SECTION
  2
BLOCKS
  0
BLOCK
  5
20
330
1F
100
AcDbEntity
  8
0
100
AcDbBlockBegin
  2
*Model_Space
 70
     0
 10
0.0
 20
0.0
 30
0.0
  3
*Model_Space
  1

  0
ENDBLK
  5
21
330
1F
100
AcDbEntity
  8
0
100
AcDbBlockEnd
  0
BLOCK
  5
1C
330
1B
100
AcDbEntity
 67
     1
  8
0
100
AcDbBlockBegin
  2
*Paper_Space
 70
     0
 10
0.0
 20
0.0
 30
0.0
  3
*Paper_Space
  1

  0
ENDBLK
  5
1D
330
1B
100
AcDbEntity
 67
     1
  8
0
100
AcDbBlockEnd
  0
BLOCK
  5
24
330
23
100
AcDbEntity
  8
0
100
AcDbBlockBegin
  2
*Paper_Space0
 70
     0
 10
0.0
 20
0.0
 30
0.0
  3
*Paper_Space0
  1

  0
ENDBLK
  5
25
330
23
100
AcDbEntity
  8
0
100
AcDbBlockEnd
  0
BLOCK
  5
7D
330
7B
100
AcDbEntity
  8
0
100
AcDbBlockBegin
  2
block 2
 70
     0
 10
0.0
 20
0.0
 30
0.0
  3
block 2
  1

  0
SPLINE
  5
7F
330
7B
100
AcDbEntity
  8
_U+30EC_U+30A4_U+30E4_U+30FC 1
370
     0
100
AcDbSpline
210
0.0
220
0.0
230
1.0
 70
    11
 71
     3
 72
    62
 73
    58
 74
     0
 42
0.0000000001
 43
0.0000000001
 12
1.0
 22
0.0
 32
0.0
 13
1.0
 23
0.0
 33
0.0
 40
0.0
 40
0.0
 40
0.0
 40
0.0
 40
1.0
 40
1.0
 40
1.0
 40
2.0
 40
2.0
 40
2.0
 40
3.0
 40
3.0
 40
3.0
 40
4.0
 40
4.0
 40
4.0
 40
5.0
 40
5.0
 40
5.0
 40
6.0
 40
6.0
 40
6.0
 40
7.0
 40
7.0
 40
7.0
 40
8.0
 40
8.0
 40
8.0
 40
9.0
 40
9.0
 40
9.0
 40
10.0
 40
10.0
 40
10.0
 40
11.0
 40
11.0
 40
11.0
 40
12.0
 40
12.0
 40
12.0
 40
13.0
 40
13.0
 40
13.0
 40
14.0
 40
14.0
 40
14.0
 40
15.0
 40
15.0
 40
15.0
 40
16.0
 40
16.0
 40
16.0
 40
17.0
 40
17.0
 40
17.0
 40
18.0
 40
18.0
 40
18.0
 40
19.0
 40
19.0
 40
19.0
 40
19.0
 10
98.11425236262421
 20
-132.62652991476
 30
0.0
 10
98.03294810917232
 20
-132.62652991476
 30
0.0
 10
97.84760197206589
 20
-132.6051703227515
 30
0.0
 10
97.74080401202313
 20
-132.419135166548
 30
0.0
 10
97.67810327419159
 20
-132.3068250537289
 30
0.0
 10
97.67396915960929
 20
-132.2076063037537
 30
0.0
 10
97.67052406412404
 20
-132.1228569548165
 30
0.0
 10
97.67052406412404
 20
-132.1228569548165
 30
0.0
 10
97.85793725852163
 20
-132.1228569548165
 30
0.0
 10
97.85793725852163
 20
-132.1228569548165
 30
0.0
 10
97.86000431581279
 20
-132.1972710172979
 30
0.0
 10
97.86896156407443
 20
-132.4318820198434
 30
0.0
 10
98.11080726713897
 20
-132.4318820198434
 30
0.0
 10
98.22794051363746
 20
-132.4318820198434
 30
0.0
 10
98.35747610388286
 20
-132.3619465814928
 30
0.0
 10
98.35747610388286
 20
-132.1335367508208
 30
0.0
 10
98.35747610388286
 20
-132.0174370329679
 30
0.0
 10
98.32509220632151
 20
-131.9685166770773
 30
0.0
 10
98.29822046153656
 20
-131.936821798613
 30
0.0
 10
98.23483070460796
 20
-131.8627522456802
 30
0.0
 10
98.13561195463276
 20
-131.8500053923847
 30
0.0
 10
98.08875865603338
 20
-131.8500053923847
 30
0.0
 10
98.07291121680122
 20
-131.8500053923847
 30
0.0
 10
98.04190535743398
 20
-131.8520724496759
 30
0.0
 10
98.01847870813427
 20
-131.8562065642582
 30
0.0
 10
98.01847870813427
 20
-131.8562065642582
 30
0.0
 10
98.01847870813427
 20
-131.6619031788901
 30
0.0
 10
98.01847870813427
 20
-131.6619031788901
 30
0.0
 10
98.05086260569563
 20
-131.6681043507635
 30
0.0
 10
98.08738061783927
 20
-131.6701714080547
 30
0.0
 10
98.09220375151862
 20
-131.6701714080547
 30
0.0
 10
98.14870331747672
 20
-131.6701714080547
 30
0.0
 10
98.318202015351
 20
-131.6491563255947
 30
0.0
 10
98.318202015351
 20
-131.4121337562095
 30
0.0
 10
98.318202015351
 20
-131.2347113387191
 30
0.0
 10
98.20589190253186
 20
-131.1795898109551
 30
0.0
 10
98.11218530533307
 20
-131.1795898109551
 30
0.0
 10
97.88687606059773
 20
-131.1795898109551
 30
0.0
 10
97.87998586962723
 20
-131.4121337562095
 30
0.0
 10
97.87585175504493
 20
-131.4841362518512
 30
0.0
 10
97.87585175504493
 20
-131.4841362518512
 30
0.0
 10
97.70290796168538
 20
-131.4841362518512
 30
0.0
 10
97.70290796168538
 20
-131.4841362518512
 30
0.0
 10
97.71048717175294
 20
-131.3594237952852
 30
0.0
 10
97.73391382105264
 20
-130.9825303491988
 30
0.0
 10
98.12320961088587
 20
-130.9825303491988
 30
0.0
 10
98.3140679007687
 20
-130.9825303491988
 30
0.0
 10
98.52008461078665
 20
-131.1096543726045
 30
0.0
 10
98.52008461078665
 20
-131.4055880747875
 30
0.0
 10
98.52008461078665
 20
-131.5919677405395
 30
0.0
 10
98.43878035733475
 20
-131.674305522637
 30
0.0
 10
98.35403100839761
 20
-131.7356282222744
 30
0.0
 10
98.4063964597734
 20
-131.7631889861564
 30
0.0
 10
98.56142575660965
 20
-131.8438042205113
 30
0.0
 10
98.56142575660965
 20
-132.1207898975254
 30
0.0
 10
98.56142575660965
 20
-132.4594427837254
 30
0.0
 10
98.35058591291236
 20
-132.62652991476
 30
0.0
 10
98.11425236262421
 20
-132.62652991476
 30
0.0
  0
HATCH
  5
80
330
7B
100
AcDbEntity
  8
_U+30EC_U+30A4_U+30E4_U+30FC 1
 62
   179
420
  2234388
100
AcDbHatch
 10
0.0
 20
0.0
 30
0.0
210
0.0
220
0.0
230
1.0
  2
SOLID
 70
     1
 71
     0
 91
        1
 92
        1
 93
        1
 72
     4
 94
        3
 73
     0
 74
     1
 95
       62
 96
       58
 40
0.0
 40
0.0
 40
0.0
 40
0.0
 40
1.0
 40
1.0
 40
1.0
 40
2.0
 40
2.0
 40
2.0
 40
3.0
 40
3.0
 40
3.0
 40
4.0
 40
4.0
 40
4.0
 40
5.0
 40
5.0
 40
5.0
 40
6.0
 40
6.0
 40
6.0
 40
7.0
 40
7.0
 40
7.0
 40
8.0
 40
8.0
 40
8.0
 40
9.0
 40
9.0
 40
9.0
 40
10.0
 40
10.0
 40
10.0
 40
11.0
 40
11.0
 40
11.0
 40
12.0
 40
12.0
 40
12.0
 40
13.0
 40
13.0
 40
13.0
 40
14.0
 40
14.0
 40
14.0
 40
15.0
 40
15.0
 40
15.0
 40
16.0
 40
16.0
 40
16.0
 40
17.0
 40
17.0
 40
17.0
 40
18.0
 40
18.0
 40
18.0
 40
19.0
 40
19.0
 40
19.0
 40
19.0
 10
98.11425236262421
 20
-132.62652991476
 10
98.03294810917232
 20
-132.62652991476
 10
97.84760197206589
 20
-132.6051703227515
 10
97.74080401202313
 20
-132.419135166548
 10
97.67810327419159
 20
-132.3068250537289
 10
97.67396915960929
 20
-132.2076063037537
 10
97.67052406412404
 20
-132.1228569548165
 10
97.67052406412404
 20
-132.1228569548165
 10
97.85793725852163
 20
-132.1228569548165
 10
97.85793725852163
 20
-132.1228569548165
 10
97.86000431581279
 20
-132.1972710172979
 10
97.86896156407443
 20
-132.4318820198434
 10
98.11080726713897
 20
-132.4318820198434
 10
98.22794051363746
 20
-132.4318820198434
 10
98.35747610388286
 20
-132.3619465814928
 10
98.35747610388286
 20
-132.1335367508208
 10
98.35747610388286
 20
-132.0174370329679
 10
98.32509220632151
 20
-131.9685166770773
 10
98.29822046153656
 20
-131.936821798613
 10
98.23483070460796
 20
-131.8627522456802
 10
98.13561195463276
 20
-131.8500053923847
 10
98.08875865603338
 20
-131.8500053923847
 10
98.07291121680122
 20
-131.8500053923847
 10
98.04190535743398
 20
-131.8520724496759
 10
98.01847870813427
 20
-131.8562065642582
 10
98.01847870813427
 20
-131.8562065642582
 10
98.01847870813427
 20
-131.6619031788901
 10
98.01847870813427
 20
-131.6619031788901
 10
98.05086260569563
 20
-131.6681043507635
 10
98.08738061783927
 20
-131.6701714080547
 10
98.09220375151862
 20
-131.6701714080547
 10
98.14870331747672
 20
-131.6701714080547
 10
98.318202015351
 20
-131.6491563255947
 10
98.318202015351
 20
-131.4121337562095
 10
98.318202015351
 20
-131.2347113387191
 10
98.20589190253186
 20
-131.1795898109551
 10
98.11218530533307
 20
-131.1795898109551
 10
97.88687606059773
 20
-131.1795898109551
 10
97.87998586962723
 20
-131.4121337562095
 10
97.87585175504493
 20
-131.4841362518512
 10
97.87585175504493
 20
-131.4841362518512
 10
97.70290796168538
 20
-131.4841362518512
 10
97.70290796168538
 20
-131.4841362518512
 10
97.71048717175294
 20
-131.3594237952852
 10
97.73391382105264
 20
-130.9825303491988
 10
98.12320961088587
 20
-130.9825303491988
 10
98.3140679007687
 20
-130.9825303491988
 10
98.52008461078665
 20
-131.1096543726045
 10
98.52008461078665
 20
-131.4055880747875
 10
98.52008461078665
 20
-131.5919677405395
 10
98.43878035733475
 20
-131.674305522637
 10
98.35403100839761
 20
-131.7356282222744
 10
98.4063964597734
 20
-131.7631889861564
 10
98.56142575660965
 20
-131.8438042205113
 10
98.56142575660965
 20
-132.1207898975254
 10
98.56142575660965
 20
-132.4594427837254
 10
98.35058591291236
 20
-132.62652991476
 10
98.11425236262421
 20
-132.62652991476
 97
        0
 97
        0
 75
     2
 76
     1
 98
        0
  0
SPLINE
  5
81
330
7B
100
AcDbEntity
  8
_U+30EC_U+30A4_U+30E4_U+30FC 1
370
     0
100
AcDbSpline
210
0.0
220
0.0
230
1.0
 70
    11
 71
     3
 72
    53
 73
    49
 74
     0
 42
0.0000000001
 43
0.0000000001
 12
1.0
 22
0.0
 32
0.0
 13
1.0
 23
0.0
 33
0.0
 40
0.0
 40
0.0
 40
0.0
 40
0.0
 40
1.0
 40
1.0
 40
1.0
 40
2.0
 40
2.0
 40
2.0
 40
3.0
 40
3.0
 40
3.0
 40
4.0
 40
4.0
 40
4.0
 40
5.0
 40
5.0
 40
5.0
 40
6.0
 40
6.0
 40
6.0
 40
7.0
 40
7.0
 40
7.0
 40
8.0
 40
8.0
 40
8.0
 40
9.0
 40
9.0
 40
9.0
 40
10.0
 40
10.0
 40
10.0
 40
11.0
 40
11.0
 40
11.0
 40
12.0
 40
12.0
 40
12.0
 40
13.0
 40
13.0
 40
13.0
 40
14.0
 40
14.0
 40
14.0
 40
15.0
 40
15.0
 40
15.0
 40
16.0
 40
16.0
 40
16.0
 40
16.0
 10
99.10712888147322
 20
-132.62652991476
 30
0.0
 10
99.04029402905938
 20
-132.62652991476
 30
0.0
 10
98.95347762283107
 20
-132.6096489468823
 30
0.0
 10
98.86735023569983
 20
-132.5459146804052
 30
0.0
 10
98.7192111298341
 20
-132.4360161344257
 30
0.0
 10
98.70129663331079
 20
-132.3047579964377
 30
0.0
 10
98.68476017498159
 20
-132.1972710172979
 30
0.0
 10
98.68476017498159
 20
-132.1972710172979
 30
0.0
 10
98.87424042667034
 20
-132.1972710172979
 30
0.0
 10
98.87424042667034
 20
-132.1972710172979
 30
0.0
 10
98.92109372526973
 20
-132.3957085172483
 30
0.0
 10
99.02926972350657
 20
-132.4253363384215
 30
0.0
 10
99.10850691966732
 20
-132.4253363384215
 30
0.0
 10
99.22770722345696
 20
-132.4253363384215
 30
0.0
 10
99.35793183279941
 20
-132.3261175884463
 30
0.0
 10
99.35793183279941
 20
-132.0932291336434
 30
0.0
 10
99.35793183279941
 20
-131.8376030486378
 30
0.0
 10
99.20428057415727
 20
-131.7676676102872
 30
0.0
 10
99.10161672869683
 20
-131.7676676102872
 30
0.0
 10
99.07474498391187
 20
-131.7676676102872
 30
0.0
 10
98.95347762283107
 20
-131.7676676102872
 30
0.0
 10
98.87768552215559
 20
-131.8968586909841
 30
0.0
 10
98.87768552215559
 20
-131.8968586909841
 30
0.0
 10
98.72816837809575
 20
-131.8775661562667
 30
0.0
 10
98.72816837809575
 20
-131.8775661562667
 30
0.0
 10
98.72816837809575
 20
-131.8775661562667
 30
0.0
 10
98.83083222355619
 20
-131.0314507050894
 30
0.0
 10
98.83083222355619
 20
-131.0314507050894
 30
0.0
 10
98.83083222355619
 20
-131.0314507050894
 30
0.0
 10
99.4943576140153
 20
-131.0314507050894
 30
0.0
 10
99.4943576140153
 20
-131.0314507050894
 30
0.0
 10
99.4943576140153
 20
-131.0314507050894
 30
0.0
 10
99.4943576140153
 20
-131.226098600006
 30
0.0
 10
99.4943576140153
 20
-131.226098600006
 30
0.0
 10
99.4943576140153
 20
-131.226098600006
 30
0.0
 10
98.97001408116027
 20
-131.226098600006
 30
0.0
 10
98.97001408116027
 20
-131.226098600006
 30
0.0
 10
98.97001408116027
 20
-131.226098600006
 30
0.0
 10
98.91420353429923
 20
-131.6491563255947
 30
0.0
 10
98.91420353429923
 20
-131.6491563255947
 30
0.0
 10
98.96656898567502
 20
-131.6150498802907
 30
0.0
 10
99.03684893357412
 20
-131.5750867726618
 30
0.0
 10
99.13744572174342
 20
-131.5750867726618
 30
0.0
 10
99.35379771821711
 20
-131.5750867726618
 30
0.0
 10
99.55568031365276
 20
-131.7611219288653
 30
0.0
 10
99.55568031365276
 20
-132.0742811084745
 30
0.0
 10
99.55568031365276
 20
-132.391574402666
 30
0.0
 10
99.3648220237699
 20
-132.62652991476
 30
0.0
 10
99.10712888147322
 20
-132.62652991476
 30
0.0
  0
HATCH
  5
82
330
7B
100
AcDbEntity
  8
_U+30EC_U+30A4_U+30E4_U+30FC 1
 62
   179
420
  2234388
100
AcDbHatch
 10
0.0
 20
0.0
 30
0.0
210
0.0
220
0.0
230
1.0
  2
SOLID
 70
     1
 71
     0
 91
        1
 92
        1
 93
        1
 72
     4
 94
        3
 73
     0
 74
     1
 95
       53
 96
       49
 40
0.0
 40
0.0
 40
0.0
 40
0.0
 40
1.0
 40
1.0
 40
1.0
 40
2.0
 40
2.0
 40
2.0
 40
3.0
 40
3.0
 40
3.0
 40
4.0
 40
4.0
 40
4.0
 40
5.0
 40
5.0
 40
5.0
 40
6.0
 40
6.0
 40
6.0
 40
7.0
 40
7.0
 40
7.0
 40
8.0
 40
8.0
 40
8.0
 40
9.0
 40
9.0
 40
9.0
 40
10.0
 40
10.0
 40
10.0
 40
11.0
 40
11.0
 40
11.0
 40
12.0
 40
12.0
 40
12.0
 40
13.0
 40
13.0
 40
13.0
 40
14.0
 40
14.0
 40
14.0
 40
15.0
 40
15.0
 40
15.0
 40
16.0
 40
16.0
 40
16.0
 40
16.0
 10
99.10712888147322
 20
-132.62652991476
 10
99.04029402905938
 20
-132.62652991476
 10
98.95347762283107
 20
-132.6096489468823
 10
98.86735023569983
 20
-132.5459146804052
 10
98.7192111298341
 20
-132.4360161344257
 10
98.70129663331079
 20
-132.3047579964377
 10
98.68476017498159
 20
-132.1972710172979
 10
98.68476017498159
 20
-132.1972710172979
 10
98.87424042667034
 20
-132.1972710172979
 10
98.87424042667034
 20
-132.1972710172979
 10
98.92109372526973
 20
-132.3957085172483
 10
99.02926972350657
 20
-132.4253363384215
 10
99.10850691966732
 20
-132.4253363384215
 10
99.22770722345696
 20
-132.4253363384215
 10
99.35793183279941
 20
-132.3261175884463
 10
99.35793183279941
 20
-132.0932291336434
 10
99.35793183279941
 20
-131.8376030486378
 10
99.20428057415727
 20
-131.7676676102872
 10
99.10161672869683
 20
-131.7676676102872
 10
99.07474498391187
 20
-131.7676676102872
 10
98.95347762283107
 20
-131.7676676102872
 10
98.87768552215559
 20
-131.8968586909841
 10
98.87768552215559
 20
-131.8968586909841
 10
98.72816837809575
 20
-131.8775661562667
 10
98.72816837809575
 20
-131.8775661562667
 10
98.72816837809575
 20
-131.8775661562667
 10
98.83083222355619
 20
-131.0314507050894
 10
98.83083222355619
 20
-131.0314507050894
 10
98.83083222355619
 20
-131.0314507050894
 10
99.4943576140153
 20
-131.0314507050894
 10
99.4943576140153
 20
-131.0314507050894
 10
99.4943576140153
 20
-131.0314507050894
 10
99.4943576140153
 20
-131.226098600006
 10
99.4943576140153
 20
-131.226098600006
 10
99.4943576140153
 20
-131.226098600006
 10
98.97001408116027
 20
-131.226098600006
 10
98.97001408116027
 20
-131.226098600006
 10
98.97001408116027
 20
-131.226098600006
 10
98.91420353429923
 20
-131.6491563255947
 10
98.91420353429923
 20
-131.6491563255947
 10
98.96656898567502
 20
-131.6150498802907
 10
99.03684893357412
 20
-131.5750867726618
 10
99.13744572174342
 20
-131.5750867726618
 10
99.35379771821711
 20
-131.5750867726618
 10
99.55568031365276
 20
-131.7611219288653
 10
99.55568031365276
 20
-132.0742811084745
 10
99.55568031365276
 20
-132.391574402666
 10
99.3648220237699
 20
-132.62652991476
 10
99.10712888147322
 20
-132.62652991476
 97
        0
 97
        0
 75
     2
 76
     1
 98
        0
  0
ENDBLK
  5
7E
330
7B
100
AcDbEntity
  8
0
100
AcDbBlockEnd
  0
BLOCK
  5
85
330
83
100
AcDbEntity
  8
0
100
AcDbBlockBegin
  2
block 3
 70
     0
 10
0.0
 20
0.0
 30
0.0
  3
block 3
  1

  0
SPLINE
  5
87
330
83
100
AcDbEntity
  8
_U+30EC_U+30A4_U+30E4_U+30FC 1
370
     0
100
AcDbSpline
210
0.0
220
0.0
230
1.0
 70
    11
 71
     3
 72
    53
 73
    49
 74
     0
 42
0.0000000001
 43
0.0000000001
 12
1.0
 22
0.0
 32
0.0
 13
1.0
 23
0.0
 33
0.0
 40
0.0
 40
0.0
 40
0.0
 40
0.0
 40
1.0
 40
1.0
 40
1.0
 40
2.0
 40
2.0
 40
2.0
 40
3.0
 40
3.0
 40
3.0
 40
4.0
 40
4.0
 40
4.0
 40
5.0
 40
5.0
 40
5.0
 40
6.0
 40
6.0
 40
6.0
 40
7.0
 40
7.0
 40
7.0
 40
8.0
 40
8.0
 40
8.0
 40
9.0
 40
9.0
 40
9.0
 40
10.0
 40
10.0
 40
10.0
 40
11.0
 40
11.0
 40
11.0
 40
12.0
 40
12.0
 40
12.0
 40
13.0
 40
13.0
 40
13.0
 40
14.0
 40
14.0
 40
14.0
 40
15.0
 40
15.0
 40
15.0
 40
16.0
 40
16.0
 40
16.0
 40
16.0
 10
78.79053953108362
 20
-128.6798285268578
 30
0.0
 10
78.72370467866978
 20
-128.6798285268578
 30
0.0
 10
78.63723278199001
 20
-128.6629475589801
 30
0.0
 10
78.5504163757617
 20
-128.5993855472773
 30
0.0
 10
78.40262177944449
 20
-128.4893147465235
 30
0.0
 10
78.38470728292118
 20
-128.3582288633098
 30
0.0
 10
78.36834307936626
 20
-128.2503973746214
 30
0.0
 10
78.36834307936626
 20
-128.2503973746214
 30
0.0
 10
78.55765107628073
 20
-128.2503973746214
 30
0.0
 10
78.55765107628073
 20
-128.2503973746214
 30
0.0
 10
78.60450437488012
 20
-128.4491793841204
 30
0.0
 10
78.71268037311697
 20
-128.4788072052935
 30
0.0
 10
78.79226207882624
 20
-128.4788072052935
 30
0.0
 10
78.91111787306737
 20
-128.4788072052935
 30
0.0
 10
79.04099797286128
 20
-128.379416200544
 30
0.0
 10
79.04099797286128
 20
-128.1467000005154
 30
0.0
 10
79.04099797286128
 20
-127.8907294059614
 30
0.0
 10
78.88769122376766
 20
-127.820966222385
 30
0.0
 10
78.78502737830722
 20
-127.820966222385
 30
0.0
 10
78.75781112397374
 20
-127.820966222385
 30
0.0
 10
78.63723278199001
 20
-127.820966222385
 30
0.0
 10
78.56144068131451
 20
-127.9499850483077
 30
0.0
 10
78.56144068131451
 20
-127.9499850483077
 30
0.0
 10
78.4117512824804
 20
-127.9308647683645
 30
0.0
 10
78.4117512824804
 20
-127.9308647683645
 30
0.0
 10
78.4117512824804
 20
-127.9308647683645
 30
0.0
 10
78.5145873827151
 20
-127.0847493171871
 30
0.0
 10
78.5145873827151
 20
-127.0847493171871
 30
0.0
 10
78.5145873827151
 20
-127.0847493171871
 30
0.0
 10
79.17811277317422
 20
-127.0847493171871
 30
0.0
 10
79.17811277317422
 20
-127.0847493171871
 30
0.0
 10
79.17811277317422
 20
-127.0847493171871
 30
0.0
 10
79.17811277317422
 20
-127.2793972121038
 30
0.0
 10
79.17811277317422
 20
-127.2793972121038
 30
0.0
 10
79.17811277317422
 20
-127.2793972121038
 30
0.0
 10
78.65342473077068
 20
-127.2793972121038
 30
0.0
 10
78.65342473077068
 20
-127.2793972121038
 30
0.0
 10
78.65342473077068
 20
-127.2793972121038
 30
0.0
 10
78.5972696743611
 20
-127.7024549376925
 30
0.0
 10
78.5972696743611
 20
-127.7024549376925
 30
0.0
 10
78.6496351257369
 20
-127.6685207471627
 30
0.0
 10
78.719915073636
 20
-127.6283853847596
 30
0.0
 10
78.82120088090234
 20
-127.6283853847596
 30
0.0
 10
79.03755287737603
 20
-127.6283853847596
 30
0.0
 10
79.23943547281168
 20
-127.8145927957373
 30
0.0
 10
79.23943547281168
 20
-128.1275797205723
 30
0.0
 10
79.23943547281168
 20
-128.445045269538
 30
0.0
 10
79.04823267338031
 20
-128.6798285268578
 30
0.0
 10
78.79053953108362
 20
-128.6798285268578
 30
0.0
  0
HATCH
  5
88
330
83
100
AcDbEntity
  8
_U+30EC_U+30A4_U+30E4_U+30FC 1
 62
   179
420
  2234388
100
AcDbHatch
 10
0.0
 20
0.0
 30
0.0
210
0.0
220
0.0
230
1.0
  2
SOLID
 70
     1
 71
     0
 91
        1
 92
        1
 93
        1
 72
     4
 94
        3
 73
     0
 74
     1
 95
       53
 96
       49
 40
0.0
 40
0.0
 40
0.0
 40
0.0
 40
1.0
 40
1.0
 40
1.0
 40
2.0
 40
2.0
 40
2.0
 40
3.0
 40
3.0
 40
3.0
 40
4.0
 40
4.0
 40
4.0
 40
5.0
 40
5.0
 40
5.0
 40
6.0
 40
6.0
 40
6.0
 40
7.0
 40
7.0
 40
7.0
 40
8.0
 40
8.0
 40
8.0
 40
9.0
 40
9.0
 40
9.0
 40
10.0
 40
10.0
 40
10.0
 40
11.0
 40
11.0
 40
11.0
 40
12.0
 40
12.0
 40
12.0
 40
13.0
 40
13.0
 40
13.0
 40
14.0
 40
14.0
 40
14.0
 40
15.0
 40
15.0
 40
15.0
 40
16.0
 40
16.0
 40
16.0
 40
16.0
 10
78.79053953108362
 20
-128.6798285268578
 10
78.72370467866978
 20
-128.6798285268578
 10
78.63723278199001
 20
-128.6629475589801
 10
78.5504163757617
 20
-128.5993855472773
 10
78.40262177944449
 20
-128.4893147465235
 10
78.38470728292118
 20
-128.3582288633098
 10
78.36834307936626
 20
-128.2503973746214
 10
78.36834307936626
 20
-128.2503973746214
 10
78.55765107628073
 20
-128.2503973746214
 10
78.55765107628073
 20
-128.2503973746214
 10
78.60450437488012
 20
-128.4491793841204
 10
78.71268037311697
 20
-128.4788072052935
 10
78.79226207882624
 20
-128.4788072052935
 10
78.91111787306737
 20
-128.4788072052935
 10
79.04099797286128
 20
-128.379416200544
 10
79.04099797286128
 20
-128.1467000005154
 10
79.04099797286128
 20
-127.8907294059614
 10
78.88769122376766
 20
-127.820966222385
 10
78.78502737830722
 20
-127.820966222385
 10
78.75781112397374
 20
-127.820966222385
 10
78.63723278199001
 20
-127.820966222385
 10
78.56144068131451
 20
-127.9499850483077
 10
78.56144068131451
 20
-127.9499850483077
 10
78.4117512824804
 20
-127.9308647683645
 10
78.4117512824804
 20
-127.9308647683645
 10
78.4117512824804
 20
-127.9308647683645
 10
78.5145873827151
 20
-127.0847493171871
 10
78.5145873827151
 20
-127.0847493171871
 10
78.5145873827151
 20
-127.0847493171871
 10
79.17811277317422
 20
-127.0847493171871
 10
79.17811277317422
 20
-127.0847493171871
 10
79.17811277317422
 20
-127.0847493171871
 10
79.17811277317422
 20
-127.2793972121038
 10
79.17811277317422
 20
-127.2793972121038
 10
79.17811277317422
 20
-127.2793972121038
 10
78.65342473077068
 20
-127.2793972121038
 10
78.65342473077068
 20
-127.2793972121038
 10
78.65342473077068
 20
-127.2793972121038
 10
78.5972696743611
 20
-127.7024549376925
 10
78.5972696743611
 20
-127.7024549376925
 10
78.6496351257369
 20
-127.6685207471627
 10
78.719915073636
 20
-127.6283853847596
 10
78.82120088090234
 20
-127.6283853847596
 10
79.03755287737603
 20
-127.6283853847596
 10
79.23943547281168
 20
-127.8145927957373
 10
79.23943547281168
 20
-128.1275797205723
 10
79.23943547281168
 20
-128.445045269538
 10
79.04823267338031
 20
-128.6798285268578
 10
78.79053953108362
 20
-128.6798285268578
 97
        0
 97
        0
 75
     2
 76
     1
 98
        0
  0
POLYLINE
  5
89
330
83
100
AcDbEntity
  8
_U+30EC_U+30A4_U+30E4_U+30FC 1
370
     0
100
AcDb2dPolyline
 66
     1
 10
0.0
 20
0.0
 30
0.0
  0
VERTEX
  5
8A
330
89
100
AcDbEntity
  8
_U+30EC_U+30A4_U+30E4_U+30FC 1
370
     0
100
AcDbVertex
100
AcDb2dVertex
 10
79.43304983908271
 20
-128.6290133684504
 30
0.0
  0
VERTEX
  5
8B
330
89
100
AcDbEntity
  8
_U+30EC_U+30A4_U+30E4_U+30FC 1
370
     0
100
AcDbVertex
100
AcDb2dVertex
 10
79.43304983908271
 20
-128.3773491432529
 30
0.0
  0
VERTEX
  5
8C
330
89
100
AcDbEntity
  8
_U+30EC_U+30A4_U+30E4_U+30FC 1
370
     0
100
AcDbVertex
100
AcDb2dVertex
 10
79.64767928781377
 20
-128.3773491432529
 30
0.0
  0
VERTEX
  5
8D
330
89
100
AcDbEntity
  8
_U+30EC_U+30A4_U+30E4_U+30FC 1
370
     0
100
AcDbVertex
100
AcDb2dVertex
 10
79.64767928781377
 20
-128.6290133684504
 30
0.0
  0
VERTEX
  5
8E
330
89
100
AcDbEntity
  8
_U+30EC_U+30A4_U+30E4_U+30FC 1
370
     0
100
AcDbVertex
100
AcDb2dVertex
 10
79.43304983908271
 20
-128.6290133684504
 30
0.0
  0
SEQEND
  5
8F
330
89
100
AcDbEntity
  8
_U+30EC_U+30A4_U+30E4_U+30FC 1
370
     0
  0
HATCH
  5
90
330
83
100
AcDbEntity
  8
_U+30EC_U+30A4_U+30E4_U+30FC 1
 62
   179
420
  2234388
100
AcDbHatch
 10
0.0
 20
0.0
 30
0.0
210
0.0
220
0.0
230
1.0
  2
SOLID
 70
     1
 71
     0
 91
        1
 92
        1
 93
        4
 72
     1
 10
79.43304983908271
 20
-128.6290133684504
 11
79.43304983908271
 21
-128.3773491432529
 72
     1
 10
79.43304983908271
 20
-128.3773491432529
 11
79.64767928781377
 21
-128.3773491432529
 72
     1
 10
79.64767928781377
 20
-128.3773491432529
 11
79.64767928781377
 21
-128.6290133684504
 72
     1
 10
79.64767928781377
 20
-128.6290133684504
 11
79.43304983908271
 21
-128.6290133684504
 97
        0
 75
     2
 76
     1
 98
        0
  0
SPLINE
  5
91
330
83
100
AcDbEntity
  8
_U+30EC_U+30A4_U+30E4_U+30FC 1
370
     0
100
AcDbSpline
210
0.0
220
0.0
230
1.0
 70
    11
 71
     3
 72
    53
 73
    49
 74
     0
 42
0.0000000001
 43
0.0000000001
 12
1.0
 22
0.0
 32
0.0
 13
1.0
 23
0.0
 33
0.0
 40
0.0
 40
0.0
 40
0.0
 40
0.0
 40
1.0
 40
1.0
 40
1.0
 40
2.0
 40
2.0
 40
2.0
 40
3.0
 40
3.0
 40
3.0
 40
4.0
 40
4.0
 40
4.0
 40
5.0
 40
5.0
 40
5.0
 40
6.0
 40
6.0
 40
6.0
 40
7.0
 40
7.0
 40
7.0
 40
8.0
 40
8.0
 40
8.0
 40
9.0
 40
9.0
 40
9.0
 40
10.0
 40
10.0
 40
10.0
 40
11.0
 40
11.0
 40
11.0
 40
12.0
 40
12.0
 40
12.0
 40
13.0
 40
13.0
 40
13.0
 40
14.0
 40
14.0
 40
14.0
 40
15.0
 40
15.0
 40
15.0
 40
16.0
 40
16.0
 40
16.0
 40
16.0
 10
80.2588392268971
 20
-128.6798285268578
 30
0.0
 10
80.19200437448325
 20
-128.6798285268578
 30
0.0
 10
80.10553247780348
 20
-128.6629475589801
 30
0.0
 10
80.01906058112371
 20
-128.5993855472773
 30
0.0
 10
79.8712659848065
 20
-128.4893147465235
 30
0.0
 10
79.85300697873467
 20
-128.3582288633098
 30
0.0
 10
79.836815029954
 20
-128.2503973746214
 30
0.0
 10
79.836815029954
 20
-128.2503973746214
 30
0.0
 10
80.02629528164273
 20
-128.2503973746214
 30
0.0
 10
80.02629528164273
 20
-128.2503973746214
 30
0.0
 10
80.07314858024213
 20
-128.4491793841204
 30
0.0
 10
80.18132457847898
 20
-128.4788072052935
 30
0.0
 10
80.26056177463973
 20
-128.4788072052935
 30
0.0
 10
80.37976207842937
 20
-128.4788072052935
 30
0.0
 10
80.50964217822329
 20
-128.379416200544
 30
0.0
 10
80.50964217822329
 20
-128.1467000005154
 30
0.0
 10
80.50964217822329
 20
-127.8907294059614
 30
0.0
 10
80.35633542912967
 20
-127.820966222385
 30
0.0
 10
80.2533270741207
 20
-127.820966222385
 30
0.0
 10
80.22645532933575
 20
-127.820966222385
 30
0.0
 10
80.10553247780348
 20
-127.820966222385
 30
0.0
 10
80.02974037712798
 20
-127.9499850483077
 30
0.0
 10
80.02974037712798
 20
-127.9499850483077
 30
0.0
 10
79.88022323306814
 20
-127.9308647683645
 30
0.0
 10
79.88022323306814
 20
-127.9308647683645
 30
0.0
 10
79.88022323306814
 20
-127.9308647683645
 30
0.0
 10
79.98288707852859
 20
-127.0847493171871
 30
0.0
 10
79.98288707852859
 20
-127.0847493171871
 30
0.0
 10
79.98288707852859
 20
-127.0847493171871
 30
0.0
 10
80.6464124689877
 20
-127.0847493171871
 30
0.0
 10
80.6464124689877
 20
-127.0847493171871
 30
0.0
 10
80.6464124689877
 20
-127.0847493171871
 30
0.0
 10
80.6464124689877
 20
-127.2793972121038
 30
0.0
 10
80.6464124689877
 20
-127.2793972121038
 30
0.0
 10
80.6464124689877
 20
-127.2793972121038
 30
0.0
 10
80.12172442658415
 20
-127.2793972121038
 30
0.0
 10
80.12172442658415
 20
-127.2793972121038
 30
0.0
 10
80.12172442658415
 20
-127.2793972121038
 30
0.0
 10
80.06591387972311
 20
-127.7024549376925
 30
0.0
 10
80.06591387972311
 20
-127.7024549376925
 30
0.0
 10
80.1182793310989
 20
-127.6685207471627
 30
0.0
 10
80.188559278998
 20
-127.6283853847596
 30
0.0
 10
80.28950057671582
 20
-127.6283853847596
 30
0.0
 10
80.50585257318951
 20
-127.6283853847596
 30
0.0
 10
80.70773516862515
 20
-127.8145927957373
 30
0.0
 10
80.70773516862515
 20
-128.1275797205723
 30
0.0
 10
80.70773516862515
 20
-128.445045269538
 30
0.0
 10
80.51687687874231
 20
-128.6798285268578
 30
0.0
 10
80.2588392268971
 20
-128.6798285268578
 30
0.0
  0
HATCH
  5
92
330
83
100
AcDbEntity
  8
_U+30EC_U+30A4_U+30E4_U+30FC 1
 62
   179
420
  2234388
100
AcDbHatch
 10
0.0
 20
0.0
 30
0.0
210
0.0
220
0.0
230
1.0
  2
SOLID
 70
     1
 71
     0
 91
        1
 92
        1
 93
        1
 72
     4
 94
        3
 73
     0
 74
     1
 95
       53
 96
       49
 40
0.0
 40
0.0
 40
0.0
 40
0.0
 40
1.0
 40
1.0
 40
1.0
 40
2.0
 40
2.0
 40
2.0
 40
3.0
 40
3.0
 40
3.0
 40
4.0
 40
4.0
 40
4.0
 40
5.0
 40
5.0
 40
5.0
 40
6.0
 40
6.0
 40
6.0
 40
7.0
 40
7.0
 40
7.0
 40
8.0
 40
8.0
 40
8.0
 40
9.0
 40
9.0
 40
9.0
 40
10.0
 40
10.0
 40
10.0
 40
11.0
 40
11.0
 40
11.0
 40
12.0
 40
12.0
 40
12.0
 40
13.0
 40
13.0
 40
13.0
 40
14.0
 40
14.0
 40
14.0
 40
15.0
 40
15.0
 40
15.0
 40
16.0
 40
16.0
 40
16.0
 40
16.0
 10
80.2588392268971
 20
-128.6798285268578
 10
80.19200437448325
 20
-128.6798285268578
 10
80.10553247780348
 20
-128.6629475589801
 10
80.01906058112371
 20
-128.5993855472773
 10
79.8712659848065
 20
-128.4893147465235
 10
79.85300697873467
 20
-128.3582288633098
 10
79.836815029954
 20
-128.2503973746214
 10
79.836815029954
 20
-128.2503973746214
 10
80.02629528164273
 20
-128.2503973746214
 10
80.02629528164273
 20
-128.2503973746214
 10
80.07314858024213
 20
-128.4491793841204
 10
80.18132457847898
 20
-128.4788072052935
 10
80.26056177463973
 20
-128.4788072052935
 10
80.37976207842937
 20
-128.4788072052935
 10
80.50964217822329
 20
-128.379416200544
 10
80.50964217822329
 20
-128.1467000005154
 10
80.50964217822329
 20
-127.8907294059614
 10
80.35633542912967
 20
-127.820966222385
 10
80.2533270741207
 20
-127.820966222385
 10
80.22645532933575
 20
-127.820966222385
 10
80.10553247780348
 20
-127.820966222385
 10
80.02974037712798
 20
-127.9499850483077
 10
80.02974037712798
 20
-127.9499850483077
 10
79.88022323306814
 20
-127.9308647683645
 10
79.88022323306814
 20
-127.9308647683645
 10
79.88022323306814
 20
-127.9308647683645
 10
79.98288707852859
 20
-127.0847493171871
 10
79.98288707852859
 20
-127.0847493171871
 10
79.98288707852859
 20
-127.0847493171871
 10
80.6464124689877
 20
-127.0847493171871
 10
80.6464124689877
 20
-127.0847493171871
 10
80.6464124689877
 20
-127.0847493171871
 10
80.6464124689877
 20
-127.2793972121038
 10
80.6464124689877
 20
-127.2793972121038
 10
80.6464124689877
 20
-127.2793972121038
 10
80.12172442658415
 20
-127.2793972121038
 10
80.12172442658415
 20
-127.2793972121038
 10
80.12172442658415
 20
-127.2793972121038
 10
80.06591387972311
 20
-127.7024549376925
 10
80.06591387972311
 20
-127.7024549376925
 10
80.1182793310989
 20
-127.6685207471627
 10
80.188559278998
 20
-127.6283853847596
 10
80.28950057671582
 20
-127.6283853847596
 10
80.50585257318951
 20
-127.6283853847596
 10
80.70773516862515
 20
-127.8145927957373
 10
80.70773516862515
 20
-128.1275797205723
 10
80.70773516862515
 20
-128.445045269538
 10
80.51687687874231
 20
-128.6798285268578
 10
80.2588392268971
 20
-128.6798285268578
 97
        0
 97
        0
 75
     2
 76
     1
 98
        0
  0
ENDBLK
  5
86
330
83
100
AcDbEntity
  8
0
100
AcDbBlockEnd
  0
BLOCK
  5
95
330
93
100
AcDbEntity
  8
0
100
AcDbBlockBegin
  2
block 4
 70
     0
 10
0.0
 20
0.0
 30
0.0
  3
block 4
  1

  0
SPLINE
  5
97
330
93
100
AcDbEntity
  8
_U+30EC_U+30A4_U+30E4_U+30FC 1
370
     0
100
AcDbSpline
210
0.0
220
0.0
230
1.0
 70
    11
 71
     3
 72
    26
 73
    22
 74
     0
 42
0.0000000001
 43
0.0000000001
 12
1.0
 22
0.0
 32
0.0
 13
1.0
 23
0.0
 33
0.0
 40
0.0
 40
0.0
 40
0.0
 40
0.0
 40
1.0
 40
1.0
 40
1.0
 40
2.0
 40
2.0
 40
2.0
 40
3.0
 40
3.0
 40
3.0
 40
4.0
 40
4.0
 40
4.0
 40
5.0
 40
5.0
 40
5.0
 40
6.0
 40
6.0
 40
6.0
 40
7.0
 40
7.0
 40
7.0
 40
7.0
 10
83.48069252470275
 20
-134.5378688899766
 30
0.0
 10
83.48069252470275
 20
-134.5378688899766
 30
0.0
 10
83.48069252470275
 20
-133.4337157869541
 30
0.0
 10
83.48069252470275
 20
-133.4337157869541
 30
0.0
 10
83.48069252470275
 20
-133.4337157869541
 30
0.0
 10
83.19922822355784
 20
-133.4337157869541
 30
0.0
 10
83.19922822355784
 20
-133.4337157869541
 30
0.0
 10
83.19922822355784
 20
-133.4337157869541
 30
0.0
 10
83.19922822355784
 20
-133.2855766810883
 30
0.0
 10
83.19922822355784
 20
-133.2855766810883
 30
0.0
 10
83.48241507244538
 20
-133.2707627705018
 30
0.0
 10
83.52203367052574
 20
-133.108154263598
 30
0.0
 10
83.54718286756807
 20
-132.9937770934877
 30
0.0
 10
83.54718286756807
 20
-132.9937770934877
 30
0.0
 10
83.67189532413411
 20
-132.9937770934877
 30
0.0
 10
83.67189532413411
 20
-132.9937770934877
 30
0.0
 10
83.67189532413411
 20
-132.9937770934877
 30
0.0
 10
83.67189532413411
 20
-134.5378688899766
 30
0.0
 10
83.67189532413411
 20
-134.5378688899766
 30
0.0
 10
83.67189532413411
 20
-134.5378688899766
 30
0.0
 10
83.48069252470275
 20
-134.5378688899766
 30
0.0
 10
83.48069252470275
 20
-134.5378688899766
 30
0.0
  0
HATCH
  5
98
330
93
100
AcDbEntity
  8
_U+30EC_U+30A4_U+30E4_U+30FC 1
 62
   179
420
  2234388
100
AcDbHatch
 10
0.0
 20
0.0
 30
0.0
210
0.0
220
0.0
230
1.0
  2
SOLID
 70
     1
 71
     0
 91
        1
 92
        1
 93
        1
 72
     4
 94
        3
 73
     0
 74
     1
 95
       26
 96
       22
 40
0.0
 40
0.0
 40
0.0
 40
0.0
 40
1.0
 40
1.0
 40
1.0
 40
2.0
 40
2.0
 40
2.0
 40
3.0
 40
3.0
 40
3.0
 40
4.0
 40
4.0
 40
4.0
 40
5.0
 40
5.0
 40
5.0
 40
6.0
 40
6.0
 40
6.0
 40
7.0
 40
7.0
 40
7.0
 40
7.0
 10
83.48069252470275
 20
-134.5378688899766
 10
83.48069252470275
 20
-134.5378688899766
 10
83.48069252470275
 20
-133.4337157869541
 10
83.48069252470275
 20
-133.4337157869541
 10
83.48069252470275
 20
-133.4337157869541
 10
83.19922822355784
 20
-133.4337157869541
 10
83.19922822355784
 20
-133.4337157869541
 10
83.19922822355784
 20
-133.4337157869541
 10
83.19922822355784
 20
-133.2855766810883
 10
83.19922822355784
 20
-133.2855766810883
 10
83.48241507244538
 20
-133.2707627705018
 10
83.52203367052574
 20
-133.108154263598
 10
83.54718286756807
 20
-132.9937770934877
 10
83.54718286756807
 20
-132.9937770934877
 10
83.67189532413411
 20
-132.9937770934877
 10
83.67189532413411
 20
-132.9937770934877
 10
83.67189532413411
 20
-132.9937770934877
 10
83.67189532413411
 20
-134.5378688899766
 10
83.67189532413411
 20
-134.5378688899766
 10
83.67189532413411
 20
-134.5378688899766
 10
83.48069252470275
 20
-134.5378688899766
 10
83.48069252470275
 20
-134.5378688899766
 97
        0
 97
        0
 75
     2
 76
     1
 98
        0
  0
SPLINE
  5
99
330
93
100
AcDbEntity
  8
_U+30EC_U+30A4_U+30E4_U+30FC 1
370
     0
100
AcDbSpline
210
0.0
220
0.0
230
1.0
 70
    11
 71
     3
 72
    29
 73
    25
 74
     0
 42
0.0000000001
 43
0.0000000001
 12
1.0
 22
0.0
 32
0.0
 13
1.0
 23
0.0
 33
0.0
 40
0.0
 40
0.0
 40
0.0
 40
0.0
 40
1.0
 40
1.0
 40
1.0
 40
2.0
 40
2.0
 40
2.0
 40
3.0
 40
3.0
 40
3.0
 40
4.0
 40
4.0
 40
4.0
 40
5.0
 40
5.0
 40
5.0
 40
6.0
 40
6.0
 40
6.0
 40
7.0
 40
7.0
 40
7.0
 40
8.0
 40
8.0
 40
8.0
 40
8.0
 10
84.5238674376364
 20
-134.5888563031583
 30
0.0
 10
84.29683564515844
 20
-134.5888563031583
 30
0.0
 10
84.08048364868475
 20
-134.4510524837484
 30
0.0
 10
84.08048364868475
 20
-134.1024088206411
 30
0.0
 10
84.08048364868475
 20
-133.8460937165385
 30
0.0
 10
84.20106199066849
 20
-133.7510090811456
 30
0.0
 10
84.29132349238203
 20
-133.6896863815082
 30
0.0
 10
84.18487004188782
 20
-133.6304307391619
 30
0.0
 10
84.12010224676511
 20
-133.5160535690515
 30
0.0
 10
84.12010224676511
 20
-133.3555121194389
 30
0.0
 10
84.12010224676511
 20
-133.080593499716
 30
0.0
 10
84.2896009446394
 20
-132.9448567375971
 30
0.0
 10
84.5238674376364
 20
-132.9448567375971
 30
0.0
 10
84.76571314070094
 20
-132.9448567375971
 30
0.0
 10
84.9279771380562
 20
-133.0888617288806
 30
0.0
 10
84.9279771380562
 20
-133.3555121194389
 30
0.0
 10
84.9279771380562
 20
-133.5160535690515
 30
0.0
 10
84.86114228564236
 20
-133.6304307391619
 30
0.0
 10
84.75468883514814
 20
-133.6896863815082
 30
0.0
 10
84.83048093582363
 20
-133.7406737946898
 30
0.0
 10
84.96587318839396
 20
-133.8357584300827
 30
0.0
 10
84.96587318839396
 20
-134.0979301965102
 30
0.0
 10
84.96587318839396
 20
-134.4724120757569
 30
0.0
 10
84.72781709036319
 20
-134.5888563031583
 30
0.0
 10
84.5238674376364
 20
-134.5888563031583
 30
0.0
  0
SPLINE
  5
9A
330
93
100
AcDbEntity
  8
_U+30EC_U+30A4_U+30E4_U+30FC 1
370
     0
100
AcDbSpline
210
0.0
220
0.0
230
1.0
 70
    11
 71
     3
 72
    17
 73
    13
 74
     0
 42
0.0000000001
 43
0.0000000001
 12
1.0
 22
0.0
 32
0.0
 13
1.0
 23
0.0
 33
0.0
 40
0.0
 40
0.0
 40
0.0
 40
0.0
 40
1.0
 40
1.0
 40
1.0
 40
2.0
 40
2.0
 40
2.0
 40
3.0
 40
3.0
 40
3.0
 40
4.0
 40
4.0
 40
4.0
 40
4.0
 10
84.5238674376364
 20
-133.797862379745
 30
0.0
 10
84.40122203836151
 20
-133.797862379745
 30
0.0
 10
84.27134193856759
 20
-133.8843342764248
 30
0.0
 10
84.27134193856759
 20
-134.087250400506
 30
0.0
 10
84.27134193856759
 20
-134.2925780914269
 30
0.0
 10
84.37951793680443
 20
-134.3942084082417
 30
0.0
 10
84.5238674376364
 20
-134.3942084082417
 30
0.0
 10
84.68268633950642
 20
-134.3942084082417
 30
0.0
 10
84.77639293670521
 20
-134.2715630089668
 30
0.0
 10
84.77639293670521
 20
-134.0937960819279
 30
0.0
 10
84.77639293670521
 20
-133.8715874231293
 30
0.0
 10
84.63755558864965
 20
-133.797862379745
 30
0.0
 10
84.5238674376364
 20
-133.797862379745
 30
0.0
  0
SPLINE
  5
9B
330
93
100
AcDbEntity
  8
_U+30EC_U+30A4_U+30E4_U+30FC 1
370
     0
100
AcDbSpline
210
0.0
220
0.0
230
1.0
 70
    11
 71
     3
 72
    17
 73
    13
 74
     0
 42
0.0000000001
 43
0.0000000001
 12
1.0
 22
0.0
 32
0.0
 13
1.0
 23
0.0
 33
0.0
 40
0.0
 40
0.0
 40
0.0
 40
0.0
 40
1.0
 40
1.0
 40
1.0
 40
2.0
 40
2.0
 40
2.0
 40
3.0
 40
3.0
 40
3.0
 40
4.0
 40
4.0
 40
4.0
 40
4.0
 10
84.5238674376364
 20
-133.1377820847711
 30
0.0
 10
84.3833075418382
 20
-133.1377820847711
 30
0.0
 10
84.31130504619648
 20
-133.232866720164
 30
0.0
 10
84.31130504619648
 20
-133.3679144631858
 30
0.0
 10
84.31130504619648
 20
-133.4909043720092
 30
0.0
 10
84.37228323628541
 20
-133.6094156567018
 30
0.0
 10
84.5238674376364
 20
-133.6094156567018
 30
0.0
 10
84.6754516389874
 20
-133.6094156567018
 30
0.0
 10
84.73677433862484
 20
-133.4909043720092
 30
0.0
 10
84.73677433862484
 20
-133.3679144631858
 30
0.0
 10
84.73677433862484
 20
-133.232866720164
 30
0.0
 10
84.66270478569197
 20
-133.1377820847711
 30
0.0
 10
84.5238674376364
 20
-133.1377820847711
 30
0.0
  0
HATCH
  5
9C
330
93
100
AcDbEntity
  8
_U+30EC_U+30A4_U+30E4_U+30FC 1
 62
   179
420
  2234388
100
AcDbHatch
 10
0.0
 20
0.0
 30
0.0
210
0.0
220
0.0
230
1.0
  2
SOLID
 70
     1
 71
     0
 91
        3
 92
        1
 93
        1
 72
     4
 94
        3
 73
     0
 74
     1
 95
       29
 96
       25
 40
0.0
 40
0.0
 40
0.0
 40
0.0
 40
1.0
 40
1.0
 40
1.0
 40
2.0
 40
2.0
 40
2.0
 40
3.0
 40
3.0
 40
3.0
 40
4.0
 40
4.0
 40
4.0
 40
5.0
 40
5.0
 40
5.0
 40
6.0
 40
6.0
 40
6.0
 40
7.0
 40
7.0
 40
7.0
 40
8.0
 40
8.0
 40
8.0
 40
8.0
 10
84.5238674376364
 20
-134.5888563031583
 10
84.29683564515844
 20
-134.5888563031583
 10
84.08048364868475
 20
-134.4510524837484
 10
84.08048364868475
 20
-134.1024088206411
 10
84.08048364868475
 20
-133.8460937165385
 10
84.20106199066849
 20
-133.7510090811456
 10
84.29132349238203
 20
-133.6896863815082
 10
84.18487004188782
 20
-133.6304307391619
 10
84.12010224676511
 20
-133.5160535690515
 10
84.12010224676511
 20
-133.3555121194389
 10
84.12010224676511
 20
-133.080593499716
 10
84.2896009446394
 20
-132.9448567375971
 10
84.5238674376364
 20
-132.9448567375971
 10
84.76571314070094
 20
-132.9448567375971
 10
84.9279771380562
 20
-133.0888617288806
 10
84.9279771380562
 20
-133.3555121194389
 10
84.9279771380562
 20
-133.5160535690515
 10
84.86114228564236
 20
-133.6304307391619
 10
84.75468883514814
 20
-133.6896863815082
 10
84.83048093582363
 20
-133.7406737946898
 10
84.96587318839396
 20
-133.8357584300827
 10
84.96587318839396
 20
-134.0979301965102
 10
84.96587318839396
 20
-134.4724120757569
 10
84.72781709036319
 20
-134.5888563031583
 10
84.5238674376364
 20
-134.5888563031583
 97
        0
 97
        0
 92
        1
 93
        1
 72
     4
 94
        3
 73
     0
 74
     1
 95
       17
 96
       13
 40
0.0
 40
0.0
 40
0.0
 40
0.0
 40
1.0
 40
1.0
 40
1.0
 40
2.0
 40
2.0
 40
2.0
 40
3.0
 40
3.0
 40
3.0
 40
4.0
 40
4.0
 40
4.0
 40
4.0
 10
84.5238674376364
 20
-133.797862379745
 10
84.40122203836151
 20
-133.797862379745
 10
84.27134193856759
 20
-133.8843342764248
 10
84.27134193856759
 20
-134.087250400506
 10
84.27134193856759
 20
-134.2925780914269
 10
84.37951793680443
 20
-134.3942084082417
 10
84.5238674376364
 20
-134.3942084082417
 10
84.68268633950642
 20
-134.3942084082417
 10
84.77639293670521
 20
-134.2715630089668
 10
84.77639293670521
 20
-134.0937960819279
 10
84.77639293670521
 20
-133.8715874231293
 10
84.63755558864965
 20
-133.797862379745
 10
84.5238674376364
 20
-133.797862379745
 97
        0
 97
        0
 92
        1
 93
        1
 72
     4
 94
        3
 73
     0
 74
     1
 95
       17
 96
       13
 40
0.0
 40
0.0
 40
0.0
 40
0.0
 40
1.0
 40
1.0
 40
1.0
 40
2.0
 40
2.0
 40
2.0
 40
3.0
 40
3.0
 40
3.0
 40
4.0
 40
4.0
 40
4.0
 40
4.0
 10
84.5238674376364
 20
-133.1377820847711
 10
84.3833075418382
 20
-133.1377820847711
 10
84.31130504619648
 20
-133.232866720164
 10
84.31130504619648
 20
-133.3679144631858
 10
84.31130504619648
 20
-133.4909043720092
 10
84.37228323628541
 20
-133.6094156567018
 10
84.5238674376364
 20
-133.6094156567018
 10
84.6754516389874
 20
-133.6094156567018
 10
84.73677433862484
 20
-133.4909043720092
 10
84.73677433862484
 20
-133.3679144631858
 10
84.73677433862484
 20
-133.232866720164
 10
84.66270478569197
 20
-133.1377820847711
 10
84.5238674376364
 20
-133.1377820847711
 97
        0
 97
        0
 75
     2
 76
     1
 98
        0
  0
POLYLINE
  5
9D
330
93
100
AcDbEntity
  8
_U+30EC_U+30A4_U+30E4_U+30FC 1
370
     0
100
AcDb2dPolyline
 66
     1
 10
0.0
 20
0.0
 30
0.0
  0
VERTEX
  5
9E
330
9D
100
AcDbEntity
  8
_U+30EC_U+30A4_U+30E4_U+30FC 1
370
     0
100
AcDbVertex
100
AcDb2dVertex
 10
85.15053030640334
 20
-134.5378688899766
 30
0.0
  0
VERTEX
  5
9F
330
9D
100
AcDbEntity
  8
_U+30EC_U+30A4_U+30E4_U+30FC 1
370
     0
100
AcDbVertex
100
AcDb2dVertex
 10
85.15053030640334
 20
-134.2863769195534
 30
0.0
  0
VERTEX
  5
A0
330
9D
100
AcDbEntity
  8
_U+30EC_U+30A4_U+30E4_U+30FC 1
370
     0
100
AcDbVertex
100
AcDb2dVertex
 10
85.36515975513441
 20
-134.2863769195534
 30
0.0
  0
VERTEX
  5
A1
330
9D
100
AcDbEntity
  8
_U+30EC_U+30A4_U+30E4_U+30FC 1
370
     0
100
AcDbVertex
100
AcDb2dVertex
 10
85.36515975513441
 20
-134.5378688899766
 30
0.0
  0
VERTEX
  5
A2
330
9D
100
AcDbEntity
  8
_U+30EC_U+30A4_U+30E4_U+30FC 1
370
     0
100
AcDbVertex
100
AcDb2dVertex
 10
85.15053030640334
 20
-134.5378688899766
 30
0.0
  0
SEQEND
  5
A3
330
9D
100
AcDbEntity
  8
_U+30EC_U+30A4_U+30E4_U+30FC 1
370
     0
  0
HATCH
  5
A4
330
93
100
AcDbEntity
  8
_U+30EC_U+30A4_U+30E4_U+30FC 1
 62
   179
420
  2234388
100
AcDbHatch
 10
0.0
 20
0.0
 30
0.0
210
0.0
220
0.0
230
1.0
  2
SOLID
 70
     1
 71
     0
 91
        1
 92
        1
 93
        4
 72
     1
 10
85.15053030640334
 20
-134.5378688899766
 11
85.15053030640334
 21
-134.2863769195534
 72
     1
 10
85.15053030640334
 20
-134.2863769195534
 11
85.36515975513441
 21
-134.2863769195534
 72
     1
 10
85.36515975513441
 20
-134.2863769195534
 11
85.36515975513441
 21
-134.5378688899766
 72
     1
 10
85.36515975513441
 20
-134.5378688899766
 11
85.15053030640334
 21
-134.5378688899766
 97
        0
 75
     2
 76
     1
 98
        0
  0
SPLINE
  5
A5
330
93
100
AcDbEntity
  8
_U+30EC_U+30A4_U+30E4_U+30FC 1
370
     0
100
AcDbSpline
210
0.0
220
0.0
230
1.0
 70
    11
 71
     3
 72
    32
 73
    28
 74
     0
 42
0.0000000001
 43
0.0000000001
 12
1.0
 22
0.0
 32
0.0
 13
1.0
 23
0.0
 33
0.0
 40
0.0
 40
0.0
 40
0.0
 40
0.0
 40
1.0
 40
1.0
 40
1.0
 40
2.0
 40
2.0
 40
2.0
 40
3.0
 40
3.0
 40
3.0
 40
4.0
 40
4.0
 40
4.0
 40
5.0
 40
5.0
 40
5.0
 40
6.0
 40
6.0
 40
6.0
 40
7.0
 40
7.0
 40
7.0
 40
8.0
 40
8.0
 40
8.0
 40
9.0
 40
9.0
 40
9.0
 40
9.0
 10
85.95633814040328
 20
-134.5888563031583
 30
0.0
 10
85.80854354408606
 20
-134.5888563031583
 30
0.0
 10
85.5994262481314
 20
-134.5189208648078
 30
0.0
 10
85.56704235057005
 20
-134.1868136600297
 30
0.0
 10
85.56704235057005
 20
-134.1868136600297
 30
0.0
 10
85.74928790173976
 20
-134.1868136600297
 30
0.0
 10
85.74928790173976
 20
-134.1868136600297
 30
0.0
 10
85.75824515000141
 20
-134.246069302376
 30
0.0
 10
85.78511689478637
 20
-134.3942084082417
 30
0.0
 10
85.95840519769443
 20
-134.3942084082417
 30
0.0
 10
86.20714109172947
 20
-134.3942084082417
 30
0.0
 10
86.23952498929081
 20
-134.0641682607548
 30
0.0
 10
86.25054929484362
 20
-133.8591850793824
 30
0.0
 10
86.17303464642549
 20
-133.9391112946402
 30
0.0
 10
86.1151570422733
 20
-133.9962998796954
 30
0.0
 10
85.96012774543705
 20
-133.9962998796954
 30
0.0
 10
85.80682099634343
 20
-133.9962998796954
 30
0.0
 10
85.54878334449822
 20
-133.8908799578467
 30
0.0
 10
85.54878334449822
 20
-133.4843586905872
 30
0.0
 10
85.54878334449822
 20
-133.1649983391046
 30
0.0
 10
85.71862655192105
 20
-132.9448567375971
 30
0.0
 10
85.98906654751315
 20
-132.9448567375971
 30
0.0
 10
86.42728269323693
 20
-132.9448567375971
 30
0.0
 10
86.43623994149858
 20
-133.4995171107223
 30
0.0
 10
86.43623994149858
 20
-133.7131130308078
 30
0.0
 10
86.43623994149858
 20
-133.943589918771
 30
0.0
 10
86.42004799271791
 20
-134.5888563031583
 30
0.0
 10
85.95633814040328
 20
-134.5888563031583
 30
0.0
  0
SPLINE
  5
A6
330
93
100
AcDbEntity
  8
_U+30EC_U+30A4_U+30E4_U+30FC 1
370
     0
100
AcDbSpline
210
0.0
220
0.0
230
1.0
 70
    11
 71
     3
 72
    17
 73
    13
 74
     0
 42
0.0000000001
 43
0.0000000001
 12
1.0
 22
0.0
 32
0.0
 13
1.0
 23
0.0
 33
0.0
 40
0.0
 40
0.0
 40
0.0
 40
0.0
 40
1.0
 40
1.0
 40
1.0
 40
2.0
 40
2.0
 40
2.0
 40
3.0
 40
3.0
 40
3.0
 40
4.0
 40
4.0
 40
4.0
 40
4.0
 10
85.99078909525578
 20
-133.1377820847711
 30
0.0
 10
85.88984779753795
 20
-133.1377820847711
 30
0.0
 10
85.73998614392958
 20
-133.1946261602777
 30
0.0
 10
85.73998614392958
 20
-133.480224576005
 30
0.0
 10
85.73998614392958
 20
-133.7065673493859
 30
0.0
 10
85.85918644771924
 20
-133.8019964943273
 30
0.0
 10
85.9745971464751
 20
-133.8019964943273
 30
0.0
 10
86.19818384346782
 20
-133.8019964943273
 30
0.0
 10
86.23056774102916
 20
-133.5925346888241
 30
0.0
 10
86.23056774102916
 20
-133.4760904614226
 30
0.0
 10
86.23056774102916
 20
-133.3003905916749
 30
0.0
 10
86.1496079971258
 20
-133.1377820847711
 30
0.0
 10
85.99078909525578
 20
-133.1377820847711
 30
0.0
  0
HATCH
  5
A7
330
93
100
AcDbEntity
  8
_U+30EC_U+30A4_U+30E4_U+30FC 1
 62
   179
420
  2234388
100
AcDbHatch
 10
0.0
 20
0.0
 30
0.0
210
0.0
220
0.0
230
1.0
  2
SOLID
 70
     1
 71
     0
 91
        2
 92
        1
 93
        1
 72
     4
 94
        3
 73
     0
 74
     1
 95
       32
 96
       28
 40
0.0
 40
0.0
 40
0.0
 40
0.0
 40
1.0
 40
1.0
 40
1.0
 40
2.0
 40
2.0
 40
2.0
 40
3.0
 40
3.0
 40
3.0
 40
4.0
 40
4.0
 40
4.0
 40
5.0
 40
5.0
 40
5.0
 40
6.0
 40
6.0
 40
6.0
 40
7.0
 40
7.0
 40
7.0
 40
8.0
 40
8.0
 40
8.0
 40
9.0
 40
9.0
 40
9.0
 40
9.0
 10
85.95633814040328
 20
-134.5888563031583
 10
85.80854354408606
 20
-134.5888563031583
 10
85.5994262481314
 20
-134.5189208648078
 10
85.56704235057005
 20
-134.1868136600297
 10
85.56704235057005
 20
-134.1868136600297
 10
85.74928790173976
 20
-134.1868136600297
 10
85.74928790173976
 20
-134.1868136600297
 10
85.75824515000141
 20
-134.246069302376
 10
85.78511689478637
 20
-134.3942084082417
 10
85.95840519769443
 20
-134.3942084082417
 10
86.20714109172947
 20
-134.3942084082417
 10
86.23952498929081
 20
-134.0641682607548
 10
86.25054929484362
 20
-133.8591850793824
 10
86.17303464642549
 20
-133.9391112946402
 10
86.1151570422733
 20
-133.9962998796954
 10
85.96012774543705
 20
-133.9962998796954
 10
85.80682099634343
 20
-133.9962998796954
 10
85.54878334449822
 20
-133.8908799578467
 10
85.54878334449822
 20
-133.4843586905872
 10
85.54878334449822
 20
-133.1649983391046
 10
85.71862655192105
 20
-132.9448567375971
 10
85.98906654751315
 20
-132.9448567375971
 10
86.42728269323693
 20
-132.9448567375971
 10
86.43623994149858
 20
-133.4995171107223
 10
86.43623994149858
 20
-133.7131130308078
 10
86.43623994149858
 20
-133.943589918771
 10
86.42004799271791
 20
-134.5888563031583
 10
85.95633814040328
 20
-134.5888563031583
 97
        0
 97
        0
 92
        1
 93
        1
 72
     4
 94
        3
 73
     0
 74
     1
 95
       17
 96
       13
 40
0.0
 40
0.0
 40
0.0
 40
0.0
 40
1.0
 40
1.0
 40
1.0
 40
2.0
 40
2.0
 40
2.0
 40
3.0
 40
3.0
 40
3.0
 40
4.0
 40
4.0
 40
4.0
 40
4.0
 10
85.99078909525578
 20
-133.1377820847711
 10
85.88984779753795
 20
-133.1377820847711
 10
85.73998614392958
 20
-133.1946261602777
 10
85.73998614392958
 20
-133.480224576005
 10
85.73998614392958
 20
-133.7065673493859
 10
85.85918644771924
 20
-133.8019964943273
 10
85.9745971464751
 20
-133.8019964943273
 10
86.19818384346782
 20
-133.8019964943273
 10
86.23056774102916
 20
-133.5925346888241
 10
86.23056774102916
 20
-133.4760904614226
 10
86.23056774102916
 20
-133.3003905916749
 10
86.1496079971258
 20
-133.1377820847711
 10
85.99078909525578
 20
-133.1377820847711
 97
        0
 97
        0
 75
     2
 76
     1
 98
        0
  0
ENDBLK
  5
96
330
93
100
AcDbEntity
  8
0
100
AcDbBlockEnd
  0
ENDSEC
  0
SECTION
  2
ENTITIES
  0
SPLINE
  5
41
330
1F
100
AcDbEntity
  8
_U+30EC_U+30A4_U+30E4_U+30FC 1
 62
   178
420
        0
370
     9
100
AcDbSpline
210
0.0
220
0.0
230
1.0
 70
    11
 71
     3
 72
    32
 73
    28
 74
     0
 42
0.0000000001
 43
0.0000000001
 12
1.0
 22
0.0
 32
0.0
 13
1.0
 23
0.0
 33
0.0
 40
0.0
 40
0.0
 40
0.0
 40
0.0
 40
1.0
 40
1.0
 40
1.0
 40
2.0
 40
2.0
 40
2.0
 40
3.0
 40
3.0
 40
3.0
 40
4.0
 40
4.0
 40
4.0
 40
5.0
 40
5.0
 40
5.0
 40
6.0
 40
6.0
 40
6.0
 40
7.0
 40
7.0
 40
7.0
 40
8.0
 40
8.0
 40
8.0
 40
9.0
 40
9.0
 40
9.0
 40
9.0
 10
84.37985831223834
 20
-130.0392510786014
 30
0.0
 10
84.37985831223834
 20
-130.0392510786014
 30
0.0
 10
86.06659252648052
 20
-129.0470635788494
 30
0.0
 10
86.06659252648052
 20
-129.0470635788494
 30
0.0
 10
86.06659252648052
 20
-129.0470635788494
 30
0.0
 10
89.44002994041696
 20
-131.1306749672176
 30
0.0
 10
89.44002994041696
 20
-131.1306749672176
 30
0.0
 10
89.44002994041696
 20
-131.1306749672176
 30
0.0
 10
90.76294657333321
 20
-132.6520291335039
 30
0.0
 10
90.23377992016671
 20
-133.6111260777084
 30
0.0
 10
90.23377992016671
 20
-133.6111260777084
 30
0.0
 10
101.6440971968112
 20
-126.9965427460287
 30
0.0
 10
101.6440971968112
 20
-126.9965427460287
 30
0.0
 10
101.6440971968112
 20
-126.9965427460287
 30
0.0
 10
101.6440971968112
 20
-125.93820941296
 30
0.0
 10
101.6440971968112
 20
-125.93820941296
 30
0.0
 10
101.6440971968112
 20
-125.93820941296
 30
0.0
 10
100.6849977090895
 20
-124.383799968904
 30
0.0
 10
100.6849977090895
 20
-124.383799968904
 30
0.0
 10
100.6849977090895
 20
-124.383799968904
 30
0.0
 10
96.35243053146745
 20
-121.9365805250714
 30
0.0
 10
96.35243053146745
 20
-121.9365805250714
 30
0.0
 10
96.35243053146745
 20
-121.9365805250714
 30
0.0
 10
85.04131664540631
 20
-128.5840427456318
 30
0.0
 10
85.04131664540631
 20
-128.5840427456318
 30
0.0
 10
85.04131664540631
 20
-128.5840427456318
 30
0.0
 10
83.98298331233755
 20
-128.9147719122158
 30
0.0
 10
84.37985831223834
 20
-130.0392510786014
 30
0.0
  0
SPLINE
  5
42
330
1F
100
AcDbEntity
  8
_U+30EC_U+30A4_U+30E4_U+30FC 1
 62
     7
420
 16777215
370
    18
100
AcDbSpline
210
0.0
220
0.0
230
1.0
 70
     8
 71
     3
 72
    14
 73
    10
 74
     0
 42
0.0000000001
 43
0.0000000001
 12
1.0
 22
0.0
 32
0.0
 13
1.0
 23
0.0
 33
0.0
 40
0.0
 40
0.0
 40
0.0
 40
0.0
 40
1.0
 40
1.0
 40
1.0
 40
2.0
 40
2.0
 40
2.0
 40
3.0
 40
3.0
 40
3.0
 40
3.0
 10
84.37985831223834
 20
-130.0392510786014
 30
0.0
 10
84.37985831223834
 20
-130.0392510786014
 30
0.0
 10
83.81763425052289
 20
-128.7163344122654
 30
0.0
 10
85.37204365531105
 20
-128.6501885789486
 30
0.0
 10
85.37204365531105
 20
-128.6501885789486
 30
0.0
 10
89.37388410877115
 20
-131.0314385783533
 30
0.0
 10
89.37388410877115
 20
-131.0314385783533
 30
0.0
 10
89.37388410877115
 20
-131.0314385783533
 30
0.0
 10
90.72985831065084
 20
-132.32129996692
 30
0.0
 10
90.26683519710117
 20
-133.6111260777084
 30
0.0
  0
POLYLINE
  5
43
330
1F
100
AcDbEntity
  8
_U+30EC_U+30A4_U+30E4_U+30FC 1
 62
     7
420
 16777215
370
     9
100
AcDb2dPolyline
 66
     1
 10
0.0
 20
0.0
 30
0.0
  0
VERTEX
  5
44
330
43
100
AcDbEntity
  8
_U+30EC_U+30A4_U+30E4_U+30FC 1
 62
     7
420
 16777215
370
     9
100
AcDbVertex
100
AcDb2dVertex
 10
84.9090249787727
 20
-128.6501885789486
 30
0.0
  0
VERTEX
  5
45
330
43
100
AcDbEntity
  8
_U+30EC_U+30A4_U+30E4_U+30FC 1
 62
     7
420
 16777215
370
     9
100
AcDbVertex
100
AcDb2dVertex
 10
96.38551865211167
 20
-121.9034899695242
 30
0.0
  0
VERTEX
  5
46
330
43
100
AcDbEntity
  8
_U+30EC_U+30A4_U+30E4_U+30FC 1
 62
     7
420
 16777215
370
     9
100
AcDbVertex
100
AcDb2dVertex
 10
100.6849977090895
 20
-124.383799968904
 30
0.0
  0
VERTEX
  5
47
330
43
100
AcDbEntity
  8
_U+30EC_U+30A4_U+30E4_U+30FC 1
 62
     7
420
 16777215
370
     9
100
AcDbVertex
100
AcDb2dVertex
 10
101.6440971968112
 20
-125.9051541351903
 30
0.0
  0
VERTEX
  5
48
330
43
100
AcDbEntity
  8
_U+30EC_U+30A4_U+30E4_U+30FC 1
 62
     7
420
 16777215
370
     9
100
AcDbVertex
100
AcDb2dVertex
 10
101.6440971968112
 20
-127.0296333015759
 30
0.0
  0
VERTEX
  5
49
330
43
100
AcDbEntity
  8
_U+30EC_U+30A4_U+30E4_U+30FC 1
 62
     7
420
 16777215
370
     9
100
AcDbVertex
100
AcDb2dVertex
 10
90.29992575181252
 20
-133.6442166332559
 30
0.0
  0
SEQEND
  5
4A
330
43
100
AcDbEntity
  8
_U+30EC_U+30A4_U+30E4_U+30FC 1
 62
     7
420
 16777215
370
     9
  0
POLYLINE
  5
4B
330
1F
100
AcDbEntity
  8
_U+30EC_U+30A4_U+30E4_U+30FC 1
 62
     7
420
 16777215
370
     9
100
AcDb2dPolyline
 66
     1
 10
0.0
 20
0.0
 30
0.0
  0
VERTEX
  5
4C
330
4B
100
AcDbEntity
  8
_U+30EC_U+30A4_U+30E4_U+30FC 1
 62
     7
420
 16777215
370
     9
100
AcDbVertex
100
AcDb2dVertex
 10
89.50617577206278
 20
-131.0975844116701
 30
0.0
  0
VERTEX
  5
4D
330
4B
100
AcDbEntity
  8
_U+30EC_U+30A4_U+30E4_U+30FC 1
 62
     7
420
 16777215
370
     9
100
AcDbVertex
100
AcDb2dVertex
 10
100.6849977090895
 20
-124.383799968904
 30
0.0
  0
SEQEND
  5
4E
330
4B
100
AcDbEntity
  8
_U+30EC_U+30A4_U+30E4_U+30FC 1
 62
     7
420
 16777215
370
     9
  0
POLYLINE
  5
4F
330
1F
100
AcDbEntity
  8
_U+30EC_U+30A4_U+30E4_U+30FC 1
 62
     7
420
 16777215
370
     9
100
AcDb2dPolyline
 66
     1
 10
0.0
 20
0.0
 30
0.0
  0
VERTEX
  5
50
330
4F
100
AcDbEntity
  8
_U+30EC_U+30A4_U+30E4_U+30FC 1
 62
     7
420
 16777215
370
     9
100
AcDbVertex
100
AcDb2dVertex
 10
90.33298331075005
 20
-132.5197374668703
 30
0.0
  0
VERTEX
  5
51
330
4F
100
AcDbEntity
  8
_U+30EC_U+30A4_U+30E4_U+30FC 1
 62
     7
420
 16777215
370
     9
100
AcDbVertex
100
AcDb2dVertex
 10
101.544893520485
 20
-125.93820941296
 30
0.0
  0
SEQEND
  5
52
330
4F
100
AcDbEntity
  8
_U+30EC_U+30A4_U+30E4_U+30FC 1
 62
     7
420
 16777215
370
     9
  0
POLYLINE
  5
53
330
1F
100
AcDbEntity
  8
_U+30EC_U+30A4_U+30E4_U+30FC 1
 62
     7
420
 16777215
370
     9
100
AcDb2dPolyline
 66
     1
 10
0.0
 20
0.0
 30
0.0
  0
VERTEX
  5
54
330
53
100
AcDbEntity
  8
_U+30EC_U+30A4_U+30E4_U+30FC 1
 62
     7
420
 16777215
370
     9
100
AcDbVertex
100
AcDb2dVertex
 10
84.37985831223834
 20
-130.0723416341488
 30
0.0
  0
VERTEX
  5
55
330
53
100
AcDbEntity
  8
_U+30EC_U+30A4_U+30E4_U+30FC 1
 62
     7
420
 16777215
370
     9
100
AcDbVertex
100
AcDb2dVertex
 10
86.03350197176917
 20
-129.0801541343969
 30
0.0
  0
SEQEND
  5
56
330
53
100
AcDbEntity
  8
_U+30EC_U+30A4_U+30E4_U+30FC 1
 62
     7
420
 16777215
370
     9
  0
POLYLINE
  5
57
330
1F
100
AcDbEntity
  8
_U+30EC_U+30A4_U+30E4_U+30FC 1
 62
     7
420
 16777215
370
     9
100
AcDb2dPolyline
 66
     1
 10
0.0
 20
0.0
 30
0.0
  0
VERTEX
  5
58
330
57
100
AcDbEntity
  8
_U+30EC_U+30A4_U+30E4_U+30FC 1
 62
     7
420
 16777215
370
     9
100
AcDbVertex
100
AcDb2dVertex
 10
84.31371034897805
 20
-128.1541124679614
 30
0.0
  0
VERTEX
  5
59
330
57
100
AcDbEntity
  8
_U+30EC_U+30A4_U+30E4_U+30FC 1
 62
     7
420
 16777215
370
     9
100
AcDbVertex
100
AcDb2dVertex
 10
81.80016874643717
 20
-126.7981052460783
 30
0.0
  0
VERTEX
  5
5A
330
57
100
AcDbEntity
  8
_U+30EC_U+30A4_U+30E4_U+30FC 1
 62
     7
420
 16777215
370
     9
100
AcDbVertex
100
AcDb2dVertex
 10
81.70096763785689
 20
-128.7824802455822
 30
0.0
  0
VERTEX
  5
5B
330
57
100
AcDbEntity
  8
_U+30EC_U+30A4_U+30E4_U+30FC 1
 62
     7
420
 16777215
370
     9
100
AcDbVertex
100
AcDb2dVertex
 10
83.15617593406476
 20
-129.4439385787502
 30
0.0
  0
SEQEND
  5
5C
330
57
100
AcDbEntity
  8
_U+30EC_U+30A4_U+30E4_U+30FC 1
 62
     7
420
 16777215
370
     9
  0
POLYLINE
  5
5D
330
1F
100
AcDbEntity
  8
_U+30EC_U+30A4_U+30E4_U+30FC 1
 62
     7
420
 16777215
370
     9
100
AcDb2dPolyline
 66
     1
 10
0.0
 20
0.0
 30
0.0
  0
VERTEX
  5
5E
330
5D
100
AcDbEntity
  8
_U+30EC_U+30A4_U+30E4_U+30FC 1
 62
     7
420
 16777215
370
     9
100
AcDbVertex
100
AcDb2dVertex
 10
83.5199603692283
 20
-130.6345635784525
 30
0.0
  0
VERTEX
  5
5F
330
5D
100
AcDbEntity
  8
_U+30EC_U+30A4_U+30E4_U+30FC 1
 62
     7
420
 16777215
370
     9
100
AcDbVertex
100
AcDb2dVertex
 10
82.13089997946724
 20
-131.5606052448877
 30
0.0
  0
VERTEX
  5
60
330
5D
100
AcDbEntity
  8
_U+30EC_U+30A4_U+30E4_U+30FC 1
 62
     7
420
 16777215
370
     9
100
AcDbVertex
100
AcDb2dVertex
 10
83.48690509229382
 20
-132.3543552446893
 30
0.0
  0
SEQEND
  5
61
330
5D
100
AcDbEntity
  8
_U+30EC_U+30A4_U+30E4_U+30FC 1
 62
     7
420
 16777215
370
     9
  0
POLYLINE
  5
62
330
1F
100
AcDbEntity
  8
_U+30EC_U+30A4_U+30E4_U+30FC 1
 62
     7
420
 16777215
370
     9
100
AcDb2dPolyline
 66
     1
 10
0.0
 20
0.0
 30
0.0
  0
VERTEX
  5
63
330
62
100
AcDbEntity
  8
_U+30EC_U+30A4_U+30E4_U+30FC 1
 62
     7
420
 16777215
370
     9
100
AcDbVertex
100
AcDb2dVertex
 10
87.25721749610514
 20
-134.4710219108267
 30
0.0
  0
VERTEX
  5
64
330
62
100
AcDbEntity
  8
_U+30EC_U+30A4_U+30E4_U+30FC 1
 62
     7
420
 16777215
370
     9
100
AcDbVertex
100
AcDb2dVertex
 10
88.18325913914651
 20
-135.0663344106779
 30
0.0
  0
VERTEX
  5
65
330
62
100
AcDbEntity
  8
_U+30EC_U+30A4_U+30E4_U+30FC 1
 62
     7
420
 16777215
370
     9
100
AcDbVertex
100
AcDb2dVertex
 10
89.67152497758208
 20
-134.1402927442428
 30
0.0
  0
SEQEND
  5
66
330
62
100
AcDbEntity
  8
_U+30EC_U+30A4_U+30E4_U+30FC 1
 62
     7
420
 16777215
370
     9
  0
POLYLINE
  5
67
330
1F
100
AcDbEntity
  8
_U+30EC_U+30A4_U+30E4_U+30FC 1
 62
     7
420
 16777215
370
     9
100
AcDb2dPolyline
 66
     1
 10
0.0
 20
0.0
 30
0.0
  0
VERTEX
  5
68
330
67
100
AcDbEntity
  8
_U+30EC_U+30A4_U+30E4_U+30FC 1
 62
     7
420
 16777215
370
     9
100
AcDbVertex
100
AcDb2dVertex
 10
90.99444164391802
 20
-133.8757094109756
 30
0.0
  0
VERTEX
  5
69
330
67
100
AcDbEntity
  8
_U+30EC_U+30A4_U+30E4_U+30FC 1
 62
     7
420
 16777215
370
     9
100
AcDbVertex
100
AcDb2dVertex
 10
93.07822706982104
 20
-135.0332791329086
 30
0.0
  0
VERTEX
  5
6A
330
67
100
AcDbEntity
  8
_U+30EC_U+30A4_U+30E4_U+30FC 1
 62
     7
420
 16777215
370
     9
100
AcDbVertex
100
AcDb2dVertex
 10
96.71624781034073
 20
-132.9427885778754
 30
0.0
  0
SEQEND
  5
6B
330
67
100
AcDbEntity
  8
_U+30EC_U+30A4_U+30E4_U+30FC 1
 62
     7
420
 16777215
370
     9
  0
POLYLINE
  5
6C
330
1F
100
AcDbEntity
  8
_U+30EC_U+30A4_U+30E4_U+30FC 1
 62
     7
420
 16777215
370
     9
100
AcDb2dPolyline
 66
     1
 10
0.0
 20
0.0
 30
0.0
  0
VERTEX
  5
6D
330
6C
100
AcDbEntity
  8
_U+30EC_U+30A4_U+30E4_U+30FC 1
 62
     7
420
 16777215
370
     9
100
AcDbVertex
100
AcDb2dVertex
 10
100.6849977090895
 20
-130.6276844117875
 30
0.0
  0
VERTEX
  5
6E
330
6C
100
AcDbEntity
  8
_U+30EC_U+30A4_U+30E4_U+30FC 1
 62
     7
420
 16777215
370
     9
100
AcDbVertex
100
AcDb2dVertex
 10
104.2568726179634
 20
-128.4517510789983
 30
0.0
  0
VERTEX
  5
6F
330
6C
100
AcDbEntity
  8
_U+30EC_U+30A4_U+30E4_U+30FC 1
 62
     7
420
 16777215
370
     9
100
AcDbVertex
100
AcDb2dVertex
 10
102.4378471966128
 20
-127.3934177459295
 30
0.0
  0
SEQEND
  5
70
330
6C
100
AcDbEntity
  8
_U+30EC_U+30A4_U+30E4_U+30FC 1
 62
     7
420
 16777215
370
     9
  0
SPLINE
  5
71
330
1F
100
AcDbEntity
  8
_U+30EC_U+30A4_U+30E4_U+30FC 1
 62
     7
420
 16777215
370
     9
100
AcDbSpline
210
0.0
220
0.0
230
1.0
 70
    11
 71
     3
 72
    17
 73
    13
 74
     0
 42
0.0000000001
 43
0.0000000001
 12
1.0
 22
0.0
 32
0.0
 13
1.0
 23
0.0
 33
0.0
 40
0.0
 40
0.0
 40
0.0
 40
0.0
 40
1.0
 40
1.0
 40
1.0
 40
2.0
 40
2.0
 40
2.0
 40
3.0
 40
3.0
 40
3.0
 40
4.0
 40
4.0
 40
4.0
 40
4.0
 10
81.83325930114852
 20
-128.7494249678126
 30
0.0
 10
81.83325930114852
 20
-128.8224499677941
 30
0.0
 10
81.77434541376265
 20
-128.8817166344465
 30
0.0
 10
81.70096763785689
 20
-128.8817166344465
 30
0.0
 10
81.62758986195114
 20
-128.8817166344465
 30
0.0
 10
81.56867597456527
 20
-128.8224499677941
 30
0.0
 10
81.56867597456527
 20
-128.7494249678126
 30
0.0
 10
81.56867597456527
 20
-128.6770702456084
 30
0.0
 10
81.62758986195114
 20
-128.617133301179
 30
0.0
 10
81.70096763785689
 20
-128.617133301179
 30
0.0
 10
81.77434541376265
 20
-128.617133301179
 30
0.0
 10
81.83325930114852
 20
-128.6770702456084
 30
0.0
 10
81.83325930114852
 20
-128.7494249678126
 30
0.0
  0
HATCH
  5
72
330
1F
100
AcDbEntity
  8
_U+30EC_U+30A4_U+30E4_U+30FC 1
 62
     7
420
 16777215
100
AcDbHatch
 10
0.0
 20
0.0
 30
0.0
210
0.0
220
0.0
230
1.0
  2
SOLID
 70
     1
 71
     0
 91
        1
 92
        1
 93
        1
 72
     4
 94
        3
 73
     0
 74
     1
 95
       17
 96
       13
 40
0.0
 40
0.0
 40
0.0
 40
0.0
 40
1.0
 40
1.0
 40
1.0
 40
2.0
 40
2.0
 40
2.0
 40
3.0
 40
3.0
 40
3.0
 40
4.0
 40
4.0
 40
4.0
 40
4.0
 10
81.83325930114852
 20
-128.7494249678126
 10
81.83325930114852
 20
-128.8224499677941
 10
81.77434541376265
 20
-128.8817166344465
 10
81.70096763785689
 20
-128.8817166344465
 10
81.62758986195114
 20
-128.8817166344465
 10
81.56867597456527
 20
-128.8224499677941
 10
81.56867597456527
 20
-128.7494249678126
 10
81.56867597456527
 20
-128.6770702456084
 10
81.62758986195114
 20
-128.617133301179
 10
81.70096763785689
 20
-128.617133301179
 10
81.77434541376265
 20
-128.617133301179
 10
81.83325930114852
 20
-128.6770702456084
 10
81.83325930114852
 20
-128.7494249678126
 97
        0
 97
        0
 75
     2
 76
     1
 98
        0
  0
SPLINE
  5
73
330
1F
100
AcDbEntity
  8
_U+30EC_U+30A4_U+30E4_U+30FC 1
 62
     7
420
 16777215
370
     9
100
AcDbSpline
210
0.0
220
0.0
230
1.0
 70
    11
 71
     3
 72
    17
 73
    13
 74
     0
 42
0.0000000001
 43
0.0000000001
 12
1.0
 22
0.0
 32
0.0
 13
1.0
 23
0.0
 33
0.0
 40
0.0
 40
0.0
 40
0.0
 40
0.0
 40
1.0
 40
1.0
 40
1.0
 40
2.0
 40
2.0
 40
2.0
 40
3.0
 40
3.0
 40
3.0
 40
4.0
 40
4.0
 40
4.0
 40
4.0
 10
81.93246040972879
 20
-126.7981052460783
 30
0.0
 10
81.93246040972879
 20
-126.8711655238377
 30
0.0
 10
81.87354652234292
 20
-126.9303969127119
 30
0.0
 10
81.80016874643717
 20
-126.9303969127119
 30
0.0
 10
81.72679097053141
 20
-126.9303969127119
 30
0.0
 10
81.66787708314554
 20
-126.8711655238377
 30
0.0
 10
81.66787708314554
 20
-126.7981052460783
 30
0.0
 10
81.66787708314554
 20
-126.725785801652
 30
0.0
 10
81.72679097053141
 20
-126.6658135794447
 30
0.0
 10
81.80016874643717
 20
-126.6658135794447
 30
0.0
 10
81.87354652234292
 20
-126.6658135794447
 30
0.0
 10
81.93246040972879
 20
-126.725785801652
 30
0.0
 10
81.93246040972879
 20
-126.7981052460783
 30
0.0
  0
HATCH
  5
74
330
1F
100
AcDbEntity
  8
_U+30EC_U+30A4_U+30E4_U+30FC 1
 62
     7
420
 16777215
100
AcDbHatch
 10
0.0
 20
0.0
 30
0.0
210
0.0
220
0.0
230
1.0
  2
SOLID
 70
     1
 71
     0
 91
        1
 92
        1
 93
        1
 72
     4
 94
        3
 73
     0
 74
     1
 95
       17
 96
       13
 40
0.0
 40
0.0
 40
0.0
 40
0.0
 40
1.0
 40
1.0
 40
1.0
 40
2.0
 40
2.0
 40
2.0
 40
3.0
 40
3.0
 40
3.0
 40
4.0
 40
4.0
 40
4.0
 40
4.0
 10
81.93246040972879
 20
-126.7981052460783
 10
81.93246040972879
 20
-126.8711655238377
 10
81.87354652234292
 20
-126.9303969127119
 10
81.80016874643717
 20
-126.9303969127119
 10
81.72679097053141
 20
-126.9303969127119
 10
81.66787708314554
 20
-126.8711655238377
 10
81.66787708314554
 20
-126.7981052460783
 10
81.66787708314554
 20
-126.725785801652
 10
81.72679097053141
 20
-126.6658135794447
 10
81.80016874643717
 20
-126.6658135794447
 10
81.87354652234292
 20
-126.6658135794447
 10
81.93246040972879
 20
-126.725785801652
 10
81.93246040972879
 20
-126.7981052460783
 97
        0
 97
        0
 75
     2
 76
     1
 98
        0
  0
SPLINE
  5
75
330
1F
100
AcDbEntity
  8
_U+30EC_U+30A4_U+30E4_U+30FC 1
 62
     7
420
 16777215
370
     9
100
AcDbSpline
210
0.0
220
0.0
230
1.0
 70
    11
 71
     3
 72
    17
 73
    13
 74
     0
 42
0.0000000001
 43
0.0000000001
 12
1.0
 22
0.0
 32
0.0
 13
1.0
 23
0.0
 33
0.0
 40
0.0
 40
0.0
 40
0.0
 40
0.0
 40
1.0
 40
1.0
 40
1.0
 40
2.0
 40
2.0
 40
2.0
 40
3.0
 40
3.0
 40
3.0
 40
4.0
 40
4.0
 40
4.0
 40
4.0
 10
82.2962801226692
 20
-131.5606052448877
 30
0.0
 10
82.2962801226692
 20
-131.6336655226471
 30
0.0
 10
82.23736623528333
 20
-131.6928969115213
 30
0.0
 10
82.16398845937758
 20
-131.6928969115213
 30
0.0
 10
82.09061068347182
 20
-131.6928969115213
 30
0.0
 10
82.03169679608595
 20
-131.6336655226471
 30
0.0
 10
82.03169679608595
 20
-131.5606052448877
 30
0.0
 10
82.03169679608595
 20
-131.4882858004614
 30
0.0
 10
82.09061068347182
 20
-131.4283135782541
 30
0.0
 10
82.16398845937758
 20
-131.4283135782541
 30
0.0
 10
82.23736623528333
 20
-131.4283135782541
 30
0.0
 10
82.2962801226692
 20
-131.4882858004614
 30
0.0
 10
82.2962801226692
 20
-131.5606052448877
 30
0.0
  0
HATCH
  5
76
330
1F
100
AcDbEntity
  8
_U+30EC_U+30A4_U+30E4_U+30FC 1
 62
     7
420
 16777215
100
AcDbHatch
 10
0.0
 20
0.0
 30
0.0
210
0.0
220
0.0
230
1.0
  2
SOLID
 70
     1
 71
     0
 91
        1
 92
        1
 93
        1
 72
     4
 94
        3
 73
     0
 74
     1
 95
       17
 96
       13
 40
0.0
 40
0.0
 40
0.0
 40
0.0
 40
1.0
 40
1.0
 40
1.0
 40
2.0
 40
2.0
 40
2.0
 40
3.0
 40
3.0
 40
3.0
 40
4.0
 40
4.0
 40
4.0
 40
4.0
 10
82.2962801226692
 20
-131.5606052448877
 10
82.2962801226692
 20
-131.6336655226471
 10
82.23736623528333
 20
-131.6928969115213
 10
82.16398845937758
 20
-131.6928969115213
 10
82.09061068347182
 20
-131.6928969115213
 10
82.03169679608595
 20
-131.6336655226471
 10
82.03169679608595
 20
-131.5606052448877
 10
82.03169679608595
 20
-131.4882858004614
 10
82.09061068347182
 20
-131.4283135782541
 10
82.16398845937758
 20
-131.4283135782541
 10
82.23736623528333
 20
-131.4283135782541
 10
82.2962801226692
 20
-131.4882858004614
 10
82.2962801226692
 20
-131.5606052448877
 97
        0
 97
        0
 75
     2
 76
     1
 98
        0
  0
SPLINE
  5
77
330
1F
100
AcDbEntity
  8
_U+30EC_U+30A4_U+30E4_U+30FC 1
 62
     7
420
 16777215
370
     9
100
AcDbSpline
210
0.0
220
0.0
230
1.0
 70
    11
 71
     3
 72
    17
 73
    13
 74
     0
 42
0.0000000001
 43
0.0000000001
 12
1.0
 22
0.0
 32
0.0
 13
1.0
 23
0.0
 33
0.0
 40
0.0
 40
0.0
 40
0.0
 40
0.0
 40
1.0
 40
1.0
 40
1.0
 40
2.0
 40
2.0
 40
2.0
 40
3.0
 40
3.0
 40
3.0
 40
4.0
 40
4.0
 40
4.0
 40
4.0
 10
88.31555080243814
 20
-135.0001885773611
 30
0.0
 10
88.31555080243814
 20
-135.0732488551205
 30
0.0
 10
88.25663691505227
 20
-135.1324802439947
 30
0.0
 10
88.18325913914651
 20
-135.1324802439947
 30
0.0
 10
88.10988136324076
 20
-135.1324802439947
 30
0.0
 10
88.05096747585489
 20
-135.0732488551205
 30
0.0
 10
88.05096747585489
 20
-135.0001885773611
 30
0.0
 10
88.05096747585489
 20
-134.9278691329348
 30
0.0
 10
88.10988136324076
 20
-134.8678969107276
 30
0.0
 10
88.18325913914651
 20
-134.8678969107276
 30
0.0
 10
88.25663691505227
 20
-134.8678969107276
 30
0.0
 10
88.31555080243814
 20
-134.9278691329348
 30
0.0
 10
88.31555080243814
 20
-135.0001885773611
 30
0.0
  0
HATCH
  5
78
330
1F
100
AcDbEntity
  8
_U+30EC_U+30A4_U+30E4_U+30FC 1
 62
     7
420
 16777215
100
AcDbHatch
 10
0.0
 20
0.0
 30
0.0
210
0.0
220
0.0
230
1.0
  2
SOLID
 70
     1
 71
     0
 91
        1
 92
        1
 93
        1
 72
     4
 94
        3
 73
     0
 74
     1
 95
       17
 96
       13
 40
0.0
 40
0.0
 40
0.0
 40
0.0
 40
1.0
 40
1.0
 40
1.0
 40
2.0
 40
2.0
 40
2.0
 40
3.0
 40
3.0
 40
3.0
 40
4.0
 40
4.0
 40
4.0
 40
4.0
 10
88.31555080243814
 20
-135.0001885773611
 10
88.31555080243814
 20
-135.0732488551205
 10
88.25663691505227
 20
-135.1324802439947
 10
88.18325913914651
 20
-135.1324802439947
 10
88.10988136324076
 20
-135.1324802439947
 10
88.05096747585489
 20
-135.0732488551205
 10
88.05096747585489
 20
-135.0001885773611
 10
88.05096747585489
 20
-134.9278691329348
 10
88.10988136324076
 20
-134.8678969107276
 10
88.18325913914651
 20
-134.8678969107276
 10
88.25663691505227
 20
-134.8678969107276
 10
88.31555080243814
 20
-134.9278691329348
 10
88.31555080243814
 20
-135.0001885773611
 97
        0
 97
        0
 75
     2
 76
     1
 98
        0
  0
SPLINE
  5
79
330
1F
100
AcDbEntity
  8
_U+30EC_U+30A4_U+30E4_U+30FC 1
 62
     7
420
 16777215
370
     9
100
AcDbSpline
210
0.0
220
0.0
230
1.0
 70
    11
 71
     3
 72
    17
 73
    13
 74
     0
 42
0.0000000001
 43
0.0000000001
 12
1.0
 22
0.0
 32
0.0
 13
1.0
 23
0.0
 33
0.0
 40
0.0
 40
0.0
 40
0.0
 40
0.0
 40
1.0
 40
1.0
 40
1.0
 40
2.0
 40
2.0
 40
2.0
 40
3.0
 40
3.0
 40
3.0
 40
4.0
 40
4.0
 40
4.0
 40
4.0
 10
93.1774305322612
 20
-134.9671332995918
 30
0.0
 10
93.1774305322612
 20
-135.0401582995731
 30
0.0
 10
93.11816386560947
 20
-135.0994249662254
 30
0.0
 10
93.0451388656276
 20
-135.0994249662254
 30
0.0
 10
92.97140831009023
 20
-135.0994249662254
 30
0.0
 10
92.91284719899402
 20
-135.0401582995731
 30
0.0
 10
92.91284719899402
 20
-134.9671332995918
 30
0.0
 10
92.91284719899402
 20
-134.8947785773873
 30
0.0
 10
92.97140831009023
 20
-134.8348416329582
 30
0.0
 10
93.0451388656276
 20
-134.8348416329582
 30
0.0
 10
93.11816386560947
 20
-134.8348416329582
 30
0.0
 10
93.1774305322612
 20
-134.8947785773873
 30
0.0
 10
93.1774305322612
 20
-134.9671332995918
 30
0.0
  0
HATCH
  5
7A
330
1F
100
AcDbEntity
  8
_U+30EC_U+30A4_U+30E4_U+30FC 1
 62
     7
420
 16777215
100
AcDbHatch
 10
0.0
 20
0.0
 30
0.0
210
0.0
220
0.0
230
1.0
  2
SOLID
 70
     1
 71
     0
 91
        1
 92
        1
 93
        1
 72
     4
 94
        3
 73
     0
 74
     1
 95
       17
 96
       13
 40
0.0
 40
0.0
 40
0.0
 40
0.0
 40
1.0
 40
1.0
 40
1.0
 40
2.0
 40
2.0
 40
2.0
 40
3.0
 40
3.0
 40
3.0
 40
4.0
 40
4.0
 40
4.0
 40
4.0
 10
93.1774305322612
 20
-134.9671332995918
 10
93.1774305322612
 20
-135.0401582995731
 10
93.11816386560947
 20
-135.0994249662254
 10
93.0451388656276
 20
-135.0994249662254
 10
92.97140831009023
 20
-135.0994249662254
 10
92.91284719899402
 20
-135.0401582995731
 10
92.91284719899402
 20
-134.9671332995918
 10
92.91284719899402
 20
-134.8947785773873
 10
92.97140831009023
 20
-134.8348416329582
 10
93.0451388656276
 20
-134.8348416329582
 10
93.11816386560947
 20
-134.8348416329582
 10
93.1774305322612
 20
-134.8947785773873
 10
93.1774305322612
 20
-134.9671332995918
 97
        0
 97
        0
 75
     2
 76
     1
 98
        0
  0
INSERT
  5
7C
330
1F
100
AcDbEntity
  8
_U+30EC_U+30A4_U+30E4_U+30FC 1
100
AcDbBlockReference
  2
block 2
 10
0.0
 20
0.0
 30
0.0
  0
INSERT
  5
84
330
1F
100
AcDbEntity
  8
_U+30EC_U+30A4_U+30E4_U+30FC 1
100
AcDbBlockReference
  2
block 3
 10
0.0
 20
0.0
 30
0.0
  0
INSERT
  5
94
330
1F
100
AcDbEntity
  8
_U+30EC_U+30A4_U+30E4_U+30FC 1
100
AcDbBlockReference
  2
block 4
 10
0.0
 20
0.0
 30
0.0
  0
ENDSEC
  0
SECTION
  2
OBJECTS
  0
DICTIONARY
  5
C
330
0
100
AcDbDictionary
281
     1
  3
ACAD_GROUP
350
D
  3
ACAD_LAYOUT
350
1A
  3
ACAD_MATERIAL
350
3B
  3
ACAD_MLEADERSTYLE
350
A9
  3
ACAD_MLINESTYLE
350
17
  3
ACAD_PLOTSETTINGS
350
19
  3
ACAD_PLOTSTYLENAME
350
E
  3
ACAD_TABLESTYLE
350
A8
  3
ACAD_VISUALSTYLE
350
2A
  0
SUN
  5
3F
330
29
100
AcDbSun
 90
        1
290
     0
 63
     7
421
 16777215
 40
1.0
291
     1
 91
  2455826
 92
 54000000
292
     0
 70
     2
 71
   256
280
     1
  0
DICTIONARY
  5
D
102
{ACAD_REACTORS
330
C
102
}
330
C
100
AcDbDictionary
281
     1
  0
DICTIONARY
  5
1A
102
{ACAD_REACTORS
330
C
102
}
330
C
100
AcDbDictionary
281
     1
  3
Layout1
350
1E
  3
Layout2
350
26
  3
Model
350
22
  0
DICTIONARY
  5
3B
102
{ACAD_REACTORS
330
C
102
}
330
C
100
AcDbDictionary
281
     1
  3
ByBlock
350
3D
  3
ByLayer
350
3C
  3
Global
350
3E
  0
DICTIONARY
  5
A9
102
{ACAD_REACTORS
330
C
102
}
330
C
100
AcDbDictionary
281
     1
  0
DICTIONARY
  5
17
102
{ACAD_REACTORS
330
C
102
}
330
C
100
AcDbDictionary
281
     1
  3
Standard
350
18
  0
DICTIONARY
  5
19
102
{ACAD_REACTORS
330
C
102
}
330
C
100
AcDbDictionary
281
     1
  0
ACDBDICTIONARYWDFLT
  5
E
102
{ACAD_REACTORS
330
C
102
}
330
C
100
AcDbDictionary
281
     1
  3
Normal
350
F
100
AcDbDictionaryWithDefault
340
F
  0
DICTIONARY
  5
A8
102
{ACAD_REACTORS
330
C
102
}
330
C
100
AcDbDictionary
281
     1
  0
DICTIONARY
  5
2A
102
{ACAD_REACTORS
330
C
102
}
330
C
100
AcDbDictionary
281
     1
  3
2dWireframe
350
2F
  3
3D Hidden
350
31
  3
3dWireframe
350
30
  3
Basic
350
32
  3
Brighten
350
36
  3
ColorChange
350
3A
  3
Conceptual
350
34
  3
Dim
350
35
  3
Facepattern
350
39
  3
Flat
350
2B
  3
FlatWithEdges
350
2C
  3
Gouraud
350
2D
  3
GouraudWithEdges
350
2E
  3
Linepattern
350
38
  3
Realistic
350
33
  3
Thicken
350
37
  0
LAYOUT
  5
1E
102
{ACAD_REACTORS
330
1A
102
}
330
1A
100
AcDbPlotSettings
  1

  2
none_device
  4

  6

 40
0.0
 41
0.0
 42
0.0
 43
0.0
 44
0.0
 45
0.0
 46
0.0
 47
0.0
 48
0.0
 49
0.0
140
0.0
141
0.0
142
1.0
143
1.0
 70
   688
 72
     0
 73
     0
 74
     5
  7

 75
    16
 76
     0
 77
     2
 78
   300
147
1.0
148
0.0
149
0.0
100
AcDbLayout
  1
Layout1
 70
     1
 71
     1
 10
0.0
 20
0.0
 11
12.0
 21
9.0
 12
0.0
 22
0.0
 32
0.0
 14
1.000000000000000E+20
 24
1.000000000000000E+20
 34
1.000000000000000E+20
 15
-1.000000000000000E+20
 25
-1.000000000000000E+20
 35
-1.000000000000000E+20
146
0.0
 13
0.0
 23
0.0
 33
0.0
 16
1.0
 26
0.0
 36
0.0
 17
0.0
 27
1.0
 37
0.0
 76
     0
330
1B
  0
LAYOUT
  5
26
102
{ACAD_REACTORS
330
1A
102
}
330
1A
100
AcDbPlotSettings
  1

  2
none_device
  4

  6

 40
0.0
 41
0.0
 42
0.0
 43
0.0
 44
0.0
 45
0.0
 46
0.0
 47
0.0
 48
0.0
 49
0.0
140
0.0
141
0.0
142
1.0
143
1.0
 70
   688
 72
     0
 73
     0
 74
     5
  7

 75
    16
 76
     0
 77
     2
 78
   300
147
1.0
148
0.0
149
0.0
100
AcDbLayout
  1
Layout2
 70
     1
 71
     2
 10
0.0
 20
0.0
 11
0.0
 21
0.0
 12
0.0
 22
0.0
 32
0.0
 14
0.0
 24
0.0
 34
0.0
 15
0.0
 25
0.0
 35
0.0
146
0.0
 13
0.0
 23
0.0
 33
0.0
 16
1.0
 26
0.0
 36
0.0
 17
0.0
 27
1.0
 37
0.0
 76
     0
330
23
  0
LAYOUT
  5
22
102
{ACAD_REACTORS
330
1A
102
}
330
1A
100
AcDbPlotSettings
  1

  2
none_device
  4

  6

 40
0.0
 41
0.0
 42
0.0
 43
0.0
 44
0.0
 45
0.0
 46
0.0
 47
0.0
 48
0.0
 49
0.0
140
0.0
141
0.0
142
1.0
143
1.0
 70
  1712
 72
     0
 73
     0
 74
     0
  7

 75
     0
 76
     0
 77
     2
 78
   300
147
1.0
148
0.0
149
0.0
100
AcDbLayout
  1
Model
 70
     1
 71
     0
 10
0.0
 20
0.0
 11
12.0
 21
9.0
 12
0.0
 22
0.0
 32
0.0
 14
1.000000000000000E+20
 24
1.000000000000000E+20
 34
1.000000000000000E+20
 15
-1.000000000000000E+20
 25
-1.000000000000000E+20
 35
-1.000000000000000E+20
146
0.0
 13
0.0
 23
0.0
 33
0.0
 16
1.0
 26
0.0
 36
0.0
 17
0.0
 27
1.0
 37
0.0
 76
     0
330
1F
331
29
  0
MATERIAL
  5
3D
102
{ACAD_REACTORS
330
3B
102
}
330
3B
100
AcDbMaterial
  1
ByBlock
 72
     1
 94
      127
  0
MATERIAL
  5
3C
102
{ACAD_REACTORS
330
3B
102
}
330
3B
100
AcDbMaterial
  1
ByLayer
 72
     1
 94
      127
  0
MATERIAL
  5
3E
102
{ACAD_REACTORS
330
3B
102
}
330
3B
100
AcDbMaterial
  1
Global
 72
     1
 94
      127
  0
MLINESTYLE
  5
18
102
{ACAD_REACTORS
330
17
102
}
330
17
100
AcDbMlineStyle
  2
Standard
 70
     0
  3

 62
   256
 51
90.0
 52
90.0
 71
     2
 49
0.5
 62
   256
  6
BYLAYER
 49
-0.5
 62
   256
  6
BYLAYER
  0
ACDBPLACEHOLDER
  5
F
102
{ACAD_REACTORS
330
E
102
}
330
E
  0
VISUALSTYLE
  5
2F
102
{ACAD_REACTORS
330
2A
102
}
330
2A
100
AcDbVisualStyle
  2
2dWireframe
 70
     4
177
     2
291
     0
 71
     0
176
     1
 72
     2
176
     1
 73
     0
176
     1
 90
        0
176
     1
 40
-0.6
176
     1
 41
-30.0
176
     1
 62
     5
 63
     7
421
 16777215
176
     1
 74
     1
176
     1
 91
        4
176
     1
 64
     7
176
     1
 65
   257
176
     1
 75
     1
176
     1
175
     1
176
     1
 42
1.0
176
     1
 92
        0
176
     1
 66
   257
176
     1
 43
1.0
176
     1
 76
     1
176
     1
 77
     6
176
     1
 78
     2
176
     1
 67
     7
176
     1
 79
     5
176
     1
170
     0
176
     1
171
     0
176
     1
290
     0
176
     1
 93
        1
176
     1
 44
0.0
176
     1
173
     0
176
     1
  0
VISUALSTYLE
  5
31
102
{ACAD_REACTORS
330
2A
102
}
330
2A
100
AcDbVisualStyle
  2
3D Hidden
 70
     6
177
     2
291
     0
 71
     1
176
     1
 72
     2
176
     1
 73
     2
176
     1
 90
        0
176
     1
 40
-0.6
176
     1
 41
-30.0
176
     1
 62
     5
 63
     7
421
 16777215
176
     1
 74
     2
176
     1
 91
        2
176
     1
 64
     7
176
     1
 65
   257
176
     1
 75
     2
176
     1
175
     1
176
     1
 42
40.0
176
     1
 92
        0
176
     1
 66
   257
176
     1
 43
1.0
176
     1
 76
     1
176
     1
 77
     6
176
     1
 78
     2
176
     1
 67
     7
176
     1
 79
     3
176
     1
170
     0
176
     1
171
     0
176
     1
290
     0
176
     1
 93
        1
176
     1
 44
0.0
176
     1
173
     0
176
     1
  0
VISUALSTYLE
  5
30
102
{ACAD_REACTORS
330
2A
102
}
330
2A
100
AcDbVisualStyle
  2
3dWireframe
 70
     5
177
     2
291
     0
 71
     0
176
     1
 72
     2
176
     1
 73
     0
176
     1
 90
        0
176
     1
 40
-0.6
176
     1
 41
-30.0
176
     1
 62
     5
 63
     7
421
 16777215
176
     1
 74
     1
176
     1
 91
        4
176
     1
 64
     7
176
     1
 65
   257
176
     1
 75
     1
176
     1
175
     1
176
     1
 42
1.0
176
     1
 92
        0
176
     1
 66
   257
176
     1
 43
1.0
176
     1
 76
     1
176
     1
 77
     6
176
     1
 78
     2
176
     1
 67
     7
176
     1
 79
     5
176
     1
170
     0
176
     1
171
     0
176
     1
290
     0
176
     1
 93
        1
176
     1
 44
0.0
176
     1
173
     0
176
     1
  0
VISUALSTYLE
  5
32
102
{ACAD_REACTORS
330
2A
102
}
330
2A
100
AcDbVisualStyle
  2
Basic
 70
     7
177
     2
291
     1
 71
     1
176
     1
 72
     0
176
     1
 73
     1
176
     1
 90
        0
176
     1
 40
-0.6
176
     1
 41
-30.0
176
     1
 62
     5
 63
     7
421
 16777215
176
     1
 74
     0
176
     1
 91
        4
176
     1
 64
     7
176
     1
 65
   257
176
     1
 75
     1
176
     1
175
     1
176
     1
 42
1.0
176
     1
 92
        8
176
     1
 66
     7
176
     1
 43
1.0
176
     1
 76
     1
176
     1
 77
     6
176
     1
 78
     2
176
     1
 67
     7
176
     1
 79
     5
176
     1
170
     0
176
     1
171
     0
176
     1
290
     0
176
     1
 93
        1
176
     1
 44
0.0
176
     1
173
     0
176
     1
  0
VISUALSTYLE
  5
36
102
{ACAD_REACTORS
330
2A
102
}
330
2A
100
AcDbVisualStyle
  2
Brighten
 70
    12
177
     2
291
     1
 71
     2
176
     1
 72
     2
176
     1
 73
     0
176
     1
 90
        0
176
     1
 40
-0.6
176
     1
 41
-30.0
176
     1
 62
     5
 63
     7
421
 16777215
176
     1
 74
     1
176
     1
 91
        4
176
     1
 64
     7
176
     1
 65
   257
176
     1
 75
     1
176
     1
175
     1
176
     1
 42
1.0
176
     1
 92
        8
176
     1
 66
     7
176
     1
 43
1.0
176
     1
 76
     1
176
     1
 77
     6
176
     1
 78
     2
176
     1
 67
     7
176
     1
 79
     5
176
     1
170
     0
176
     1
171
     0
176
     1
290
     0
176
     1
 93
        1
176
     1
 44
50.0
176
     1
173
     0
176
     1
  0
VISUALSTYLE
  5
3A
102
{ACAD_REACTORS
330
2A
102
}
330
2A
100
AcDbVisualStyle
  2
ColorChange
 70
    16
177
     2
291
     1
 71
     2
176
     1
 72
     2
176
     1
 73
     3
176
     1
 90
        0
176
     1
 40
-0.6
176
     1
 41
-30.0
176
     1
 62
     5
 63
     8
421
  8421504
176
     1
 74
     1
176
     1
 91
        4
176
     1
 64
     7
176
     1
 65
   257
176
     1
 75
     1
176
     1
175
     1
176
     1
 42
1.0
176
     1
 92
        8
176
     1
 66
     8
424
  8421504
176
     1
 43
1.0
176
     1
 76
     1
176
     1
 77
     6
176
     1
 78
     2
176
     1
 67
     7
176
     1
 79
     5
176
     1
170
     0
176
     1
171
     0
176
     1
290
     0
176
     1
 93
        1
176
     1
 44
0.0
176
     1
173
     0
176
     1
  0
VISUALSTYLE
  5
34
102
{ACAD_REACTORS
330
2A
102
}
330
2A
100
AcDbVisualStyle
  2
Conceptual
 70
     9
177
     2
291
     0
 71
     3
176
     1
 72
     2
176
     1
 73
     0
176
     1
 90
        0
176
     1
 40
-0.6
176
     1
 41
-30.0
176
     1
 62
     5
 63
     7
421
 16777215
176
     1
 74
     2
176
     1
 91
        2
176
     1
 64
     7
176
     1
 65
   257
176
     1
 75
     1
176
     1
175
     1
176
     1
 42
40.0
176
     1
 92
        8
176
     1
 66
     7
176
     1
 43
1.0
176
     1
 76
     1
176
     1
 77
     6
176
     1
 78
     2
176
     1
 67
     7
176
     1
 79
     3
176
     1
170
     0
176
     1
171
     0
176
     1
290
     0
176
     1
 93
        1
176
     1
 44
0.0
176
     1
173
     0
176
     1
  0
VISUALSTYLE
  5
35
102
{ACAD_REACTORS
330
2A
102
}
330
2A
100
AcDbVisualStyle
  2
Dim
 70
    11
177
     2
291
     1
 71
     2
176
     1
 72
     2
176
     1
 73
     0
176
     1
 90
        0
176
     1
 40
-0.6
176
     1
 41
-30.0
176
     1
 62
     5
 63
     7
421
 16777215
176
     1
 74
     1
176
     1
 91
        4
176
     1
 64
     7
176
     1
 65
   257
176
     1
 75
     1
176
     1
175
     1
176
     1
 42
1.0
176
     1
 92
        8
176
     1
 66
     7
176
     1
 43
1.0
176
     1
 76
     1
176
     1
 77
     6
176
     1
 78
     2
176
     1
 67
     7
176
     1
 79
     5
176
     1
170
     0
176
     1
171
     0
176
     1
290
     0
176
     1
 93
        1
176
     1
 44
-50.0
176
     1
173
     0
176
     1
  0
VISUALSTYLE
  5
39
102
{ACAD_REACTORS
330
2A
102
}
330
2A
100
AcDbVisualStyle
  2
Facepattern
 70
    15
177
     2
291
     1
 71
     2
176
     1
 72
     2
176
     1
 73
     0
176
     1
 90
        0
176
     1
 40
-0.6
176
     1
 41
-30.0
176
     1
 62
     5
 63
     7
421
 16777215
176
     1
 74
     1
176
     1
 91
        4
176
     1
 64
     7
176
     1
 65
   257
176
     1
 75
     1
176
     1
175
     1
176
     1
 42
1.0
176
     1
 92
        8
176
     1
 66
     7
176
     1
 43
1.0
176
     1
 76
     1
176
     1
 77
     6
176
     1
 78
     2
176
     1
 67
     7
176
     1
 79
     5
176
     1
170
     0
176
     1
171
     0
176
     1
290
     0
176
     1
 93
        1
176
     1
 44
0.0
176
     1
173
     0
176
     1
  0
VISUALSTYLE
  5
2B
102
{ACAD_REACTORS
330
2A
102
}
330
2A
100
AcDbVisualStyle
  2
Flat
 70
     0
177
     2
291
     1
 71
     2
176
     1
 72
     1
176
     1
 73
     1
176
     1
 90
        2
176
     1
 40
-0.6
176
     1
 41
30.0
176
     1
 62
     5
 63
     7
421
 16777215
176
     1
 74
     0
176
     1
 91
        4
176
     1
 64
     7
176
     1
 65
   257
176
     1
 75
     1
176
     1
175
     1
176
     1
 42
1.0
176
     1
 92
        8
176
     1
 66
     7
176
     1
 43
1.0
176
     1
 76
     1
176
     1
 77
     6
176
     1
 78
     2
176
     1
 67
     7
176
     1
 79
     5
176
     1
170
     0
176
     1
171
     0
176
     1
290
     0
176
     1
 93
       13
176
     1
 44
0.0
176
     1
173
     0
176
     1
  0
VISUALSTYLE
  5
2C
102
{ACAD_REACTORS
330
2A
102
}
330
2A
100
AcDbVisualStyle
  2
FlatWithEdges
 70
     1
177
     2
291
     1
 71
     2
176
     1
 72
     1
176
     1
 73
     1
176
     1
 90
        2
176
     1
 40
-0.6
176
     1
 41
30.0
176
     1
 62
     5
 63
     7
421
 16777215
176
     1
 74
     1
176
     1
 91
        4
176
     1
 64
     7
176
     1
 65
   257
176
     1
 75
     1
176
     1
175
     1
176
     1
 42
1.0
176
     1
 92
        0
176
     1
 66
   257
176
     1
 43
1.0
176
     1
 76
     1
176
     1
 77
     6
176
     1
 78
     2
176
     1
 67
     7
176
     1
 79
     5
176
     1
170
     0
176
     1
171
     0
176
     1
290
     0
176
     1
 93
       13
176
     1
 44
0.0
176
     1
173
     0
176
     1
  0
VISUALSTYLE
  5
2D
102
{ACAD_REACTORS
330
2A
102
}
330
2A
100
AcDbVisualStyle
  2
Gouraud
 70
     2
177
     2
291
     1
 71
     2
176
     1
 72
     2
176
     1
 73
     1
176
     1
 90
        2
176
     1
 40
-0.6
176
     1
 41
30.0
176
     1
 62
     5
 63
     7
421
 16777215
176
     1
 74
     0
176
     1
 91
        4
176
     1
 64
     7
176
     1
 65
   257
176
     1
 75
     1
176
     1
175
     1
176
     1
 42
1.0
176
     1
 92
        0
176
     1
 66
     7
176
     1
 43
1.0
176
     1
 76
     1
176
     1
 77
     6
176
     1
 78
     2
176
     1
 67
     7
176
     1
 79
     5
176
     1
170
     0
176
     1
171
     0
176
     1
290
     0
176
     1
 93
       13
176
     1
 44
0.0
176
     1
173
     0
176
     1
  0
VISUALSTYLE
  5
2E
102
{ACAD_REACTORS
330
2A
102
}
330
2A
100
AcDbVisualStyle
  2
GouraudWithEdges
 70
     3
177
     2
291
     1
 71
     2
176
     1
 72
     2
176
     1
 73
     1
176
     1
 90
        2
176
     1
 40
-0.6
176
     1
 41
30.0
176
     1
 62
     5
 63
     7
421
 16777215
176
     1
 74
     1
176
     1
 91
        4
176
     1
 64
     7
176
     1
 65
   257
176
     1
 75
     1
176
     1
175
     1
176
     1
 42
1.0
176
     1
 92
        0
176
     1
 66
   257
176
     1
 43
1.0
176
     1
 76
     1
176
     1
 77
     6
176
     1
 78
     2
176
     1
 67
     7
176
     1
 79
     5
176
     1
170
     0
176
     1
171
     0
176
     1
290
     0
176
     1
 93
       13
176
     1
 44
0.0
176
     1
173
     0
176
     1
  0
VISUALSTYLE
  5
38
102
{ACAD_REACTORS
330
2A
102
}
330
2A
100
AcDbVisualStyle
  2
Linepattern
 70
    14
177
     2
291
     1
 71
     2
176
     1
 72
     2
176
     1
 73
     0
176
     1
 90
        0
176
     1
 40
-0.6
176
     1
 41
-30.0
176
     1
 62
     5
 63
     7
421
 16777215
176
     1
 74
     1
176
     1
 91
        4
176
     1
 64
     7
176
     1
 65
   257
176
     1
 75
     7
176
     1
175
     7
176
     1
 42
1.0
176
     1
 92
        8
176
     1
 66
     7
176
     1
 43
1.0
176
     1
 76
     1
176
     1
 77
     6
176
     1
 78
     2
176
     1
 67
     7
176
     1
 79
     5
176
     1
170
     0
176
     1
171
     0
176
     1
290
     0
176
     1
 93
        1
176
     1
 44
0.0
176
     1
173
     0
176
     1
  0
VISUALSTYLE
  5
33
102
{ACAD_REACTORS
330
2A
102
}
330
2A
100
AcDbVisualStyle
  2
Realistic
 70
     8
177
     2
291
     0
 71
     2
176
     1
 72
     2
176
     1
 73
     0
176
     1
 90
        0
176
     1
 40
-0.6
176
     1
 41
-30.0
176
     1
 62
     5
 63
     7
421
 16777215
176
     1
 74
     1
176
     1
 91
        0
176
     1
 64
     7
176
     1
 65
   257
176
     1
 75
     1
176
     1
175
     1
176
     1
 42
1.0
176
     1
 92
        8
176
     1
 66
     8
424
  7895160
176
     1
 43
1.0
176
     1
 76
     1
176
     1
 77
     6
176
     1
 78
     2
176
     1
 67
     7
176
     1
 79
     5
176
     1
170
     0
176
     1
171
     0
176
     1
290
     0
176
     1
 93
       13
176
     1
 44
0.0
176
     1
173
     0
176
     1
  0
VISUALSTYLE
  5
37
102
{ACAD_REACTORS
330
2A
102
}
330
2A
100
AcDbVisualStyle
  2
Thicken
 70
    13
177
     2
291
     1
 71
     2
176
     1
 72
     2
176
     1
 73
     0
176
     1
 90
        0
176
     1
 40
-0.6
176
     1
 41
-30.0
176
     1
 62
     5
 63
     7
421
 16777215
176
     1
 74
     1
176
     1
 91
        4
176
     1
 64
     7
176
     1
 65
   257
176
     1
 75
     1
176
     1
175
     1
176
     1
 42
1.0
176
     1
 92
       12
176
     1
 66
     7
176
     1
 43
1.0
176
     1
 76
     1
176
     1
 77
     6
176
     1
 78
     2
176
     1
 67
     7
176
     1
 79
     5
176
     1
170
     0
176
     1
171
     0
176
     1
290
     0
176
     1
 93
        1
176
     1
 44
0.0
176
     1
173
     0
176
     1
  0
ENDSEC
  0
EOF
