  0
SECTION
  2
HEADER
  9
$ACADVER
  1
AC1024
  9
$ACADMAINTVER
 70
     6
  9
$DWGCODEPAGE
  3
UNDEFINED
  9
$INSBASE
 10
0.0
 20
0.0
 30
0.0
  9
$EXTMIN
 10
1.000000000000000E+20
 20
1.000000000000000E+20
 30
1.000000000000000E+20
  9
$EXTMAX
 10
-1.000000000000000E+20
 20
-1.000000000000000E+20
 30
-1.000000000000000E+20
  9
$LIMMIN
 10
0.0
 20
0.0
  9
$LIMMAX
 10
12.0
 20
9.0
  9
$ORTHOMODE
 70
     0
  9
$REGENMODE
 70
     1
  9
$FILLMODE
 70
     1
  9
$QTEXTMODE
 70
     0
  9
$MIRRTEXT
 70
     1
  9
$LTSCALE
 40
1.0
  9
$ATTMODE
 70
     1
  9
$TEXTSIZE
 40
0.2
  9
$TRACEWID
 40
0.05
  9
$TEXTSTYLE
  7
Standard
  9
$CLAYER
  8
0
  9
$CELTYPE
  6
ByLayer
  9
$CECOLOR
 62
   256
  9
$CELTSCALE
 40
1.0
  9
$DISPSILH
 70
     0
  9
$DIMSCALE
 40
1.0
  9
$DIMASZ
 40
0.18
  9
$DIMEXO
 40
0.0625
  9
$DIMDLI
 40
0.38
  9
$DIMRND
 40
0.0
  9
$DIMDLE
 40
0.0
  9
$DIMEXE
 40
0.18
  9
$DIMTP
 40
0.0
  9
$DIMTM
 40
0.0
  9
$DIMTXT
 40
0.18
  9
$DIMCEN
 40
0.09
  9
$DIMTSZ
 40
0.0
  9
$DIMTOL
 70
     0
  9
$DIMLIM
 70
     0
  9
$DIMTIH
 70
     1
  9
$DIMTOH
 70
     1
  9
$DIMSE1
 70
     0
  9
$DIMSE2
 70
     0
  9
$DIMTAD
 70
     0
  9
$DIMZIN
 70
     0
  9
$DIMBLK
  1

  9
$DIMASO
 70
     1
  9
$DIMSHO
 70
     1
  9
$DIMPOST
  1

  9
$DIMAPOST
  1

  9
$DIMALT
 70
     0
  9
$DIMALTD
 70
     2
  9
$DIMALTF
 40
25.4
  9
$DIMLFAC
 40
1.0
  9
$DIMTOFL
 70
     0
  9
$DIMTVP
 40
0.0
  9
$DIMTIX
 70
     0
  9
$DIMSOXD
 70
     0
  9
$DIMSAH
 70
     0
  9
$DIMBLK1
  1

  9
$DIMBLK2
  1

  9
$DIMSTYLE
  2
Standard
  9
$DIMCLRD
 70
     0
  9
$DIMCLRE
 70
     0
  9
$DIMCLRT
 70
     0
  9
$DIMTFAC
 40
1.0
  9
$DIMGAP
 40
0.09
  9
$DIMJUST
 70
     0
  9
$DIMSD1
 70
     0
  9
$DIMSD2
 70
     0
  9
$DIMTOLJ
 70
     1
  9
$DIMTZIN
 70
     0
  9
$DIMALTZ
 70
     0
  9
$DIMALTTZ
 70
     0
  9
$DIMUPT
 70
     0
  9
$DIMDEC
 70
     4
  9
$DIMTDEC
 70
     4
  9
$DIMALTU
 70
     2
  9
$DIMALTTD
 70
     2
  9
$DIMTXSTY
  7
Standard
  9
$DIMAUNIT
 70
     0
  9
$DIMADEC
 70
     0
  9
$DIMALTRND
 40
0.0
  9
$DIMAZIN
 70
     0
  9
$DIMDSEP
 70
    46
  9
$DIMATFIT
 70
     3
  9
$DIMFRAC
 70
     0
  9
$DIMLDRBLK
  1

  9
$DIMLUNIT
 70
     2
  9
$DIMLWD
 70
    -2
  9
$DIMLWE
 70
    -2
  9
$DIMTMOVE
 70
     0
  9
$DIMFXL
 40
1.0
  9
$DIMFXLON
 70
     0
  9
$DIMJOGANG
 40
0.7853981633974483
  9
$DIMTFILL
 70
     0
  9
$DIMTFILLCLR
 70
     0
  9
$DIMARCSYM
 70
     0
  9
$DIMLTYPE
  6

  9
$DIMLTEX1
  6

  9
$DIMLTEX2
  6

  9
$DIMTXTDIRECTION
 70
     0
  9
$LUNITS
 70
     2
  9
$LUPREC
 70
     4
  9
$SKETCHINC
 40
0.1
  9
$FILLETRAD
 40
0.5
  9
$AUNITS
 70
     0
  9
$AUPREC
 70
     0
  9
$MENU
  1
.
  9
$ELEVATION
 40
0.0
  9
$PELEVATION
 40
0.0
  9
$THICKNESS
 40
0.0
  9
$LIMCHECK
 70
     0
  9
$CHAMFERA
 40
0.5
  9
$CHAMFERB
 40
0.5
  9
$CHAMFERC
 40
1.0
  9
$CHAMFERD
 40
0.0
  9
$SKPOLY
 70
     0
  9
$TDCREATE
 40
2457917.608518507
  9
$TDUCREATE
 40
2457917.233518519
  9
$TDUPDATE
 40
2457917.608518507
  9
$TDUUPDATE
 40
2457917.233518519
  9
$TDINDWG
 40
0.0000000116
  9
$TDUSRTIMER
 40
0.0000000116
  9
$USRTIMER
 70
     1
  9
$ANGBASE
 50
0.0
  9
$ANGDIR
 70
     0
  9
$PDMODE
 70
     0
  9
$PDSIZE
 40
0.0
  9
$PLINEWID
 40
0.0
  9
$SPLFRAME
 70
     0
  9
$SPLINETYPE
 70
     6
  9
$SPLINESEGS
 70
     8
  9
$HANDSEED
  5
CB
  9
$SURFTAB1
 70
     6
  9
$SURFTAB2
 70
     6
  9
$SURFTYPE
 70
     6
  9
$SURFU
 70
     6
  9
$SURFV
 70
     6
  9
$UCSBASE
  2

  9
$UCSNAME
  2

  9
$UCSORG
 10
0.0
 20
0.0
 30
0.0
  9
$UCSXDIR
 10
1.0
 20
0.0
 30
0.0
  9
$UCSYDIR
 10
0.0
 20
1.0
 30
0.0
  9
$UCSORTHOREF
  2

  9
$UCSORTHOVIEW
 70
     0
  9
$UCSORGTOP
 10
0.0
 20
0.0
 30
0.0
  9
$UCSORGBOTTOM
 10
0.0
 20
0.0
 30
0.0
  9
$UCSORGLEFT
 10
0.0
 20
0.0
 30
0.0
  9
$UCSORGRIGHT
 10
0.0
 20
0.0
 30
0.0
  9
$UCSORGFRONT
 10
0.0
 20
0.0
 30
0.0
  9
$UCSORGBACK
 10
0.0
 20
0.0
 30
0.0
  9
$PUCSBASE
  2

  9
$PUCSNAME
  2

  9
$PUCSORG
 10
0.0
 20
0.0
 30
0.0
  9
$PUCSXDIR
 10
1.0
 20
0.0
 30
0.0
  9
$PUCSYDIR
 10
0.0
 20
1.0
 30
0.0
  9
$PUCSORTHOREF
  2

  9
$PUCSORTHOVIEW
 70
     0
  9
$PUCSORGTOP
 10
0.0
 20
0.0
 30
0.0
  9
$PUCSORGBOTTOM
 10
0.0
 20
0.0
 30
0.0
  9
$PUCSORGLEFT
 10
0.0
 20
0.0
 30
0.0
  9
$PUCSORGRIGHT
 10
0.0
 20
0.0
 30
0.0
  9
$PUCSORGFRONT
 10
0.0
 20
0.0
 30
0.0
  9
$PUCSORGBACK
 10
0.0
 20
0.0
 30
0.0
  9
$USERI1
 70
     0
  9
$USERI2
 70
     0
  9
$USERI3
 70
     0
  9
$USERI4
 70
     0
  9
$USERI5
 70
     0
  9
$USERR1
 40
0.0
  9
$USERR2
 40
0.0
  9
$USERR3
 40
0.0
  9
$USERR4
 40
0.0
  9
$USERR5
 40
0.0
  9
$WORLDVIEW
 70
     1
  9
$SHADEDGE
 70
     3
  9
$SHADEDIF
 70
    70
  9
$TILEMODE
 70
     1
  9
$MAXACTVP
 70
    64
  9
$PINSBASE
 10
0.0
 20
0.0
 30
0.0
  9
$PLIMCHECK
 70
     0
  9
$PEXTMIN
 10
1.000000000000000E+20
 20
1.000000000000000E+20
 30
1.000000000000000E+20
  9
$PEXTMAX
 10
-1.000000000000000E+20
 20
-1.000000000000000E+20
 30
-1.000000000000000E+20
  9
$PLIMMIN
 10
0.0
 20
0.0
  9
$PLIMMAX
 10
12.0
 20
9.0
  9
$UNITMODE
 70
     0
  9
$VISRETAIN
 70
     1
  9
$PLINEGEN
 70
     0
  9
$PSLTSCALE
 70
     1
  9
$TREEDEPTH
 70
  3020
  9
$CMLSTYLE
  2
Standard
  9
$CMLJUST
 70
     0
  9
$CMLSCALE
 40
1.0
  9
$PROXYGRAPHICS
 70
     1
  9
$MEASUREMENT
 70
     0
  9
$CELWEIGHT
370
    -1
  9
$ENDCAPS
280
     0
  9
$JOINSTYLE
280
     0
  9
$LWDISPLAY
290
     1
  9
$INSUNITS
 70
     1
  9
$HYPERLINKBASE
  1

  9
$STYLESHEET
  1

  9
$XEDIT
290
     1
  9
$CEPSNTYPE
380
     0
  9
$PSTYLEMODE
290
     1
  9
$FINGERPRINTGUID
  2
{86C0E880-6B8C-6A5E-0911-A60A835D6CF9}
  9
$VERSIONGUID
  2
{FAEB1C32-E019-11D5-929B-00C0DF256EC4}
  9
$EXTNAMES
290
     1
  9
$PSVPSCALE
 40
0.0
  9
$OLESTARTUP
290
     0
  9
$SORTENTS
280
   127
  9
$INDEXCTL
280
     0
  9
$HIDETEXT
280
     1
  9
$XCLIPFRAME
280
     2
  9
$HALOGAP
280
     0
  9
$OBSCOLOR
 70
   257
  9
$OBSLTYPE
280
     0
  9
$INTERSECTIONDISPLAY
280
     0
  9
$INTERSECTIONCOLOR
 70
   257
  9
$DIMASSOC
280
     2
  9
$PROJECTNAME
  1

  9
$CAMERADISPLAY
290
     0
  9
$LENSLENGTH
 40
50.0
  9
$CAMERAHEIGHT
 40
0.0
  9
$STEPSPERSEC
 40
2.0
  9
$STEPSIZE
 40
6.0
  9
$3DDWFPREC
 40
2.0
  9
$PSOLWIDTH
 40
0.25
  9
$PSOLHEIGHT
 40
4.0
  9
$LOFTANG1
 40
1.570796326794897
  9
$LOFTANG2
 40
1.570796326794897
  9
$LOFTMAG1
 40
0.0
  9
$LOFTMAG2
 40
0.0
  9
$LOFTPARAM
 70
     7
  9
$LOFTNORMALS
280
     1
  9
$LATITUDE
 40
37.795
  9
$LONGITUDE
 40
-122.394
  9
$NORTHDIRECTION
 40
0.0
  9
$TIMEZONE
 70
 -8000
  9
$LIGHTGLYPHDISPLAY
280
     1
  9
$TILEMODELIGHTSYNCH
280
     1
  9
$CMATERIAL
347
3C
  9
$SOLIDHIST
280
     1
  9
$SHOWHIST
280
     1
  9
$DWFFRAME
280
     2
  9
$DGNFRAME
280
     2
  9
$REALWORLDSCALE
290
     1
  9
$INTERFERECOLOR
 62
   256
  9
$CSHADOW
280
     0
  9
$SHADOWPLANELOCATION
 40
0.0
  0
ENDSEC
  0
SECTION
  2
CLASSES
  0
CLASS
  1
ACDBDICTIONARYWDFLT
  2
AcDbDictionaryWithDefault
  3
ObjectDBX Classes
 90
        0
 91
        4
280
     0
281
     0
  0
CLASS
  1
VISUALSTYLE
  2
AcDbVisualStyle
  3
ObjectDBX Classes
 90
     4095
 91
        4
280
     0
281
     0
  0
CLASS
  1
MATERIAL
  2
AcDbMaterial
  3
ObjectDBX Classes
 90
     1153
 91
        4
280
     0
281
     0
  0
CLASS
  1
SUN
  2
AcDbSun
  3
SCENEOE
 90
     1024
 91
        4
280
     0
281
     0
  0
ENDSEC
  0
SECTION
  2
TABLES
  0
TABLE
  2
VPORT
  5
8
330
0
100
AcDbSymbolTable
 70
     1
  0
VPORT
  5
29
330
8
100
AcDbSymbolTableRecord
100
AcDbViewportTableRecord
  2
*Active
 70
     0
 10
0.0
 20
0.0
 11
1.0
 21
1.0
 12
0.0
 22
0.0
 13
0.0
 23
0.0
 14
0.5
 24
0.5
 15
0.5
 25
0.5
 16
0.0
 26
0.0
 36
1.0
 17
91.00082462281999
 27
-128.4993055234307
 37
0.0
 40
256.9986110468615
 41
0.7081814508812795
 42
50.0
 43
0.0
 44
0.0
 50
0.0
 51
0.0
 71
     0
 72
   100
 73
     1
 74
     3
 75
     0
 76
     0
 77
     0
 78
     0
281
     0
 65
     1
110
0.0
120
0.0
130
0.0
111
1.0
121
0.0
131
0.0
112
0.0
122
1.0
132
0.0
 79
     0
146
0.0
 60
     3
 61
     5
292
     1
282
     1
141
0.0
142
0.0
 63
   250
361
3F
  0
ENDTAB
  0
TABLE
  2
LTYPE
  5
5
330
0
100
AcDbSymbolTable
 70
     2
  0
LTYPE
  5
14
330
5
100
AcDbSymbolTableRecord
100
AcDbLinetypeTableRecord
  2
ByBlock
 70
     0
  3

 72
    65
 73
     0
 40
0.0
  0
LTYPE
  5
15
330
5
100
AcDbSymbolTableRecord
100
AcDbLinetypeTableRecord
  2
ByLayer
 70
     0
  3

 72
    65
 73
     0
 40
0.0
  0
LTYPE
  5
16
330
5
100
AcDbSymbolTableRecord
100
AcDbLinetypeTableRecord
  2
Continuous
 70
     0
  3
Solid line
 72
    65
 73
     0
 40
0.0
  0
LTYPE
  5
8F
330
5
100
AcDbSymbolTableRecord
100
AcDbLinetypeTableRecord
  2
AI-Linetype-1
 70
     0
  3
Adobe Illustrator Linetype No. 1
 72
    65
 73
     2
 40
1.411111110758333
 49
0.7055555553791667
 74
     0
 49
-0.7055555553791667
 74
     0
  0
ENDTAB
  0
TABLE
  2
LAYER
  5
2
330
0
100
AcDbSymbolTable
 70
     2
  0
LAYER
  5
10
330
2
100
AcDbSymbolTableRecord
100
AcDbLayerTableRecord
  2
0
 70
     0
 62
     7
  6
Continuous
370
    -3
390
F
347
3E
  0
LAYER
  5
40
330
2
100
AcDbSymbolTableRecord
100
AcDbLayerTableRecord
  2
_U+30EC_U+30A4_U+30E4_U+30FC 1
 70
     0
 62
     7
  6
Continuous
370
    -3
390
F
347
3E
  0
ENDTAB
  0
TABLE
  2
STYLE
  5
3
330
0
100
AcDbSymbolTable
 70
     1
  0
STYLE
  5
11
330
3
100
AcDbSymbolTableRecord
100
AcDbTextStyleTableRecord
  2
Standard
 70
     0
 40
0.0
 41
1.0
 50
0.0
 71
     0
 42
0.2
  3
txt
  4

  0
ENDTAB
  0
TABLE
  2
VIEW
  5
6
330
0
100
AcDbSymbolTable
 70
     0
  0
ENDTAB
  0
TABLE
  2
UCS
  5
7
330
0
100
AcDbSymbolTable
 70
     0
  0
ENDTAB
  0
TABLE
  2
APPID
  5
9
330
0
100
AcDbSymbolTable
 70
     1
  0
APPID
  5
12
330
9
100
AcDbSymbolTableRecord
100
AcDbRegAppTableRecord
  2
ACAD
 70
     0
  0
ENDTAB
  0
TABLE
  2
DIMSTYLE
  5
A
330
0
100
AcDbSymbolTable
 70
     1
100
AcDbDimStyleTable
  0
DIMSTYLE
105
27
330
A
100
AcDbSymbolTableRecord
100
AcDbDimStyleTableRecord
  2
Standard
 70
     0
178
     0
340
11
  0
ENDTAB
  0
TABLE
  2
BLOCK_RECORD
  5
1
330
0
100
AcDbSymbolTable
 70
     5
  0
BLOCK_RECORD
  5
1F
330
1
100
AcDbSymbolTableRecord
100
AcDbBlockTableRecord
  2
*Model_Space
340
22
 70
     0
280
     1
281
     0
  0
BLOCK_RECORD
  5
1B
330
1
100
AcDbSymbolTableRecord
100
AcDbBlockTableRecord
  2
*Paper_Space
340
1E
 70
     0
280
     1
281
     0
  0
BLOCK_RECORD
  5
23
330
1
100
AcDbSymbolTableRecord
100
AcDbBlockTableRecord
  2
*Paper_Space0
340
26
 70
     0
280
     1
281
     0
  0
BLOCK_RECORD
  5
74
330
1
100
AcDbSymbolTableRecord
100
AcDbBlockTableRecord
  2
block 2
340
0
102
{BLKREFS
331
75
102
}
 70
     0
280
     1
281
     0
  0
BLOCK_RECORD
  5
7C
330
1
100
AcDbSymbolTableRecord
100
AcDbBlockTableRecord
  2
block 3
340
0
102
{BLKREFS
331
7D
102
}
 70
     0
280
     1
281
     0
  0
BLOCK_RECORD
  5
86
330
1
100
AcDbSymbolTableRecord
100
AcDbBlockTableRecord
  2
block 4
340
0
102
{BLKREFS
331
87
102
}
 70
     0
280
     1
281
     0
  0
BLOCK_RECORD
  5
91
330
1
100
AcDbSymbolTableRecord
100
AcDbBlockTableRecord
  2
block 5
340
0
102
{BLKREFS
331
92
102
}
 70
     0
280
     1
281
     0
  0
ENDTAB
  0
ENDSEC
  0
SECTION
  2
BLOCKS
  0
BLOCK
  5
20
330
1F
100
AcDbEntity
  8
0
100
AcDbBlockBegin
  2
*Model_Space
 70
     0
 10
0.0
 20
0.0
 30
0.0
  3
*Model_Space
  1

  0
ENDBLK
  5
21
330
1F
100
AcDbEntity
  8
0
100
AcDbBlockEnd
  0
BLOCK
  5
1C
330
1B
100
AcDbEntity
 67
     1
  8
0
100
AcDbBlockBegin
  2
*Paper_Space
 70
     0
 10
0.0
 20
0.0
 30
0.0
  3
*Paper_Space
  1

  0
ENDBLK
  5
1D
330
1B
100
AcDbEntity
 67
     1
  8
0
100
AcDbBlockEnd
  0
BLOCK
  5
24
330
23
100
AcDbEntity
  8
0
100
AcDbBlockBegin
  2
*Paper_Space0
 70
     0
 10
0.0
 20
0.0
 30
0.0
  3
*Paper_Space0
  1

  0
ENDBLK
  5
25
330
23
100
AcDbEntity
  8
0
100
AcDbBlockEnd
  0
BLOCK
  5
76
330
74
100
AcDbEntity
  8
0
100
AcDbBlockBegin
  2
block 2
 70
     0
 10
0.0
 20
0.0
 30
0.0
  3
block 2
  1

  0
SPLINE
  5
78
330
74
100
AcDbEntity
  8
_U+30EC_U+30A4_U+30E4_U+30FC 1
370
     0
100
AcDbSpline
210
0.0
220
0.0
230
1.0
 70
    11
 71
     3
 72
    26
 73
    22
 74
     0
 42
0.0000000001
 43
0.0000000001
 12
1.0
 22
0.0
 32
0.0
 13
1.0
 23
0.0
 33
0.0
 40
0.0
 40
0.0
 40
0.0
 40
0.0
 40
1.0
 40
1.0
 40
1.0
 40
2.0
 40
2.0
 40
2.0
 40
3.0
 40
3.0
 40
3.0
 40
4.0
 40
4.0
 40
4.0
 40
5.0
 40
5.0
 40
5.0
 40
6.0
 40
6.0
 40
6.0
 40
7.0
 40
7.0
 40
7.0
 40
7.0
 10
90.20121254255386
 20
-129.716802267918
 30
0.0
 10
90.20121254255386
 20
-129.716802267918
 30
0.0
 10
90.20121254255386
 20
-128.6124769101212
 30
0.0
 10
90.20121254255386
 20
-128.6124769101212
 30
0.0
 10
90.20121254255386
 20
-128.6124769101212
 30
0.0
 10
89.91974824140895
 20
-128.6124769101212
 30
0.0
 10
89.91974824140895
 20
-128.6124769101212
 30
0.0
 10
89.91974824140895
 20
-128.6124769101212
 30
0.0
 10
89.91974824140895
 20
-128.4645100590297
 30
0.0
 10
89.91974824140895
 20
-128.4645100590297
 30
0.0
 10
90.20293509029649
 20
-128.4496961484431
 30
0.0
 10
90.24255368837686
 20
-128.2867431319908
 30
0.0
 10
90.26787514019345
 20
-128.1725382166548
 30
0.0
 10
90.26787514019345
 20
-128.1725382166548
 30
0.0
 10
90.39224308721097
 20
-128.1725382166548
 30
0.0
 10
90.39224308721097
 20
-128.1725382166548
 30
0.0
 10
90.39224308721097
 20
-128.1725382166548
 30
0.0
 10
90.39224308721097
 20
-129.716802267918
 30
0.0
 10
90.39224308721097
 20
-129.716802267918
 30
0.0
 10
90.39224308721097
 20
-129.716802267918
 30
0.0
 10
90.20121254255386
 20
-129.716802267918
 30
0.0
 10
90.20121254255386
 20
-129.716802267918
 30
0.0
  0
HATCH
  5
79
330
74
100
AcDbEntity
  8
_U+30EC_U+30A4_U+30E4_U+30FC 1
 62
   179
420
  2234388
100
AcDbHatch
 10
0.0
 20
0.0
 30
0.0
210
0.0
220
0.0
230
1.0
  2
SOLID
 70
     1
 71
     0
 91
        1
 92
        1
 93
        1
 72
     4
 94
        3
 73
     0
 74
     1
 95
       26
 96
       22
 40
0.0
 40
0.0
 40
0.0
 40
0.0
 40
1.0
 40
1.0
 40
1.0
 40
2.0
 40
2.0
 40
2.0
 40
3.0
 40
3.0
 40
3.0
 40
4.0
 40
4.0
 40
4.0
 40
5.0
 40
5.0
 40
5.0
 40
6.0
 40
6.0
 40
6.0
 40
7.0
 40
7.0
 40
7.0
 40
7.0
 10
90.20121254255386
 20
-129.716802267918
 10
90.20121254255386
 20
-129.716802267918
 10
90.20121254255386
 20
-128.6124769101212
 10
90.20121254255386
 20
-128.6124769101212
 10
90.20121254255386
 20
-128.6124769101212
 10
89.91974824140895
 20
-128.6124769101212
 10
89.91974824140895
 20
-128.6124769101212
 10
89.91974824140895
 20
-128.6124769101212
 10
89.91974824140895
 20
-128.4645100590297
 10
89.91974824140895
 20
-128.4645100590297
 10
90.20293509029649
 20
-128.4496961484431
 10
90.24255368837686
 20
-128.2867431319908
 10
90.26787514019345
 20
-128.1725382166548
 10
90.26787514019345
 20
-128.1725382166548
 10
90.39224308721097
 20
-128.1725382166548
 10
90.39224308721097
 20
-128.1725382166548
 10
90.39224308721097
 20
-128.1725382166548
 10
90.39224308721097
 20
-129.716802267918
 10
90.39224308721097
 20
-129.716802267918
 10
90.39224308721097
 20
-129.716802267918
 10
90.20121254255386
 20
-129.716802267918
 10
90.20121254255386
 20
-129.716802267918
 97
        0
 97
        0
 75
     2
 76
     1
 98
        0
  0
SPLINE
  5
7A
330
74
100
AcDbEntity
  8
_U+30EC_U+30A4_U+30E4_U+30FC 1
370
     0
100
AcDbSpline
210
0.0
220
0.0
230
1.0
 70
    11
 71
     3
 72
    44
 73
    40
 74
     0
 42
0.0000000001
 43
0.0000000001
 12
1.0
 22
0.0
 32
0.0
 13
1.0
 23
0.0
 33
0.0
 40
0.0
 40
0.0
 40
0.0
 40
0.0
 40
1.0
 40
1.0
 40
1.0
 40
2.0
 40
2.0
 40
2.0
 40
3.0
 40
3.0
 40
3.0
 40
4.0
 40
4.0
 40
4.0
 40
5.0
 40
5.0
 40
5.0
 40
6.0
 40
6.0
 40
6.0
 40
7.0
 40
7.0
 40
7.0
 40
8.0
 40
8.0
 40
8.0
 40
9.0
 40
9.0
 40
9.0
 40
10.0
 40
10.0
 40
10.0
 40
11.0
 40
11.0
 40
11.0
 40
12.0
 40
12.0
 40
12.0
 40
13.0
 40
13.0
 40
13.0
 40
13.0
 10
91.32379690642253
 20
-129.1349256404593
 30
0.0
 10
91.13810625976757
 20
-129.2937445423293
 30
0.0
 10
91.05869680883255
 20
-129.3678140952622
 30
0.0
 10
91.0171834082353
 20
-129.5114745769971
 30
0.0
 10
91.0171834082353
 20
-129.5114745769971
 30
0.0
 10
91.68088105346867
 20
-129.5114745769971
 30
0.0
 10
91.68088105346867
 20
-129.5114745769971
 30
0.0
 10
91.68088105346867
 20
-129.5114745769971
 30
0.0
 10
91.68088105346867
 20
-129.716802267918
 30
0.0
 10
91.68088105346867
 20
-129.716802267918
 30
0.0
 10
91.68088105346867
 20
-129.716802267918
 30
0.0
 10
90.80444876202111
 20
-129.716802267918
 30
0.0
 10
90.80444876202111
 20
-129.716802267918
 30
0.0
 10
90.83149276158032
 20
-129.3592013565491
 30
0.0
 10
90.88730330844137
 20
-129.2809976890339
 30
0.0
 10
91.21562090818568
 20
-128.9826524200113
 30
0.0
 10
91.43386770717626
 20
-128.7838704105124
 30
0.0
 10
91.4896782540373
 20
-128.7161742842272
 30
0.0
 10
91.4896782540373
 20
-128.5787149743657
 30
0.0
 10
91.4896782540373
 20
-128.4602036896731
 30
0.0
 10
91.42835555439986
 20
-128.3291178064594
 30
0.0
 10
91.2605794042682
 20
-128.3291178064594
 30
0.0
 10
91.03888750979236
 20
-128.3291178064594
 30
0.0
 10
91.03165280927334
 20
-128.5595946944226
 30
0.0
 10
91.02803545901382
 20
-128.676038921824
 30
0.0
 10
91.02803545901382
 20
-128.676038921824
 30
0.0
 10
90.83683265958246
 20
-128.676038921824
 30
0.0
 10
90.83683265958246
 20
-128.676038921824
 30
0.0
 10
90.84406736010149
 20
-128.5490871531926
 30
0.0
 10
90.8531968631374
 20
-128.4369492951477
 30
0.0
 10
90.92158200851961
 20
-128.3184380104551
 30
0.0
 10
91.01546086049267
 20
-128.1577243060682
 30
0.0
 10
91.17410750758842
 20
-128.1237901155385
 30
0.0
 10
91.27332625756361
 20
-128.1237901155385
 30
0.0
 10
91.50965980785176
 20
-128.1237901155385
 30
0.0
 10
91.68639320624507
 20
-128.3079304692251
 30
0.0
 10
91.68639320624507
 20
-128.5807820316569
 30
0.0
 10
91.68639320624507
 20
-128.8093641171032
 30
0.0
 10
91.58717445626988
 20
-128.9085828670784
 30
0.0
 10
91.32379690642253
 20
-129.1349256404593
 30
0.0
  0
HATCH
  5
7B
330
74
100
AcDbEntity
  8
_U+30EC_U+30A4_U+30E4_U+30FC 1
 62
   179
420
  2234388
100
AcDbHatch
 10
0.0
 20
0.0
 30
0.0
210
0.0
220
0.0
230
1.0
  2
SOLID
 70
     1
 71
     0
 91
        1
 92
        1
 93
        1
 72
     4
 94
        3
 73
     0
 74
     1
 95
       44
 96
       40
 40
0.0
 40
0.0
 40
0.0
 40
0.0
 40
1.0
 40
1.0
 40
1.0
 40
2.0
 40
2.0
 40
2.0
 40
3.0
 40
3.0
 40
3.0
 40
4.0
 40
4.0
 40
4.0
 40
5.0
 40
5.0
 40
5.0
 40
6.0
 40
6.0
 40
6.0
 40
7.0
 40
7.0
 40
7.0
 40
8.0
 40
8.0
 40
8.0
 40
9.0
 40
9.0
 40
9.0
 40
10.0
 40
10.0
 40
10.0
 40
11.0
 40
11.0
 40
11.0
 40
12.0
 40
12.0
 40
12.0
 40
13.0
 40
13.0
 40
13.0
 40
13.0
 10
91.32379690642253
 20
-129.1349256404593
 10
91.13810625976757
 20
-129.2937445423293
 10
91.05869680883255
 20
-129.3678140952622
 10
91.0171834082353
 20
-129.5114745769971
 10
91.0171834082353
 20
-129.5114745769971
 10
91.68088105346867
 20
-129.5114745769971
 10
91.68088105346867
 20
-129.5114745769971
 10
91.68088105346867
 20
-129.5114745769971
 10
91.68088105346867
 20
-129.716802267918
 10
91.68088105346867
 20
-129.716802267918
 10
91.68088105346867
 20
-129.716802267918
 10
90.80444876202111
 20
-129.716802267918
 10
90.80444876202111
 20
-129.716802267918
 10
90.83149276158032
 20
-129.3592013565491
 10
90.88730330844137
 20
-129.2809976890339
 10
91.21562090818568
 20
-128.9826524200113
 10
91.43386770717626
 20
-128.7838704105124
 10
91.4896782540373
 20
-128.7161742842272
 10
91.4896782540373
 20
-128.5787149743657
 10
91.4896782540373
 20
-128.4602036896731
 10
91.42835555439986
 20
-128.3291178064594
 10
91.2605794042682
 20
-128.3291178064594
 10
91.03888750979236
 20
-128.3291178064594
 10
91.03165280927334
 20
-128.5595946944226
 10
91.02803545901382
 20
-128.676038921824
 10
91.02803545901382
 20
-128.676038921824
 10
90.83683265958246
 20
-128.676038921824
 10
90.83683265958246
 20
-128.676038921824
 10
90.84406736010149
 20
-128.5490871531926
 10
90.8531968631374
 20
-128.4369492951477
 10
90.92158200851961
 20
-128.3184380104551
 10
91.01546086049267
 20
-128.1577243060682
 10
91.17410750758842
 20
-128.1237901155385
 10
91.27332625756361
 20
-128.1237901155385
 10
91.50965980785176
 20
-128.1237901155385
 10
91.68639320624507
 20
-128.3079304692251
 10
91.68639320624507
 20
-128.5807820316569
 10
91.68639320624507
 20
-128.8093641171032
 10
91.58717445626988
 20
-128.9085828670784
 10
91.32379690642253
 20
-129.1349256404593
 97
        0
 97
        0
 75
     2
 76
     1
 98
        0
  0
ENDBLK
  5
77
330
74
100
AcDbEntity
  8
0
100
AcDbBlockEnd
  0
BLOCK
  5
7E
330
7C
100
AcDbEntity
  8
0
100
AcDbBlockBegin
  2
block 3
 70
     0
 10
0.0
 20
0.0
 30
0.0
  3
block 3
  1

  0
SPLINE
  5
80
330
7C
100
AcDbEntity
  8
_U+30EC_U+30A4_U+30E4_U+30FC 1
370
     0
100
AcDbSpline
210
0.0
220
0.0
230
1.0
 70
    11
 71
     3
 72
    26
 73
    22
 74
     0
 42
0.0000000001
 43
0.0000000001
 12
1.0
 22
0.0
 32
0.0
 13
1.0
 23
0.0
 33
0.0
 40
0.0
 40
0.0
 40
0.0
 40
0.0
 40
1.0
 40
1.0
 40
1.0
 40
2.0
 40
2.0
 40
2.0
 40
3.0
 40
3.0
 40
3.0
 40
4.0
 40
4.0
 40
4.0
 40
5.0
 40
5.0
 40
5.0
 40
6.0
 40
6.0
 40
6.0
 40
7.0
 40
7.0
 40
7.0
 40
7.0
 10
90.25943465625458
 20
-132.1859022021966
 30
0.0
 10
90.25943465625458
 20
-132.1859022021966
 30
0.0
 10
90.25943465625458
 20
-131.081749099174
 30
0.0
 10
90.25943465625458
 20
-131.081749099174
 30
0.0
 10
90.25943465625458
 20
-131.081749099174
 30
0.0
 10
89.97797035510968
 20
-131.081749099174
 30
0.0
 10
89.97797035510968
 20
-131.081749099174
 30
0.0
 10
89.97797035510968
 20
-131.081749099174
 30
0.0
 10
89.97797035510968
 20
-130.9336099933083
 30
0.0
 10
89.97797035510968
 20
-130.9336099933083
 30
0.0
 10
90.26115720399721
 20
-130.9187960827217
 30
0.0
 10
90.30077580207758
 20
-130.7558430662694
 30
0.0
 10
90.32609725389418
 20
-130.6414658961591
 30
0.0
 10
90.32609725389418
 20
-130.6414658961591
 30
0.0
 10
90.4504652009117
 20
-130.6414658961591
 30
0.0
 10
90.4504652009117
 20
-130.6414658961591
 30
0.0
 10
90.4504652009117
 20
-130.6414658961591
 30
0.0
 10
90.4504652009117
 20
-132.1859022021966
 30
0.0
 10
90.4504652009117
 20
-132.1859022021966
 30
0.0
 10
90.4504652009117
 20
-132.1859022021966
 30
0.0
 10
90.25943465625458
 20
-132.1859022021966
 30
0.0
 10
90.25943465625458
 20
-132.1859022021966
 30
0.0
  0
HATCH
  5
81
330
7C
100
AcDbEntity
  8
_U+30EC_U+30A4_U+30E4_U+30FC 1
 62
   179
420
  2234388
100
AcDbHatch
 10
0.0
 20
0.0
 30
0.0
210
0.0
220
0.0
230
1.0
  2
SOLID
 70
     1
 71
     0
 91
        1
 92
        1
 93
        1
 72
     4
 94
        3
 73
     0
 74
     1
 95
       26
 96
       22
 40
0.0
 40
0.0
 40
0.0
 40
0.0
 40
1.0
 40
1.0
 40
1.0
 40
2.0
 40
2.0
 40
2.0
 40
3.0
 40
3.0
 40
3.0
 40
4.0
 40
4.0
 40
4.0
 40
5.0
 40
5.0
 40
5.0
 40
6.0
 40
6.0
 40
6.0
 40
7.0
 40
7.0
 40
7.0
 40
7.0
 10
90.25943465625458
 20
-132.1859022021966
 10
90.25943465625458
 20
-132.1859022021966
 10
90.25943465625458
 20
-131.081749099174
 10
90.25943465625458
 20
-131.081749099174
 10
90.25943465625458
 20
-131.081749099174
 10
89.97797035510968
 20
-131.081749099174
 10
89.97797035510968
 20
-131.081749099174
 10
89.97797035510968
 20
-131.081749099174
 10
89.97797035510968
 20
-130.9336099933083
 10
89.97797035510968
 20
-130.9336099933083
 10
90.26115720399721
 20
-130.9187960827217
 10
90.30077580207758
 20
-130.7558430662694
 10
90.32609725389418
 20
-130.6414658961591
 10
90.32609725389418
 20
-130.6414658961591
 10
90.4504652009117
 20
-130.6414658961591
 10
90.4504652009117
 20
-130.6414658961591
 10
90.4504652009117
 20
-130.6414658961591
 10
90.4504652009117
 20
-132.1859022021966
 10
90.4504652009117
 20
-132.1859022021966
 10
90.4504652009117
 20
-132.1859022021966
 10
90.25943465625458
 20
-132.1859022021966
 10
90.25943465625458
 20
-132.1859022021966
 97
        0
 97
        0
 75
     2
 76
     1
 98
        0
  0
SPLINE
  5
82
330
7C
100
AcDbEntity
  8
_U+30EC_U+30A4_U+30E4_U+30FC 1
370
     0
100
AcDbSpline
210
0.0
220
0.0
230
1.0
 70
    11
 71
     3
 72
    29
 73
    25
 74
     0
 42
0.0000000001
 43
0.0000000001
 12
1.0
 22
0.0
 32
0.0
 13
1.0
 23
0.0
 33
0.0
 40
0.0
 40
0.0
 40
0.0
 40
0.0
 40
1.0
 40
1.0
 40
1.0
 40
2.0
 40
2.0
 40
2.0
 40
3.0
 40
3.0
 40
3.0
 40
4.0
 40
4.0
 40
4.0
 40
5.0
 40
5.0
 40
5.0
 40
6.0
 40
6.0
 40
6.0
 40
7.0
 40
7.0
 40
7.0
 40
8.0
 40
8.0
 40
8.0
 40
8.0
 10
91.30260956918823
 20
-132.2365451058297
 30
0.0
 10
91.07540552193602
 20
-132.2365451058297
 30
0.0
 10
90.85905352546233
 20
-132.0990857959683
 30
0.0
 10
90.85905352546233
 20
-131.7500976233125
 30
0.0
 10
90.85905352546233
 20
-131.4941270287584
 30
0.0
 10
90.97980412222033
 20
-131.3990423933655
 30
0.0
 10
91.07006562393387
 20
-131.3377196937281
 30
0.0
 10
90.96361217343966
 20
-131.2784640513818
 30
0.0
 10
90.8986721235427
 20
-131.1640868812715
 30
0.0
 10
90.8986721235427
 20
-131.0032009221103
 30
0.0
 10
90.8986721235427
 20
-130.7282823023874
 30
0.0
 10
91.06817082141698
 20
-130.5928900498171
 30
0.0
 10
91.30260956918823
 20
-130.5928900498171
 30
0.0
 10
91.54445527225278
 20
-130.5928900498171
 30
0.0
 10
91.70671926960804
 20
-130.7368950411005
 30
0.0
 10
91.70671926960804
 20
-131.0032009221103
 30
0.0
 10
91.70671926960804
 20
-131.1640868812715
 30
0.0
 10
91.6398844171942
 20
-131.2784640513818
 30
0.0
 10
91.53343096669998
 20
-131.3377196937281
 30
0.0
 10
91.60922306737548
 20
-131.3883625973612
 30
0.0
 10
91.7446153199458
 20
-131.4834472327541
 30
0.0
 10
91.7446153199458
 20
-131.7459635087302
 30
0.0
 10
91.7446153199458
 20
-132.1204453879768
 30
0.0
 10
91.50655922191503
 20
-132.2365451058297
 30
0.0
 10
91.30260956918823
 20
-132.2365451058297
 30
0.0
  0
SPLINE
  5
83
330
7C
100
AcDbEntity
  8
_U+30EC_U+30A4_U+30E4_U+30FC 1
370
     0
100
AcDbSpline
210
0.0
220
0.0
230
1.0
 70
    11
 71
     3
 72
    17
 73
    13
 74
     0
 42
0.0000000001
 43
0.0000000001
 12
1.0
 22
0.0
 32
0.0
 13
1.0
 23
0.0
 33
0.0
 40
0.0
 40
0.0
 40
0.0
 40
0.0
 40
1.0
 40
1.0
 40
1.0
 40
2.0
 40
2.0
 40
2.0
 40
3.0
 40
3.0
 40
3.0
 40
4.0
 40
4.0
 40
4.0
 40
4.0
 10
91.30260956918823
 20
-131.4455511824164
 30
0.0
 10
91.17996416991335
 20
-131.4455511824164
 30
0.0
 10
91.0502563248937
 20
-131.5323675886447
 30
0.0
 10
91.0502563248937
 20
-131.7352837127259
 30
0.0
 10
91.0502563248937
 20
-131.9406114036468
 30
0.0
 10
91.15843232313054
 20
-132.0418972109131
 30
0.0
 10
91.30260956918823
 20
-132.0418972109131
 30
0.0
 10
91.46142847105826
 20
-132.0418972109131
 30
0.0
 10
91.55513506825706
 20
-131.9192518116382
 30
0.0
 10
91.55513506825706
 20
-131.7414848845993
 30
0.0
 10
91.55513506825706
 20
-131.5196207353493
 30
0.0
 10
91.41629772020148
 20
-131.4455511824164
 30
0.0
 10
91.30260956918823
 20
-131.4455511824164
 30
0.0
  0
SPLINE
  5
84
330
7C
100
AcDbEntity
  8
_U+30EC_U+30A4_U+30E4_U+30FC 1
370
     0
100
AcDbSpline
210
0.0
220
0.0
230
1.0
 70
    11
 71
     3
 72
    17
 73
    13
 74
     0
 42
0.0000000001
 43
0.0000000001
 12
1.0
 22
0.0
 32
0.0
 13
1.0
 23
0.0
 33
0.0
 40
0.0
 40
0.0
 40
0.0
 40
0.0
 40
1.0
 40
1.0
 40
1.0
 40
2.0
 40
2.0
 40
2.0
 40
3.0
 40
3.0
 40
3.0
 40
4.0
 40
4.0
 40
4.0
 40
4.0
 10
91.30260956918823
 20
-130.7854708874425
 30
0.0
 10
91.16204967339004
 20
-130.7854708874425
 30
0.0
 10
91.08987492297406
 20
-130.8805555228354
 30
0.0
 10
91.08987492297406
 20
-131.0159477754057
 30
0.0
 10
91.08987492297406
 20
-131.1385931746806
 30
0.0
 10
91.1511976226115
 20
-131.2571044593732
 30
0.0
 10
91.30260956918823
 20
-131.2571044593732
 30
0.0
 10
91.45419377053923
 20
-131.2571044593732
 30
0.0
 10
91.51551647017668
 20
-131.1385931746806
 30
0.0
 10
91.51551647017668
 20
-131.0159477754057
 30
0.0
 10
91.51551647017668
 20
-130.8805555228354
 30
0.0
 10
91.44144691724381
 20
-130.7854708874425
 30
0.0
 10
91.30260956918823
 20
-130.7854708874425
 30
0.0
  0
HATCH
  5
85
330
7C
100
AcDbEntity
  8
_U+30EC_U+30A4_U+30E4_U+30FC 1
 62
   179
420
  2234388
100
AcDbHatch
 10
0.0
 20
0.0
 30
0.0
210
0.0
220
0.0
230
1.0
  2
SOLID
 70
     1
 71
     0
 91
        3
 92
        1
 93
        1
 72
     4
 94
        3
 73
     0
 74
     1
 95
       29
 96
       25
 40
0.0
 40
0.0
 40
0.0
 40
0.0
 40
1.0
 40
1.0
 40
1.0
 40
2.0
 40
2.0
 40
2.0
 40
3.0
 40
3.0
 40
3.0
 40
4.0
 40
4.0
 40
4.0
 40
5.0
 40
5.0
 40
5.0
 40
6.0
 40
6.0
 40
6.0
 40
7.0
 40
7.0
 40
7.0
 40
8.0
 40
8.0
 40
8.0
 40
8.0
 10
91.30260956918823
 20
-132.2365451058297
 10
91.07540552193602
 20
-132.2365451058297
 10
90.85905352546233
 20
-132.0990857959683
 10
90.85905352546233
 20
-131.7500976233125
 10
90.85905352546233
 20
-131.4941270287584
 10
90.97980412222033
 20
-131.3990423933655
 10
91.07006562393387
 20
-131.3377196937281
 10
90.96361217343966
 20
-131.2784640513818
 10
90.8986721235427
 20
-131.1640868812715
 10
90.8986721235427
 20
-131.0032009221103
 10
90.8986721235427
 20
-130.7282823023874
 10
91.06817082141698
 20
-130.5928900498171
 10
91.30260956918823
 20
-130.5928900498171
 10
91.54445527225278
 20
-130.5928900498171
 10
91.70671926960804
 20
-130.7368950411005
 10
91.70671926960804
 20
-131.0032009221103
 10
91.70671926960804
 20
-131.1640868812715
 10
91.6398844171942
 20
-131.2784640513818
 10
91.53343096669998
 20
-131.3377196937281
 10
91.60922306737548
 20
-131.3883625973612
 10
91.7446153199458
 20
-131.4834472327541
 10
91.7446153199458
 20
-131.7459635087302
 10
91.7446153199458
 20
-132.1204453879768
 10
91.50655922191503
 20
-132.2365451058297
 10
91.30260956918823
 20
-132.2365451058297
 97
        0
 97
        0
 92
        1
 93
        1
 72
     4
 94
        3
 73
     0
 74
     1
 95
       17
 96
       13
 40
0.0
 40
0.0
 40
0.0
 40
0.0
 40
1.0
 40
1.0
 40
1.0
 40
2.0
 40
2.0
 40
2.0
 40
3.0
 40
3.0
 40
3.0
 40
4.0
 40
4.0
 40
4.0
 40
4.0
 10
91.30260956918823
 20
-131.4455511824164
 10
91.17996416991335
 20
-131.4455511824164
 10
91.0502563248937
 20
-131.5323675886447
 10
91.0502563248937
 20
-131.7352837127259
 10
91.0502563248937
 20
-131.9406114036468
 10
91.15843232313054
 20
-132.0418972109131
 10
91.30260956918823
 20
-132.0418972109131
 10
91.46142847105826
 20
-132.0418972109131
 10
91.55513506825706
 20
-131.9192518116382
 10
91.55513506825706
 20
-131.7414848845993
 10
91.55513506825706
 20
-131.5196207353493
 10
91.41629772020148
 20
-131.4455511824164
 10
91.30260956918823
 20
-131.4455511824164
 97
        0
 97
        0
 92
        1
 93
        1
 72
     4
 94
        3
 73
     0
 74
     1
 95
       17
 96
       13
 40
0.0
 40
0.0
 40
0.0
 40
0.0
 40
1.0
 40
1.0
 40
1.0
 40
2.0
 40
2.0
 40
2.0
 40
3.0
 40
3.0
 40
3.0
 40
4.0
 40
4.0
 40
4.0
 40
4.0
 10
91.30260956918823
 20
-130.7854708874425
 10
91.16204967339004
 20
-130.7854708874425
 10
91.08987492297406
 20
-130.8805555228354
 10
91.08987492297406
 20
-131.0159477754057
 10
91.08987492297406
 20
-131.1385931746806
 10
91.1511976226115
 20
-131.2571044593732
 10
91.30260956918823
 20
-131.2571044593732
 10
91.45419377053923
 20
-131.2571044593732
 10
91.51551647017668
 20
-131.1385931746806
 10
91.51551647017668
 20
-131.0159477754057
 10
91.51551647017668
 20
-130.8805555228354
 10
91.44144691724381
 20
-130.7854708874425
 10
91.30260956918823
 20
-130.7854708874425
 97
        0
 97
        0
 75
     2
 76
     1
 98
        0
  0
ENDBLK
  5
7F
330
7C
100
AcDbEntity
  8
0
100
AcDbBlockEnd
  0
BLOCK
  5
88
330
86
100
AcDbEntity
  8
0
100
AcDbBlockBegin
  2
block 4
 70
     0
 10
0.0
 20
0.0
 30
0.0
  3
block 4
  1

  0
SPLINE
  5
8A
330
86
100
AcDbEntity
  8
_U+30EC_U+30A4_U+30E4_U+30FC 1
370
     0
100
AcDbSpline
210
0.0
220
0.0
230
1.0
 70
    11
 71
     3
 72
    53
 73
    49
 74
     0
 42
0.0000000001
 43
0.0000000001
 12
1.0
 22
0.0
 32
0.0
 13
1.0
 23
0.0
 33
0.0
 40
0.0
 40
0.0
 40
0.0
 40
0.0
 40
1.0
 40
1.0
 40
1.0
 40
2.0
 40
2.0
 40
2.0
 40
3.0
 40
3.0
 40
3.0
 40
4.0
 40
4.0
 40
4.0
 40
5.0
 40
5.0
 40
5.0
 40
6.0
 40
6.0
 40
6.0
 40
7.0
 40
7.0
 40
7.0
 40
8.0
 40
8.0
 40
8.0
 40
9.0
 40
9.0
 40
9.0
 40
10.0
 40
10.0
 40
10.0
 40
11.0
 40
11.0
 40
11.0
 40
12.0
 40
12.0
 40
12.0
 40
13.0
 40
13.0
 40
13.0
 40
14.0
 40
14.0
 40
14.0
 40
15.0
 40
15.0
 40
15.0
 40
16.0
 40
16.0
 40
16.0
 40
16.0
 10
79.88470185719896
 20
-123.2637939144966
 30
0.0
 10
79.88470185719896
 20
-123.3304565121361
 30
0.0
 10
79.86764863454698
 20
-123.4171006635902
 30
0.0
 10
79.80425887761838
 20
-123.5035725602699
 30
0.0
 10
79.69418807686465
 20
-123.6515394113614
 30
0.0
 10
79.56310219365089
 20
-123.6694539078847
 30
0.0
 10
79.45527070496257
 20
-123.6858181114397
 30
0.0
 10
79.45527070496257
 20
-123.6858181114397
 30
0.0
 10
79.45527070496257
 20
-123.4963378597509
 30
0.0
 10
79.45527070496257
 20
-123.4963378597509
 30
0.0
 10
79.65405271446149
 20
-123.4494845611515
 30
0.0
 10
79.68368053563464
 20
-123.3413085629147
 30
0.0
 10
79.68368053563464
 20
-123.2618991119797
 30
0.0
 10
79.68368053563464
 20
-123.1428710629643
 30
0.0
 10
79.58428953088519
 20
-123.0131632179446
 30
0.0
 10
79.35157333085655
 20
-123.0131632179446
 30
0.0
 10
79.0956027363025
 20
-123.0131632179446
 30
0.0
 10
79.02583955272618
 20
-123.1664699670383
 30
0.0
 10
79.02583955272618
 20
-123.2691338124987
 30
0.0
 10
79.02583955272618
 20
-123.2961778120579
 30
0.0
 10
79.02583955272618
 20
-123.4171006635902
 30
0.0
 10
79.15485837864878
 20
-123.4927205094914
 30
0.0
 10
79.15485837864878
 20
-123.4927205094914
 30
0.0
 10
79.13573809870566
 20
-123.6424099083255
 30
0.0
 10
79.13573809870566
 20
-123.6424099083255
 30
0.0
 10
79.13573809870566
 20
-123.6424099083255
 30
0.0
 10
78.28962264752829
 20
-123.5397460628651
 30
0.0
 10
78.28962264752829
 20
-123.5397460628651
 30
0.0
 10
78.28962264752829
 20
-123.5397460628651
 30
0.0
 10
78.28962264752829
 20
-122.8760484176317
 30
0.0
 10
78.28962264752829
 20
-122.8760484176317
 30
0.0
 10
78.28962264752829
 20
-122.8760484176317
 30
0.0
 10
78.4842705424449
 20
-122.8760484176317
 30
0.0
 10
78.4842705424449
 20
-122.8760484176317
 30
0.0
 10
78.4842705424449
 20
-122.8760484176317
 30
0.0
 10
78.4842705424449
 20
-123.4009087148095
 30
0.0
 10
78.4842705424449
 20
-123.4009087148095
 30
0.0
 10
78.4842705424449
 20
-123.4009087148095
 30
0.0
 10
78.9073282680336
 20
-123.4567192616705
 30
0.0
 10
78.9073282680336
 20
-123.4567192616705
 30
0.0
 10
78.87339407750387
 20
-123.4043538102948
 30
0.0
 10
78.83325871510071
 20
-123.3340738623957
 30
0.0
 10
78.83325871510071
 20
-123.2331325646778
 30
0.0
 10
78.83325871510071
 20
-123.0167805682041
 30
0.0
 10
79.01946612607847
 20
-122.8147257179942
 30
0.0
 10
79.33245305091341
 20
-122.8147257179942
 30
0.0
 10
79.64991859987919
 20
-122.8147257179942
 30
0.0
 10
79.88470185719896
 20
-123.0059285174256
 30
0.0
 10
79.88470185719896
 20
-123.2637939144966
 30
0.0
  0
HATCH
  5
8B
330
86
100
AcDbEntity
  8
_U+30EC_U+30A4_U+30E4_U+30FC 1
 62
   179
420
  2234388
100
AcDbHatch
 10
0.0
 20
0.0
 30
0.0
210
0.0
220
0.0
230
1.0
  2
SOLID
 70
     1
 71
     0
 91
        1
 92
        1
 93
        1
 72
     4
 94
        3
 73
     0
 74
     1
 95
       53
 96
       49
 40
0.0
 40
0.0
 40
0.0
 40
0.0
 40
1.0
 40
1.0
 40
1.0
 40
2.0
 40
2.0
 40
2.0
 40
3.0
 40
3.0
 40
3.0
 40
4.0
 40
4.0
 40
4.0
 40
5.0
 40
5.0
 40
5.0
 40
6.0
 40
6.0
 40
6.0
 40
7.0
 40
7.0
 40
7.0
 40
8.0
 40
8.0
 40
8.0
 40
9.0
 40
9.0
 40
9.0
 40
10.0
 40
10.0
 40
10.0
 40
11.0
 40
11.0
 40
11.0
 40
12.0
 40
12.0
 40
12.0
 40
13.0
 40
13.0
 40
13.0
 40
14.0
 40
14.0
 40
14.0
 40
15.0
 40
15.0
 40
15.0
 40
16.0
 40
16.0
 40
16.0
 40
16.0
 10
79.88470185719896
 20
-123.2637939144966
 10
79.88470185719896
 20
-123.3304565121361
 10
79.86764863454698
 20
-123.4171006635902
 10
79.80425887761838
 20
-123.5035725602699
 10
79.69418807686465
 20
-123.6515394113614
 10
79.56310219365089
 20
-123.6694539078847
 10
79.45527070496257
 20
-123.6858181114397
 10
79.45527070496257
 20
-123.6858181114397
 10
79.45527070496257
 20
-123.4963378597509
 10
79.45527070496257
 20
-123.4963378597509
 10
79.65405271446149
 20
-123.4494845611515
 10
79.68368053563464
 20
-123.3413085629147
 10
79.68368053563464
 20
-123.2618991119797
 10
79.68368053563464
 20
-123.1428710629643
 10
79.58428953088519
 20
-123.0131632179446
 10
79.35157333085655
 20
-123.0131632179446
 10
79.0956027363025
 20
-123.0131632179446
 10
79.02583955272618
 20
-123.1664699670383
 10
79.02583955272618
 20
-123.2691338124987
 10
79.02583955272618
 20
-123.2961778120579
 10
79.02583955272618
 20
-123.4171006635902
 10
79.15485837864878
 20
-123.4927205094914
 10
79.15485837864878
 20
-123.4927205094914
 10
79.13573809870566
 20
-123.6424099083255
 10
79.13573809870566
 20
-123.6424099083255
 10
79.13573809870566
 20
-123.6424099083255
 10
78.28962264752829
 20
-123.5397460628651
 10
78.28962264752829
 20
-123.5397460628651
 10
78.28962264752829
 20
-123.5397460628651
 10
78.28962264752829
 20
-122.8760484176317
 10
78.28962264752829
 20
-122.8760484176317
 10
78.28962264752829
 20
-122.8760484176317
 10
78.4842705424449
 20
-122.8760484176317
 10
78.4842705424449
 20
-122.8760484176317
 10
78.4842705424449
 20
-122.8760484176317
 10
78.4842705424449
 20
-123.4009087148095
 10
78.4842705424449
 20
-123.4009087148095
 10
78.4842705424449
 20
-123.4009087148095
 10
78.9073282680336
 20
-123.4567192616705
 10
78.9073282680336
 20
-123.4567192616705
 10
78.87339407750387
 20
-123.4043538102948
 10
78.83325871510071
 20
-123.3340738623957
 10
78.83325871510071
 20
-123.2331325646778
 10
78.83325871510071
 20
-123.0167805682041
 10
79.01946612607847
 20
-122.8147257179942
 10
79.33245305091341
 20
-122.8147257179942
 10
79.64991859987919
 20
-122.8147257179942
 10
79.88470185719896
 20
-123.0059285174256
 10
79.88470185719896
 20
-123.2637939144966
 97
        0
 97
        0
 75
     2
 76
     1
 98
        0
  0
ENDBLK
  5
89
330
86
100
AcDbEntity
  8
0
100
AcDbBlockEnd
  0
BLOCK
  5
93
330
91
100
AcDbEntity
  8
0
100
AcDbBlockBegin
  2
block 5
 70
     0
 10
0.0
 20
0.0
 30
0.0
  3
block 5
  1

  0
SPLINE
  5
95
330
91
100
AcDbEntity
  8
_U+30EC_U+30A4_U+30E4_U+30FC 1
370
     0
100
AcDbSpline
210
0.0
220
0.0
230
1.0
 70
    11
 71
     3
 72
   176
 73
   172
 74
     0
 42
0.0000000001
 43
0.0000000001
 12
1.0
 22
0.0
 32
0.0
 13
1.0
 23
0.0
 33
0.0
 40
0.0
 40
0.0
 40
0.0
 40
0.0
 40
1.0
 40
1.0
 40
1.0
 40
2.0
 40
2.0
 40
2.0
 40
3.0
 40
3.0
 40
3.0
 40
4.0
 40
4.0
 40
4.0
 40
5.0
 40
5.0
 40
5.0
 40
6.0
 40
6.0
 40
6.0
 40
7.0
 40
7.0
 40
7.0
 40
8.0
 40
8.0
 40
8.0
 40
9.0
 40
9.0
 40
9.0
 40
10.0
 40
10.0
 40
10.0
 40
11.0
 40
11.0
 40
11.0
 40
12.0
 40
12.0
 40
12.0
 40
13.0
 40
13.0
 40
13.0
 40
14.0
 40
14.0
 40
14.0
 40
15.0
 40
15.0
 40
15.0
 40
16.0
 40
16.0
 40
16.0
 40
17.0
 40
17.0
 40
17.0
 40
18.0
 40
18.0
 40
18.0
 40
19.0
 40
19.0
 40
19.0
 40
20.0
 40
20.0
 40
20.0
 40
21.0
 40
21.0
 40
21.0
 40
22.0
 40
22.0
 40
22.0
 40
23.0
 40
23.0
 40
23.0
 40
24.0
 40
24.0
 40
24.0
 40
25.0
 40
25.0
 40
25.0
 40
26.0
 40
26.0
 40
26.0
 40
27.0
 40
27.0
 40
27.0
 40
28.0
 40
28.0
 40
28.0
 40
29.0
 40
29.0
 40
29.0
 40
30.0
 40
30.0
 40
30.0
 40
31.0
 40
31.0
 40
31.0
 40
32.0
 40
32.0
 40
32.0
 40
33.0
 40
33.0
 40
33.0
 40
34.0
 40
34.0
 40
34.0
 40
35.0
 40
35.0
 40
35.0
 40
36.0
 40
36.0
 40
36.0
 40
37.0
 40
37.0
 40
37.0
 40
38.0
 40
38.0
 40
38.0
 40
39.0
 40
39.0
 40
39.0
 40
40.0
 40
40.0
 40
40.0
 40
41.0
 40
41.0
 40
41.0
 40
42.0
 40
42.0
 40
42.0
 40
43.0
 40
43.0
 40
43.0
 40
44.0
 40
44.0
 40
44.0
 40
45.0
 40
45.0
 40
45.0
 40
46.0
 40
46.0
 40
46.0
 40
47.0
 40
47.0
 40
47.0
 40
48.0
 40
48.0
 40
48.0
 40
49.0
 40
49.0
 40
49.0
 40
50.0
 40
50.0
 40
50.0
 40
51.0
 40
51.0
 40
51.0
 40
52.0
 40
52.0
 40
52.0
 40
53.0
 40
53.0
 40
53.0
 40
54.0
 40
54.0
 40
54.0
 40
55.0
 40
55.0
 40
55.0
 40
56.0
 40
56.0
 40
56.0
 40
57.0
 40
57.0
 40
57.0
 40
57.0
 10
95.93040633452435
 20
-133.977696364075
 30
0.0
 10
95.93040633452435
 20
-133.977696364075
 30
0.0
 10
95.75022784064578
 20
-133.977696364075
 30
0.0
 10
95.75022784064578
 20
-133.977696364075
 30
0.0
 10
95.75022784064578
 20
-133.977696364075
 30
0.0
 10
95.75022784064578
 20
-134.2081732520383
 30
0.0
 10
95.75022784064578
 20
-134.2081732520383
 30
0.0
 10
95.75022784064578
 20
-134.2081732520383
 30
0.0
 10
95.93040633452435
 20
-134.2081732520383
 30
0.0
 10
95.93040633452435
 20
-134.2081732520383
 30
0.0
 10
95.96657983711947
 20
-134.2081732520383
 30
0.0
 10
95.98828393867655
 20
-134.2105848188779
 30
0.0
 10
96.17741968081675
 20
-134.2040391374559
 30
0.0
 10
96.35794268424385
 20
-134.1978379655825
 30
0.0
 10
96.37757972850977
 20
-134.1912922841605
 30
0.0
 10
96.40479598284325
 20
-134.1912922841605
 30
0.0
 10
96.40479598284325
 20
-134.2229871626248
 30
0.0
 10
96.39928383006685
 20
-134.3098035688531
 30
0.0
 10
96.39928383006685
 20
-134.4028211469549
 30
0.0
 10
96.39928383006685
 20
-134.4028211469549
 30
0.0
 10
96.39928383006685
 20
-134.969883863827
 30
0.0
 10
96.39928383006685
 20
-134.969883863827
 30
0.0
 10
96.39928383006685
 20
-135.4163682387154
 30
0.0
 10
96.401350887358
 20
-135.4649440850574
 30
0.0
 10
96.3958387345816
 20
-135.4987060208128
 30
0.0
 10
96.37964678580093
 20
-135.6237629869274
 30
0.0
 10
96.27663843079196
 20
-135.6278971015097
 30
0.0
 10
96.21738278844566
 20
-135.6278971015097
 30
0.0
 10
96.17569713307414
 20
-135.6278971015097
 30
0.0
 10
96.12712128673212
 20
-135.6258300442186
 30
0.0
 10
96.08371308361797
 20
-135.6213514200877
 30
0.0
 10
96.08371308361797
 20
-135.6213514200877
 30
0.0
 10
96.02239038398052
 20
-135.4036213854199
 30
0.0
 10
96.02239038398052
 20
-135.4036213854199
 30
0.0
 10
96.06028643431827
 20
-135.4122341241331
 30
0.0
 10
96.14159068777016
 20
-135.4291150920108
 30
0.0
 10
96.18465438133579
 20
-135.4291150920108
 30
0.0
 10
96.23357473722633
 20
-135.4291150920108
 30
0.0
 10
96.23357473722633
 20
-135.3994872708376
 30
0.0
 10
96.23357473722633
 20
-135.3209390937739
 30
0.0
 10
96.23357473722633
 20
-135.3209390937739
 30
0.0
 10
96.23357473722633
 20
-134.3797390072037
 30
0.0
 10
96.23357473722633
 20
-134.3797390072037
 30
0.0
 10
96.23357473722633
 20
-134.3797390072037
 30
0.0
 10
95.75022784064578
 20
-134.3797390072037
 30
0.0
 10
95.75022784064578
 20
-134.3797390072037
 30
0.0
 10
95.75022784064578
 20
-134.3797390072037
 30
0.0
 10
95.75022784064578
 20
-135.0036457995824
 30
0.0
 10
95.75022784064578
 20
-135.0036457995824
 30
0.0
 10
95.75022784064578
 20
-135.0036457995824
 30
0.0
 10
95.92868378678172
 20
-135.0036457995824
 30
0.0
 10
95.92868378678172
 20
-135.0036457995824
 30
0.0
 10
95.92868378678172
 20
-135.0036457995824
 30
0.0
 10
95.92868378678172
 20
-134.7941839940792
 30
0.0
 10
95.92868378678172
 20
-134.7941839940792
 30
0.0
 10
95.92868378678172
 20
-134.7287271798595
 30
0.0
 10
95.9269612390391
 20
-134.6842854480998
 30
0.0
 10
95.92317163400533
 20
-134.5468261382383
 30
0.0
 10
95.92317163400533
 20
-134.5468261382383
 30
0.0
 10
96.08578014090911
 20
-134.5616400488249
 30
0.0
 10
96.08578014090911
 20
-134.5616400488249
 30
0.0
 10
96.09645993691339
 20
-134.5616400488249
 30
0.0
 10
96.12884383447474
 20
-134.5657741634072
 30
0.0
 10
96.12884383447474
 20
-134.5933349272892
 30
0.0
 10
96.12884383447474
 20
-134.6167615765889
 30
0.0
 10
96.10713973291766
 20
-134.6357096017578
 30
0.0
 10
96.09818248465601
 20
-134.6419107736312
 30
0.0
 10
96.09267033187962
 20
-134.7394069758638
 30
0.0
 10
96.09267033187962
 20
-134.7669677397458
 30
0.0
 10
96.09267033187962
 20
-134.8196777006701
 30
0.0
 10
96.09267033187962
 20
-134.8196777006701
 30
0.0
 10
96.09267033187962
 20
-134.9171739029026
 30
0.0
 10
96.09267033187962
 20
-134.9171739029026
 30
0.0
 10
96.09267033187962
 20
-134.9636826919535
 30
0.0
 10
96.09473738917076
 20
-135.0501545886333
 30
0.0
 10
96.1019720896898
 20
-135.1941595799167
 30
0.0
 10
96.0385823327612
 20
-135.1920925226256
 30
0.0
 10
95.93970809233453
 20
-135.1834797839125
 30
0.0
 10
95.83842228506818
 20
-135.1834797839125
 30
0.0
 10
95.83842228506818
 20
-135.1834797839125
 30
0.0
 10
95.40020613934439
 20
-135.1834797839125
 30
0.0
 10
95.40020613934439
 20
-135.1834797839125
 30
0.0
 10
95.40020613934439
 20
-135.204839375921
 30
0.0
 10
95.40399574437818
 20
-135.2892442153097
 30
0.0
 10
95.40399574437818
 20
-135.3061251831874
 30
0.0
 10
95.40399574437818
 20
-135.3061251831874
 30
0.0
 10
95.22347274095108
 20
-135.3061251831874
 30
0.0
 10
95.22347274095108
 20
-135.3061251831874
 30
0.0
 10
95.2307074414701
 20
-135.2448024835499
 30
0.0
 10
95.23277449876126
 20
-135.1052761163973
 30
0.0
 10
95.23277449876126
 20
-135.0398193021776
 30
0.0
 10
95.23277449876126
 20
-135.0398193021776
 30
0.0
 10
95.23277449876126
 20
-134.8262233820921
 30
0.0
 10
95.23277449876126
 20
-134.8262233820921
 30
0.0
 10
95.23277449876126
 20
-134.7414740331549
 30
0.0
 10
95.23277449876126
 20
-134.7077120973995
 30
0.0
 10
95.22898489372749
 20
-134.542692023656
 30
0.0
 10
95.22898489372749
 20
-134.542692023656
 30
0.0
 10
95.40020613934439
 20
-134.5554388769514
 30
0.0
 10
95.40020613934439
 20
-134.5554388769514
 30
0.0
 10
95.44533689020118
 20
-134.5595729915337
 30
0.0
 10
95.45084904297757
 20
-134.570252787538
 30
0.0
 10
95.45084904297757
 20
-134.5871337554157
 30
0.0
 10
95.45084904297757
 20
-134.6143500097492
 30
0.0
 10
95.43086748916312
 20
-134.6250298057535
 30
0.0
 10
95.40744083986343
 20
-134.63984371634
 30
0.0
 10
95.40399574437818
 20
-134.6884195626821
 30
0.0
 10
95.40020613934439
 20
-134.7497422623195
 30
0.0
 10
95.40020613934439
 20
-134.8217447579612
 30
0.0
 10
95.40020613934439
 20
-134.8217447579612
 30
0.0
 10
95.40020613934439
 20
-135.0036457995824
 30
0.0
 10
95.40020613934439
 20
-135.0036457995824
 30
0.0
 10
95.40020613934439
 20
-135.0036457995824
 30
0.0
 10
95.57693953773772
 20
-135.0036457995824
 30
0.0
 10
95.57693953773772
 20
-135.0036457995824
 30
0.0
 10
95.57693953773772
 20
-135.0036457995824
 30
0.0
 10
95.57693953773772
 20
-134.3797390072037
 30
0.0
 10
95.57693953773772
 20
-134.3797390072037
 30
0.0
 10
95.57693953773772
 20
-134.3797390072037
 30
0.0
 10
95.07946774966764
 20
-134.3797390072037
 30
0.0
 10
95.07946774966764
 20
-134.3797390072037
 30
0.0
 10
95.07946774966764
 20
-134.3797390072037
 30
0.0
 10
95.07946774966764
 20
-134.9443901572361
 30
0.0
 10
95.07946774966764
 20
-134.9443901572361
 30
0.0
 10
95.07946774966764
 20
-135.1369709948616
 30
0.0
 10
95.07946774966764
 20
-135.4587429131839
 30
0.0
 10
95.08670245018666
 20
-135.638576897514
 30
0.0
 10
95.08670245018666
 20
-135.638576897514
 30
0.0
 10
94.89377710301267
 20
-135.638576897514
 30
0.0
 10
94.89377710301267
 20
-135.638576897514
 30
0.0
 10
94.90996905179334
 20
-135.5052517022348
 30
0.0
 10
94.91169159953597
 20
-135.2196532865076
 30
0.0
 10
94.91169159953597
 20
-135.1982936944991
 30
0.0
 10
94.91169159953597
 20
-135.1982936944991
 30
0.0
 10
94.91169159953597
 20
-134.4517415028454
 30
0.0
 10
94.91169159953597
 20
-134.4517415028454
 30
0.0
 10
94.91169159953597
 20
-134.3394313900262
 30
0.0
 10
94.9079019945022
 20
-134.2229871626248
 30
0.0
 10
94.9079019945022
 20
-134.1912922841605
 30
0.0
 10
95.07567814463387
 20
-134.2019720801648
 30
0.0
 10
95.2885850456223
 20
-134.2081732520383
 30
0.0
 10
95.4580837434966
 20
-134.2081732520383
 30
0.0
 10
95.4580837434966
 20
-134.2081732520383
 30
0.0
 10
95.57693953773772
 20
-134.2081732520383
 30
0.0
 10
95.57693953773772
 20
-134.2081732520383
 30
0.0
 10
95.57693953773772
 20
-134.2081732520383
 30
0.0
 10
95.57693953773772
 20
-133.977696364075
 30
0.0
 10
95.57693953773772
 20
-133.977696364075
 30
0.0
 10
95.57693953773772
 20
-133.977696364075
 30
0.0
 10
95.38780379559749
 20
-133.977696364075
 30
0.0
 10
95.38780379559749
 20
-133.977696364075
 30
0.0
 10
95.21279294494681
 20
-133.977696364075
 30
0.0
 10
95.00712074447739
 20
-133.977696364075
 30
0.0
 10
94.84485674712212
 20
-133.9883761600793
 30
0.0
 10
94.84485674712212
 20
-133.9883761600793
 30
0.0
 10
94.84485674712212
 20
-133.797862379745
 30
0.0
 10
94.84485674712212
 20
-133.797862379745
 30
0.0
 10
95.06499834862959
 20
-133.8168104049139
 30
0.0
 10
95.36782224178305
 20
-133.8168104049139
 30
0.0
 10
95.38780379559749
 20
-133.8168104049139
 30
0.0
 10
95.38780379559749
 20
-133.8168104049139
 30
0.0
 10
95.93040633452435
 20
-133.8168104049139
 30
0.0
 10
95.93040633452435
 20
-133.8168104049139
 30
0.0
 10
96.11092933795143
 20
-133.8168104049139
 30
0.0
 10
96.29110783183
 20
-133.8126762903316
 30
0.0
 10
96.4716308352571
 20
-133.797862379745
 30
0.0
 10
96.4716308352571
 20
-133.797862379745
 30
0.0
 10
96.4716308352571
 20
-133.9883761600793
 30
0.0
 10
96.4716308352571
 20
-133.9883761600793
 30
0.0
 10
96.3145344811297
 20
-133.977696364075
 30
0.0
 10
96.16329478932724
 20
-133.977696364075
 30
0.0
 10
95.93040633452435
 20
-133.977696364075
 30
0.0
  0
HATCH
  5
96
330
91
100
AcDbEntity
  8
_U+30EC_U+30A4_U+30E4_U+30FC 1
 62
   179
420
  2234388
100
AcDbHatch
 10
0.0
 20
0.0
 30
0.0
210
0.0
220
0.0
230
1.0
  2
SOLID
 70
     1
 71
     0
 91
        1
 92
        1
 93
        1
 72
     4
 94
        3
 73
     0
 74
     1
 95
      176
 96
      172
 40
0.0
 40
0.0
 40
0.0
 40
0.0
 40
1.0
 40
1.0
 40
1.0
 40
2.0
 40
2.0
 40
2.0
 40
3.0
 40
3.0
 40
3.0
 40
4.0
 40
4.0
 40
4.0
 40
5.0
 40
5.0
 40
5.0
 40
6.0
 40
6.0
 40
6.0
 40
7.0
 40
7.0
 40
7.0
 40
8.0
 40
8.0
 40
8.0
 40
9.0
 40
9.0
 40
9.0
 40
10.0
 40
10.0
 40
10.0
 40
11.0
 40
11.0
 40
11.0
 40
12.0
 40
12.0
 40
12.0
 40
13.0
 40
13.0
 40
13.0
 40
14.0
 40
14.0
 40
14.0
 40
15.0
 40
15.0
 40
15.0
 40
16.0
 40
16.0
 40
16.0
 40
17.0
 40
17.0
 40
17.0
 40
18.0
 40
18.0
 40
18.0
 40
19.0
 40
19.0
 40
19.0
 40
20.0
 40
20.0
 40
20.0
 40
21.0
 40
21.0
 40
21.0
 40
22.0
 40
22.0
 40
22.0
 40
23.0
 40
23.0
 40
23.0
 40
24.0
 40
24.0
 40
24.0
 40
25.0
 40
25.0
 40
25.0
 40
26.0
 40
26.0
 40
26.0
 40
27.0
 40
27.0
 40
27.0
 40
28.0
 40
28.0
 40
28.0
 40
29.0
 40
29.0
 40
29.0
 40
30.0
 40
30.0
 40
30.0
 40
31.0
 40
31.0
 40
31.0
 40
32.0
 40
32.0
 40
32.0
 40
33.0
 40
33.0
 40
33.0
 40
34.0
 40
34.0
 40
34.0
 40
35.0
 40
35.0
 40
35.0
 40
36.0
 40
36.0
 40
36.0
 40
37.0
 40
37.0
 40
37.0
 40
38.0
 40
38.0
 40
38.0
 40
39.0
 40
39.0
 40
39.0
 40
40.0
 40
40.0
 40
40.0
 40
41.0
 40
41.0
 40
41.0
 40
42.0
 40
42.0
 40
42.0
 40
43.0
 40
43.0
 40
43.0
 40
44.0
 40
44.0
 40
44.0
 40
45.0
 40
45.0
 40
45.0
 40
46.0
 40
46.0
 40
46.0
 40
47.0
 40
47.0
 40
47.0
 40
48.0
 40
48.0
 40
48.0
 40
49.0
 40
49.0
 40
49.0
 40
50.0
 40
50.0
 40
50.0
 40
51.0
 40
51.0
 40
51.0
 40
52.0
 40
52.0
 40
52.0
 40
53.0
 40
53.0
 40
53.0
 40
54.0
 40
54.0
 40
54.0
 40
55.0
 40
55.0
 40
55.0
 40
56.0
 40
56.0
 40
56.0
 40
57.0
 40
57.0
 40
57.0
 40
57.0
 10
95.93040633452435
 20
-133.977696364075
 10
95.93040633452435
 20
-133.977696364075
 10
95.75022784064578
 20
-133.977696364075
 10
95.75022784064578
 20
-133.977696364075
 10
95.75022784064578
 20
-133.977696364075
 10
95.75022784064578
 20
-134.2081732520383
 10
95.75022784064578
 20
-134.2081732520383
 10
95.75022784064578
 20
-134.2081732520383
 10
95.93040633452435
 20
-134.2081732520383
 10
95.93040633452435
 20
-134.2081732520383
 10
95.96657983711947
 20
-134.2081732520383
 10
95.98828393867655
 20
-134.2105848188779
 10
96.17741968081675
 20
-134.2040391374559
 10
96.35794268424385
 20
-134.1978379655825
 10
96.37757972850977
 20
-134.1912922841605
 10
96.40479598284325
 20
-134.1912922841605
 10
96.40479598284325
 20
-134.2229871626248
 10
96.39928383006685
 20
-134.3098035688531
 10
96.39928383006685
 20
-134.4028211469549
 10
96.39928383006685
 20
-134.4028211469549
 10
96.39928383006685
 20
-134.969883863827
 10
96.39928383006685
 20
-134.969883863827
 10
96.39928383006685
 20
-135.4163682387154
 10
96.401350887358
 20
-135.4649440850574
 10
96.3958387345816
 20
-135.4987060208128
 10
96.37964678580093
 20
-135.6237629869274
 10
96.27663843079196
 20
-135.6278971015097
 10
96.21738278844566
 20
-135.6278971015097
 10
96.17569713307414
 20
-135.6278971015097
 10
96.12712128673212
 20
-135.6258300442186
 10
96.08371308361797
 20
-135.6213514200877
 10
96.08371308361797
 20
-135.6213514200877
 10
96.02239038398052
 20
-135.4036213854199
 10
96.02239038398052
 20
-135.4036213854199
 10
96.06028643431827
 20
-135.4122341241331
 10
96.14159068777016
 20
-135.4291150920108
 10
96.18465438133579
 20
-135.4291150920108
 10
96.23357473722633
 20
-135.4291150920108
 10
96.23357473722633
 20
-135.3994872708376
 10
96.23357473722633
 20
-135.3209390937739
 10
96.23357473722633
 20
-135.3209390937739
 10
96.23357473722633
 20
-134.3797390072037
 10
96.23357473722633
 20
-134.3797390072037
 10
96.23357473722633
 20
-134.3797390072037
 10
95.75022784064578
 20
-134.3797390072037
 10
95.75022784064578
 20
-134.3797390072037
 10
95.75022784064578
 20
-134.3797390072037
 10
95.75022784064578
 20
-135.0036457995824
 10
95.75022784064578
 20
-135.0036457995824
 10
95.75022784064578
 20
-135.0036457995824
 10
95.92868378678172
 20
-135.0036457995824
 10
95.92868378678172
 20
-135.0036457995824
 10
95.92868378678172
 20
-135.0036457995824
 10
95.92868378678172
 20
-134.7941839940792
 10
95.92868378678172
 20
-134.7941839940792
 10
95.92868378678172
 20
-134.7287271798595
 10
95.9269612390391
 20
-134.6842854480998
 10
95.92317163400533
 20
-134.5468261382383
 10
95.92317163400533
 20
-134.5468261382383
 10
96.08578014090911
 20
-134.5616400488249
 10
96.08578014090911
 20
-134.5616400488249
 10
96.09645993691339
 20
-134.5616400488249
 10
96.12884383447474
 20
-134.5657741634072
 10
96.12884383447474
 20
-134.5933349272892
 10
96.12884383447474
 20
-134.6167615765889
 10
96.10713973291766
 20
-134.6357096017578
 10
96.09818248465601
 20
-134.6419107736312
 10
96.09267033187962
 20
-134.7394069758638
 10
96.09267033187962
 20
-134.7669677397458
 10
96.09267033187962
 20
-134.8196777006701
 10
96.09267033187962
 20
-134.8196777006701
 10
96.09267033187962
 20
-134.9171739029026
 10
96.09267033187962
 20
-134.9171739029026
 10
96.09267033187962
 20
-134.9636826919535
 10
96.09473738917076
 20
-135.0501545886333
 10
96.1019720896898
 20
-135.1941595799167
 10
96.0385823327612
 20
-135.1920925226256
 10
95.93970809233453
 20
-135.1834797839125
 10
95.83842228506818
 20
-135.1834797839125
 10
95.83842228506818
 20
-135.1834797839125
 10
95.40020613934439
 20
-135.1834797839125
 10
95.40020613934439
 20
-135.1834797839125
 10
95.40020613934439
 20
-135.204839375921
 10
95.40399574437818
 20
-135.2892442153097
 10
95.40399574437818
 20
-135.3061251831874
 10
95.40399574437818
 20
-135.3061251831874
 10
95.22347274095108
 20
-135.3061251831874
 10
95.22347274095108
 20
-135.3061251831874
 10
95.2307074414701
 20
-135.2448024835499
 10
95.23277449876126
 20
-135.1052761163973
 10
95.23277449876126
 20
-135.0398193021776
 10
95.23277449876126
 20
-135.0398193021776
 10
95.23277449876126
 20
-134.8262233820921
 10
95.23277449876126
 20
-134.8262233820921
 10
95.23277449876126
 20
-134.7414740331549
 10
95.23277449876126
 20
-134.7077120973995
 10
95.22898489372749
 20
-134.542692023656
 10
95.22898489372749
 20
-134.542692023656
 10
95.40020613934439
 20
-134.5554388769514
 10
95.40020613934439
 20
-134.5554388769514
 10
95.44533689020118
 20
-134.5595729915337
 10
95.45084904297757
 20
-134.570252787538
 10
95.45084904297757
 20
-134.5871337554157
 10
95.45084904297757
 20
-134.6143500097492
 10
95.43086748916312
 20
-134.6250298057535
 10
95.40744083986343
 20
-134.63984371634
 10
95.40399574437818
 20
-134.6884195626821
 10
95.40020613934439
 20
-134.7497422623195
 10
95.40020613934439
 20
-134.8217447579612
 10
95.40020613934439
 20
-134.8217447579612
 10
95.40020613934439
 20
-135.0036457995824
 10
95.40020613934439
 20
-135.0036457995824
 10
95.40020613934439
 20
-135.0036457995824
 10
95.57693953773772
 20
-135.0036457995824
 10
95.57693953773772
 20
-135.0036457995824
 10
95.57693953773772
 20
-135.0036457995824
 10
95.57693953773772
 20
-134.3797390072037
 10
95.57693953773772
 20
-134.3797390072037
 10
95.57693953773772
 20
-134.3797390072037
 10
95.07946774966764
 20
-134.3797390072037
 10
95.07946774966764
 20
-134.3797390072037
 10
95.07946774966764
 20
-134.3797390072037
 10
95.07946774966764
 20
-134.9443901572361
 10
95.07946774966764
 20
-134.9443901572361
 10
95.07946774966764
 20
-135.1369709948616
 10
95.07946774966764
 20
-135.4587429131839
 10
95.08670245018666
 20
-135.638576897514
 10
95.08670245018666
 20
-135.638576897514
 10
94.89377710301267
 20
-135.638576897514
 10
94.89377710301267
 20
-135.638576897514
 10
94.90996905179334
 20
-135.5052517022348
 10
94.91169159953597
 20
-135.2196532865076
 10
94.91169159953597
 20
-135.1982936944991
 10
94.91169159953597
 20
-135.1982936944991
 10
94.91169159953597
 20
-134.4517415028454
 10
94.91169159953597
 20
-134.4517415028454
 10
94.91169159953597
 20
-134.3394313900262
 10
94.9079019945022
 20
-134.2229871626248
 10
94.9079019945022
 20
-134.1912922841605
 10
95.07567814463387
 20
-134.2019720801648
 10
95.2885850456223
 20
-134.2081732520383
 10
95.4580837434966
 20
-134.2081732520383
 10
95.4580837434966
 20
-134.2081732520383
 10
95.57693953773772
 20
-134.2081732520383
 10
95.57693953773772
 20
-134.2081732520383
 10
95.57693953773772
 20
-134.2081732520383
 10
95.57693953773772
 20
-133.977696364075
 10
95.57693953773772
 20
-133.977696364075
 10
95.57693953773772
 20
-133.977696364075
 10
95.38780379559749
 20
-133.977696364075
 10
95.38780379559749
 20
-133.977696364075
 10
95.21279294494681
 20
-133.977696364075
 10
95.00712074447739
 20
-133.977696364075
 10
94.84485674712212
 20
-133.9883761600793
 10
94.84485674712212
 20
-133.9883761600793
 10
94.84485674712212
 20
-133.797862379745
 10
94.84485674712212
 20
-133.797862379745
 10
95.06499834862959
 20
-133.8168104049139
 10
95.36782224178305
 20
-133.8168104049139
 10
95.38780379559749
 20
-133.8168104049139
 10
95.38780379559749
 20
-133.8168104049139
 10
95.93040633452435
 20
-133.8168104049139
 10
95.93040633452435
 20
-133.8168104049139
 10
96.11092933795143
 20
-133.8168104049139
 10
96.29110783183
 20
-133.8126762903316
 10
96.4716308352571
 20
-133.797862379745
 10
96.4716308352571
 20
-133.797862379745
 10
96.4716308352571
 20
-133.9883761600793
 10
96.4716308352571
 20
-133.9883761600793
 10
96.3145344811297
 20
-133.977696364075
 10
96.16329478932724
 20
-133.977696364075
 10
95.93040633452435
 20
-133.977696364075
 97
        0
 97
        0
 75
     2
 76
     1
 98
        0
  0
SPLINE
  5
97
330
91
100
AcDbEntity
  8
_U+30EC_U+30A4_U+30E4_U+30FC 1
370
     0
100
AcDbSpline
210
0.0
220
0.0
230
1.0
 70
    11
 71
     3
 72
    89
 73
    85
 74
     0
 42
0.0000000001
 43
0.0000000001
 12
1.0
 22
0.0
 32
0.0
 13
1.0
 23
0.0
 33
0.0
 40
0.0
 40
0.0
 40
0.0
 40
0.0
 40
1.0
 40
1.0
 40
1.0
 40
2.0
 40
2.0
 40
2.0
 40
3.0
 40
3.0
 40
3.0
 40
4.0
 40
4.0
 40
4.0
 40
5.0
 40
5.0
 40
5.0
 40
6.0
 40
6.0
 40
6.0
 40
7.0
 40
7.0
 40
7.0
 40
8.0
 40
8.0
 40
8.0
 40
9.0
 40
9.0
 40
9.0
 40
10.0
 40
10.0
 40
10.0
 40
11.0
 40
11.0
 40
11.0
 40
12.0
 40
12.0
 40
12.0
 40
13.0
 40
13.0
 40
13.0
 40
14.0
 40
14.0
 40
14.0
 40
15.0
 40
15.0
 40
15.0
 40
16.0
 40
16.0
 40
16.0
 40
17.0
 40
17.0
 40
17.0
 40
18.0
 40
18.0
 40
18.0
 40
19.0
 40
19.0
 40
19.0
 40
20.0
 40
20.0
 40
20.0
 40
21.0
 40
21.0
 40
21.0
 40
22.0
 40
22.0
 40
22.0
 40
23.0
 40
23.0
 40
23.0
 40
24.0
 40
24.0
 40
24.0
 40
25.0
 40
25.0
 40
25.0
 40
26.0
 40
26.0
 40
26.0
 40
27.0
 40
27.0
 40
27.0
 40
28.0
 40
28.0
 40
28.0
 40
28.0
 10
97.69257267522964
 20
-133.9587483389062
 30
0.0
 10
97.69257267522964
 20
-133.9587483389062
 30
0.0
 10
97.55752493220784
 20
-133.9587483389062
 30
0.0
 10
97.55752493220784
 20
-133.9587483389062
 30
0.0
 10
97.53409828290815
 20
-134.0686468848856
 30
0.0
 10
97.53030867787437
 20
-134.0875949100545
 30
0.0
 10
97.48001028378972
 20
-134.2402126400511
 30
0.0
 10
97.48001028378972
 20
-134.2402126400511
 30
0.0
 10
97.68361542696799
 20
-134.2402126400511
 30
0.0
 10
97.68361542696799
 20
-134.2402126400511
 30
0.0
 10
97.73046872556739
 20
-134.2402126400511
 30
0.0
 10
97.93062877326041
 20
-134.2336669586291
 30
0.0
 10
97.97024737134078
 20
-134.2336669586291
 30
0.0
 10
98.11287432443012
 20
-134.2295328440468
 30
0.0
 10
98.16523977580592
 20
-134.2229871626248
 30
0.0
 10
98.21381562214793
 20
-134.2167859907514
 30
0.0
 10
98.20830346937154
 20
-134.3036023969797
 30
0.0
 10
98.2048583738863
 20
-134.5998806087111
 30
0.0
 10
98.2048583738863
 20
-134.6990993586863
 30
0.0
 10
98.2048583738863
 20
-134.6990993586863
 30
0.0
 10
98.2048583738863
 20
-135.1435166762836
 30
0.0
 10
98.2048583738863
 20
-135.1435166762836
 30
0.0
 10
98.2048583738863
 20
-135.170732930617
 30
0.0
 10
98.20658092162891
 20
-135.2723632474319
 30
0.0
 10
98.21037052666269
 20
-135.3505669149471
 30
0.0
 10
98.21553816989056
 20
-135.4670111423485
 30
0.0
 10
98.22277287040959
 20
-135.5875894843323
 30
0.0
 10
98.22483992770074
 20
-135.6237629869274
 30
0.0
 10
98.22483992770074
 20
-135.6237629869274
 30
0.0
 10
98.02261282271657
 20
-135.6237629869274
 30
0.0
 10
98.02261282271657
 20
-135.6237629869274
 30
0.0
 10
98.0298475232356
 20
-135.5855224270411
 30
0.0
 10
98.03708222375462
 20
-135.5241997274037
 30
0.0
 10
98.0408718287884
 20
-135.4818250529351
 30
0.0
 10
98.0408718287884
 20
-135.4818250529351
 30
0.0
 10
96.87953014071067
 20
-135.4818250529351
 30
0.0
 10
96.87953014071067
 20
-135.4818250529351
 30
0.0
 10
96.8812526884533
 20
-135.5410806952814
 30
0.0
 10
96.8812526884533
 20
-135.5472818671549
 30
0.0
 10
96.8867648412297
 20
-135.6213514200877
 30
0.0
 10
96.8867648412297
 20
-135.6213514200877
 30
0.0
 10
96.70624183780261
 20
-135.6213514200877
 30
0.0
 10
96.70624183780261
 20
-135.6213514200877
 30
0.0
 10
96.72243378658328
 20
-135.4711452569308
 30
0.0
 10
96.72450084387444
 20
-135.3464328003648
 30
0.0
 10
96.72450084387444
 20
-135.1455837335747
 30
0.0
 10
96.72450084387444
 20
-135.1455837335747
 30
0.0
 10
96.72450084387444
 20
-134.7731689116192
 30
0.0
 10
96.72450084387444
 20
-134.7731689116192
 30
0.0
 10
96.72450084387444
 20
-134.6377766590489
 30
0.0
 10
96.71726614335542
 20
-134.3394313900262
 30
0.0
 10
96.71175399057901
 20
-134.2229871626248
 30
0.0
 10
96.87057289244903
 20
-134.2357340159202
 30
0.0
 10
97.12654348700309
 20
-134.2402126400511
 30
0.0
 10
97.2922525798436
 20
-134.2402126400511
 30
0.0
 10
97.32670353469611
 20
-134.1554632911139
 30
0.0
 10
97.3625325277427
 20
-134.0410861210036
 30
0.0
 10
97.37700192878076
 20
-133.9587483389062
 30
0.0
 10
97.37700192878076
 20
-133.9587483389062
 30
0.0
 10
97.20233558767859
 20
-133.9587483389062
 30
0.0
 10
97.20233558767859
 20
-133.9587483389062
 30
0.0
 10
96.9928737821754
 20
-133.9587483389062
 30
0.0
 10
96.83612193759653
 20
-133.9587483389062
 30
0.0
 10
96.66662323972224
 20
-133.9883761600793
 30
0.0
 10
96.66662323972224
 20
-133.9883761600793
 30
0.0
 10
96.66662323972224
 20
-133.7789143545761
 30
0.0
 10
96.66662323972224
 20
-133.7789143545761
 30
0.0
 10
96.76205238466366
 20
-133.7957953224538
 30
0.0
 10
97.18235403386414
 20
-133.797862379745
 30
0.0
 10
97.21852753645926
 20
-133.797862379745
 30
0.0
 10
97.21852753645926
 20
-133.797862379745
 30
0.0
 10
97.69808482800605
 20
-133.797862379745
 30
0.0
 10
97.69808482800605
 20
-133.797862379745
 30
0.0
 10
97.74321557886282
 20
-133.797862379745
 30
0.0
 10
98.0877251273878
 20
-133.7916612078715
 30
0.0
 10
98.14904782702524
 20
-133.7895941505804
 30
0.0
 10
98.19762367336726
 20
-133.7875270932892
 30
0.0
 10
98.22105032266697
 20
-133.7830484691584
 30
0.0
 10
98.26066892074734
 20
-133.776847297285
 30
0.0
 10
98.26066892074734
 20
-133.776847297285
 30
0.0
 10
98.26066892074734
 20
-133.9756293067839
 30
0.0
 10
98.26066892074734
 20
-133.9756293067839
 30
0.0
 10
98.08393552235403
 20
-133.9608153961973
 30
0.0
 10
97.70531952852507
 20
-133.9587483389062
 30
0.0
 10
97.69257267522964
 20
-133.9587483389062
 30
0.0
  0
POLYLINE
  5
98
330
91
100
AcDbEntity
  8
_U+30EC_U+30A4_U+30E4_U+30FC 1
370
     0
100
AcDb2dPolyline
 66
     1
 10
0.0
 20
0.0
 30
0.0
  0
VERTEX
  5
99
330
98
100
AcDbEntity
  8
_U+30EC_U+30A4_U+30E4_U+30FC 1
370
     0
100
AcDbVertex
100
AcDb2dVertex
 10
97.11379663370766
 20
-134.4093668283768
 30
0.0
  0
VERTEX
  5
9A
330
98
100
AcDbEntity
  8
_U+30EC_U+30A4_U+30E4_U+30FC 1
370
     0
100
AcDbVertex
100
AcDb2dVertex
 10
96.87953014071067
 20
-134.4093668283768
 30
0.0
  0
VERTEX
  5
9B
330
98
100
AcDbEntity
  8
_U+30EC_U+30A4_U+30E4_U+30FC 1
370
     0
100
AcDbVertex
100
AcDb2dVertex
 10
96.87953014071067
 20
-135.3106038073182
 30
0.0
  0
VERTEX
  5
9C
330
98
100
AcDbEntity
  8
_U+30EC_U+30A4_U+30E4_U+30FC 1
370
     0
100
AcDbVertex
100
AcDb2dVertex
 10
97.11379663370766
 20
-135.3106038073182
 30
0.0
  0
VERTEX
  5
9D
330
98
100
AcDbEntity
  8
_U+30EC_U+30A4_U+30E4_U+30FC 1
370
     0
100
AcDbVertex
100
AcDb2dVertex
 10
97.11379663370766
 20
-134.4093668283768
 30
0.0
  0
SEQEND
  5
9E
330
98
100
AcDbEntity
  8
_U+30EC_U+30A4_U+30E4_U+30FC 1
370
     0
  0
POLYLINE
  5
9F
330
91
100
AcDbEntity
  8
_U+30EC_U+30A4_U+30E4_U+30FC 1
370
     0
100
AcDb2dPolyline
 66
     1
 10
0.0
 20
0.0
 30
0.0
  0
VERTEX
  5
A0
330
9F
100
AcDbEntity
  8
_U+30EC_U+30A4_U+30E4_U+30FC 1
370
     0
100
AcDbVertex
100
AcDb2dVertex
 10
97.64950898166401
 20
-134.4093668283768
 30
0.0
  0
VERTEX
  5
A1
330
9F
100
AcDbEntity
  8
_U+30EC_U+30A4_U+30E4_U+30FC 1
370
     0
100
AcDbVertex
100
AcDb2dVertex
 10
97.26365828731603
 20
-134.4093668283768
 30
0.0
  0
VERTEX
  5
A2
330
9F
100
AcDbEntity
  8
_U+30EC_U+30A4_U+30E4_U+30FC 1
370
     0
100
AcDbVertex
100
AcDb2dVertex
 10
97.26365828731603
 20
-134.5998806087111
 30
0.0
  0
VERTEX
  5
A3
330
9F
100
AcDbEntity
  8
_U+30EC_U+30A4_U+30E4_U+30FC 1
370
     0
100
AcDbVertex
100
AcDb2dVertex
 10
97.64950898166401
 20
-134.5998806087111
 30
0.0
  0
VERTEX
  5
A4
330
9F
100
AcDbEntity
  8
_U+30EC_U+30A4_U+30E4_U+30FC 1
370
     0
100
AcDbVertex
100
AcDb2dVertex
 10
97.64950898166401
 20
-134.4093668283768
 30
0.0
  0
SEQEND
  5
A5
330
9F
100
AcDbEntity
  8
_U+30EC_U+30A4_U+30E4_U+30FC 1
370
     0
  0
POLYLINE
  5
A6
330
91
100
AcDbEntity
  8
_U+30EC_U+30A4_U+30E4_U+30FC 1
370
     0
100
AcDb2dPolyline
 66
     1
 10
0.0
 20
0.0
 30
0.0
  0
VERTEX
  5
A7
330
A6
100
AcDbEntity
  8
_U+30EC_U+30A4_U+30E4_U+30FC 1
370
     0
100
AcDbVertex
100
AcDb2dVertex
 10
97.64950898166401
 20
-134.7604220583238
 30
0.0
  0
VERTEX
  5
A8
330
A6
100
AcDbEntity
  8
_U+30EC_U+30A4_U+30E4_U+30FC 1
370
     0
100
AcDbVertex
100
AcDb2dVertex
 10
97.26365828731603
 20
-134.7604220583238
 30
0.0
  0
VERTEX
  5
A9
330
A6
100
AcDbEntity
  8
_U+30EC_U+30A4_U+30E4_U+30FC 1
370
     0
100
AcDbVertex
100
AcDb2dVertex
 10
97.26365828731603
 20
-134.9509358386581
 30
0.0
  0
VERTEX
  5
AA
330
A6
100
AcDbEntity
  8
_U+30EC_U+30A4_U+30E4_U+30FC 1
370
     0
100
AcDbVertex
100
AcDb2dVertex
 10
97.64950898166401
 20
-134.9509358386581
 30
0.0
  0
VERTEX
  5
AB
330
A6
100
AcDbEntity
  8
_U+30EC_U+30A4_U+30E4_U+30FC 1
370
     0
100
AcDbVertex
100
AcDb2dVertex
 10
97.64950898166401
 20
-134.7604220583238
 30
0.0
  0
SEQEND
  5
AC
330
A6
100
AcDbEntity
  8
_U+30EC_U+30A4_U+30E4_U+30FC 1
370
     0
  0
POLYLINE
  5
AD
330
91
100
AcDbEntity
  8
_U+30EC_U+30A4_U+30E4_U+30FC 1
370
     0
100
AcDb2dPolyline
 66
     1
 10
0.0
 20
0.0
 30
0.0
  0
VERTEX
  5
AE
330
AD
100
AcDbEntity
  8
_U+30EC_U+30A4_U+30E4_U+30FC 1
370
     0
100
AcDbVertex
100
AcDb2dVertex
 10
97.64950898166401
 20
-135.1118217978193
 30
0.0
  0
VERTEX
  5
AF
330
AD
100
AcDbEntity
  8
_U+30EC_U+30A4_U+30E4_U+30FC 1
370
     0
100
AcDbVertex
100
AcDb2dVertex
 10
97.26365828731603
 20
-135.1118217978193
 30
0.0
  0
VERTEX
  5
B0
330
AD
100
AcDbEntity
  8
_U+30EC_U+30A4_U+30E4_U+30FC 1
370
     0
100
AcDbVertex
100
AcDb2dVertex
 10
97.26365828731603
 20
-135.3106038073182
 30
0.0
  0
VERTEX
  5
B1
330
AD
100
AcDbEntity
  8
_U+30EC_U+30A4_U+30E4_U+30FC 1
370
     0
100
AcDbVertex
100
AcDb2dVertex
 10
97.64950898166401
 20
-135.3106038073182
 30
0.0
  0
VERTEX
  5
B2
330
AD
100
AcDbEntity
  8
_U+30EC_U+30A4_U+30E4_U+30FC 1
370
     0
100
AcDbVertex
100
AcDb2dVertex
 10
97.64950898166401
 20
-135.1118217978193
 30
0.0
  0
SEQEND
  5
B3
330
AD
100
AcDbEntity
  8
_U+30EC_U+30A4_U+30E4_U+30FC 1
370
     0
  0
POLYLINE
  5
B4
330
91
100
AcDbEntity
  8
_U+30EC_U+30A4_U+30E4_U+30FC 1
370
     0
100
AcDb2dPolyline
 66
     1
 10
0.0
 20
0.0
 30
0.0
  0
VERTEX
  5
B5
330
B4
100
AcDbEntity
  8
_U+30EC_U+30A4_U+30E4_U+30FC 1
370
     0
100
AcDbVertex
100
AcDb2dVertex
 10
98.04259437653103
 20
-134.4093668283768
 30
0.0
  0
VERTEX
  5
B6
330
B4
100
AcDbEntity
  8
_U+30EC_U+30A4_U+30E4_U+30FC 1
370
     0
100
AcDbVertex
100
AcDb2dVertex
 10
97.80798337398551
 20
-134.4093668283768
 30
0.0
  0
VERTEX
  5
B7
330
B4
100
AcDbEntity
  8
_U+30EC_U+30A4_U+30E4_U+30FC 1
370
     0
100
AcDbVertex
100
AcDb2dVertex
 10
97.80798337398551
 20
-135.3106038073182
 30
0.0
  0
VERTEX
  5
B8
330
B4
100
AcDbEntity
  8
_U+30EC_U+30A4_U+30E4_U+30FC 1
370
     0
100
AcDbVertex
100
AcDb2dVertex
 10
98.04259437653103
 20
-135.3106038073182
 30
0.0
  0
VERTEX
  5
B9
330
B4
100
AcDbEntity
  8
_U+30EC_U+30A4_U+30E4_U+30FC 1
370
     0
100
AcDbVertex
100
AcDb2dVertex
 10
98.04259437653103
 20
-134.4093668283768
 30
0.0
  0
SEQEND
  5
BA
330
B4
100
AcDbEntity
  8
_U+30EC_U+30A4_U+30E4_U+30FC 1
370
     0
  0
HATCH
  5
BB
330
91
100
AcDbEntity
  8
_U+30EC_U+30A4_U+30E4_U+30FC 1
 62
   179
420
  2234388
100
AcDbHatch
 10
0.0
 20
0.0
 30
0.0
210
0.0
220
0.0
230
1.0
  2
SOLID
 70
     1
 71
     0
 91
        6
 92
        1
 93
        1
 72
     4
 94
        3
 73
     0
 74
     1
 95
       89
 96
       85
 40
0.0
 40
0.0
 40
0.0
 40
0.0
 40
1.0
 40
1.0
 40
1.0
 40
2.0
 40
2.0
 40
2.0
 40
3.0
 40
3.0
 40
3.0
 40
4.0
 40
4.0
 40
4.0
 40
5.0
 40
5.0
 40
5.0
 40
6.0
 40
6.0
 40
6.0
 40
7.0
 40
7.0
 40
7.0
 40
8.0
 40
8.0
 40
8.0
 40
9.0
 40
9.0
 40
9.0
 40
10.0
 40
10.0
 40
10.0
 40
11.0
 40
11.0
 40
11.0
 40
12.0
 40
12.0
 40
12.0
 40
13.0
 40
13.0
 40
13.0
 40
14.0
 40
14.0
 40
14.0
 40
15.0
 40
15.0
 40
15.0
 40
16.0
 40
16.0
 40
16.0
 40
17.0
 40
17.0
 40
17.0
 40
18.0
 40
18.0
 40
18.0
 40
19.0
 40
19.0
 40
19.0
 40
20.0
 40
20.0
 40
20.0
 40
21.0
 40
21.0
 40
21.0
 40
22.0
 40
22.0
 40
22.0
 40
23.0
 40
23.0
 40
23.0
 40
24.0
 40
24.0
 40
24.0
 40
25.0
 40
25.0
 40
25.0
 40
26.0
 40
26.0
 40
26.0
 40
27.0
 40
27.0
 40
27.0
 40
28.0
 40
28.0
 40
28.0
 40
28.0
 10
97.69257267522964
 20
-133.9587483389062
 10
97.69257267522964
 20
-133.9587483389062
 10
97.55752493220784
 20
-133.9587483389062
 10
97.55752493220784
 20
-133.9587483389062
 10
97.53409828290815
 20
-134.0686468848856
 10
97.53030867787437
 20
-134.0875949100545
 10
97.48001028378972
 20
-134.2402126400511
 10
97.48001028378972
 20
-134.2402126400511
 10
97.68361542696799
 20
-134.2402126400511
 10
97.68361542696799
 20
-134.2402126400511
 10
97.73046872556739
 20
-134.2402126400511
 10
97.93062877326041
 20
-134.2336669586291
 10
97.97024737134078
 20
-134.2336669586291
 10
98.11287432443012
 20
-134.2295328440468
 10
98.16523977580592
 20
-134.2229871626248
 10
98.21381562214793
 20
-134.2167859907514
 10
98.20830346937154
 20
-134.3036023969797
 10
98.2048583738863
 20
-134.5998806087111
 10
98.2048583738863
 20
-134.6990993586863
 10
98.2048583738863
 20
-134.6990993586863
 10
98.2048583738863
 20
-135.1435166762836
 10
98.2048583738863
 20
-135.1435166762836
 10
98.2048583738863
 20
-135.170732930617
 10
98.20658092162891
 20
-135.2723632474319
 10
98.21037052666269
 20
-135.3505669149471
 10
98.21553816989056
 20
-135.4670111423485
 10
98.22277287040959
 20
-135.5875894843323
 10
98.22483992770074
 20
-135.6237629869274
 10
98.22483992770074
 20
-135.6237629869274
 10
98.02261282271657
 20
-135.6237629869274
 10
98.02261282271657
 20
-135.6237629869274
 10
98.0298475232356
 20
-135.5855224270411
 10
98.03708222375462
 20
-135.5241997274037
 10
98.0408718287884
 20
-135.4818250529351
 10
98.0408718287884
 20
-135.4818250529351
 10
96.87953014071067
 20
-135.4818250529351
 10
96.87953014071067
 20
-135.4818250529351
 10
96.8812526884533
 20
-135.5410806952814
 10
96.8812526884533
 20
-135.5472818671549
 10
96.8867648412297
 20
-135.6213514200877
 10
96.8867648412297
 20
-135.6213514200877
 10
96.70624183780261
 20
-135.6213514200877
 10
96.70624183780261
 20
-135.6213514200877
 10
96.72243378658328
 20
-135.4711452569308
 10
96.72450084387444
 20
-135.3464328003648
 10
96.72450084387444
 20
-135.1455837335747
 10
96.72450084387444
 20
-135.1455837335747
 10
96.72450084387444
 20
-134.7731689116192
 10
96.72450084387444
 20
-134.7731689116192
 10
96.72450084387444
 20
-134.6377766590489
 10
96.71726614335542
 20
-134.3394313900262
 10
96.71175399057901
 20
-134.2229871626248
 10
96.87057289244903
 20
-134.2357340159202
 10
97.12654348700309
 20
-134.2402126400511
 10
97.2922525798436
 20
-134.2402126400511
 10
97.32670353469611
 20
-134.1554632911139
 10
97.3625325277427
 20
-134.0410861210036
 10
97.37700192878076
 20
-133.9587483389062
 10
97.37700192878076
 20
-133.9587483389062
 10
97.20233558767859
 20
-133.9587483389062
 10
97.20233558767859
 20
-133.9587483389062
 10
96.9928737821754
 20
-133.9587483389062
 10
96.83612193759653
 20
-133.9587483389062
 10
96.66662323972224
 20
-133.9883761600793
 10
96.66662323972224
 20
-133.9883761600793
 10
96.66662323972224
 20
-133.7789143545761
 10
96.66662323972224
 20
-133.7789143545761
 10
96.76205238466366
 20
-133.7957953224538
 10
97.18235403386414
 20
-133.797862379745
 10
97.21852753645926
 20
-133.797862379745
 10
97.21852753645926
 20
-133.797862379745
 10
97.69808482800605
 20
-133.797862379745
 10
97.69808482800605
 20
-133.797862379745
 10
97.74321557886282
 20
-133.797862379745
 10
98.0877251273878
 20
-133.7916612078715
 10
98.14904782702524
 20
-133.7895941505804
 10
98.19762367336726
 20
-133.7875270932892
 10
98.22105032266697
 20
-133.7830484691584
 10
98.26066892074734
 20
-133.776847297285
 10
98.26066892074734
 20
-133.776847297285
 10
98.26066892074734
 20
-133.9756293067839
 10
98.26066892074734
 20
-133.9756293067839
 10
98.08393552235403
 20
-133.9608153961973
 10
97.70531952852507
 20
-133.9587483389062
 10
97.69257267522964
 20
-133.9587483389062
 97
        0
 97
        0
 92
        1
 93
        4
 72
     1
 10
97.11379663370766
 20
-134.4093668283768
 11
96.87953014071067
 21
-134.4093668283768
 72
     1
 10
96.87953014071067
 20
-134.4093668283768
 11
96.87953014071067
 21
-135.3106038073182
 72
     1
 10
96.87953014071067
 20
-135.3106038073182
 11
97.11379663370766
 21
-135.3106038073182
 72
     1
 10
97.11379663370766
 20
-135.3106038073182
 11
97.11379663370766
 21
-134.4093668283768
 97
        0
 92
        1
 93
        4
 72
     1
 10
97.64950898166401
 20
-134.4093668283768
 11
97.26365828731603
 21
-134.4093668283768
 72
     1
 10
97.26365828731603
 20
-134.4093668283768
 11
97.26365828731603
 21
-134.5998806087111
 72
     1
 10
97.26365828731603
 20
-134.5998806087111
 11
97.64950898166401
 21
-134.5998806087111
 72
     1
 10
97.64950898166401
 20
-134.5998806087111
 11
97.64950898166401
 21
-134.4093668283768
 97
        0
 92
        1
 93
        4
 72
     1
 10
97.64950898166401
 20
-134.7604220583238
 11
97.26365828731603
 21
-134.7604220583238
 72
     1
 10
97.26365828731603
 20
-134.7604220583238
 11
97.26365828731603
 21
-134.9509358386581
 72
     1
 10
97.26365828731603
 20
-134.9509358386581
 11
97.64950898166401
 21
-134.9509358386581
 72
     1
 10
97.64950898166401
 20
-134.9509358386581
 11
97.64950898166401
 21
-134.7604220583238
 97
        0
 92
        1
 93
        4
 72
     1
 10
97.64950898166401
 20
-135.1118217978193
 11
97.26365828731603
 21
-135.1118217978193
 72
     1
 10
97.26365828731603
 20
-135.1118217978193
 11
97.26365828731603
 21
-135.3106038073182
 72
     1
 10
97.26365828731603
 20
-135.3106038073182
 11
97.64950898166401
 21
-135.3106038073182
 72
     1
 10
97.64950898166401
 20
-135.3106038073182
 11
97.64950898166401
 21
-135.1118217978193
 97
        0
 92
        1
 93
        4
 72
     1
 10
98.04259437653103
 20
-134.4093668283768
 11
97.80798337398551
 21
-134.4093668283768
 72
     1
 10
97.80798337398551
 20
-134.4093668283768
 11
97.80798337398551
 21
-135.3106038073182
 72
     1
 10
97.80798337398551
 20
-135.3106038073182
 11
98.04259437653103
 21
-135.3106038073182
 72
     1
 10
98.04259437653103
 20
-135.3106038073182
 11
98.04259437653103
 21
-134.4093668283768
 97
        0
 75
     2
 76
     1
 98
        0
  0
SPLINE
  5
BC
330
91
100
AcDbEntity
  8
_U+30EC_U+30A4_U+30E4_U+30FC 1
370
     0
100
AcDbSpline
210
0.0
220
0.0
230
1.0
 70
    11
 71
     3
 72
    47
 73
    43
 74
     0
 42
0.0000000001
 43
0.0000000001
 12
1.0
 22
0.0
 32
0.0
 13
1.0
 23
0.0
 33
0.0
 40
0.0
 40
0.0
 40
0.0
 40
0.0
 40
1.0
 40
1.0
 40
1.0
 40
2.0
 40
2.0
 40
2.0
 40
3.0
 40
3.0
 40
3.0
 40
4.0
 40
4.0
 40
4.0
 40
5.0
 40
5.0
 40
5.0
 40
6.0
 40
6.0
 40
6.0
 40
7.0
 40
7.0
 40
7.0
 40
8.0
 40
8.0
 40
8.0
 40
9.0
 40
9.0
 40
9.0
 40
10.0
 40
10.0
 40
10.0
 40
11.0
 40
11.0
 40
11.0
 40
12.0
 40
12.0
 40
12.0
 40
13.0
 40
13.0
 40
13.0
 40
14.0
 40
14.0
 40
14.0
 40
14.0
 10
99.41718747514571
 20
-134.6019476660023
 30
0.0
 10
99.41718747514571
 20
-134.6019476660023
 30
0.0
 10
99.33071557846594
 20
-134.6019476660023
 30
0.0
 10
99.33071557846594
 20
-134.6019476660023
 30
0.0
 10
99.33071557846594
 20
-134.6884195626821
 30
0.0
 10
99.31245657239411
 20
-135.0777153525153
 30
0.0
 10
99.14468042226244
 20
-135.2978569540228
 30
0.0
 10
99.01480032246853
 20
-135.4670111423485
 30
0.0
 10
98.83841143362373
 20
-135.5369465806991
 30
0.0
 10
98.7660644284335
 20
-135.5645073445811
 30
0.0
 10
98.7660644284335
 20
-135.5645073445811
 30
0.0
 10
98.60035533559297
 20
-135.3974202135465
 30
0.0
 10
98.60035533559297
 20
-135.3974202135465
 30
0.0
 10
98.68303762723897
 20
-135.3846733602511
 30
0.0
 10
98.83289928084733
 20
-135.3612467109513
 30
0.0
 10
98.99344073045998
 20
-135.1731444974567
 30
0.0
 10
99.05648597784005
 20
-135.101142001815
 30
0.0
 10
99.14468042226244
 20
-134.9616156346624
 30
0.0
 10
99.14468042226244
 20
-134.6019476660023
 30
0.0
 10
99.14468042226244
 20
-134.6019476660023
 30
0.0
 10
98.94830997960321
 20
-134.6019476660023
 30
0.0
 10
98.94830997960321
 20
-134.6019476660023
 30
0.0
 10
98.78949107773319
 20
-134.6019476660023
 30
0.0
 10
98.6310166854117
 20
-134.6060817805846
 30
0.0
 10
98.47219778354167
 20
-134.6208956911712
 30
0.0
 10
98.47219778354167
 20
-134.6208956911712
 30
0.0
 10
98.47219778354167
 20
-134.4007540896637
 30
0.0
 10
98.47219778354167
 20
-134.4007540896637
 30
0.0
 10
98.63273923315433
 20
-134.4155680002503
 30
0.0
 10
98.87596297441296
 20
-134.4200466243811
 30
0.0
 10
98.94830997960321
 20
-134.4200466243811
 30
0.0
 10
98.94830997960321
 20
-134.4200466243811
 30
0.0
 10
99.41718747514571
 20
-134.4200466243811
 30
0.0
 10
99.41718747514571
 20
-134.4200466243811
 30
0.0
 10
99.43337942392638
 20
-134.4200466243811
 30
0.0
 10
99.7038194195185
 20
-134.4200466243811
 30
0.0
 10
99.89846731443511
 20
-134.4007540896637
 30
0.0
 10
99.89846731443511
 20
-134.4007540896637
 30
0.0
 10
99.89846731443511
 20
-134.6208956911712
 30
0.0
 10
99.89846731443511
 20
-134.6208956911712
 30
0.0
 10
99.73792586482247
 20
-134.6060817805846
 30
0.0
 10
99.57772892475835
 20
-134.6019476660023
 30
0.0
 10
99.41718747514571
 20
-134.6019476660023
 30
0.0
  0
SPLINE
  5
BD
330
91
100
AcDbEntity
  8
_U+30EC_U+30A4_U+30E4_U+30FC 1
370
     0
100
AcDbSpline
210
0.0
220
0.0
230
1.0
 70
    11
 71
     3
 72
    29
 73
    25
 74
     0
 42
0.0000000001
 43
0.0000000001
 12
1.0
 22
0.0
 32
0.0
 13
1.0
 23
0.0
 33
0.0
 40
0.0
 40
0.0
 40
0.0
 40
0.0
 40
1.0
 40
1.0
 40
1.0
 40
2.0
 40
2.0
 40
2.0
 40
3.0
 40
3.0
 40
3.0
 40
4.0
 40
4.0
 40
4.0
 40
5.0
 40
5.0
 40
5.0
 40
6.0
 40
6.0
 40
6.0
 40
7.0
 40
7.0
 40
7.0
 40
8.0
 40
8.0
 40
8.0
 40
8.0
 10
99.33071557846594
 20
-134.0727809994679
 30
0.0
 10
99.33071557846594
 20
-134.0727809994679
 30
0.0
 10
99.02926972350657
 20
-134.0727809994679
 30
0.0
 10
99.02926972350657
 20
-134.0727809994679
 30
0.0
 10
98.93384057856515
 20
-134.0727809994679
 30
0.0
 10
98.81464027477551
 20
-134.0793266808899
 30
0.0
 10
98.72300073486787
 20
-134.0920735341853
 30
0.0
 10
98.72300073486787
 20
-134.0920735341853
 30
0.0
 10
98.72300073486787
 20
-133.8571180220913
 30
0.0
 10
98.72300073486787
 20
-133.8571180220913
 30
0.0
 10
98.82394203258569
 20
-133.8719319326779
 30
0.0
 10
98.98069387716455
 20
-133.8760660472602
 30
0.0
 10
99.02926972350657
 20
-133.8760660472602
 30
0.0
 10
99.02926972350657
 20
-133.8760660472602
 30
0.0
 10
99.33071557846594
 20
-133.8760660472602
 30
0.0
 10
99.33071557846594
 20
-133.8760660472602
 30
0.0
 10
99.34690752724661
 20
-133.8760660472602
 30
0.0
 10
99.51985132060615
 20
-133.8760660472602
 30
0.0
 10
99.64077417213842
 20
-133.8571180220913
 30
0.0
 10
99.64077417213842
 20
-133.8571180220913
 30
0.0
 10
99.64077417213842
 20
-134.0920735341853
 30
0.0
 10
99.64077417213842
 20
-134.0920735341853
 30
0.0
 10
99.50710446731073
 20
-134.0727809994679
 30
0.0
 10
99.34484046995546
 20
-134.0727809994679
 30
0.0
 10
99.33071557846594
 20
-134.0727809994679
 30
0.0
  0
HATCH
  5
BE
330
91
100
AcDbEntity
  8
_U+30EC_U+30A4_U+30E4_U+30FC 1
 62
   179
420
  2234388
100
AcDbHatch
 10
0.0
 20
0.0
 30
0.0
210
0.0
220
0.0
230
1.0
  2
SOLID
 70
     1
 71
     0
 91
        2
 92
        1
 93
        1
 72
     4
 94
        3
 73
     0
 74
     1
 95
       47
 96
       43
 40
0.0
 40
0.0
 40
0.0
 40
0.0
 40
1.0
 40
1.0
 40
1.0
 40
2.0
 40
2.0
 40
2.0
 40
3.0
 40
3.0
 40
3.0
 40
4.0
 40
4.0
 40
4.0
 40
5.0
 40
5.0
 40
5.0
 40
6.0
 40
6.0
 40
6.0
 40
7.0
 40
7.0
 40
7.0
 40
8.0
 40
8.0
 40
8.0
 40
9.0
 40
9.0
 40
9.0
 40
10.0
 40
10.0
 40
10.0
 40
11.0
 40
11.0
 40
11.0
 40
12.0
 40
12.0
 40
12.0
 40
13.0
 40
13.0
 40
13.0
 40
14.0
 40
14.0
 40
14.0
 40
14.0
 10
99.41718747514571
 20
-134.6019476660023
 10
99.41718747514571
 20
-134.6019476660023
 10
99.33071557846594
 20
-134.6019476660023
 10
99.33071557846594
 20
-134.6019476660023
 10
99.33071557846594
 20
-134.6884195626821
 10
99.31245657239411
 20
-135.0777153525153
 10
99.14468042226244
 20
-135.2978569540228
 10
99.01480032246853
 20
-135.4670111423485
 10
98.83841143362373
 20
-135.5369465806991
 10
98.7660644284335
 20
-135.5645073445811
 10
98.7660644284335
 20
-135.5645073445811
 10
98.60035533559297
 20
-135.3974202135465
 10
98.60035533559297
 20
-135.3974202135465
 10
98.68303762723897
 20
-135.3846733602511
 10
98.83289928084733
 20
-135.3612467109513
 10
98.99344073045998
 20
-135.1731444974567
 10
99.05648597784005
 20
-135.101142001815
 10
99.14468042226244
 20
-134.9616156346624
 10
99.14468042226244
 20
-134.6019476660023
 10
99.14468042226244
 20
-134.6019476660023
 10
98.94830997960321
 20
-134.6019476660023
 10
98.94830997960321
 20
-134.6019476660023
 10
98.78949107773319
 20
-134.6019476660023
 10
98.6310166854117
 20
-134.6060817805846
 10
98.47219778354167
 20
-134.6208956911712
 10
98.47219778354167
 20
-134.6208956911712
 10
98.47219778354167
 20
-134.4007540896637
 10
98.47219778354167
 20
-134.4007540896637
 10
98.63273923315433
 20
-134.4155680002503
 10
98.87596297441296
 20
-134.4200466243811
 10
98.94830997960321
 20
-134.4200466243811
 10
98.94830997960321
 20
-134.4200466243811
 10
99.41718747514571
 20
-134.4200466243811
 10
99.41718747514571
 20
-134.4200466243811
 10
99.43337942392638
 20
-134.4200466243811
 10
99.7038194195185
 20
-134.4200466243811
 10
99.89846731443511
 20
-134.4007540896637
 10
99.89846731443511
 20
-134.4007540896637
 10
99.89846731443511
 20
-134.6208956911712
 10
99.89846731443511
 20
-134.6208956911712
 10
99.73792586482247
 20
-134.6060817805846
 10
99.57772892475835
 20
-134.6019476660023
 10
99.41718747514571
 20
-134.6019476660023
 97
        0
 97
        0
 92
        1
 93
        1
 72
     4
 94
        3
 73
     0
 74
     1
 95
       29
 96
       25
 40
0.0
 40
0.0
 40
0.0
 40
0.0
 40
1.0
 40
1.0
 40
1.0
 40
2.0
 40
2.0
 40
2.0
 40
3.0
 40
3.0
 40
3.0
 40
4.0
 40
4.0
 40
4.0
 40
5.0
 40
5.0
 40
5.0
 40
6.0
 40
6.0
 40
6.0
 40
7.0
 40
7.0
 40
7.0
 40
8.0
 40
8.0
 40
8.0
 40
8.0
 10
99.33071557846594
 20
-134.0727809994679
 10
99.33071557846594
 20
-134.0727809994679
 10
99.02926972350657
 20
-134.0727809994679
 10
99.02926972350657
 20
-134.0727809994679
 10
98.93384057856515
 20
-134.0727809994679
 10
98.81464027477551
 20
-134.0793266808899
 10
98.72300073486787
 20
-134.0920735341853
 10
98.72300073486787
 20
-134.0920735341853
 10
98.72300073486787
 20
-133.8571180220913
 10
98.72300073486787
 20
-133.8571180220913
 10
98.82394203258569
 20
-133.8719319326779
 10
98.98069387716455
 20
-133.8760660472602
 10
99.02926972350657
 20
-133.8760660472602
 10
99.02926972350657
 20
-133.8760660472602
 10
99.33071557846594
 20
-133.8760660472602
 10
99.33071557846594
 20
-133.8760660472602
 10
99.34690752724661
 20
-133.8760660472602
 10
99.51985132060615
 20
-133.8760660472602
 10
99.64077417213842
 20
-133.8571180220913
 10
99.64077417213842
 20
-133.8571180220913
 10
99.64077417213842
 20
-134.0920735341853
 10
99.64077417213842
 20
-134.0920735341853
 10
99.50710446731073
 20
-134.0727809994679
 10
99.34484046995546
 20
-134.0727809994679
 10
99.33071557846594
 20
-134.0727809994679
 97
        0
 97
        0
 75
     2
 76
     1
 98
        0
  0
SPLINE
  5
BF
330
91
100
AcDbEntity
  8
_U+30EC_U+30A4_U+30E4_U+30FC 1
370
     0
100
AcDbSpline
210
0.0
220
0.0
230
1.0
 70
    11
 71
     3
 72
    29
 73
    25
 74
     0
 42
0.0000000001
 43
0.0000000001
 12
1.0
 22
0.0
 32
0.0
 13
1.0
 23
0.0
 33
0.0
 40
0.0
 40
0.0
 40
0.0
 40
0.0
 40
1.0
 40
1.0
 40
1.0
 40
2.0
 40
2.0
 40
2.0
 40
3.0
 40
3.0
 40
3.0
 40
4.0
 40
4.0
 40
4.0
 40
5.0
 40
5.0
 40
5.0
 40
6.0
 40
6.0
 40
6.0
 40
7.0
 40
7.0
 40
7.0
 40
8.0
 40
8.0
 40
8.0
 40
8.0
 10
100.9881510164196
 20
-134.7645561729061
 30
0.0
 10
100.9881510164196
 20
-134.7645561729061
 30
0.0
 10
100.5754285772867
 20
-134.7645561729061
 30
0.0
 10
100.5754285772867
 20
-134.7645561729061
 30
0.0
 10
100.552001927987
 20
-134.7645561729061
 30
0.0
 10
100.2815619323949
 20
-134.7645561729061
 30
0.0
 10
100.1010389289678
 20
-134.7900498794969
 30
0.0
 10
100.1010389289678
 20
-134.7900498794969
 30
0.0
 10
100.1010389289678
 20
-134.5595729915337
 30
0.0
 10
100.1010389289678
 20
-134.5595729915337
 30
0.0
 10
100.2364311815381
 20
-134.5826551312849
 30
0.0
 10
100.3986951788934
 20
-134.5850666981246
 30
0.0
 10
100.5754285772867
 20
-134.5850666981246
 30
0.0
 10
100.5754285772867
 20
-134.5850666981246
 30
0.0
 10
100.9881510164196
 20
-134.5850666981246
 30
0.0
 10
100.9881510164196
 20
-134.5850666981246
 30
0.0
 10
101.1469699182897
 20
-134.5850666981246
 30
0.0
 10
101.3057888201597
 20
-134.5826551312849
 30
0.0
 10
101.4625406647385
 20
-134.5595729915337
 30
0.0
 10
101.4625406647385
 20
-134.5595729915337
 30
0.0
 10
101.4625406647385
 20
-134.7900498794969
 30
0.0
 10
101.4625406647385
 20
-134.7900498794969
 30
0.0
 10
101.3057888201597
 20
-134.7669677397458
 30
0.0
 10
101.0946044669139
 20
-134.7645561729061
 30
0.0
 10
100.9881510164196
 20
-134.7645561729061
 30
0.0
  0
HATCH
  5
C0
330
91
100
AcDbEntity
  8
_U+30EC_U+30A4_U+30E4_U+30FC 1
 62
   179
420
  2234388
100
AcDbHatch
 10
0.0
 20
0.0
 30
0.0
210
0.0
220
0.0
230
1.0
  2
SOLID
 70
     1
 71
     0
 91
        1
 92
        1
 93
        1
 72
     4
 94
        3
 73
     0
 74
     1
 95
       29
 96
       25
 40
0.0
 40
0.0
 40
0.0
 40
0.0
 40
1.0
 40
1.0
 40
1.0
 40
2.0
 40
2.0
 40
2.0
 40
3.0
 40
3.0
 40
3.0
 40
4.0
 40
4.0
 40
4.0
 40
5.0
 40
5.0
 40
5.0
 40
6.0
 40
6.0
 40
6.0
 40
7.0
 40
7.0
 40
7.0
 40
8.0
 40
8.0
 40
8.0
 40
8.0
 10
100.9881510164196
 20
-134.7645561729061
 10
100.9881510164196
 20
-134.7645561729061
 10
100.5754285772867
 20
-134.7645561729061
 10
100.5754285772867
 20
-134.7645561729061
 10
100.552001927987
 20
-134.7645561729061
 10
100.2815619323949
 20
-134.7645561729061
 10
100.1010389289678
 20
-134.7900498794969
 10
100.1010389289678
 20
-134.7900498794969
 10
100.1010389289678
 20
-134.5595729915337
 10
100.1010389289678
 20
-134.5595729915337
 10
100.2364311815381
 20
-134.5826551312849
 10
100.3986951788934
 20
-134.5850666981246
 10
100.5754285772867
 20
-134.5850666981246
 10
100.5754285772867
 20
-134.5850666981246
 10
100.9881510164196
 20
-134.5850666981246
 10
100.9881510164196
 20
-134.5850666981246
 10
101.1469699182897
 20
-134.5850666981246
 10
101.3057888201597
 20
-134.5826551312849
 10
101.4625406647385
 20
-134.5595729915337
 10
101.4625406647385
 20
-134.5595729915337
 10
101.4625406647385
 20
-134.7900498794969
 10
101.4625406647385
 20
-134.7900498794969
 10
101.3057888201597
 20
-134.7669677397458
 10
101.0946044669139
 20
-134.7645561729061
 10
100.9881510164196
 20
-134.7645561729061
 97
        0
 97
        0
 75
     2
 76
     1
 98
        0
  0
SPLINE
  5
C1
330
91
100
AcDbEntity
  8
_U+30EC_U+30A4_U+30E4_U+30FC 1
370
     0
100
AcDbSpline
210
0.0
220
0.0
230
1.0
 70
    11
 71
     3
 72
    44
 73
    40
 74
     0
 42
0.0000000001
 43
0.0000000001
 12
1.0
 22
0.0
 32
0.0
 13
1.0
 23
0.0
 33
0.0
 40
0.0
 40
0.0
 40
0.0
 40
0.0
 40
1.0
 40
1.0
 40
1.0
 40
2.0
 40
2.0
 40
2.0
 40
3.0
 40
3.0
 40
3.0
 40
4.0
 40
4.0
 40
4.0
 40
5.0
 40
5.0
 40
5.0
 40
6.0
 40
6.0
 40
6.0
 40
7.0
 40
7.0
 40
7.0
 40
8.0
 40
8.0
 40
8.0
 40
9.0
 40
9.0
 40
9.0
 40
10.0
 40
10.0
 40
10.0
 40
11.0
 40
11.0
 40
11.0
 40
12.0
 40
12.0
 40
12.0
 40
13.0
 40
13.0
 40
13.0
 40
13.0
 10
102.8715847182057
 20
-134.3266845367308
 30
0.0
 10
102.7758110637158
 20
-134.6949652441041
 30
0.0
 10
102.7327473701502
 20
-134.8534396364255
 30
0.0
 10
102.5649712200185
 20
-135.1032090591061
 30
0.0
 10
102.4078748658911
 20
-135.3336859470694
 30
0.0
 10
102.2059922704555
 20
-135.5200656128214
 30
0.0
 10
101.9679361724247
 20
-135.6130831909231
 30
0.0
 10
101.9679361724247
 20
-135.6130831909231
 30
0.0
 10
101.8039496273268
 20
-135.4332492065931
 30
0.0
 10
101.8039496273268
 20
-135.4332492065931
 30
0.0
 10
102.3503417712874
 20
-135.2809759861451
 30
0.0
 10
102.6318060724323
 20
-134.7245930652772
 30
0.0
 10
102.6858940715507
 20
-134.2846543718108
 30
0.0
 10
102.6858940715507
 20
-134.2846543718108
 30
0.0
 10
102.0330484770959
 20
-134.2846543718108
 30
0.0
 10
102.0330484770959
 20
-134.2846543718108
 30
0.0
 10
101.9534667713866
 20
-134.2846543718108
 30
0.0
 10
101.7967149268078
 20
-134.2887884863931
 30
0.0
 10
101.6633897315286
 20
-134.307736511562
 30
0.0
 10
101.6633897315286
 20
-134.307736511562
 30
0.0
 10
101.6633897315286
 20
-134.0875949100545
 30
0.0
 10
101.6633897315286
 20
-134.0875949100545
 30
0.0
 10
101.737114774913
 20
-134.1089545020631
 30
0.0
 10
101.951744223644
 20
-134.1089545020631
 30
0.0
 10
102.0364935725812
 20
-134.1089545020631
 30
0.0
 10
102.0364935725812
 20
-134.1089545020631
 30
0.0
 10
102.4044297704058
 20
-134.1089545020631
 30
0.0
 10
102.4044297704058
 20
-134.1089545020631
 30
0.0
 10
102.440603273001
 20
-134.1089545020631
 30
0.0
 10
102.640763320694
 20
-134.1068874447719
 30
0.0
 10
102.6731472182553
 20
-134.1003417633499
 30
0.0
 10
102.7093207208505
 20
-134.0941405914765
 30
0.0
 10
102.7110432685931
 20
-134.0920735341853
 30
0.0
 10
102.7634087199689
 20
-134.0517659170079
 30
0.0
 10
102.7634087199689
 20
-134.0517659170079
 30
0.0
 10
102.9239501695815
 20
-134.2061061947471
 30
0.0
 10
102.9239501695815
 20
-134.2061061947471
 30
0.0
 10
102.8984564629907
 20
-134.2357340159202
 30
0.0
 10
102.8860541192438
 20
-134.2674288943846
 30
0.0
 10
102.8715847182057
 20
-134.3266845367308
 30
0.0
  0
SPLINE
  5
C2
330
91
100
AcDbEntity
  8
_U+30EC_U+30A4_U+30E4_U+30FC 1
370
     0
100
AcDbSpline
210
0.0
220
0.0
230
1.0
 70
    11
 71
     3
 72
    17
 73
    13
 74
     0
 42
0.0000000001
 43
0.0000000001
 12
1.0
 22
0.0
 32
0.0
 13
1.0
 23
0.0
 33
0.0
 40
0.0
 40
0.0
 40
0.0
 40
0.0
 40
1.0
 40
1.0
 40
1.0
 40
2.0
 40
2.0
 40
2.0
 40
3.0
 40
3.0
 40
3.0
 40
4.0
 40
4.0
 40
4.0
 40
4.0
 10
103.0500406643417
 20
-134.1279025272319
 30
0.0
 10
102.9418646661048
 20
-134.1279025272319
 30
0.0
 10
102.8553927694251
 20
-134.0262722104171
 30
0.0
 10
102.8553927694251
 20
-133.8994926965599
 30
0.0
 10
102.8553927694251
 20
-133.7727131827027
 30
0.0
 10
102.9418646661048
 20
-133.6690158085966
 30
0.0
 10
103.0500406643417
 20
-133.6690158085966
 30
0.0
 10
103.1582166625785
 20
-133.6690158085966
 30
0.0
 10
103.2464111070009
 20
-133.7727131827027
 30
0.0
 10
103.2464111070009
 20
-133.8994926965599
 30
0.0
 10
103.2464111070009
 20
-134.0262722104171
 30
0.0
 10
103.1582166625785
 20
-134.1279025272319
 30
0.0
 10
103.0500406643417
 20
-134.1279025272319
 30
0.0
  0
SPLINE
  5
C3
330
91
100
AcDbEntity
  8
_U+30EC_U+30A4_U+30E4_U+30FC 1
370
     0
100
AcDbSpline
210
0.0
220
0.0
230
1.0
 70
    11
 71
     3
 72
    17
 73
    13
 74
     0
 42
0.0000000001
 43
0.0000000001
 12
1.0
 22
0.0
 32
0.0
 13
1.0
 23
0.0
 33
0.0
 40
0.0
 40
0.0
 40
0.0
 40
0.0
 40
1.0
 40
1.0
 40
1.0
 40
2.0
 40
2.0
 40
2.0
 40
3.0
 40
3.0
 40
3.0
 40
4.0
 40
4.0
 40
4.0
 40
4.0
 10
103.048318116599
 20
-133.797862379745
 30
0.0
 10
103.0014648179996
 20
-133.797862379745
 30
0.0
 10
102.9635687676619
 20
-133.8423041115047
 30
0.0
 10
102.9635687676619
 20
-133.8974256392687
 30
0.0
 10
102.9635687676619
 20
-133.9546142243238
 30
0.0
 10
103.0014648179996
 20
-134.0031900706659
 30
0.0
 10
103.0517632120843
 20
-134.0031900706659
 30
0.0
 10
103.1024061157175
 20
-134.0031900706659
 30
0.0
 10
103.1365125610214
 20
-133.9522026574842
 30
0.0
 10
103.1365125610214
 20
-133.8994926965599
 30
0.0
 10
103.1365125610214
 20
-133.8423041115047
 30
0.0
 10
103.0968939629411
 20
-133.797862379745
 30
0.0
 10
103.048318116599
 20
-133.797862379745
 30
0.0
  0
HATCH
  5
C4
330
91
100
AcDbEntity
  8
_U+30EC_U+30A4_U+30E4_U+30FC 1
 62
   179
420
  2234388
100
AcDbHatch
 10
0.0
 20
0.0
 30
0.0
210
0.0
220
0.0
230
1.0
  2
SOLID
 70
     1
 71
     0
 91
        3
 92
        1
 93
        1
 72
     4
 94
        3
 73
     0
 74
     1
 95
       44
 96
       40
 40
0.0
 40
0.0
 40
0.0
 40
0.0
 40
1.0
 40
1.0
 40
1.0
 40
2.0
 40
2.0
 40
2.0
 40
3.0
 40
3.0
 40
3.0
 40
4.0
 40
4.0
 40
4.0
 40
5.0
 40
5.0
 40
5.0
 40
6.0
 40
6.0
 40
6.0
 40
7.0
 40
7.0
 40
7.0
 40
8.0
 40
8.0
 40
8.0
 40
9.0
 40
9.0
 40
9.0
 40
10.0
 40
10.0
 40
10.0
 40
11.0
 40
11.0
 40
11.0
 40
12.0
 40
12.0
 40
12.0
 40
13.0
 40
13.0
 40
13.0
 40
13.0
 10
102.8715847182057
 20
-134.3266845367308
 10
102.7758110637158
 20
-134.6949652441041
 10
102.7327473701502
 20
-134.8534396364255
 10
102.5649712200185
 20
-135.1032090591061
 10
102.4078748658911
 20
-135.3336859470694
 10
102.2059922704555
 20
-135.5200656128214
 10
101.9679361724247
 20
-135.6130831909231
 10
101.9679361724247
 20
-135.6130831909231
 10
101.8039496273268
 20
-135.4332492065931
 10
101.8039496273268
 20
-135.4332492065931
 10
102.3503417712874
 20
-135.2809759861451
 10
102.6318060724323
 20
-134.7245930652772
 10
102.6858940715507
 20
-134.2846543718108
 10
102.6858940715507
 20
-134.2846543718108
 10
102.0330484770959
 20
-134.2846543718108
 10
102.0330484770959
 20
-134.2846543718108
 10
101.9534667713866
 20
-134.2846543718108
 10
101.7967149268078
 20
-134.2887884863931
 10
101.6633897315286
 20
-134.307736511562
 10
101.6633897315286
 20
-134.307736511562
 10
101.6633897315286
 20
-134.0875949100545
 10
101.6633897315286
 20
-134.0875949100545
 10
101.737114774913
 20
-134.1089545020631
 10
101.951744223644
 20
-134.1089545020631
 10
102.0364935725812
 20
-134.1089545020631
 10
102.0364935725812
 20
-134.1089545020631
 10
102.4044297704058
 20
-134.1089545020631
 10
102.4044297704058
 20
-134.1089545020631
 10
102.440603273001
 20
-134.1089545020631
 10
102.640763320694
 20
-134.1068874447719
 10
102.6731472182553
 20
-134.1003417633499
 10
102.7093207208505
 20
-134.0941405914765
 10
102.7110432685931
 20
-134.0920735341853
 10
102.7634087199689
 20
-134.0517659170079
 10
102.7634087199689
 20
-134.0517659170079
 10
102.9239501695815
 20
-134.2061061947471
 10
102.9239501695815
 20
-134.2061061947471
 10
102.8984564629907
 20
-134.2357340159202
 10
102.8860541192438
 20
-134.2674288943846
 10
102.8715847182057
 20
-134.3266845367308
 97
        0
 97
        0
 92
        1
 93
        1
 72
     4
 94
        3
 73
     0
 74
     1
 95
       17
 96
       13
 40
0.0
 40
0.0
 40
0.0
 40
0.0
 40
1.0
 40
1.0
 40
1.0
 40
2.0
 40
2.0
 40
2.0
 40
3.0
 40
3.0
 40
3.0
 40
4.0
 40
4.0
 40
4.0
 40
4.0
 10
103.0500406643417
 20
-134.1279025272319
 10
102.9418646661048
 20
-134.1279025272319
 10
102.8553927694251
 20
-134.0262722104171
 10
102.8553927694251
 20
-133.8994926965599
 10
102.8553927694251
 20
-133.7727131827027
 10
102.9418646661048
 20
-133.6690158085966
 10
103.0500406643417
 20
-133.6690158085966
 10
103.1582166625785
 20
-133.6690158085966
 10
103.2464111070009
 20
-133.7727131827027
 10
103.2464111070009
 20
-133.8994926965599
 10
103.2464111070009
 20
-134.0262722104171
 10
103.1582166625785
 20
-134.1279025272319
 10
103.0500406643417
 20
-134.1279025272319
 97
        0
 97
        0
 92
        1
 93
        1
 72
     4
 94
        3
 73
     0
 74
     1
 95
       17
 96
       13
 40
0.0
 40
0.0
 40
0.0
 40
0.0
 40
1.0
 40
1.0
 40
1.0
 40
2.0
 40
2.0
 40
2.0
 40
3.0
 40
3.0
 40
3.0
 40
4.0
 40
4.0
 40
4.0
 40
4.0
 10
103.048318116599
 20
-133.797862379745
 10
103.0014648179996
 20
-133.797862379745
 10
102.9635687676619
 20
-133.8423041115047
 10
102.9635687676619
 20
-133.8974256392687
 10
102.9635687676619
 20
-133.9546142243238
 10
103.0014648179996
 20
-134.0031900706659
 10
103.0517632120843
 20
-134.0031900706659
 10
103.1024061157175
 20
-134.0031900706659
 10
103.1365125610214
 20
-133.9522026574842
 10
103.1365125610214
 20
-133.8994926965599
 10
103.1365125610214
 20
-133.8423041115047
 10
103.0968939629411
 20
-133.797862379745
 10
103.048318116599
 20
-133.797862379745
 97
        0
 97
        0
 75
     2
 76
     1
 98
        0
  0
ENDBLK
  5
94
330
91
100
AcDbEntity
  8
0
100
AcDbBlockEnd
  0
ENDSEC
  0
SECTION
  2
ENTITIES
  0
POLYLINE
  5
41
330
1F
100
AcDbEntity
  8
_U+30EC_U+30A4_U+30E4_U+30FC 1
 62
     7
420
 16777215
370
     9
100
AcDb2dPolyline
 66
     1
 10
0.0
 20
0.0
 30
0.0
  0
VERTEX
  5
42
330
41
100
AcDbEntity
  8
_U+30EC_U+30A4_U+30E4_U+30FC 1
 62
     7
420
 16777215
370
     9
100
AcDbVertex
100
AcDb2dVertex
 10
96.68178142233116
 20
-125.8992980240807
 30
0.0
  0
VERTEX
  5
43
330
41
100
AcDbEntity
  8
_U+30EC_U+30A4_U+30E4_U+30FC 1
 62
     7
420
 16777215
370
     9
100
AcDbVertex
100
AcDb2dVertex
 10
84.74660394904512
 20
-126.0088355240535
 30
0.0
  0
VERTEX
  5
44
330
41
100
AcDbEntity
  8
_U+30EC_U+30A4_U+30E4_U+30FC 1
 62
     7
420
 16777215
370
     9
100
AcDbVertex
100
AcDb2dVertex
 10
84.74039720103707
 20
-125.3032799686743
 30
0.0
  0
VERTEX
  5
45
330
41
100
AcDbEntity
  8
_U+30EC_U+30A4_U+30E4_U+30FC 1
 62
     7
420
 16777215
370
     9
100
AcDbVertex
100
AcDb2dVertex
 10
96.67557497583086
 20
-125.1937424687015
 30
0.0
  0
VERTEX
  5
46
330
41
100
AcDbEntity
  8
_U+30EC_U+30A4_U+30E4_U+30FC 1
 62
     7
420
 16777215
370
     9
100
AcDbVertex
100
AcDb2dVertex
 10
96.68178142233116
 20
-125.8992980240807
 30
0.0
  0
SEQEND
  5
47
330
41
100
AcDbEntity
  8
_U+30EC_U+30A4_U+30E4_U+30FC 1
 62
     7
420
 16777215
370
     9
  0
SPLINE
  5
48
330
1F
100
AcDbEntity
  8
_U+30EC_U+30A4_U+30E4_U+30FC 1
 62
     7
420
 16777215
370
     9
100
AcDbSpline
210
0.0
220
0.0
230
1.0
 70
    11
 71
     3
 72
    47
 73
    43
 74
     0
 42
0.0000000001
 43
0.0000000001
 12
1.0
 22
0.0
 32
0.0
 13
1.0
 23
0.0
 33
0.0
 40
0.0
 40
0.0
 40
0.0
 40
0.0
 40
1.0
 40
1.0
 40
1.0
 40
2.0
 40
2.0
 40
2.0
 40
3.0
 40
3.0
 40
3.0
 40
4.0
 40
4.0
 40
4.0
 40
5.0
 40
5.0
 40
5.0
 40
6.0
 40
6.0
 40
6.0
 40
7.0
 40
7.0
 40
7.0
 40
8.0
 40
8.0
 40
8.0
 40
9.0
 40
9.0
 40
9.0
 40
10.0
 40
10.0
 40
10.0
 40
11.0
 40
11.0
 40
11.0
 40
12.0
 40
12.0
 40
12.0
 40
13.0
 40
13.0
 40
13.0
 40
14.0
 40
14.0
 40
14.0
 40
14.0
 10
84.30217451593902
 20
-124.777923302139
 30
0.0
 10
84.30217451593902
 20
-124.777923302139
 30
0.0
 10
97.1496352992841
 20
-124.6897288577166
 30
0.0
 10
97.1496352992841
 20
-124.6897288577166
 30
0.0
 10
97.1496352992841
 20
-124.6897288577166
 30
0.0
 10
97.03180752451236
 20
-124.3079880244785
 30
0.0
 10
97.26675751851828
 20
-124.0138066356633
 30
0.0
 10
97.26675751851828
 20
-124.0138066356633
 30
0.0
 10
97.53134084510152
 20
-123.4260435802546
 30
0.0
 10
97.53134084510152
 20
-123.4260435802546
 30
0.0
 10
97.53134084510152
 20
-123.4260435802546
 30
0.0
 10
96.41444642915144
 20
-122.3084788583119
 30
0.0
 10
96.41444642915144
 20
-122.3084788583119
 30
0.0
 10
96.41444642915144
 20
-122.3084788583119
 30
0.0
 10
96.03238810556522
 20
-121.4561677474138
 30
0.0
 10
97.06144085708968
 20
-121.6325566362586
 30
0.0
 10
97.06144085708968
 20
-121.6325566362586
 30
0.0
 10
98.53111304181743
 20
-123.1022288581135
 30
0.0
 10
98.53111304181743
 20
-123.1022288581135
 30
0.0
 10
98.53111304181743
 20
-123.1022288581135
 30
0.0
 10
97.61953528729595
 20
-124.6015344132942
 30
0.0
 10
97.91375194645653
 20
-125.5716733019406
 30
0.0
 10
97.91375194645653
 20
-125.5716733019406
 30
0.0
 10
83.65588564353833
 20
-125.6013066352664
 30
0.0
 10
83.65588564353833
 20
-125.6013066352664
 30
0.0
 10
83.65588564353833
 20
-125.6013066352664
 30
0.0
 10
83.94939674716134
 20
-124.5136574688717
 30
0.0
 10
82.97925788302277
 20
-123.3378491358322
 30
0.0
 10
82.97925788302277
 20
-123.3378491358322
 30
0.0
 10
84.5378300654825
 20
-121.720751080681
 30
0.0
 10
84.5378300654825
 20
-121.720751080681
 30
0.0
 10
84.5378300654825
 20
-121.720751080681
 30
0.0
 10
85.30194671265492
 20
-121.5147288585104
 30
0.0
 10
85.47833559704375
 20
-121.9853344139482
 30
0.0
 10
85.47833559704375
 20
-121.9853344139482
 30
0.0
 10
85.59581059404672
 20
-122.632293580453
 30
0.0
 10
84.91953561129993
 20
-122.5440991360306
 30
0.0
 10
84.91953561129993
 20
-122.5440991360306
 30
0.0
 10
83.94939674716134
 20
-123.3964455247065
 30
0.0
 10
83.94939674716134
 20
-123.3964455247065
 30
0.0
 10
83.94939674716134
 20
-123.3964455247065
 30
0.0
 10
84.39036895813344
 20
-124.3665844133529
 30
0.0
 10
84.30217451593902
 20
-124.777923302139
 30
0.0
  0
SPLINE
  5
49
330
1F
100
AcDbEntity
  8
_U+30EC_U+30A4_U+30E4_U+30FC 1
 62
     7
420
 16777215
370
     9
100
AcDbSpline
210
0.0
220
0.0
230
1.0
 70
    11
 71
     3
 72
    53
 73
    49
 74
     0
 42
0.0000000001
 43
0.0000000001
 12
1.0
 22
0.0
 32
0.0
 13
1.0
 23
0.0
 33
0.0
 40
0.0
 40
0.0
 40
0.0
 40
0.0
 40
1.0
 40
1.0
 40
1.0
 40
2.0
 40
2.0
 40
2.0
 40
3.0
 40
3.0
 40
3.0
 40
4.0
 40
4.0
 40
4.0
 40
5.0
 40
5.0
 40
5.0
 40
6.0
 40
6.0
 40
6.0
 40
7.0
 40
7.0
 40
7.0
 40
8.0
 40
8.0
 40
8.0
 40
9.0
 40
9.0
 40
9.0
 40
10.0
 40
10.0
 40
10.0
 40
11.0
 40
11.0
 40
11.0
 40
12.0
 40
12.0
 40
12.0
 40
13.0
 40
13.0
 40
13.0
 40
14.0
 40
14.0
 40
14.0
 40
15.0
 40
15.0
 40
15.0
 40
16.0
 40
16.0
 40
16.0
 40
16.0
 10
85.1255578282661
 20
-120.6327844142864
 30
0.0
 10
85.1255578282661
 20
-120.6327844142864
 30
0.0
 10
96.17949643514551
 20
-120.4860288587675
 30
0.0
 10
96.17949643514551
 20
-120.4860288587675
 30
0.0
 10
96.17949643514551
 20
-120.4860288587675
 30
0.0
 10
97.3549519607127
 20
-120.5449074698639
 30
0.0
 10
97.61953528729595
 20
-120.8684046920051
 30
0.0
 10
97.61953528729595
 20
-120.8684046920051
 30
0.0
 10
99.38342413118428
 20
-122.5730621915791
 30
0.0
 10
99.38342413118428
 20
-122.5730621915791
 30
0.0
 10
99.38342413118428
 20
-122.5730621915791
 30
0.0
 10
99.82439634215636
 20
-123.2200566358618
 30
0.0
 10
99.76583523253927
 20
-123.8077844134927
 30
0.0
 10
99.76583523253927
 20
-123.8077844134927
 30
0.0
 10
99.82439634215636
 20
-125.5427102463921
 30
0.0
 10
99.82439634215636
 20
-125.5427102463921
 30
0.0
 10
99.82439634215636
 20
-125.5427102463921
 30
0.0
 10
98.56074637439477
 20
-126.0422788573784
 30
0.0
 10
97.94338527903385
 20
-124.8075566354649
 30
0.0
 10
97.94338527903385
 20
-124.8075566354649
 30
0.0
 10
97.61988806506473
 20
-123.7788213579442
 30
0.0
 10
98.91352414317244
 20
-123.514238024677
 30
0.0
 10
98.91352414317244
 20
-123.514238024677
 30
0.0
 10
96.85541864012352
 20
-121.5739602473842
 30
0.0
 10
96.85541864012352
 20
-121.5739602473842
 30
0.0
 10
96.85541864012352
 20
-121.5739602473842
 30
0.0
 10
84.56675784252226
 20
-121.6325566362586
 30
0.0
 10
84.56675784252226
 20
-121.6325566362586
 30
0.0
 10
84.56675784252226
 20
-121.6325566362586
 30
0.0
 10
82.65611344682242
 20
-123.6313955246479
 30
0.0
 10
82.65611344682242
 20
-123.6313955246479
 30
0.0
 10
82.65611344682242
 20
-123.6313955246479
 30
0.0
 10
83.80264119534984
 20
-123.9841733023375
 30
0.0
 10
83.44986342657218
 20
-125.0425066354062
 30
0.0
 10
83.44986342657218
 20
-125.0425066354062
 30
0.0
 10
83.24384120960602
 20
-125.8954880240816
 30
0.0
 10
81.68597458268384
 20
-125.6309046908145
 30
0.0
 10
81.68597458268384
 20
-125.6309046908145
 30
0.0
 10
81.71525513749238
 20
-123.6313955246479
 30
0.0
 10
81.71525513749238
 20
-123.6313955246479
 30
0.0
 10
81.71525513749238
 20
-123.6313955246479
 30
0.0
 10
81.71525513749238
 20
-123.0140344136911
 30
0.0
 10
82.30333567804476
 20
-122.5145010804826
 30
0.0
 10
82.30333567804476
 20
-122.5145010804826
 30
0.0
 10
83.24384120960602
 20
-121.5147288585104
 30
0.0
 10
83.24384120960602
 20
-121.5147288585104
 30
0.0
 10
83.24384120960602
 20
-121.5147288585104
 30
0.0
 10
84.30217451593902
 20
-120.4860288587675
 30
0.0
 10
85.1255578282661
 20
-120.6327844142864
 30
0.0
  0
POLYLINE
  5
4A
330
1F
100
AcDbEntity
  8
_U+30EC_U+30A4_U+30E4_U+30FC 1
 62
     7
420
 16777215
370
     9
100
AcDb2dPolyline
 66
     1
 10
0.0
 20
0.0
 30
0.0
  0
VERTEX
  5
4B
330
4A
100
AcDbEntity
  8
_U+30EC_U+30A4_U+30E4_U+30FC 1
 62
     7
420
 16777215
370
     9
100
AcDbVertex
100
AcDb2dVertex
 10
78.71664410288221
 20
-122.4263066360602
 30
0.0
  0
VERTEX
  5
4C
330
4A
100
AcDbEntity
  8
_U+30EC_U+30A4_U+30E4_U+30FC 1
 62
     7
420
 16777215
370
     9
100
AcDbVertex
100
AcDb2dVertex
 10
78.71664410288221
 20
-120.6038213587379
 30
0.0
  0
VERTEX
  5
4D
330
4A
100
AcDbEntity
  8
_U+30EC_U+30A4_U+30E4_U+30FC 1
 62
     7
420
 16777215
370
     9
100
AcDbVertex
100
AcDb2dVertex
 10
83.18528009998892
 20
-120.6038213587379
 30
0.0
  0
SEQEND
  5
4E
330
4A
100
AcDbEntity
  8
_U+30EC_U+30A4_U+30E4_U+30FC 1
 62
     7
420
 16777215
370
     9
  0
POLYLINE
  5
4F
330
1F
100
AcDbEntity
  8
_U+30EC_U+30A4_U+30E4_U+30FC 1
 62
     7
420
 16777215
370
     9
100
AcDb2dPolyline
 66
     1
 10
0.0
 20
0.0
 30
0.0
  0
VERTEX
  5
50
330
4F
100
AcDbEntity
  8
_U+30EC_U+30A4_U+30E4_U+30FC 1
 62
     7
420
 16777215
370
     9
100
AcDbVertex
100
AcDb2dVertex
 10
78.74627743545953
 20
-123.8670158023666
 30
0.0
  0
VERTEX
  5
51
330
4F
100
AcDbEntity
  8
_U+30EC_U+30A4_U+30E4_U+30FC 1
 62
     7
420
 16777215
370
     9
100
AcDbVertex
100
AcDb2dVertex
 10
78.74627743545953
 20
-125.6895010796888
 30
0.0
  0
VERTEX
  5
52
330
4F
100
AcDbEntity
  8
_U+30EC_U+30A4_U+30E4_U+30FC 1
 62
     7
420
 16777215
370
     9
100
AcDbVertex
100
AcDb2dVertex
 10
80.56872738896496
 20
-125.6895010796888
 30
0.0
  0
SEQEND
  5
53
330
4F
100
AcDbEntity
  8
_U+30EC_U+30A4_U+30E4_U+30FC 1
 62
     7
420
 16777215
370
     9
  0
POLYLINE
  5
54
330
1F
100
AcDbEntity
  8
_U+30EC_U+30A4_U+30E4_U+30FC 1
 62
     7
420
 16777215
370
     9
100
AcDb2dPolyline
 66
     1
 10
0.0
 20
0.0
 30
0.0
  0
VERTEX
  5
55
330
54
100
AcDbEntity
  8
_U+30EC_U+30A4_U+30E4_U+30FC 1
 62
     7
420
 16777215
370
     9
100
AcDbVertex
100
AcDb2dVertex
 10
81.71525513749238
 20
-127.1302102459952
 30
0.0
  0
VERTEX
  5
56
330
54
100
AcDbEntity
  8
_U+30EC_U+30A4_U+30E4_U+30FC 1
 62
     7
420
 16777215
370
     9
100
AcDbVertex
100
AcDb2dVertex
 10
81.71525513749238
 20
-131.1575566338774
 30
0.0
  0
VERTEX
  5
57
330
54
100
AcDbEntity
  8
_U+30EC_U+30A4_U+30E4_U+30FC 1
 62
     7
420
 16777215
370
     9
100
AcDbVertex
100
AcDb2dVertex
 10
89.27069661140368
 20
-131.1575566338774
 30
0.0
  0
SEQEND
  5
58
330
54
100
AcDbEntity
  8
_U+30EC_U+30A4_U+30E4_U+30FC 1
 62
     7
420
 16777215
370
     9
  0
POLYLINE
  5
59
330
1F
100
AcDbEntity
  8
_U+30EC_U+30A4_U+30E4_U+30FC 1
 62
     7
420
 16777215
370
     9
100
AcDb2dPolyline
 66
     1
 10
0.0
 20
0.0
 30
0.0
  0
VERTEX
  5
5A
330
59
100
AcDbEntity
  8
_U+30EC_U+30A4_U+30E4_U+30FC 1
 62
     7
420
 16777215
370
     9
100
AcDbVertex
100
AcDb2dVertex
 10
92.29894097859118
 20
-131.098960245003
 30
0.0
  0
VERTEX
  5
5B
330
59
100
AcDbEntity
  8
_U+30EC_U+30A4_U+30E4_U+30FC 1
 62
     7
420
 16777215
370
     9
100
AcDbVertex
100
AcDb2dVertex
 10
99.7954685651166
 20
-131.098960245003
 30
0.0
  0
VERTEX
  5
5C
330
59
100
AcDbEntity
  8
_U+30EC_U+30A4_U+30E4_U+30FC 1
 62
     7
420
 16777215
370
     9
100
AcDbVertex
100
AcDb2dVertex
 10
99.7954685651166
 20
-127.0709788571213
 30
0.0
  0
SEQEND
  5
5D
330
59
100
AcDbEntity
  8
_U+30EC_U+30A4_U+30E4_U+30FC 1
 62
     7
420
 16777215
370
     9
  0
POLYLINE
  5
5E
330
1F
100
AcDbEntity
  8
_U+30EC_U+30A4_U+30E4_U+30FC 1
 62
     7
420
 16777215
370
     9
100
AcDb2dPolyline
 66
     1
 10
0.0
 20
0.0
 30
0.0
  0
VERTEX
  5
5F
330
5E
100
AcDbEntity
  8
_U+30EC_U+30A4_U+30E4_U+30FC 1
 62
     7
420
 16777215
370
     9
100
AcDbVertex
100
AcDb2dVertex
 10
92.23967431343652
 20
-129.0704880232879
 30
0.0
  0
VERTEX
  5
60
330
5E
100
AcDbEntity
  8
_U+30EC_U+30A4_U+30E4_U+30FC 1
 62
     7
420
 16777215
370
     9
100
AcDbVertex
100
AcDb2dVertex
 10
96.79685753050643
 20
-129.0704880232879
 30
0.0
  0
VERTEX
  5
61
330
5E
100
AcDbEntity
  8
_U+30EC_U+30A4_U+30E4_U+30FC 1
 62
     7
420
 16777215
370
     9
100
AcDbVertex
100
AcDb2dVertex
 10
96.79685753050643
 20
-127.0709788571213
 30
0.0
  0
SEQEND
  5
62
330
5E
100
AcDbEntity
  8
_U+30EC_U+30A4_U+30E4_U+30FC 1
 62
     7
420
 16777215
370
     9
  0
POLYLINE
  5
63
330
1F
100
AcDbEntity
  8
_U+30EC_U+30A4_U+30E4_U+30FC 1
 62
     7
420
 16777215
370
     9
100
AcDb2dPolyline
 66
     1
 10
0.0
 20
0.0
 30
0.0
  0
VERTEX
  5
64
330
63
100
AcDbEntity
  8
_U+30EC_U+30A4_U+30E4_U+30FC 1
 62
     7
420
 16777215
370
     9
100
AcDbVertex
100
AcDb2dVertex
 10
89.27069661140368
 20
-129.0994510788361
 30
0.0
  0
VERTEX
  5
65
330
63
100
AcDbEntity
  8
_U+30EC_U+30A4_U+30E4_U+30FC 1
 62
     7
420
 16777215
370
     9
100
AcDbVertex
100
AcDb2dVertex
 10
84.684585617294
 20
-129.0994510788361
 30
0.0
  0
VERTEX
  5
66
330
63
100
AcDbEntity
  8
_U+30EC_U+30A4_U+30E4_U+30FC 1
 62
     7
420
 16777215
370
     9
100
AcDbVertex
100
AcDb2dVertex
 10
84.684585617294
 20
-127.1302102459952
 30
0.0
  0
SEQEND
  5
67
330
63
100
AcDbEntity
  8
_U+30EC_U+30A4_U+30E4_U+30FC 1
 62
     7
420
 16777215
370
     9
  0
SPLINE
  5
68
330
1F
100
AcDbEntity
  8
_U+30EC_U+30A4_U+30E4_U+30FC 1
 62
     7
420
 16777215
370
     9
100
AcDbSpline
210
0.0
220
0.0
230
1.0
 70
    11
 71
     3
 72
    17
 73
    13
 74
     0
 42
0.0000000001
 43
0.0000000001
 12
1.0
 22
0.0
 32
0.0
 13
1.0
 23
0.0
 33
0.0
 40
0.0
 40
0.0
 40
0.0
 40
0.0
 40
1.0
 40
1.0
 40
1.0
 40
2.0
 40
2.0
 40
2.0
 40
3.0
 40
3.0
 40
3.0
 40
4.0
 40
4.0
 40
4.0
 40
4.0
 10
99.88366300731101
 20
-131.069362189455
 30
0.0
 10
99.88366300731101
 20
-131.1182571894428
 30
0.0
 10
99.8436932861085
 20
-131.1575566338774
 30
0.0
 10
99.7954685651166
 20
-131.1575566338774
 30
0.0
 10
99.74653828858713
 20
-131.1575566338774
 30
0.0
 10
99.70727412292219
 20
-131.1182571894428
 30
0.0
 10
99.70727412292219
 20
-131.069362189455
 30
0.0
 10
99.70727412292219
 20
-131.0207846894667
 30
0.0
 10
99.74653828858713
 20
-130.9811677450326
 30
0.0
 10
99.7954685651166
 20
-130.9811677450326
 30
0.0
 10
99.8436932861085
 20
-130.9811677450326
 30
0.0
 10
99.88366300731101
 20
-131.0207846894667
 30
0.0
 10
99.88366300731101
 20
-131.069362189455
 30
0.0
  0
HATCH
  5
69
330
1F
100
AcDbEntity
  8
_U+30EC_U+30A4_U+30E4_U+30FC 1
 62
     7
420
 16777215
100
AcDbHatch
 10
0.0
 20
0.0
 30
0.0
210
0.0
220
0.0
230
1.0
  2
SOLID
 70
     1
 71
     0
 91
        1
 92
        1
 93
        1
 72
     4
 94
        3
 73
     0
 74
     1
 95
       17
 96
       13
 40
0.0
 40
0.0
 40
0.0
 40
0.0
 40
1.0
 40
1.0
 40
1.0
 40
2.0
 40
2.0
 40
2.0
 40
3.0
 40
3.0
 40
3.0
 40
4.0
 40
4.0
 40
4.0
 40
4.0
 10
99.88366300731101
 20
-131.069362189455
 10
99.88366300731101
 20
-131.1182571894428
 10
99.8436932861085
 20
-131.1575566338774
 10
99.7954685651166
 20
-131.1575566338774
 10
99.74653828858713
 20
-131.1575566338774
 10
99.70727412292219
 20
-131.1182571894428
 10
99.70727412292219
 20
-131.069362189455
 10
99.70727412292219
 20
-131.0207846894667
 10
99.74653828858713
 20
-130.9811677450326
 10
99.7954685651166
 20
-130.9811677450326
 10
99.8436932861085
 20
-130.9811677450326
 10
99.88366300731101
 20
-131.0207846894667
 10
99.88366300731101
 20
-131.069362189455
 97
        0
 97
        0
 75
     2
 76
     1
 98
        0
  0
SPLINE
  5
6A
330
1F
100
AcDbEntity
  8
_U+30EC_U+30A4_U+30E4_U+30FC 1
 62
     7
420
 16777215
370
     9
100
AcDbSpline
210
0.0
220
0.0
230
1.0
 70
    11
 71
     3
 72
    17
 73
    13
 74
     0
 42
0.0000000001
 43
0.0000000001
 12
1.0
 22
0.0
 32
0.0
 13
1.0
 23
0.0
 33
0.0
 40
0.0
 40
0.0
 40
0.0
 40
0.0
 40
1.0
 40
1.0
 40
1.0
 40
2.0
 40
2.0
 40
2.0
 40
3.0
 40
3.0
 40
3.0
 40
4.0
 40
4.0
 40
4.0
 40
4.0
 10
81.8034495796868
 20
-131.069362189455
 30
0.0
 10
81.8034495796868
 20
-131.1182571894428
 30
0.0
 10
81.76418541402185
 20
-131.1575566338774
 30
0.0
 10
81.71525513749238
 20
-131.1575566338774
 30
0.0
 10
81.66632486096292
 20
-131.1575566338774
 30
0.0
 10
81.62706069529797
 20
-131.1182571894428
 30
0.0
 10
81.62706069529797
 20
-131.069362189455
 30
0.0
 10
81.62706069529797
 20
-131.0207846894667
 30
0.0
 10
81.66632486096292
 20
-130.9811677450326
 30
0.0
 10
81.71525513749238
 20
-130.9811677450326
 30
0.0
 10
81.76418541402185
 20
-130.9811677450326
 30
0.0
 10
81.8034495796868
 20
-131.0207846894667
 30
0.0
 10
81.8034495796868
 20
-131.069362189455
 30
0.0
  0
HATCH
  5
6B
330
1F
100
AcDbEntity
  8
_U+30EC_U+30A4_U+30E4_U+30FC 1
 62
     7
420
 16777215
100
AcDbHatch
 10
0.0
 20
0.0
 30
0.0
210
0.0
220
0.0
230
1.0
  2
SOLID
 70
     1
 71
     0
 91
        1
 92
        1
 93
        1
 72
     4
 94
        3
 73
     0
 74
     1
 95
       17
 96
       13
 40
0.0
 40
0.0
 40
0.0
 40
0.0
 40
1.0
 40
1.0
 40
1.0
 40
2.0
 40
2.0
 40
2.0
 40
3.0
 40
3.0
 40
3.0
 40
4.0
 40
4.0
 40
4.0
 40
4.0
 10
81.8034495796868
 20
-131.069362189455
 10
81.8034495796868
 20
-131.1182571894428
 10
81.76418541402185
 20
-131.1575566338774
 10
81.71525513749238
 20
-131.1575566338774
 10
81.66632486096292
 20
-131.1575566338774
 10
81.62706069529797
 20
-131.1182571894428
 10
81.62706069529797
 20
-131.069362189455
 10
81.62706069529797
 20
-131.0207846894667
 10
81.66632486096292
 20
-130.9811677450326
 10
81.71525513749238
 20
-130.9811677450326
 10
81.76418541402185
 20
-130.9811677450326
 10
81.8034495796868
 20
-131.0207846894667
 10
81.8034495796868
 20
-131.069362189455
 97
        0
 97
        0
 75
     2
 76
     1
 98
        0
  0
SPLINE
  5
6C
330
1F
100
AcDbEntity
  8
_U+30EC_U+30A4_U+30E4_U+30FC 1
 62
     7
420
 16777215
370
     9
100
AcDbSpline
210
0.0
220
0.0
230
1.0
 70
    11
 71
     3
 72
    17
 73
    13
 74
     0
 42
0.0000000001
 43
0.0000000001
 12
1.0
 22
0.0
 32
0.0
 13
1.0
 23
0.0
 33
0.0
 40
0.0
 40
0.0
 40
0.0
 40
0.0
 40
1.0
 40
1.0
 40
1.0
 40
2.0
 40
2.0
 40
2.0
 40
3.0
 40
3.0
 40
3.0
 40
4.0
 40
4.0
 40
4.0
 40
4.0
 10
84.78449442324826
 20
-129.0408899677399
 30
0.0
 10
84.78449442324826
 20
-129.0897849677277
 30
0.0
 10
84.74522811574688
 20
-129.1290844121623
 30
0.0
 10
84.69629997882586
 20
-129.1290844121623
 30
0.0
 10
84.64772034045674
 20
-129.1290844121623
 30
0.0
 10
84.60810553440348
 20
-129.0897849677277
 30
0.0
 10
84.60810553440348
 20
-129.0408899677399
 30
0.0
 10
84.60810553440348
 20
-128.9919596899745
 30
0.0
 10
84.64772034045674
 20
-128.9526955233175
 30
0.0
 10
84.69629997882586
 20
-128.9526955233175
 30
0.0
 10
84.74522811574688
 20
-128.9526955233175
 30
0.0
 10
84.78449442324826
 20
-128.9919596899745
 30
0.0
 10
84.78449442324826
 20
-129.0408899677399
 30
0.0
  0
HATCH
  5
6D
330
1F
100
AcDbEntity
  8
_U+30EC_U+30A4_U+30E4_U+30FC 1
 62
     7
420
 16777215
100
AcDbHatch
 10
0.0
 20
0.0
 30
0.0
210
0.0
220
0.0
230
1.0
  2
SOLID
 70
     1
 71
     0
 91
        1
 92
        1
 93
        1
 72
     4
 94
        3
 73
     0
 74
     1
 95
       17
 96
       13
 40
0.0
 40
0.0
 40
0.0
 40
0.0
 40
1.0
 40
1.0
 40
1.0
 40
2.0
 40
2.0
 40
2.0
 40
3.0
 40
3.0
 40
3.0
 40
4.0
 40
4.0
 40
4.0
 40
4.0
 10
84.78449442324826
 20
-129.0408899677399
 10
84.78449442324826
 20
-129.0897849677277
 10
84.74522811574688
 20
-129.1290844121623
 10
84.69629997882586
 20
-129.1290844121623
 10
84.64772034045674
 20
-129.1290844121623
 10
84.60810553440348
 20
-129.0897849677277
 10
84.60810553440348
 20
-129.0408899677399
 10
84.60810553440348
 20
-128.9919596899745
 10
84.64772034045674
 20
-128.9526955233175
 10
84.69629997882586
 20
-128.9526955233175
 10
84.74522811574688
 20
-128.9526955233175
 10
84.78449442324826
 20
-128.9919596899745
 10
84.78449442324826
 20
-129.0408899677399
 97
        0
 97
        0
 75
     2
 76
     1
 98
        0
  0
SPLINE
  5
6E
330
1F
100
AcDbEntity
  8
_U+30EC_U+30A4_U+30E4_U+30FC 1
 62
     7
420
 16777215
370
     9
100
AcDbSpline
210
0.0
220
0.0
230
1.0
 70
    11
 71
     3
 72
    17
 73
    13
 74
     0
 42
0.0000000001
 43
0.0000000001
 12
1.0
 22
0.0
 32
0.0
 13
1.0
 23
0.0
 33
0.0
 40
0.0
 40
0.0
 40
0.0
 40
0.0
 40
1.0
 40
1.0
 40
1.0
 40
2.0
 40
2.0
 40
2.0
 40
3.0
 40
3.0
 40
3.0
 40
4.0
 40
4.0
 40
4.0
 40
4.0
 10
78.83447187765395
 20
-120.6327844142864
 30
0.0
 10
78.83447187765395
 20
-120.6816794142739
 30
0.0
 10
78.79517243421212
 20
-120.7209788587088
 30
0.0
 10
78.74627743545953
 20
-120.7209788587088
 30
0.0
 10
78.69734715893007
 20
-120.7209788587088
 30
0.0
 10
78.65808299326513
 20
-120.6816794142739
 30
0.0
 10
78.65808299326513
 20
-120.6327844142864
 30
0.0
 10
78.65808299326513
 20
-120.5842069142985
 30
0.0
 10
78.69734715893007
 20
-120.544589969864
 30
0.0
 10
78.74627743545953
 20
-120.544589969864
 30
0.0
 10
78.79517243421212
 20
-120.544589969864
 30
0.0
 10
78.83447187765395
 20
-120.5842069142985
 30
0.0
 10
78.83447187765395
 20
-120.6327844142864
 30
0.0
  0
HATCH
  5
6F
330
1F
100
AcDbEntity
  8
_U+30EC_U+30A4_U+30E4_U+30FC 1
 62
     7
420
 16777215
100
AcDbHatch
 10
0.0
 20
0.0
 30
0.0
210
0.0
220
0.0
230
1.0
  2
SOLID
 70
     1
 71
     0
 91
        1
 92
        1
 93
        1
 72
     4
 94
        3
 73
     0
 74
     1
 95
       17
 96
       13
 40
0.0
 40
0.0
 40
0.0
 40
0.0
 40
1.0
 40
1.0
 40
1.0
 40
2.0
 40
2.0
 40
2.0
 40
3.0
 40
3.0
 40
3.0
 40
4.0
 40
4.0
 40
4.0
 40
4.0
 10
78.83447187765395
 20
-120.6327844142864
 10
78.83447187765395
 20
-120.6816794142739
 10
78.79517243421212
 20
-120.7209788587088
 10
78.74627743545953
 20
-120.7209788587088
 10
78.69734715893007
 20
-120.7209788587088
 10
78.65808299326513
 20
-120.6816794142739
 10
78.65808299326513
 20
-120.6327844142864
 10
78.65808299326513
 20
-120.5842069142985
 10
78.69734715893007
 20
-120.544589969864
 10
78.74627743545953
 20
-120.544589969864
 10
78.79517243421212
 20
-120.544589969864
 10
78.83447187765395
 20
-120.5842069142985
 10
78.83447187765395
 20
-120.6327844142864
 97
        0
 97
        0
 75
     2
 76
     1
 98
        0
  0
SPLINE
  5
70
330
1F
100
AcDbEntity
  8
_U+30EC_U+30A4_U+30E4_U+30FC 1
 62
     7
420
 16777215
370
     9
100
AcDbSpline
210
0.0
220
0.0
230
1.0
 70
    11
 71
     3
 72
    17
 73
    13
 74
     0
 42
0.0000000001
 43
0.0000000001
 12
1.0
 22
0.0
 32
0.0
 13
1.0
 23
0.0
 33
0.0
 40
0.0
 40
0.0
 40
0.0
 40
0.0
 40
1.0
 40
1.0
 40
1.0
 40
2.0
 40
2.0
 40
2.0
 40
3.0
 40
3.0
 40
3.0
 40
4.0
 40
4.0
 40
4.0
 40
4.0
 10
78.83447187765395
 20
-125.6309046908145
 30
0.0
 10
78.83447187765395
 20
-125.6794821908024
 30
0.0
 10
78.79517243421212
 20
-125.7190991352369
 30
0.0
 10
78.74627743545953
 20
-125.7190991352369
 30
0.0
 10
78.69734715893007
 20
-125.7190991352369
 30
0.0
 10
78.65808299326513
 20
-125.6794821908024
 30
0.0
 10
78.65808299326513
 20
-125.6309046908145
 30
0.0
 10
78.65808299326513
 20
-125.5820096908266
 30
0.0
 10
78.69734715893007
 20
-125.5427102463921
 30
0.0
 10
78.74627743545953
 20
-125.5427102463921
 30
0.0
 10
78.79517243421212
 20
-125.5427102463921
 30
0.0
 10
78.83447187765395
 20
-125.5820096908266
 30
0.0
 10
78.83447187765395
 20
-125.6309046908145
 30
0.0
  0
HATCH
  5
71
330
1F
100
AcDbEntity
  8
_U+30EC_U+30A4_U+30E4_U+30FC 1
 62
     7
420
 16777215
100
AcDbHatch
 10
0.0
 20
0.0
 30
0.0
210
0.0
220
0.0
230
1.0
  2
SOLID
 70
     1
 71
     0
 91
        1
 92
        1
 93
        1
 72
     4
 94
        3
 73
     0
 74
     1
 95
       17
 96
       13
 40
0.0
 40
0.0
 40
0.0
 40
0.0
 40
1.0
 40
1.0
 40
1.0
 40
2.0
 40
2.0
 40
2.0
 40
3.0
 40
3.0
 40
3.0
 40
4.0
 40
4.0
 40
4.0
 40
4.0
 10
78.83447187765395
 20
-125.6309046908145
 10
78.83447187765395
 20
-125.6794821908024
 10
78.79517243421212
 20
-125.7190991352369
 10
78.74627743545953
 20
-125.7190991352369
 10
78.69734715893007
 20
-125.7190991352369
 10
78.65808299326513
 20
-125.6794821908024
 10
78.65808299326513
 20
-125.6309046908145
 10
78.65808299326513
 20
-125.5820096908266
 10
78.69734715893007
 20
-125.5427102463921
 10
78.74627743545953
 20
-125.5427102463921
 10
78.79517243421212
 20
-125.5427102463921
 10
78.83447187765395
 20
-125.5820096908266
 10
78.83447187765395
 20
-125.6309046908145
 97
        0
 97
        0
 75
     2
 76
     1
 98
        0
  0
SPLINE
  5
72
330
1F
100
AcDbEntity
  8
_U+30EC_U+30A4_U+30E4_U+30FC 1
 62
     7
420
 16777215
370
     9
100
AcDbSpline
210
0.0
220
0.0
230
1.0
 70
    11
 71
     3
 72
    17
 73
    13
 74
     0
 42
0.0000000001
 43
0.0000000001
 12
1.0
 22
0.0
 32
0.0
 13
1.0
 23
0.0
 33
0.0
 40
0.0
 40
0.0
 40
0.0
 40
0.0
 40
1.0
 40
1.0
 40
1.0
 40
2.0
 40
2.0
 40
2.0
 40
3.0
 40
3.0
 40
3.0
 40
4.0
 40
4.0
 40
4.0
 40
4.0
 10
96.79685753050643
 20
-129.0704880232879
 30
0.0
 10
96.79685753050643
 20
-129.1190655232755
 30
0.0
 10
96.7575580870646
 20
-129.1586824677103
 30
0.0
 10
96.70866308831201
 20
-129.1586824677103
 30
0.0
 10
96.65973281178255
 20
-129.1586824677103
 30
0.0
 10
96.6204686461176
 20
-129.1190655232755
 30
0.0
 10
96.6204686461176
 20
-129.0704880232879
 30
0.0
 10
96.6204686461176
 20
-129.0215930233001
 30
0.0
 10
96.65973281178255
 20
-128.9822935788655
 30
0.0
 10
96.70866308831201
 20
-128.9822935788655
 30
0.0
 10
96.7575580870646
 20
-128.9822935788655
 30
0.0
 10
96.79685753050643
 20
-129.0215930233001
 30
0.0
 10
96.79685753050643
 20
-129.0704880232879
 30
0.0
  0
HATCH
  5
73
330
1F
100
AcDbEntity
  8
_U+30EC_U+30A4_U+30E4_U+30FC 1
 62
     7
420
 16777215
100
AcDbHatch
 10
0.0
 20
0.0
 30
0.0
210
0.0
220
0.0
230
1.0
  2
SOLID
 70
     1
 71
     0
 91
        1
 92
        1
 93
        1
 72
     4
 94
        3
 73
     0
 74
     1
 95
       17
 96
       13
 40
0.0
 40
0.0
 40
0.0
 40
0.0
 40
1.0
 40
1.0
 40
1.0
 40
2.0
 40
2.0
 40
2.0
 40
3.0
 40
3.0
 40
3.0
 40
4.0
 40
4.0
 40
4.0
 40
4.0
 10
96.79685753050643
 20
-129.0704880232879
 10
96.79685753050643
 20
-129.1190655232755
 10
96.7575580870646
 20
-129.1586824677103
 10
96.70866308831201
 20
-129.1586824677103
 10
96.65973281178255
 20
-129.1586824677103
 10
96.6204686461176
 20
-129.1190655232755
 10
96.6204686461176
 20
-129.0704880232879
 10
96.6204686461176
 20
-129.0215930233001
 10
96.65973281178255
 20
-128.9822935788655
 10
96.70866308831201
 20
-128.9822935788655
 10
96.7575580870646
 20
-128.9822935788655
 10
96.79685753050643
 20
-129.0215930233001
 10
96.79685753050643
 20
-129.0704880232879
 97
        0
 97
        0
 75
     2
 76
     1
 98
        0
  0
INSERT
  5
75
330
1F
100
AcDbEntity
  8
_U+30EC_U+30A4_U+30E4_U+30FC 1
100
AcDbBlockReference
  2
block 2
 10
0.0
 20
0.0
 30
0.0
  0
INSERT
  5
7D
330
1F
100
AcDbEntity
  8
_U+30EC_U+30A4_U+30E4_U+30FC 1
100
AcDbBlockReference
  2
block 3
 10
0.0
 20
0.0
 30
0.0
  0
INSERT
  5
87
330
1F
100
AcDbEntity
  8
_U+30EC_U+30A4_U+30E4_U+30FC 1
100
AcDbBlockReference
  2
block 4
 10
0.0
 20
0.0
 30
0.0
  0
POLYLINE
  5
8C
330
1F
100
AcDbEntity
  8
_U+30EC_U+30A4_U+30E4_U+30FC 1
  6
AI-Linetype-1
 62
   154
420
    23468
370
    25
100
AcDb2dPolyline
 66
     1
 10
0.0
 20
0.0
 30
0.0
  0
VERTEX
  5
8D
330
8C
100
AcDbEntity
  8
_U+30EC_U+30A4_U+30E4_U+30FC 1
  6
AI-Linetype-1
 62
   154
420
    23468
370
    25
100
AcDbVertex
100
AcDb2dVertex
 10
84.85130839081833
 20
-126.3957269128454
 30
0.0
  0
VERTEX
  5
8E
330
8C
100
AcDbEntity
  8
_U+30EC_U+30A4_U+30E4_U+30FC 1
  6
AI-Linetype-1
 62
   154
420
    23468
370
    25
100
AcDbVertex
100
AcDb2dVertex
 10
96.85129114022882
 20
-126.3957269128454
 30
0.0
  0
SEQEND
  5
90
330
8C
100
AcDbEntity
  8
_U+30EC_U+30A4_U+30E4_U+30FC 1
  6
AI-Linetype-1
 62
   154
420
    23468
370
    25
  0
INSERT
  5
92
330
1F
100
AcDbEntity
  8
_U+30EC_U+30A4_U+30E4_U+30FC 1
100
AcDbBlockReference
  2
block 5
 10
0.0
 20
0.0
 30
0.0
  0
POLYLINE
  5
C5
330
1F
100
AcDbEntity
  8
_U+30EC_U+30A4_U+30E4_U+30FC 1
 62
     7
420
 16777215
370
     9
100
AcDb2dPolyline
 66
     1
 10
0.0
 20
0.0
 30
0.0
  0
VERTEX
  5
C6
330
C5
100
AcDbEntity
  8
_U+30EC_U+30A4_U+30E4_U+30FC 1
 62
     7
420
 16777215
370
     9
100
AcDbVertex
100
AcDb2dVertex
 10
93.56294372412155
 20
-126.7068063572121
 30
0.0
  0
VERTEX
  5
C7
330
C5
100
AcDbEntity
  8
_U+30EC_U+30A4_U+30E4_U+30FC 1
 62
     7
420
 16777215
370
     9
100
AcDbVertex
100
AcDb2dVertex
 10
97.66398528616193
 20
-133.2772924666809
 30
0.0
  0
SEQEND
  5
C8
330
C5
100
AcDbEntity
  8
_U+30EC_U+30A4_U+30E4_U+30FC 1
 62
     7
420
 16777215
370
     9
  0
ENDSEC
  0
SECTION
  2
OBJECTS
  0
DICTIONARY
  5
C
330
0
100
AcDbDictionary
281
     1
  3
ACAD_GROUP
350
D
  3
ACAD_LAYOUT
350
1A
  3
ACAD_MATERIAL
350
3B
  3
ACAD_MLEADERSTYLE
350
CA
  3
ACAD_MLINESTYLE
350
17
  3
ACAD_PLOTSETTINGS
350
19
  3
ACAD_PLOTSTYLENAME
350
E
  3
ACAD_TABLESTYLE
350
C9
  3
ACAD_VISUALSTYLE
350
2A
  0
SUN
  5
3F
330
29
100
AcDbSun
 90
        1
290
     0
 63
     7
421
 16777215
 40
1.0
291
     1
 91
  2455826
 92
 54000000
292
     0
 70
     2
 71
   256
280
     1
  0
DICTIONARY
  5
D
102
{ACAD_REACTORS
330
C
102
}
330
C
100
AcDbDictionary
281
     1
  0
DICTIONARY
  5
1A
102
{ACAD_REACTORS
330
C
102
}
330
C
100
AcDbDictionary
281
     1
  3
Layout1
350
1E
  3
Layout2
350
26
  3
Model
350
22
  0
DICTIONARY
  5
3B
102
{ACAD_REACTORS
330
C
102
}
330
C
100
AcDbDictionary
281
     1
  3
ByBlock
350
3D
  3
ByLayer
350
3C
  3
Global
350
3E
  0
DICTIONARY
  5
CA
102
{ACAD_REACTORS
330
C
102
}
330
C
100
AcDbDictionary
281
     1
  0
DICTIONARY
  5
17
102
{ACAD_REACTORS
330
C
102
}
330
C
100
AcDbDictionary
281
     1
  3
Standard
350
18
  0
DICTIONARY
  5
19
102
{ACAD_REACTORS
330
C
102
}
330
C
100
AcDbDictionary
281
     1
  0
ACDBDICTIONARYWDFLT
  5
E
102
{ACAD_REACTORS
330
C
102
}
330
C
100
AcDbDictionary
281
     1
  3
Normal
350
F
100
AcDbDictionaryWithDefault
340
F
  0
DICTIONARY
  5
C9
102
{ACAD_REACTORS
330
C
102
}
330
C
100
AcDbDictionary
281
     1
  0
DICTIONARY
  5
2A
102
{ACAD_REACTORS
330
C
102
}
330
C
100
AcDbDictionary
281
     1
  3
2dWireframe
350
2F
  3
3D Hidden
350
31
  3
3dWireframe
350
30
  3
Basic
350
32
  3
Brighten
350
36
  3
ColorChange
350
3A
  3
Conceptual
350
34
  3
Dim
350
35
  3
Facepattern
350
39
  3
Flat
350
2B
  3
FlatWithEdges
350
2C
  3
Gouraud
350
2D
  3
GouraudWithEdges
350
2E
  3
Linepattern
350
38
  3
Realistic
350
33
  3
Thicken
350
37
  0
LAYOUT
  5
1E
102
{ACAD_REACTORS
330
1A
102
}
330
1A
100
AcDbPlotSettings
  1

  2
none_device
  4

  6

 40
0.0
 41
0.0
 42
0.0
 43
0.0
 44
0.0
 45
0.0
 46
0.0
 47
0.0
 48
0.0
 49
0.0
140
0.0
141
0.0
142
1.0
143
1.0
 70
   688
 72
     0
 73
     0
 74
     5
  7

 75
    16
 76
     0
 77
     2
 78
   300
147
1.0
148
0.0
149
0.0
100
AcDbLayout
  1
Layout1
 70
     1
 71
     1
 10
0.0
 20
0.0
 11
12.0
 21
9.0
 12
0.0
 22
0.0
 32
0.0
 14
1.000000000000000E+20
 24
1.000000000000000E+20
 34
1.000000000000000E+20
 15
-1.000000000000000E+20
 25
-1.000000000000000E+20
 35
-1.000000000000000E+20
146
0.0
 13
0.0
 23
0.0
 33
0.0
 16
1.0
 26
0.0
 36
0.0
 17
0.0
 27
1.0
 37
0.0
 76
     0
330
1B
  0
LAYOUT
  5
26
102
{ACAD_REACTORS
330
1A
102
}
330
1A
100
AcDbPlotSettings
  1

  2
none_device
  4

  6

 40
0.0
 41
0.0
 42
0.0
 43
0.0
 44
0.0
 45
0.0
 46
0.0
 47
0.0
 48
0.0
 49
0.0
140
0.0
141
0.0
142
1.0
143
1.0
 70
   688
 72
     0
 73
     0
 74
     5
  7

 75
    16
 76
     0
 77
     2
 78
   300
147
1.0
148
0.0
149
0.0
100
AcDbLayout
  1
Layout2
 70
     1
 71
     2
 10
0.0
 20
0.0
 11
0.0
 21
0.0
 12
0.0
 22
0.0
 32
0.0
 14
0.0
 24
0.0
 34
0.0
 15
0.0
 25
0.0
 35
0.0
146
0.0
 13
0.0
 23
0.0
 33
0.0
 16
1.0
 26
0.0
 36
0.0
 17
0.0
 27
1.0
 37
0.0
 76
     0
330
23
  0
LAYOUT
  5
22
102
{ACAD_REACTORS
330
1A
102
}
330
1A
100
AcDbPlotSettings
  1

  2
none_device
  4

  6

 40
0.0
 41
0.0
 42
0.0
 43
0.0
 44
0.0
 45
0.0
 46
0.0
 47
0.0
 48
0.0
 49
0.0
140
0.0
141
0.0
142
1.0
143
1.0
 70
  1712
 72
     0
 73
     0
 74
     0
  7

 75
     0
 76
     0
 77
     2
 78
   300
147
1.0
148
0.0
149
0.0
100
AcDbLayout
  1
Model
 70
     1
 71
     0
 10
0.0
 20
0.0
 11
12.0
 21
9.0
 12
0.0
 22
0.0
 32
0.0
 14
1.000000000000000E+20
 24
1.000000000000000E+20
 34
1.000000000000000E+20
 15
-1.000000000000000E+20
 25
-1.000000000000000E+20
 35
-1.000000000000000E+20
146
0.0
 13
0.0
 23
0.0
 33
0.0
 16
1.0
 26
0.0
 36
0.0
 17
0.0
 27
1.0
 37
0.0
 76
     0
330
1F
331
29
  0
MATERIAL
  5
3D
102
{ACAD_REACTORS
330
3B
102
}
330
3B
100
AcDbMaterial
  1
ByBlock
 72
     1
 94
      127
  0
MATERIAL
  5
3C
102
{ACAD_REACTORS
330
3B
102
}
330
3B
100
AcDbMaterial
  1
ByLayer
 72
     1
 94
      127
  0
MATERIAL
  5
3E
102
{ACAD_REACTORS
330
3B
102
}
330
3B
100
AcDbMaterial
  1
Global
 72
     1
 94
      127
  0
MLINESTYLE
  5
18
102
{ACAD_REACTORS
330
17
102
}
330
17
100
AcDbMlineStyle
  2
Standard
 70
     0
  3

 62
   256
 51
90.0
 52
90.0
 71
     2
 49
0.5
 62
   256
  6
BYLAYER
 49
-0.5
 62
   256
  6
BYLAYER
  0
ACDBPLACEHOLDER
  5
F
102
{ACAD_REACTORS
330
E
102
}
330
E
  0
VISUALSTYLE
  5
2F
102
{ACAD_REACTORS
330
2A
102
}
330
2A
100
AcDbVisualStyle
  2
2dWireframe
 70
     4
177
     2
291
     0
 71
     0
176
     1
 72
     2
176
     1
 73
     0
176
     1
 90
        0
176
     1
 40
-0.6
176
     1
 41
-30.0
176
     1
 62
     5
 63
     7
421
 16777215
176
     1
 74
     1
176
     1
 91
        4
176
     1
 64
     7
176
     1
 65
   257
176
     1
 75
     1
176
     1
175
     1
176
     1
 42
1.0
176
     1
 92
        0
176
     1
 66
   257
176
     1
 43
1.0
176
     1
 76
     1
176
     1
 77
     6
176
     1
 78
     2
176
     1
 67
     7
176
     1
 79
     5
176
     1
170
     0
176
     1
171
     0
176
     1
290
     0
176
     1
 93
        1
176
     1
 44
0.0
176
     1
173
     0
176
     1
  0
VISUALSTYLE
  5
31
102
{ACAD_REACTORS
330
2A
102
}
330
2A
100
AcDbVisualStyle
  2
3D Hidden
 70
     6
177
     2
291
     0
 71
     1
176
     1
 72
     2
176
     1
 73
     2
176
     1
 90
        0
176
     1
 40
-0.6
176
     1
 41
-30.0
176
     1
 62
     5
 63
     7
421
 16777215
176
     1
 74
     2
176
     1
 91
        2
176
     1
 64
     7
176
     1
 65
   257
176
     1
 75
     2
176
     1
175
     1
176
     1
 42
40.0
176
     1
 92
        0
176
     1
 66
   257
176
     1
 43
1.0
176
     1
 76
     1
176
     1
 77
     6
176
     1
 78
     2
176
     1
 67
     7
176
     1
 79
     3
176
     1
170
     0
176
     1
171
     0
176
     1
290
     0
176
     1
 93
        1
176
     1
 44
0.0
176
     1
173
     0
176
     1
  0
VISUALSTYLE
  5
30
102
{ACAD_REACTORS
330
2A
102
}
330
2A
100
AcDbVisualStyle
  2
3dWireframe
 70
     5
177
     2
291
     0
 71
     0
176
     1
 72
     2
176
     1
 73
     0
176
     1
 90
        0
176
     1
 40
-0.6
176
     1
 41
-30.0
176
     1
 62
     5
 63
     7
421
 16777215
176
     1
 74
     1
176
     1
 91
        4
176
     1
 64
     7
176
     1
 65
   257
176
     1
 75
     1
176
     1
175
     1
176
     1
 42
1.0
176
     1
 92
        0
176
     1
 66
   257
176
     1
 43
1.0
176
     1
 76
     1
176
     1
 77
     6
176
     1
 78
     2
176
     1
 67
     7
176
     1
 79
     5
176
     1
170
     0
176
     1
171
     0
176
     1
290
     0
176
     1
 93
        1
176
     1
 44
0.0
176
     1
173
     0
176
     1
  0
VISUALSTYLE
  5
32
102
{ACAD_REACTORS
330
2A
102
}
330
2A
100
AcDbVisualStyle
  2
Basic
 70
     7
177
     2
291
     1
 71
     1
176
     1
 72
     0
176
     1
 73
     1
176
     1
 90
        0
176
     1
 40
-0.6
176
     1
 41
-30.0
176
     1
 62
     5
 63
     7
421
 16777215
176
     1
 74
     0
176
     1
 91
        4
176
     1
 64
     7
176
     1
 65
   257
176
     1
 75
     1
176
     1
175
     1
176
     1
 42
1.0
176
     1
 92
        8
176
     1
 66
     7
176
     1
 43
1.0
176
     1
 76
     1
176
     1
 77
     6
176
     1
 78
     2
176
     1
 67
     7
176
     1
 79
     5
176
     1
170
     0
176
     1
171
     0
176
     1
290
     0
176
     1
 93
        1
176
     1
 44
0.0
176
     1
173
     0
176
     1
  0
VISUALSTYLE
  5
36
102
{ACAD_REACTORS
330
2A
102
}
330
2A
100
AcDbVisualStyle
  2
Brighten
 70
    12
177
     2
291
     1
 71
     2
176
     1
 72
     2
176
     1
 73
     0
176
     1
 90
        0
176
     1
 40
-0.6
176
     1
 41
-30.0
176
     1
 62
     5
 63
     7
421
 16777215
176
     1
 74
     1
176
     1
 91
        4
176
     1
 64
     7
176
     1
 65
   257
176
     1
 75
     1
176
     1
175
     1
176
     1
 42
1.0
176
     1
 92
        8
176
     1
 66
     7
176
     1
 43
1.0
176
     1
 76
     1
176
     1
 77
     6
176
     1
 78
     2
176
     1
 67
     7
176
     1
 79
     5
176
     1
170
     0
176
     1
171
     0
176
     1
290
     0
176
     1
 93
        1
176
     1
 44
50.0
176
     1
173
     0
176
     1
  0
VISUALSTYLE
  5
3A
102
{ACAD_REACTORS
330
2A
102
}
330
2A
100
AcDbVisualStyle
  2
ColorChange
 70
    16
177
     2
291
     1
 71
     2
176
     1
 72
     2
176
     1
 73
     3
176
     1
 90
        0
176
     1
 40
-0.6
176
     1
 41
-30.0
176
     1
 62
     5
 63
     8
421
  8421504
176
     1
 74
     1
176
     1
 91
        4
176
     1
 64
     7
176
     1
 65
   257
176
     1
 75
     1
176
     1
175
     1
176
     1
 42
1.0
176
     1
 92
        8
176
     1
 66
     8
424
  8421504
176
     1
 43
1.0
176
     1
 76
     1
176
     1
 77
     6
176
     1
 78
     2
176
     1
 67
     7
176
     1
 79
     5
176
     1
170
     0
176
     1
171
     0
176
     1
290
     0
176
     1
 93
        1
176
     1
 44
0.0
176
     1
173
     0
176
     1
  0
VISUALSTYLE
  5
34
102
{ACAD_REACTORS
330
2A
102
}
330
2A
100
AcDbVisualStyle
  2
Conceptual
 70
     9
177
     2
291
     0
 71
     3
176
     1
 72
     2
176
     1
 73
     0
176
     1
 90
        0
176
     1
 40
-0.6
176
     1
 41
-30.0
176
     1
 62
     5
 63
     7
421
 16777215
176
     1
 74
     2
176
     1
 91
        2
176
     1
 64
     7
176
     1
 65
   257
176
     1
 75
     1
176
     1
175
     1
176
     1
 42
40.0
176
     1
 92
        8
176
     1
 66
     7
176
     1
 43
1.0
176
     1
 76
     1
176
     1
 77
     6
176
     1
 78
     2
176
     1
 67
     7
176
     1
 79
     3
176
     1
170
     0
176
     1
171
     0
176
     1
290
     0
176
     1
 93
        1
176
     1
 44
0.0
176
     1
173
     0
176
     1
  0
VISUALSTYLE
  5
35
102
{ACAD_REACTORS
330
2A
102
}
330
2A
100
AcDbVisualStyle
  2
Dim
 70
    11
177
     2
291
     1
 71
     2
176
     1
 72
     2
176
     1
 73
     0
176
     1
 90
        0
176
     1
 40
-0.6
176
     1
 41
-30.0
176
     1
 62
     5
 63
     7
421
 16777215
176
     1
 74
     1
176
     1
 91
        4
176
     1
 64
     7
176
     1
 65
   257
176
     1
 75
     1
176
     1
175
     1
176
     1
 42
1.0
176
     1
 92
        8
176
     1
 66
     7
176
     1
 43
1.0
176
     1
 76
     1
176
     1
 77
     6
176
     1
 78
     2
176
     1
 67
     7
176
     1
 79
     5
176
     1
170
     0
176
     1
171
     0
176
     1
290
     0
176
     1
 93
        1
176
     1
 44
-50.0
176
     1
173
     0
176
     1
  0
VISUALSTYLE
  5
39
102
{ACAD_REACTORS
330
2A
102
}
330
2A
100
AcDbVisualStyle
  2
Facepattern
 70
    15
177
     2
291
     1
 71
     2
176
     1
 72
     2
176
     1
 73
     0
176
     1
 90
        0
176
     1
 40
-0.6
176
     1
 41
-30.0
176
     1
 62
     5
 63
     7
421
 16777215
176
     1
 74
     1
176
     1
 91
        4
176
     1
 64
     7
176
     1
 65
   257
176
     1
 75
     1
176
     1
175
     1
176
     1
 42
1.0
176
     1
 92
        8
176
     1
 66
     7
176
     1
 43
1.0
176
     1
 76
     1
176
     1
 77
     6
176
     1
 78
     2
176
     1
 67
     7
176
     1
 79
     5
176
     1
170
     0
176
     1
171
     0
176
     1
290
     0
176
     1
 93
        1
176
     1
 44
0.0
176
     1
173
     0
176
     1
  0
VISUALSTYLE
  5
2B
102
{ACAD_REACTORS
330
2A
102
}
330
2A
100
AcDbVisualStyle
  2
Flat
 70
     0
177
     2
291
     1
 71
     2
176
     1
 72
     1
176
     1
 73
     1
176
     1
 90
        2
176
     1
 40
-0.6
176
     1
 41
30.0
176
     1
 62
     5
 63
     7
421
 16777215
176
     1
 74
     0
176
     1
 91
        4
176
     1
 64
     7
176
     1
 65
   257
176
     1
 75
     1
176
     1
175
     1
176
     1
 42
1.0
176
     1
 92
        8
176
     1
 66
     7
176
     1
 43
1.0
176
     1
 76
     1
176
     1
 77
     6
176
     1
 78
     2
176
     1
 67
     7
176
     1
 79
     5
176
     1
170
     0
176
     1
171
     0
176
     1
290
     0
176
     1
 93
       13
176
     1
 44
0.0
176
     1
173
     0
176
     1
  0
VISUALSTYLE
  5
2C
102
{ACAD_REACTORS
330
2A
102
}
330
2A
100
AcDbVisualStyle
  2
FlatWithEdges
 70
     1
177
     2
291
     1
 71
     2
176
     1
 72
     1
176
     1
 73
     1
176
     1
 90
        2
176
     1
 40
-0.6
176
     1
 41
30.0
176
     1
 62
     5
 63
     7
421
 16777215
176
     1
 74
     1
176
     1
 91
        4
176
     1
 64
     7
176
     1
 65
   257
176
     1
 75
     1
176
     1
175
     1
176
     1
 42
1.0
176
     1
 92
        0
176
     1
 66
   257
176
     1
 43
1.0
176
     1
 76
     1
176
     1
 77
     6
176
     1
 78
     2
176
     1
 67
     7
176
     1
 79
     5
176
     1
170
     0
176
     1
171
     0
176
     1
290
     0
176
     1
 93
       13
176
     1
 44
0.0
176
     1
173
     0
176
     1
  0
VISUALSTYLE
  5
2D
102
{ACAD_REACTORS
330
2A
102
}
330
2A
100
AcDbVisualStyle
  2
Gouraud
 70
     2
177
     2
291
     1
 71
     2
176
     1
 72
     2
176
     1
 73
     1
176
     1
 90
        2
176
     1
 40
-0.6
176
     1
 41
30.0
176
     1
 62
     5
 63
     7
421
 16777215
176
     1
 74
     0
176
     1
 91
        4
176
     1
 64
     7
176
     1
 65
   257
176
     1
 75
     1
176
     1
175
     1
176
     1
 42
1.0
176
     1
 92
        0
176
     1
 66
     7
176
     1
 43
1.0
176
     1
 76
     1
176
     1
 77
     6
176
     1
 78
     2
176
     1
 67
     7
176
     1
 79
     5
176
     1
170
     0
176
     1
171
     0
176
     1
290
     0
176
     1
 93
       13
176
     1
 44
0.0
176
     1
173
     0
176
     1
  0
VISUALSTYLE
  5
2E
102
{ACAD_REACTORS
330
2A
102
}
330
2A
100
AcDbVisualStyle
  2
GouraudWithEdges
 70
     3
177
     2
291
     1
 71
     2
176
     1
 72
     2
176
     1
 73
     1
176
     1
 90
        2
176
     1
 40
-0.6
176
     1
 41
30.0
176
     1
 62
     5
 63
     7
421
 16777215
176
     1
 74
     1
176
     1
 91
        4
176
     1
 64
     7
176
     1
 65
   257
176
     1
 75
     1
176
     1
175
     1
176
     1
 42
1.0
176
     1
 92
        0
176
     1
 66
   257
176
     1
 43
1.0
176
     1
 76
     1
176
     1
 77
     6
176
     1
 78
     2
176
     1
 67
     7
176
     1
 79
     5
176
     1
170
     0
176
     1
171
     0
176
     1
290
     0
176
     1
 93
       13
176
     1
 44
0.0
176
     1
173
     0
176
     1
  0
VISUALSTYLE
  5
38
102
{ACAD_REACTORS
330
2A
102
}
330
2A
100
AcDbVisualStyle
  2
Linepattern
 70
    14
177
     2
291
     1
 71
     2
176
     1
 72
     2
176
     1
 73
     0
176
     1
 90
        0
176
     1
 40
-0.6
176
     1
 41
-30.0
176
     1
 62
     5
 63
     7
421
 16777215
176
     1
 74
     1
176
     1
 91
        4
176
     1
 64
     7
176
     1
 65
   257
176
     1
 75
     7
176
     1
175
     7
176
     1
 42
1.0
176
     1
 92
        8
176
     1
 66
     7
176
     1
 43
1.0
176
     1
 76
     1
176
     1
 77
     6
176
     1
 78
     2
176
     1
 67
     7
176
     1
 79
     5
176
     1
170
     0
176
     1
171
     0
176
     1
290
     0
176
     1
 93
        1
176
     1
 44
0.0
176
     1
173
     0
176
     1
  0
VISUALSTYLE
  5
33
102
{ACAD_REACTORS
330
2A
102
}
330
2A
100
AcDbVisualStyle
  2
Realistic
 70
     8
177
     2
291
     0
 71
     2
176
     1
 72
     2
176
     1
 73
     0
176
     1
 90
        0
176
     1
 40
-0.6
176
     1
 41
-30.0
176
     1
 62
     5
 63
     7
421
 16777215
176
     1
 74
     1
176
     1
 91
        0
176
     1
 64
     7
176
     1
 65
   257
176
     1
 75
     1
176
     1
175
     1
176
     1
 42
1.0
176
     1
 92
        8
176
     1
 66
     8
424
  7895160
176
     1
 43
1.0
176
     1
 76
     1
176
     1
 77
     6
176
     1
 78
     2
176
     1
 67
     7
176
     1
 79
     5
176
     1
170
     0
176
     1
171
     0
176
     1
290
     0
176
     1
 93
       13
176
     1
 44
0.0
176
     1
173
     0
176
     1
  0
VISUALSTYLE
  5
37
102
{ACAD_REACTORS
330
2A
102
}
330
2A
100
AcDbVisualStyle
  2
Thicken
 70
    13
177
     2
291
     1
 71
     2
176
     1
 72
     2
176
     1
 73
     0
176
     1
 90
        0
176
     1
 40
-0.6
176
     1
 41
-30.0
176
     1
 62
     5
 63
     7
421
 16777215
176
     1
 74
     1
176
     1
 91
        4
176
     1
 64
     7
176
     1
 65
   257
176
     1
 75
     1
176
     1
175
     1
176
     1
 42
1.0
176
     1
 92
       12
176
     1
 66
     7
176
     1
 43
1.0
176
     1
 76
     1
176
     1
 77
     6
176
     1
 78
     2
176
     1
 67
     7
176
     1
 79
     5
176
     1
170
     0
176
     1
171
     0
176
     1
290
     0
176
     1
 93
        1
176
     1
 44
0.0
176
     1
173
     0
176
     1
  0
ENDSEC
  0
EOF
