  0
SECTION
  2
HEADER
  9
$ACADVER
  1
AC1024
  9
$ACADMAINTVER
 70
     6
  9
$DWGCODEPAGE
  3
UNDEFINED
  9
$INSBASE
 10
0.0
 20
0.0
 30
0.0
  9
$EXTMIN
 10
1.000000000000000E+20
 20
1.000000000000000E+20
 30
1.000000000000000E+20
  9
$EXTMAX
 10
-1.000000000000000E+20
 20
-1.000000000000000E+20
 30
-1.000000000000000E+20
  9
$LIMMIN
 10
0.0
 20
0.0
  9
$LIMMAX
 10
12.0
 20
9.0
  9
$ORTHOMODE
 70
     0
  9
$REGENMODE
 70
     1
  9
$FILLMODE
 70
     1
  9
$QTEXTMODE
 70
     0
  9
$MIRRTEXT
 70
     1
  9
$LTSCALE
 40
1.0
  9
$ATTMODE
 70
     1
  9
$TEXTSIZE
 40
0.2
  9
$TRACEWID
 40
0.05
  9
$TEXTSTYLE
  7
Standard
  9
$CLAYER
  8
0
  9
$CELTYPE
  6
ByLayer
  9
$CECOLOR
 62
   256
  9
$CELTSCALE
 40
1.0
  9
$DISPSILH
 70
     0
  9
$DIMSCALE
 40
1.0
  9
$DIMASZ
 40
0.18
  9
$DIMEXO
 40
0.0625
  9
$DIMDLI
 40
0.38
  9
$DIMRND
 40
0.0
  9
$DIMDLE
 40
0.0
  9
$DIMEXE
 40
0.18
  9
$DIMTP
 40
0.0
  9
$DIMTM
 40
0.0
  9
$DIMTXT
 40
0.18
  9
$DIMCEN
 40
0.09
  9
$DIMTSZ
 40
0.0
  9
$DIMTOL
 70
     0
  9
$DIMLIM
 70
     0
  9
$DIMTIH
 70
     1
  9
$DIMTOH
 70
     1
  9
$DIMSE1
 70
     0
  9
$DIMSE2
 70
     0
  9
$DIMTAD
 70
     0
  9
$DIMZIN
 70
     0
  9
$DIMBLK
  1

  9
$DIMASO
 70
     1
  9
$DIMSHO
 70
     1
  9
$DIMPOST
  1

  9
$DIMAPOST
  1

  9
$DIMALT
 70
     0
  9
$DIMALTD
 70
     2
  9
$DIMALTF
 40
25.4
  9
$DIMLFAC
 40
1.0
  9
$DIMTOFL
 70
     0
  9
$DIMTVP
 40
0.0
  9
$DIMTIX
 70
     0
  9
$DIMSOXD
 70
     0
  9
$DIMSAH
 70
     0
  9
$DIMBLK1
  1

  9
$DIMBLK2
  1

  9
$DIMSTYLE
  2
Standard
  9
$DIMCLRD
 70
     0
  9
$DIMCLRE
 70
     0
  9
$DIMCLRT
 70
     0
  9
$DIMTFAC
 40
1.0
  9
$DIMGAP
 40
0.09
  9
$DIMJUST
 70
     0
  9
$DIMSD1
 70
     0
  9
$DIMSD2
 70
     0
  9
$DIMTOLJ
 70
     1
  9
$DIMTZIN
 70
     0
  9
$DIMALTZ
 70
     0
  9
$DIMALTTZ
 70
     0
  9
$DIMUPT
 70
     0
  9
$DIMDEC
 70
     4
  9
$DIMTDEC
 70
     4
  9
$DIMALTU
 70
     2
  9
$DIMALTTD
 70
     2
  9
$DIMTXSTY
  7
Standard
  9
$DIMAUNIT
 70
     0
  9
$DIMADEC
 70
     0
  9
$DIMALTRND
 40
0.0
  9
$DIMAZIN
 70
     0
  9
$DIMDSEP
 70
    46
  9
$DIMATFIT
 70
     3
  9
$DIMFRAC
 70
     0
  9
$DIMLDRBLK
  1

  9
$DIMLUNIT
 70
     2
  9
$DIMLWD
 70
    -2
  9
$DIMLWE
 70
    -2
  9
$DIMTMOVE
 70
     0
  9
$DIMFXL
 40
1.0
  9
$DIMFXLON
 70
     0
  9
$DIMJOGANG
 40
0.7853981633974483
  9
$DIMTFILL
 70
     0
  9
$DIMTFILLCLR
 70
     0
  9
$DIMARCSYM
 70
     0
  9
$DIMLTYPE
  6

  9
$DIMLTEX1
  6

  9
$DIMLTEX2
  6

  9
$DIMTXTDIRECTION
 70
     0
  9
$LUNITS
 70
     2
  9
$LUPREC
 70
     4
  9
$SKETCHINC
 40
0.1
  9
$FILLETRAD
 40
0.5
  9
$AUNITS
 70
     0
  9
$AUPREC
 70
     0
  9
$MENU
  1
.
  9
$ELEVATION
 40
0.0
  9
$PELEVATION
 40
0.0
  9
$THICKNESS
 40
0.0
  9
$LIMCHECK
 70
     0
  9
$CHAMFERA
 40
0.5
  9
$CHAMFERB
 40
0.5
  9
$CHAMFERC
 40
1.0
  9
$CHAMFERD
 40
0.0
  9
$SKPOLY
 70
     0
  9
$TDCREATE
 40
2457917.607766192
  9
$TDUCREATE
 40
2457917.232766204
  9
$TDUPDATE
 40
2457917.607766192
  9
$TDUUPDATE
 40
2457917.232766204
  9
$TDINDWG
 40
0.0000000116
  9
$TDUSRTIMER
 40
0.0000000116
  9
$USRTIMER
 70
     1
  9
$ANGBASE
 50
0.0
  9
$ANGDIR
 70
     0
  9
$PDMODE
 70
     0
  9
$PDSIZE
 40
0.0
  9
$PLINEWID
 40
0.0
  9
$SPLFRAME
 70
     0
  9
$SPLINETYPE
 70
     6
  9
$SPLINESEGS
 70
     8
  9
$HANDSEED
  5
11F
  9
$SURFTAB1
 70
     6
  9
$SURFTAB2
 70
     6
  9
$SURFTYPE
 70
     6
  9
$SURFU
 70
     6
  9
$SURFV
 70
     6
  9
$UCSBASE
  2

  9
$UCSNAME
  2

  9
$UCSORG
 10
0.0
 20
0.0
 30
0.0
  9
$UCSXDIR
 10
1.0
 20
0.0
 30
0.0
  9
$UCSYDIR
 10
0.0
 20
1.0
 30
0.0
  9
$UCSORTHOREF
  2

  9
$UCSORTHOVIEW
 70
     0
  9
$UCSORGTOP
 10
0.0
 20
0.0
 30
0.0
  9
$UCSORGBOTTOM
 10
0.0
 20
0.0
 30
0.0
  9
$UCSORGLEFT
 10
0.0
 20
0.0
 30
0.0
  9
$UCSORGRIGHT
 10
0.0
 20
0.0
 30
0.0
  9
$UCSORGFRONT
 10
0.0
 20
0.0
 30
0.0
  9
$UCSORGBACK
 10
0.0
 20
0.0
 30
0.0
  9
$PUCSBASE
  2

  9
$PUCSNAME
  2

  9
$PUCSORG
 10
0.0
 20
0.0
 30
0.0
  9
$PUCSXDIR
 10
1.0
 20
0.0
 30
0.0
  9
$PUCSYDIR
 10
0.0
 20
1.0
 30
0.0
  9
$PUCSORTHOREF
  2

  9
$PUCSORTHOVIEW
 70
     0
  9
$PUCSORGTOP
 10
0.0
 20
0.0
 30
0.0
  9
$PUCSORGBOTTOM
 10
0.0
 20
0.0
 30
0.0
  9
$PUCSORGLEFT
 10
0.0
 20
0.0
 30
0.0
  9
$PUCSORGRIGHT
 10
0.0
 20
0.0
 30
0.0
  9
$PUCSORGFRONT
 10
0.0
 20
0.0
 30
0.0
  9
$PUCSORGBACK
 10
0.0
 20
0.0
 30
0.0
  9
$USERI1
 70
     0
  9
$USERI2
 70
     0
  9
$USERI3
 70
     0
  9
$USERI4
 70
     0
  9
$USERI5
 70
     0
  9
$USERR1
 40
0.0
  9
$USERR2
 40
0.0
  9
$USERR3
 40
0.0
  9
$USERR4
 40
0.0
  9
$USERR5
 40
0.0
  9
$WORLDVIEW
 70
     1
  9
$SHADEDGE
 70
     3
  9
$SHADEDIF
 70
    70
  9
$TILEMODE
 70
     1
  9
$MAXACTVP
 70
    64
  9
$PINSBASE
 10
0.0
 20
0.0
 30
0.0
  9
$PLIMCHECK
 70
     0
  9
$PEXTMIN
 10
1.000000000000000E+20
 20
1.000000000000000E+20
 30
1.000000000000000E+20
  9
$PEXTMAX
 10
-1.000000000000000E+20
 20
-1.000000000000000E+20
 30
-1.000000000000000E+20
  9
$PLIMMIN
 10
0.0
 20
0.0
  9
$PLIMMAX
 10
12.0
 20
9.0
  9
$UNITMODE
 70
     0
  9
$VISRETAIN
 70
     1
  9
$PLINEGEN
 70
     0
  9
$PSLTSCALE
 70
     1
  9
$TREEDEPTH
 70
  3020
  9
$CMLSTYLE
  2
Standard
  9
$CMLJUST
 70
     0
  9
$CMLSCALE
 40
1.0
  9
$PROXYGRAPHICS
 70
     1
  9
$MEASUREMENT
 70
     0
  9
$CELWEIGHT
370
    -1
  9
$ENDCAPS
280
     0
  9
$JOINSTYLE
280
     0
  9
$LWDISPLAY
290
     1
  9
$INSUNITS
 70
     1
  9
$HYPERLINKBASE
  1

  9
$STYLESHEET
  1

  9
$XEDIT
290
     1
  9
$CEPSNTYPE
380
     0
  9
$PSTYLEMODE
290
     1
  9
$FINGERPRINTGUID
  2
{174241C9-71B5-233C-3844-9EC298724110}
  9
$VERSIONGUID
  2
{FAEB1C32-E019-11D5-929B-00C0DF256EC4}
  9
$EXTNAMES
290
     1
  9
$PSVPSCALE
 40
0.0
  9
$OLESTARTUP
290
     0
  9
$SORTENTS
280
   127
  9
$INDEXCTL
280
     0
  9
$HIDETEXT
280
     1
  9
$XCLIPFRAME
280
     2
  9
$HALOGAP
280
     0
  9
$OBSCOLOR
 70
   257
  9
$OBSLTYPE
280
     0
  9
$INTERSECTIONDISPLAY
280
     0
  9
$INTERSECTIONCOLOR
 70
   257
  9
$DIMASSOC
280
     2
  9
$PROJECTNAME
  1

  9
$CAMERADISPLAY
290
     0
  9
$LENSLENGTH
 40
50.0
  9
$CAMERAHEIGHT
 40
0.0
  9
$STEPSPERSEC
 40
2.0
  9
$STEPSIZE
 40
6.0
  9
$3DDWFPREC
 40
2.0
  9
$PSOLWIDTH
 40
0.25
  9
$PSOLHEIGHT
 40
4.0
  9
$LOFTANG1
 40
1.570796326794897
  9
$LOFTANG2
 40
1.570796326794897
  9
$LOFTMAG1
 40
0.0
  9
$LOFTMAG2
 40
0.0
  9
$LOFTPARAM
 70
     7
  9
$LOFTNORMALS
280
     1
  9
$LATITUDE
 40
37.795
  9
$LONGITUDE
 40
-122.394
  9
$NORTHDIRECTION
 40
0.0
  9
$TIMEZONE
 70
 -8000
  9
$LIGHTGLYPHDISPLAY
280
     1
  9
$TILEMODELIGHTSYNCH
280
     1
  9
$CMATERIAL
347
3C
  9
$SOLIDHIST
280
     1
  9
$SHOWHIST
280
     1
  9
$DWFFRAME
280
     2
  9
$DGNFRAME
280
     2
  9
$REALWORLDSCALE
290
     1
  9
$INTERFERECOLOR
 62
   256
  9
$CSHADOW
280
     0
  9
$SHADOWPLANELOCATION
 40
0.0
  0
ENDSEC
  0
SECTION
  2
CLASSES
  0
CLASS
  1
ACDBDICTIONARYWDFLT
  2
AcDbDictionaryWithDefault
  3
ObjectDBX Classes
 90
        0
 91
        4
280
     0
281
     0
  0
CLASS
  1
VISUALSTYLE
  2
AcDbVisualStyle
  3
ObjectDBX Classes
 90
     4095
 91
        4
280
     0
281
     0
  0
CLASS
  1
MATERIAL
  2
AcDbMaterial
  3
ObjectDBX Classes
 90
     1153
 91
        4
280
     0
281
     0
  0
CLASS
  1
SUN
  2
AcDbSun
  3
SCENEOE
 90
     1024
 91
        4
280
     0
281
     0
  0
ENDSEC
  0
SECTION
  2
TABLES
  0
TABLE
  2
VPORT
  5
8
330
0
100
AcDbSymbolTable
 70
     1
  0
VPORT
  5
29
330
8
100
AcDbSymbolTableRecord
100
AcDbViewportTableRecord
  2
*Active
 70
     0
 10
0.0
 20
0.0
 11
1.0
 21
1.0
 12
0.0
 22
0.0
 13
0.0
 23
0.0
 14
0.5
 24
0.5
 15
0.5
 25
0.5
 16
0.0
 26
0.0
 36
1.0
 17
91.00082462281999
 27
-128.4993055234307
 37
0.0
 40
256.9986110468615
 41
0.7081814508812795
 42
50.0
 43
0.0
 44
0.0
 50
0.0
 51
0.0
 71
     0
 72
   100
 73
     1
 74
     3
 75
     0
 76
     0
 77
     0
 78
     0
281
     0
 65
     1
110
0.0
120
0.0
130
0.0
111
1.0
121
0.0
131
0.0
112
0.0
122
1.0
132
0.0
 79
     0
146
0.0
 60
     3
 61
     5
292
     1
282
     1
141
0.0
142
0.0
 63
   250
361
3F
  0
ENDTAB
  0
TABLE
  2
LTYPE
  5
5
330
0
100
AcDbSymbolTable
 70
     1
  0
LTYPE
  5
14
330
5
100
AcDbSymbolTableRecord
100
AcDbLinetypeTableRecord
  2
ByBlock
 70
     0
  3

 72
    65
 73
     0
 40
0.0
  0
LTYPE
  5
15
330
5
100
AcDbSymbolTableRecord
100
AcDbLinetypeTableRecord
  2
ByLayer
 70
     0
  3

 72
    65
 73
     0
 40
0.0
  0
LTYPE
  5
16
330
5
100
AcDbSymbolTableRecord
100
AcDbLinetypeTableRecord
  2
Continuous
 70
     0
  3
Solid line
 72
    65
 73
     0
 40
0.0
  0
ENDTAB
  0
TABLE
  2
LAYER
  5
2
330
0
100
AcDbSymbolTable
 70
     2
  0
LAYER
  5
10
330
2
100
AcDbSymbolTableRecord
100
AcDbLayerTableRecord
  2
0
 70
     0
 62
     7
  6
Continuous
370
    -3
390
F
347
3E
  0
LAYER
  5
40
330
2
100
AcDbSymbolTableRecord
100
AcDbLayerTableRecord
  2
_U+30EC_U+30A4_U+30E4_U+30FC 1
 70
     0
 62
     7
  6
Continuous
370
    -3
390
F
347
3E
  0
ENDTAB
  0
TABLE
  2
STYLE
  5
3
330
0
100
AcDbSymbolTable
 70
     1
  0
STYLE
  5
11
330
3
100
AcDbSymbolTableRecord
100
AcDbTextStyleTableRecord
  2
Standard
 70
     0
 40
0.0
 41
1.0
 50
0.0
 71
     0
 42
0.2
  3
txt
  4

  0
ENDTAB
  0
TABLE
  2
VIEW
  5
6
330
0
100
AcDbSymbolTable
 70
     0
  0
ENDTAB
  0
TABLE
  2
UCS
  5
7
330
0
100
AcDbSymbolTable
 70
     0
  0
ENDTAB
  0
TABLE
  2
APPID
  5
9
330
0
100
AcDbSymbolTable
 70
     1
  0
APPID
  5
12
330
9
100
AcDbSymbolTableRecord
100
AcDbRegAppTableRecord
  2
ACAD
 70
     0
  0
ENDTAB
  0
TABLE
  2
DIMSTYLE
  5
A
330
0
100
AcDbSymbolTable
 70
     1
100
AcDbDimStyleTable
  0
DIMSTYLE
105
27
330
A
100
AcDbSymbolTableRecord
100
AcDbDimStyleTableRecord
  2
Standard
 70
     0
178
     0
340
11
  0
ENDTAB
  0
TABLE
  2
BLOCK_RECORD
  5
1
330
0
100
AcDbSymbolTable
 70
     8
  0
BLOCK_RECORD
  5
1F
330
1
100
AcDbSymbolTableRecord
100
AcDbBlockTableRecord
  2
*Model_Space
340
22
 70
     0
280
     1
281
     0
  0
BLOCK_RECORD
  5
1B
330
1
100
AcDbSymbolTableRecord
100
AcDbBlockTableRecord
  2
*Paper_Space
340
1E
 70
     0
280
     1
281
     0
  0
BLOCK_RECORD
  5
23
330
1
100
AcDbSymbolTableRecord
100
AcDbBlockTableRecord
  2
*Paper_Space0
340
26
 70
     0
280
     1
281
     0
  0
BLOCK_RECORD
  5
60
330
1
100
AcDbSymbolTableRecord
100
AcDbBlockTableRecord
  2
block 2
340
0
102
{BLKREFS
331
61
102
}
 70
     0
280
     1
281
     0
  0
BLOCK_RECORD
  5
68
330
1
100
AcDbSymbolTableRecord
100
AcDbBlockTableRecord
  2
block 3
340
0
102
{BLKREFS
331
69
102
}
 70
     0
280
     1
281
     0
  0
BLOCK_RECORD
  5
70
330
1
100
AcDbSymbolTableRecord
100
AcDbBlockTableRecord
  2
block 4
340
0
102
{BLKREFS
331
71
102
}
 70
     0
280
     1
281
     0
  0
BLOCK_RECORD
  5
78
330
1
100
AcDbSymbolTableRecord
100
AcDbBlockTableRecord
  2
block 5
340
0
102
{BLKREFS
331
79
102
}
 70
     0
280
     1
281
     0
  0
BLOCK_RECORD
  5
7E
330
1
100
AcDbSymbolTableRecord
100
AcDbBlockTableRecord
  2
block 6
340
0
102
{BLKREFS
331
7F
102
}
 70
     0
280
     1
281
     0
  0
BLOCK_RECORD
  5
D3
330
1
100
AcDbSymbolTableRecord
100
AcDbBlockTableRecord
  2
block 7
340
0
102
{BLKREFS
331
D4
102
}
 70
     0
280
     1
281
     0
  0
BLOCK_RECORD
  5
E6
330
1
100
AcDbSymbolTableRecord
100
AcDbBlockTableRecord
  2
block 8
340
0
102
{BLKREFS
331
E7
102
}
 70
     0
280
     1
281
     0
  0
ENDTAB
  0
ENDSEC
  0
SECTION
  2
BLOCKS
  0
BLOCK
  5
20
330
1F
100
AcDbEntity
  8
0
100
AcDbBlockBegin
  2
*Model_Space
 70
     0
 10
0.0
 20
0.0
 30
0.0
  3
*Model_Space
  1

  0
ENDBLK
  5
21
330
1F
100
AcDbEntity
  8
0
100
AcDbBlockEnd
  0
BLOCK
  5
1C
330
1B
100
AcDbEntity
 67
     1
  8
0
100
AcDbBlockBegin
  2
*Paper_Space
 70
     0
 10
0.0
 20
0.0
 30
0.0
  3
*Paper_Space
  1

  0
ENDBLK
  5
1D
330
1B
100
AcDbEntity
 67
     1
  8
0
100
AcDbBlockEnd
  0
BLOCK
  5
24
330
23
100
AcDbEntity
  8
0
100
AcDbBlockBegin
  2
*Paper_Space0
 70
     0
 10
0.0
 20
0.0
 30
0.0
  3
*Paper_Space0
  1

  0
ENDBLK
  5
25
330
23
100
AcDbEntity
  8
0
100
AcDbBlockEnd
  0
BLOCK
  5
62
330
60
100
AcDbEntity
  8
0
100
AcDbBlockBegin
  2
block 2
 70
     0
 10
0.0
 20
0.0
 30
0.0
  3
block 2
  1

  0
SPLINE
  5
64
330
60
100
AcDbEntity
  8
_U+30EC_U+30A4_U+30E4_U+30FC 1
370
     0
100
AcDbSpline
210
0.0
220
0.0
230
1.0
 70
    11
 71
     3
 72
    44
 73
    40
 74
     0
 42
0.0000000001
 43
0.0000000001
 12
1.0
 22
0.0
 32
0.0
 13
1.0
 23
0.0
 33
0.0
 40
0.0
 40
0.0
 40
0.0
 40
0.0
 40
1.0
 40
1.0
 40
1.0
 40
2.0
 40
2.0
 40
2.0
 40
3.0
 40
3.0
 40
3.0
 40
4.0
 40
4.0
 40
4.0
 40
5.0
 40
5.0
 40
5.0
 40
6.0
 40
6.0
 40
6.0
 40
7.0
 40
7.0
 40
7.0
 40
8.0
 40
8.0
 40
8.0
 40
9.0
 40
9.0
 40
9.0
 40
10.0
 40
10.0
 40
10.0
 40
11.0
 40
11.0
 40
11.0
 40
12.0
 40
12.0
 40
12.0
 40
13.0
 40
13.0
 40
13.0
 40
13.0
 10
88.39839407512262
 20
-115.8533935257242
 30
0.0
 10
88.18066404045484
 20
-116.0122124275942
 30
0.0
 10
88.08764646235309
 20
-116.086281980527
 30
0.0
 10
88.03872610646255
 20
-116.229942462262
 30
0.0
 10
88.03872610646255
 20
-116.229942462262
 30
0.0
 10
88.817317686129
 20
-116.229942462262
 30
0.0
 10
88.817317686129
 20
-116.229942462262
 30
0.0
 10
88.817317686129
 20
-116.229942462262
 30
0.0
 10
88.817317686129
 20
-116.4352701531829
 30
0.0
 10
88.817317686129
 20
-116.4352701531829
 30
0.0
 10
88.817317686129
 20
-116.4352701531829
 30
0.0
 10
87.78930119333046
 20
-116.4352701531829
 30
0.0
 10
87.78930119333046
 20
-116.4352701531829
 30
0.0
 10
87.82099607179475
 20
-116.0776692418139
 30
0.0
 10
87.8864528860145
 20
-115.9994655742988
 30
0.0
 10
88.27161456126544
 20
-115.7011203052761
 30
0.0
 10
88.5275851558195
 20
-115.5023382957772
 30
0.0
 10
88.59304197003924
 20
-115.4344699147178
 30
0.0
 10
88.59304197003924
 20
-115.2970106048563
 30
0.0
 10
88.59304197003924
 20
-115.1784993201637
 30
0.0
 10
88.52103947439753
 20
-115.0475856917242
 30
0.0
 10
88.32432452218976
 20
-115.0475856917242
 30
0.0
 10
88.0642198130534
 20
-115.0475856917242
 30
0.0
 10
88.05560707434027
 20
-115.2780625796874
 30
0.0
 10
88.05147295975797
 20
-115.3945068070889
 30
0.0
 10
88.05147295975797
 20
-115.3945068070889
 30
0.0
 10
87.82719724366821
 20
-115.3945068070889
 30
0.0
 10
87.82719724366821
 20
-115.3945068070889
 30
0.0
 10
87.83580998238133
 20
-115.2673827836832
 30
0.0
 10
87.8464897783856
 20
-115.1554171804125
 30
0.0
 10
87.92676050319193
 20
-115.0369058957199
 30
0.0
 10
88.03665904917139
 20
-114.8760199365588
 30
0.0
 10
88.2230387149234
 20
-114.8422580008033
 30
0.0
 10
88.33913843277634
 20
-114.8422580008033
 30
0.0
 10
88.61646861933895
 20
-114.8422580008033
 30
0.0
 10
88.82386336755098
 20
-115.0262260997157
 30
0.0
 10
88.82386336755098
 20
-115.2990776621475
 30
0.0
 10
88.82386336755098
 20
-115.527832002368
 30
0.0
 10
88.70741914014954
 20
-115.6270507523432
 30
0.0
 10
88.39839407512262
 20
-115.8533935257242
 30
0.0
  0
HATCH
  5
65
330
60
100
AcDbEntity
  8
_U+30EC_U+30A4_U+30E4_U+30FC 1
 62
   179
420
  2234388
100
AcDbHatch
 10
0.0
 20
0.0
 30
0.0
210
0.0
220
0.0
230
1.0
  2
SOLID
 70
     1
 71
     0
 91
        1
 92
        1
 93
        1
 72
     4
 94
        3
 73
     0
 74
     1
 95
       44
 96
       40
 40
0.0
 40
0.0
 40
0.0
 40
0.0
 40
1.0
 40
1.0
 40
1.0
 40
2.0
 40
2.0
 40
2.0
 40
3.0
 40
3.0
 40
3.0
 40
4.0
 40
4.0
 40
4.0
 40
5.0
 40
5.0
 40
5.0
 40
6.0
 40
6.0
 40
6.0
 40
7.0
 40
7.0
 40
7.0
 40
8.0
 40
8.0
 40
8.0
 40
9.0
 40
9.0
 40
9.0
 40
10.0
 40
10.0
 40
10.0
 40
11.0
 40
11.0
 40
11.0
 40
12.0
 40
12.0
 40
12.0
 40
13.0
 40
13.0
 40
13.0
 40
13.0
 10
88.39839407512262
 20
-115.8533935257242
 10
88.18066404045484
 20
-116.0122124275942
 10
88.08764646235309
 20
-116.086281980527
 10
88.03872610646255
 20
-116.229942462262
 10
88.03872610646255
 20
-116.229942462262
 10
88.817317686129
 20
-116.229942462262
 10
88.817317686129
 20
-116.229942462262
 10
88.817317686129
 20
-116.229942462262
 10
88.817317686129
 20
-116.4352701531829
 10
88.817317686129
 20
-116.4352701531829
 10
88.817317686129
 20
-116.4352701531829
 10
87.78930119333046
 20
-116.4352701531829
 10
87.78930119333046
 20
-116.4352701531829
 10
87.82099607179475
 20
-116.0776692418139
 10
87.8864528860145
 20
-115.9994655742988
 10
88.27161456126544
 20
-115.7011203052761
 10
88.5275851558195
 20
-115.5023382957772
 10
88.59304197003924
 20
-115.4344699147178
 10
88.59304197003924
 20
-115.2970106048563
 10
88.59304197003924
 20
-115.1784993201637
 10
88.52103947439753
 20
-115.0475856917242
 10
88.32432452218976
 20
-115.0475856917242
 10
88.0642198130534
 20
-115.0475856917242
 10
88.05560707434027
 20
-115.2780625796874
 10
88.05147295975797
 20
-115.3945068070889
 10
88.05147295975797
 20
-115.3945068070889
 10
87.82719724366821
 20
-115.3945068070889
 10
87.82719724366821
 20
-115.3945068070889
 10
87.83580998238133
 20
-115.2673827836832
 10
87.8464897783856
 20
-115.1554171804125
 10
87.92676050319193
 20
-115.0369058957199
 10
88.03665904917139
 20
-114.8760199365588
 10
88.2230387149234
 20
-114.8422580008033
 10
88.33913843277634
 20
-114.8422580008033
 10
88.61646861933895
 20
-114.8422580008033
 10
88.82386336755098
 20
-115.0262260997157
 10
88.82386336755098
 20
-115.2990776621475
 10
88.82386336755098
 20
-115.527832002368
 10
88.70741914014954
 20
-115.6270507523432
 10
88.39839407512262
 20
-115.8533935257242
 97
        0
 97
        0
 75
     2
 76
     1
 98
        0
  0
SPLINE
  5
66
330
60
100
AcDbEntity
  8
_U+30EC_U+30A4_U+30E4_U+30FC 1
370
     0
100
AcDbSpline
210
0.0
220
0.0
230
1.0
 70
    11
 71
     3
 72
    53
 73
    49
 74
     0
 42
0.0000000001
 43
0.0000000001
 12
1.0
 22
0.0
 32
0.0
 13
1.0
 23
0.0
 33
0.0
 40
0.0
 40
0.0
 40
0.0
 40
0.0
 40
1.0
 40
1.0
 40
1.0
 40
2.0
 40
2.0
 40
2.0
 40
3.0
 40
3.0
 40
3.0
 40
4.0
 40
4.0
 40
4.0
 40
5.0
 40
5.0
 40
5.0
 40
6.0
 40
6.0
 40
6.0
 40
7.0
 40
7.0
 40
7.0
 40
8.0
 40
8.0
 40
8.0
 40
9.0
 40
9.0
 40
9.0
 40
10.0
 40
10.0
 40
10.0
 40
11.0
 40
11.0
 40
11.0
 40
12.0
 40
12.0
 40
12.0
 40
13.0
 40
13.0
 40
13.0
 40
14.0
 40
14.0
 40
14.0
 40
15.0
 40
15.0
 40
15.0
 40
16.0
 40
16.0
 40
16.0
 40
16.0
 10
89.46327308961335
 20
-116.485913056816
 30
0.0
 10
89.38506942209818
 20
-116.485913056816
 30
0.0
 10
89.2834391052833
 20
-116.4690320889383
 30
0.0
 10
89.18180878846844
 20
-116.4056423320097
 30
0.0
 10
89.00852048556037
 20
-116.2957437860302
 30
0.0
 10
88.98716089355183
 20
-116.1644856480422
 30
0.0
 10
88.96821286838295
 20
-116.0566541593539
 30
0.0
 10
88.96821286838295
 20
-116.0566541593539
 30
0.0
 10
89.19042152718157
 20
-116.0566541593539
 30
0.0
 10
89.19042152718157
 20
-116.0566541593539
 30
0.0
 10
89.24519854539703
 20
-116.2554361688528
 30
0.0
 10
89.37232256880276
 20
-116.285063990026
 30
0.0
 10
89.46534014690451
 20
-116.285063990026
 30
0.0
 10
89.60486651405712
 20
-116.285063990026
 30
0.0
 10
89.75713973450516
 20
-116.1855007305022
 30
0.0
 10
89.75713973450516
 20
-115.9529567852479
 30
0.0
 10
89.75713973450516
 20
-115.6969861906938
 30
0.0
 10
89.57730575017513
 20
-115.6270507523432
 30
0.0
 10
89.45672740819138
 20
-115.6270507523432
 30
0.0
 10
89.42503252972708
 20
-115.6270507523432
 30
0.0
 10
89.2834391052833
 20
-115.6270507523432
 30
0.0
 10
89.19455564176387
 20
-115.7562418330401
 30
0.0
 10
89.19455564176387
 20
-115.7562418330401
 30
0.0
 10
89.01885577201612
 20
-115.7372938078712
 30
0.0
 10
89.01885577201612
 20
-115.7372938078712
 30
0.0
 10
89.01885577201612
 20
-115.7372938078712
 30
0.0
 10
89.13943411399987
 20
-114.8908338471454
 30
0.0
 10
89.13943411399987
 20
-114.8908338471454
 30
0.0
 10
89.13943411399987
 20
-114.8908338471454
 30
0.0
 10
89.91802569366634
 20
-114.8908338471454
 30
0.0
 10
89.91802569366634
 20
-114.8908338471454
 30
0.0
 10
89.91802569366634
 20
-114.8908338471454
 30
0.0
 10
89.91802569366634
 20
-115.085481742062
 30
0.0
 10
89.91802569366634
 20
-115.085481742062
 30
0.0
 10
89.91802569366634
 20
-115.085481742062
 30
0.0
 10
89.30238713045219
 20
-115.085481742062
 30
0.0
 10
89.30238713045219
 20
-115.085481742062
 30
0.0
 10
89.30238713045219
 20
-115.085481742062
 30
0.0
 10
89.23693031623243
 20
-115.5085394676506
 30
0.0
 10
89.23693031623243
 20
-115.5085394676506
 30
0.0
 10
89.29825301586989
 20
-115.4747775318952
 30
0.0
 10
89.38059079796736
 20
-115.4344699147178
 30
0.0
 10
89.49910208265995
 20
-115.4344699147178
 30
0.0
 10
89.75300561992286
 20
-115.4344699147178
 30
0.0
 10
89.99002818930805
 20
-115.6208495804698
 30
0.0
 10
89.99002818930805
 20
-115.934008760079
 30
0.0
 10
89.99002818930805
 20
-116.2513020542705
 30
0.0
 10
89.76575247321828
 20
-116.485913056816
 30
0.0
 10
89.46327308961335
 20
-116.485913056816
 30
0.0
  0
HATCH
  5
67
330
60
100
AcDbEntity
  8
_U+30EC_U+30A4_U+30E4_U+30FC 1
 62
   179
420
  2234388
100
AcDbHatch
 10
0.0
 20
0.0
 30
0.0
210
0.0
220
0.0
230
1.0
  2
SOLID
 70
     1
 71
     0
 91
        1
 92
        1
 93
        1
 72
     4
 94
        3
 73
     0
 74
     1
 95
       53
 96
       49
 40
0.0
 40
0.0
 40
0.0
 40
0.0
 40
1.0
 40
1.0
 40
1.0
 40
2.0
 40
2.0
 40
2.0
 40
3.0
 40
3.0
 40
3.0
 40
4.0
 40
4.0
 40
4.0
 40
5.0
 40
5.0
 40
5.0
 40
6.0
 40
6.0
 40
6.0
 40
7.0
 40
7.0
 40
7.0
 40
8.0
 40
8.0
 40
8.0
 40
9.0
 40
9.0
 40
9.0
 40
10.0
 40
10.0
 40
10.0
 40
11.0
 40
11.0
 40
11.0
 40
12.0
 40
12.0
 40
12.0
 40
13.0
 40
13.0
 40
13.0
 40
14.0
 40
14.0
 40
14.0
 40
15.0
 40
15.0
 40
15.0
 40
16.0
 40
16.0
 40
16.0
 40
16.0
 10
89.46327308961335
 20
-116.485913056816
 10
89.38506942209818
 20
-116.485913056816
 10
89.2834391052833
 20
-116.4690320889383
 10
89.18180878846844
 20
-116.4056423320097
 10
89.00852048556037
 20
-116.2957437860302
 10
88.98716089355183
 20
-116.1644856480422
 10
88.96821286838295
 20
-116.0566541593539
 10
88.96821286838295
 20
-116.0566541593539
 10
89.19042152718157
 20
-116.0566541593539
 10
89.19042152718157
 20
-116.0566541593539
 10
89.24519854539703
 20
-116.2554361688528
 10
89.37232256880276
 20
-116.285063990026
 10
89.46534014690451
 20
-116.285063990026
 10
89.60486651405712
 20
-116.285063990026
 10
89.75713973450516
 20
-116.1855007305022
 10
89.75713973450516
 20
-115.9529567852479
 10
89.75713973450516
 20
-115.6969861906938
 10
89.57730575017513
 20
-115.6270507523432
 10
89.45672740819138
 20
-115.6270507523432
 10
89.42503252972708
 20
-115.6270507523432
 10
89.2834391052833
 20
-115.6270507523432
 10
89.19455564176387
 20
-115.7562418330401
 10
89.19455564176387
 20
-115.7562418330401
 10
89.01885577201612
 20
-115.7372938078712
 10
89.01885577201612
 20
-115.7372938078712
 10
89.01885577201612
 20
-115.7372938078712
 10
89.13943411399987
 20
-114.8908338471454
 10
89.13943411399987
 20
-114.8908338471454
 10
89.13943411399987
 20
-114.8908338471454
 10
89.91802569366634
 20
-114.8908338471454
 10
89.91802569366634
 20
-114.8908338471454
 10
89.91802569366634
 20
-114.8908338471454
 10
89.91802569366634
 20
-115.085481742062
 10
89.91802569366634
 20
-115.085481742062
 10
89.91802569366634
 20
-115.085481742062
 10
89.30238713045219
 20
-115.085481742062
 10
89.30238713045219
 20
-115.085481742062
 10
89.30238713045219
 20
-115.085481742062
 10
89.23693031623243
 20
-115.5085394676506
 10
89.23693031623243
 20
-115.5085394676506
 10
89.29825301586989
 20
-115.4747775318952
 10
89.38059079796736
 20
-115.4344699147178
 10
89.49910208265995
 20
-115.4344699147178
 10
89.75300561992286
 20
-115.4344699147178
 10
89.99002818930805
 20
-115.6208495804698
 10
89.99002818930805
 20
-115.934008760079
 10
89.99002818930805
 20
-116.2513020542705
 10
89.76575247321828
 20
-116.485913056816
 10
89.46327308961335
 20
-116.485913056816
 97
        0
 97
        0
 75
     2
 76
     1
 98
        0
  0
ENDBLK
  5
63
330
60
100
AcDbEntity
  8
0
100
AcDbBlockEnd
  0
BLOCK
  5
6A
330
68
100
AcDbEntity
  8
0
100
AcDbBlockBegin
  2
block 3
 70
     0
 10
0.0
 20
0.0
 30
0.0
  3
block 3
  1

  0
SPLINE
  5
6C
330
68
100
AcDbEntity
  8
_U+30EC_U+30A4_U+30E4_U+30FC 1
370
     0
100
AcDbSpline
210
0.0
220
0.0
230
1.0
 70
    11
 71
     3
 72
    44
 73
    40
 74
     0
 42
0.0000000001
 43
0.0000000001
 12
1.0
 22
0.0
 32
0.0
 13
1.0
 23
0.0
 33
0.0
 40
0.0
 40
0.0
 40
0.0
 40
0.0
 40
1.0
 40
1.0
 40
1.0
 40
2.0
 40
2.0
 40
2.0
 40
3.0
 40
3.0
 40
3.0
 40
4.0
 40
4.0
 40
4.0
 40
5.0
 40
5.0
 40
5.0
 40
6.0
 40
6.0
 40
6.0
 40
7.0
 40
7.0
 40
7.0
 40
8.0
 40
8.0
 40
8.0
 40
9.0
 40
9.0
 40
9.0
 40
10.0
 40
10.0
 40
10.0
 40
11.0
 40
11.0
 40
11.0
 40
12.0
 40
12.0
 40
12.0
 40
13.0
 40
13.0
 40
13.0
 40
13.0
 10
76.49369437106755
 20
-128.1007079757873
 30
0.0
 10
76.65234101816331
 20
-128.3184380104551
 30
0.0
 10
76.72641057109618
 20
-128.4114555885569
 30
0.0
 10
76.87024330760536
 20
-128.4603759444474
 30
0.0
 10
76.87024330760536
 20
-128.4603759444474
 30
0.0
 10
76.87024330760536
 20
-127.681784364781
 30
0.0
 10
76.87024330760536
 20
-127.681784364781
 30
0.0
 10
76.87024330760536
 20
-127.681784364781
 30
0.0
 10
77.07539874375199
 20
-127.681784364781
 30
0.0
 10
77.07539874375199
 20
-127.681784364781
 30
0.0
 10
77.07539874375199
 20
-127.681784364781
 30
0.0
 10
77.07539874375199
 20
-128.7098008575795
 30
0.0
 10
77.07539874375199
 20
-128.7098008575795
 30
0.0
 10
76.71779783238306
 20
-128.6781059791152
 30
0.0
 10
76.63959416486789
 20
-128.6126491648955
 30
0.0
 10
76.34124889584524
 20
-128.2274874896445
 30
0.0
 10
76.14246688634633
 20
-127.9715168950905
 30
0.0
 10
76.07477076006117
 20
-127.9060600808707
 30
0.0
 10
75.9373114501997
 20
-127.9060600808707
 30
0.0
 10
75.81880016550711
 20
-127.9060600808707
 30
0.0
 10
75.68771428229336
 20
-127.9780625765124
 30
0.0
 10
75.68771428229336
 20
-128.1747775287202
 30
0.0
 10
75.68771428229336
 20
-128.4348822378566
 30
0.0
 10
75.91819117025656
 20
-128.4434949765697
 30
0.0
 10
76.03463539765801
 20
-128.447629091152
 30
0.0
 10
76.03463539765801
 20
-128.447629091152
 30
0.0
 10
76.03463539765801
 20
-128.6719048072418
 30
0.0
 10
76.03463539765801
 20
-128.6719048072418
 30
0.0
 10
75.90768362902655
 20
-128.6632920685286
 30
0.0
 10
75.79554577098168
 20
-128.6526122725244
 30
0.0
 10
75.67703448628907
 20
-128.572341547718
 30
0.0
 10
75.51632078190217
 20
-128.4624430017386
 30
0.0
 10
75.48238659137246
 20
-128.2760633359865
 30
0.0
 10
75.48238659137246
 20
-128.1599636181336
 30
0.0
 10
75.48238659137246
 20
-127.882633431571
 30
0.0
 10
75.66652694505906
 20
-127.675238683359
 30
0.0
 10
75.93937850749086
 20
-127.675238683359
 30
0.0
 10
76.16778833816292
 20
-127.675238683359
 30
0.0
 10
76.26735159768664
 20
-127.7916829107604
 30
0.0
 10
76.49369437106755
 20
-128.1007079757873
 30
0.0
  0
HATCH
  5
6D
330
68
100
AcDbEntity
  8
_U+30EC_U+30A4_U+30E4_U+30FC 1
 62
   179
420
  2234388
100
AcDbHatch
 10
0.0
 20
0.0
 30
0.0
210
0.0
220
0.0
230
1.0
  2
SOLID
 70
     1
 71
     0
 91
        1
 92
        1
 93
        1
 72
     4
 94
        3
 73
     0
 74
     1
 95
       44
 96
       40
 40
0.0
 40
0.0
 40
0.0
 40
0.0
 40
1.0
 40
1.0
 40
1.0
 40
2.0
 40
2.0
 40
2.0
 40
3.0
 40
3.0
 40
3.0
 40
4.0
 40
4.0
 40
4.0
 40
5.0
 40
5.0
 40
5.0
 40
6.0
 40
6.0
 40
6.0
 40
7.0
 40
7.0
 40
7.0
 40
8.0
 40
8.0
 40
8.0
 40
9.0
 40
9.0
 40
9.0
 40
10.0
 40
10.0
 40
10.0
 40
11.0
 40
11.0
 40
11.0
 40
12.0
 40
12.0
 40
12.0
 40
13.0
 40
13.0
 40
13.0
 40
13.0
 10
76.49369437106755
 20
-128.1007079757873
 10
76.65234101816331
 20
-128.3184380104551
 10
76.72641057109618
 20
-128.4114555885569
 10
76.87024330760536
 20
-128.4603759444474
 10
76.87024330760536
 20
-128.4603759444474
 10
76.87024330760536
 20
-127.681784364781
 10
76.87024330760536
 20
-127.681784364781
 10
76.87024330760536
 20
-127.681784364781
 10
77.07539874375199
 20
-127.681784364781
 10
77.07539874375199
 20
-127.681784364781
 10
77.07539874375199
 20
-127.681784364781
 10
77.07539874375199
 20
-128.7098008575795
 10
77.07539874375199
 20
-128.7098008575795
 10
76.71779783238306
 20
-128.6781059791152
 10
76.63959416486789
 20
-128.6126491648955
 10
76.34124889584524
 20
-128.2274874896445
 10
76.14246688634633
 20
-127.9715168950905
 10
76.07477076006117
 20
-127.9060600808707
 10
75.9373114501997
 20
-127.9060600808707
 10
75.81880016550711
 20
-127.9060600808707
 10
75.68771428229336
 20
-127.9780625765124
 10
75.68771428229336
 20
-128.1747775287202
 10
75.68771428229336
 20
-128.4348822378566
 10
75.91819117025656
 20
-128.4434949765697
 10
76.03463539765801
 20
-128.447629091152
 10
76.03463539765801
 20
-128.447629091152
 10
76.03463539765801
 20
-128.6719048072418
 10
76.03463539765801
 20
-128.6719048072418
 10
75.90768362902655
 20
-128.6632920685286
 10
75.79554577098168
 20
-128.6526122725244
 10
75.67703448628907
 20
-128.572341547718
 10
75.51632078190217
 20
-128.4624430017386
 10
75.48238659137246
 20
-128.2760633359865
 10
75.48238659137246
 20
-128.1599636181336
 10
75.48238659137246
 20
-127.882633431571
 10
75.66652694505906
 20
-127.675238683359
 10
75.93937850749086
 20
-127.675238683359
 10
76.16778833816292
 20
-127.675238683359
 10
76.26735159768664
 20
-127.7916829107604
 10
76.49369437106755
 20
-128.1007079757873
 97
        0
 97
        0
 75
     2
 76
     1
 98
        0
  0
SPLINE
  5
6E
330
68
100
AcDbEntity
  8
_U+30EC_U+30A4_U+30E4_U+30FC 1
370
     0
100
AcDbSpline
210
0.0
220
0.0
230
1.0
 70
    11
 71
     3
 72
    53
 73
    49
 74
     0
 42
0.0000000001
 43
0.0000000001
 12
1.0
 22
0.0
 32
0.0
 13
1.0
 23
0.0
 33
0.0
 40
0.0
 40
0.0
 40
0.0
 40
0.0
 40
1.0
 40
1.0
 40
1.0
 40
2.0
 40
2.0
 40
2.0
 40
3.0
 40
3.0
 40
3.0
 40
4.0
 40
4.0
 40
4.0
 40
5.0
 40
5.0
 40
5.0
 40
6.0
 40
6.0
 40
6.0
 40
7.0
 40
7.0
 40
7.0
 40
8.0
 40
8.0
 40
8.0
 40
9.0
 40
9.0
 40
9.0
 40
10.0
 40
10.0
 40
10.0
 40
11.0
 40
11.0
 40
11.0
 40
12.0
 40
12.0
 40
12.0
 40
13.0
 40
13.0
 40
13.0
 40
14.0
 40
14.0
 40
14.0
 40
15.0
 40
15.0
 40
15.0
 40
16.0
 40
16.0
 40
16.0
 40
16.0
 10
77.12604164738516
 20
-127.0358289612966
 30
0.0
 10
77.12604164738516
 20
-127.1140326288118
 30
0.0
 10
77.10916067950744
 20
-127.2156629456266
 30
0.0
 10
77.04577092257884
 20
-127.3172932624415
 30
0.0
 10
76.9357001218251
 20
-127.4905815653496
 30
0.0
 10
76.80461423861135
 20
-127.5119411573581
 30
0.0
 10
76.69678274992303
 20
-127.530889182527
 30
0.0
 10
76.69678274992303
 20
-127.530889182527
 30
0.0
 10
76.69678274992303
 20
-127.3086805237284
 30
0.0
 10
76.69678274992303
 20
-127.3086805237284
 30
0.0
 10
76.89556475942194
 20
-127.2539035055129
 30
0.0
 10
76.9251925805951
 20
-127.1267794821072
 30
0.0
 10
76.9251925805951
 20
-127.0337619040055
 30
0.0
 10
76.9251925805951
 20
-126.8942355368528
 30
0.0
 10
76.82580157584563
 20
-126.7419623164048
 30
0.0
 10
76.59308537581701
 20
-126.7419623164048
 30
0.0
 10
76.33711478126294
 20
-126.7419623164048
 30
0.0
 10
76.26735159768664
 20
-126.9217963007348
 30
0.0
 10
76.26735159768664
 20
-127.0423746427186
 30
0.0
 10
76.26735159768664
 20
-127.0740695211829
 30
0.0
 10
76.26735159768664
 20
-127.2156629456266
 30
0.0
 10
76.39637042360924
 20
-127.3045464091461
 30
0.0
 10
76.39637042360924
 20
-127.3045464091461
 30
0.0
 10
76.3772501436661
 20
-127.4802462788938
 30
0.0
 10
76.3772501436661
 20
-127.4802462788938
 30
0.0
 10
76.3772501436661
 20
-127.4802462788938
 30
0.0
 10
75.53113469248875
 20
-127.3596679369101
 30
0.0
 10
75.53113469248875
 20
-127.3596679369101
 30
0.0
 10
75.53113469248875
 20
-127.3596679369101
 30
0.0
 10
75.53113469248875
 20
-126.5810763572436
 30
0.0
 10
75.53113469248875
 20
-126.5810763572436
 30
0.0
 10
75.53113469248875
 20
-126.5810763572436
 30
0.0
 10
75.72578258740536
 20
-126.5810763572436
 30
0.0
 10
75.72578258740536
 20
-126.5810763572436
 30
0.0
 10
75.72578258740536
 20
-126.5810763572436
 30
0.0
 10
75.72578258740536
 20
-127.1967149204578
 30
0.0
 10
75.72578258740536
 20
-127.1967149204578
 30
0.0
 10
75.72578258740536
 20
-127.1967149204578
 30
0.0
 10
76.14884031299404
 20
-127.2621717346775
 30
0.0
 10
76.14884031299404
 20
-127.2621717346775
 30
0.0
 10
76.11490612246433
 20
-127.2008490350401
 30
0.0
 10
76.07477076006117
 20
-127.1185112529426
 30
0.0
 10
76.07477076006117
 20
-126.99999996825
 30
0.0
 10
76.07477076006117
 20
-126.7460964309871
 30
0.0
 10
76.26097817103893
 20
-126.5090738616019
 30
0.0
 10
76.57396509587387
 20
-126.5090738616019
 30
0.0
 10
76.89143064483964
 20
-126.5090738616019
 30
0.0
 10
77.12604164738516
 20
-126.7333495776917
 30
0.0
 10
77.12604164738516
 20
-127.0358289612966
 30
0.0
  0
HATCH
  5
6F
330
68
100
AcDbEntity
  8
_U+30EC_U+30A4_U+30E4_U+30FC 1
 62
   179
420
  2234388
100
AcDbHatch
 10
0.0
 20
0.0
 30
0.0
210
0.0
220
0.0
230
1.0
  2
SOLID
 70
     1
 71
     0
 91
        1
 92
        1
 93
        1
 72
     4
 94
        3
 73
     0
 74
     1
 95
       53
 96
       49
 40
0.0
 40
0.0
 40
0.0
 40
0.0
 40
1.0
 40
1.0
 40
1.0
 40
2.0
 40
2.0
 40
2.0
 40
3.0
 40
3.0
 40
3.0
 40
4.0
 40
4.0
 40
4.0
 40
5.0
 40
5.0
 40
5.0
 40
6.0
 40
6.0
 40
6.0
 40
7.0
 40
7.0
 40
7.0
 40
8.0
 40
8.0
 40
8.0
 40
9.0
 40
9.0
 40
9.0
 40
10.0
 40
10.0
 40
10.0
 40
11.0
 40
11.0
 40
11.0
 40
12.0
 40
12.0
 40
12.0
 40
13.0
 40
13.0
 40
13.0
 40
14.0
 40
14.0
 40
14.0
 40
15.0
 40
15.0
 40
15.0
 40
16.0
 40
16.0
 40
16.0
 40
16.0
 10
77.12604164738516
 20
-127.0358289612966
 10
77.12604164738516
 20
-127.1140326288118
 10
77.10916067950744
 20
-127.2156629456266
 10
77.04577092257884
 20
-127.3172932624415
 10
76.9357001218251
 20
-127.4905815653496
 10
76.80461423861135
 20
-127.5119411573581
 10
76.69678274992303
 20
-127.530889182527
 10
76.69678274992303
 20
-127.530889182527
 10
76.69678274992303
 20
-127.3086805237284
 10
76.69678274992303
 20
-127.3086805237284
 10
76.89556475942194
 20
-127.2539035055129
 10
76.9251925805951
 20
-127.1267794821072
 10
76.9251925805951
 20
-127.0337619040055
 10
76.9251925805951
 20
-126.8942355368528
 10
76.82580157584563
 20
-126.7419623164048
 10
76.59308537581701
 20
-126.7419623164048
 10
76.33711478126294
 20
-126.7419623164048
 10
76.26735159768664
 20
-126.9217963007348
 10
76.26735159768664
 20
-127.0423746427186
 10
76.26735159768664
 20
-127.0740695211829
 10
76.26735159768664
 20
-127.2156629456266
 10
76.39637042360924
 20
-127.3045464091461
 10
76.39637042360924
 20
-127.3045464091461
 10
76.3772501436661
 20
-127.4802462788938
 10
76.3772501436661
 20
-127.4802462788938
 10
76.3772501436661
 20
-127.4802462788938
 10
75.53113469248875
 20
-127.3596679369101
 10
75.53113469248875
 20
-127.3596679369101
 10
75.53113469248875
 20
-127.3596679369101
 10
75.53113469248875
 20
-126.5810763572436
 10
75.53113469248875
 20
-126.5810763572436
 10
75.53113469248875
 20
-126.5810763572436
 10
75.72578258740536
 20
-126.5810763572436
 10
75.72578258740536
 20
-126.5810763572436
 10
75.72578258740536
 20
-126.5810763572436
 10
75.72578258740536
 20
-127.1967149204578
 10
75.72578258740536
 20
-127.1967149204578
 10
75.72578258740536
 20
-127.1967149204578
 10
76.14884031299404
 20
-127.2621717346775
 10
76.14884031299404
 20
-127.2621717346775
 10
76.11490612246433
 20
-127.2008490350401
 10
76.07477076006117
 20
-127.1185112529426
 10
76.07477076006117
 20
-126.99999996825
 10
76.07477076006117
 20
-126.7460964309871
 10
76.26097817103893
 20
-126.5090738616019
 10
76.57396509587387
 20
-126.5090738616019
 10
76.89143064483964
 20
-126.5090738616019
 10
77.12604164738516
 20
-126.7333495776917
 10
77.12604164738516
 20
-127.0358289612966
 97
        0
 97
        0
 75
     2
 76
     1
 98
        0
  0
ENDBLK
  5
6B
330
68
100
AcDbEntity
  8
0
100
AcDbBlockEnd
  0
BLOCK
  5
72
330
70
100
AcDbEntity
  8
0
100
AcDbBlockBegin
  2
block 4
 70
     0
 10
0.0
 20
0.0
 30
0.0
  3
block 4
  1

  0
SPLINE
  5
74
330
70
100
AcDbEntity
  8
_U+30EC_U+30A4_U+30E4_U+30FC 1
370
     0
100
AcDbSpline
210
0.0
220
0.0
230
1.0
 70
    11
 71
     3
 72
    44
 73
    40
 74
     0
 42
0.0000000001
 43
0.0000000001
 12
1.0
 22
0.0
 32
0.0
 13
1.0
 23
0.0
 33
0.0
 40
0.0
 40
0.0
 40
0.0
 40
0.0
 40
1.0
 40
1.0
 40
1.0
 40
2.0
 40
2.0
 40
2.0
 40
3.0
 40
3.0
 40
3.0
 40
4.0
 40
4.0
 40
4.0
 40
5.0
 40
5.0
 40
5.0
 40
6.0
 40
6.0
 40
6.0
 40
7.0
 40
7.0
 40
7.0
 40
8.0
 40
8.0
 40
8.0
 40
9.0
 40
9.0
 40
9.0
 40
10.0
 40
10.0
 40
10.0
 40
11.0
 40
11.0
 40
11.0
 40
12.0
 40
12.0
 40
12.0
 40
13.0
 40
13.0
 40
13.0
 40
13.0
 10
106.3621554638609
 20
-135.2141411337312
 30
0.0
 10
106.5209743657309
 20
-135.431871168399
 30
0.0
 10
106.5950439186637
 20
-135.5248887465007
 30
0.0
 10
106.7387044003987
 20
-135.5738091023913
 30
0.0
 10
106.7387044003987
 20
-135.5738091023913
 30
0.0
 10
106.7387044003987
 20
-134.7952175227248
 30
0.0
 10
106.7387044003987
 20
-134.7952175227248
 30
0.0
 10
106.7387044003987
 20
-134.7952175227248
 30
0.0
 10
106.9440320913196
 20
-134.7952175227248
 30
0.0
 10
106.9440320913196
 20
-134.7952175227248
 30
0.0
 10
106.9440320913196
 20
-134.7952175227248
 30
0.0
 10
106.9440320913196
 20
-135.8232340155234
 30
0.0
 10
106.9440320913196
 20
-135.8232340155234
 30
0.0
 10
106.5864311799506
 20
-135.7915391370591
 30
0.0
 10
106.5082275124355
 20
-135.7260823228393
 30
0.0
 10
106.2098822434128
 20
-135.3409206475884
 30
0.0
 10
106.0111002339139
 20
-135.0849500530343
 30
0.0
 10
105.9432318528545
 20
-135.0194932388146
 30
0.0
 10
105.805772542993
 20
-135.0194932388146
 30
0.0
 10
105.6872612583004
 20
-135.0194932388146
 30
0.0
 10
105.5563476298609
 20
-135.0914957344563
 30
0.0
 10
105.5563476298609
 20
-135.2882106866641
 30
0.0
 10
105.5563476298609
 20
-135.5483153958004
 30
0.0
 10
105.7868245178241
 20
-135.5569281345136
 30
0.0
 10
105.9032687452256
 20
-135.5610622490958
 30
0.0
 10
105.9032687452256
 20
-135.5610622490958
 30
0.0
 10
105.9032687452256
 20
-135.7853379651856
 30
0.0
 10
105.9032687452256
 20
-135.7853379651856
 30
0.0
 10
105.7761447218199
 20
-135.7767252264725
 30
0.0
 10
105.6641791185492
 20
-135.7660454304682
 30
0.0
 10
105.5456678338566
 20
-135.6857747056619
 30
0.0
 10
105.3847818746955
 20
-135.5758761596824
 30
0.0
 10
105.35101993894
 20
-135.3894964939304
 30
0.0
 10
105.35101993894
 20
-135.2733967760775
 30
0.0
 10
105.35101993894
 20
-134.9960665895149
 30
0.0
 10
105.5349880378524
 20
-134.7886718413028
 30
0.0
 10
105.8078396002842
 20
-134.7886718413028
 30
0.0
 10
106.0365939405047
 20
-134.7886718413028
 30
0.0
 10
106.1358126904799
 20
-134.9051160687043
 30
0.0
 10
106.3621554638609
 20
-135.2141411337312
 30
0.0
  0
HATCH
  5
75
330
70
100
AcDbEntity
  8
_U+30EC_U+30A4_U+30E4_U+30FC 1
 62
   179
420
  2234388
100
AcDbHatch
 10
0.0
 20
0.0
 30
0.0
210
0.0
220
0.0
230
1.0
  2
SOLID
 70
     1
 71
     0
 91
        1
 92
        1
 93
        1
 72
     4
 94
        3
 73
     0
 74
     1
 95
       44
 96
       40
 40
0.0
 40
0.0
 40
0.0
 40
0.0
 40
1.0
 40
1.0
 40
1.0
 40
2.0
 40
2.0
 40
2.0
 40
3.0
 40
3.0
 40
3.0
 40
4.0
 40
4.0
 40
4.0
 40
5.0
 40
5.0
 40
5.0
 40
6.0
 40
6.0
 40
6.0
 40
7.0
 40
7.0
 40
7.0
 40
8.0
 40
8.0
 40
8.0
 40
9.0
 40
9.0
 40
9.0
 40
10.0
 40
10.0
 40
10.0
 40
11.0
 40
11.0
 40
11.0
 40
12.0
 40
12.0
 40
12.0
 40
13.0
 40
13.0
 40
13.0
 40
13.0
 10
106.3621554638609
 20
-135.2141411337312
 10
106.5209743657309
 20
-135.431871168399
 10
106.5950439186637
 20
-135.5248887465007
 10
106.7387044003987
 20
-135.5738091023913
 10
106.7387044003987
 20
-135.5738091023913
 10
106.7387044003987
 20
-134.7952175227248
 10
106.7387044003987
 20
-134.7952175227248
 10
106.7387044003987
 20
-134.7952175227248
 10
106.9440320913196
 20
-134.7952175227248
 10
106.9440320913196
 20
-134.7952175227248
 10
106.9440320913196
 20
-134.7952175227248
 10
106.9440320913196
 20
-135.8232340155234
 10
106.9440320913196
 20
-135.8232340155234
 10
106.5864311799506
 20
-135.7915391370591
 10
106.5082275124355
 20
-135.7260823228393
 10
106.2098822434128
 20
-135.3409206475884
 10
106.0111002339139
 20
-135.0849500530343
 10
105.9432318528545
 20
-135.0194932388146
 10
105.805772542993
 20
-135.0194932388146
 10
105.6872612583004
 20
-135.0194932388146
 10
105.5563476298609
 20
-135.0914957344563
 10
105.5563476298609
 20
-135.2882106866641
 10
105.5563476298609
 20
-135.5483153958004
 10
105.7868245178241
 20
-135.5569281345136
 10
105.9032687452256
 20
-135.5610622490958
 10
105.9032687452256
 20
-135.5610622490958
 10
105.9032687452256
 20
-135.7853379651856
 10
105.9032687452256
 20
-135.7853379651856
 10
105.7761447218199
 20
-135.7767252264725
 10
105.6641791185492
 20
-135.7660454304682
 10
105.5456678338566
 20
-135.6857747056619
 10
105.3847818746955
 20
-135.5758761596824
 10
105.35101993894
 20
-135.3894964939304
 10
105.35101993894
 20
-135.2733967760775
 10
105.35101993894
 20
-134.9960665895149
 10
105.5349880378524
 20
-134.7886718413028
 10
105.8078396002842
 20
-134.7886718413028
 10
106.0365939405047
 20
-134.7886718413028
 10
106.1358126904799
 20
-134.9051160687043
 10
106.3621554638609
 20
-135.2141411337312
 97
        0
 97
        0
 75
     2
 76
     1
 98
        0
  0
SPLINE
  5
76
330
70
100
AcDbEntity
  8
_U+30EC_U+30A4_U+30E4_U+30FC 1
370
     0
100
AcDbSpline
210
0.0
220
0.0
230
1.0
 70
    11
 71
     3
 72
    53
 73
    49
 74
     0
 42
0.0000000001
 43
0.0000000001
 12
1.0
 22
0.0
 32
0.0
 13
1.0
 23
0.0
 33
0.0
 40
0.0
 40
0.0
 40
0.0
 40
0.0
 40
1.0
 40
1.0
 40
1.0
 40
2.0
 40
2.0
 40
2.0
 40
3.0
 40
3.0
 40
3.0
 40
4.0
 40
4.0
 40
4.0
 40
5.0
 40
5.0
 40
5.0
 40
6.0
 40
6.0
 40
6.0
 40
7.0
 40
7.0
 40
7.0
 40
8.0
 40
8.0
 40
8.0
 40
9.0
 40
9.0
 40
9.0
 40
10.0
 40
10.0
 40
10.0
 40
11.0
 40
11.0
 40
11.0
 40
12.0
 40
12.0
 40
12.0
 40
13.0
 40
13.0
 40
13.0
 40
14.0
 40
14.0
 40
14.0
 40
15.0
 40
15.0
 40
15.0
 40
16.0
 40
16.0
 40
16.0
 40
16.0
 10
106.9946749949527
 20
-134.1492621192405
 30
0.0
 10
106.9946749949527
 20
-134.2274657867556
 30
0.0
 10
106.977794027075
 20
-134.3290961035705
 30
0.0
 10
106.9144042701464
 20
-134.4307264203854
 30
0.0
 10
106.8045057241669
 20
-134.6040147232935
 30
0.0
 10
106.6732475861789
 20
-134.625374315302
 30
0.0
 10
106.5654160974906
 20
-134.6443223404709
 30
0.0
 10
106.5654160974906
 20
-134.6443223404709
 30
0.0
 10
106.5654160974906
 20
-134.4221136816722
 30
0.0
 10
106.5654160974906
 20
-134.4221136816722
 30
0.0
 10
106.7641981069895
 20
-134.3673366634568
 30
0.0
 10
106.7938259281627
 20
-134.2402126400511
 30
0.0
 10
106.7938259281627
 20
-134.1471950619493
 30
0.0
 10
106.7938259281627
 20
-134.0076686947967
 30
0.0
 10
106.6942626686389
 20
-133.8553954743487
 30
0.0
 10
106.4617187233846
 20
-133.8553954743487
 30
0.0
 10
106.2057481288305
 20
-133.8553954743487
 30
0.0
 10
106.1358126904799
 20
-134.0352294586787
 30
0.0
 10
106.1358126904799
 20
-134.1558078006624
 30
0.0
 10
106.1358126904799
 20
-134.1875026791267
 30
0.0
 10
106.1358126904799
 20
-134.3290961035705
 30
0.0
 10
106.2650037711768
 20
-134.41797956709
 30
0.0
 10
106.2650037711768
 20
-134.41797956709
 30
0.0
 10
106.2460557460079
 20
-134.5936794368377
 30
0.0
 10
106.2460557460079
 20
-134.5936794368377
 30
0.0
 10
106.2460557460079
 20
-134.5936794368377
 30
0.0
 10
105.399595785282
 20
-134.4731010948539
 30
0.0
 10
105.399595785282
 20
-134.4731010948539
 30
0.0
 10
105.399595785282
 20
-134.4731010948539
 30
0.0
 10
105.399595785282
 20
-133.6945095151875
 30
0.0
 10
105.399595785282
 20
-133.6945095151875
 30
0.0
 10
105.399595785282
 20
-133.6945095151875
 30
0.0
 10
105.5942436801987
 20
-133.6945095151875
 30
0.0
 10
105.5942436801987
 20
-133.6945095151875
 30
0.0
 10
105.5942436801987
 20
-133.6945095151875
 30
0.0
 10
105.5942436801987
 20
-134.3101480784016
 30
0.0
 10
105.5942436801987
 20
-134.3101480784016
 30
0.0
 10
105.5942436801987
 20
-134.3101480784016
 30
0.0
 10
106.0173014057874
 20
-134.3756048926214
 30
0.0
 10
106.0173014057874
 20
-134.3756048926214
 30
0.0
 10
105.9835394700319
 20
-134.3142821929839
 30
0.0
 10
105.9432318528545
 20
-134.2319444108865
 30
0.0
 10
105.9432318528545
 20
-134.1134331261939
 30
0.0
 10
105.9432318528545
 20
-133.859529588931
 30
0.0
 10
106.1296115186065
 20
-133.6225070195458
 30
0.0
 10
106.4427706982157
 20
-133.6225070195458
 30
0.0
 10
106.7600639924072
 20
-133.6225070195458
 30
0.0
 10
106.9946749949527
 20
-133.8467827356355
 30
0.0
 10
106.9946749949527
 20
-134.1492621192405
 30
0.0
  0
HATCH
  5
77
330
70
100
AcDbEntity
  8
_U+30EC_U+30A4_U+30E4_U+30FC 1
 62
   179
420
  2234388
100
AcDbHatch
 10
0.0
 20
0.0
 30
0.0
210
0.0
220
0.0
230
1.0
  2
SOLID
 70
     1
 71
     0
 91
        1
 92
        1
 93
        1
 72
     4
 94
        3
 73
     0
 74
     1
 95
       53
 96
       49
 40
0.0
 40
0.0
 40
0.0
 40
0.0
 40
1.0
 40
1.0
 40
1.0
 40
2.0
 40
2.0
 40
2.0
 40
3.0
 40
3.0
 40
3.0
 40
4.0
 40
4.0
 40
4.0
 40
5.0
 40
5.0
 40
5.0
 40
6.0
 40
6.0
 40
6.0
 40
7.0
 40
7.0
 40
7.0
 40
8.0
 40
8.0
 40
8.0
 40
9.0
 40
9.0
 40
9.0
 40
10.0
 40
10.0
 40
10.0
 40
11.0
 40
11.0
 40
11.0
 40
12.0
 40
12.0
 40
12.0
 40
13.0
 40
13.0
 40
13.0
 40
14.0
 40
14.0
 40
14.0
 40
15.0
 40
15.0
 40
15.0
 40
16.0
 40
16.0
 40
16.0
 40
16.0
 10
106.9946749949527
 20
-134.1492621192405
 10
106.9946749949527
 20
-134.2274657867556
 10
106.977794027075
 20
-134.3290961035705
 10
106.9144042701464
 20
-134.4307264203854
 10
106.8045057241669
 20
-134.6040147232935
 10
106.6732475861789
 20
-134.625374315302
 10
106.5654160974906
 20
-134.6443223404709
 10
106.5654160974906
 20
-134.6443223404709
 10
106.5654160974906
 20
-134.4221136816722
 10
106.5654160974906
 20
-134.4221136816722
 10
106.7641981069895
 20
-134.3673366634568
 10
106.7938259281627
 20
-134.2402126400511
 10
106.7938259281627
 20
-134.1471950619493
 10
106.7938259281627
 20
-134.0076686947967
 10
106.6942626686389
 20
-133.8553954743487
 10
106.4617187233846
 20
-133.8553954743487
 10
106.2057481288305
 20
-133.8553954743487
 10
106.1358126904799
 20
-134.0352294586787
 10
106.1358126904799
 20
-134.1558078006624
 10
106.1358126904799
 20
-134.1875026791267
 10
106.1358126904799
 20
-134.3290961035705
 10
106.2650037711768
 20
-134.41797956709
 10
106.2650037711768
 20
-134.41797956709
 10
106.2460557460079
 20
-134.5936794368377
 10
106.2460557460079
 20
-134.5936794368377
 10
106.2460557460079
 20
-134.5936794368377
 10
105.399595785282
 20
-134.4731010948539
 10
105.399595785282
 20
-134.4731010948539
 10
105.399595785282
 20
-134.4731010948539
 10
105.399595785282
 20
-133.6945095151875
 10
105.399595785282
 20
-133.6945095151875
 10
105.399595785282
 20
-133.6945095151875
 10
105.5942436801987
 20
-133.6945095151875
 10
105.5942436801987
 20
-133.6945095151875
 10
105.5942436801987
 20
-133.6945095151875
 10
105.5942436801987
 20
-134.3101480784016
 10
105.5942436801987
 20
-134.3101480784016
 10
105.5942436801987
 20
-134.3101480784016
 10
106.0173014057874
 20
-134.3756048926214
 10
106.0173014057874
 20
-134.3756048926214
 10
105.9835394700319
 20
-134.3142821929839
 10
105.9432318528545
 20
-134.2319444108865
 10
105.9432318528545
 20
-134.1134331261939
 10
105.9432318528545
 20
-133.859529588931
 10
106.1296115186065
 20
-133.6225070195458
 10
106.4427706982157
 20
-133.6225070195458
 10
106.7600639924072
 20
-133.6225070195458
 10
106.9946749949527
 20
-133.8467827356355
 10
106.9946749949527
 20
-134.1492621192405
 97
        0
 97
        0
 75
     2
 76
     1
 98
        0
  0
ENDBLK
  5
73
330
70
100
AcDbEntity
  8
0
100
AcDbBlockEnd
  0
BLOCK
  5
7A
330
78
100
AcDbEntity
  8
0
100
AcDbBlockBegin
  2
block 5
 70
     0
 10
0.0
 20
0.0
 30
0.0
  3
block 5
  1

  0
SPLINE
  5
7C
330
78
100
AcDbEntity
  8
_U+30EC_U+30A4_U+30E4_U+30FC 1
370
     0
100
AcDbSpline
210
0.0
220
0.0
230
1.0
 70
    11
 71
     3
 72
    44
 73
    40
 74
     0
 42
0.0000000001
 43
0.0000000001
 12
1.0
 22
0.0
 32
0.0
 13
1.0
 23
0.0
 33
0.0
 40
0.0
 40
0.0
 40
0.0
 40
0.0
 40
1.0
 40
1.0
 40
1.0
 40
2.0
 40
2.0
 40
2.0
 40
3.0
 40
3.0
 40
3.0
 40
4.0
 40
4.0
 40
4.0
 40
5.0
 40
5.0
 40
5.0
 40
6.0
 40
6.0
 40
6.0
 40
7.0
 40
7.0
 40
7.0
 40
8.0
 40
8.0
 40
8.0
 40
9.0
 40
9.0
 40
9.0
 40
10.0
 40
10.0
 40
10.0
 40
11.0
 40
11.0
 40
11.0
 40
12.0
 40
12.0
 40
12.0
 40
13.0
 40
13.0
 40
13.0
 40
13.0
 10
74.75805526559868
 20
-148.3082600540688
 30
0.0
 10
74.54015297615663
 20
-148.4670789559388
 30
0.0
 10
74.44696314328063
 20
-148.5411485088717
 30
0.0
 10
74.3983872969386
 20
-148.6848089906066
 30
0.0
 10
74.3983872969386
 20
-148.6848089906066
 30
0.0
 10
75.1768066218308
 20
-148.6848089906066
 30
0.0
 10
75.1768066218308
 20
-148.6848089906066
 30
0.0
 10
75.1768066218308
 20
-148.6848089906066
 30
0.0
 10
75.1768066218308
 20
-148.8901366815275
 30
0.0
 10
75.1768066218308
 20
-148.8901366815275
 30
0.0
 10
75.1768066218308
 20
-148.8901366815275
 30
0.0
 10
74.14879012903225
 20
-148.8901366815275
 30
0.0
 10
74.14879012903225
 20
-148.8901366815275
 30
0.0
 10
74.18048500749654
 20
-148.5325357701585
 30
0.0
 10
74.2459418217163
 20
-148.4543321026434
 30
0.0
 10
74.63110349696723
 20
-148.1559868336207
 30
0.0
 10
74.88707409152128
 20
-147.9572048241218
 30
0.0
 10
74.95253090574104
 20
-147.8893364430624
 30
0.0
 10
74.95253090574104
 20
-147.7518771332009
 30
0.0
 10
74.95253090574104
 20
-147.6333658485083
 30
0.0
 10
74.88070066487357
 20
-147.5024522200688
 30
0.0
 10
74.68398571266582
 20
-147.5024522200688
 30
0.0
 10
74.42370874875519
 20
-147.5024522200688
 30
0.0
 10
74.41526826481632
 20
-147.732929108032
 30
0.0
 10
74.41096189545976
 20
-147.8493733354335
 30
0.0
 10
74.41096189545976
 20
-147.8493733354335
 30
0.0
 10
74.18685843414426
 20
-147.8493733354335
 30
0.0
 10
74.18685843414426
 20
-147.8493733354335
 30
0.0
 10
74.19529891808313
 20
-147.7222493120278
 30
0.0
 10
74.20580645931314
 20
-147.6102837087572
 30
0.0
 10
74.28624943889372
 20
-147.4917724240645
 30
0.0
 10
74.3961479848732
 20
-147.3308864649034
 30
0.0
 10
74.58235539585094
 20
-147.2971245291479
 30
0.0
 10
74.69879962325238
 20
-147.2971245291479
 30
0.0
 10
74.97595755504074
 20
-147.2971245291479
 30
0.0
 10
75.18318004847852
 20
-147.4810926280603
 30
0.0
 10
75.18318004847852
 20
-147.7539441904921
 30
0.0
 10
75.18318004847852
 20
-147.9826985307127
 30
0.0
 10
75.06690807585133
 20
-148.0819172806879
 30
0.0
 10
74.75805526559868
 20
-148.3082600540688
 30
0.0
  0
HATCH
  5
7D
330
78
100
AcDbEntity
  8
_U+30EC_U+30A4_U+30E4_U+30FC 1
 62
   179
420
  2234388
100
AcDbHatch
 10
0.0
 20
0.0
 30
0.0
210
0.0
220
0.0
230
1.0
  2
SOLID
 70
     1
 71
     0
 91
        1
 92
        1
 93
        1
 72
     4
 94
        3
 73
     0
 74
     1
 95
       44
 96
       40
 40
0.0
 40
0.0
 40
0.0
 40
0.0
 40
1.0
 40
1.0
 40
1.0
 40
2.0
 40
2.0
 40
2.0
 40
3.0
 40
3.0
 40
3.0
 40
4.0
 40
4.0
 40
4.0
 40
5.0
 40
5.0
 40
5.0
 40
6.0
 40
6.0
 40
6.0
 40
7.0
 40
7.0
 40
7.0
 40
8.0
 40
8.0
 40
8.0
 40
9.0
 40
9.0
 40
9.0
 40
10.0
 40
10.0
 40
10.0
 40
11.0
 40
11.0
 40
11.0
 40
12.0
 40
12.0
 40
12.0
 40
13.0
 40
13.0
 40
13.0
 40
13.0
 10
74.75805526559868
 20
-148.3082600540688
 10
74.54015297615663
 20
-148.4670789559388
 10
74.44696314328063
 20
-148.5411485088717
 10
74.3983872969386
 20
-148.6848089906066
 10
74.3983872969386
 20
-148.6848089906066
 10
75.1768066218308
 20
-148.6848089906066
 10
75.1768066218308
 20
-148.6848089906066
 10
75.1768066218308
 20
-148.6848089906066
 10
75.1768066218308
 20
-148.8901366815275
 10
75.1768066218308
 20
-148.8901366815275
 10
75.1768066218308
 20
-148.8901366815275
 10
74.14879012903225
 20
-148.8901366815275
 10
74.14879012903225
 20
-148.8901366815275
 10
74.18048500749654
 20
-148.5325357701585
 10
74.2459418217163
 20
-148.4543321026434
 10
74.63110349696723
 20
-148.1559868336207
 10
74.88707409152128
 20
-147.9572048241218
 10
74.95253090574104
 20
-147.8893364430624
 10
74.95253090574104
 20
-147.7518771332009
 10
74.95253090574104
 20
-147.6333658485083
 10
74.88070066487357
 20
-147.5024522200688
 10
74.68398571266582
 20
-147.5024522200688
 10
74.42370874875519
 20
-147.5024522200688
 10
74.41526826481632
 20
-147.732929108032
 10
74.41096189545976
 20
-147.8493733354335
 10
74.41096189545976
 20
-147.8493733354335
 10
74.18685843414426
 20
-147.8493733354335
 10
74.18685843414426
 20
-147.8493733354335
 10
74.19529891808313
 20
-147.7222493120278
 10
74.20580645931314
 20
-147.6102837087572
 10
74.28624943889372
 20
-147.4917724240645
 10
74.3961479848732
 20
-147.3308864649034
 10
74.58235539585094
 20
-147.2971245291479
 10
74.69879962325238
 20
-147.2971245291479
 10
74.97595755504074
 20
-147.2971245291479
 10
75.18318004847852
 20
-147.4810926280603
 10
75.18318004847852
 20
-147.7539441904921
 10
75.18318004847852
 20
-147.9826985307127
 10
75.06690807585133
 20
-148.0819172806879
 10
74.75805526559868
 20
-148.3082600540688
 97
        0
 97
        0
 75
     2
 76
     1
 98
        0
  0
ENDBLK
  5
7B
330
78
100
AcDbEntity
  8
0
100
AcDbBlockEnd
  0
BLOCK
  5
80
330
7E
100
AcDbEntity
  8
0
100
AcDbBlockBegin
  2
block 6
 70
     0
 10
0.0
 20
0.0
 30
0.0
  3
block 6
  1

  0
SPLINE
  5
82
330
7E
100
AcDbEntity
  8
_U+30EC_U+30A4_U+30E4_U+30FC 1
370
     0
100
AcDbSpline
210
0.0
220
0.0
230
1.0
 70
    11
 71
     3
 72
    26
 73
    22
 74
     0
 42
0.0000000001
 43
0.0000000001
 12
1.0
 22
0.0
 32
0.0
 13
1.0
 23
0.0
 33
0.0
 40
0.0
 40
0.0
 40
0.0
 40
0.0
 40
1.0
 40
1.0
 40
1.0
 40
2.0
 40
2.0
 40
2.0
 40
3.0
 40
3.0
 40
3.0
 40
4.0
 40
4.0
 40
4.0
 40
5.0
 40
5.0
 40
5.0
 40
6.0
 40
6.0
 40
6.0
 40
7.0
 40
7.0
 40
7.0
 40
7.0
 10
91.49071178268288
 20
-146.77347001539
 30
0.0
 10
91.49071178268288
 20
-146.77347001539
 30
0.0
 10
91.49071178268288
 20
-145.6693169123674
 30
0.0
 10
91.49071178268288
 20
-145.6693169123674
 30
0.0
 10
91.49071178268288
 20
-145.6693169123674
 30
0.0
 10
91.16067163519595
 20
-145.6693169123674
 30
0.0
 10
91.16067163519595
 20
-145.6693169123674
 30
0.0
 10
91.16067163519595
 20
-145.6693169123674
 30
0.0
 10
91.16067163519595
 20
-145.5211778065017
 30
0.0
 10
91.16067163519595
 20
-145.5211778065017
 30
0.0
 10
91.49277883997404
 20
-145.5063638959151
 30
0.0
 10
91.5392876290249
 20
-145.3434108794628
 30
0.0
 10
91.56891545019805
 20
-145.2290337093525
 30
0.0
 10
91.56891545019805
 20
-145.2290337093525
 30
0.0
 10
91.71498749877264
 20
-145.2290337093525
 30
0.0
 10
91.71498749877264
 20
-145.2290337093525
 30
0.0
 10
91.71498749877264
 20
-145.2290337093525
 30
0.0
 10
91.71498749877264
 20
-146.77347001539
 30
0.0
 10
91.71498749877264
 20
-146.77347001539
 30
0.0
 10
91.71498749877264
 20
-146.77347001539
 30
0.0
 10
91.49071178268288
 20
-146.77347001539
 30
0.0
 10
91.49071178268288
 20
-146.77347001539
 30
0.0
  0
HATCH
  5
83
330
7E
100
AcDbEntity
  8
_U+30EC_U+30A4_U+30E4_U+30FC 1
 62
   179
420
  2234388
100
AcDbHatch
 10
0.0
 20
0.0
 30
0.0
210
0.0
220
0.0
230
1.0
  2
SOLID
 70
     1
 71
     0
 91
        1
 92
        1
 93
        1
 72
     4
 94
        3
 73
     0
 74
     1
 95
       26
 96
       22
 40
0.0
 40
0.0
 40
0.0
 40
0.0
 40
1.0
 40
1.0
 40
1.0
 40
2.0
 40
2.0
 40
2.0
 40
3.0
 40
3.0
 40
3.0
 40
4.0
 40
4.0
 40
4.0
 40
5.0
 40
5.0
 40
5.0
 40
6.0
 40
6.0
 40
6.0
 40
7.0
 40
7.0
 40
7.0
 40
7.0
 10
91.49071178268288
 20
-146.77347001539
 10
91.49071178268288
 20
-146.77347001539
 10
91.49071178268288
 20
-145.6693169123674
 10
91.49071178268288
 20
-145.6693169123674
 10
91.49071178268288
 20
-145.6693169123674
 10
91.16067163519595
 20
-145.6693169123674
 10
91.16067163519595
 20
-145.6693169123674
 10
91.16067163519595
 20
-145.6693169123674
 10
91.16067163519595
 20
-145.5211778065017
 10
91.16067163519595
 20
-145.5211778065017
 10
91.49277883997404
 20
-145.5063638959151
 10
91.5392876290249
 20
-145.3434108794628
 10
91.56891545019805
 20
-145.2290337093525
 10
91.56891545019805
 20
-145.2290337093525
 10
91.71498749877264
 20
-145.2290337093525
 10
91.71498749877264
 20
-145.2290337093525
 10
91.71498749877264
 20
-145.2290337093525
 10
91.71498749877264
 20
-146.77347001539
 10
91.71498749877264
 20
-146.77347001539
 10
91.71498749877264
 20
-146.77347001539
 10
91.49071178268288
 20
-146.77347001539
 10
91.49071178268288
 20
-146.77347001539
 97
        0
 97
        0
 75
     2
 76
     1
 98
        0
  0
SPLINE
  5
84
330
7E
100
AcDbEntity
  8
_U+30EC_U+30A4_U+30E4_U+30FC 1
370
     0
100
AcDbSpline
210
0.0
220
0.0
230
1.0
 70
    11
 71
     3
 72
    53
 73
    49
 74
     0
 42
0.0000000001
 43
0.0000000001
 12
1.0
 22
0.0
 32
0.0
 13
1.0
 23
0.0
 33
0.0
 40
0.0
 40
0.0
 40
0.0
 40
0.0
 40
1.0
 40
1.0
 40
1.0
 40
2.0
 40
2.0
 40
2.0
 40
3.0
 40
3.0
 40
3.0
 40
4.0
 40
4.0
 40
4.0
 40
5.0
 40
5.0
 40
5.0
 40
6.0
 40
6.0
 40
6.0
 40
7.0
 40
7.0
 40
7.0
 40
8.0
 40
8.0
 40
8.0
 40
9.0
 40
9.0
 40
9.0
 40
10.0
 40
10.0
 40
10.0
 40
11.0
 40
11.0
 40
11.0
 40
12.0
 40
12.0
 40
12.0
 40
13.0
 40
13.0
 40
13.0
 40
14.0
 40
14.0
 40
14.0
 40
15.0
 40
15.0
 40
15.0
 40
16.0
 40
16.0
 40
16.0
 40
16.0
 10
92.69718422161738
 20
-146.8241129190232
 30
0.0
 10
92.61898055410221
 20
-146.8241129190232
 30
0.0
 10
92.51735023728733
 20
-146.8072319511454
 30
0.0
 10
92.41571992047247
 20
-146.7438421942168
 30
0.0
 10
92.24243161756439
 20
-146.6339436482374
 30
0.0
 10
92.22107202555584
 20
-146.5026855102493
 30
0.0
 10
92.20212400038697
 20
-146.394854021561
 30
0.0
 10
92.20212400038697
 20
-146.394854021561
 30
0.0
 10
92.4243326591856
 20
-146.394854021561
 30
0.0
 10
92.4243326591856
 20
-146.394854021561
 30
0.0
 10
92.47910967740106
 20
-146.5936360310599
 30
0.0
 10
92.60623370080678
 20
-146.6232638522331
 30
0.0
 10
92.69925127890852
 20
-146.6232638522331
 30
0.0
 10
92.83877764606115
 20
-146.6232638522331
 30
0.0
 10
92.99105086650918
 20
-146.5237005927094
 30
0.0
 10
92.99105086650918
 20
-146.291156647455
 30
0.0
 10
92.99105086650918
 20
-146.0351860529009
 30
0.0
 10
92.81121688217914
 20
-145.9652506145504
 30
0.0
 10
92.6906385401954
 20
-145.9652506145504
 30
0.0
 10
92.6589436617311
 20
-145.9652506145504
 30
0.0
 10
92.51735023728733
 20
-145.9652506145504
 30
0.0
 10
92.4284667737679
 20
-146.0944416952472
 30
0.0
 10
92.4284667737679
 20
-146.0944416952472
 30
0.0
 10
92.25276690402015
 20
-146.0754936700783
 30
0.0
 10
92.25276690402015
 20
-146.0754936700783
 30
0.0
 10
92.25276690402015
 20
-146.0754936700783
 30
0.0
 10
92.3733452460039
 20
-145.2290337093525
 30
0.0
 10
92.3733452460039
 20
-145.2290337093525
 30
0.0
 10
92.3733452460039
 20
-145.2290337093525
 30
0.0
 10
93.15193682567035
 20
-145.2290337093525
 30
0.0
 10
93.15193682567035
 20
-145.2290337093525
 30
0.0
 10
93.15193682567035
 20
-145.2290337093525
 30
0.0
 10
93.15193682567035
 20
-145.4236816042691
 30
0.0
 10
93.15193682567035
 20
-145.4236816042691
 30
0.0
 10
93.15193682567035
 20
-145.4236816042691
 30
0.0
 10
92.53629826245621
 20
-145.4236816042691
 30
0.0
 10
92.53629826245621
 20
-145.4236816042691
 30
0.0
 10
92.53629826245621
 20
-145.4236816042691
 30
0.0
 10
92.47084144823646
 20
-145.8467393298578
 30
0.0
 10
92.47084144823646
 20
-145.8467393298578
 30
0.0
 10
92.53216414787391
 20
-145.8129773941023
 30
0.0
 10
92.61450192997138
 20
-145.7726697769249
 30
0.0
 10
92.73301321466397
 20
-145.7726697769249
 30
0.0
 10
92.98691675192688
 20
-145.7726697769249
 30
0.0
 10
93.22393932131207
 20
-145.9590494426769
 30
0.0
 10
93.22393932131207
 20
-146.2722086222861
 30
0.0
 10
93.22393932131207
 20
-146.5895019164776
 30
0.0
 10
92.99966360522231
 20
-146.8241129190232
 30
0.0
 10
92.69718422161738
 20
-146.8241129190232
 30
0.0
  0
HATCH
  5
85
330
7E
100
AcDbEntity
  8
_U+30EC_U+30A4_U+30E4_U+30FC 1
 62
   179
420
  2234388
100
AcDbHatch
 10
0.0
 20
0.0
 30
0.0
210
0.0
220
0.0
230
1.0
  2
SOLID
 70
     1
 71
     0
 91
        1
 92
        1
 93
        1
 72
     4
 94
        3
 73
     0
 74
     1
 95
       53
 96
       49
 40
0.0
 40
0.0
 40
0.0
 40
0.0
 40
1.0
 40
1.0
 40
1.0
 40
2.0
 40
2.0
 40
2.0
 40
3.0
 40
3.0
 40
3.0
 40
4.0
 40
4.0
 40
4.0
 40
5.0
 40
5.0
 40
5.0
 40
6.0
 40
6.0
 40
6.0
 40
7.0
 40
7.0
 40
7.0
 40
8.0
 40
8.0
 40
8.0
 40
9.0
 40
9.0
 40
9.0
 40
10.0
 40
10.0
 40
10.0
 40
11.0
 40
11.0
 40
11.0
 40
12.0
 40
12.0
 40
12.0
 40
13.0
 40
13.0
 40
13.0
 40
14.0
 40
14.0
 40
14.0
 40
15.0
 40
15.0
 40
15.0
 40
16.0
 40
16.0
 40
16.0
 40
16.0
 10
92.69718422161738
 20
-146.8241129190232
 10
92.61898055410221
 20
-146.8241129190232
 10
92.51735023728733
 20
-146.8072319511454
 10
92.41571992047247
 20
-146.7438421942168
 10
92.24243161756439
 20
-146.6339436482374
 10
92.22107202555584
 20
-146.5026855102493
 10
92.20212400038697
 20
-146.394854021561
 10
92.20212400038697
 20
-146.394854021561
 10
92.4243326591856
 20
-146.394854021561
 10
92.4243326591856
 20
-146.394854021561
 10
92.47910967740106
 20
-146.5936360310599
 10
92.60623370080678
 20
-146.6232638522331
 10
92.69925127890852
 20
-146.6232638522331
 10
92.83877764606115
 20
-146.6232638522331
 10
92.99105086650918
 20
-146.5237005927094
 10
92.99105086650918
 20
-146.291156647455
 10
92.99105086650918
 20
-146.0351860529009
 10
92.81121688217914
 20
-145.9652506145504
 10
92.6906385401954
 20
-145.9652506145504
 10
92.6589436617311
 20
-145.9652506145504
 10
92.51735023728733
 20
-145.9652506145504
 10
92.4284667737679
 20
-146.0944416952472
 10
92.4284667737679
 20
-146.0944416952472
 10
92.25276690402015
 20
-146.0754936700783
 10
92.25276690402015
 20
-146.0754936700783
 10
92.25276690402015
 20
-146.0754936700783
 10
92.3733452460039
 20
-145.2290337093525
 10
92.3733452460039
 20
-145.2290337093525
 10
92.3733452460039
 20
-145.2290337093525
 10
93.15193682567035
 20
-145.2290337093525
 10
93.15193682567035
 20
-145.2290337093525
 10
93.15193682567035
 20
-145.2290337093525
 10
93.15193682567035
 20
-145.4236816042691
 10
93.15193682567035
 20
-145.4236816042691
 10
93.15193682567035
 20
-145.4236816042691
 10
92.53629826245621
 20
-145.4236816042691
 10
92.53629826245621
 20
-145.4236816042691
 10
92.53629826245621
 20
-145.4236816042691
 10
92.47084144823646
 20
-145.8467393298578
 10
92.47084144823646
 20
-145.8467393298578
 10
92.53216414787391
 20
-145.8129773941023
 10
92.61450192997138
 20
-145.7726697769249
 10
92.73301321466397
 20
-145.7726697769249
 10
92.98691675192688
 20
-145.7726697769249
 10
93.22393932131207
 20
-145.9590494426769
 10
93.22393932131207
 20
-146.2722086222861
 10
93.22393932131207
 20
-146.5895019164776
 10
92.99966360522231
 20
-146.8241129190232
 10
92.69718422161738
 20
-146.8241129190232
 97
        0
 97
        0
 75
     2
 76
     1
 98
        0
  0
ENDBLK
  5
81
330
7E
100
AcDbEntity
  8
0
100
AcDbBlockEnd
  0
BLOCK
  5
D5
330
D3
100
AcDbEntity
  8
0
100
AcDbBlockBegin
  2
block 7
 70
     0
 10
0.0
 20
0.0
 30
0.0
  3
block 7
  1

  0
SPLINE
  5
D7
330
D3
100
AcDbEntity
  8
_U+30EC_U+30A4_U+30E4_U+30FC 1
370
     0
100
AcDbSpline
210
0.0
220
0.0
230
1.0
 70
    11
 71
     3
 72
    38
 73
    34
 74
     0
 42
0.0000000001
 43
0.0000000001
 12
1.0
 22
0.0
 32
0.0
 13
1.0
 23
0.0
 33
0.0
 40
0.0
 40
0.0
 40
0.0
 40
0.0
 40
1.0
 40
1.0
 40
1.0
 40
2.0
 40
2.0
 40
2.0
 40
3.0
 40
3.0
 40
3.0
 40
4.0
 40
4.0
 40
4.0
 40
5.0
 40
5.0
 40
5.0
 40
6.0
 40
6.0
 40
6.0
 40
7.0
 40
7.0
 40
7.0
 40
8.0
 40
8.0
 40
8.0
 40
9.0
 40
9.0
 40
9.0
 40
10.0
 40
10.0
 40
10.0
 40
11.0
 40
11.0
 40
11.0
 40
11.0
 10
97.26228024912193
 20
-109.6267279456836
 30
0.0
 10
97.07624509291844
 20
-109.88683265482
 30
0.0
 10
96.99597436811212
 20
-109.9987982580906
 30
0.0
 10
96.79684784906468
 20
-110.1682969559649
 30
0.0
 10
96.79684784906468
 20
-110.1682969559649
 30
0.0
 10
96.62976071803007
 20
-110.018090792808
 30
0.0
 10
96.62976071803007
 20
-110.018090792808
 30
0.0
 10
96.82888723707751
 20
-109.8995795081154
 30
0.0
 10
96.98529457210785
 20
-109.7111327850722
 30
0.0
 10
97.11861976738702
 20
-109.4827229544002
 30
0.0
 10
97.11861976738702
 20
-109.4827229544002
 30
0.0
 10
96.27663843079196
 20
-109.4827229544002
 30
0.0
 10
96.27663843079196
 20
-109.4827229544002
 30
0.0
 10
96.11368541433964
 20
-109.4827229544002
 30
0.0
 10
95.86184893436787
 20
-109.4889241262736
 30
0.0
 10
95.65479869570436
 20
-109.4975368649867
 30
0.0
 10
95.65479869570436
 20
-109.4975368649867
 30
0.0
 10
95.65479869570436
 20
-109.3049560273613
 30
0.0
 10
95.65479869570436
 20
-109.3049560273613
 30
0.0
 10
95.82188582673898
 20
-109.3156358233655
 30
0.0
 10
96.07785642129303
 20
-109.3197699379478
 30
0.0
 10
96.26595863478768
 20
-109.3197699379478
 30
0.0
 10
96.26595863478768
 20
-109.3197699379478
 30
0.0
 10
96.77169865202235
 20
-109.3197699379478
 30
0.0
 10
96.77169865202235
 20
-109.3197699379478
 30
0.0
 10
96.90709090459268
 20
-109.3197699379478
 30
0.0
 10
97.08037920750074
 20
-109.3049560273613
 30
0.0
 10
97.25814613453963
 20
-109.2798068303189
 30
0.0
 10
97.25814613453963
 20
-109.2798068303189
 30
0.0
 10
97.4148979791185
 20
-109.4720431583959
 30
0.0
 10
97.4148979791185
 20
-109.4720431583959
 30
0.0
 10
97.3680446805191
 20
-109.4934027504044
 30
0.0
 10
97.35323076993252
 20
-109.4996039222779
 30
0.0
 10
97.26228024912193
 20
-109.6267279456836
 30
0.0
  0
SPLINE
  5
D8
330
D3
100
AcDbEntity
  8
_U+30EC_U+30A4_U+30E4_U+30FC 1
370
     0
100
AcDbSpline
210
0.0
220
0.0
230
1.0
 70
    11
 71
     3
 72
    29
 73
    25
 74
     0
 42
0.0000000001
 43
0.0000000001
 12
1.0
 22
0.0
 32
0.0
 13
1.0
 23
0.0
 33
0.0
 40
0.0
 40
0.0
 40
0.0
 40
0.0
 40
1.0
 40
1.0
 40
1.0
 40
2.0
 40
2.0
 40
2.0
 40
3.0
 40
3.0
 40
3.0
 40
4.0
 40
4.0
 40
4.0
 40
5.0
 40
5.0
 40
5.0
 40
6.0
 40
6.0
 40
6.0
 40
7.0
 40
7.0
 40
7.0
 40
8.0
 40
8.0
 40
8.0
 40
8.0
 10
96.59806583956576
 20
-109.7131998423634
 30
0.0
 10
96.56430390381031
 20
-110.0749348683146
 30
0.0
 10
96.5239962866329
 20
-110.500404160743
 30
0.0
 10
96.03548174682447
 20
-110.8683403585676
 30
0.0
 10
96.03548174682447
 20
-110.8683403585676
 30
0.0
 10
95.82808699861242
 20
-110.7350151632885
 30
0.0
 10
95.82808699861242
 20
-110.7350151632885
 30
0.0
 10
96.06717662528877
 20
-110.5996229107182
 30
0.0
 10
96.19395613914595
 20
-110.4029079585104
 30
0.0
 10
96.2194498457368
 20
-110.3629448508815
 30
0.0
 10
96.3420952450117
 20
-110.1724310705472
 30
0.0
 10
96.373790123476
 20
-109.9860514047952
 30
0.0
 10
96.373790123476
 20
-109.7428276635365
 30
0.0
 10
96.373790123476
 20
-109.6963188744856
 30
0.0
 10
96.373790123476
 20
-109.6625569387302
 30
0.0
 10
96.3696560088937
 20
-109.5905544430885
 30
0.0
 10
96.3696560088937
 20
-109.5905544430885
 30
0.0
 10
96.59806583956576
 20
-109.6139810923882
 30
0.0
 10
96.59806583956576
 20
-109.6139810923882
 30
0.0
 10
96.64457462861664
 20
-109.6181152069705
 30
0.0
 10
96.6552544246209
 20
-109.6456759708525
 30
0.0
 10
96.6552544246209
 20
-109.660489881439
 30
0.0
 10
96.6552544246209
 20
-109.6815049638991
 30
0.0
 10
96.64905325274746
 20
-109.6835720211902
 30
0.0
 10
96.59806583956576
 20
-109.7131998423634
 30
0.0
  0
HATCH
  5
D9
330
D3
100
AcDbEntity
  8
_U+30EC_U+30A4_U+30E4_U+30FC 1
 62
   179
420
  2234388
100
AcDbHatch
 10
0.0
 20
0.0
 30
0.0
210
0.0
220
0.0
230
1.0
  2
SOLID
 70
     1
 71
     0
 91
        2
 92
        1
 93
        1
 72
     4
 94
        3
 73
     0
 74
     1
 95
       38
 96
       34
 40
0.0
 40
0.0
 40
0.0
 40
0.0
 40
1.0
 40
1.0
 40
1.0
 40
2.0
 40
2.0
 40
2.0
 40
3.0
 40
3.0
 40
3.0
 40
4.0
 40
4.0
 40
4.0
 40
5.0
 40
5.0
 40
5.0
 40
6.0
 40
6.0
 40
6.0
 40
7.0
 40
7.0
 40
7.0
 40
8.0
 40
8.0
 40
8.0
 40
9.0
 40
9.0
 40
9.0
 40
10.0
 40
10.0
 40
10.0
 40
11.0
 40
11.0
 40
11.0
 40
11.0
 10
97.26228024912193
 20
-109.6267279456836
 10
97.07624509291844
 20
-109.88683265482
 10
96.99597436811212
 20
-109.9987982580906
 10
96.79684784906468
 20
-110.1682969559649
 10
96.79684784906468
 20
-110.1682969559649
 10
96.62976071803007
 20
-110.018090792808
 10
96.62976071803007
 20
-110.018090792808
 10
96.82888723707751
 20
-109.8995795081154
 10
96.98529457210785
 20
-109.7111327850722
 10
97.11861976738702
 20
-109.4827229544002
 10
97.11861976738702
 20
-109.4827229544002
 10
96.27663843079196
 20
-109.4827229544002
 10
96.27663843079196
 20
-109.4827229544002
 10
96.11368541433964
 20
-109.4827229544002
 10
95.86184893436787
 20
-109.4889241262736
 10
95.65479869570436
 20
-109.4975368649867
 10
95.65479869570436
 20
-109.4975368649867
 10
95.65479869570436
 20
-109.3049560273613
 10
95.65479869570436
 20
-109.3049560273613
 10
95.82188582673898
 20
-109.3156358233655
 10
96.07785642129303
 20
-109.3197699379478
 10
96.26595863478768
 20
-109.3197699379478
 10
96.26595863478768
 20
-109.3197699379478
 10
96.77169865202235
 20
-109.3197699379478
 10
96.77169865202235
 20
-109.3197699379478
 10
96.90709090459268
 20
-109.3197699379478
 10
97.08037920750074
 20
-109.3049560273613
 10
97.25814613453963
 20
-109.2798068303189
 10
97.25814613453963
 20
-109.2798068303189
 10
97.4148979791185
 20
-109.4720431583959
 10
97.4148979791185
 20
-109.4720431583959
 10
97.3680446805191
 20
-109.4934027504044
 10
97.35323076993252
 20
-109.4996039222779
 10
97.26228024912193
 20
-109.6267279456836
 97
        0
 97
        0
 92
        1
 93
        1
 72
     4
 94
        3
 73
     0
 74
     1
 95
       29
 96
       25
 40
0.0
 40
0.0
 40
0.0
 40
0.0
 40
1.0
 40
1.0
 40
1.0
 40
2.0
 40
2.0
 40
2.0
 40
3.0
 40
3.0
 40
3.0
 40
4.0
 40
4.0
 40
4.0
 40
5.0
 40
5.0
 40
5.0
 40
6.0
 40
6.0
 40
6.0
 40
7.0
 40
7.0
 40
7.0
 40
8.0
 40
8.0
 40
8.0
 40
8.0
 10
96.59806583956576
 20
-109.7131998423634
 10
96.56430390381031
 20
-110.0749348683146
 10
96.5239962866329
 20
-110.500404160743
 10
96.03548174682447
 20
-110.8683403585676
 10
96.03548174682447
 20
-110.8683403585676
 10
95.82808699861242
 20
-110.7350151632885
 10
95.82808699861242
 20
-110.7350151632885
 10
96.06717662528877
 20
-110.5996229107182
 10
96.19395613914595
 20
-110.4029079585104
 10
96.2194498457368
 20
-110.3629448508815
 10
96.3420952450117
 20
-110.1724310705472
 10
96.373790123476
 20
-109.9860514047952
 10
96.373790123476
 20
-109.7428276635365
 10
96.373790123476
 20
-109.6963188744856
 10
96.373790123476
 20
-109.6625569387302
 10
96.3696560088937
 20
-109.5905544430885
 10
96.3696560088937
 20
-109.5905544430885
 10
96.59806583956576
 20
-109.6139810923882
 10
96.59806583956576
 20
-109.6139810923882
 10
96.64457462861664
 20
-109.6181152069705
 10
96.6552544246209
 20
-109.6456759708525
 10
96.6552544246209
 20
-109.660489881439
 10
96.6552544246209
 20
-109.6815049638991
 10
96.64905325274746
 20
-109.6835720211902
 10
96.59806583956576
 20
-109.7131998423634
 97
        0
 97
        0
 75
     2
 76
     1
 98
        0
  0
SPLINE
  5
DA
330
D3
100
AcDbEntity
  8
_U+30EC_U+30A4_U+30E4_U+30FC 1
370
     0
100
AcDbSpline
210
0.0
220
0.0
230
1.0
 70
    11
 71
     3
 72
    35
 73
    31
 74
     0
 42
0.0000000001
 43
0.0000000001
 12
1.0
 22
0.0
 32
0.0
 13
1.0
 23
0.0
 33
0.0
 40
0.0
 40
0.0
 40
0.0
 40
0.0
 40
1.0
 40
1.0
 40
1.0
 40
2.0
 40
2.0
 40
2.0
 40
3.0
 40
3.0
 40
3.0
 40
4.0
 40
4.0
 40
4.0
 40
5.0
 40
5.0
 40
5.0
 40
6.0
 40
6.0
 40
6.0
 40
7.0
 40
7.0
 40
7.0
 40
8.0
 40
8.0
 40
8.0
 40
9.0
 40
9.0
 40
9.0
 40
10.0
 40
10.0
 40
10.0
 40
10.0
 10
98.32578122541855
 20
-109.432080050767
 30
0.0
 10
98.31716848670544
 20
-109.4382812226404
 30
0.0
 10
98.27479381223687
 20
-109.4637749292313
 30
0.0
 10
98.26859264036341
 20
-109.4699761011047
 30
0.0
 10
98.26652558307227
 20
-110.1238552242052
 30
0.0
 10
98.18384329142627
 20
-110.5551811789584
 30
0.0
 10
97.74597165525101
 20
-110.8008164870567
 30
0.0
 10
97.74597165525101
 20
-110.8008164870567
 30
0.0
 10
97.57888452421639
 20
-110.6230495600178
 30
0.0
 10
97.57888452421639
 20
-110.6230495600178
 30
0.0
 10
97.66122230631386
 20
-110.5868760574227
 30
0.0
 10
97.83072100418816
 20
-110.5172851286207
 30
0.0
 10
97.95543346075421
 20
-110.2485676807712
 30
0.0
 10
97.99332951109194
 20
-110.1658853891252
 30
0.0
 10
98.0188232176828
 20
-110.0687336964412
 30
0.0
 10
98.03157007097822
 20
-109.9440212398751
 30
0.0
 10
98.04431692427364
 20
-109.8337781843471
 30
0.0
 10
98.04431692427364
 20
-109.7473062876673
 30
0.0
 10
98.04431692427364
 20
-109.6963188744856
 30
0.0
 10
98.04431692427364
 20
-109.4934027504044
 30
0.0
 10
98.02950301368708
 20
-109.3897053762984
 30
0.0
 10
98.0188232176828
 20
-109.321836995239
 30
0.0
 10
98.0188232176828
 20
-109.321836995239
 30
0.0
 10
98.26859264036341
 20
-109.355943440543
 30
0.0
 10
98.26859264036341
 20
-109.355943440543
 30
0.0
 10
98.32130260128774
 20
-109.3621446124164
 30
0.0
 10
98.33818356916545
 20
-109.3662787269987
 30
0.0
 10
98.33818356916545
 20
-109.4003851723027
 30
0.0
 10
98.33818356916545
 20
-109.4151990828893
 30
0.0
 10
98.33404945458315
 20
-109.4234673120539
 30
0.0
 10
98.32578122541855
 20
-109.432080050767
 30
0.0
  0
SPLINE
  5
DB
330
D3
100
AcDbEntity
  8
_U+30EC_U+30A4_U+30E4_U+30FC 1
370
     0
100
AcDbSpline
210
0.0
220
0.0
230
1.0
 70
    11
 71
     3
 72
    50
 73
    46
 74
     0
 42
0.0000000001
 43
0.0000000001
 12
1.0
 22
0.0
 32
0.0
 13
1.0
 23
0.0
 33
0.0
 40
0.0
 40
0.0
 40
0.0
 40
0.0
 40
1.0
 40
1.0
 40
1.0
 40
2.0
 40
2.0
 40
2.0
 40
3.0
 40
3.0
 40
3.0
 40
4.0
 40
4.0
 40
4.0
 40
5.0
 40
5.0
 40
5.0
 40
6.0
 40
6.0
 40
6.0
 40
7.0
 40
7.0
 40
7.0
 40
8.0
 40
8.0
 40
8.0
 40
9.0
 40
9.0
 40
9.0
 40
10.0
 40
10.0
 40
10.0
 40
11.0
 40
11.0
 40
11.0
 40
12.0
 40
12.0
 40
12.0
 40
13.0
 40
13.0
 40
13.0
 40
14.0
 40
14.0
 40
14.0
 40
15.0
 40
15.0
 40
15.0
 40
15.0
 10
98.71473250570327
 20
-110.7753227804659
 30
0.0
 10
98.71473250570327
 20
-110.7753227804659
 30
0.0
 10
98.56452634254637
 20
-110.6630126676468
 30
0.0
 10
98.56452634254637
 20
-110.6630126676468
 30
0.0
 10
98.5731390812595
 20
-110.6189154454355
 30
0.0
 10
98.5772731958418
 20
-110.4811116260256
 30
0.0
 10
98.5772731958418
 20
-110.4284016651012
 30
0.0
 10
98.57934025313294
 20
-110.3584662267507
 30
0.0
 10
98.58175181997262
 20
-110.2444335661889
 30
0.0
 10
98.58175181997262
 20
-110.1765651851295
 30
0.0
 10
98.58175181997262
 20
-110.1765651851295
 30
0.0
 10
98.58175181997262
 20
-109.7448947208277
 30
0.0
 10
98.58175181997262
 20
-109.7448947208277
 30
0.0
 10
98.58175181997262
 20
-109.7111327850722
 30
0.0
 10
98.57107202396834
 20
-109.3514648164121
 30
0.0
 10
98.56693790938604
 20
-109.2860080021924
 30
0.0
 10
98.56693790938604
 20
-109.2860080021924
 30
0.0
 10
98.80361596922272
 20
-109.3115017087832
 30
0.0
 10
98.80361596922272
 20
-109.3115017087832
 30
0.0
 10
98.83117673310471
 20
-109.3135687660744
 30
0.0
 10
98.86080455427786
 20
-109.3239040525301
 30
0.0
 10
98.86080455427786
 20
-109.3535318737033
 30
0.0
 10
98.86080455427786
 20
-109.3707573511295
 30
0.0
 10
98.85253632511326
 20
-109.3810926375853
 30
0.0
 10
98.83772241452668
 20
-109.3917724335896
 30
0.0
 10
98.81842987980929
 20
-109.4065863441761
 30
0.0
 10
98.81636282251813
 20
-109.4086534014673
 30
0.0
 10
98.80154891193156
 20
-109.4214002547627
 30
0.0
 10
98.78880205863614
 20
-109.5144178328645
 30
0.0
 10
98.786735001345
 20
-109.7852023380051
 30
0.0
 10
98.786735001345
 20
-109.88683265482
 30
0.0
 10
98.786735001345
 20
-109.88683265482
 30
0.0
 10
98.786735001345
 20
-110.4749104541521
 30
0.0
 10
98.786735001345
 20
-110.4749104541521
 30
0.0
 10
98.84185652910898
 20
-110.445282632979
 30
0.0
 10
98.97724878167931
 20
-110.3712130800461
 30
0.0
 10
99.14226885542277
 20
-110.1893120384249
 30
0.0
 10
99.24803328681995
 20
-110.0728678110235
 30
0.0
 10
99.29660913316197
 20
-109.9884629716348
 30
0.0
 10
99.35586477550827
 20
-109.8720187442334
 30
0.0
 10
99.35586477550827
 20
-109.8720187442334
 30
0.0
 10
99.49745819995204
 20
-110.0411729325591
 30
0.0
 10
99.49745819995204
 20
-110.0411729325591
 30
0.0
 10
99.2266736948114
 20
-110.4687092822787
 30
0.0
 10
98.89904511416414
 20
-110.6654242344864
 30
0.0
 10
98.71473250570327
 20
-110.7753227804659
 30
0.0
  0
HATCH
  5
DC
330
D3
100
AcDbEntity
  8
_U+30EC_U+30A4_U+30E4_U+30FC 1
 62
   179
420
  2234388
100
AcDbHatch
 10
0.0
 20
0.0
 30
0.0
210
0.0
220
0.0
230
1.0
  2
SOLID
 70
     1
 71
     0
 91
        2
 92
        1
 93
        1
 72
     4
 94
        3
 73
     0
 74
     1
 95
       35
 96
       31
 40
0.0
 40
0.0
 40
0.0
 40
0.0
 40
1.0
 40
1.0
 40
1.0
 40
2.0
 40
2.0
 40
2.0
 40
3.0
 40
3.0
 40
3.0
 40
4.0
 40
4.0
 40
4.0
 40
5.0
 40
5.0
 40
5.0
 40
6.0
 40
6.0
 40
6.0
 40
7.0
 40
7.0
 40
7.0
 40
8.0
 40
8.0
 40
8.0
 40
9.0
 40
9.0
 40
9.0
 40
10.0
 40
10.0
 40
10.0
 40
10.0
 10
98.32578122541855
 20
-109.432080050767
 10
98.31716848670544
 20
-109.4382812226404
 10
98.27479381223687
 20
-109.4637749292313
 10
98.26859264036341
 20
-109.4699761011047
 10
98.26652558307227
 20
-110.1238552242052
 10
98.18384329142627
 20
-110.5551811789584
 10
97.74597165525101
 20
-110.8008164870567
 10
97.74597165525101
 20
-110.8008164870567
 10
97.57888452421639
 20
-110.6230495600178
 10
97.57888452421639
 20
-110.6230495600178
 10
97.66122230631386
 20
-110.5868760574227
 10
97.83072100418816
 20
-110.5172851286207
 10
97.95543346075421
 20
-110.2485676807712
 10
97.99332951109194
 20
-110.1658853891252
 10
98.0188232176828
 20
-110.0687336964412
 10
98.03157007097822
 20
-109.9440212398751
 10
98.04431692427364
 20
-109.8337781843471
 10
98.04431692427364
 20
-109.7473062876673
 10
98.04431692427364
 20
-109.6963188744856
 10
98.04431692427364
 20
-109.4934027504044
 10
98.02950301368708
 20
-109.3897053762984
 10
98.0188232176828
 20
-109.321836995239
 10
98.0188232176828
 20
-109.321836995239
 10
98.26859264036341
 20
-109.355943440543
 10
98.26859264036341
 20
-109.355943440543
 10
98.32130260128774
 20
-109.3621446124164
 10
98.33818356916545
 20
-109.3662787269987
 10
98.33818356916545
 20
-109.4003851723027
 10
98.33818356916545
 20
-109.4151990828893
 10
98.33404945458315
 20
-109.4234673120539
 10
98.32578122541855
 20
-109.432080050767
 97
        0
 97
        0
 92
        1
 93
        1
 72
     4
 94
        3
 73
     0
 74
     1
 95
       50
 96
       46
 40
0.0
 40
0.0
 40
0.0
 40
0.0
 40
1.0
 40
1.0
 40
1.0
 40
2.0
 40
2.0
 40
2.0
 40
3.0
 40
3.0
 40
3.0
 40
4.0
 40
4.0
 40
4.0
 40
5.0
 40
5.0
 40
5.0
 40
6.0
 40
6.0
 40
6.0
 40
7.0
 40
7.0
 40
7.0
 40
8.0
 40
8.0
 40
8.0
 40
9.0
 40
9.0
 40
9.0
 40
10.0
 40
10.0
 40
10.0
 40
11.0
 40
11.0
 40
11.0
 40
12.0
 40
12.0
 40
12.0
 40
13.0
 40
13.0
 40
13.0
 40
14.0
 40
14.0
 40
14.0
 40
15.0
 40
15.0
 40
15.0
 40
15.0
 10
98.71473250570327
 20
-110.7753227804659
 10
98.71473250570327
 20
-110.7753227804659
 10
98.56452634254637
 20
-110.6630126676468
 10
98.56452634254637
 20
-110.6630126676468
 10
98.5731390812595
 20
-110.6189154454355
 10
98.5772731958418
 20
-110.4811116260256
 10
98.5772731958418
 20
-110.4284016651012
 10
98.57934025313294
 20
-110.3584662267507
 10
98.58175181997262
 20
-110.2444335661889
 10
98.58175181997262
 20
-110.1765651851295
 10
98.58175181997262
 20
-110.1765651851295
 10
98.58175181997262
 20
-109.7448947208277
 10
98.58175181997262
 20
-109.7448947208277
 10
98.58175181997262
 20
-109.7111327850722
 10
98.57107202396834
 20
-109.3514648164121
 10
98.56693790938604
 20
-109.2860080021924
 10
98.56693790938604
 20
-109.2860080021924
 10
98.80361596922272
 20
-109.3115017087832
 10
98.80361596922272
 20
-109.3115017087832
 10
98.83117673310471
 20
-109.3135687660744
 10
98.86080455427786
 20
-109.3239040525301
 10
98.86080455427786
 20
-109.3535318737033
 10
98.86080455427786
 20
-109.3707573511295
 10
98.85253632511326
 20
-109.3810926375853
 10
98.83772241452668
 20
-109.3917724335896
 10
98.81842987980929
 20
-109.4065863441761
 10
98.81636282251813
 20
-109.4086534014673
 10
98.80154891193156
 20
-109.4214002547627
 10
98.78880205863614
 20
-109.5144178328645
 10
98.786735001345
 20
-109.7852023380051
 10
98.786735001345
 20
-109.88683265482
 10
98.786735001345
 20
-109.88683265482
 10
98.786735001345
 20
-110.4749104541521
 10
98.786735001345
 20
-110.4749104541521
 10
98.84185652910898
 20
-110.445282632979
 10
98.97724878167931
 20
-110.3712130800461
 10
99.14226885542277
 20
-110.1893120384249
 10
99.24803328681995
 20
-110.0728678110235
 10
99.29660913316197
 20
-109.9884629716348
 10
99.35586477550827
 20
-109.8720187442334
 10
99.35586477550827
 20
-109.8720187442334
 10
99.49745819995204
 20
-110.0411729325591
 10
99.49745819995204
 20
-110.0411729325591
 10
99.2266736948114
 20
-110.4687092822787
 10
98.89904511416414
 20
-110.6654242344864
 10
98.71473250570327
 20
-110.7753227804659
 97
        0
 97
        0
 75
     2
 76
     1
 98
        0
  0
SPLINE
  5
DD
330
D3
100
AcDbEntity
  8
_U+30EC_U+30A4_U+30E4_U+30FC 1
370
     0
100
AcDbSpline
210
0.0
220
0.0
230
1.0
 70
    11
 71
     3
 72
    20
 73
    16
 74
     0
 42
0.0000000001
 43
0.0000000001
 12
1.0
 22
0.0
 32
0.0
 13
1.0
 23
0.0
 33
0.0
 40
0.0
 40
0.0
 40
0.0
 40
0.0
 40
1.0
 40
1.0
 40
1.0
 40
2.0
 40
2.0
 40
2.0
 40
3.0
 40
3.0
 40
3.0
 40
4.0
 40
4.0
 40
4.0
 40
5.0
 40
5.0
 40
5.0
 40
5.0
 10
100.7552625616167
 20
-110.9909857578425
 30
0.0
 10
100.6178032517553
 20
-110.8831542691542
 30
0.0
 10
100.4889566806069
 20
-110.7942708056348
 30
0.0
 10
100.256068225804
 20
-110.6843722596553
 30
0.0
 10
100.0655544454697
 20
-110.5934217388447
 30
0.0
 10
99.86883949326196
 20
-110.5128065044899
 30
0.0
 10
99.66178925459845
 20
-110.4769775114433
 30
0.0
 10
99.66178925459845
 20
-110.4769775114433
 30
0.0
 10
99.75032820856937
 20
-110.2823296165266
 30
0.0
 10
99.75032820856937
 20
-110.2823296165266
 30
0.0
 10
100.1692518195757
 20
-110.390161105215
 30
0.0
 10
100.5881754305821
 20
-110.5827419428404
 30
0.0
 10
100.8506917065582
 20
-110.7732557231747
 30
0.0
 10
100.8506917065582
 20
-110.7732557231747
 30
0.0
 10
100.7552625616167
 20
-110.9909857578425
 30
0.0
 10
100.7552625616167
 20
-110.9909857578425
 30
0.0
  0
SPLINE
  5
DE
330
D3
100
AcDbEntity
  8
_U+30EC_U+30A4_U+30E4_U+30FC 1
370
     0
100
AcDbSpline
210
0.0
220
0.0
230
1.0
 70
    11
 71
     3
 72
    17
 73
    13
 74
     0
 42
0.0000000001
 43
0.0000000001
 12
1.0
 22
0.0
 32
0.0
 13
1.0
 23
0.0
 33
0.0
 40
0.0
 40
0.0
 40
0.0
 40
0.0
 40
1.0
 40
1.0
 40
1.0
 40
2.0
 40
2.0
 40
2.0
 40
3.0
 40
3.0
 40
3.0
 40
4.0
 40
4.0
 40
4.0
 40
4.0
 10
100.6515651875107
 20
-110.2230739741804
 30
0.0
 10
100.4252224141298
 20
-110.0559868431457
 30
0.0
 10
100.0951822666429
 20
-109.9292073292885
 30
0.0
 10
99.86677243597082
 20
-109.8930338266934
 30
0.0
 10
99.86677243597082
 20
-109.8930338266934
 30
0.0
 10
99.93670787432139
 20
-109.6942518171945
 30
0.0
 10
99.93670787432139
 20
-109.6942518171945
 30
0.0
 10
100.1227430305249
 20
-109.7259466956588
 30
0.0
 10
100.4910237378981
 20
-109.8740858015245
 30
0.0
 10
100.7301133645744
 20
-110.0263590219726
 30
0.0
 10
100.7301133645744
 20
-110.0263590219726
 30
0.0
 10
100.6515651875107
 20
-110.2230739741804
 30
0.0
 10
100.6515651875107
 20
-110.2230739741804
 30
0.0
  0
SPLINE
  5
DF
330
D3
100
AcDbEntity
  8
_U+30EC_U+30A4_U+30E4_U+30FC 1
370
     0
100
AcDbSpline
210
0.0
220
0.0
230
1.0
 70
    11
 71
     3
 72
    20
 73
    16
 74
     0
 42
0.0000000001
 43
0.0000000001
 12
1.0
 22
0.0
 32
0.0
 13
1.0
 23
0.0
 33
0.0
 40
0.0
 40
0.0
 40
0.0
 40
0.0
 40
1.0
 40
1.0
 40
1.0
 40
2.0
 40
2.0
 40
2.0
 40
3.0
 40
3.0
 40
3.0
 40
4.0
 40
4.0
 40
4.0
 40
5.0
 40
5.0
 40
5.0
 40
5.0
 10
100.683260065975
 20
-109.6563557668567
 30
0.0
 10
100.6198703090464
 20
-109.6012342390927
 30
0.0
 10
100.5478678134047
 20
-109.5378444821642
 30
0.0
 10
100.3025770148549
 20
-109.4276014266362
 30
0.0
 10
100.0679660123094
 20
-109.3239040525301
 30
0.0
 10
99.97046981007684
 20
-109.3070230846524
 30
0.0
 10
99.87090655055312
 20
-109.2901421167747
 30
0.0
 10
99.87090655055312
 20
-109.2901421167747
 30
0.0
 10
99.93877493161253
 20
-109.0851589354023
 30
0.0
 10
99.93877493161253
 20
-109.0851589354023
 30
0.0
 10
100.2581352830952
 20
-109.1485486923309
 30
0.0
 10
100.6284830477595
 20
-109.3431965872475
 30
0.0
 10
100.7573296189079
 20
-109.4403482799316
 30
0.0
 10
100.7573296189079
 20
-109.4403482799316
 30
0.0
 10
100.683260065975
 20
-109.6563557668567
 30
0.0
 10
100.683260065975
 20
-109.6563557668567
 30
0.0
  0
HATCH
  5
E0
330
D3
100
AcDbEntity
  8
_U+30EC_U+30A4_U+30E4_U+30FC 1
 62
   179
420
  2234388
100
AcDbHatch
 10
0.0
 20
0.0
 30
0.0
210
0.0
220
0.0
230
1.0
  2
SOLID
 70
     1
 71
     0
 91
        3
 92
        1
 93
        1
 72
     4
 94
        3
 73
     0
 74
     1
 95
       20
 96
       16
 40
0.0
 40
0.0
 40
0.0
 40
0.0
 40
1.0
 40
1.0
 40
1.0
 40
2.0
 40
2.0
 40
2.0
 40
3.0
 40
3.0
 40
3.0
 40
4.0
 40
4.0
 40
4.0
 40
5.0
 40
5.0
 40
5.0
 40
5.0
 10
100.7552625616167
 20
-110.9909857578425
 10
100.6178032517553
 20
-110.8831542691542
 10
100.4889566806069
 20
-110.7942708056348
 10
100.256068225804
 20
-110.6843722596553
 10
100.0655544454697
 20
-110.5934217388447
 10
99.86883949326196
 20
-110.5128065044899
 10
99.66178925459845
 20
-110.4769775114433
 10
99.66178925459845
 20
-110.4769775114433
 10
99.75032820856937
 20
-110.2823296165266
 10
99.75032820856937
 20
-110.2823296165266
 10
100.1692518195757
 20
-110.390161105215
 10
100.5881754305821
 20
-110.5827419428404
 10
100.8506917065582
 20
-110.7732557231747
 10
100.8506917065582
 20
-110.7732557231747
 10
100.7552625616167
 20
-110.9909857578425
 10
100.7552625616167
 20
-110.9909857578425
 97
        0
 97
        0
 92
        1
 93
        1
 72
     4
 94
        3
 73
     0
 74
     1
 95
       17
 96
       13
 40
0.0
 40
0.0
 40
0.0
 40
0.0
 40
1.0
 40
1.0
 40
1.0
 40
2.0
 40
2.0
 40
2.0
 40
3.0
 40
3.0
 40
3.0
 40
4.0
 40
4.0
 40
4.0
 40
4.0
 10
100.6515651875107
 20
-110.2230739741804
 10
100.4252224141298
 20
-110.0559868431457
 10
100.0951822666429
 20
-109.9292073292885
 10
99.86677243597082
 20
-109.8930338266934
 10
99.86677243597082
 20
-109.8930338266934
 10
99.93670787432139
 20
-109.6942518171945
 10
99.93670787432139
 20
-109.6942518171945
 10
100.1227430305249
 20
-109.7259466956588
 10
100.4910237378981
 20
-109.8740858015245
 10
100.7301133645744
 20
-110.0263590219726
 10
100.7301133645744
 20
-110.0263590219726
 10
100.6515651875107
 20
-110.2230739741804
 10
100.6515651875107
 20
-110.2230739741804
 97
        0
 97
        0
 92
        1
 93
        1
 72
     4
 94
        3
 73
     0
 74
     1
 95
       20
 96
       16
 40
0.0
 40
0.0
 40
0.0
 40
0.0
 40
1.0
 40
1.0
 40
1.0
 40
2.0
 40
2.0
 40
2.0
 40
3.0
 40
3.0
 40
3.0
 40
4.0
 40
4.0
 40
4.0
 40
5.0
 40
5.0
 40
5.0
 40
5.0
 10
100.683260065975
 20
-109.6563557668567
 10
100.6198703090464
 20
-109.6012342390927
 10
100.5478678134047
 20
-109.5378444821642
 10
100.3025770148549
 20
-109.4276014266362
 10
100.0679660123094
 20
-109.3239040525301
 10
99.97046981007684
 20
-109.3070230846524
 10
99.87090655055312
 20
-109.2901421167747
 10
99.87090655055312
 20
-109.2901421167747
 10
99.93877493161253
 20
-109.0851589354023
 10
99.93877493161253
 20
-109.0851589354023
 10
100.2581352830952
 20
-109.1485486923309
 10
100.6284830477595
 20
-109.3431965872475
 10
100.7573296189079
 20
-109.4403482799316
 10
100.7573296189079
 20
-109.4403482799316
 10
100.683260065975
 20
-109.6563557668567
 10
100.683260065975
 20
-109.6563557668567
 97
        0
 97
        0
 75
     2
 76
     1
 98
        0
  0
ENDBLK
  5
D6
330
D3
100
AcDbEntity
  8
0
100
AcDbBlockEnd
  0
BLOCK
  5
E8
330
E6
100
AcDbEntity
  8
0
100
AcDbBlockBegin
  2
block 8
 70
     0
 10
0.0
 20
0.0
 30
0.0
  3
block 8
  1

  0
SPLINE
  5
EA
330
E6
100
AcDbEntity
  8
_U+30EC_U+30A4_U+30E4_U+30FC 1
370
     0
100
AcDbSpline
210
0.0
220
0.0
230
1.0
 70
    11
 71
     3
 72
   122
 73
   118
 74
     0
 42
0.0000000001
 43
0.0000000001
 12
1.0
 22
0.0
 32
0.0
 13
1.0
 23
0.0
 33
0.0
 40
0.0
 40
0.0
 40
0.0
 40
0.0
 40
1.0
 40
1.0
 40
1.0
 40
2.0
 40
2.0
 40
2.0
 40
3.0
 40
3.0
 40
3.0
 40
4.0
 40
4.0
 40
4.0
 40
5.0
 40
5.0
 40
5.0
 40
6.0
 40
6.0
 40
6.0
 40
7.0
 40
7.0
 40
7.0
 40
8.0
 40
8.0
 40
8.0
 40
9.0
 40
9.0
 40
9.0
 40
10.0
 40
10.0
 40
10.0
 40
11.0
 40
11.0
 40
11.0
 40
12.0
 40
12.0
 40
12.0
 40
13.0
 40
13.0
 40
13.0
 40
14.0
 40
14.0
 40
14.0
 40
15.0
 40
15.0
 40
15.0
 40
16.0
 40
16.0
 40
16.0
 40
17.0
 40
17.0
 40
17.0
 40
18.0
 40
18.0
 40
18.0
 40
19.0
 40
19.0
 40
19.0
 40
20.0
 40
20.0
 40
20.0
 40
21.0
 40
21.0
 40
21.0
 40
22.0
 40
22.0
 40
22.0
 40
23.0
 40
23.0
 40
23.0
 40
24.0
 40
24.0
 40
24.0
 40
25.0
 40
25.0
 40
25.0
 40
26.0
 40
26.0
 40
26.0
 40
27.0
 40
27.0
 40
27.0
 40
28.0
 40
28.0
 40
28.0
 40
29.0
 40
29.0
 40
29.0
 40
30.0
 40
30.0
 40
30.0
 40
31.0
 40
31.0
 40
31.0
 40
32.0
 40
32.0
 40
32.0
 40
33.0
 40
33.0
 40
33.0
 40
34.0
 40
34.0
 40
34.0
 40
35.0
 40
35.0
 40
35.0
 40
36.0
 40
36.0
 40
36.0
 40
37.0
 40
37.0
 40
37.0
 40
38.0
 40
38.0
 40
38.0
 40
39.0
 40
39.0
 40
39.0
 40
39.0
 10
101.6506428782332
 20
-122.3274169616056
 30
0.0
 10
101.6506428782332
 20
-122.3274169616056
 30
0.0
 10
101.4539279260254
 20
-122.3274169616056
 30
0.0
 10
101.4539279260254
 20
-122.3274169616056
 30
0.0
 10
101.4243001048523
 20
-122.3274169616056
 30
0.0
 10
101.3395507559151
 20
-122.3294840188968
 30
0.0
 10
101.2568684642691
 20
-122.3377522480614
 30
0.0
 10
101.2634141456911
 20
-122.2809081725548
 30
0.0
 10
101.2634141456911
 20
-122.2151068487865
 30
0.0
 10
101.2634141456911
 20
-122.1727321743179
 30
0.0
 10
101.2634141456911
 20
-122.1727321743179
 30
0.0
 10
101.1597167715851
 20
-122.3377522480614
 30
0.0
 10
101.1597167715851
 20
-122.3377522480614
 30
0.0
 10
101.1342230649942
 20
-122.2998561977237
 30
0.0
 10
101.0897813332345
 20
-122.2364664407951
 30
0.0
 10
101.0305256908882
 20
-122.1307020093979
 30
0.0
 10
101.0305256908882
 20
-122.1307020093979
 30
0.0
 10
101.0305256908882
 20
-122.3928737758254
 30
0.0
 10
101.0305256908882
 20
-122.3928737758254
 30
0.0
 10
101.0305256908882
 20
-122.6447102557972
 30
0.0
 10
101.0432725441836
 20
-122.9237629901024
 30
0.0
 10
101.0539523401879
 20
-123.0591552426727
 30
0.0
 10
101.0539523401879
 20
-123.0591552426727
 30
0.0
 10
100.8531032733978
 20
-123.0591552426727
 30
0.0
 10
100.8531032733978
 20
-123.0591552426727
 30
0.0
 10
100.8572373879801
 20
-122.9282416142332
 30
0.0
 10
100.8593044452713
 20
-122.8245442401272
 30
0.0
 10
100.8593044452713
 20
-122.7418619484812
 30
0.0
 10
100.8593044452713
 20
-122.511385060518
 30
0.0
 10
100.8613715025624
 20
-122.4858913539271
 30
0.0
 10
100.8613715025624
 20
-122.4035535718297
 30
0.0
 10
100.8613715025624
 20
-122.4035535718297
 30
0.0
 10
100.8613715025624
 20
-122.2468017272508
 30
0.0
 10
100.8613715025624
 20
-122.2468017272508
 30
0.0
 10
100.8189968280939
 20
-122.3591118400699
 30
0.0
 10
100.7301133645744
 20
-122.5155191751003
 30
0.0
 10
100.7004855434013
 20
-122.5558267922777
 30
0.0
 10
100.7004855434013
 20
-122.5558267922777
 30
0.0
 10
100.5230631259109
 20
-122.4900254685094
 30
0.0
 10
100.5230631259109
 20
-122.4900254685094
 30
0.0
 10
100.5799072014175
 20
-122.4163004251251
 30
0.0
 10
100.6708577222281
 20
-122.2998561977237
 30
0.0
 10
100.7428602178698
 20
-122.0903943922205
 30
0.0
 10
100.772488039043
 20
-122.001510928701
 30
0.0
 10
100.8148627135116
 20
-121.8344237976664
 30
0.0
 10
100.827609566807
 20
-121.7200466275561
 30
0.0
 10
100.7407931605787
 20
-121.7200466275561
 30
0.0
 10
100.6708577222281
 20
-121.7200466275561
 30
0.0
 10
100.6095350225907
 20
-121.7327934808515
 30
0.0
 10
100.6095350225907
 20
-121.7327934808515
 30
0.0
 10
100.6095350225907
 20
-121.5422797005172
 30
0.0
 10
100.6095350225907
 20
-121.5422797005172
 30
0.0
 10
100.6922173142367
 20
-121.5595051779435
 30
0.0
 10
100.8062499747984
 20
-121.5595051779435
 30
0.0
 10
100.8148627135116
 20
-121.5595051779435
 30
0.0
 10
100.8148627135116
 20
-121.5595051779435
 30
0.0
 10
100.8572373879801
 20
-121.5595051779435
 30
0.0
 10
100.8572373879801
 20
-121.5595051779435
 30
0.0
 10
100.855170330689
 20
-121.3541774870226
 30
0.0
 10
100.8531032733978
 20
-121.2928547873851
 30
0.0
 10
100.8424234773936
 20
-121.1237005990594
 30
0.0
 10
100.8424234773936
 20
-121.1237005990594
 30
0.0
 10
101.0453396014748
 20
-121.1447156815194
 30
0.0
 10
101.0453396014748
 20
-121.1447156815194
 30
0.0
 10
101.0580864547702
 20
-121.1467827388105
 30
0.0
 10
101.0794460467788
 20
-121.1488497961017
 30
0.0
 10
101.0794460467788
 20
-121.1681423308191
 30
0.0
 10
101.0794460467788
 20
-121.1850232986968
 30
0.0
 10
101.0729003653568
 20
-121.187090355988
 30
0.0
 10
101.035004315019
 20
-121.2101724957391
 30
0.0
 10
101.0305256908882
 20
-121.3035345833894
 30
0.0
 10
101.0305256908882
 20
-121.3224826085583
 30
0.0
 10
101.0305256908882
 20
-121.5595051779435
 30
0.0
 10
101.0498182256056
 20
-121.5595051779435
 30
0.0
 10
101.1469699182897
 20
-121.5570936111038
 30
0.0
 10
101.2231065285137
 20
-121.5422797005172
 30
0.0
 10
101.2231065285137
 20
-121.5422797005172
 30
0.0
 10
101.2231065285137
 20
-121.7327934808515
 30
0.0
 10
101.2231065285137
 20
-121.7327934808515
 30
0.0
 10
101.1597167715851
 20
-121.7200466275561
 30
0.0
 10
101.0794460467788
 20
-121.7200466275561
 30
0.0
 10
101.0305256908882
 20
-121.7200466275561
 30
0.0
 10
101.0305256908882
 20
-121.7200466275561
 30
0.0
 10
101.0305256908882
 20
-121.7582871874424
 30
0.0
 10
101.0305256908882
 20
-121.7582871874424
 30
0.0
 10
101.0305256908882
 20
-121.7879150086155
 30
0.0
 10
101.0897813332345
 20
-121.9105604078904
 30
0.0
 10
101.111140925243
 20
-121.9484564582282
 30
0.0
 10
101.1617838288762
 20
-122.0394069790388
 30
0.0
 10
101.2124267325094
 20
-122.1072753600982
 30
0.0
 10
101.2634141456911
 20
-122.1706651170268
 30
0.0
 10
101.2634141456911
 20
-122.1706651170268
 30
0.0
 10
101.2634141456911
 20
-122.0459526604607
 30
0.0
 10
101.2634141456911
 20
-122.0459526604607
 30
0.0
 10
101.2634141456911
 20
-121.9953097568276
 30
0.0
 10
101.2613470883999
 20
-121.946389400937
 30
0.0
 10
101.2568684642691
 20
-121.8957464973038
 30
0.0
 10
101.3395507559151
 20
-121.9040147264684
 30
0.0
 10
101.4177544234303
 20
-121.9084933505993
 30
0.0
 10
101.4539279260254
 20
-121.9084933505993
 30
0.0
 10
101.4539279260254
 20
-121.9084933505993
 30
0.0
 10
101.6506428782332
 20
-121.9084933505993
 30
0.0
 10
101.6506428782332
 20
-121.9084933505993
 30
0.0
 10
101.6778591325667
 20
-121.9084933505993
 30
0.0
 10
101.7836235639638
 20
-121.9019476691773
 30
0.0
 10
101.8452907731498
 20
-121.8957464973038
 30
0.0
 10
101.840812149019
 20
-121.9422552863547
 30
0.0
 10
101.8387450917278
 20
-122.0270046352919
 30
0.0
 10
101.8387450917278
 20
-122.0459526604607
 30
0.0
 10
101.8387450917278
 20
-122.0459526604607
 30
0.0
 10
101.8387450917278
 20
-122.1896131421957
 30
0.0
 10
101.8387450917278
 20
-122.1896131421957
 30
0.0
 10
101.8387450917278
 20
-122.2023599954911
 30
0.0
 10
101.840812149019
 20
-122.2912434590105
 30
0.0
 10
101.8452907731498
 20
-122.3377522480614
 30
0.0
 10
101.7774223920904
 20
-122.3315510761879
 30
0.0
 10
101.6906059858621
 20
-122.3274169616056
 30
0.0
 10
101.6506428782332
 20
-122.3274169616056
 30
0.0
  0
SPLINE
  5
EB
330
E6
100
AcDbEntity
  8
_U+30EC_U+30A4_U+30E4_U+30FC 1
370
     0
100
AcDbSpline
210
0.0
220
0.0
230
1.0
 70
    11
 71
     3
 72
    47
 73
    43
 74
     0
 42
0.0000000001
 43
0.0000000001
 12
1.0
 22
0.0
 32
0.0
 13
1.0
 23
0.0
 33
0.0
 40
0.0
 40
0.0
 40
0.0
 40
0.0
 40
1.0
 40
1.0
 40
1.0
 40
2.0
 40
2.0
 40
2.0
 40
3.0
 40
3.0
 40
3.0
 40
4.0
 40
4.0
 40
4.0
 40
5.0
 40
5.0
 40
5.0
 40
6.0
 40
6.0
 40
6.0
 40
7.0
 40
7.0
 40
7.0
 40
8.0
 40
8.0
 40
8.0
 40
9.0
 40
9.0
 40
9.0
 40
10.0
 40
10.0
 40
10.0
 40
11.0
 40
11.0
 40
11.0
 40
12.0
 40
12.0
 40
12.0
 40
13.0
 40
13.0
 40
13.0
 40
14.0
 40
14.0
 40
14.0
 40
14.0
 10
101.9338297271207
 20
-122.7821695656586
 30
0.0
 10
101.8280652957235
 20
-122.8224771828361
 30
0.0
 10
101.4811441803589
 20
-122.9282416142332
 30
0.0
 10
101.2802951135688
 20
-122.9788845178664
 30
0.0
 10
101.2782280562777
 20
-122.9998996003264
 30
0.0
 10
101.2740939416954
 20
-123.0274603642084
 30
0.0
 10
101.254801406978
 20
-123.0274603642084
 30
0.0
 10
101.2444661205222
 20
-123.0274603642084
 30
0.0
 10
101.233786324518
 20
-123.0233262496261
 30
0.0
 10
101.2231065285137
 20
-123.0019666576176
 30
0.0
 10
101.2231065285137
 20
-123.0019666576176
 30
0.0
 10
101.1300889504119
 20
-122.8097303295406
 30
0.0
 10
101.1300889504119
 20
-122.8097303295406
 30
0.0
 10
101.3333495840417
 20
-122.7928493616629
 30
0.0
 10
101.5300645362494
 20
-122.7439290057724
 30
0.0
 10
101.7267794884572
 20
-122.6870849302657
 30
0.0
 10
101.7267794884572
 20
-122.6870849302657
 30
0.0
 10
101.5893201785957
 20
-122.6340304597929
 30
0.0
 10
101.5893201785957
 20
-122.6340304597929
 30
0.0
 10
101.6506428782332
 20
-122.5007052645137
 30
0.0
 10
101.6654567888198
 20
-122.4097547437031
 30
0.0
 10
101.6716579606932
 20
-122.3591118400699
 30
0.0
 10
101.6716579606932
 20
-122.3591118400699
 30
0.0
 10
101.8576931168967
 20
-122.4097547437031
 30
0.0
 10
101.8576931168967
 20
-122.4097547437031
 30
0.0
 10
101.8769856516141
 20
-122.4138888582854
 30
0.0
 10
101.8873209380698
 20
-122.4183674824162
 30
0.0
 10
101.8873209380698
 20
-122.4331813930028
 30
0.0
 10
101.8873209380698
 20
-122.456263532754
 30
0.0
 10
101.8576931168967
 20
-122.4669433287583
 30
0.0
 10
101.8366780344367
 20
-122.4731445006317
 30
0.0
 10
101.8259982384324
 20
-122.4986382072226
 30
0.0
 10
101.7836235639638
 20
-122.608536753202
 30
0.0
 10
101.7732882775081
 20
-122.6298963452106
 30
0.0
 10
101.7646755387949
 20
-122.6467773130883
 30
0.0
 10
101.7646755387949
 20
-122.6509114276706
 30
0.0
 10
101.7477945709172
 20
-122.6805392488438
 30
0.0
 10
101.8873209380698
 20
-122.6402316316663
 30
0.0
 10
101.9465765804161
 20
-122.6171494919152
 30
0.0
 10
101.9848171403024
 20
-122.6023355813286
 30
0.0
 10
101.9848171403024
 20
-122.6023355813286
 30
0.0
 10
101.9338297271207
 20
-122.7821695656586
 30
0.0
 10
101.9338297271207
 20
-122.7821695656586
 30
0.0
  0
SPLINE
  5
EC
330
E6
100
AcDbEntity
  8
_U+30EC_U+30A4_U+30E4_U+30FC 1
370
     0
100
AcDbSpline
210
0.0
220
0.0
230
1.0
 70
    11
 71
     3
 72
    77
 73
    73
 74
     0
 42
0.0000000001
 43
0.0000000001
 12
1.0
 22
0.0
 32
0.0
 13
1.0
 23
0.0
 33
0.0
 40
0.0
 40
0.0
 40
0.0
 40
0.0
 40
1.0
 40
1.0
 40
1.0
 40
2.0
 40
2.0
 40
2.0
 40
3.0
 40
3.0
 40
3.0
 40
4.0
 40
4.0
 40
4.0
 40
5.0
 40
5.0
 40
5.0
 40
6.0
 40
6.0
 40
6.0
 40
7.0
 40
7.0
 40
7.0
 40
8.0
 40
8.0
 40
8.0
 40
9.0
 40
9.0
 40
9.0
 40
10.0
 40
10.0
 40
10.0
 40
11.0
 40
11.0
 40
11.0
 40
12.0
 40
12.0
 40
12.0
 40
13.0
 40
13.0
 40
13.0
 40
14.0
 40
14.0
 40
14.0
 40
15.0
 40
15.0
 40
15.0
 40
16.0
 40
16.0
 40
16.0
 40
17.0
 40
17.0
 40
17.0
 40
18.0
 40
18.0
 40
18.0
 40
19.0
 40
19.0
 40
19.0
 40
20.0
 40
20.0
 40
20.0
 40
21.0
 40
21.0
 40
21.0
 40
22.0
 40
22.0
 40
22.0
 40
23.0
 40
23.0
 40
23.0
 40
24.0
 40
24.0
 40
24.0
 40
24.0
 10
101.6695909034021
 20
-121.4875026823017
 30
0.0
 10
101.6695909034021
 20
-121.4875026823017
 30
0.0
 10
101.6358289676466
 20
-121.4875026823017
 30
0.0
 10
101.6358289676466
 20
-121.4875026823017
 30
0.0
 10
101.6358289676466
 20
-121.4875026823017
 30
0.0
 10
101.6358289676466
 20
-121.6187608202898
 30
0.0
 10
101.6358289676466
 20
-121.6187608202898
 30
0.0
 10
101.7098985205795
 20
-121.6187608202898
 30
0.0
 10
101.7943033599681
 20
-121.6101480815766
 30
0.0
 10
101.8428792063101
 20
-121.6060139669943
 30
0.0
 10
101.8428792063101
 20
-121.6060139669943
 30
0.0
 10
101.8428792063101
 20
-121.7834363844847
 30
0.0
 10
101.8428792063101
 20
-121.7834363844847
 30
0.0
 10
101.7815565066727
 20
-121.7772352126113
 30
0.0
 10
101.6864718712798
 20
-121.7731010980289
 30
0.0
 10
101.6461642541024
 20
-121.7731010980289
 30
0.0
 10
101.6461642541024
 20
-121.7731010980289
 30
0.0
 10
101.4515163591857
 20
-121.7731010980289
 30
0.0
 10
101.4515163591857
 20
-121.7731010980289
 30
0.0
 10
101.4177544234303
 20
-121.7731010980289
 30
0.0
 10
101.3226697880374
 20
-121.7772352126113
 30
0.0
 10
101.254801406978
 20
-121.7834363844847
 30
0.0
 10
101.254801406978
 20
-121.7834363844847
 30
0.0
 10
101.254801406978
 20
-121.6060139669943
 30
0.0
 10
101.254801406978
 20
-121.6060139669943
 30
0.0
 10
101.2951090241554
 20
-121.6101480815766
 30
0.0
 10
101.3798583730925
 20
-121.6187608202898
 30
0.0
 10
101.4728759511943
 20
-121.6187608202898
 30
0.0
 10
101.4728759511943
 20
-121.6187608202898
 30
0.0
 10
101.4728759511943
 20
-121.4875026823017
 30
0.0
 10
101.4728759511943
 20
-121.4875026823017
 30
0.0
 10
101.4728759511943
 20
-121.4875026823017
 30
0.0
 10
101.4263671621434
 20
-121.4875026823017
 30
0.0
 10
101.4263671621434
 20
-121.4875026823017
 30
0.0
 10
101.3839924876748
 20
-121.4875026823017
 30
0.0
 10
101.2675482602734
 20
-121.491636796884
 30
0.0
 10
101.1831434208848
 20
-121.5002495355972
 30
0.0
 10
101.1831434208848
 20
-121.5002495355972
 30
0.0
 10
101.1831434208848
 20
-121.3204155512671
 30
0.0
 10
101.1831434208848
 20
-121.3204155512671
 30
0.0
 10
101.2613470883999
 20
-121.3286837804317
 30
0.0
 10
101.3733126916706
 20
-121.3331624045625
 30
0.0
 10
101.4263671621434
 20
-121.3331624045625
 30
0.0
 10
101.4263671621434
 20
-121.3331624045625
 30
0.0
 10
101.4728759511943
 20
-121.3331624045625
 30
0.0
 10
101.4728759511943
 20
-121.3331624045625
 30
0.0
 10
101.468741836612
 20
-121.2673610807943
 30
0.0
 10
101.4663302697723
 20
-121.1977701519922
 30
0.0
 10
101.4601290978989
 20
-121.1340358855151
 30
0.0
 10
101.4601290978989
 20
-121.1340358855151
 30
0.0
 10
101.6461642541024
 20
-121.1488497961017
 30
0.0
 10
101.6461642541024
 20
-121.1488497961017
 30
0.0
 10
101.6589111073978
 20
-121.1488497961017
 30
0.0
 10
101.6864718712798
 20
-121.1509168533928
 30
0.0
 10
101.6864718712798
 20
-121.1722764454014
 30
0.0
 10
101.6864718712798
 20
-121.1891574132791
 30
0.0
 10
101.6716579606932
 20
-121.1998372092834
 30
0.0
 10
101.6420301395201
 20
-121.2187852344523
 30
0.0
 10
101.6378960249378
 20
-121.25668128479
 30
0.0
 10
101.6378960249378
 20
-121.318348493976
 30
0.0
 10
101.6358289676466
 20
-121.3331624045625
 30
0.0
 10
101.6358289676466
 20
-121.3331624045625
 30
0.0
 10
101.6695909034021
 20
-121.3331624045625
 30
0.0
 10
101.6695909034021
 20
-121.3331624045625
 30
0.0
 10
101.7202338070352
 20
-121.3331624045625
 30
0.0
 10
101.8304768625632
 20
-121.3286837804317
 30
0.0
 10
101.9107475873695
 20
-121.3204155512671
 30
0.0
 10
101.9107475873695
 20
-121.3204155512671
 30
0.0
 10
101.9107475873695
 20
-121.5002495355972
 30
0.0
 10
101.9107475873695
 20
-121.5002495355972
 30
0.0
 10
101.8366780344367
 20
-121.491636796884
 30
0.0
 10
101.7160996924529
 20
-121.4875026823017
 30
0.0
 10
101.6695909034021
 20
-121.4875026823017
 30
0.0
  0
SPLINE
  5
ED
330
E6
100
AcDbEntity
  8
_U+30EC_U+30A4_U+30E4_U+30FC 1
370
     0
100
AcDbSpline
210
0.0
220
0.0
230
1.0
 70
    11
 71
     3
 72
    17
 73
    13
 74
     0
 42
0.0000000001
 43
0.0000000001
 12
1.0
 22
0.0
 32
0.0
 13
1.0
 23
0.0
 33
0.0
 40
0.0
 40
0.0
 40
0.0
 40
0.0
 40
1.0
 40
1.0
 40
1.0
 40
2.0
 40
2.0
 40
2.0
 40
3.0
 40
3.0
 40
3.0
 40
4.0
 40
4.0
 40
4.0
 40
4.0
 10
101.3798583730925
 20
-122.7208468660212
 30
0.0
 10
101.3288709599108
 20
-122.5789089320289
 30
0.0
 10
101.2889078522819
 20
-122.4986382072226
 30
0.0
 10
101.2486002351045
 20
-122.4414496221674
 30
0.0
 10
101.2486002351045
 20
-122.4414496221674
 30
0.0
 10
101.4094861942657
 20
-122.3739257506565
 30
0.0
 10
101.4094861942657
 20
-122.3739257506565
 30
0.0
 10
101.48321123765
 20
-122.4690103860494
 30
0.0
 10
101.517317682954
 20
-122.5558267922777
 30
0.0
 10
101.544878446836
 20
-122.642643198506
 30
0.0
 10
101.544878446836
 20
-122.642643198506
 30
0.0
 10
101.3798583730925
 20
-122.7208468660212
 30
0.0
 10
101.3798583730925
 20
-122.7208468660212
 30
0.0
  0
POLYLINE
  5
EE
330
E6
100
AcDbEntity
  8
_U+30EC_U+30A4_U+30E4_U+30FC 1
370
     0
100
AcDb2dPolyline
 66
     1
 10
0.0
 20
0.0
 30
0.0
  0
VERTEX
  5
EF
330
EE
100
AcDbEntity
  8
_U+30EC_U+30A4_U+30E4_U+30FC 1
370
     0
100
AcDbVertex
100
AcDb2dVertex
 10
101.6864718712798
 20
-122.0245930684522
 30
0.0
  0
VERTEX
  5
F0
330
EE
100
AcDbEntity
  8
_U+30EC_U+30A4_U+30E4_U+30FC 1
370
     0
100
AcDbVertex
100
AcDb2dVertex
 10
101.4243001048523
 20
-122.0245930684522
 30
0.0
  0
VERTEX
  5
F1
330
EE
100
AcDbEntity
  8
_U+30EC_U+30A4_U+30E4_U+30FC 1
370
     0
100
AcDbVertex
100
AcDb2dVertex
 10
101.4243001048523
 20
-122.2023599954911
 30
0.0
  0
VERTEX
  5
F2
330
EE
100
AcDbEntity
  8
_U+30EC_U+30A4_U+30E4_U+30FC 1
370
     0
100
AcDbVertex
100
AcDb2dVertex
 10
101.6864718712798
 20
-122.2023599954911
 30
0.0
  0
VERTEX
  5
F3
330
EE
100
AcDbEntity
  8
_U+30EC_U+30A4_U+30E4_U+30FC 1
370
     0
100
AcDbVertex
100
AcDb2dVertex
 10
101.6864718712798
 20
-122.0245930684522
 30
0.0
  0
SEQEND
  5
F4
330
EE
100
AcDbEntity
  8
_U+30EC_U+30A4_U+30E4_U+30FC 1
370
     0
  0
SPLINE
  5
F5
330
E6
100
AcDbEntity
  8
_U+30EC_U+30A4_U+30E4_U+30FC 1
370
     0
100
AcDbSpline
210
0.0
220
0.0
230
1.0
 70
    11
 71
     3
 72
    17
 73
    13
 74
     0
 42
0.0000000001
 43
0.0000000001
 12
1.0
 22
0.0
 32
0.0
 13
1.0
 23
0.0
 33
0.0
 40
0.0
 40
0.0
 40
0.0
 40
0.0
 40
1.0
 40
1.0
 40
1.0
 40
2.0
 40
2.0
 40
2.0
 40
3.0
 40
3.0
 40
3.0
 40
4.0
 40
4.0
 40
4.0
 40
4.0
 10
102.0185790760579
 20
-122.3970078904077
 30
0.0
 10
102.0037651654713
 20
-122.3019232550148
 30
0.0
 10
101.9741373442981
 20
-122.1623968878622
 30
0.0
 10
101.889387995361
 20
-122.0311387498742
 30
0.0
 10
101.889387995361
 20
-122.0311387498742
 30
0.0
 10
102.0440727826487
 20
-121.9508680250678
 30
0.0
 10
102.0440727826487
 20
-121.9508680250678
 30
0.0
 10
102.130889188877
 20
-122.0797145962162
 30
0.0
 10
102.1646511246325
 20
-122.1896131421957
 30
0.0
 10
102.1815320925102
 20
-122.3081244268883
 30
0.0
 10
102.1815320925102
 20
-122.3081244268883
 30
0.0
 10
102.0185790760579
 20
-122.3970078904077
 30
0.0
 10
102.0185790760579
 20
-122.3970078904077
 30
0.0
  0
SPLINE
  5
F6
330
E6
100
AcDbEntity
  8
_U+30EC_U+30A4_U+30E4_U+30FC 1
370
     0
100
AcDbSpline
210
0.0
220
0.0
230
1.0
 70
    11
 71
     3
 72
    68
 73
    64
 74
     0
 42
0.0000000001
 43
0.0000000001
 12
1.0
 22
0.0
 32
0.0
 13
1.0
 23
0.0
 33
0.0
 40
0.0
 40
0.0
 40
0.0
 40
0.0
 40
1.0
 40
1.0
 40
1.0
 40
2.0
 40
2.0
 40
2.0
 40
3.0
 40
3.0
 40
3.0
 40
4.0
 40
4.0
 40
4.0
 40
5.0
 40
5.0
 40
5.0
 40
6.0
 40
6.0
 40
6.0
 40
7.0
 40
7.0
 40
7.0
 40
8.0
 40
8.0
 40
8.0
 40
9.0
 40
9.0
 40
9.0
 40
10.0
 40
10.0
 40
10.0
 40
11.0
 40
11.0
 40
11.0
 40
12.0
 40
12.0
 40
12.0
 40
13.0
 40
13.0
 40
13.0
 40
14.0
 40
14.0
 40
14.0
 40
15.0
 40
15.0
 40
15.0
 40
16.0
 40
16.0
 40
16.0
 40
17.0
 40
17.0
 40
17.0
 40
18.0
 40
18.0
 40
18.0
 40
19.0
 40
19.0
 40
19.0
 40
20.0
 40
20.0
 40
20.0
 40
21.0
 40
21.0
 40
21.0
 40
21.0
 10
102.3675672487137
 20
-121.7624213020247
 30
0.0
 10
102.3675672487137
 20
-121.7624213020247
 30
0.0
 10
102.3675672487137
 20
-122.3570447827788
 30
0.0
 10
102.3675672487137
 20
-122.3570447827788
 30
0.0
 10
102.3675672487137
 20
-122.4603976473363
 30
0.0
 10
102.3782470447179
 20
-122.71877980873
 30
0.0
 10
102.3782470447179
 20
-122.8200656159964
 30
0.0
 10
102.3782470447179
 20
-123.014713510913
 30
0.0
 10
102.3400064848317
 20
-123.0591552426727
 30
0.0
 10
102.0799017756953
 20
-123.0570881853816
 30
0.0
 10
102.0799017756953
 20
-123.0570881853816
 30
0.0
 10
101.951055204547
 20
-122.8731200864692
 30
0.0
 10
101.951055204547
 20
-122.8731200864692
 30
0.0
 10
101.9910183121759
 20
-122.8751871437604
 30
0.0
 10
102.0671549223999
 20
-122.8793212583427
 30
0.0
 10
102.1136637114508
 20
-122.8793212583427
 30
0.0
 10
102.1815320925102
 20
-122.8793212583427
 30
0.0
 10
102.1877332643836
 20
-122.8603732331738
 30
0.0
 10
102.1877332643836
 20
-122.7863036802409
 30
0.0
 10
102.1877332643836
 20
-122.7863036802409
 30
0.0
 10
102.1877332643836
 20
-121.7582871874424
 30
0.0
 10
102.1877332643836
 20
-121.7582871874424
 30
0.0
 10
102.1877332643836
 20
-121.7582871874424
 30
0.0
 10
102.1601725005016
 20
-121.7582871874424
 30
0.0
 10
102.1601725005016
 20
-121.7582871874424
 30
0.0
 10
102.1181423355816
 20
-121.7582871874424
 30
0.0
 10
101.999631050889
 20
-121.7644883593158
 30
0.0
 10
101.916948759243
 20
-121.7710340407378
 30
0.0
 10
101.916948759243
 20
-121.7710340407378
 30
0.0
 10
101.916948759243
 20
-121.5932671136989
 30
0.0
 10
101.916948759243
 20
-121.5932671136989
 30
0.0
 10
101.9954969363067
 20
-121.5994682855724
 30
0.0
 10
102.1074625395773
 20
-121.6039469097032
 30
0.0
 10
102.1601725005016
 20
-121.6039469097032
 30
0.0
 10
102.1601725005016
 20
-121.6039469097032
 30
0.0
 10
102.1877332643836
 20
-121.6039469097032
 30
0.0
 10
102.1877332643836
 20
-121.6039469097032
 30
0.0
 10
102.1877332643836
 20
-121.6039469097032
 30
0.0
 10
102.1877332643836
 20
-121.5319444140615
 30
0.0
 10
102.1877332643836
 20
-121.5319444140615
 30
0.0
 10
102.1877332643836
 20
-121.4537407465463
 30
0.0
 10
102.1729193537971
 20
-121.2208522917434
 30
0.0
 10
102.1625840673413
 20
-121.1361029428063
 30
0.0
 10
102.1625840673413
 20
-121.1361029428063
 30
0.0
 10
102.3782470447179
 20
-121.1636637066883
 30
0.0
 10
102.3782470447179
 20
-121.1636637066883
 30
0.0
 10
102.3951280125957
 20
-121.1657307639794
 30
0.0
 10
102.4099419231822
 20
-121.1681423308191
 30
0.0
 10
102.4099419231822
 20
-121.1850232986968
 30
0.0
 10
102.4099419231822
 20
-121.2039713238657
 30
0.0
 10
102.3909938980134
 20
-121.21465111987
 30
0.0
 10
102.3696343060048
 20
-121.2249864063257
 30
0.0
 10
102.3675672487137
 20
-121.3011230165497
 30
0.0
 10
102.3675672487137
 20
-121.5994682855724
 30
0.0
 10
102.3675672487137
 20
-121.6015353428635
 30
0.0
 10
102.3844482165914
 20
-121.6015353428635
 30
0.0
 10
102.4457709162288
 20
-121.5974012282812
 30
0.0
 10
102.5008924439928
 20
-121.5932671136989
 30
0.0
 10
102.5008924439928
 20
-121.5932671136989
 30
0.0
 10
102.5008924439928
 20
-121.7710340407378
 30
0.0
 10
102.5008924439928
 20
-121.7710340407378
 30
0.0
 10
102.454383654942
 20
-121.766555416607
 30
0.0
 10
102.4078748658911
 20
-121.7624213020247
 30
0.0
 10
102.3675672487137
 20
-121.7624213020247
 30
0.0
  0
HATCH
  5
F7
330
E6
100
AcDbEntity
  8
_U+30EC_U+30A4_U+30E4_U+30FC 1
 62
   179
420
  2234388
100
AcDbHatch
 10
0.0
 20
0.0
 30
0.0
210
0.0
220
0.0
230
1.0
  2
SOLID
 70
     1
 71
     0
 91
        7
 92
        1
 93
        1
 72
     4
 94
        3
 73
     0
 74
     1
 95
      122
 96
      118
 40
0.0
 40
0.0
 40
0.0
 40
0.0
 40
1.0
 40
1.0
 40
1.0
 40
2.0
 40
2.0
 40
2.0
 40
3.0
 40
3.0
 40
3.0
 40
4.0
 40
4.0
 40
4.0
 40
5.0
 40
5.0
 40
5.0
 40
6.0
 40
6.0
 40
6.0
 40
7.0
 40
7.0
 40
7.0
 40
8.0
 40
8.0
 40
8.0
 40
9.0
 40
9.0
 40
9.0
 40
10.0
 40
10.0
 40
10.0
 40
11.0
 40
11.0
 40
11.0
 40
12.0
 40
12.0
 40
12.0
 40
13.0
 40
13.0
 40
13.0
 40
14.0
 40
14.0
 40
14.0
 40
15.0
 40
15.0
 40
15.0
 40
16.0
 40
16.0
 40
16.0
 40
17.0
 40
17.0
 40
17.0
 40
18.0
 40
18.0
 40
18.0
 40
19.0
 40
19.0
 40
19.0
 40
20.0
 40
20.0
 40
20.0
 40
21.0
 40
21.0
 40
21.0
 40
22.0
 40
22.0
 40
22.0
 40
23.0
 40
23.0
 40
23.0
 40
24.0
 40
24.0
 40
24.0
 40
25.0
 40
25.0
 40
25.0
 40
26.0
 40
26.0
 40
26.0
 40
27.0
 40
27.0
 40
27.0
 40
28.0
 40
28.0
 40
28.0
 40
29.0
 40
29.0
 40
29.0
 40
30.0
 40
30.0
 40
30.0
 40
31.0
 40
31.0
 40
31.0
 40
32.0
 40
32.0
 40
32.0
 40
33.0
 40
33.0
 40
33.0
 40
34.0
 40
34.0
 40
34.0
 40
35.0
 40
35.0
 40
35.0
 40
36.0
 40
36.0
 40
36.0
 40
37.0
 40
37.0
 40
37.0
 40
38.0
 40
38.0
 40
38.0
 40
39.0
 40
39.0
 40
39.0
 40
39.0
 10
101.6506428782332
 20
-122.3274169616056
 10
101.6506428782332
 20
-122.3274169616056
 10
101.4539279260254
 20
-122.3274169616056
 10
101.4539279260254
 20
-122.3274169616056
 10
101.4243001048523
 20
-122.3274169616056
 10
101.3395507559151
 20
-122.3294840188968
 10
101.2568684642691
 20
-122.3377522480614
 10
101.2634141456911
 20
-122.2809081725548
 10
101.2634141456911
 20
-122.2151068487865
 10
101.2634141456911
 20
-122.1727321743179
 10
101.2634141456911
 20
-122.1727321743179
 10
101.1597167715851
 20
-122.3377522480614
 10
101.1597167715851
 20
-122.3377522480614
 10
101.1342230649942
 20
-122.2998561977237
 10
101.0897813332345
 20
-122.2364664407951
 10
101.0305256908882
 20
-122.1307020093979
 10
101.0305256908882
 20
-122.1307020093979
 10
101.0305256908882
 20
-122.3928737758254
 10
101.0305256908882
 20
-122.3928737758254
 10
101.0305256908882
 20
-122.6447102557972
 10
101.0432725441836
 20
-122.9237629901024
 10
101.0539523401879
 20
-123.0591552426727
 10
101.0539523401879
 20
-123.0591552426727
 10
100.8531032733978
 20
-123.0591552426727
 10
100.8531032733978
 20
-123.0591552426727
 10
100.8572373879801
 20
-122.9282416142332
 10
100.8593044452713
 20
-122.8245442401272
 10
100.8593044452713
 20
-122.7418619484812
 10
100.8593044452713
 20
-122.511385060518
 10
100.8613715025624
 20
-122.4858913539271
 10
100.8613715025624
 20
-122.4035535718297
 10
100.8613715025624
 20
-122.4035535718297
 10
100.8613715025624
 20
-122.2468017272508
 10
100.8613715025624
 20
-122.2468017272508
 10
100.8189968280939
 20
-122.3591118400699
 10
100.7301133645744
 20
-122.5155191751003
 10
100.7004855434013
 20
-122.5558267922777
 10
100.7004855434013
 20
-122.5558267922777
 10
100.5230631259109
 20
-122.4900254685094
 10
100.5230631259109
 20
-122.4900254685094
 10
100.5799072014175
 20
-122.4163004251251
 10
100.6708577222281
 20
-122.2998561977237
 10
100.7428602178698
 20
-122.0903943922205
 10
100.772488039043
 20
-122.001510928701
 10
100.8148627135116
 20
-121.8344237976664
 10
100.827609566807
 20
-121.7200466275561
 10
100.7407931605787
 20
-121.7200466275561
 10
100.6708577222281
 20
-121.7200466275561
 10
100.6095350225907
 20
-121.7327934808515
 10
100.6095350225907
 20
-121.7327934808515
 10
100.6095350225907
 20
-121.5422797005172
 10
100.6095350225907
 20
-121.5422797005172
 10
100.6922173142367
 20
-121.5595051779435
 10
100.8062499747984
 20
-121.5595051779435
 10
100.8148627135116
 20
-121.5595051779435
 10
100.8148627135116
 20
-121.5595051779435
 10
100.8572373879801
 20
-121.5595051779435
 10
100.8572373879801
 20
-121.5595051779435
 10
100.855170330689
 20
-121.3541774870226
 10
100.8531032733978
 20
-121.2928547873851
 10
100.8424234773936
 20
-121.1237005990594
 10
100.8424234773936
 20
-121.1237005990594
 10
101.0453396014748
 20
-121.1447156815194
 10
101.0453396014748
 20
-121.1447156815194
 10
101.0580864547702
 20
-121.1467827388105
 10
101.0794460467788
 20
-121.1488497961017
 10
101.0794460467788
 20
-121.1681423308191
 10
101.0794460467788
 20
-121.1850232986968
 10
101.0729003653568
 20
-121.187090355988
 10
101.035004315019
 20
-121.2101724957391
 10
101.0305256908882
 20
-121.3035345833894
 10
101.0305256908882
 20
-121.3224826085583
 10
101.0305256908882
 20
-121.5595051779435
 10
101.0498182256056
 20
-121.5595051779435
 10
101.1469699182897
 20
-121.5570936111038
 10
101.2231065285137
 20
-121.5422797005172
 10
101.2231065285137
 20
-121.5422797005172
 10
101.2231065285137
 20
-121.7327934808515
 10
101.2231065285137
 20
-121.7327934808515
 10
101.1597167715851
 20
-121.7200466275561
 10
101.0794460467788
 20
-121.7200466275561
 10
101.0305256908882
 20
-121.7200466275561
 10
101.0305256908882
 20
-121.7200466275561
 10
101.0305256908882
 20
-121.7582871874424
 10
101.0305256908882
 20
-121.7582871874424
 10
101.0305256908882
 20
-121.7879150086155
 10
101.0897813332345
 20
-121.9105604078904
 10
101.111140925243
 20
-121.9484564582282
 10
101.1617838288762
 20
-122.0394069790388
 10
101.2124267325094
 20
-122.1072753600982
 10
101.2634141456911
 20
-122.1706651170268
 10
101.2634141456911
 20
-122.1706651170268
 10
101.2634141456911
 20
-122.0459526604607
 10
101.2634141456911
 20
-122.0459526604607
 10
101.2634141456911
 20
-121.9953097568276
 10
101.2613470883999
 20
-121.946389400937
 10
101.2568684642691
 20
-121.8957464973038
 10
101.3395507559151
 20
-121.9040147264684
 10
101.4177544234303
 20
-121.9084933505993
 10
101.4539279260254
 20
-121.9084933505993
 10
101.4539279260254
 20
-121.9084933505993
 10
101.6506428782332
 20
-121.9084933505993
 10
101.6506428782332
 20
-121.9084933505993
 10
101.6778591325667
 20
-121.9084933505993
 10
101.7836235639638
 20
-121.9019476691773
 10
101.8452907731498
 20
-121.8957464973038
 10
101.840812149019
 20
-121.9422552863547
 10
101.8387450917278
 20
-122.0270046352919
 10
101.8387450917278
 20
-122.0459526604607
 10
101.8387450917278
 20
-122.0459526604607
 10
101.8387450917278
 20
-122.1896131421957
 10
101.8387450917278
 20
-122.1896131421957
 10
101.8387450917278
 20
-122.2023599954911
 10
101.840812149019
 20
-122.2912434590105
 10
101.8452907731498
 20
-122.3377522480614
 10
101.7774223920904
 20
-122.3315510761879
 10
101.6906059858621
 20
-122.3274169616056
 10
101.6506428782332
 20
-122.3274169616056
 97
        0
 97
        0
 92
        1
 93
        1
 72
     4
 94
        3
 73
     0
 74
     1
 95
       47
 96
       43
 40
0.0
 40
0.0
 40
0.0
 40
0.0
 40
1.0
 40
1.0
 40
1.0
 40
2.0
 40
2.0
 40
2.0
 40
3.0
 40
3.0
 40
3.0
 40
4.0
 40
4.0
 40
4.0
 40
5.0
 40
5.0
 40
5.0
 40
6.0
 40
6.0
 40
6.0
 40
7.0
 40
7.0
 40
7.0
 40
8.0
 40
8.0
 40
8.0
 40
9.0
 40
9.0
 40
9.0
 40
10.0
 40
10.0
 40
10.0
 40
11.0
 40
11.0
 40
11.0
 40
12.0
 40
12.0
 40
12.0
 40
13.0
 40
13.0
 40
13.0
 40
14.0
 40
14.0
 40
14.0
 40
14.0
 10
101.9338297271207
 20
-122.7821695656586
 10
101.8280652957235
 20
-122.8224771828361
 10
101.4811441803589
 20
-122.9282416142332
 10
101.2802951135688
 20
-122.9788845178664
 10
101.2782280562777
 20
-122.9998996003264
 10
101.2740939416954
 20
-123.0274603642084
 10
101.254801406978
 20
-123.0274603642084
 10
101.2444661205222
 20
-123.0274603642084
 10
101.233786324518
 20
-123.0233262496261
 10
101.2231065285137
 20
-123.0019666576176
 10
101.2231065285137
 20
-123.0019666576176
 10
101.1300889504119
 20
-122.8097303295406
 10
101.1300889504119
 20
-122.8097303295406
 10
101.3333495840417
 20
-122.7928493616629
 10
101.5300645362494
 20
-122.7439290057724
 10
101.7267794884572
 20
-122.6870849302657
 10
101.7267794884572
 20
-122.6870849302657
 10
101.5893201785957
 20
-122.6340304597929
 10
101.5893201785957
 20
-122.6340304597929
 10
101.6506428782332
 20
-122.5007052645137
 10
101.6654567888198
 20
-122.4097547437031
 10
101.6716579606932
 20
-122.3591118400699
 10
101.6716579606932
 20
-122.3591118400699
 10
101.8576931168967
 20
-122.4097547437031
 10
101.8576931168967
 20
-122.4097547437031
 10
101.8769856516141
 20
-122.4138888582854
 10
101.8873209380698
 20
-122.4183674824162
 10
101.8873209380698
 20
-122.4331813930028
 10
101.8873209380698
 20
-122.456263532754
 10
101.8576931168967
 20
-122.4669433287583
 10
101.8366780344367
 20
-122.4731445006317
 10
101.8259982384324
 20
-122.4986382072226
 10
101.7836235639638
 20
-122.608536753202
 10
101.7732882775081
 20
-122.6298963452106
 10
101.7646755387949
 20
-122.6467773130883
 10
101.7646755387949
 20
-122.6509114276706
 10
101.7477945709172
 20
-122.6805392488438
 10
101.8873209380698
 20
-122.6402316316663
 10
101.9465765804161
 20
-122.6171494919152
 10
101.9848171403024
 20
-122.6023355813286
 10
101.9848171403024
 20
-122.6023355813286
 10
101.9338297271207
 20
-122.7821695656586
 10
101.9338297271207
 20
-122.7821695656586
 97
        0
 97
        0
 92
        1
 93
        1
 72
     4
 94
        3
 73
     0
 74
     1
 95
       77
 96
       73
 40
0.0
 40
0.0
 40
0.0
 40
0.0
 40
1.0
 40
1.0
 40
1.0
 40
2.0
 40
2.0
 40
2.0
 40
3.0
 40
3.0
 40
3.0
 40
4.0
 40
4.0
 40
4.0
 40
5.0
 40
5.0
 40
5.0
 40
6.0
 40
6.0
 40
6.0
 40
7.0
 40
7.0
 40
7.0
 40
8.0
 40
8.0
 40
8.0
 40
9.0
 40
9.0
 40
9.0
 40
10.0
 40
10.0
 40
10.0
 40
11.0
 40
11.0
 40
11.0
 40
12.0
 40
12.0
 40
12.0
 40
13.0
 40
13.0
 40
13.0
 40
14.0
 40
14.0
 40
14.0
 40
15.0
 40
15.0
 40
15.0
 40
16.0
 40
16.0
 40
16.0
 40
17.0
 40
17.0
 40
17.0
 40
18.0
 40
18.0
 40
18.0
 40
19.0
 40
19.0
 40
19.0
 40
20.0
 40
20.0
 40
20.0
 40
21.0
 40
21.0
 40
21.0
 40
22.0
 40
22.0
 40
22.0
 40
23.0
 40
23.0
 40
23.0
 40
24.0
 40
24.0
 40
24.0
 40
24.0
 10
101.6695909034021
 20
-121.4875026823017
 10
101.6695909034021
 20
-121.4875026823017
 10
101.6358289676466
 20
-121.4875026823017
 10
101.6358289676466
 20
-121.4875026823017
 10
101.6358289676466
 20
-121.4875026823017
 10
101.6358289676466
 20
-121.6187608202898
 10
101.6358289676466
 20
-121.6187608202898
 10
101.7098985205795
 20
-121.6187608202898
 10
101.7943033599681
 20
-121.6101480815766
 10
101.8428792063101
 20
-121.6060139669943
 10
101.8428792063101
 20
-121.6060139669943
 10
101.8428792063101
 20
-121.7834363844847
 10
101.8428792063101
 20
-121.7834363844847
 10
101.7815565066727
 20
-121.7772352126113
 10
101.6864718712798
 20
-121.7731010980289
 10
101.6461642541024
 20
-121.7731010980289
 10
101.6461642541024
 20
-121.7731010980289
 10
101.4515163591857
 20
-121.7731010980289
 10
101.4515163591857
 20
-121.7731010980289
 10
101.4177544234303
 20
-121.7731010980289
 10
101.3226697880374
 20
-121.7772352126113
 10
101.254801406978
 20
-121.7834363844847
 10
101.254801406978
 20
-121.7834363844847
 10
101.254801406978
 20
-121.6060139669943
 10
101.254801406978
 20
-121.6060139669943
 10
101.2951090241554
 20
-121.6101480815766
 10
101.3798583730925
 20
-121.6187608202898
 10
101.4728759511943
 20
-121.6187608202898
 10
101.4728759511943
 20
-121.6187608202898
 10
101.4728759511943
 20
-121.4875026823017
 10
101.4728759511943
 20
-121.4875026823017
 10
101.4728759511943
 20
-121.4875026823017
 10
101.4263671621434
 20
-121.4875026823017
 10
101.4263671621434
 20
-121.4875026823017
 10
101.3839924876748
 20
-121.4875026823017
 10
101.2675482602734
 20
-121.491636796884
 10
101.1831434208848
 20
-121.5002495355972
 10
101.1831434208848
 20
-121.5002495355972
 10
101.1831434208848
 20
-121.3204155512671
 10
101.1831434208848
 20
-121.3204155512671
 10
101.2613470883999
 20
-121.3286837804317
 10
101.3733126916706
 20
-121.3331624045625
 10
101.4263671621434
 20
-121.3331624045625
 10
101.4263671621434
 20
-121.3331624045625
 10
101.4728759511943
 20
-121.3331624045625
 10
101.4728759511943
 20
-121.3331624045625
 10
101.468741836612
 20
-121.2673610807943
 10
101.4663302697723
 20
-121.1977701519922
 10
101.4601290978989
 20
-121.1340358855151
 10
101.4601290978989
 20
-121.1340358855151
 10
101.6461642541024
 20
-121.1488497961017
 10
101.6461642541024
 20
-121.1488497961017
 10
101.6589111073978
 20
-121.1488497961017
 10
101.6864718712798
 20
-121.1509168533928
 10
101.6864718712798
 20
-121.1722764454014
 10
101.6864718712798
 20
-121.1891574132791
 10
101.6716579606932
 20
-121.1998372092834
 10
101.6420301395201
 20
-121.2187852344523
 10
101.6378960249378
 20
-121.25668128479
 10
101.6378960249378
 20
-121.318348493976
 10
101.6358289676466
 20
-121.3331624045625
 10
101.6358289676466
 20
-121.3331624045625
 10
101.6695909034021
 20
-121.3331624045625
 10
101.6695909034021
 20
-121.3331624045625
 10
101.7202338070352
 20
-121.3331624045625
 10
101.8304768625632
 20
-121.3286837804317
 10
101.9107475873695
 20
-121.3204155512671
 10
101.9107475873695
 20
-121.3204155512671
 10
101.9107475873695
 20
-121.5002495355972
 10
101.9107475873695
 20
-121.5002495355972
 10
101.8366780344367
 20
-121.491636796884
 10
101.7160996924529
 20
-121.4875026823017
 10
101.6695909034021
 20
-121.4875026823017
 97
        0
 97
        0
 92
        1
 93
        1
 72
     4
 94
        3
 73
     0
 74
     1
 95
       17
 96
       13
 40
0.0
 40
0.0
 40
0.0
 40
0.0
 40
1.0
 40
1.0
 40
1.0
 40
2.0
 40
2.0
 40
2.0
 40
3.0
 40
3.0
 40
3.0
 40
4.0
 40
4.0
 40
4.0
 40
4.0
 10
101.3798583730925
 20
-122.7208468660212
 10
101.3288709599108
 20
-122.5789089320289
 10
101.2889078522819
 20
-122.4986382072226
 10
101.2486002351045
 20
-122.4414496221674
 10
101.2486002351045
 20
-122.4414496221674
 10
101.4094861942657
 20
-122.3739257506565
 10
101.4094861942657
 20
-122.3739257506565
 10
101.48321123765
 20
-122.4690103860494
 10
101.517317682954
 20
-122.5558267922777
 10
101.544878446836
 20
-122.642643198506
 10
101.544878446836
 20
-122.642643198506
 10
101.3798583730925
 20
-122.7208468660212
 10
101.3798583730925
 20
-122.7208468660212
 97
        0
 97
        0
 92
        1
 93
        4
 72
     1
 10
101.6864718712798
 20
-122.0245930684522
 11
101.4243001048523
 21
-122.0245930684522
 72
     1
 10
101.4243001048523
 20
-122.0245930684522
 11
101.4243001048523
 21
-122.2023599954911
 72
     1
 10
101.4243001048523
 20
-122.2023599954911
 11
101.6864718712798
 21
-122.2023599954911
 72
     1
 10
101.6864718712798
 20
-122.2023599954911
 11
101.6864718712798
 21
-122.0245930684522
 97
        0
 92
        1
 93
        1
 72
     4
 94
        3
 73
     0
 74
     1
 95
       17
 96
       13
 40
0.0
 40
0.0
 40
0.0
 40
0.0
 40
1.0
 40
1.0
 40
1.0
 40
2.0
 40
2.0
 40
2.0
 40
3.0
 40
3.0
 40
3.0
 40
4.0
 40
4.0
 40
4.0
 40
4.0
 10
102.0185790760579
 20
-122.3970078904077
 10
102.0037651654713
 20
-122.3019232550148
 10
101.9741373442981
 20
-122.1623968878622
 10
101.889387995361
 20
-122.0311387498742
 10
101.889387995361
 20
-122.0311387498742
 10
102.0440727826487
 20
-121.9508680250678
 10
102.0440727826487
 20
-121.9508680250678
 10
102.130889188877
 20
-122.0797145962162
 10
102.1646511246325
 20
-122.1896131421957
 10
102.1815320925102
 20
-122.3081244268883
 10
102.1815320925102
 20
-122.3081244268883
 10
102.0185790760579
 20
-122.3970078904077
 10
102.0185790760579
 20
-122.3970078904077
 97
        0
 97
        0
 92
        1
 93
        1
 72
     4
 94
        3
 73
     0
 74
     1
 95
       68
 96
       64
 40
0.0
 40
0.0
 40
0.0
 40
0.0
 40
1.0
 40
1.0
 40
1.0
 40
2.0
 40
2.0
 40
2.0
 40
3.0
 40
3.0
 40
3.0
 40
4.0
 40
4.0
 40
4.0
 40
5.0
 40
5.0
 40
5.0
 40
6.0
 40
6.0
 40
6.0
 40
7.0
 40
7.0
 40
7.0
 40
8.0
 40
8.0
 40
8.0
 40
9.0
 40
9.0
 40
9.0
 40
10.0
 40
10.0
 40
10.0
 40
11.0
 40
11.0
 40
11.0
 40
12.0
 40
12.0
 40
12.0
 40
13.0
 40
13.0
 40
13.0
 40
14.0
 40
14.0
 40
14.0
 40
15.0
 40
15.0
 40
15.0
 40
16.0
 40
16.0
 40
16.0
 40
17.0
 40
17.0
 40
17.0
 40
18.0
 40
18.0
 40
18.0
 40
19.0
 40
19.0
 40
19.0
 40
20.0
 40
20.0
 40
20.0
 40
21.0
 40
21.0
 40
21.0
 40
21.0
 10
102.3675672487137
 20
-121.7624213020247
 10
102.3675672487137
 20
-121.7624213020247
 10
102.3675672487137
 20
-122.3570447827788
 10
102.3675672487137
 20
-122.3570447827788
 10
102.3675672487137
 20
-122.4603976473363
 10
102.3782470447179
 20
-122.71877980873
 10
102.3782470447179
 20
-122.8200656159964
 10
102.3782470447179
 20
-123.014713510913
 10
102.3400064848317
 20
-123.0591552426727
 10
102.0799017756953
 20
-123.0570881853816
 10
102.0799017756953
 20
-123.0570881853816
 10
101.951055204547
 20
-122.8731200864692
 10
101.951055204547
 20
-122.8731200864692
 10
101.9910183121759
 20
-122.8751871437604
 10
102.0671549223999
 20
-122.8793212583427
 10
102.1136637114508
 20
-122.8793212583427
 10
102.1815320925102
 20
-122.8793212583427
 10
102.1877332643836
 20
-122.8603732331738
 10
102.1877332643836
 20
-122.7863036802409
 10
102.1877332643836
 20
-122.7863036802409
 10
102.1877332643836
 20
-121.7582871874424
 10
102.1877332643836
 20
-121.7582871874424
 10
102.1877332643836
 20
-121.7582871874424
 10
102.1601725005016
 20
-121.7582871874424
 10
102.1601725005016
 20
-121.7582871874424
 10
102.1181423355816
 20
-121.7582871874424
 10
101.999631050889
 20
-121.7644883593158
 10
101.916948759243
 20
-121.7710340407378
 10
101.916948759243
 20
-121.7710340407378
 10
101.916948759243
 20
-121.5932671136989
 10
101.916948759243
 20
-121.5932671136989
 10
101.9954969363067
 20
-121.5994682855724
 10
102.1074625395773
 20
-121.6039469097032
 10
102.1601725005016
 20
-121.6039469097032
 10
102.1601725005016
 20
-121.6039469097032
 10
102.1877332643836
 20
-121.6039469097032
 10
102.1877332643836
 20
-121.6039469097032
 10
102.1877332643836
 20
-121.6039469097032
 10
102.1877332643836
 20
-121.5319444140615
 10
102.1877332643836
 20
-121.5319444140615
 10
102.1877332643836
 20
-121.4537407465463
 10
102.1729193537971
 20
-121.2208522917434
 10
102.1625840673413
 20
-121.1361029428063
 10
102.1625840673413
 20
-121.1361029428063
 10
102.3782470447179
 20
-121.1636637066883
 10
102.3782470447179
 20
-121.1636637066883
 10
102.3951280125957
 20
-121.1657307639794
 10
102.4099419231822
 20
-121.1681423308191
 10
102.4099419231822
 20
-121.1850232986968
 10
102.4099419231822
 20
-121.2039713238657
 10
102.3909938980134
 20
-121.21465111987
 10
102.3696343060048
 20
-121.2249864063257
 10
102.3675672487137
 20
-121.3011230165497
 10
102.3675672487137
 20
-121.5994682855724
 10
102.3675672487137
 20
-121.6015353428635
 10
102.3844482165914
 20
-121.6015353428635
 10
102.4457709162288
 20
-121.5974012282812
 10
102.5008924439928
 20
-121.5932671136989
 10
102.5008924439928
 20
-121.5932671136989
 10
102.5008924439928
 20
-121.7710340407378
 10
102.5008924439928
 20
-121.7710340407378
 10
102.454383654942
 20
-121.766555416607
 10
102.4078748658911
 20
-121.7624213020247
 10
102.3675672487137
 20
-121.7624213020247
 97
        0
 97
        0
 75
     2
 76
     1
 98
        0
  0
SPLINE
  5
F8
330
E6
100
AcDbEntity
  8
_U+30EC_U+30A4_U+30E4_U+30FC 1
370
     0
100
AcDbSpline
210
0.0
220
0.0
230
1.0
 70
    11
 71
     3
 72
    59
 73
    55
 74
     0
 42
0.0000000001
 43
0.0000000001
 12
1.0
 22
0.0
 32
0.0
 13
1.0
 23
0.0
 33
0.0
 40
0.0
 40
0.0
 40
0.0
 40
0.0
 40
1.0
 40
1.0
 40
1.0
 40
2.0
 40
2.0
 40
2.0
 40
3.0
 40
3.0
 40
3.0
 40
4.0
 40
4.0
 40
4.0
 40
5.0
 40
5.0
 40
5.0
 40
6.0
 40
6.0
 40
6.0
 40
7.0
 40
7.0
 40
7.0
 40
8.0
 40
8.0
 40
8.0
 40
9.0
 40
9.0
 40
9.0
 40
10.0
 40
10.0
 40
10.0
 40
11.0
 40
11.0
 40
11.0
 40
12.0
 40
12.0
 40
12.0
 40
13.0
 40
13.0
 40
13.0
 40
14.0
 40
14.0
 40
14.0
 40
15.0
 40
15.0
 40
15.0
 40
16.0
 40
16.0
 40
16.0
 40
17.0
 40
17.0
 40
17.0
 40
18.0
 40
18.0
 40
18.0
 40
18.0
 10
103.0693331990591
 20
-123.0253933069173
 30
0.0
 10
103.0693331990591
 20
-123.0253933069173
 30
0.0
 10
102.9742485636662
 20
-122.8245442401272
 30
0.0
 10
102.9742485636662
 20
-122.8245442401272
 30
0.0
 10
103.0269585245905
 20
-122.834879526583
 30
0.0
 10
103.1010280775234
 20
-122.8476263798784
 30
0.0
 10
103.1540825479962
 20
-122.8476263798784
 30
0.0
 10
103.2067925089205
 20
-122.8476263798784
 30
0.0
 10
103.2067925089205
 20
-122.834879526583
 30
0.0
 10
103.2067925089205
 20
-122.7229139233123
 30
0.0
 10
103.2067925089205
 20
-122.7229139233123
 30
0.0
 10
103.2067925089205
 20
-122.3315510761879
 30
0.0
 10
103.2067925089205
 20
-122.3315510761879
 30
0.0
 10
103.2067925089205
 20
-122.3315510761879
 30
0.0
 10
102.9952636461262
 20
-122.3315510761879
 30
0.0
 10
102.9952636461262
 20
-122.3315510761879
 30
0.0
 10
102.9804497355396
 20
-122.5134521178091
 30
0.0
 10
102.9570230862399
 20
-122.8179985587052
 30
0.0
 10
102.8491915975516
 20
-122.9998996003264
 30
0.0
 10
102.8491915975516
 20
-122.9998996003264
 30
0.0
 10
102.6524766453438
 20
-122.9134277036466
 30
0.0
 10
102.6524766453438
 20
-122.9134277036466
 30
0.0
 10
102.6927842625213
 20
-122.8689859718869
 30
0.0
 10
102.7434271661544
 20
-122.8159315014141
 30
0.0
 10
102.7944145793361
 20
-122.55996090686
 30
0.0
 10
102.8174967190873
 20
-122.4414496221674
 30
0.0
 10
102.8281765150916
 20
-122.3422308721922
 30
0.0
 10
102.8281765150916
 20
-122.0607665710473
 30
0.0
 10
102.8281765150916
 20
-122.0607665710473
 30
0.0
 10
102.8281765150916
 20
-121.43651526912
 30
0.0
 10
102.8281765150916
 20
-121.43651526912
 30
0.0
 10
102.8281765150916
 20
-121.3965521614911
 30
0.0
 10
102.8281765150916
 20
-121.2990559592586
 30
0.0
 10
102.8195637763784
 20
-121.1977701519922
 30
0.0
 10
102.8981119534421
 20
-121.2060383811568
 30
0.0
 10
102.9890624742527
 20
-121.2060383811568
 30
0.0
 10
102.9973307034173
 20
-121.2060383811568
 30
0.0
 10
102.9973307034173
 20
-121.2060383811568
 30
0.0
 10
103.1940456556251
 20
-121.2060383811568
 30
0.0
 10
103.1940456556251
 20
-121.2060383811568
 30
0.0
 10
103.2977430297311
 20
-121.2060383811568
 30
0.0
 10
103.3487304429128
 20
-121.2039713238657
 30
0.0
 10
103.3886935505417
 20
-121.2019042665745
 30
0.0
 10
103.3824923786683
 20
-121.2780408767986
 30
0.0
 10
103.3804253213771
 20
-121.3965521614911
 30
0.0
 10
103.3804253213771
 20
-121.4323811545377
 30
0.0
 10
103.3804253213771
 20
-121.4323811545377
 30
0.0
 10
103.3804253213771
 20
-122.105208302807
 30
0.0
 10
103.3804253213771
 20
-122.105208302807
 30
0.0
 10
103.3804253213771
 20
-122.2151068487865
 30
0.0
 10
103.392827665124
 20
-122.7039658981435
 30
0.0
 10
103.392827665124
 20
-122.8031846481187
 30
0.0
 10
103.392827665124
 20
-122.993698428453
 30
0.0
 10
103.3487304429128
 20
-123.0340060456304
 30
0.0
 10
103.0693331990591
 20
-123.0253933069173
 30
0.0
  0
POLYLINE
  5
F9
330
E6
100
AcDbEntity
  8
_U+30EC_U+30A4_U+30E4_U+30FC 1
370
     0
100
AcDb2dPolyline
 66
     1
 10
0.0
 20
0.0
 30
0.0
  0
VERTEX
  5
FA
330
F9
100
AcDbEntity
  8
_U+30EC_U+30A4_U+30E4_U+30FC 1
370
     0
100
AcDbVertex
100
AcDb2dVertex
 10
103.2067925089205
 20
-121.3689913976092
 30
0.0
  0
VERTEX
  5
FB
330
F9
100
AcDbEntity
  8
_U+30EC_U+30A4_U+30E4_U+30FC 1
370
     0
100
AcDbVertex
100
AcDb2dVertex
 10
103.0059434421305
 20
-121.3689913976092
 30
0.0
  0
VERTEX
  5
FC
330
F9
100
AcDbEntity
  8
_U+30EC_U+30A4_U+30E4_U+30FC 1
370
     0
100
AcDbVertex
100
AcDb2dVertex
 10
103.0059434421305
 20
-121.6800835199272
 30
0.0
  0
VERTEX
  5
FD
330
F9
100
AcDbEntity
  8
_U+30EC_U+30A4_U+30E4_U+30FC 1
370
     0
100
AcDbVertex
100
AcDb2dVertex
 10
103.2067925089205
 20
-121.6800835199272
 30
0.0
  0
VERTEX
  5
FE
330
F9
100
AcDbEntity
  8
_U+30EC_U+30A4_U+30E4_U+30FC 1
370
     0
100
AcDbVertex
100
AcDb2dVertex
 10
103.2067925089205
 20
-121.3689913976092
 30
0.0
  0
SEQEND
  5
FF
330
F9
100
AcDbEntity
  8
_U+30EC_U+30A4_U+30E4_U+30FC 1
370
     0
  0
POLYLINE
  5
100
330
E6
100
AcDbEntity
  8
_U+30EC_U+30A4_U+30E4_U+30FC 1
370
     0
100
AcDb2dPolyline
 66
     1
 10
0.0
 20
0.0
 30
0.0
  0
VERTEX
  5
101
330
100
100
AcDbEntity
  8
_U+30EC_U+30A4_U+30E4_U+30FC 1
370
     0
100
AcDbVertex
100
AcDb2dVertex
 10
103.2067925089205
 20
-121.8451035936707
 30
0.0
  0
VERTEX
  5
102
330
100
100
AcDbEntity
  8
_U+30EC_U+30A4_U+30E4_U+30FC 1
370
     0
100
AcDbVertex
100
AcDb2dVertex
 10
103.0059434421305
 20
-121.8451035936707
 30
0.0
  0
VERTEX
  5
103
330
100
100
AcDbEntity
  8
_U+30EC_U+30A4_U+30E4_U+30FC 1
370
     0
100
AcDbVertex
100
AcDb2dVertex
 10
103.0059434421305
 20
-122.1579182637314
 30
0.0
  0
VERTEX
  5
104
330
100
100
AcDbEntity
  8
_U+30EC_U+30A4_U+30E4_U+30FC 1
370
     0
100
AcDbVertex
100
AcDb2dVertex
 10
103.2067925089205
 20
-122.1579182637314
 30
0.0
  0
VERTEX
  5
105
330
100
100
AcDbEntity
  8
_U+30EC_U+30A4_U+30E4_U+30FC 1
370
     0
100
AcDbVertex
100
AcDb2dVertex
 10
103.2067925089205
 20
-121.8451035936707
 30
0.0
  0
SEQEND
  5
106
330
100
100
AcDbEntity
  8
_U+30EC_U+30A4_U+30E4_U+30FC 1
370
     0
  0
SPLINE
  5
107
330
E6
100
AcDbEntity
  8
_U+30EC_U+30A4_U+30E4_U+30FC 1
370
     0
100
AcDbSpline
210
0.0
220
0.0
230
1.0
 70
    11
 71
     3
 72
    62
 73
    58
 74
     0
 42
0.0000000001
 43
0.0000000001
 12
1.0
 22
0.0
 32
0.0
 13
1.0
 23
0.0
 33
0.0
 40
0.0
 40
0.0
 40
0.0
 40
0.0
 40
1.0
 40
1.0
 40
1.0
 40
2.0
 40
2.0
 40
2.0
 40
3.0
 40
3.0
 40
3.0
 40
4.0
 40
4.0
 40
4.0
 40
5.0
 40
5.0
 40
5.0
 40
6.0
 40
6.0
 40
6.0
 40
7.0
 40
7.0
 40
7.0
 40
8.0
 40
8.0
 40
8.0
 40
9.0
 40
9.0
 40
9.0
 40
10.0
 40
10.0
 40
10.0
 40
11.0
 40
11.0
 40
11.0
 40
12.0
 40
12.0
 40
12.0
 40
13.0
 40
13.0
 40
13.0
 40
14.0
 40
14.0
 40
14.0
 40
15.0
 40
15.0
 40
15.0
 40
16.0
 40
16.0
 40
16.0
 40
17.0
 40
17.0
 40
17.0
 40
18.0
 40
18.0
 40
18.0
 40
19.0
 40
19.0
 40
19.0
 40
19.0
 10
104.3195583506562
 20
-121.946389400937
 30
0.0
 10
104.3195583506562
 20
-121.946389400937
 30
0.0
 10
103.7187336980287
 20
-121.946389400937
 30
0.0
 10
103.7187336980287
 20
-121.946389400937
 30
0.0
 10
103.5705945921629
 20
-121.946389400937
 30
0.0
 10
103.5282199176943
 20
-121.9040147264684
 30
0.0
 10
103.5282199176943
 20
-121.7476073914381
 30
0.0
 10
103.5282199176943
 20
-121.7476073914381
 30
0.0
 10
103.5282199176943
 20
-121.4537407465463
 30
0.0
 10
103.5282199176943
 20
-121.4537407465463
 30
0.0
 10
103.5282199176943
 20
-121.3689913976092
 30
0.0
 10
103.5261528604032
 20
-121.3266167231406
 30
0.0
 10
103.5199516885297
 20
-121.1722764454014
 30
0.0
 10
103.5199516885297
 20
-121.1722764454014
 30
0.0
 10
103.7252793794506
 20
-121.1998372092834
 30
0.0
 10
103.7252793794506
 20
-121.1998372092834
 30
0.0
 10
103.7462944619107
 20
-121.2019042665745
 30
0.0
 10
103.7652424870795
 20
-121.2039713238657
 30
0.0
 10
103.7652424870795
 20
-121.2229193490346
 30
0.0
 10
103.7652424870795
 20
-121.2377332596211
 30
0.0
 10
103.7524956337841
 20
-121.2463459983342
 30
0.0
 10
103.7208007553198
 20
-121.2673610807943
 30
0.0
 10
103.7187336980287
 20
-121.3583116016049
 30
0.0
 10
103.7166666407375
 20
-121.3944851042
 30
0.0
 10
103.7166666407375
 20
-121.4344482118289
 30
0.0
 10
104.0022650564647
 20
-121.3772596267737
 30
0.0
 10
104.1989800086725
 20
-121.2780408767986
 30
0.0
 10
104.3236924652385
 20
-121.1681423308191
 30
0.0
 10
104.3236924652385
 20
-121.1681423308191
 30
0.0
 10
104.5055935068597
 20
-121.3011230165497
 30
0.0
 10
104.5055935068597
 20
-121.3011230165497
 30
0.0
 10
104.5100721309905
 20
-121.3056016406805
 30
0.0
 10
104.5204074174463
 20
-121.3138698698451
 30
0.0
 10
104.5204074174463
 20
-121.3245496658494
 30
0.0
 10
104.5204074174463
 20
-121.3479763151491
 30
0.0
 10
104.4907795962731
 20
-121.3455647483094
 30
0.0
 10
104.4528835459354
 20
-121.3414306337271
 30
0.0
 10
104.1059624305707
 20
-121.5381455859349
 30
0.0
 10
103.8117512761304
 20
-121.5932671136989
 30
0.0
 10
103.7145995834464
 20
-121.6060139669943
 30
0.0
 10
103.7145995834464
 20
-121.6060139669943
 30
0.0
 10
103.7145995834464
 20
-121.7010986023872
 30
0.0
 10
103.7145995834464
 20
-121.7010986023872
 30
0.0
 10
103.7145995834464
 20
-121.7710340407378
 30
0.0
 10
103.7462944619107
 20
-121.7710340407378
 30
0.0
 10
103.8096842188393
 20
-121.7710340407378
 30
0.0
 10
103.8096842188393
 20
-121.7710340407378
 30
0.0
 10
104.268915447023
 20
-121.7710340407378
 30
0.0
 10
104.268915447023
 20
-121.7710340407378
 30
0.0
 10
104.3681341969983
 20
-121.7710340407378
 30
0.0
 10
104.3808810502937
 20
-121.7538085633116
 30
0.0
 10
104.4487494313531
 20
-121.491636796884
 30
0.0
 10
104.4487494313531
 20
-121.491636796884
 30
0.0
 10
104.6179036196789
 20
-121.6397759027498
 30
0.0
 10
104.6179036196789
 20
-121.6397759027498
 30
0.0
 10
104.5310872134506
 20
-121.9336425476416
 30
0.0
 10
104.4993923349863
 20
-121.946389400937
 30
0.0
 10
104.3195583506562
 20
-121.946389400937
 30
0.0
  0
SPLINE
  5
108
330
E6
100
AcDbEntity
  8
_U+30EC_U+30A4_U+30E4_U+30FC 1
370
     0
100
AcDbSpline
210
0.0
220
0.0
230
1.0
 70
    11
 71
     3
 72
    50
 73
    46
 74
     0
 42
0.0000000001
 43
0.0000000001
 12
1.0
 22
0.0
 32
0.0
 13
1.0
 23
0.0
 33
0.0
 40
0.0
 40
0.0
 40
0.0
 40
0.0
 40
1.0
 40
1.0
 40
1.0
 40
2.0
 40
2.0
 40
2.0
 40
3.0
 40
3.0
 40
3.0
 40
4.0
 40
4.0
 40
4.0
 40
5.0
 40
5.0
 40
5.0
 40
6.0
 40
6.0
 40
6.0
 40
7.0
 40
7.0
 40
7.0
 40
8.0
 40
8.0
 40
8.0
 40
9.0
 40
9.0
 40
9.0
 40
10.0
 40
10.0
 40
10.0
 40
11.0
 40
11.0
 40
11.0
 40
12.0
 40
12.0
 40
12.0
 40
13.0
 40
13.0
 40
13.0
 40
14.0
 40
14.0
 40
14.0
 40
15.0
 40
15.0
 40
15.0
 40
15.0
 10
104.2961317013565
 20
-123.0340060456304
 30
0.0
 10
104.2985432681962
 20
-123.0253933069173
 30
0.0
 10
104.3026773827785
 20
-122.9513237539844
 30
0.0
 10
104.3026773827785
 20
-122.9406439579801
 30
0.0
 10
104.3026773827785
 20
-122.9406439579801
 30
0.0
 10
103.7693766016618
 20
-122.9406439579801
 30
0.0
 10
103.7693766016618
 20
-122.9406439579801
 30
0.0
 10
103.7693766016618
 20
-122.9554578685667
 30
0.0
 10
103.7717881685015
 20
-123.0019666576176
 30
0.0
 10
103.7759222830838
 20
-123.0360731029215
 30
0.0
 10
103.7759222830838
 20
-123.0360731029215
 30
0.0
 10
103.5643934202895
 20
-123.0360731029215
 30
0.0
 10
103.5643934202895
 20
-123.0360731029215
 30
0.0
 10
103.579207330876
 20
-122.9344427861067
 30
0.0
 10
103.579207330876
 20
-122.8200656159964
 30
0.0
 10
103.579207330876
 20
-122.7525417444855
 30
0.0
 10
103.579207330876
 20
-122.7525417444855
 30
0.0
 10
103.579207330876
 20
-122.3504991013568
 30
0.0
 10
103.579207330876
 20
-122.3504991013568
 30
0.0
 10
103.579207330876
 20
-122.2068386196219
 30
0.0
 10
103.5771402735849
 20
-122.1537841491491
 30
0.0
 10
103.5726616494541
 20
-122.0883273349293
 30
0.0
 10
103.6891058768555
 20
-122.0986626213851
 30
0.0
 10
103.8372449827212
 20
-122.0986626213851
 30
0.0
 10
103.8710069184767
 20
-122.0986626213851
 30
0.0
 10
103.8710069184767
 20
-122.0986626213851
 30
0.0
 10
104.2075927473856
 20
-122.0986626213851
 30
0.0
 10
104.2075927473856
 20
-122.0986626213851
 30
0.0
 10
104.2668483897319
 20
-122.0986626213851
 30
0.0
 10
104.4570176605177
 20
-122.0924614495116
 30
0.0
 10
104.5055935068597
 20
-122.0903943922205
 30
0.0
 10
104.5035264495686
 20
-122.1455159199845
 30
0.0
 10
104.4993923349863
 20
-122.303990312306
 30
0.0
 10
104.4993923349863
 20
-122.3463649867745
 30
0.0
 10
104.4993923349863
 20
-122.3463649867745
 30
0.0
 10
104.4993923349863
 20
-122.7439290057724
 30
0.0
 10
104.4993923349863
 20
-122.7439290057724
 30
0.0
 10
104.4993923349863
 20
-122.7756238842367
 30
0.0
 10
104.5035264495686
 20
-122.9154947609378
 30
0.0
 10
104.5035264495686
 20
-122.9451225821109
 30
0.0
 10
104.5055935068597
 20
-122.9788845178664
 30
0.0
 10
104.5055935068597
 20
-123.0019666576176
 30
0.0
 10
104.5080050736994
 20
-123.0340060456304
 30
0.0
 10
104.5080050736994
 20
-123.0340060456304
 30
0.0
 10
104.2961317013565
 20
-123.0340060456304
 30
0.0
 10
104.2961317013565
 20
-123.0340060456304
 30
0.0
  0
POLYLINE
  5
109
330
E6
100
AcDbEntity
  8
_U+30EC_U+30A4_U+30E4_U+30FC 1
370
     0
100
AcDb2dPolyline
 66
     1
 10
0.0
 20
0.0
 30
0.0
  0
VERTEX
  5
10A
330
109
100
AcDbEntity
  8
_U+30EC_U+30A4_U+30E4_U+30FC 1
370
     0
100
AcDbVertex
100
AcDb2dVertex
 10
104.3026773827785
 20
-122.2595485805462
 30
0.0
  0
VERTEX
  5
10B
330
109
100
AcDbEntity
  8
_U+30EC_U+30A4_U+30E4_U+30FC 1
370
     0
100
AcDbVertex
100
AcDb2dVertex
 10
103.7673095443707
 20
-122.2595485805462
 30
0.0
  0
VERTEX
  5
10C
330
109
100
AcDbEntity
  8
_U+30EC_U+30A4_U+30E4_U+30FC 1
370
     0
100
AcDbVertex
100
AcDb2dVertex
 10
103.7673095443707
 20
-122.4414496221674
 30
0.0
  0
VERTEX
  5
10D
330
109
100
AcDbEntity
  8
_U+30EC_U+30A4_U+30E4_U+30FC 1
370
     0
100
AcDbVertex
100
AcDb2dVertex
 10
104.3026773827785
 20
-122.4414496221674
 30
0.0
  0
VERTEX
  5
10E
330
109
100
AcDbEntity
  8
_U+30EC_U+30A4_U+30E4_U+30FC 1
370
     0
100
AcDbVertex
100
AcDb2dVertex
 10
104.3026773827785
 20
-122.2595485805462
 30
0.0
  0
SEQEND
  5
10F
330
109
100
AcDbEntity
  8
_U+30EC_U+30A4_U+30E4_U+30FC 1
370
     0
  0
POLYLINE
  5
110
330
E6
100
AcDbEntity
  8
_U+30EC_U+30A4_U+30E4_U+30FC 1
370
     0
100
AcDb2dPolyline
 66
     1
 10
0.0
 20
0.0
 30
0.0
  0
VERTEX
  5
111
330
110
100
AcDbEntity
  8
_U+30EC_U+30A4_U+30E4_U+30FC 1
370
     0
100
AcDbVertex
100
AcDb2dVertex
 10
104.3026773827785
 20
-122.5957898999066
 30
0.0
  0
VERTEX
  5
112
330
110
100
AcDbEntity
  8
_U+30EC_U+30A4_U+30E4_U+30FC 1
370
     0
100
AcDbVertex
100
AcDb2dVertex
 10
103.7673095443707
 20
-122.5957898999066
 30
0.0
  0
VERTEX
  5
113
330
110
100
AcDbEntity
  8
_U+30EC_U+30A4_U+30E4_U+30FC 1
370
     0
100
AcDbVertex
100
AcDb2dVertex
 10
103.7673095443707
 20
-122.7821695656586
 30
0.0
  0
VERTEX
  5
114
330
110
100
AcDbEntity
  8
_U+30EC_U+30A4_U+30E4_U+30FC 1
370
     0
100
AcDbVertex
100
AcDb2dVertex
 10
104.3026773827785
 20
-122.7821695656586
 30
0.0
  0
VERTEX
  5
115
330
110
100
AcDbEntity
  8
_U+30EC_U+30A4_U+30E4_U+30FC 1
370
     0
100
AcDbVertex
100
AcDb2dVertex
 10
104.3026773827785
 20
-122.5957898999066
 30
0.0
  0
SEQEND
  5
116
330
110
100
AcDbEntity
  8
_U+30EC_U+30A4_U+30E4_U+30FC 1
370
     0
  0
HATCH
  5
117
330
E6
100
AcDbEntity
  8
_U+30EC_U+30A4_U+30E4_U+30FC 1
 62
   179
420
  2234388
100
AcDbHatch
 10
0.0
 20
0.0
 30
0.0
210
0.0
220
0.0
230
1.0
  2
SOLID
 70
     1
 71
     0
 91
        7
 92
        1
 93
        1
 72
     4
 94
        3
 73
     0
 74
     1
 95
       59
 96
       55
 40
0.0
 40
0.0
 40
0.0
 40
0.0
 40
1.0
 40
1.0
 40
1.0
 40
2.0
 40
2.0
 40
2.0
 40
3.0
 40
3.0
 40
3.0
 40
4.0
 40
4.0
 40
4.0
 40
5.0
 40
5.0
 40
5.0
 40
6.0
 40
6.0
 40
6.0
 40
7.0
 40
7.0
 40
7.0
 40
8.0
 40
8.0
 40
8.0
 40
9.0
 40
9.0
 40
9.0
 40
10.0
 40
10.0
 40
10.0
 40
11.0
 40
11.0
 40
11.0
 40
12.0
 40
12.0
 40
12.0
 40
13.0
 40
13.0
 40
13.0
 40
14.0
 40
14.0
 40
14.0
 40
15.0
 40
15.0
 40
15.0
 40
16.0
 40
16.0
 40
16.0
 40
17.0
 40
17.0
 40
17.0
 40
18.0
 40
18.0
 40
18.0
 40
18.0
 10
103.0693331990591
 20
-123.0253933069173
 10
103.0693331990591
 20
-123.0253933069173
 10
102.9742485636662
 20
-122.8245442401272
 10
102.9742485636662
 20
-122.8245442401272
 10
103.0269585245905
 20
-122.834879526583
 10
103.1010280775234
 20
-122.8476263798784
 10
103.1540825479962
 20
-122.8476263798784
 10
103.2067925089205
 20
-122.8476263798784
 10
103.2067925089205
 20
-122.834879526583
 10
103.2067925089205
 20
-122.7229139233123
 10
103.2067925089205
 20
-122.7229139233123
 10
103.2067925089205
 20
-122.3315510761879
 10
103.2067925089205
 20
-122.3315510761879
 10
103.2067925089205
 20
-122.3315510761879
 10
102.9952636461262
 20
-122.3315510761879
 10
102.9952636461262
 20
-122.3315510761879
 10
102.9804497355396
 20
-122.5134521178091
 10
102.9570230862399
 20
-122.8179985587052
 10
102.8491915975516
 20
-122.9998996003264
 10
102.8491915975516
 20
-122.9998996003264
 10
102.6524766453438
 20
-122.9134277036466
 10
102.6524766453438
 20
-122.9134277036466
 10
102.6927842625213
 20
-122.8689859718869
 10
102.7434271661544
 20
-122.8159315014141
 10
102.7944145793361
 20
-122.55996090686
 10
102.8174967190873
 20
-122.4414496221674
 10
102.8281765150916
 20
-122.3422308721922
 10
102.8281765150916
 20
-122.0607665710473
 10
102.8281765150916
 20
-122.0607665710473
 10
102.8281765150916
 20
-121.43651526912
 10
102.8281765150916
 20
-121.43651526912
 10
102.8281765150916
 20
-121.3965521614911
 10
102.8281765150916
 20
-121.2990559592586
 10
102.8195637763784
 20
-121.1977701519922
 10
102.8981119534421
 20
-121.2060383811568
 10
102.9890624742527
 20
-121.2060383811568
 10
102.9973307034173
 20
-121.2060383811568
 10
102.9973307034173
 20
-121.2060383811568
 10
103.1940456556251
 20
-121.2060383811568
 10
103.1940456556251
 20
-121.2060383811568
 10
103.2977430297311
 20
-121.2060383811568
 10
103.3487304429128
 20
-121.2039713238657
 10
103.3886935505417
 20
-121.2019042665745
 10
103.3824923786683
 20
-121.2780408767986
 10
103.3804253213771
 20
-121.3965521614911
 10
103.3804253213771
 20
-121.4323811545377
 10
103.3804253213771
 20
-121.4323811545377
 10
103.3804253213771
 20
-122.105208302807
 10
103.3804253213771
 20
-122.105208302807
 10
103.3804253213771
 20
-122.2151068487865
 10
103.392827665124
 20
-122.7039658981435
 10
103.392827665124
 20
-122.8031846481187
 10
103.392827665124
 20
-122.993698428453
 10
103.3487304429128
 20
-123.0340060456304
 10
103.0693331990591
 20
-123.0253933069173
 97
        0
 97
        0
 92
        1
 93
        4
 72
     1
 10
103.2067925089205
 20
-121.3689913976092
 11
103.0059434421305
 21
-121.3689913976092
 72
     1
 10
103.0059434421305
 20
-121.3689913976092
 11
103.0059434421305
 21
-121.6800835199272
 72
     1
 10
103.0059434421305
 20
-121.6800835199272
 11
103.2067925089205
 21
-121.6800835199272
 72
     1
 10
103.2067925089205
 20
-121.6800835199272
 11
103.2067925089205
 21
-121.3689913976092
 97
        0
 92
        1
 93
        4
 72
     1
 10
103.2067925089205
 20
-121.8451035936707
 11
103.0059434421305
 21
-121.8451035936707
 72
     1
 10
103.0059434421305
 20
-121.8451035936707
 11
103.0059434421305
 21
-122.1579182637314
 72
     1
 10
103.0059434421305
 20
-122.1579182637314
 11
103.2067925089205
 21
-122.1579182637314
 72
     1
 10
103.2067925089205
 20
-122.1579182637314
 11
103.2067925089205
 21
-121.8451035936707
 97
        0
 92
        1
 93
        1
 72
     4
 94
        3
 73
     0
 74
     1
 95
       62
 96
       58
 40
0.0
 40
0.0
 40
0.0
 40
0.0
 40
1.0
 40
1.0
 40
1.0
 40
2.0
 40
2.0
 40
2.0
 40
3.0
 40
3.0
 40
3.0
 40
4.0
 40
4.0
 40
4.0
 40
5.0
 40
5.0
 40
5.0
 40
6.0
 40
6.0
 40
6.0
 40
7.0
 40
7.0
 40
7.0
 40
8.0
 40
8.0
 40
8.0
 40
9.0
 40
9.0
 40
9.0
 40
10.0
 40
10.0
 40
10.0
 40
11.0
 40
11.0
 40
11.0
 40
12.0
 40
12.0
 40
12.0
 40
13.0
 40
13.0
 40
13.0
 40
14.0
 40
14.0
 40
14.0
 40
15.0
 40
15.0
 40
15.0
 40
16.0
 40
16.0
 40
16.0
 40
17.0
 40
17.0
 40
17.0
 40
18.0
 40
18.0
 40
18.0
 40
19.0
 40
19.0
 40
19.0
 40
19.0
 10
104.3195583506562
 20
-121.946389400937
 10
104.3195583506562
 20
-121.946389400937
 10
103.7187336980287
 20
-121.946389400937
 10
103.7187336980287
 20
-121.946389400937
 10
103.5705945921629
 20
-121.946389400937
 10
103.5282199176943
 20
-121.9040147264684
 10
103.5282199176943
 20
-121.7476073914381
 10
103.5282199176943
 20
-121.7476073914381
 10
103.5282199176943
 20
-121.4537407465463
 10
103.5282199176943
 20
-121.4537407465463
 10
103.5282199176943
 20
-121.3689913976092
 10
103.5261528604032
 20
-121.3266167231406
 10
103.5199516885297
 20
-121.1722764454014
 10
103.5199516885297
 20
-121.1722764454014
 10
103.7252793794506
 20
-121.1998372092834
 10
103.7252793794506
 20
-121.1998372092834
 10
103.7462944619107
 20
-121.2019042665745
 10
103.7652424870795
 20
-121.2039713238657
 10
103.7652424870795
 20
-121.2229193490346
 10
103.7652424870795
 20
-121.2377332596211
 10
103.7524956337841
 20
-121.2463459983342
 10
103.7208007553198
 20
-121.2673610807943
 10
103.7187336980287
 20
-121.3583116016049
 10
103.7166666407375
 20
-121.3944851042
 10
103.7166666407375
 20
-121.4344482118289
 10
104.0022650564647
 20
-121.3772596267737
 10
104.1989800086725
 20
-121.2780408767986
 10
104.3236924652385
 20
-121.1681423308191
 10
104.3236924652385
 20
-121.1681423308191
 10
104.5055935068597
 20
-121.3011230165497
 10
104.5055935068597
 20
-121.3011230165497
 10
104.5100721309905
 20
-121.3056016406805
 10
104.5204074174463
 20
-121.3138698698451
 10
104.5204074174463
 20
-121.3245496658494
 10
104.5204074174463
 20
-121.3479763151491
 10
104.4907795962731
 20
-121.3455647483094
 10
104.4528835459354
 20
-121.3414306337271
 10
104.1059624305707
 20
-121.5381455859349
 10
103.8117512761304
 20
-121.5932671136989
 10
103.7145995834464
 20
-121.6060139669943
 10
103.7145995834464
 20
-121.6060139669943
 10
103.7145995834464
 20
-121.7010986023872
 10
103.7145995834464
 20
-121.7010986023872
 10
103.7145995834464
 20
-121.7710340407378
 10
103.7462944619107
 20
-121.7710340407378
 10
103.8096842188393
 20
-121.7710340407378
 10
103.8096842188393
 20
-121.7710340407378
 10
104.268915447023
 20
-121.7710340407378
 10
104.268915447023
 20
-121.7710340407378
 10
104.3681341969983
 20
-121.7710340407378
 10
104.3808810502937
 20
-121.7538085633116
 10
104.4487494313531
 20
-121.491636796884
 10
104.4487494313531
 20
-121.491636796884
 10
104.6179036196789
 20
-121.6397759027498
 10
104.6179036196789
 20
-121.6397759027498
 10
104.5310872134506
 20
-121.9336425476416
 10
104.4993923349863
 20
-121.946389400937
 10
104.3195583506562
 20
-121.946389400937
 97
        0
 97
        0
 92
        1
 93
        1
 72
     4
 94
        3
 73
     0
 74
     1
 95
       50
 96
       46
 40
0.0
 40
0.0
 40
0.0
 40
0.0
 40
1.0
 40
1.0
 40
1.0
 40
2.0
 40
2.0
 40
2.0
 40
3.0
 40
3.0
 40
3.0
 40
4.0
 40
4.0
 40
4.0
 40
5.0
 40
5.0
 40
5.0
 40
6.0
 40
6.0
 40
6.0
 40
7.0
 40
7.0
 40
7.0
 40
8.0
 40
8.0
 40
8.0
 40
9.0
 40
9.0
 40
9.0
 40
10.0
 40
10.0
 40
10.0
 40
11.0
 40
11.0
 40
11.0
 40
12.0
 40
12.0
 40
12.0
 40
13.0
 40
13.0
 40
13.0
 40
14.0
 40
14.0
 40
14.0
 40
15.0
 40
15.0
 40
15.0
 40
15.0
 10
104.2961317013565
 20
-123.0340060456304
 10
104.2985432681962
 20
-123.0253933069173
 10
104.3026773827785
 20
-122.9513237539844
 10
104.3026773827785
 20
-122.9406439579801
 10
104.3026773827785
 20
-122.9406439579801
 10
103.7693766016618
 20
-122.9406439579801
 10
103.7693766016618
 20
-122.9406439579801
 10
103.7693766016618
 20
-122.9554578685667
 10
103.7717881685015
 20
-123.0019666576176
 10
103.7759222830838
 20
-123.0360731029215
 10
103.7759222830838
 20
-123.0360731029215
 10
103.5643934202895
 20
-123.0360731029215
 10
103.5643934202895
 20
-123.0360731029215
 10
103.579207330876
 20
-122.9344427861067
 10
103.579207330876
 20
-122.8200656159964
 10
103.579207330876
 20
-122.7525417444855
 10
103.579207330876
 20
-122.7525417444855
 10
103.579207330876
 20
-122.3504991013568
 10
103.579207330876
 20
-122.3504991013568
 10
103.579207330876
 20
-122.2068386196219
 10
103.5771402735849
 20
-122.1537841491491
 10
103.5726616494541
 20
-122.0883273349293
 10
103.6891058768555
 20
-122.0986626213851
 10
103.8372449827212
 20
-122.0986626213851
 10
103.8710069184767
 20
-122.0986626213851
 10
103.8710069184767
 20
-122.0986626213851
 10
104.2075927473856
 20
-122.0986626213851
 10
104.2075927473856
 20
-122.0986626213851
 10
104.2668483897319
 20
-122.0986626213851
 10
104.4570176605177
 20
-122.0924614495116
 10
104.5055935068597
 20
-122.0903943922205
 10
104.5035264495686
 20
-122.1455159199845
 10
104.4993923349863
 20
-122.303990312306
 10
104.4993923349863
 20
-122.3463649867745
 10
104.4993923349863
 20
-122.3463649867745
 10
104.4993923349863
 20
-122.7439290057724
 10
104.4993923349863
 20
-122.7439290057724
 10
104.4993923349863
 20
-122.7756238842367
 10
104.5035264495686
 20
-122.9154947609378
 10
104.5035264495686
 20
-122.9451225821109
 10
104.5055935068597
 20
-122.9788845178664
 10
104.5055935068597
 20
-123.0019666576176
 10
104.5080050736994
 20
-123.0340060456304
 10
104.5080050736994
 20
-123.0340060456304
 10
104.2961317013565
 20
-123.0340060456304
 10
104.2961317013565
 20
-123.0340060456304
 97
        0
 97
        0
 92
        1
 93
        4
 72
     1
 10
104.3026773827785
 20
-122.2595485805462
 11
103.7673095443707
 21
-122.2595485805462
 72
     1
 10
103.7673095443707
 20
-122.2595485805462
 11
103.7673095443707
 21
-122.4414496221674
 72
     1
 10
103.7673095443707
 20
-122.4414496221674
 11
104.3026773827785
 21
-122.4414496221674
 72
     1
 10
104.3026773827785
 20
-122.4414496221674
 11
104.3026773827785
 21
-122.2595485805462
 97
        0
 92
        1
 93
        4
 72
     1
 10
104.3026773827785
 20
-122.5957898999066
 11
103.7673095443707
 21
-122.5957898999066
 72
     1
 10
103.7673095443707
 20
-122.5957898999066
 11
103.7673095443707
 21
-122.7821695656586
 72
     1
 10
103.7673095443707
 20
-122.7821695656586
 11
104.3026773827785
 21
-122.7821695656586
 72
     1
 10
104.3026773827785
 20
-122.7821695656586
 11
104.3026773827785
 21
-122.5957898999066
 97
        0
 75
     2
 76
     1
 98
        0
  0
ENDBLK
  5
E9
330
E6
100
AcDbEntity
  8
0
100
AcDbBlockEnd
  0
ENDSEC
  0
SECTION
  2
ENTITIES
  0
POLYLINE
  5
41
330
1F
100
AcDbEntity
  8
_U+30EC_U+30A4_U+30E4_U+30FC 1
 62
   179
420
  2234388
370
    25
100
AcDb2dPolyline
 66
     1
 10
0.0
 20
0.0
 30
0.0
  0
VERTEX
  5
42
330
41
100
AcDbEntity
  8
_U+30EC_U+30A4_U+30E4_U+30FC 1
 62
   179
420
  2234388
370
    25
100
AcDbVertex
100
AcDb2dVertex
 10
87.01175472458965
 20
-128.01751691244
 30
0.0
  0
VERTEX
  5
43
330
41
100
AcDbEntity
  8
_U+30EC_U+30A4_U+30E4_U+30FC 1
 62
   179
420
  2234388
370
    25
100
AcDbVertex
100
AcDb2dVertex
 10
86.89459722757859
 20
-142.8929210753882
 30
0.0
  0
VERTEX
  5
44
330
41
100
AcDbEntity
  8
_U+30EC_U+30A4_U+30E4_U+30FC 1
 62
   179
420
  2234388
370
    25
100
AcDbVertex
100
AcDb2dVertex
 10
87.658713874751
 20
-142.8929210753882
 30
0.0
  0
VERTEX
  5
45
330
41
100
AcDbEntity
  8
_U+30EC_U+30A4_U+30E4_U+30FC 1
 62
   179
420
  2234388
370
    25
100
AcDbVertex
100
AcDb2dVertex
 10
87.658713874751
 20
-126.6064058016816
 30
0.0
  0
VERTEX
  5
46
330
41
100
AcDbEntity
  8
_U+30EC_U+30A4_U+30E4_U+30FC 1
 62
   179
420
  2234388
370
    25
100
AcDbVertex
100
AcDb2dVertex
 10
97.36010251613685
 20
-126.841355801623
 30
0.0
  0
VERTEX
  5
47
330
41
100
AcDbEntity
  8
_U+30EC_U+30A4_U+30E4_U+30FC 1
 62
   179
420
  2234388
370
    25
100
AcDbVertex
100
AcDb2dVertex
 10
97.36010251613685
 20
-126.1950669128958
 30
0.0
  0
VERTEX
  5
48
330
41
100
AcDbEntity
  8
_U+30EC_U+30A4_U+30E4_U+30FC 1
 62
   179
420
  2234388
370
    25
100
AcDbVertex
100
AcDb2dVertex
 10
89.06982494986167
 20
-125.9008502463025
 30
0.0
  0
VERTEX
  5
49
330
41
100
AcDbEntity
  8
_U+30EC_U+30A4_U+30E4_U+30FC 1
 62
   179
420
  2234388
370
    25
100
AcDbVertex
100
AcDb2dVertex
 10
83.77815841819667
 20
-120.9034002475521
 30
0.0
  0
VERTEX
  5
4A
330
41
100
AcDbEntity
  8
_U+30EC_U+30A4_U+30E4_U+30FC 1
 62
   179
420
  2234388
370
    25
100
AcDbVertex
100
AcDb2dVertex
 10
83.24899176503017
 20
-121.4325669140865
 30
0.0
  0
VERTEX
  5
4B
330
41
100
AcDbEntity
  8
_U+30EC_U+30A4_U+30E4_U+30FC 1
 62
   179
420
  2234388
370
    25
100
AcDbVertex
100
AcDb2dVertex
 10
83.9545473025855
 20
-122.3730724694066
 30
0.0
  0
VERTEX
  5
4C
330
41
100
AcDbEntity
  8
_U+30EC_U+30A4_U+30E4_U+30FC 1
 62
   179
420
  2234388
370
    25
100
AcDbVertex
100
AcDb2dVertex
 10
84.13093618697434
 20
-122.1381224694656
 30
0.0
  0
VERTEX
  5
4D
330
41
100
AcDbEntity
  8
_U+30EC_U+30A4_U+30E4_U+30FC 1
 62
   179
420
  2234388
370
    25
100
AcDbVertex
100
AcDb2dVertex
 10
84.77793061491258
 20
-123.3728446913792
 30
0.0
  0
VERTEX
  5
4E
330
41
100
AcDbEntity
  8
_U+30EC_U+30A4_U+30E4_U+30FC 1
 62
   179
420
  2234388
370
    25
100
AcDbVertex
100
AcDb2dVertex
 10
85.07147699631247
 20
-123.0786280247858
 30
0.0
  0
VERTEX
  5
4F
330
41
100
AcDbEntity
  8
_U+30EC_U+30A4_U+30E4_U+30FC 1
 62
   179
420
  2234388
370
    25
100
AcDbVertex
100
AcDb2dVertex
 10
85.83626392124557
 20
-124.3719113577959
 30
0.0
  0
VERTEX
  5
50
330
41
100
AcDbEntity
  8
_U+30EC_U+30A4_U+30E4_U+30FC 1
 62
   179
420
  2234388
370
    25
100
AcDbVertex
100
AcDb2dVertex
 10
86.12981030264548
 20
-124.0784002467583
 30
0.0
  0
VERTEX
  5
51
330
41
100
AcDbEntity
  8
_U+30EC_U+30A4_U+30E4_U+30FC 1
 62
   179
420
  2234388
370
    25
100
AcDbVertex
100
AcDb2dVertex
 10
87.95293053391158
 20
-125.9008502463025
 30
0.0
  0
VERTEX
  5
52
330
41
100
AcDbEntity
  8
_U+30EC_U+30A4_U+30E4_U+30FC 1
 62
   179
420
  2234388
370
    25
100
AcDbVertex
100
AcDb2dVertex
 10
87.01175472458965
 20
-125.959411357399
 30
0.0
  0
VERTEX
  5
53
330
41
100
AcDbEntity
  8
_U+30EC_U+30A4_U+30E4_U+30FC 1
 62
   179
420
  2234388
370
    25
100
AcDbVertex
100
AcDb2dVertex
 10
86.95315833719567
 20
-126.9591835793712
 30
0.0
  0
VERTEX
  5
54
330
41
100
AcDbEntity
  8
_U+30EC_U+30A4_U+30E4_U+30FC 1
 62
   179
420
  2234388
370
    25
100
AcDbVertex
100
AcDb2dVertex
 10
84.89508811192364
 20
-125.077466913175
 30
0.0
  0
VERTEX
  5
55
330
41
100
AcDbEntity
  8
_U+30EC_U+30A4_U+30E4_U+30FC 1
 62
   179
420
  2234388
370
    25
100
AcDbVertex
100
AcDb2dVertex
 10
85.15967143850689
 20
-124.8128835799078
 30
0.0
  0
VERTEX
  5
56
330
41
100
AcDbEntity
  8
_U+30EC_U+30A4_U+30E4_U+30FC 1
 62
   179
420
  2234388
370
    25
100
AcDbVertex
100
AcDb2dVertex
 10
84.01314368997947
 20
-124.0784002467583
 30
0.0
  0
VERTEX
  5
57
330
41
100
AcDbEntity
  8
_U+30EC_U+30A4_U+30E4_U+30FC 1
 62
   179
420
  2234388
370
    25
100
AcDbVertex
100
AcDb2dVertex
 10
84.30732507136317
 20
-123.784183580165
 30
0.0
  0
VERTEX
  5
58
330
41
100
AcDbEntity
  8
_U+30EC_U+30A4_U+30E4_U+30FC 1
 62
   179
420
  2234388
370
    25
100
AcDbVertex
100
AcDb2dVertex
 10
83.19043065541308
 20
-123.3135780247271
 30
0.0
  0
VERTEX
  5
59
330
41
100
AcDbEntity
  8
_U+30EC_U+30A4_U+30E4_U+30FC 1
 62
   179
420
  2234388
370
    25
100
AcDbVertex
100
AcDb2dVertex
 10
83.425380649419
 20
-123.0786280247858
 30
0.0
  0
VERTEX
  5
5A
330
41
100
AcDbEntity
  8
_U+30EC_U+30A4_U+30E4_U+30FC 1
 62
   179
420
  2234388
370
    25
100
AcDbVertex
100
AcDb2dVertex
 10
82.42564373047998
 20
-122.1966835805618
 30
0.0
  0
VERTEX
  5
5B
330
41
100
AcDbEntity
  8
_U+30EC_U+30A4_U+30E4_U+30FC 1
 62
   179
420
  2234388
370
    25
100
AcDbVertex
100
AcDb2dVertex
 10
81.95570846469124
 20
-122.608022469348
 30
0.0
  0
VERTEX
  5
5C
330
41
100
AcDbEntity
  8
_U+30EC_U+30A4_U+30E4_U+30FC 1
 62
   179
420
  2234388
370
    25
100
AcDbVertex
100
AcDb2dVertex
 10
87.01175472458965
 20
-128.01751691244
 30
0.0
  0
SEQEND
  5
5D
330
41
100
AcDbEntity
  8
_U+30EC_U+30A4_U+30E4_U+30FC 1
 62
   179
420
  2234388
370
    25
  0
SPLINE
  5
5E
330
1F
100
AcDbEntity
  8
_U+30EC_U+30A4_U+30E4_U+30FC 1
 62
   179
420
  2234388
370
    25
100
AcDbSpline
210
0.0
220
0.0
230
1.0
 70
    11
 71
     3
 72
    95
 73
    91
 74
     0
 42
0.0000000001
 43
0.0000000001
 12
1.0
 22
0.0
 32
0.0
 13
1.0
 23
0.0
 33
0.0
 40
0.0
 40
0.0
 40
0.0
 40
0.0
 40
1.0
 40
1.0
 40
1.0
 40
2.0
 40
2.0
 40
2.0
 40
3.0
 40
3.0
 40
3.0
 40
4.0
 40
4.0
 40
4.0
 40
5.0
 40
5.0
 40
5.0
 40
6.0
 40
6.0
 40
6.0
 40
7.0
 40
7.0
 40
7.0
 40
8.0
 40
8.0
 40
8.0
 40
9.0
 40
9.0
 40
9.0
 40
10.0
 40
10.0
 40
10.0
 40
11.0
 40
11.0
 40
11.0
 40
12.0
 40
12.0
 40
12.0
 40
13.0
 40
13.0
 40
13.0
 40
14.0
 40
14.0
 40
14.0
 40
15.0
 40
15.0
 40
15.0
 40
16.0
 40
16.0
 40
16.0
 40
17.0
 40
17.0
 40
17.0
 40
18.0
 40
18.0
 40
18.0
 40
19.0
 40
19.0
 40
19.0
 40
20.0
 40
20.0
 40
20.0
 40
21.0
 40
21.0
 40
21.0
 40
22.0
 40
22.0
 40
22.0
 40
23.0
 40
23.0
 40
23.0
 40
24.0
 40
24.0
 40
24.0
 40
25.0
 40
25.0
 40
25.0
 40
26.0
 40
26.0
 40
26.0
 40
27.0
 40
27.0
 40
27.0
 40
28.0
 40
28.0
 40
28.0
 40
29.0
 40
29.0
 40
29.0
 40
30.0
 40
30.0
 40
30.0
 40
30.0
 10
81.48510292114183
 20
-121.0797891363969
 30
0.0
 10
81.48510292114183
 20
-121.0797891363969
 30
0.0
 10
81.5436993085358
 20
-135.3081988550622
 30
0.0
 10
81.5436993085358
 20
-135.3081988550622
 30
0.0
 10
81.5436993085358
 20
-135.3081988550622
 30
0.0
 10
82.13209734908007
 20
-135.3081988550622
 30
0.0
 10
82.13209734908007
 20
-135.3081988550622
 30
0.0
 10
82.13209734908007
 20
-135.3081988550622
 30
0.0
 10
82.13209734908007
 20
-136.0137544104413
 30
0.0
 10
82.13209734908007
 20
-136.0137544104413
 30
0.0
 10
82.13209734908007
 20
-136.0137544104413
 30
0.0
 10
81.36731042414696
 20
-136.0137544104413
 30
0.0
 10
81.36731042414696
 20
-136.0137544104413
 30
0.0
 10
81.36731042414696
 20
-136.0137544104413
 30
0.0
 10
80.7795473835865
 20
-136.0137544104413
 30
0.0
 10
80.7795473835865
 20
-135.0732488551205
 30
0.0
 10
80.7795473835865
 20
-135.0732488551205
 30
0.0
 10
80.7795473835865
 20
-120.8441335809
 30
0.0
 10
80.7795473835865
 20
-120.8441335809
 30
0.0
 10
80.7795473835865
 20
-120.8441335809
 30
0.0
 10
80.42676961480883
 20
-119.6686780256386
 30
0.0
 10
82.01426957430833
 20
-119.6686780256386
 30
0.0
 10
82.01426957430833
 20
-119.6686780256386
 30
0.0
 10
95.89043033140909
 20
-119.6686780256386
 30
0.0
 10
95.89043033140909
 20
-119.6686780256386
 30
0.0
 10
95.89043033140909
 20
-119.6686780256386
 30
0.0
 10
97.12515252213093
 20
-119.4336927479194
 30
0.0
 10
97.18371363174802
 20
-120.3742335810177
 30
0.0
 10
97.18371363174802
 20
-120.3742335810177
 30
0.0
 10
97.18371363174802
 20
-121.2561780252417
 30
0.0
 10
97.18371363174802
 20
-121.2561780252417
 30
0.0
 10
97.18371363174802
 20
-121.2561780252417
 30
0.0
 10
96.41959698457559
 20
-121.2561780252417
 30
0.0
 10
96.41959698457559
 20
-121.2561780252417
 30
0.0
 10
96.41959698457559
 20
-121.2561780252417
 30
0.0
 10
96.41959698457559
 20
-120.6091835809587
 30
0.0
 10
96.41959698457559
 20
-120.6091835809587
 30
0.0
 10
96.41959698457559
 20
-120.6091835809587
 30
0.0
 10
83.07260288064134
 20
-120.4327946921139
 30
0.0
 10
83.07260288064134
 20
-120.4327946921139
 30
0.0
 10
83.07260288064134
 20
-120.4327946921139
 30
0.0
 10
81.95503818693057
 20
-120.3735280254622
 30
0.0
 10
82.42564373047998
 20
-120.8441335809
 30
0.0
 10
82.42564373047998
 20
-120.8441335809
 30
0.0
 10
83.71959730857958
 20
-122.0788558028136
 30
0.0
 10
83.71959730857958
 20
-122.0788558028136
 30
0.0
 10
83.71959730857958
 20
-122.0788558028136
 30
0.0
 10
83.9545473025855
 20
-122.3730724694066
 30
0.0
 10
83.9545473025855
 20
-122.3730724694066
 30
0.0
 10
83.9545473025855
 20
-122.3730724694066
 30
0.0
 10
84.13093618697434
 20
-122.1381224694656
 30
0.0
 10
84.13093618697434
 20
-122.1381224694656
 30
0.0
 10
84.13093618697434
 20
-122.1381224694656
 30
0.0
 10
84.77793061491258
 20
-123.3728446913792
 30
0.0
 10
84.77793061491258
 20
-123.3728446913792
 30
0.0
 10
84.77793061491258
 20
-123.3728446913792
 30
0.0
 10
85.07147699631247
 20
-123.0786280247858
 30
0.0
 10
85.07147699631247
 20
-123.0786280247858
 30
0.0
 10
85.07147699631247
 20
-123.0786280247858
 30
0.0
 10
85.83626392124557
 20
-124.3719113577959
 30
0.0
 10
85.83626392124557
 20
-124.3719113577959
 30
0.0
 10
85.83626392124557
 20
-124.3719113577959
 30
0.0
 10
86.12981030264548
 20
-124.0784002467583
 30
0.0
 10
86.12981030264548
 20
-124.0784002467583
 30
0.0
 10
86.12981030264548
 20
-124.0784002467583
 30
0.0
 10
86.71820834318974
 20
-125.3716835797681
 30
0.0
 10
86.71820834318974
 20
-125.3716835797681
 30
0.0
 10
86.71820834318974
 20
-125.3716835797681
 30
0.0
 10
86.30619918703431
 20
-125.7244613574577
 30
0.0
 10
86.30619918703431
 20
-125.7244613574577
 30
0.0
 10
86.30619918703431
 20
-125.7244613574577
 30
0.0
 10
85.01288060891851
 20
-124.9603446909823
 30
0.0
 10
85.01288060891851
 20
-124.9603446909823
 30
0.0
 10
85.01288060891851
 20
-124.9603446909823
 30
0.0
 10
85.15967143850689
 20
-124.8128835799078
 30
0.0
 10
85.15967143850689
 20
-124.8128835799078
 30
0.0
 10
85.15967143850689
 20
-124.8128835799078
 30
0.0
 10
84.01314368997947
 20
-124.0784002467583
 30
0.0
 10
84.01314368997947
 20
-124.0784002467583
 30
0.0
 10
84.01314368997947
 20
-124.0784002467583
 30
0.0
 10
84.30732507136317
 20
-123.784183580165
 30
0.0
 10
84.30732507136317
 20
-123.784183580165
 30
0.0
 10
84.30732507136317
 20
-123.784183580165
 30
0.0
 10
83.19043065541308
 20
-123.3135780247271
 30
0.0
 10
83.19043065541308
 20
-123.3135780247271
 30
0.0
 10
83.19043065541308
 20
-123.3135780247271
 30
0.0
 10
83.425380649419
 20
-123.0786280247858
 30
0.0
 10
83.425380649419
 20
-123.0786280247858
 30
0.0
 10
83.425380649419
 20
-123.0786280247858
 30
0.0
 10
81.48510292114183
 20
-121.0797891363969
 30
0.0
 10
81.48510292114183
 20
-121.0797891363969
 30
0.0
  0
HATCH
  5
5F
330
1F
100
AcDbEntity
  8
_U+30EC_U+30A4_U+30E4_U+30FC 1
 62
   253
420
 11711154
100
AcDbHatch
 10
0.0
 20
0.0
 30
0.0
210
0.0
220
0.0
230
1.0
  2
SOLID
 70
     1
 71
     0
 91
        1
 92
        1
 93
        1
 72
     4
 94
        3
 73
     0
 74
     1
 95
       95
 96
       91
 40
0.0
 40
0.0
 40
0.0
 40
0.0
 40
1.0
 40
1.0
 40
1.0
 40
2.0
 40
2.0
 40
2.0
 40
3.0
 40
3.0
 40
3.0
 40
4.0
 40
4.0
 40
4.0
 40
5.0
 40
5.0
 40
5.0
 40
6.0
 40
6.0
 40
6.0
 40
7.0
 40
7.0
 40
7.0
 40
8.0
 40
8.0
 40
8.0
 40
9.0
 40
9.0
 40
9.0
 40
10.0
 40
10.0
 40
10.0
 40
11.0
 40
11.0
 40
11.0
 40
12.0
 40
12.0
 40
12.0
 40
13.0
 40
13.0
 40
13.0
 40
14.0
 40
14.0
 40
14.0
 40
15.0
 40
15.0
 40
15.0
 40
16.0
 40
16.0
 40
16.0
 40
17.0
 40
17.0
 40
17.0
 40
18.0
 40
18.0
 40
18.0
 40
19.0
 40
19.0
 40
19.0
 40
20.0
 40
20.0
 40
20.0
 40
21.0
 40
21.0
 40
21.0
 40
22.0
 40
22.0
 40
22.0
 40
23.0
 40
23.0
 40
23.0
 40
24.0
 40
24.0
 40
24.0
 40
25.0
 40
25.0
 40
25.0
 40
26.0
 40
26.0
 40
26.0
 40
27.0
 40
27.0
 40
27.0
 40
28.0
 40
28.0
 40
28.0
 40
29.0
 40
29.0
 40
29.0
 40
30.0
 40
30.0
 40
30.0
 40
30.0
 10
81.48510292114183
 20
-121.0797891363969
 10
81.48510292114183
 20
-121.0797891363969
 10
81.5436993085358
 20
-135.3081988550622
 10
81.5436993085358
 20
-135.3081988550622
 10
81.5436993085358
 20
-135.3081988550622
 10
82.13209734908007
 20
-135.3081988550622
 10
82.13209734908007
 20
-135.3081988550622
 10
82.13209734908007
 20
-135.3081988550622
 10
82.13209734908007
 20
-136.0137544104413
 10
82.13209734908007
 20
-136.0137544104413
 10
82.13209734908007
 20
-136.0137544104413
 10
81.36731042414696
 20
-136.0137544104413
 10
81.36731042414696
 20
-136.0137544104413
 10
81.36731042414696
 20
-136.0137544104413
 10
80.7795473835865
 20
-136.0137544104413
 10
80.7795473835865
 20
-135.0732488551205
 10
80.7795473835865
 20
-135.0732488551205
 10
80.7795473835865
 20
-120.8441335809
 10
80.7795473835865
 20
-120.8441335809
 10
80.7795473835865
 20
-120.8441335809
 10
80.42676961480883
 20
-119.6686780256386
 10
82.01426957430833
 20
-119.6686780256386
 10
82.01426957430833
 20
-119.6686780256386
 10
95.89043033140909
 20
-119.6686780256386
 10
95.89043033140909
 20
-119.6686780256386
 10
95.89043033140909
 20
-119.6686780256386
 10
97.12515252213093
 20
-119.4336927479194
 10
97.18371363174802
 20
-120.3742335810177
 10
97.18371363174802
 20
-120.3742335810177
 10
97.18371363174802
 20
-121.2561780252417
 10
97.18371363174802
 20
-121.2561780252417
 10
97.18371363174802
 20
-121.2561780252417
 10
96.41959698457559
 20
-121.2561780252417
 10
96.41959698457559
 20
-121.2561780252417
 10
96.41959698457559
 20
-121.2561780252417
 10
96.41959698457559
 20
-120.6091835809587
 10
96.41959698457559
 20
-120.6091835809587
 10
96.41959698457559
 20
-120.6091835809587
 10
83.07260288064134
 20
-120.4327946921139
 10
83.07260288064134
 20
-120.4327946921139
 10
83.07260288064134
 20
-120.4327946921139
 10
81.95503818693057
 20
-120.3735280254622
 10
82.42564373047998
 20
-120.8441335809
 10
82.42564373047998
 20
-120.8441335809
 10
83.71959730857958
 20
-122.0788558028136
 10
83.71959730857958
 20
-122.0788558028136
 10
83.71959730857958
 20
-122.0788558028136
 10
83.9545473025855
 20
-122.3730724694066
 10
83.9545473025855
 20
-122.3730724694066
 10
83.9545473025855
 20
-122.3730724694066
 10
84.13093618697434
 20
-122.1381224694656
 10
84.13093618697434
 20
-122.1381224694656
 10
84.13093618697434
 20
-122.1381224694656
 10
84.77793061491258
 20
-123.3728446913792
 10
84.77793061491258
 20
-123.3728446913792
 10
84.77793061491258
 20
-123.3728446913792
 10
85.07147699631247
 20
-123.0786280247858
 10
85.07147699631247
 20
-123.0786280247858
 10
85.07147699631247
 20
-123.0786280247858
 10
85.83626392124557
 20
-124.3719113577959
 10
85.83626392124557
 20
-124.3719113577959
 10
85.83626392124557
 20
-124.3719113577959
 10
86.12981030264548
 20
-124.0784002467583
 10
86.12981030264548
 20
-124.0784002467583
 10
86.12981030264548
 20
-124.0784002467583
 10
86.71820834318974
 20
-125.3716835797681
 10
86.71820834318974
 20
-125.3716835797681
 10
86.71820834318974
 20
-125.3716835797681
 10
86.30619918703431
 20
-125.7244613574577
 10
86.30619918703431
 20
-125.7244613574577
 10
86.30619918703431
 20
-125.7244613574577
 10
85.01288060891851
 20
-124.9603446909823
 10
85.01288060891851
 20
-124.9603446909823
 10
85.01288060891851
 20
-124.9603446909823
 10
85.15967143850689
 20
-124.8128835799078
 10
85.15967143850689
 20
-124.8128835799078
 10
85.15967143850689
 20
-124.8128835799078
 10
84.01314368997947
 20
-124.0784002467583
 10
84.01314368997947
 20
-124.0784002467583
 10
84.01314368997947
 20
-124.0784002467583
 10
84.30732507136317
 20
-123.784183580165
 10
84.30732507136317
 20
-123.784183580165
 10
84.30732507136317
 20
-123.784183580165
 10
83.19043065541308
 20
-123.3135780247271
 10
83.19043065541308
 20
-123.3135780247271
 10
83.19043065541308
 20
-123.3135780247271
 10
83.425380649419
 20
-123.0786280247858
 10
83.425380649419
 20
-123.0786280247858
 10
83.425380649419
 20
-123.0786280247858
 10
81.48510292114183
 20
-121.0797891363969
 10
81.48510292114183
 20
-121.0797891363969
 97
        0
 97
        0
 75
     2
 76
     1
 98
        0
  0
INSERT
  5
61
330
1F
100
AcDbEntity
  8
_U+30EC_U+30A4_U+30E4_U+30FC 1
100
AcDbBlockReference
  2
block 2
 10
0.0
 20
0.0
 30
0.0
  0
INSERT
  5
69
330
1F
100
AcDbEntity
  8
_U+30EC_U+30A4_U+30E4_U+30FC 1
100
AcDbBlockReference
  2
block 3
 10
0.0
 20
0.0
 30
0.0
  0
INSERT
  5
71
330
1F
100
AcDbEntity
  8
_U+30EC_U+30A4_U+30E4_U+30FC 1
100
AcDbBlockReference
  2
block 4
 10
0.0
 20
0.0
 30
0.0
  0
INSERT
  5
79
330
1F
100
AcDbEntity
  8
_U+30EC_U+30A4_U+30E4_U+30FC 1
100
AcDbBlockReference
  2
block 5
 10
0.0
 20
0.0
 30
0.0
  0
INSERT
  5
7F
330
1F
100
AcDbEntity
  8
_U+30EC_U+30A4_U+30E4_U+30FC 1
100
AcDbBlockReference
  2
block 6
 10
0.0
 20
0.0
 30
0.0
  0
SPLINE
  5
86
330
1F
100
AcDbEntity
  8
_U+30EC_U+30A4_U+30E4_U+30FC 1
370
     0
100
AcDbSpline
210
0.0
220
0.0
230
1.0
 70
    11
 71
     3
 72
    17
 73
    13
 74
     0
 42
0.0000000001
 43
0.0000000001
 12
1.0
 22
0.0
 32
0.0
 13
1.0
 23
0.0
 33
0.0
 40
0.0
 40
0.0
 40
0.0
 40
0.0
 40
1.0
 40
1.0
 40
1.0
 40
2.0
 40
2.0
 40
2.0
 40
3.0
 40
3.0
 40
3.0
 40
4.0
 40
4.0
 40
4.0
 40
4.0
 10
105.9735597963893
 20
-126.9591835793712
 30
0.0
 10
105.9735597963893
 20
-127.096978579337
 30
0.0
 10
105.861940910348
 20
-127.2093030237534
 30
0.0
 10
105.7241106360866
 20
-127.2093030237534
 30
0.0
 10
105.586315639602
 20
-127.2093030237534
 30
0.0
 10
105.4739911980232
 20
-127.096978579337
 30
0.0
 10
105.4739911980232
 20
-126.9591835793712
 30
0.0
 10
105.4739911980232
 20
-126.8206830238506
 30
0.0
 10
105.586315639602
 20
-126.7090641349894
 30
0.0
 10
105.7241106360866
 20
-126.7090641349894
 30
0.0
 10
105.861940910348
 20
-126.7090641349894
 30
0.0
 10
105.9735597963893
 20
-126.8206830238506
 30
0.0
 10
105.9735597963893
 20
-126.9591835793712
 30
0.0
  0
HATCH
  5
87
330
1F
100
AcDbEntity
  8
_U+30EC_U+30A4_U+30E4_U+30FC 1
 62
   179
420
  2234388
100
AcDbHatch
 10
0.0
 20
0.0
 30
0.0
210
0.0
220
0.0
230
1.0
  2
SOLID
 70
     1
 71
     0
 91
        1
 92
        1
 93
        1
 72
     4
 94
        3
 73
     0
 74
     1
 95
       17
 96
       13
 40
0.0
 40
0.0
 40
0.0
 40
0.0
 40
1.0
 40
1.0
 40
1.0
 40
2.0
 40
2.0
 40
2.0
 40
3.0
 40
3.0
 40
3.0
 40
4.0
 40
4.0
 40
4.0
 40
4.0
 10
105.9735597963893
 20
-126.9591835793712
 10
105.9735597963893
 20
-127.096978579337
 10
105.861940910348
 20
-127.2093030237534
 10
105.7241106360866
 20
-127.2093030237534
 10
105.586315639602
 20
-127.2093030237534
 10
105.4739911980232
 20
-127.096978579337
 10
105.4739911980232
 20
-126.9591835793712
 10
105.4739911980232
 20
-126.8206830238506
 10
105.586315639602
 20
-126.7090641349894
 10
105.7241106360866
 20
-126.7090641349894
 10
105.861940910348
 20
-126.7090641349894
 10
105.9735597963893
 20
-126.8206830238506
 10
105.9735597963893
 20
-126.9591835793712
 97
        0
 97
        0
 75
     2
 76
     1
 98
        0
  0
SPLINE
  5
88
330
1F
100
AcDbEntity
  8
_U+30EC_U+30A4_U+30E4_U+30FC 1
370
     0
100
AcDbSpline
210
0.0
220
0.0
230
1.0
 70
    11
 71
     3
 72
    17
 73
    13
 74
     0
 42
0.0000000001
 43
0.0000000001
 12
1.0
 22
0.0
 32
0.0
 13
1.0
 23
0.0
 33
0.0
 40
0.0
 40
0.0
 40
0.0
 40
0.0
 40
1.0
 40
1.0
 40
1.0
 40
2.0
 40
2.0
 40
2.0
 40
3.0
 40
3.0
 40
3.0
 40
4.0
 40
4.0
 40
4.0
 40
4.0
 10
105.9735597963893
 20
-143.069309964233
 30
0.0
 10
105.9735597963893
 20
-143.2071049641981
 30
0.0
 10
105.861940910348
 20
-143.3194294086145
 30
0.0
 10
105.7241106360866
 20
-143.3194294086145
 30
0.0
 10
105.586315639602
 20
-143.3194294086145
 30
0.0
 10
105.4739911980232
 20
-143.2071049641981
 30
0.0
 10
105.4739911980232
 20
-143.069309964233
 30
0.0
 10
105.4739911980232
 20
-142.9308094087117
 30
0.0
 10
105.586315639602
 20
-142.8191905198508
 30
0.0
 10
105.7241106360866
 20
-142.8191905198508
 30
0.0
 10
105.861940910348
 20
-142.8191905198508
 30
0.0
 10
105.9735597963893
 20
-142.9308094087117
 30
0.0
 10
105.9735597963893
 20
-143.069309964233
 30
0.0
  0
HATCH
  5
89
330
1F
100
AcDbEntity
  8
_U+30EC_U+30A4_U+30E4_U+30FC 1
 62
   179
420
  2234388
100
AcDbHatch
 10
0.0
 20
0.0
 30
0.0
210
0.0
220
0.0
230
1.0
  2
SOLID
 70
     1
 71
     0
 91
        1
 92
        1
 93
        1
 72
     4
 94
        3
 73
     0
 74
     1
 95
       17
 96
       13
 40
0.0
 40
0.0
 40
0.0
 40
0.0
 40
1.0
 40
1.0
 40
1.0
 40
2.0
 40
2.0
 40
2.0
 40
3.0
 40
3.0
 40
3.0
 40
4.0
 40
4.0
 40
4.0
 40
4.0
 10
105.9735597963893
 20
-143.069309964233
 10
105.9735597963893
 20
-143.2071049641981
 10
105.861940910348
 20
-143.3194294086145
 10
105.7241106360866
 20
-143.3194294086145
 10
105.586315639602
 20
-143.3194294086145
 10
105.4739911980232
 20
-143.2071049641981
 10
105.4739911980232
 20
-143.069309964233
 10
105.4739911980232
 20
-142.9308094087117
 10
105.586315639602
 20
-142.8191905198508
 10
105.7241106360866
 20
-142.8191905198508
 10
105.861940910348
 20
-142.8191905198508
 10
105.9735597963893
 20
-142.9308094087117
 10
105.9735597963893
 20
-143.069309964233
 97
        0
 97
        0
 75
     2
 76
     1
 98
        0
  0
SPLINE
  5
8A
330
1F
100
AcDbEntity
  8
_U+30EC_U+30A4_U+30E4_U+30FC 1
370
     0
100
AcDbSpline
210
0.0
220
0.0
230
1.0
 70
    11
 71
     3
 72
    17
 73
    13
 74
     0
 42
0.0000000001
 43
0.0000000001
 12
1.0
 22
0.0
 32
0.0
 13
1.0
 23
0.0
 33
0.0
 40
0.0
 40
0.0
 40
0.0
 40
0.0
 40
1.0
 40
1.0
 40
1.0
 40
2.0
 40
2.0
 40
2.0
 40
3.0
 40
3.0
 40
3.0
 40
4.0
 40
4.0
 40
4.0
 40
4.0
 10
97.72737945121128
 20
-145.9507988524014
 30
0.0
 10
97.72737945121128
 20
-146.0885938523665
 30
0.0
 10
97.61576056517002
 20
-146.2008830190054
 30
0.0
 10
97.47793029090859
 20
-146.2008830190054
 30
0.0
 10
97.34013529442403
 20
-146.2008830190054
 30
0.0
 10
97.22781085284522
 20
-146.0885938523665
 30
0.0
 10
97.22781085284522
 20
-145.9507988524014
 30
0.0
 10
97.22781085284522
 20
-145.8122982968801
 30
0.0
 10
97.34013529442403
 20
-145.7006794080192
 30
0.0
 10
97.47793029090859
 20
-145.7006794080192
 30
0.0
 10
97.61576056517002
 20
-145.7006794080192
 30
0.0
 10
97.72737945121128
 20
-145.8122982968801
 30
0.0
 10
97.72737945121128
 20
-145.9507988524014
 30
0.0
  0
HATCH
  5
8B
330
1F
100
AcDbEntity
  8
_U+30EC_U+30A4_U+30E4_U+30FC 1
 62
   179
420
  2234388
100
AcDbHatch
 10
0.0
 20
0.0
 30
0.0
210
0.0
220
0.0
230
1.0
  2
SOLID
 70
     1
 71
     0
 91
        1
 92
        1
 93
        1
 72
     4
 94
        3
 73
     0
 74
     1
 95
       17
 96
       13
 40
0.0
 40
0.0
 40
0.0
 40
0.0
 40
1.0
 40
1.0
 40
1.0
 40
2.0
 40
2.0
 40
2.0
 40
3.0
 40
3.0
 40
3.0
 40
4.0
 40
4.0
 40
4.0
 40
4.0
 10
97.72737945121128
 20
-145.9507988524014
 10
97.72737945121128
 20
-146.0885938523665
 10
97.61576056517002
 20
-146.2008830190054
 10
97.47793029090859
 20
-146.2008830190054
 10
97.34013529442403
 20
-146.2008830190054
 10
97.22781085284522
 20
-146.0885938523665
 10
97.22781085284522
 20
-145.9507988524014
 10
97.22781085284522
 20
-145.8122982968801
 10
97.34013529442403
 20
-145.7006794080192
 10
97.47793029090859
 20
-145.7006794080192
 10
97.61576056517002
 20
-145.7006794080192
 10
97.72737945121128
 20
-145.8122982968801
 10
97.72737945121128
 20
-145.9507988524014
 97
        0
 97
        0
 75
     2
 76
     1
 98
        0
  0
SPLINE
  5
8C
330
1F
100
AcDbEntity
  8
_U+30EC_U+30A4_U+30E4_U+30FC 1
370
     0
100
AcDbSpline
210
0.0
220
0.0
230
1.0
 70
    11
 71
     3
 72
    17
 73
    13
 74
     0
 42
0.0000000001
 43
0.0000000001
 12
1.0
 22
0.0
 32
0.0
 13
1.0
 23
0.0
 33
0.0
 40
0.0
 40
0.0
 40
0.0
 40
0.0
 40
1.0
 40
1.0
 40
1.0
 40
2.0
 40
2.0
 40
2.0
 40
3.0
 40
3.0
 40
3.0
 40
4.0
 40
4.0
 40
4.0
 40
4.0
 10
88.02599080982543
 20
-145.9507988524014
 30
0.0
 10
88.02599080982543
 20
-146.0885938523665
 30
0.0
 10
87.91437192378419
 20
-146.2008830190054
 30
0.0
 10
87.77654164952274
 20
-146.2008830190054
 30
0.0
 10
87.6380763752775
 20
-146.2008830190054
 30
0.0
 10
87.5257519336987
 20
-146.0885938523665
 30
0.0
 10
87.5257519336987
 20
-145.9507988524014
 30
0.0
 10
87.5257519336987
 20
-145.8122982968801
 30
0.0
 10
87.6380763752775
 20
-145.7006794080192
 30
0.0
 10
87.77654164952274
 20
-145.7006794080192
 30
0.0
 10
87.91437192378419
 20
-145.7006794080192
 30
0.0
 10
88.02599080982543
 20
-145.8122982968801
 30
0.0
 10
88.02599080982543
 20
-145.9507988524014
 30
0.0
  0
HATCH
  5
8D
330
1F
100
AcDbEntity
  8
_U+30EC_U+30A4_U+30E4_U+30FC 1
 62
   179
420
  2234388
100
AcDbHatch
 10
0.0
 20
0.0
 30
0.0
210
0.0
220
0.0
230
1.0
  2
SOLID
 70
     1
 71
     0
 91
        1
 92
        1
 93
        1
 72
     4
 94
        3
 73
     0
 74
     1
 95
       17
 96
       13
 40
0.0
 40
0.0
 40
0.0
 40
0.0
 40
1.0
 40
1.0
 40
1.0
 40
2.0
 40
2.0
 40
2.0
 40
3.0
 40
3.0
 40
3.0
 40
4.0
 40
4.0
 40
4.0
 40
4.0
 10
88.02599080982543
 20
-145.9507988524014
 10
88.02599080982543
 20
-146.0885938523665
 10
87.91437192378419
 20
-146.2008830190054
 10
87.77654164952274
 20
-146.2008830190054
 10
87.6380763752775
 20
-146.2008830190054
 10
87.5257519336987
 20
-146.0885938523665
 10
87.5257519336987
 20
-145.9507988524014
 10
87.5257519336987
 20
-145.8122982968801
 10
87.6380763752775
 20
-145.7006794080192
 10
87.77654164952274
 20
-145.7006794080192
 10
87.91437192378419
 20
-145.7006794080192
 10
88.02599080982543
 20
-145.8122982968801
 10
88.02599080982543
 20
-145.9507988524014
 97
        0
 97
        0
 75
     2
 76
     1
 98
        0
  0
SPLINE
  5
8E
330
1F
100
AcDbEntity
  8
_U+30EC_U+30A4_U+30E4_U+30FC 1
370
     0
100
AcDbSpline
210
0.0
220
0.0
230
1.0
 70
    11
 71
     3
 72
    17
 73
    13
 74
     0
 42
0.0000000001
 43
0.0000000001
 12
1.0
 22
0.0
 32
0.0
 13
1.0
 23
0.0
 33
0.0
 40
0.0
 40
0.0
 40
0.0
 40
0.0
 40
1.0
 40
1.0
 40
1.0
 40
2.0
 40
2.0
 40
2.0
 40
3.0
 40
3.0
 40
3.0
 40
4.0
 40
4.0
 40
4.0
 40
4.0
 10
82.3229501219888
 20
-145.8915321857497
 30
0.0
 10
82.3229501219888
 20
-146.0293271857148
 30
0.0
 10
82.21066095818686
 20
-146.1416516301312
 30
0.0
 10
82.0728659617023
 20
-146.1416516301312
 30
0.0
 10
81.93503568744087
 20
-146.1416516301312
 30
0.0
 10
81.82341680139962
 20
-146.0293271857148
 30
0.0
 10
81.82341680139962
 20
-145.8915321857497
 30
0.0
 10
81.82341680139962
 20
-145.7530316302283
 30
0.0
 10
81.93503568744087
 20
-145.6414127413675
 30
0.0
 10
82.0728659617023
 20
-145.6414127413675
 30
0.0
 10
82.21066095818686
 20
-145.6414127413675
 30
0.0
 10
82.3229501219888
 20
-145.7530316302283
 30
0.0
 10
82.3229501219888
 20
-145.8915321857497
 30
0.0
  0
HATCH
  5
8F
330
1F
100
AcDbEntity
  8
_U+30EC_U+30A4_U+30E4_U+30FC 1
 62
   179
420
  2234388
100
AcDbHatch
 10
0.0
 20
0.0
 30
0.0
210
0.0
220
0.0
230
1.0
  2
SOLID
 70
     1
 71
     0
 91
        1
 92
        1
 93
        1
 72
     4
 94
        3
 73
     0
 74
     1
 95
       17
 96
       13
 40
0.0
 40
0.0
 40
0.0
 40
0.0
 40
1.0
 40
1.0
 40
1.0
 40
2.0
 40
2.0
 40
2.0
 40
3.0
 40
3.0
 40
3.0
 40
4.0
 40
4.0
 40
4.0
 40
4.0
 10
82.3229501219888
 20
-145.8915321857497
 10
82.3229501219888
 20
-146.0293271857148
 10
82.21066095818686
 20
-146.1416516301312
 10
82.0728659617023
 20
-146.1416516301312
 10
81.93503568744087
 20
-146.1416516301312
 10
81.82341680139962
 20
-146.0293271857148
 10
81.82341680139962
 20
-145.8915321857497
 10
81.82341680139962
 20
-145.7530316302283
 10
81.93503568744087
 20
-145.6414127413675
 10
82.0728659617023
 20
-145.6414127413675
 10
82.21066095818686
 20
-145.6414127413675
 10
82.3229501219888
 20
-145.7530316302283
 10
82.3229501219888
 20
-145.8915321857497
 97
        0
 97
        0
 75
     2
 76
     1
 98
        0
  0
SPLINE
  5
90
330
1F
100
AcDbEntity
  8
_U+30EC_U+30A4_U+30E4_U+30FC 1
370
     0
100
AcDbSpline
210
0.0
220
0.0
230
1.0
 70
    11
 71
     3
 72
    17
 73
    13
 74
     0
 42
0.0000000001
 43
0.0000000001
 12
1.0
 22
0.0
 32
0.0
 13
1.0
 23
0.0
 33
0.0
 40
0.0
 40
0.0
 40
0.0
 40
0.0
 40
1.0
 40
1.0
 40
1.0
 40
2.0
 40
2.0
 40
2.0
 40
3.0
 40
3.0
 40
3.0
 40
4.0
 40
4.0
 40
4.0
 40
4.0
 10
80.97043543427209
 20
-145.8915321857497
 30
0.0
 10
80.97043543427209
 20
-146.0293271857148
 30
0.0
 10
80.85881654823083
 20
-146.1416516301312
 30
0.0
 10
80.7209862739694
 20
-146.1416516301312
 30
0.0
 10
80.58252099972417
 20
-146.1416516301312
 30
0.0
 10
80.47019655814536
 20
-146.0293271857148
 30
0.0
 10
80.47019655814536
 20
-145.8915321857497
 30
0.0
 10
80.47019655814536
 20
-145.7530316302283
 30
0.0
 10
80.58252099972417
 20
-145.6414127413675
 30
0.0
 10
80.7209862739694
 20
-145.6414127413675
 30
0.0
 10
80.85881654823083
 20
-145.6414127413675
 30
0.0
 10
80.97043543427209
 20
-145.7530316302283
 30
0.0
 10
80.97043543427209
 20
-145.8915321857497
 30
0.0
  0
HATCH
  5
91
330
1F
100
AcDbEntity
  8
_U+30EC_U+30A4_U+30E4_U+30FC 1
 62
   179
420
  2234388
100
AcDbHatch
 10
0.0
 20
0.0
 30
0.0
210
0.0
220
0.0
230
1.0
  2
SOLID
 70
     1
 71
     0
 91
        1
 92
        1
 93
        1
 72
     4
 94
        3
 73
     0
 74
     1
 95
       17
 96
       13
 40
0.0
 40
0.0
 40
0.0
 40
0.0
 40
1.0
 40
1.0
 40
1.0
 40
2.0
 40
2.0
 40
2.0
 40
3.0
 40
3.0
 40
3.0
 40
4.0
 40
4.0
 40
4.0
 40
4.0
 10
80.97043543427209
 20
-145.8915321857497
 10
80.97043543427209
 20
-146.0293271857148
 10
80.85881654823083
 20
-146.1416516301312
 10
80.7209862739694
 20
-146.1416516301312
 10
80.58252099972417
 20
-146.1416516301312
 10
80.47019655814536
 20
-146.0293271857148
 10
80.47019655814536
 20
-145.8915321857497
 10
80.47019655814536
 20
-145.7530316302283
 10
80.58252099972417
 20
-145.6414127413675
 10
80.7209862739694
 20
-145.6414127413675
 10
80.85881654823083
 20
-145.6414127413675
 10
80.97043543427209
 20
-145.7530316302283
 10
80.97043543427209
 20
-145.8915321857497
 97
        0
 97
        0
 75
     2
 76
     1
 98
        0
  0
SPLINE
  5
92
330
1F
100
AcDbEntity
  8
_U+30EC_U+30A4_U+30E4_U+30FC 1
370
     0
100
AcDbSpline
210
0.0
220
0.0
230
1.0
 70
    11
 71
     3
 72
    17
 73
    13
 74
     0
 42
0.0000000001
 43
0.0000000001
 12
1.0
 22
0.0
 32
0.0
 13
1.0
 23
0.0
 33
0.0
 40
0.0
 40
0.0
 40
0.0
 40
0.0
 40
1.0
 40
1.0
 40
1.0
 40
2.0
 40
2.0
 40
2.0
 40
3.0
 40
3.0
 40
3.0
 40
4.0
 40
4.0
 40
4.0
 40
4.0
 10
97.13961641065082
 20
-115.7288558044011
 30
0.0
 10
97.13961641065082
 20
-115.8666508043665
 30
0.0
 10
97.02732724684888
 20
-115.9789752487829
 30
0.0
 10
96.88953225036433
 20
-115.9789752487829
 30
0.0
 10
96.7517019761029
 20
-115.9789752487829
 30
0.0
 10
96.64008309006164
 20
-115.8666508043665
 30
0.0
 10
96.64008309006164
 20
-115.7288558044011
 30
0.0
 10
96.64008309006164
 20
-115.5903552488801
 30
0.0
 10
96.7517019761029
 20
-115.4787363600192
 30
0.0
 10
96.88953225036433
 20
-115.4787363600192
 30
0.0
 10
97.02732724684888
 20
-115.4787363600192
 30
0.0
 10
97.13961641065082
 20
-115.5903552488801
 30
0.0
 10
97.13961641065082
 20
-115.7288558044011
 30
0.0
  0
HATCH
  5
93
330
1F
100
AcDbEntity
  8
_U+30EC_U+30A4_U+30E4_U+30FC 1
 62
   179
420
  2234388
100
AcDbHatch
 10
0.0
 20
0.0
 30
0.0
210
0.0
220
0.0
230
1.0
  2
SOLID
 70
     1
 71
     0
 91
        1
 92
        1
 93
        1
 72
     4
 94
        3
 73
     0
 74
     1
 95
       17
 96
       13
 40
0.0
 40
0.0
 40
0.0
 40
0.0
 40
1.0
 40
1.0
 40
1.0
 40
2.0
 40
2.0
 40
2.0
 40
3.0
 40
3.0
 40
3.0
 40
4.0
 40
4.0
 40
4.0
 40
4.0
 10
97.13961641065082
 20
-115.7288558044011
 10
97.13961641065082
 20
-115.8666508043665
 10
97.02732724684888
 20
-115.9789752487829
 10
96.88953225036433
 20
-115.9789752487829
 10
96.7517019761029
 20
-115.9789752487829
 10
96.64008309006164
 20
-115.8666508043665
 10
96.64008309006164
 20
-115.7288558044011
 10
96.64008309006164
 20
-115.5903552488801
 10
96.7517019761029
 20
-115.4787363600192
 10
96.88953225036433
 20
-115.4787363600192
 10
97.02732724684888
 20
-115.4787363600192
 10
97.13961641065082
 20
-115.5903552488801
 10
97.13961641065082
 20
-115.7288558044011
 97
        0
 97
        0
 75
     2
 76
     1
 98
        0
  0
SPLINE
  5
94
330
1F
100
AcDbEntity
  8
_U+30EC_U+30A4_U+30E4_U+30FC 1
370
     0
100
AcDbSpline
210
0.0
220
0.0
230
1.0
 70
    11
 71
     3
 72
    17
 73
    13
 74
     0
 42
0.0000000001
 43
0.0000000001
 12
1.0
 22
0.0
 32
0.0
 13
1.0
 23
0.0
 33
0.0
 40
0.0
 40
0.0
 40
0.0
 40
0.0
 40
1.0
 40
1.0
 40
1.0
 40
2.0
 40
2.0
 40
2.0
 40
3.0
 40
3.0
 40
3.0
 40
4.0
 40
4.0
 40
4.0
 40
4.0
 10
81.26461681565578
 20
-115.7288558044011
 30
0.0
 10
81.26461681565578
 20
-115.8666508043665
 30
0.0
 10
81.15232765185387
 20
-115.9789752487829
 30
0.0
 10
81.01453265536931
 20
-115.9789752487829
 30
0.0
 10
80.87670238110786
 20
-115.9789752487829
 30
0.0
 10
80.76508349506662
 20
-115.8666508043665
 30
0.0
 10
80.76508349506662
 20
-115.7288558044011
 30
0.0
 10
80.76508349506662
 20
-115.5903552488801
 30
0.0
 10
80.87670238110786
 20
-115.4787363600192
 30
0.0
 10
81.01453265536931
 20
-115.4787363600192
 30
0.0
 10
81.15232765185387
 20
-115.4787363600192
 30
0.0
 10
81.26461681565578
 20
-115.5903552488801
 30
0.0
 10
81.26461681565578
 20
-115.7288558044011
 30
0.0
  0
HATCH
  5
95
330
1F
100
AcDbEntity
  8
_U+30EC_U+30A4_U+30E4_U+30FC 1
 62
   179
420
  2234388
100
AcDbHatch
 10
0.0
 20
0.0
 30
0.0
210
0.0
220
0.0
230
1.0
  2
SOLID
 70
     1
 71
     0
 91
        1
 92
        1
 93
        1
 72
     4
 94
        3
 73
     0
 74
     1
 95
       17
 96
       13
 40
0.0
 40
0.0
 40
0.0
 40
0.0
 40
1.0
 40
1.0
 40
1.0
 40
2.0
 40
2.0
 40
2.0
 40
3.0
 40
3.0
 40
3.0
 40
4.0
 40
4.0
 40
4.0
 40
4.0
 10
81.26461681565578
 20
-115.7288558044011
 10
81.26461681565578
 20
-115.8666508043665
 10
81.15232765185387
 20
-115.9789752487829
 10
81.01453265536931
 20
-115.9789752487829
 10
80.87670238110786
 20
-115.9789752487829
 10
80.76508349506662
 20
-115.8666508043665
 10
80.76508349506662
 20
-115.7288558044011
 10
80.76508349506662
 20
-115.5903552488801
 10
80.87670238110786
 20
-115.4787363600192
 10
81.01453265536931
 20
-115.4787363600192
 10
81.15232765185387
 20
-115.4787363600192
 10
81.26461681565578
 20
-115.5903552488801
 10
81.26461681565578
 20
-115.7288558044011
 97
        0
 97
        0
 75
     2
 76
     1
 98
        0
  0
SPLINE
  5
96
330
1F
100
AcDbEntity
  8
_U+30EC_U+30A4_U+30E4_U+30FC 1
370
     0
100
AcDbSpline
210
0.0
220
0.0
230
1.0
 70
    11
 71
     3
 72
    17
 73
    13
 74
     0
 42
0.0000000001
 43
0.0000000001
 12
1.0
 22
0.0
 32
0.0
 13
1.0
 23
0.0
 33
0.0
 40
0.0
 40
0.0
 40
0.0
 40
0.0
 40
1.0
 40
1.0
 40
1.0
 40
2.0
 40
2.0
 40
2.0
 40
3.0
 40
3.0
 40
3.0
 40
4.0
 40
4.0
 40
4.0
 40
4.0
 10
76.67783554378543
 20
-119.9036280255796
 30
0.0
 10
76.67783554378543
 20
-120.0414230255453
 30
0.0
 10
76.56621665774419
 20
-120.1537474699617
 30
0.0
 10
76.42842166125963
 20
-120.1537474699617
 30
0.0
 10
76.2905913869982
 20
-120.1537474699617
 30
0.0
 10
76.17830222319627
 20
-120.0414230255453
 30
0.0
 10
76.17830222319627
 20
-119.9036280255796
 30
0.0
 10
76.17830222319627
 20
-119.7651274700589
 30
0.0
 10
76.2905913869982
 20
-119.6535085811977
 30
0.0
 10
76.42842166125963
 20
-119.6535085811977
 30
0.0
 10
76.56621665774419
 20
-119.6535085811977
 30
0.0
 10
76.67783554378543
 20
-119.7651274700589
 30
0.0
 10
76.67783554378543
 20
-119.9036280255796
 30
0.0
  0
HATCH
  5
97
330
1F
100
AcDbEntity
  8
_U+30EC_U+30A4_U+30E4_U+30FC 1
 62
   179
420
  2234388
100
AcDbHatch
 10
0.0
 20
0.0
 30
0.0
210
0.0
220
0.0
230
1.0
  2
SOLID
 70
     1
 71
     0
 91
        1
 92
        1
 93
        1
 72
     4
 94
        3
 73
     0
 74
     1
 95
       17
 96
       13
 40
0.0
 40
0.0
 40
0.0
 40
0.0
 40
1.0
 40
1.0
 40
1.0
 40
2.0
 40
2.0
 40
2.0
 40
3.0
 40
3.0
 40
3.0
 40
4.0
 40
4.0
 40
4.0
 40
4.0
 10
76.67783554378543
 20
-119.9036280255796
 10
76.67783554378543
 20
-120.0414230255453
 10
76.56621665774419
 20
-120.1537474699617
 10
76.42842166125963
 20
-120.1537474699617
 10
76.2905913869982
 20
-120.1537474699617
 10
76.17830222319627
 20
-120.0414230255453
 10
76.17830222319627
 20
-119.9036280255796
 10
76.17830222319627
 20
-119.7651274700589
 10
76.2905913869982
 20
-119.6535085811977
 10
76.42842166125963
 20
-119.6535085811977
 10
76.56621665774419
 20
-119.6535085811977
 10
76.67783554378543
 20
-119.7651274700589
 10
76.67783554378543
 20
-119.9036280255796
 97
        0
 97
        0
 75
     2
 76
     1
 98
        0
  0
SPLINE
  5
98
330
1F
100
AcDbEntity
  8
_U+30EC_U+30A4_U+30E4_U+30FC 1
370
     0
100
AcDbSpline
210
0.0
220
0.0
230
1.0
 70
    11
 71
     3
 72
    17
 73
    13
 74
     0
 42
0.0000000001
 43
0.0000000001
 12
1.0
 22
0.0
 32
0.0
 13
1.0
 23
0.0
 33
0.0
 40
0.0
 40
0.0
 40
0.0
 40
0.0
 40
1.0
 40
1.0
 40
1.0
 40
2.0
 40
2.0
 40
2.0
 40
3.0
 40
3.0
 40
3.0
 40
4.0
 40
4.0
 40
4.0
 40
4.0
 10
76.67783554378543
 20
-136.073021077093
 30
0.0
 10
76.67783554378543
 20
-136.2108160770582
 30
0.0
 10
76.56621665774419
 20
-136.3231052436971
 30
0.0
 10
76.42842166125963
 20
-136.3231052436971
 30
0.0
 10
76.2905913869982
 20
-136.3231052436971
 30
0.0
 10
76.17830222319627
 20
-136.2108160770582
 30
0.0
 10
76.17830222319627
 20
-136.073021077093
 30
0.0
 10
76.17830222319627
 20
-135.9345205215718
 30
0.0
 10
76.2905913869982
 20
-135.8229016327109
 30
0.0
 10
76.42842166125963
 20
-135.8229016327109
 30
0.0
 10
76.56621665774419
 20
-135.8229016327109
 30
0.0
 10
76.67783554378543
 20
-135.9345205215718
 30
0.0
 10
76.67783554378543
 20
-136.073021077093
 30
0.0
  0
HATCH
  5
99
330
1F
100
AcDbEntity
  8
_U+30EC_U+30A4_U+30E4_U+30FC 1
 62
   179
420
  2234388
100
AcDbHatch
 10
0.0
 20
0.0
 30
0.0
210
0.0
220
0.0
230
1.0
  2
SOLID
 70
     1
 71
     0
 91
        1
 92
        1
 93
        1
 72
     4
 94
        3
 73
     0
 74
     1
 95
       17
 96
       13
 40
0.0
 40
0.0
 40
0.0
 40
0.0
 40
1.0
 40
1.0
 40
1.0
 40
2.0
 40
2.0
 40
2.0
 40
3.0
 40
3.0
 40
3.0
 40
4.0
 40
4.0
 40
4.0
 40
4.0
 10
76.67783554378543
 20
-136.073021077093
 10
76.67783554378543
 20
-136.2108160770582
 10
76.56621665774419
 20
-136.3231052436971
 10
76.42842166125963
 20
-136.3231052436971
 10
76.2905913869982
 20
-136.3231052436971
 10
76.17830222319627
 20
-136.2108160770582
 10
76.17830222319627
 20
-136.073021077093
 10
76.17830222319627
 20
-135.9345205215718
 10
76.2905913869982
 20
-135.8229016327109
 10
76.42842166125963
 20
-135.8229016327109
 10
76.56621665774419
 20
-135.8229016327109
 10
76.67783554378543
 20
-135.9345205215718
 10
76.67783554378543
 20
-136.073021077093
 97
        0
 97
        0
 75
     2
 76
     1
 98
        0
  0
POLYLINE
  5
9A
330
1F
100
AcDbEntity
  8
_U+30EC_U+30A4_U+30E4_U+30FC 1
 62
   179
420
  2234388
370
     9
100
AcDb2dPolyline
 66
     1
 10
0.0
 20
0.0
 30
0.0
  0
VERTEX
  5
9B
330
9A
100
AcDbEntity
  8
_U+30EC_U+30A4_U+30E4_U+30FC 1
 62
   179
420
  2234388
370
     9
100
AcDbVertex
100
AcDb2dVertex
 10
76.42842166125963
 20
-129.487365523184
 30
0.0
  0
VERTEX
  5
9C
330
9A
100
AcDbEntity
  8
_U+30EC_U+30A4_U+30E4_U+30FC 1
 62
   179
420
  2234388
370
     9
100
AcDbVertex
100
AcDb2dVertex
 10
76.42842166125963
 20
-136.0137544104413
 30
0.0
  0
VERTEX
  5
9D
330
9A
100
AcDbEntity
  8
_U+30EC_U+30A4_U+30E4_U+30FC 1
 62
   179
420
  2234388
370
     9
100
AcDbVertex
100
AcDb2dVertex
 10
80.25038073042
 20
-136.0137544104413
 30
0.0
  0
SEQEND
  5
9E
330
9A
100
AcDbEntity
  8
_U+30EC_U+30A4_U+30E4_U+30FC 1
 62
   179
420
  2234388
370
     9
  0
POLYLINE
  5
9F
330
1F
100
AcDbEntity
  8
_U+30EC_U+30A4_U+30E4_U+30FC 1
 62
   179
420
  2234388
370
     9
100
AcDb2dPolyline
 66
     1
 10
0.0
 20
0.0
 30
0.0
  0
VERTEX
  5
A0
330
9F
100
AcDbEntity
  8
_U+30EC_U+30A4_U+30E4_U+30FC 1
 62
   179
420
  2234388
370
     9
100
AcDbVertex
100
AcDb2dVertex
 10
76.31126416424857
 20
-125.8422891352063
 30
0.0
  0
VERTEX
  5
A1
330
9F
100
AcDbEntity
  8
_U+30EC_U+30A4_U+30E4_U+30FC 1
 62
   179
420
  2234388
370
     9
100
AcDbVertex
100
AcDb2dVertex
 10
76.31126416424857
 20
-119.8450669144833
 30
0.0
  0
VERTEX
  5
A2
330
9F
100
AcDbEntity
  8
_U+30EC_U+30A4_U+30E4_U+30FC 1
 62
   179
420
  2234388
370
     9
100
AcDbVertex
100
AcDb2dVertex
 10
80.36820850519175
 20
-119.8450669144833
 30
0.0
  0
SEQEND
  5
A3
330
9F
100
AcDbEntity
  8
_U+30EC_U+30A4_U+30E4_U+30FC 1
 62
   179
420
  2234388
370
     9
  0
POLYLINE
  5
A4
330
1F
100
AcDbEntity
  8
_U+30EC_U+30A4_U+30E4_U+30FC 1
 62
   179
420
  2234388
370
     9
100
AcDb2dPolyline
 66
     1
 10
0.0
 20
0.0
 30
0.0
  0
VERTEX
  5
A5
330
A4
100
AcDbEntity
  8
_U+30EC_U+30A4_U+30E4_U+30FC 1
 62
   179
420
  2234388
370
     9
100
AcDbVertex
100
AcDb2dVertex
 10
80.89737515835824
 20
-119.2566335812969
 30
0.0
  0
VERTEX
  5
A6
330
A4
100
AcDbEntity
  8
_U+30EC_U+30A4_U+30E4_U+30FC 1
 62
   179
420
  2234388
370
     9
100
AcDbVertex
100
AcDb2dVertex
 10
80.89737515835824
 20
-115.6117335822083
 30
0.0
  0
VERTEX
  5
A7
330
A4
100
AcDbEntity
  8
_U+30EC_U+30A4_U+30E4_U+30FC 1
 62
   179
420
  2234388
370
     9
100
AcDbVertex
100
AcDb2dVertex
 10
86.71820834318974
 20
-115.6117335822083
 30
0.0
  0
SEQEND
  5
A8
330
A4
100
AcDbEntity
  8
_U+30EC_U+30A4_U+30E4_U+30FC 1
 62
   179
420
  2234388
370
     9
  0
POLYLINE
  5
A9
330
1F
100
AcDbEntity
  8
_U+30EC_U+30A4_U+30E4_U+30FC 1
 62
   179
420
  2234388
370
     9
100
AcDb2dPolyline
 66
     1
 10
0.0
 20
0.0
 30
0.0
  0
VERTEX
  5
AA
330
A9
100
AcDbEntity
  8
_U+30EC_U+30A4_U+30E4_U+30FC 1
 62
   179
420
  2234388
370
     9
100
AcDbVertex
100
AcDb2dVertex
 10
91.24508794992165
 20
-115.6702946933046
 30
0.0
  0
VERTEX
  5
AB
330
A9
100
AcDbEntity
  8
_U+30EC_U+30A4_U+30E4_U+30FC 1
 62
   179
420
  2234388
370
     9
100
AcDbVertex
100
AcDb2dVertex
 10
96.88953225036433
 20
-115.6702946933046
 30
0.0
  0
VERTEX
  5
AC
330
A9
100
AcDbEntity
  8
_U+30EC_U+30A4_U+30E4_U+30FC 1
 62
   179
420
  2234388
370
     9
100
AcDbVertex
100
AcDb2dVertex
 10
96.88953225036433
 20
-119.1980724702004
 30
0.0
  0
SEQEND
  5
AD
330
A9
100
AcDbEntity
  8
_U+30EC_U+30A4_U+30E4_U+30FC 1
 62
   179
420
  2234388
370
     9
  0
POLYLINE
  5
AE
330
1F
100
AcDbEntity
  8
_U+30EC_U+30A4_U+30E4_U+30FC 1
 62
   179
420
  2234388
370
     9
100
AcDb2dPolyline
 66
     1
 10
0.0
 20
0.0
 30
0.0
  0
VERTEX
  5
AF
330
AE
100
AcDbEntity
  8
_U+30EC_U+30A4_U+30E4_U+30FC 1
 62
   179
420
  2234388
370
     9
100
AcDbVertex
100
AcDb2dVertex
 10
78.31010300214282
 20
-145.8915321857497
 30
0.0
  0
VERTEX
  5
B0
330
AE
100
AcDbEntity
  8
_U+30EC_U+30A4_U+30E4_U+30FC 1
 62
   179
420
  2234388
370
     9
100
AcDbVertex
100
AcDb2dVertex
 10
84.1895325743683
 20
-145.8915321857497
 30
0.0
  0
SEQEND
  5
B1
330
AE
100
AcDbEntity
  8
_U+30EC_U+30A4_U+30E4_U+30FC 1
 62
   179
420
  2234388
370
     9
  0
POLYLINE
  5
B2
330
1F
100
AcDbEntity
  8
_U+30EC_U+30A4_U+30E4_U+30FC 1
 62
   179
420
  2234388
370
     9
100
AcDb2dPolyline
 66
     1
 10
0.0
 20
0.0
 30
0.0
  0
VERTEX
  5
B3
330
B2
100
AcDbEntity
  8
_U+30EC_U+30A4_U+30E4_U+30FC 1
 62
   179
420
  2234388
370
     9
100
AcDbVertex
100
AcDb2dVertex
 10
80.7795473835865
 20
-145.8329710746528
 30
0.0
  0
VERTEX
  5
B4
330
B2
100
AcDbEntity
  8
_U+30EC_U+30A4_U+30E4_U+30FC 1
 62
   179
420
  2234388
370
     9
100
AcDbVertex
100
AcDb2dVertex
 10
80.7795473835865
 20
-136.7785766324722
 30
0.0
  0
SEQEND
  5
B5
330
B2
100
AcDbEntity
  8
_U+30EC_U+30A4_U+30E4_U+30FC 1
 62
   179
420
  2234388
370
     9
  0
POLYLINE
  5
B6
330
1F
100
AcDbEntity
  8
_U+30EC_U+30A4_U+30E4_U+30FC 1
 62
   179
420
  2234388
370
     9
100
AcDb2dPolyline
 66
     1
 10
0.0
 20
0.0
 30
0.0
  0
VERTEX
  5
B7
330
B6
100
AcDbEntity
  8
_U+30EC_U+30A4_U+30E4_U+30FC 1
 62
   179
420
  2234388
370
     9
100
AcDbVertex
100
AcDb2dVertex
 10
82.13209734908007
 20
-145.8329710746528
 30
0.0
  0
VERTEX
  5
B8
330
B6
100
AcDbEntity
  8
_U+30EC_U+30A4_U+30E4_U+30FC 1
 62
   179
420
  2234388
370
     9
100
AcDbVertex
100
AcDb2dVertex
 10
82.13209734908007
 20
-136.8371377435684
 30
0.0
  0
SEQEND
  5
B9
330
B6
100
AcDbEntity
  8
_U+30EC_U+30A4_U+30E4_U+30FC 1
 62
   179
420
  2234388
370
     9
  0
POLYLINE
  5
BA
330
1F
100
AcDbEntity
  8
_U+30EC_U+30A4_U+30E4_U+30FC 1
 62
   179
420
  2234388
370
     9
100
AcDb2dPolyline
 66
     1
 10
0.0
 20
0.0
 30
0.0
  0
VERTEX
  5
BB
330
BA
100
AcDbEntity
  8
_U+30EC_U+30A4_U+30E4_U+30FC 1
 62
   179
420
  2234388
370
     9
100
AcDbVertex
100
AcDb2dVertex
 10
72.842047586089
 20
-149.5956988514903
 30
0.0
  0
VERTEX
  5
BC
330
BA
100
AcDbEntity
  8
_U+30EC_U+30A4_U+30E4_U+30FC 1
 62
   179
420
  2234388
370
     9
100
AcDbVertex
100
AcDb2dVertex
 10
77.6045474645875
 20
-149.5956988514903
 30
0.0
  0
VERTEX
  5
BD
330
BA
100
AcDbEntity
  8
_U+30EC_U+30A4_U+30E4_U+30FC 1
 62
   179
420
  2234388
370
     9
100
AcDbVertex
100
AcDb2dVertex
 10
81.48510292114183
 20
-145.9507988524014
 30
0.0
  0
SEQEND
  5
BE
330
BA
100
AcDbEntity
  8
_U+30EC_U+30A4_U+30E4_U+30FC 1
 62
   179
420
  2234388
370
     9
  0
POLYLINE
  5
BF
330
1F
100
AcDbEntity
  8
_U+30EC_U+30A4_U+30E4_U+30FC 1
 62
   179
420
  2234388
370
     9
100
AcDb2dPolyline
 66
     1
 10
0.0
 20
0.0
 30
0.0
  0
VERTEX
  5
C0
330
BF
100
AcDbEntity
  8
_U+30EC_U+30A4_U+30E4_U+30FC 1
 62
   179
420
  2234388
370
     9
100
AcDbVertex
100
AcDb2dVertex
 10
87.77654164952274
 20
-143.3635266308257
 30
0.0
  0
VERTEX
  5
C1
330
BF
100
AcDbEntity
  8
_U+30EC_U+30A4_U+30E4_U+30FC 1
 62
   179
420
  2234388
370
     9
100
AcDbVertex
100
AcDb2dVertex
 10
87.77654164952274
 20
-146.0093599634976
 30
0.0
  0
VERTEX
  5
C2
330
BF
100
AcDbEntity
  8
_U+30EC_U+30A4_U+30E4_U+30FC 1
 62
   179
420
  2234388
370
     9
100
AcDbVertex
100
AcDb2dVertex
 10
90.48093602497234
 20
-146.0093599634976
 30
0.0
  0
SEQEND
  5
C3
330
BF
100
AcDbEntity
  8
_U+30EC_U+30A4_U+30E4_U+30FC 1
 62
   179
420
  2234388
370
     9
  0
POLYLINE
  5
C4
330
1F
100
AcDbEntity
  8
_U+30EC_U+30A4_U+30E4_U+30FC 1
 62
   179
420
  2234388
370
     9
100
AcDb2dPolyline
 66
     1
 10
0.0
 20
0.0
 30
0.0
  0
VERTEX
  5
C5
330
C4
100
AcDbEntity
  8
_U+30EC_U+30A4_U+30E4_U+30FC 1
 62
   179
420
  2234388
370
     9
100
AcDbVertex
100
AcDb2dVertex
 10
94.24369898453182
 20
-146.0093599634976
 30
0.0
  0
VERTEX
  5
C6
330
C4
100
AcDbEntity
  8
_U+30EC_U+30A4_U+30E4_U+30FC 1
 62
   179
420
  2234388
370
     9
100
AcDbVertex
100
AcDb2dVertex
 10
97.53649140052569
 20
-146.0093599634976
 30
0.0
  0
VERTEX
  5
C7
330
C4
100
AcDbEntity
  8
_U+30EC_U+30A4_U+30E4_U+30FC 1
 62
   179
420
  2234388
370
     9
100
AcDbVertex
100
AcDb2dVertex
 10
97.59508778791965
 20
-127.2534002459646
 30
0.0
  0
SEQEND
  5
C8
330
C4
100
AcDbEntity
  8
_U+30EC_U+30A4_U+30E4_U+30FC 1
 62
   179
420
  2234388
370
     9
  0
POLYLINE
  5
C9
330
1F
100
AcDbEntity
  8
_U+30EC_U+30A4_U+30E4_U+30FC 1
 62
   179
420
  2234388
370
     9
100
AcDb2dPolyline
 66
     1
 10
0.0
 20
0.0
 30
0.0
  0
VERTEX
  5
CA
330
C9
100
AcDbEntity
  8
_U+30EC_U+30A4_U+30E4_U+30FC 1
 62
   179
420
  2234388
370
     9
100
AcDbVertex
100
AcDb2dVertex
 10
88.18788052791751
 20
-142.9521877420399
 30
0.0
  0
VERTEX
  5
CB
330
C9
100
AcDbEntity
  8
_U+30EC_U+30A4_U+30E4_U+30FC 1
 62
   179
420
  2234388
370
     9
100
AcDbVertex
100
AcDb2dVertex
 10
105.8853653541948
 20
-143.069309964233
 30
0.0
  0
VERTEX
  5
CC
330
C9
100
AcDbEntity
  8
_U+30EC_U+30A4_U+30E4_U+30FC 1
 62
   179
420
  2234388
370
     9
100
AcDbVertex
100
AcDb2dVertex
 10
105.8853653541948
 20
-136.8371377435684
 30
0.0
  0
SEQEND
  5
CD
330
C9
100
AcDbEntity
  8
_U+30EC_U+30A4_U+30E4_U+30FC 1
 62
   179
420
  2234388
370
     9
  0
POLYLINE
  5
CE
330
1F
100
AcDbEntity
  8
_U+30EC_U+30A4_U+30E4_U+30FC 1
 62
   179
420
  2234388
370
     9
100
AcDb2dPolyline
 66
     1
 10
0.0
 20
0.0
 30
0.0
  0
VERTEX
  5
CF
330
CE
100
AcDbEntity
  8
_U+30EC_U+30A4_U+30E4_U+30FC 1
 62
   179
420
  2234388
370
     9
100
AcDbVertex
100
AcDb2dVertex
 10
97.94786555669732
 20
-126.7827946905264
 30
0.0
  0
VERTEX
  5
D0
330
CE
100
AcDbEntity
  8
_U+30EC_U+30A4_U+30E4_U+30FC 1
 62
   179
420
  2234388
370
     9
100
AcDbVertex
100
AcDb2dVertex
 10
105.8267689668009
 20
-126.7827946905264
 30
0.0
  0
VERTEX
  5
D1
330
CE
100
AcDbEntity
  8
_U+30EC_U+30A4_U+30E4_U+30FC 1
 62
   179
420
  2234388
370
     9
100
AcDbVertex
100
AcDb2dVertex
 10
105.8267689668009
 20
-132.956582188983
 30
0.0
  0
SEQEND
  5
D2
330
CE
100
AcDbEntity
  8
_U+30EC_U+30A4_U+30E4_U+30FC 1
 62
   179
420
  2234388
370
     9
  0
INSERT
  5
D4
330
1F
100
AcDbEntity
  8
_U+30EC_U+30A4_U+30E4_U+30FC 1
100
AcDbBlockReference
  2
block 7
 10
0.0
 20
0.0
 30
0.0
  0
POLYLINE
  5
E1
330
1F
100
AcDbEntity
  8
_U+30EC_U+30A4_U+30E4_U+30FC 1
 62
   179
420
  2234388
370
     9
100
AcDb2dPolyline
 66
     1
 10
0.0
 20
0.0
 30
0.0
  0
VERTEX
  5
E2
330
E1
100
AcDbEntity
  8
_U+30EC_U+30A4_U+30E4_U+30FC 1
 62
   179
420
  2234388
370
     9
100
AcDbVertex
100
AcDb2dVertex
 10
92.85015624230628
 20
-119.6686780256386
 30
0.0
  0
VERTEX
  5
E3
330
E1
100
AcDbEntity
  8
_U+30EC_U+30A4_U+30E4_U+30FC 1
 62
   179
420
  2234388
370
     9
100
AcDbVertex
100
AcDb2dVertex
 10
95.34231951205923
 20
-111.2524585832982
 30
0.0
  0
VERTEX
  5
E4
330
E1
100
AcDbEntity
  8
_U+30EC_U+30A4_U+30E4_U+30FC 1
 62
   179
420
  2234388
370
     9
100
AcDbVertex
100
AcDb2dVertex
 10
101.3106138042398
 20
-111.2524585832982
 30
0.0
  0
SEQEND
  5
E5
330
E1
100
AcDbEntity
  8
_U+30EC_U+30A4_U+30E4_U+30FC 1
 62
   179
420
  2234388
370
     9
  0
INSERT
  5
E7
330
1F
100
AcDbEntity
  8
_U+30EC_U+30A4_U+30E4_U+30FC 1
100
AcDbBlockReference
  2
block 8
 10
0.0
 20
0.0
 30
0.0
  0
POLYLINE
  5
118
330
1F
100
AcDbEntity
  8
_U+30EC_U+30A4_U+30E4_U+30FC 1
 62
   179
420
  2234388
370
     9
100
AcDb2dPolyline
 66
     1
 10
0.0
 20
0.0
 30
0.0
  0
VERTEX
  5
119
330
118
100
AcDbEntity
  8
_U+30EC_U+30A4_U+30E4_U+30FC 1
 62
   179
420
  2234388
370
     9
100
AcDbVertex
100
AcDb2dVertex
 10
96.36347004156306
 20
-126.1597538573489
 30
0.0
  0
VERTEX
  5
11A
330
118
100
AcDbEntity
  8
_U+30EC_U+30A4_U+30E4_U+30FC 1
 62
   179
420
  2234388
370
     9
100
AcDbVertex
100
AcDb2dVertex
 10
100.6002277526275
 20
-123.3487146913852
 30
0.0
  0
VERTEX
  5
11B
330
118
100
AcDbEntity
  8
_U+30EC_U+30A4_U+30E4_U+30FC 1
 62
   179
420
  2234388
370
     9
100
AcDbVertex
100
AcDb2dVertex
 10
104.8190971960175
 20
-123.3487146913852
 30
0.0
  0
SEQEND
  5
11C
330
118
100
AcDbEntity
  8
_U+30EC_U+30A4_U+30E4_U+30FC 1
 62
   179
420
  2234388
370
     9
  0
ENDSEC
  0
SECTION
  2
OBJECTS
  0
DICTIONARY
  5
C
330
0
100
AcDbDictionary
281
     1
  3
ACAD_GROUP
350
D
  3
ACAD_LAYOUT
350
1A
  3
ACAD_MATERIAL
350
3B
  3
ACAD_MLEADERSTYLE
350
11E
  3
ACAD_MLINESTYLE
350
17
  3
ACAD_PLOTSETTINGS
350
19
  3
ACAD_PLOTSTYLENAME
350
E
  3
ACAD_TABLESTYLE
350
11D
  3
ACAD_VISUALSTYLE
350
2A
  0
SUN
  5
3F
330
29
100
AcDbSun
 90
        1
290
     0
 63
     7
421
 16777215
 40
1.0
291
     1
 91
  2455826
 92
 54000000
292
     0
 70
     2
 71
   256
280
     1
  0
DICTIONARY
  5
D
102
{ACAD_REACTORS
330
C
102
}
330
C
100
AcDbDictionary
281
     1
  0
DICTIONARY
  5
1A
102
{ACAD_REACTORS
330
C
102
}
330
C
100
AcDbDictionary
281
     1
  3
Layout1
350
1E
  3
Layout2
350
26
  3
Model
350
22
  0
DICTIONARY
  5
3B
102
{ACAD_REACTORS
330
C
102
}
330
C
100
AcDbDictionary
281
     1
  3
ByBlock
350
3D
  3
ByLayer
350
3C
  3
Global
350
3E
  0
DICTIONARY
  5
11E
102
{ACAD_REACTORS
330
C
102
}
330
C
100
AcDbDictionary
281
     1
  0
DICTIONARY
  5
17
102
{ACAD_REACTORS
330
C
102
}
330
C
100
AcDbDictionary
281
     1
  3
Standard
350
18
  0
DICTIONARY
  5
19
102
{ACAD_REACTORS
330
C
102
}
330
C
100
AcDbDictionary
281
     1
  0
ACDBDICTIONARYWDFLT
  5
E
102
{ACAD_REACTORS
330
C
102
}
330
C
100
AcDbDictionary
281
     1
  3
Normal
350
F
100
AcDbDictionaryWithDefault
340
F
  0
DICTIONARY
  5
11D
102
{ACAD_REACTORS
330
C
102
}
330
C
100
AcDbDictionary
281
     1
  0
DICTIONARY
  5
2A
102
{ACAD_REACTORS
330
C
102
}
330
C
100
AcDbDictionary
281
     1
  3
2dWireframe
350
2F
  3
3D Hidden
350
31
  3
3dWireframe
350
30
  3
Basic
350
32
  3
Brighten
350
36
  3
ColorChange
350
3A
  3
Conceptual
350
34
  3
Dim
350
35
  3
Facepattern
350
39
  3
Flat
350
2B
  3
FlatWithEdges
350
2C
  3
Gouraud
350
2D
  3
GouraudWithEdges
350
2E
  3
Linepattern
350
38
  3
Realistic
350
33
  3
Thicken
350
37
  0
LAYOUT
  5
1E
102
{ACAD_REACTORS
330
1A
102
}
330
1A
100
AcDbPlotSettings
  1

  2
none_device
  4

  6

 40
0.0
 41
0.0
 42
0.0
 43
0.0
 44
0.0
 45
0.0
 46
0.0
 47
0.0
 48
0.0
 49
0.0
140
0.0
141
0.0
142
1.0
143
1.0
 70
   688
 72
     0
 73
     0
 74
     5
  7

 75
    16
 76
     0
 77
     2
 78
   300
147
1.0
148
0.0
149
0.0
100
AcDbLayout
  1
Layout1
 70
     1
 71
     1
 10
0.0
 20
0.0
 11
12.0
 21
9.0
 12
0.0
 22
0.0
 32
0.0
 14
1.000000000000000E+20
 24
1.000000000000000E+20
 34
1.000000000000000E+20
 15
-1.000000000000000E+20
 25
-1.000000000000000E+20
 35
-1.000000000000000E+20
146
0.0
 13
0.0
 23
0.0
 33
0.0
 16
1.0
 26
0.0
 36
0.0
 17
0.0
 27
1.0
 37
0.0
 76
     0
330
1B
  0
LAYOUT
  5
26
102
{ACAD_REACTORS
330
1A
102
}
330
1A
100
AcDbPlotSettings
  1

  2
none_device
  4

  6

 40
0.0
 41
0.0
 42
0.0
 43
0.0
 44
0.0
 45
0.0
 46
0.0
 47
0.0
 48
0.0
 49
0.0
140
0.0
141
0.0
142
1.0
143
1.0
 70
   688
 72
     0
 73
     0
 74
     5
  7

 75
    16
 76
     0
 77
     2
 78
   300
147
1.0
148
0.0
149
0.0
100
AcDbLayout
  1
Layout2
 70
     1
 71
     2
 10
0.0
 20
0.0
 11
0.0
 21
0.0
 12
0.0
 22
0.0
 32
0.0
 14
0.0
 24
0.0
 34
0.0
 15
0.0
 25
0.0
 35
0.0
146
0.0
 13
0.0
 23
0.0
 33
0.0
 16
1.0
 26
0.0
 36
0.0
 17
0.0
 27
1.0
 37
0.0
 76
     0
330
23
  0
LAYOUT
  5
22
102
{ACAD_REACTORS
330
1A
102
}
330
1A
100
AcDbPlotSettings
  1

  2
none_device
  4

  6

 40
0.0
 41
0.0
 42
0.0
 43
0.0
 44
0.0
 45
0.0
 46
0.0
 47
0.0
 48
0.0
 49
0.0
140
0.0
141
0.0
142
1.0
143
1.0
 70
  1712
 72
     0
 73
     0
 74
     0
  7

 75
     0
 76
     0
 77
     2
 78
   300
147
1.0
148
0.0
149
0.0
100
AcDbLayout
  1
Model
 70
     1
 71
     0
 10
0.0
 20
0.0
 11
12.0
 21
9.0
 12
0.0
 22
0.0
 32
0.0
 14
1.000000000000000E+20
 24
1.000000000000000E+20
 34
1.000000000000000E+20
 15
-1.000000000000000E+20
 25
-1.000000000000000E+20
 35
-1.000000000000000E+20
146
0.0
 13
0.0
 23
0.0
 33
0.0
 16
1.0
 26
0.0
 36
0.0
 17
0.0
 27
1.0
 37
0.0
 76
     0
330
1F
331
29
  0
MATERIAL
  5
3D
102
{ACAD_REACTORS
330
3B
102
}
330
3B
100
AcDbMaterial
  1
ByBlock
 72
     1
 94
      127
  0
MATERIAL
  5
3C
102
{ACAD_REACTORS
330
3B
102
}
330
3B
100
AcDbMaterial
  1
ByLayer
 72
     1
 94
      127
  0
MATERIAL
  5
3E
102
{ACAD_REACTORS
330
3B
102
}
330
3B
100
AcDbMaterial
  1
Global
 72
     1
 94
      127
  0
MLINESTYLE
  5
18
102
{ACAD_REACTORS
330
17
102
}
330
17
100
AcDbMlineStyle
  2
Standard
 70
     0
  3

 62
   256
 51
90.0
 52
90.0
 71
     2
 49
0.5
 62
   256
  6
BYLAYER
 49
-0.5
 62
   256
  6
BYLAYER
  0
ACDBPLACEHOLDER
  5
F
102
{ACAD_REACTORS
330
E
102
}
330
E
  0
VISUALSTYLE
  5
2F
102
{ACAD_REACTORS
330
2A
102
}
330
2A
100
AcDbVisualStyle
  2
2dWireframe
 70
     4
177
     2
291
     0
 71
     0
176
     1
 72
     2
176
     1
 73
     0
176
     1
 90
        0
176
     1
 40
-0.6
176
     1
 41
-30.0
176
     1
 62
     5
 63
     7
421
 16777215
176
     1
 74
     1
176
     1
 91
        4
176
     1
 64
     7
176
     1
 65
   257
176
     1
 75
     1
176
     1
175
     1
176
     1
 42
1.0
176
     1
 92
        0
176
     1
 66
   257
176
     1
 43
1.0
176
     1
 76
     1
176
     1
 77
     6
176
     1
 78
     2
176
     1
 67
     7
176
     1
 79
     5
176
     1
170
     0
176
     1
171
     0
176
     1
290
     0
176
     1
 93
        1
176
     1
 44
0.0
176
     1
173
     0
176
     1
  0
VISUALSTYLE
  5
31
102
{ACAD_REACTORS
330
2A
102
}
330
2A
100
AcDbVisualStyle
  2
3D Hidden
 70
     6
177
     2
291
     0
 71
     1
176
     1
 72
     2
176
     1
 73
     2
176
     1
 90
        0
176
     1
 40
-0.6
176
     1
 41
-30.0
176
     1
 62
     5
 63
     7
421
 16777215
176
     1
 74
     2
176
     1
 91
        2
176
     1
 64
     7
176
     1
 65
   257
176
     1
 75
     2
176
     1
175
     1
176
     1
 42
40.0
176
     1
 92
        0
176
     1
 66
   257
176
     1
 43
1.0
176
     1
 76
     1
176
     1
 77
     6
176
     1
 78
     2
176
     1
 67
     7
176
     1
 79
     3
176
     1
170
     0
176
     1
171
     0
176
     1
290
     0
176
     1
 93
        1
176
     1
 44
0.0
176
     1
173
     0
176
     1
  0
VISUALSTYLE
  5
30
102
{ACAD_REACTORS
330
2A
102
}
330
2A
100
AcDbVisualStyle
  2
3dWireframe
 70
     5
177
     2
291
     0
 71
     0
176
     1
 72
     2
176
     1
 73
     0
176
     1
 90
        0
176
     1
 40
-0.6
176
     1
 41
-30.0
176
     1
 62
     5
 63
     7
421
 16777215
176
     1
 74
     1
176
     1
 91
        4
176
     1
 64
     7
176
     1
 65
   257
176
     1
 75
     1
176
     1
175
     1
176
     1
 42
1.0
176
     1
 92
        0
176
     1
 66
   257
176
     1
 43
1.0
176
     1
 76
     1
176
     1
 77
     6
176
     1
 78
     2
176
     1
 67
     7
176
     1
 79
     5
176
     1
170
     0
176
     1
171
     0
176
     1
290
     0
176
     1
 93
        1
176
     1
 44
0.0
176
     1
173
     0
176
     1
  0
VISUALSTYLE
  5
32
102
{ACAD_REACTORS
330
2A
102
}
330
2A
100
AcDbVisualStyle
  2
Basic
 70
     7
177
     2
291
     1
 71
     1
176
     1
 72
     0
176
     1
 73
     1
176
     1
 90
        0
176
     1
 40
-0.6
176
     1
 41
-30.0
176
     1
 62
     5
 63
     7
421
 16777215
176
     1
 74
     0
176
     1
 91
        4
176
     1
 64
     7
176
     1
 65
   257
176
     1
 75
     1
176
     1
175
     1
176
     1
 42
1.0
176
     1
 92
        8
176
     1
 66
     7
176
     1
 43
1.0
176
     1
 76
     1
176
     1
 77
     6
176
     1
 78
     2
176
     1
 67
     7
176
     1
 79
     5
176
     1
170
     0
176
     1
171
     0
176
     1
290
     0
176
     1
 93
        1
176
     1
 44
0.0
176
     1
173
     0
176
     1
  0
VISUALSTYLE
  5
36
102
{ACAD_REACTORS
330
2A
102
}
330
2A
100
AcDbVisualStyle
  2
Brighten
 70
    12
177
     2
291
     1
 71
     2
176
     1
 72
     2
176
     1
 73
     0
176
     1
 90
        0
176
     1
 40
-0.6
176
     1
 41
-30.0
176
     1
 62
     5
 63
     7
421
 16777215
176
     1
 74
     1
176
     1
 91
        4
176
     1
 64
     7
176
     1
 65
   257
176
     1
 75
     1
176
     1
175
     1
176
     1
 42
1.0
176
     1
 92
        8
176
     1
 66
     7
176
     1
 43
1.0
176
     1
 76
     1
176
     1
 77
     6
176
     1
 78
     2
176
     1
 67
     7
176
     1
 79
     5
176
     1
170
     0
176
     1
171
     0
176
     1
290
     0
176
     1
 93
        1
176
     1
 44
50.0
176
     1
173
     0
176
     1
  0
VISUALSTYLE
  5
3A
102
{ACAD_REACTORS
330
2A
102
}
330
2A
100
AcDbVisualStyle
  2
ColorChange
 70
    16
177
     2
291
     1
 71
     2
176
     1
 72
     2
176
     1
 73
     3
176
     1
 90
        0
176
     1
 40
-0.6
176
     1
 41
-30.0
176
     1
 62
     5
 63
     8
421
  8421504
176
     1
 74
     1
176
     1
 91
        4
176
     1
 64
     7
176
     1
 65
   257
176
     1
 75
     1
176
     1
175
     1
176
     1
 42
1.0
176
     1
 92
        8
176
     1
 66
     8
424
  8421504
176
     1
 43
1.0
176
     1
 76
     1
176
     1
 77
     6
176
     1
 78
     2
176
     1
 67
     7
176
     1
 79
     5
176
     1
170
     0
176
     1
171
     0
176
     1
290
     0
176
     1
 93
        1
176
     1
 44
0.0
176
     1
173
     0
176
     1
  0
VISUALSTYLE
  5
34
102
{ACAD_REACTORS
330
2A
102
}
330
2A
100
AcDbVisualStyle
  2
Conceptual
 70
     9
177
     2
291
     0
 71
     3
176
     1
 72
     2
176
     1
 73
     0
176
     1
 90
        0
176
     1
 40
-0.6
176
     1
 41
-30.0
176
     1
 62
     5
 63
     7
421
 16777215
176
     1
 74
     2
176
     1
 91
        2
176
     1
 64
     7
176
     1
 65
   257
176
     1
 75
     1
176
     1
175
     1
176
     1
 42
40.0
176
     1
 92
        8
176
     1
 66
     7
176
     1
 43
1.0
176
     1
 76
     1
176
     1
 77
     6
176
     1
 78
     2
176
     1
 67
     7
176
     1
 79
     3
176
     1
170
     0
176
     1
171
     0
176
     1
290
     0
176
     1
 93
        1
176
     1
 44
0.0
176
     1
173
     0
176
     1
  0
VISUALSTYLE
  5
35
102
{ACAD_REACTORS
330
2A
102
}
330
2A
100
AcDbVisualStyle
  2
Dim
 70
    11
177
     2
291
     1
 71
     2
176
     1
 72
     2
176
     1
 73
     0
176
     1
 90
        0
176
     1
 40
-0.6
176
     1
 41
-30.0
176
     1
 62
     5
 63
     7
421
 16777215
176
     1
 74
     1
176
     1
 91
        4
176
     1
 64
     7
176
     1
 65
   257
176
     1
 75
     1
176
     1
175
     1
176
     1
 42
1.0
176
     1
 92
        8
176
     1
 66
     7
176
     1
 43
1.0
176
     1
 76
     1
176
     1
 77
     6
176
     1
 78
     2
176
     1
 67
     7
176
     1
 79
     5
176
     1
170
     0
176
     1
171
     0
176
     1
290
     0
176
     1
 93
        1
176
     1
 44
-50.0
176
     1
173
     0
176
     1
  0
VISUALSTYLE
  5
39
102
{ACAD_REACTORS
330
2A
102
}
330
2A
100
AcDbVisualStyle
  2
Facepattern
 70
    15
177
     2
291
     1
 71
     2
176
     1
 72
     2
176
     1
 73
     0
176
     1
 90
        0
176
     1
 40
-0.6
176
     1
 41
-30.0
176
     1
 62
     5
 63
     7
421
 16777215
176
     1
 74
     1
176
     1
 91
        4
176
     1
 64
     7
176
     1
 65
   257
176
     1
 75
     1
176
     1
175
     1
176
     1
 42
1.0
176
     1
 92
        8
176
     1
 66
     7
176
     1
 43
1.0
176
     1
 76
     1
176
     1
 77
     6
176
     1
 78
     2
176
     1
 67
     7
176
     1
 79
     5
176
     1
170
     0
176
     1
171
     0
176
     1
290
     0
176
     1
 93
        1
176
     1
 44
0.0
176
     1
173
     0
176
     1
  0
VISUALSTYLE
  5
2B
102
{ACAD_REACTORS
330
2A
102
}
330
2A
100
AcDbVisualStyle
  2
Flat
 70
     0
177
     2
291
     1
 71
     2
176
     1
 72
     1
176
     1
 73
     1
176
     1
 90
        2
176
     1
 40
-0.6
176
     1
 41
30.0
176
     1
 62
     5
 63
     7
421
 16777215
176
     1
 74
     0
176
     1
 91
        4
176
     1
 64
     7
176
     1
 65
   257
176
     1
 75
     1
176
     1
175
     1
176
     1
 42
1.0
176
     1
 92
        8
176
     1
 66
     7
176
     1
 43
1.0
176
     1
 76
     1
176
     1
 77
     6
176
     1
 78
     2
176
     1
 67
     7
176
     1
 79
     5
176
     1
170
     0
176
     1
171
     0
176
     1
290
     0
176
     1
 93
       13
176
     1
 44
0.0
176
     1
173
     0
176
     1
  0
VISUALSTYLE
  5
2C
102
{ACAD_REACTORS
330
2A
102
}
330
2A
100
AcDbVisualStyle
  2
FlatWithEdges
 70
     1
177
     2
291
     1
 71
     2
176
     1
 72
     1
176
     1
 73
     1
176
     1
 90
        2
176
     1
 40
-0.6
176
     1
 41
30.0
176
     1
 62
     5
 63
     7
421
 16777215
176
     1
 74
     1
176
     1
 91
        4
176
     1
 64
     7
176
     1
 65
   257
176
     1
 75
     1
176
     1
175
     1
176
     1
 42
1.0
176
     1
 92
        0
176
     1
 66
   257
176
     1
 43
1.0
176
     1
 76
     1
176
     1
 77
     6
176
     1
 78
     2
176
     1
 67
     7
176
     1
 79
     5
176
     1
170
     0
176
     1
171
     0
176
     1
290
     0
176
     1
 93
       13
176
     1
 44
0.0
176
     1
173
     0
176
     1
  0
VISUALSTYLE
  5
2D
102
{ACAD_REACTORS
330
2A
102
}
330
2A
100
AcDbVisualStyle
  2
Gouraud
 70
     2
177
     2
291
     1
 71
     2
176
     1
 72
     2
176
     1
 73
     1
176
     1
 90
        2
176
     1
 40
-0.6
176
     1
 41
30.0
176
     1
 62
     5
 63
     7
421
 16777215
176
     1
 74
     0
176
     1
 91
        4
176
     1
 64
     7
176
     1
 65
   257
176
     1
 75
     1
176
     1
175
     1
176
     1
 42
1.0
176
     1
 92
        0
176
     1
 66
     7
176
     1
 43
1.0
176
     1
 76
     1
176
     1
 77
     6
176
     1
 78
     2
176
     1
 67
     7
176
     1
 79
     5
176
     1
170
     0
176
     1
171
     0
176
     1
290
     0
176
     1
 93
       13
176
     1
 44
0.0
176
     1
173
     0
176
     1
  0
VISUALSTYLE
  5
2E
102
{ACAD_REACTORS
330
2A
102
}
330
2A
100
AcDbVisualStyle
  2
GouraudWithEdges
 70
     3
177
     2
291
     1
 71
     2
176
     1
 72
     2
176
     1
 73
     1
176
     1
 90
        2
176
     1
 40
-0.6
176
     1
 41
30.0
176
     1
 62
     5
 63
     7
421
 16777215
176
     1
 74
     1
176
     1
 91
        4
176
     1
 64
     7
176
     1
 65
   257
176
     1
 75
     1
176
     1
175
     1
176
     1
 42
1.0
176
     1
 92
        0
176
     1
 66
   257
176
     1
 43
1.0
176
     1
 76
     1
176
     1
 77
     6
176
     1
 78
     2
176
     1
 67
     7
176
     1
 79
     5
176
     1
170
     0
176
     1
171
     0
176
     1
290
     0
176
     1
 93
       13
176
     1
 44
0.0
176
     1
173
     0
176
     1
  0
VISUALSTYLE
  5
38
102
{ACAD_REACTORS
330
2A
102
}
330
2A
100
AcDbVisualStyle
  2
Linepattern
 70
    14
177
     2
291
     1
 71
     2
176
     1
 72
     2
176
     1
 73
     0
176
     1
 90
        0
176
     1
 40
-0.6
176
     1
 41
-30.0
176
     1
 62
     5
 63
     7
421
 16777215
176
     1
 74
     1
176
     1
 91
        4
176
     1
 64
     7
176
     1
 65
   257
176
     1
 75
     7
176
     1
175
     7
176
     1
 42
1.0
176
     1
 92
        8
176
     1
 66
     7
176
     1
 43
1.0
176
     1
 76
     1
176
     1
 77
     6
176
     1
 78
     2
176
     1
 67
     7
176
     1
 79
     5
176
     1
170
     0
176
     1
171
     0
176
     1
290
     0
176
     1
 93
        1
176
     1
 44
0.0
176
     1
173
     0
176
     1
  0
VISUALSTYLE
  5
33
102
{ACAD_REACTORS
330
2A
102
}
330
2A
100
AcDbVisualStyle
  2
Realistic
 70
     8
177
     2
291
     0
 71
     2
176
     1
 72
     2
176
     1
 73
     0
176
     1
 90
        0
176
     1
 40
-0.6
176
     1
 41
-30.0
176
     1
 62
     5
 63
     7
421
 16777215
176
     1
 74
     1
176
     1
 91
        0
176
     1
 64
     7
176
     1
 65
   257
176
     1
 75
     1
176
     1
175
     1
176
     1
 42
1.0
176
     1
 92
        8
176
     1
 66
     8
424
  7895160
176
     1
 43
1.0
176
     1
 76
     1
176
     1
 77
     6
176
     1
 78
     2
176
     1
 67
     7
176
     1
 79
     5
176
     1
170
     0
176
     1
171
     0
176
     1
290
     0
176
     1
 93
       13
176
     1
 44
0.0
176
     1
173
     0
176
     1
  0
VISUALSTYLE
  5
37
102
{ACAD_REACTORS
330
2A
102
}
330
2A
100
AcDbVisualStyle
  2
Thicken
 70
    13
177
     2
291
     1
 71
     2
176
     1
 72
     2
176
     1
 73
     0
176
     1
 90
        0
176
     1
 40
-0.6
176
     1
 41
-30.0
176
     1
 62
     5
 63
     7
421
 16777215
176
     1
 74
     1
176
     1
 91
        4
176
     1
 64
     7
176
     1
 65
   257
176
     1
 75
     1
176
     1
175
     1
176
     1
 42
1.0
176
     1
 92
       12
176
     1
 66
     7
176
     1
 43
1.0
176
     1
 76
     1
176
     1
 77
     6
176
     1
 78
     2
176
     1
 67
     7
176
     1
 79
     5
176
     1
170
     0
176
     1
171
     0
176
     1
290
     0
176
     1
 93
        1
176
     1
 44
0.0
176
     1
173
     0
176
     1
  0
ENDSEC
  0
EOF
