  0
SECTION
  2
HEADER
  9
$ACADVER
  1
AC1024
  9
$ACADMAINTVER
 70
     6
  9
$DWGCODEPAGE
  3
UNDEFINED
  9
$INSBASE
 10
0.0
 20
0.0
 30
0.0
  9
$EXTMIN
 10
1.000000000000000E+20
 20
1.000000000000000E+20
 30
1.000000000000000E+20
  9
$EXTMAX
 10
-1.000000000000000E+20
 20
-1.000000000000000E+20
 30
-1.000000000000000E+20
  9
$LIMMIN
 10
0.0
 20
0.0
  9
$LIMMAX
 10
12.0
 20
9.0
  9
$ORTHOMODE
 70
     0
  9
$REGENMODE
 70
     1
  9
$FILLMODE
 70
     1
  9
$QTEXTMODE
 70
     0
  9
$MIRRTEXT
 70
     1
  9
$LTSCALE
 40
1.0
  9
$ATTMODE
 70
     1
  9
$TEXTSIZE
 40
0.2
  9
$TRACEWID
 40
0.05
  9
$TEXTSTYLE
  7
Standard
  9
$CLAYER
  8
0
  9
$CELTYPE
  6
ByLayer
  9
$CECOLOR
 62
   256
  9
$CELTSCALE
 40
1.0
  9
$DISPSILH
 70
     0
  9
$DIMSCALE
 40
1.0
  9
$DIMASZ
 40
0.18
  9
$DIMEXO
 40
0.0625
  9
$DIMDLI
 40
0.38
  9
$DIMRND
 40
0.0
  9
$DIMDLE
 40
0.0
  9
$DIMEXE
 40
0.18
  9
$DIMTP
 40
0.0
  9
$DIMTM
 40
0.0
  9
$DIMTXT
 40
0.18
  9
$DIMCEN
 40
0.09
  9
$DIMTSZ
 40
0.0
  9
$DIMTOL
 70
     0
  9
$DIMLIM
 70
     0
  9
$DIMTIH
 70
     1
  9
$DIMTOH
 70
     1
  9
$DIMSE1
 70
     0
  9
$DIMSE2
 70
     0
  9
$DIMTAD
 70
     0
  9
$DIMZIN
 70
     0
  9
$DIMBLK
  1

  9
$DIMASO
 70
     1
  9
$DIMSHO
 70
     1
  9
$DIMPOST
  1

  9
$DIMAPOST
  1

  9
$DIMALT
 70
     0
  9
$DIMALTD
 70
     2
  9
$DIMALTF
 40
25.4
  9
$DIMLFAC
 40
1.0
  9
$DIMTOFL
 70
     0
  9
$DIMTVP
 40
0.0
  9
$DIMTIX
 70
     0
  9
$DIMSOXD
 70
     0
  9
$DIMSAH
 70
     0
  9
$DIMBLK1
  1

  9
$DIMBLK2
  1

  9
$DIMSTYLE
  2
Standard
  9
$DIMCLRD
 70
     0
  9
$DIMCLRE
 70
     0
  9
$DIMCLRT
 70
     0
  9
$DIMTFAC
 40
1.0
  9
$DIMGAP
 40
0.09
  9
$DIMJUST
 70
     0
  9
$DIMSD1
 70
     0
  9
$DIMSD2
 70
     0
  9
$DIMTOLJ
 70
     1
  9
$DIMTZIN
 70
     0
  9
$DIMALTZ
 70
     0
  9
$DIMALTTZ
 70
     0
  9
$DIMUPT
 70
     0
  9
$DIMDEC
 70
     4
  9
$DIMTDEC
 70
     4
  9
$DIMALTU
 70
     2
  9
$DIMALTTD
 70
     2
  9
$DIMTXSTY
  7
Standard
  9
$DIMAUNIT
 70
     0
  9
$DIMADEC
 70
     0
  9
$DIMALTRND
 40
0.0
  9
$DIMAZIN
 70
     0
  9
$DIMDSEP
 70
    46
  9
$DIMATFIT
 70
     3
  9
$DIMFRAC
 70
     0
  9
$DIMLDRBLK
  1

  9
$DIMLUNIT
 70
     2
  9
$DIMLWD
 70
    -2
  9
$DIMLWE
 70
    -2
  9
$DIMTMOVE
 70
     0
  9
$DIMFXL
 40
1.0
  9
$DIMFXLON
 70
     0
  9
$DIMJOGANG
 40
0.7853981633974483
  9
$DIMTFILL
 70
     0
  9
$DIMTFILLCLR
 70
     0
  9
$DIMARCSYM
 70
     0
  9
$DIMLTYPE
  6

  9
$DIMLTEX1
  6

  9
$DIMLTEX2
  6

  9
$DIMTXTDIRECTION
 70
     0
  9
$LUNITS
 70
     2
  9
$LUPREC
 70
     4
  9
$SKETCHINC
 40
0.1
  9
$FILLETRAD
 40
0.5
  9
$AUNITS
 70
     0
  9
$AUPREC
 70
     0
  9
$MENU
  1
.
  9
$ELEVATION
 40
0.0
  9
$PELEVATION
 40
0.0
  9
$THICKNESS
 40
0.0
  9
$LIMCHECK
 70
     0
  9
$CHAMFERA
 40
0.5
  9
$CHAMFERB
 40
0.5
  9
$CHAMFERC
 40
1.0
  9
$CHAMFERD
 40
0.0
  9
$SKPOLY
 70
     0
  9
$TDCREATE
 40
2457917.607638889
  9
$TDUCREATE
 40
2457917.232638889
  9
$TDUPDATE
 40
2457917.607638889
  9
$TDUUPDATE
 40
2457917.232638889
  9
$TDINDWG
 40
0.0000000116
  9
$TDUSRTIMER
 40
0.0000000116
  9
$USRTIMER
 70
     1
  9
$ANGBASE
 50
0.0
  9
$ANGDIR
 70
     0
  9
$PDMODE
 70
     0
  9
$PDSIZE
 40
0.0
  9
$PLINEWID
 40
0.0
  9
$SPLFRAME
 70
     0
  9
$SPLINETYPE
 70
     6
  9
$SPLINESEGS
 70
     8
  9
$HANDSEED
  5
176
  9
$SURFTAB1
 70
     6
  9
$SURFTAB2
 70
     6
  9
$SURFTYPE
 70
     6
  9
$SURFU
 70
     6
  9
$SURFV
 70
     6
  9
$UCSBASE
  2

  9
$UCSNAME
  2

  9
$UCSORG
 10
0.0
 20
0.0
 30
0.0
  9
$UCSXDIR
 10
1.0
 20
0.0
 30
0.0
  9
$UCSYDIR
 10
0.0
 20
1.0
 30
0.0
  9
$UCSORTHOREF
  2

  9
$UCSORTHOVIEW
 70
     0
  9
$UCSORGTOP
 10
0.0
 20
0.0
 30
0.0
  9
$UCSORGBOTTOM
 10
0.0
 20
0.0
 30
0.0
  9
$UCSORGLEFT
 10
0.0
 20
0.0
 30
0.0
  9
$UCSORGRIGHT
 10
0.0
 20
0.0
 30
0.0
  9
$UCSORGFRONT
 10
0.0
 20
0.0
 30
0.0
  9
$UCSORGBACK
 10
0.0
 20
0.0
 30
0.0
  9
$PUCSBASE
  2

  9
$PUCSNAME
  2

  9
$PUCSORG
 10
0.0
 20
0.0
 30
0.0
  9
$PUCSXDIR
 10
1.0
 20
0.0
 30
0.0
  9
$PUCSYDIR
 10
0.0
 20
1.0
 30
0.0
  9
$PUCSORTHOREF
  2

  9
$PUCSORTHOVIEW
 70
     0
  9
$PUCSORGTOP
 10
0.0
 20
0.0
 30
0.0
  9
$PUCSORGBOTTOM
 10
0.0
 20
0.0
 30
0.0
  9
$PUCSORGLEFT
 10
0.0
 20
0.0
 30
0.0
  9
$PUCSORGRIGHT
 10
0.0
 20
0.0
 30
0.0
  9
$PUCSORGFRONT
 10
0.0
 20
0.0
 30
0.0
  9
$PUCSORGBACK
 10
0.0
 20
0.0
 30
0.0
  9
$USERI1
 70
     0
  9
$USERI2
 70
     0
  9
$USERI3
 70
     0
  9
$USERI4
 70
     0
  9
$USERI5
 70
     0
  9
$USERR1
 40
0.0
  9
$USERR2
 40
0.0
  9
$USERR3
 40
0.0
  9
$USERR4
 40
0.0
  9
$USERR5
 40
0.0
  9
$WORLDVIEW
 70
     1
  9
$SHADEDGE
 70
     3
  9
$SHADEDIF
 70
    70
  9
$TILEMODE
 70
     1
  9
$MAXACTVP
 70
    64
  9
$PINSBASE
 10
0.0
 20
0.0
 30
0.0
  9
$PLIMCHECK
 70
     0
  9
$PEXTMIN
 10
1.000000000000000E+20
 20
1.000000000000000E+20
 30
1.000000000000000E+20
  9
$PEXTMAX
 10
-1.000000000000000E+20
 20
-1.000000000000000E+20
 30
-1.000000000000000E+20
  9
$PLIMMIN
 10
0.0
 20
0.0
  9
$PLIMMAX
 10
12.0
 20
9.0
  9
$UNITMODE
 70
     0
  9
$VISRETAIN
 70
     1
  9
$PLINEGEN
 70
     0
  9
$PSLTSCALE
 70
     1
  9
$TREEDEPTH
 70
  3020
  9
$CMLSTYLE
  2
Standard
  9
$CMLJUST
 70
     0
  9
$CMLSCALE
 40
1.0
  9
$PROXYGRAPHICS
 70
     1
  9
$MEASUREMENT
 70
     0
  9
$CELWEIGHT
370
    -1
  9
$ENDCAPS
280
     0
  9
$JOINSTYLE
280
     0
  9
$LWDISPLAY
290
     1
  9
$INSUNITS
 70
     1
  9
$HYPERLINKBASE
  1

  9
$STYLESHEET
  1

  9
$XEDIT
290
     1
  9
$CEPSNTYPE
380
     0
  9
$PSTYLEMODE
290
     1
  9
$FINGERPRINTGUID
  2
{EC1D9B96-493E-A534-68D9-FF7453D14939}
  9
$VERSIONGUID
  2
{FAEB1C32-E019-11D5-929B-00C0DF256EC4}
  9
$EXTNAMES
290
     1
  9
$PSVPSCALE
 40
0.0
  9
$OLESTARTUP
290
     0
  9
$SORTENTS
280
   127
  9
$INDEXCTL
280
     0
  9
$HIDETEXT
280
     1
  9
$XCLIPFRAME
280
     2
  9
$HALOGAP
280
     0
  9
$OBSCOLOR
 70
   257
  9
$OBSLTYPE
280
     0
  9
$INTERSECTIONDISPLAY
280
     0
  9
$INTERSECTIONCOLOR
 70
   257
  9
$DIMASSOC
280
     2
  9
$PROJECTNAME
  1

  9
$CAMERADISPLAY
290
     0
  9
$LENSLENGTH
 40
50.0
  9
$CAMERAHEIGHT
 40
0.0
  9
$STEPSPERSEC
 40
2.0
  9
$STEPSIZE
 40
6.0
  9
$3DDWFPREC
 40
2.0
  9
$PSOLWIDTH
 40
0.25
  9
$PSOLHEIGHT
 40
4.0
  9
$LOFTANG1
 40
1.570796326794897
  9
$LOFTANG2
 40
1.570796326794897
  9
$LOFTMAG1
 40
0.0
  9
$LOFTMAG2
 40
0.0
  9
$LOFTPARAM
 70
     7
  9
$LOFTNORMALS
280
     1
  9
$LATITUDE
 40
37.795
  9
$LONGITUDE
 40
-122.394
  9
$NORTHDIRECTION
 40
0.0
  9
$TIMEZONE
 70
 -8000
  9
$LIGHTGLYPHDISPLAY
280
     1
  9
$TILEMODELIGHTSYNCH
280
     1
  9
$CMATERIAL
347
3C
  9
$SOLIDHIST
280
     1
  9
$SHOWHIST
280
     1
  9
$DWFFRAME
280
     2
  9
$DGNFRAME
280
     2
  9
$REALWORLDSCALE
290
     1
  9
$INTERFERECOLOR
 62
   256
  9
$CSHADOW
280
     0
  9
$SHADOWPLANELOCATION
 40
0.0
  0
ENDSEC
  0
SECTION
  2
CLASSES
  0
CLASS
  1
ACDBDICTIONARYWDFLT
  2
AcDbDictionaryWithDefault
  3
ObjectDBX Classes
 90
        0
 91
        4
280
     0
281
     0
  0
CLASS
  1
VISUALSTYLE
  2
AcDbVisualStyle
  3
ObjectDBX Classes
 90
     4095
 91
        4
280
     0
281
     0
  0
CLASS
  1
MATERIAL
  2
AcDbMaterial
  3
ObjectDBX Classes
 90
     1153
 91
        4
280
     0
281
     0
  0
CLASS
  1
SUN
  2
AcDbSun
  3
SCENEOE
 90
     1024
 91
        4
280
     0
281
     0
  0
ENDSEC
  0
SECTION
  2
TABLES
  0
TABLE
  2
VPORT
  5
8
330
0
100
AcDbSymbolTable
 70
     1
  0
VPORT
  5
29
330
8
100
AcDbSymbolTableRecord
100
AcDbViewportTableRecord
  2
*Active
 70
     0
 10
0.0
 20
0.0
 11
1.0
 21
1.0
 12
0.0
 22
0.0
 13
0.0
 23
0.0
 14
0.5
 24
0.5
 15
0.5
 25
0.5
 16
0.0
 26
0.0
 36
1.0
 17
91.00082462281999
 27
-128.4993055234307
 37
0.0
 40
256.9986110468615
 41
0.7081814508812795
 42
50.0
 43
0.0
 44
0.0
 50
0.0
 51
0.0
 71
     0
 72
   100
 73
     1
 74
     3
 75
     0
 76
     0
 77
     0
 78
     0
281
     0
 65
     1
110
0.0
120
0.0
130
0.0
111
1.0
121
0.0
131
0.0
112
0.0
122
1.0
132
0.0
 79
     0
146
0.0
 60
     3
 61
     5
292
     1
282
     1
141
0.0
142
0.0
 63
   250
361
3F
  0
ENDTAB
  0
TABLE
  2
LTYPE
  5
5
330
0
100
AcDbSymbolTable
 70
     1
  0
LTYPE
  5
14
330
5
100
AcDbSymbolTableRecord
100
AcDbLinetypeTableRecord
  2
ByBlock
 70
     0
  3

 72
    65
 73
     0
 40
0.0
  0
LTYPE
  5
15
330
5
100
AcDbSymbolTableRecord
100
AcDbLinetypeTableRecord
  2
ByLayer
 70
     0
  3

 72
    65
 73
     0
 40
0.0
  0
LTYPE
  5
16
330
5
100
AcDbSymbolTableRecord
100
AcDbLinetypeTableRecord
  2
Continuous
 70
     0
  3
Solid line
 72
    65
 73
     0
 40
0.0
  0
ENDTAB
  0
TABLE
  2
LAYER
  5
2
330
0
100
AcDbSymbolTable
 70
     2
  0
LAYER
  5
10
330
2
100
AcDbSymbolTableRecord
100
AcDbLayerTableRecord
  2
0
 70
     0
 62
     7
  6
Continuous
370
    -3
390
F
347
3E
  0
LAYER
  5
40
330
2
100
AcDbSymbolTableRecord
100
AcDbLayerTableRecord
  2
_U+30EC_U+30A4_U+30E4_U+30FC 1
 70
     0
 62
     7
  6
Continuous
370
    -3
390
F
347
3E
  0
ENDTAB
  0
TABLE
  2
STYLE
  5
3
330
0
100
AcDbSymbolTable
 70
     1
  0
STYLE
  5
11
330
3
100
AcDbSymbolTableRecord
100
AcDbTextStyleTableRecord
  2
Standard
 70
     0
 40
0.0
 41
1.0
 50
0.0
 71
     0
 42
0.2
  3
txt
  4

  0
ENDTAB
  0
TABLE
  2
VIEW
  5
6
330
0
100
AcDbSymbolTable
 70
     0
  0
ENDTAB
  0
TABLE
  2
UCS
  5
7
330
0
100
AcDbSymbolTable
 70
     0
  0
ENDTAB
  0
TABLE
  2
APPID
  5
9
330
0
100
AcDbSymbolTable
 70
     1
  0
APPID
  5
12
330
9
100
AcDbSymbolTableRecord
100
AcDbRegAppTableRecord
  2
ACAD
 70
     0
  0
ENDTAB
  0
TABLE
  2
DIMSTYLE
  5
A
330
0
100
AcDbSymbolTable
 70
     1
100
AcDbDimStyleTable
  0
DIMSTYLE
105
27
330
A
100
AcDbSymbolTableRecord
100
AcDbDimStyleTableRecord
  2
Standard
 70
     0
178
     0
340
11
  0
ENDTAB
  0
TABLE
  2
BLOCK_RECORD
  5
1
330
0
100
AcDbSymbolTable
 70
     6
  0
BLOCK_RECORD
  5
1F
330
1
100
AcDbSymbolTableRecord
100
AcDbBlockTableRecord
  2
*Model_Space
340
22
 70
     0
280
     1
281
     0
  0
BLOCK_RECORD
  5
1B
330
1
100
AcDbSymbolTableRecord
100
AcDbBlockTableRecord
  2
*Paper_Space
340
1E
 70
     0
280
     1
281
     0
  0
BLOCK_RECORD
  5
23
330
1
100
AcDbSymbolTableRecord
100
AcDbBlockTableRecord
  2
*Paper_Space0
340
26
 70
     0
280
     1
281
     0
  0
BLOCK_RECORD
  5
45
330
1
100
AcDbSymbolTableRecord
100
AcDbBlockTableRecord
  2
block 2
340
0
102
{BLKREFS
331
46
102
}
 70
     0
280
     1
281
     0
  0
BLOCK_RECORD
  5
4E
330
1
100
AcDbSymbolTableRecord
100
AcDbBlockTableRecord
  2
block 3
340
0
102
{BLKREFS
331
4F
102
}
 70
     0
280
     1
281
     0
  0
BLOCK_RECORD
  5
57
330
1
100
AcDbSymbolTableRecord
100
AcDbBlockTableRecord
  2
block 4
340
0
102
{BLKREFS
331
58
102
}
 70
     0
280
     1
281
     0
  0
BLOCK_RECORD
  5
72
330
1
100
AcDbSymbolTableRecord
100
AcDbBlockTableRecord
  2
block 5
340
0
102
{BLKREFS
331
73
102
}
 70
     0
280
     1
281
     0
  0
BLOCK_RECORD
  5
78
330
1
100
AcDbSymbolTableRecord
100
AcDbBlockTableRecord
  2
block 6
340
0
102
{BLKREFS
331
79
102
}
 70
     0
280
     1
281
     0
  0
ENDTAB
  0
ENDSEC
  0
SECTION
  2
BLOCKS
  0
BLOCK
  5
20
330
1F
100
AcDbEntity
  8
0
100
AcDbBlockBegin
  2
*Model_Space
 70
     0
 10
0.0
 20
0.0
 30
0.0
  3
*Model_Space
  1

  0
ENDBLK
  5
21
330
1F
100
AcDbEntity
  8
0
100
AcDbBlockEnd
  0
BLOCK
  5
1C
330
1B
100
AcDbEntity
 67
     1
  8
0
100
AcDbBlockBegin
  2
*Paper_Space
 70
     0
 10
0.0
 20
0.0
 30
0.0
  3
*Paper_Space
  1

  0
ENDBLK
  5
1D
330
1B
100
AcDbEntity
 67
     1
  8
0
100
AcDbBlockEnd
  0
BLOCK
  5
24
330
23
100
AcDbEntity
  8
0
100
AcDbBlockBegin
  2
*Paper_Space0
 70
     0
 10
0.0
 20
0.0
 30
0.0
  3
*Paper_Space0
  1

  0
ENDBLK
  5
25
330
23
100
AcDbEntity
  8
0
100
AcDbBlockEnd
  0
BLOCK
  5
47
330
45
100
AcDbEntity
  8
0
100
AcDbBlockBegin
  2
block 2
 70
     0
 10
0.0
 20
0.0
 30
0.0
  3
block 2
  1

  0
SPLINE
  5
49
330
45
100
AcDbEntity
  8
_U+30EC_U+30A4_U+30E4_U+30FC 1
370
     0
100
AcDbSpline
210
0.0
220
0.0
230
1.0
 70
    11
 71
     3
 72
    26
 73
    22
 74
     0
 42
0.0000000001
 43
0.0000000001
 12
1.0
 22
0.0
 32
0.0
 13
1.0
 23
0.0
 33
0.0
 40
0.0
 40
0.0
 40
0.0
 40
0.0
 40
1.0
 40
1.0
 40
1.0
 40
2.0
 40
2.0
 40
2.0
 40
3.0
 40
3.0
 40
3.0
 40
4.0
 40
4.0
 40
4.0
 40
5.0
 40
5.0
 40
5.0
 40
6.0
 40
6.0
 40
6.0
 40
7.0
 40
7.0
 40
7.0
 40
7.0
 10
85.39306502856493
 20
-120.2896429820804
 30
0.0
 10
85.39306502856493
 20
-120.2896429820804
 30
0.0
 10
85.156214713954
 20
-120.2896429820804
 30
0.0
 10
85.156214713954
 20
-120.2896429820804
 30
0.0
 10
85.1815361657706
 20
-119.9806179170535
 30
0.0
 10
85.37411700339605
 20
-119.4624755560719
 30
0.0
 10
85.78029376110702
 20
-118.9567355388372
 30
0.0
 10
85.78029376110702
 20
-118.9567355388372
 30
0.0
 10
84.94244653909425
 20
-118.9567355388372
 30
0.0
 10
84.94244653909425
 20
-118.9567355388372
 30
0.0
 10
84.94244653909425
 20
-118.9567355388372
 30
0.0
 10
84.94244653909425
 20
-118.7452066760429
 30
0.0
 10
84.94244653909425
 20
-118.7452066760429
 30
0.0
 10
84.94244653909425
 20
-118.7452066760429
 30
0.0
 10
86.01714407571794
 20
-118.7452066760429
 30
0.0
 10
86.01714407571794
 20
-118.7452066760429
 30
0.0
 10
86.01714407571794
 20
-118.7452066760429
 30
0.0
 10
86.01714407571794
 20
-118.9567355388372
 30
0.0
 10
86.01714407571794
 20
-118.9567355388372
 30
0.0
 10
85.69347735487872
 20
-119.2468125786952
 30
0.0
 10
85.42699921909464
 20
-119.8390244926097
 30
0.0
 10
85.39306502856493
 20
-120.2896429820804
 30
0.0
  0
HATCH
  5
4A
330
45
100
AcDbEntity
  8
_U+30EC_U+30A4_U+30E4_U+30FC 1
 62
   179
420
  2234388
100
AcDbHatch
 10
0.0
 20
0.0
 30
0.0
210
0.0
220
0.0
230
1.0
  2
SOLID
 70
     1
 71
     0
 91
        1
 92
        1
 93
        1
 72
     4
 94
        3
 73
     0
 74
     1
 95
       26
 96
       22
 40
0.0
 40
0.0
 40
0.0
 40
0.0
 40
1.0
 40
1.0
 40
1.0
 40
2.0
 40
2.0
 40
2.0
 40
3.0
 40
3.0
 40
3.0
 40
4.0
 40
4.0
 40
4.0
 40
5.0
 40
5.0
 40
5.0
 40
6.0
 40
6.0
 40
6.0
 40
7.0
 40
7.0
 40
7.0
 40
7.0
 10
85.39306502856493
 20
-120.2896429820804
 10
85.39306502856493
 20
-120.2896429820804
 10
85.156214713954
 20
-120.2896429820804
 10
85.156214713954
 20
-120.2896429820804
 10
85.1815361657706
 20
-119.9806179170535
 10
85.37411700339605
 20
-119.4624755560719
 10
85.78029376110702
 20
-118.9567355388372
 10
85.78029376110702
 20
-118.9567355388372
 10
84.94244653909425
 20
-118.9567355388372
 10
84.94244653909425
 20
-118.9567355388372
 10
84.94244653909425
 20
-118.9567355388372
 10
84.94244653909425
 20
-118.7452066760429
 10
84.94244653909425
 20
-118.7452066760429
 10
84.94244653909425
 20
-118.7452066760429
 10
86.01714407571794
 20
-118.7452066760429
 10
86.01714407571794
 20
-118.7452066760429
 10
86.01714407571794
 20
-118.7452066760429
 10
86.01714407571794
 20
-118.9567355388372
 10
86.01714407571794
 20
-118.9567355388372
 10
85.69347735487872
 20
-119.2468125786952
 10
85.42699921909464
 20
-119.8390244926097
 10
85.39306502856493
 20
-120.2896429820804
 97
        0
 97
        0
 75
     2
 76
     1
 98
        0
  0
SPLINE
  5
4B
330
45
100
AcDbEntity
  8
_U+30EC_U+30A4_U+30E4_U+30FC 1
370
     0
100
AcDbSpline
210
0.0
220
0.0
230
1.0
 70
    11
 71
     3
 72
    29
 73
    25
 74
     0
 42
0.0000000001
 43
0.0000000001
 12
1.0
 22
0.0
 32
0.0
 13
1.0
 23
0.0
 33
0.0
 40
0.0
 40
0.0
 40
0.0
 40
0.0
 40
1.0
 40
1.0
 40
1.0
 40
2.0
 40
2.0
 40
2.0
 40
3.0
 40
3.0
 40
3.0
 40
4.0
 40
4.0
 40
4.0
 40
5.0
 40
5.0
 40
5.0
 40
6.0
 40
6.0
 40
6.0
 40
7.0
 40
7.0
 40
7.0
 40
8.0
 40
8.0
 40
8.0
 40
8.0
 10
87.05652938361781
 20
-120.1118760550415
 30
0.0
 10
86.9486978949295
 20
-120.3213378605447
 30
0.0
 10
86.77523733724716
 20
-120.3402858857135
 30
0.0
 10
86.65879310984572
 20
-120.3402858857135
 30
0.0
 10
86.49807940545882
 20
-120.3402858857135
 30
0.0
 10
86.35631372624078
 20
-120.2937770966627
 30
0.0
 10
86.26105683607364
 20
-120.1118760550415
 30
0.0
 10
86.15753171674187
 20
-119.9172281601249
 30
0.0
 10
86.13841143679873
 20
-119.6802055907397
 30
0.0
 10
86.13841143679873
 20
-119.5175970838359
 30
0.0
 10
86.13841143679873
 20
-119.3735920925524
 30
0.0
 10
86.15529240467646
 20
-119.1217556125807
 30
0.0
 10
86.26105683607364
 20
-118.9229736030818
 30
0.0
 10
86.36906057953621
 20
-118.7200574790005
 30
0.0
 10
86.52977428392312
 20
-118.6966308297009
 30
0.0
 10
86.65879310984572
 20
-118.6966308297009
 30
0.0
 10
86.81743975694148
 20
-118.6966308297009
 30
0.0
 10
86.96127249345066
 20
-118.7410725614606
 30
0.0
 10
87.05652938361781
 20
-118.9229736030818
 30
0.0
 10
87.15592038836728
 20
-119.1155544407072
 30
0.0
 10
87.17917478289272
 20
-119.3439642713793
 30
0.0
 10
87.17917478289272
 20
-119.5175970838359
 30
0.0
 10
87.17917478289272
 20
-119.6888183294528
 30
0.0
 10
87.15815970043269
 20
-119.919295217416
 30
0.0
 10
87.05652938361781
 20
-120.1118760550415
 30
0.0
  0
SPLINE
  5
4C
330
45
100
AcDbEntity
  8
_U+30EC_U+30A4_U+30E4_U+30FC 1
370
     0
100
AcDbSpline
210
0.0
220
0.0
230
1.0
 70
    11
 71
     3
 72
    17
 73
    13
 74
     0
 42
0.0000000001
 43
0.0000000001
 12
1.0
 22
0.0
 32
0.0
 13
1.0
 23
0.0
 33
0.0
 40
0.0
 40
0.0
 40
0.0
 40
0.0
 40
1.0
 40
1.0
 40
1.0
 40
2.0
 40
2.0
 40
2.0
 40
3.0
 40
3.0
 40
3.0
 40
4.0
 40
4.0
 40
4.0
 40
4.0
 10
86.65879310984572
 20
-118.8892116673263
 30
0.0
 10
86.40919594193937
 20
-118.8892116673263
 30
0.0
 10
86.3626871528885
 20
-119.1727430257624
 30
0.0
 10
86.3626871528885
 20
-119.5175970838359
 30
0.0
 10
86.3626871528885
 20
-119.8369574353185
 30
0.0
 10
86.39868840070936
 20
-120.1456379907969
 30
0.0
 10
86.65879310984572
 20
-120.1456379907969
 30
0.0
 10
86.90632322046092
 20
-120.1456379907969
 30
0.0
 10
86.95507132157721
 20
-119.8645181992005
 30
0.0
 10
86.95507132157721
 20
-119.5175970838359
 30
0.0
 10
86.95507132157721
 20
-119.1978922228047
 30
0.0
 10
86.9170030164652
 20
-118.8892116673263
 30
0.0
 10
86.65879310984572
 20
-118.8892116673263
 30
0.0
  0
HATCH
  5
4D
330
45
100
AcDbEntity
  8
_U+30EC_U+30A4_U+30E4_U+30FC 1
 62
   179
420
  2234388
100
AcDbHatch
 10
0.0
 20
0.0
 30
0.0
210
0.0
220
0.0
230
1.0
  2
SOLID
 70
     1
 71
     0
 91
        2
 92
        1
 93
        1
 72
     4
 94
        3
 73
     0
 74
     1
 95
       29
 96
       25
 40
0.0
 40
0.0
 40
0.0
 40
0.0
 40
1.0
 40
1.0
 40
1.0
 40
2.0
 40
2.0
 40
2.0
 40
3.0
 40
3.0
 40
3.0
 40
4.0
 40
4.0
 40
4.0
 40
5.0
 40
5.0
 40
5.0
 40
6.0
 40
6.0
 40
6.0
 40
7.0
 40
7.0
 40
7.0
 40
8.0
 40
8.0
 40
8.0
 40
8.0
 10
87.05652938361781
 20
-120.1118760550415
 10
86.9486978949295
 20
-120.3213378605447
 10
86.77523733724716
 20
-120.3402858857135
 10
86.65879310984572
 20
-120.3402858857135
 10
86.49807940545882
 20
-120.3402858857135
 10
86.35631372624078
 20
-120.2937770966627
 10
86.26105683607364
 20
-120.1118760550415
 10
86.15753171674187
 20
-119.9172281601249
 10
86.13841143679873
 20
-119.6802055907397
 10
86.13841143679873
 20
-119.5175970838359
 10
86.13841143679873
 20
-119.3735920925524
 10
86.15529240467646
 20
-119.1217556125807
 10
86.26105683607364
 20
-118.9229736030818
 10
86.36906057953621
 20
-118.7200574790005
 10
86.52977428392312
 20
-118.6966308297009
 10
86.65879310984572
 20
-118.6966308297009
 10
86.81743975694148
 20
-118.6966308297009
 10
86.96127249345066
 20
-118.7410725614606
 10
87.05652938361781
 20
-118.9229736030818
 10
87.15592038836728
 20
-119.1155544407072
 10
87.17917478289272
 20
-119.3439642713793
 10
87.17917478289272
 20
-119.5175970838359
 10
87.17917478289272
 20
-119.6888183294528
 10
87.15815970043269
 20
-119.919295217416
 10
87.05652938361781
 20
-120.1118760550415
 97
        0
 97
        0
 92
        1
 93
        1
 72
     4
 94
        3
 73
     0
 74
     1
 95
       17
 96
       13
 40
0.0
 40
0.0
 40
0.0
 40
0.0
 40
1.0
 40
1.0
 40
1.0
 40
2.0
 40
2.0
 40
2.0
 40
3.0
 40
3.0
 40
3.0
 40
4.0
 40
4.0
 40
4.0
 40
4.0
 10
86.65879310984572
 20
-118.8892116673263
 10
86.40919594193937
 20
-118.8892116673263
 10
86.3626871528885
 20
-119.1727430257624
 10
86.3626871528885
 20
-119.5175970838359
 10
86.3626871528885
 20
-119.8369574353185
 10
86.39868840070936
 20
-120.1456379907969
 10
86.65879310984572
 20
-120.1456379907969
 10
86.90632322046092
 20
-120.1456379907969
 10
86.95507132157721
 20
-119.8645181992005
 10
86.95507132157721
 20
-119.5175970838359
 10
86.95507132157721
 20
-119.1978922228047
 10
86.9170030164652
 20
-118.8892116673263
 10
86.65879310984572
 20
-118.8892116673263
 97
        0
 97
        0
 75
     2
 76
     1
 98
        0
  0
ENDBLK
  5
48
330
45
100
AcDbEntity
  8
0
100
AcDbBlockEnd
  0
BLOCK
  5
50
330
4E
100
AcDbEntity
  8
0
100
AcDbBlockBegin
  2
block 3
 70
     0
 10
0.0
 20
0.0
 30
0.0
  3
block 3
  1

  0
SPLINE
  5
52
330
4E
100
AcDbEntity
  8
_U+30EC_U+30A4_U+30E4_U+30FC 1
370
     0
100
AcDbSpline
210
0.0
220
0.0
230
1.0
 70
    11
 71
     3
 72
    26
 73
    22
 74
     0
 42
0.0000000001
 43
0.0000000001
 12
1.0
 22
0.0
 32
0.0
 13
1.0
 23
0.0
 33
0.0
 40
0.0
 40
0.0
 40
0.0
 40
0.0
 40
1.0
 40
1.0
 40
1.0
 40
2.0
 40
2.0
 40
2.0
 40
3.0
 40
3.0
 40
3.0
 40
4.0
 40
4.0
 40
4.0
 40
5.0
 40
5.0
 40
5.0
 40
6.0
 40
6.0
 40
6.0
 40
7.0
 40
7.0
 40
7.0
 40
7.0
 10
94.7880126716155
 20
-136.4368055214464
 30
0.0
 10
94.7880126716155
 20
-136.4368055214464
 30
0.0
 10
94.7880126716155
 20
-135.3326524184238
 30
0.0
 10
94.7880126716155
 20
-135.3326524184238
 30
0.0
 10
94.7880126716155
 20
-135.3326524184238
 30
0.0
 10
94.45797252412856
 20
-135.3326524184238
 30
0.0
 10
94.45797252412856
 20
-135.3326524184238
 30
0.0
 10
94.45797252412856
 20
-135.3326524184238
 30
0.0
 10
94.45797252412856
 20
-135.184513312558
 30
0.0
 10
94.45797252412856
 20
-135.184513312558
 30
0.0
 10
94.79007972890665
 20
-135.1696994019715
 30
0.0
 10
94.83658851795752
 20
-135.0067463855192
 30
0.0
 10
94.86621633913067
 20
-134.8923692154088
 30
0.0
 10
94.86621633913067
 20
-134.8923692154088
 30
0.0
 10
95.01228838770527
 20
-134.8923692154088
 30
0.0
 10
95.01228838770527
 20
-134.8923692154088
 30
0.0
 10
95.01228838770527
 20
-134.8923692154088
 30
0.0
 10
95.01228838770527
 20
-136.4368055214464
 30
0.0
 10
95.01228838770527
 20
-136.4368055214464
 30
0.0
 10
95.01228838770527
 20
-136.4368055214464
 30
0.0
 10
94.7880126716155
 20
-136.4368055214464
 30
0.0
 10
94.7880126716155
 20
-136.4368055214464
 30
0.0
  0
HATCH
  5
53
330
4E
100
AcDbEntity
  8
_U+30EC_U+30A4_U+30E4_U+30FC 1
 62
   179
420
  2234388
100
AcDbHatch
 10
0.0
 20
0.0
 30
0.0
210
0.0
220
0.0
230
1.0
  2
SOLID
 70
     1
 71
     0
 91
        1
 92
        1
 93
        1
 72
     4
 94
        3
 73
     0
 74
     1
 95
       26
 96
       22
 40
0.0
 40
0.0
 40
0.0
 40
0.0
 40
1.0
 40
1.0
 40
1.0
 40
2.0
 40
2.0
 40
2.0
 40
3.0
 40
3.0
 40
3.0
 40
4.0
 40
4.0
 40
4.0
 40
5.0
 40
5.0
 40
5.0
 40
6.0
 40
6.0
 40
6.0
 40
7.0
 40
7.0
 40
7.0
 40
7.0
 10
94.7880126716155
 20
-136.4368055214464
 10
94.7880126716155
 20
-136.4368055214464
 10
94.7880126716155
 20
-135.3326524184238
 10
94.7880126716155
 20
-135.3326524184238
 10
94.7880126716155
 20
-135.3326524184238
 10
94.45797252412856
 20
-135.3326524184238
 10
94.45797252412856
 20
-135.3326524184238
 10
94.45797252412856
 20
-135.3326524184238
 10
94.45797252412856
 20
-135.184513312558
 10
94.45797252412856
 20
-135.184513312558
 10
94.79007972890665
 20
-135.1696994019715
 10
94.83658851795752
 20
-135.0067463855192
 10
94.86621633913067
 20
-134.8923692154088
 10
94.86621633913067
 20
-134.8923692154088
 10
95.01228838770527
 20
-134.8923692154088
 10
95.01228838770527
 20
-134.8923692154088
 10
95.01228838770527
 20
-134.8923692154088
 10
95.01228838770527
 20
-136.4368055214464
 10
95.01228838770527
 20
-136.4368055214464
 10
95.01228838770527
 20
-136.4368055214464
 10
94.7880126716155
 20
-136.4368055214464
 10
94.7880126716155
 20
-136.4368055214464
 97
        0
 97
        0
 75
     2
 76
     1
 98
        0
  0
SPLINE
  5
54
330
4E
100
AcDbEntity
  8
_U+30EC_U+30A4_U+30E4_U+30FC 1
370
     0
100
AcDbSpline
210
0.0
220
0.0
230
1.0
 70
    11
 71
     3
 72
    29
 73
    25
 74
     0
 42
0.0000000001
 43
0.0000000001
 12
1.0
 22
0.0
 32
0.0
 13
1.0
 23
0.0
 33
0.0
 40
0.0
 40
0.0
 40
0.0
 40
0.0
 40
1.0
 40
1.0
 40
1.0
 40
2.0
 40
2.0
 40
2.0
 40
3.0
 40
3.0
 40
3.0
 40
4.0
 40
4.0
 40
4.0
 40
5.0
 40
5.0
 40
5.0
 40
6.0
 40
6.0
 40
6.0
 40
7.0
 40
7.0
 40
7.0
 40
8.0
 40
8.0
 40
8.0
 40
8.0
 10
96.4109971547167
 20
-136.2590385944075
 30
0.0
 10
96.3035101755769
 20
-136.4685003999107
 30
0.0
 10
96.12987736312031
 20
-136.4874484250795
 30
0.0
 10
96.01343313571887
 20
-136.4874484250795
 30
0.0
 10
95.85289168610623
 20
-136.4874484250795
 30
0.0
 10
95.71095375211394
 20
-136.4409396360287
 30
0.0
 10
95.61586911672104
 20
-136.2590385944075
 30
0.0
 10
95.51217174261502
 20
-136.0643906994908
 30
0.0
 10
95.49322371744614
 20
-135.8273681301057
 30
0.0
 10
95.49322371744614
 20
-135.6647596232019
 30
0.0
 10
95.49322371744614
 20
-135.5207546319184
 30
0.0
 10
95.50976017577534
 20
-135.2689181519467
 30
0.0
 10
95.61586911672104
 20
-135.0701361424478
 30
0.0
 10
95.72370060540936
 20
-134.8672200183665
 30
0.0
 10
95.88458656457053
 20
-134.8437933690668
 30
0.0
 10
96.01343313571887
 20
-134.8437933690668
 30
0.0
 10
96.17190752804036
 20
-134.8437933690668
 30
0.0
 10
96.3159125193238
 20
-134.8882351008266
 30
0.0
 10
96.4109971547167
 20
-135.0701361424478
 30
0.0
 10
96.51056041424042
 20
-135.2627169800732
 30
0.0
 10
96.5336425539916
 20
-135.4911268107453
 30
0.0
 10
96.5336425539916
 20
-135.6647596232019
 30
0.0
 10
96.5336425539916
 20
-135.8359808688188
 30
0.0
 10
96.5129719810801
 20
-136.066457756782
 30
0.0
 10
96.4109971547167
 20
-136.2590385944075
 30
0.0
  0
SPLINE
  5
55
330
4E
100
AcDbEntity
  8
_U+30EC_U+30A4_U+30E4_U+30FC 1
370
     0
100
AcDbSpline
210
0.0
220
0.0
230
1.0
 70
    11
 71
     3
 72
    17
 73
    13
 74
     0
 42
0.0000000001
 43
0.0000000001
 12
1.0
 22
0.0
 32
0.0
 13
1.0
 23
0.0
 33
0.0
 40
0.0
 40
0.0
 40
0.0
 40
0.0
 40
1.0
 40
1.0
 40
1.0
 40
2.0
 40
2.0
 40
2.0
 40
3.0
 40
3.0
 40
3.0
 40
4.0
 40
4.0
 40
4.0
 40
4.0
 10
96.01343313571887
 20
-135.0363742066923
 30
0.0
 10
95.76400822258678
 20
-135.0363742066923
 30
0.0
 10
95.71715492398738
 20
-135.3199055651284
 30
0.0
 10
95.71715492398738
 20
-135.6647596232019
 30
0.0
 10
95.71715492398738
 20
-135.9841199746845
 30
0.0
 10
95.7533284265825
 20
-136.2928005301629
 30
0.0
 10
96.01343313571887
 20
-136.2928005301629
 30
0.0
 10
96.2607909915598
 20
-136.2928005301629
 30
0.0
 10
96.30971134745036
 20
-136.0116807385665
 30
0.0
 10
96.30971134745036
 20
-135.6647596232019
 30
0.0
 10
96.30971134745036
 20
-135.3450547621707
 30
0.0
 10
96.27181529711261
 20
-135.0363742066923
 30
0.0
 10
96.01343313571887
 20
-135.0363742066923
 30
0.0
  0
HATCH
  5
56
330
4E
100
AcDbEntity
  8
_U+30EC_U+30A4_U+30E4_U+30FC 1
 62
   179
420
  2234388
100
AcDbHatch
 10
0.0
 20
0.0
 30
0.0
210
0.0
220
0.0
230
1.0
  2
SOLID
 70
     1
 71
     0
 91
        2
 92
        1
 93
        1
 72
     4
 94
        3
 73
     0
 74
     1
 95
       29
 96
       25
 40
0.0
 40
0.0
 40
0.0
 40
0.0
 40
1.0
 40
1.0
 40
1.0
 40
2.0
 40
2.0
 40
2.0
 40
3.0
 40
3.0
 40
3.0
 40
4.0
 40
4.0
 40
4.0
 40
5.0
 40
5.0
 40
5.0
 40
6.0
 40
6.0
 40
6.0
 40
7.0
 40
7.0
 40
7.0
 40
8.0
 40
8.0
 40
8.0
 40
8.0
 10
96.4109971547167
 20
-136.2590385944075
 10
96.3035101755769
 20
-136.4685003999107
 10
96.12987736312031
 20
-136.4874484250795
 10
96.01343313571887
 20
-136.4874484250795
 10
95.85289168610623
 20
-136.4874484250795
 10
95.71095375211394
 20
-136.4409396360287
 10
95.61586911672104
 20
-136.2590385944075
 10
95.51217174261502
 20
-136.0643906994908
 10
95.49322371744614
 20
-135.8273681301057
 10
95.49322371744614
 20
-135.6647596232019
 10
95.49322371744614
 20
-135.5207546319184
 10
95.50976017577534
 20
-135.2689181519467
 10
95.61586911672104
 20
-135.0701361424478
 10
95.72370060540936
 20
-134.8672200183665
 10
95.88458656457053
 20
-134.8437933690668
 10
96.01343313571887
 20
-134.8437933690668
 10
96.17190752804036
 20
-134.8437933690668
 10
96.3159125193238
 20
-134.8882351008266
 10
96.4109971547167
 20
-135.0701361424478
 10
96.51056041424042
 20
-135.2627169800732
 10
96.5336425539916
 20
-135.4911268107453
 10
96.5336425539916
 20
-135.6647596232019
 10
96.5336425539916
 20
-135.8359808688188
 10
96.5129719810801
 20
-136.066457756782
 10
96.4109971547167
 20
-136.2590385944075
 97
        0
 97
        0
 92
        1
 93
        1
 72
     4
 94
        3
 73
     0
 74
     1
 95
       17
 96
       13
 40
0.0
 40
0.0
 40
0.0
 40
0.0
 40
1.0
 40
1.0
 40
1.0
 40
2.0
 40
2.0
 40
2.0
 40
3.0
 40
3.0
 40
3.0
 40
4.0
 40
4.0
 40
4.0
 40
4.0
 10
96.01343313571887
 20
-135.0363742066923
 10
95.76400822258678
 20
-135.0363742066923
 10
95.71715492398738
 20
-135.3199055651284
 10
95.71715492398738
 20
-135.6647596232019
 10
95.71715492398738
 20
-135.9841199746845
 10
95.7533284265825
 20
-136.2928005301629
 10
96.01343313571887
 20
-136.2928005301629
 10
96.2607909915598
 20
-136.2928005301629
 10
96.30971134745036
 20
-136.0116807385665
 10
96.30971134745036
 20
-135.6647596232019
 10
96.30971134745036
 20
-135.3450547621707
 10
96.27181529711261
 20
-135.0363742066923
 10
96.01343313571887
 20
-135.0363742066923
 97
        0
 97
        0
 75
     2
 76
     1
 98
        0
  0
ENDBLK
  5
51
330
4E
100
AcDbEntity
  8
0
100
AcDbBlockEnd
  0
BLOCK
  5
59
330
57
100
AcDbEntity
  8
0
100
AcDbBlockBegin
  2
block 4
 70
     0
 10
0.0
 20
0.0
 30
0.0
  3
block 4
  1

  0
POLYLINE
  5
5B
330
57
100
AcDbEntity
  8
_U+30EC_U+30A4_U+30E4_U+30FC 1
370
     0
100
AcDb2dPolyline
 66
     1
 10
0.0
 20
0.0
 30
0.0
  0
VERTEX
  5
5C
330
5B
100
AcDbEntity
  8
_U+30EC_U+30A4_U+30E4_U+30FC 1
370
     0
100
AcDbVertex
100
AcDb2dVertex
 10
85.8138834420882
 20
-137.9416232294035
 30
0.0
  0
VERTEX
  5
5D
330
5B
100
AcDbEntity
  8
_U+30EC_U+30A4_U+30E4_U+30FC 1
370
     0
100
AcDbVertex
100
AcDb2dVertex
 10
85.8138834420882
 20
-138.2885443447682
 30
0.0
  0
VERTEX
  5
5E
330
5B
100
AcDbEntity
  8
_U+30EC_U+30A4_U+30E4_U+30FC 1
370
     0
100
AcDbVertex
100
AcDb2dVertex
 10
85.59598115264615
 20
-138.2885443447682
 30
0.0
  0
VERTEX
  5
5F
330
5B
100
AcDbEntity
  8
_U+30EC_U+30A4_U+30E4_U+30FC 1
370
     0
100
AcDbVertex
100
AcDb2dVertex
 10
85.59598115264615
 20
-137.9416232294035
 30
0.0
  0
VERTEX
  5
60
330
5B
100
AcDbEntity
  8
_U+30EC_U+30A4_U+30E4_U+30FC 1
370
     0
100
AcDbVertex
100
AcDb2dVertex
 10
84.94020722702884
 20
-137.9416232294035
 30
0.0
  0
VERTEX
  5
61
330
5B
100
AcDbEntity
  8
_U+30EC_U+30A4_U+30E4_U+30FC 1
370
     0
100
AcDbVertex
100
AcDb2dVertex
 10
84.94020722702884
 20
-137.7173475133137
 30
0.0
  0
VERTEX
  5
62
330
5B
100
AcDbEntity
  8
_U+30EC_U+30A4_U+30E4_U+30FC 1
370
     0
100
AcDbVertex
100
AcDb2dVertex
 10
85.61923554717158
 20
-136.7441080387306
 30
0.0
  0
VERTEX
  5
63
330
5B
100
AcDbEntity
  8
_U+30EC_U+30A4_U+30E4_U+30FC 1
370
     0
100
AcDbVertex
100
AcDb2dVertex
 10
85.8138834420882
 20
-136.7441080387306
 30
0.0
  0
VERTEX
  5
64
330
5B
100
AcDbEntity
  8
_U+30EC_U+30A4_U+30E4_U+30FC 1
370
     0
100
AcDbVertex
100
AcDb2dVertex
 10
85.8138834420882
 20
-137.7428412199046
 30
0.0
  0
VERTEX
  5
65
330
5B
100
AcDbEntity
  8
_U+30EC_U+30A4_U+30E4_U+30FC 1
370
     0
100
AcDbVertex
100
AcDb2dVertex
 10
86.02127819030024
 20
-137.7428412199046
 30
0.0
  0
VERTEX
  5
66
330
5B
100
AcDbEntity
  8
_U+30EC_U+30A4_U+30E4_U+30FC 1
370
     0
100
AcDbVertex
100
AcDb2dVertex
 10
86.02127819030024
 20
-137.9416232294035
 30
0.0
  0
VERTEX
  5
67
330
5B
100
AcDbEntity
  8
_U+30EC_U+30A4_U+30E4_U+30FC 1
370
     0
100
AcDbVertex
100
AcDb2dVertex
 10
85.8138834420882
 20
-137.9416232294035
 30
0.0
  0
SEQEND
  5
68
330
5B
100
AcDbEntity
  8
_U+30EC_U+30A4_U+30E4_U+30FC 1
370
     0
  0
POLYLINE
  5
69
330
57
100
AcDbEntity
  8
_U+30EC_U+30A4_U+30E4_U+30FC 1
370
     0
100
AcDb2dPolyline
 66
     1
 10
0.0
 20
0.0
 30
0.0
  0
VERTEX
  5
6A
330
69
100
AcDbEntity
  8
_U+30EC_U+30A4_U+30E4_U+30FC 1
370
     0
100
AcDbVertex
100
AcDb2dVertex
 10
85.59598115264615
 20
-137.086895039513
 30
0.0
  0
VERTEX
  5
6B
330
69
100
AcDbEntity
  8
_U+30EC_U+30A4_U+30E4_U+30FC 1
370
     0
100
AcDbVertex
100
AcDb2dVertex
 10
85.13916149130202
 20
-137.7428412199046
 30
0.0
  0
VERTEX
  5
6C
330
69
100
AcDbEntity
  8
_U+30EC_U+30A4_U+30E4_U+30FC 1
370
     0
100
AcDbVertex
100
AcDb2dVertex
 10
85.59598115264615
 20
-137.7428412199046
 30
0.0
  0
VERTEX
  5
6D
330
69
100
AcDbEntity
  8
_U+30EC_U+30A4_U+30E4_U+30FC 1
370
     0
100
AcDbVertex
100
AcDb2dVertex
 10
85.59598115264615
 20
-137.086895039513
 30
0.0
  0
SEQEND
  5
6E
330
69
100
AcDbEntity
  8
_U+30EC_U+30A4_U+30E4_U+30FC 1
370
     0
  0
HATCH
  5
6F
330
57
100
AcDbEntity
  8
_U+30EC_U+30A4_U+30E4_U+30FC 1
 62
   179
420
  2234388
100
AcDbHatch
 10
0.0
 20
0.0
 30
0.0
210
0.0
220
0.0
230
1.0
  2
SOLID
 70
     1
 71
     0
 91
        2
 92
        1
 93
       11
 72
     1
 10
85.8138834420882
 20
-137.9416232294035
 11
85.8138834420882
 21
-138.2885443447682
 72
     1
 10
85.8138834420882
 20
-138.2885443447682
 11
85.59598115264615
 21
-138.2885443447682
 72
     1
 10
85.59598115264615
 20
-138.2885443447682
 11
85.59598115264615
 21
-137.9416232294035
 72
     1
 10
85.59598115264615
 20
-137.9416232294035
 11
84.94020722702884
 21
-137.9416232294035
 72
     1
 10
84.94020722702884
 20
-137.9416232294035
 11
84.94020722702884
 21
-137.7173475133137
 72
     1
 10
84.94020722702884
 20
-137.7173475133137
 11
85.61923554717158
 21
-136.7441080387306
 72
     1
 10
85.61923554717158
 20
-136.7441080387306
 11
85.8138834420882
 21
-136.7441080387306
 72
     1
 10
85.8138834420882
 20
-136.7441080387306
 11
85.8138834420882
 21
-137.7428412199046
 72
     1
 10
85.8138834420882
 20
-137.7428412199046
 11
86.02127819030024
 21
-137.7428412199046
 72
     1
 10
86.02127819030024
 20
-137.7428412199046
 11
86.02127819030024
 21
-137.9416232294035
 72
     1
 10
86.02127819030024
 20
-137.9416232294035
 11
85.8138834420882
 21
-137.9416232294035
 97
        0
 92
        1
 93
        3
 72
     1
 10
85.59598115264615
 20
-137.086895039513
 11
85.13916149130202
 21
-137.7428412199046
 72
     1
 10
85.13916149130202
 20
-137.7428412199046
 11
85.59598115264615
 21
-137.7428412199046
 72
     1
 10
85.59598115264615
 20
-137.7428412199046
 11
85.59598115264615
 21
-137.086895039513
 97
        0
 75
     2
 76
     1
 98
        0
  0
SPLINE
  5
70
330
57
100
AcDbEntity
  8
_U+30EC_U+30A4_U+30E4_U+30FC 1
370
     0
100
AcDbSpline
210
0.0
220
0.0
230
1.0
 70
    11
 71
     3
 72
    44
 73
    40
 74
     0
 42
0.0000000001
 43
0.0000000001
 12
1.0
 22
0.0
 32
0.0
 13
1.0
 23
0.0
 33
0.0
 40
0.0
 40
0.0
 40
0.0
 40
0.0
 40
1.0
 40
1.0
 40
1.0
 40
2.0
 40
2.0
 40
2.0
 40
3.0
 40
3.0
 40
3.0
 40
4.0
 40
4.0
 40
4.0
 40
5.0
 40
5.0
 40
5.0
 40
6.0
 40
6.0
 40
6.0
 40
7.0
 40
7.0
 40
7.0
 40
8.0
 40
8.0
 40
8.0
 40
9.0
 40
9.0
 40
9.0
 40
10.0
 40
10.0
 40
10.0
 40
11.0
 40
11.0
 40
11.0
 40
12.0
 40
12.0
 40
12.0
 40
13.0
 40
13.0
 40
13.0
 40
13.0
 10
86.75181068794747
 20
-137.7066677173094
 30
0.0
 10
86.53390839850542
 20
-137.8654866191795
 30
0.0
 10
86.44071856562941
 20
-137.9395561721123
 30
0.0
 10
86.39214271928738
 20
-138.0832166538472
 30
0.0
 10
86.39214271928738
 20
-138.0832166538472
 30
0.0
 10
87.17056204417959
 20
-138.0832166538472
 30
0.0
 10
87.17056204417959
 20
-138.0832166538472
 30
0.0
 10
87.17056204417959
 20
-138.0832166538472
 30
0.0
 10
87.17056204417959
 20
-138.2885443447682
 30
0.0
 10
87.17056204417959
 20
-138.2885443447682
 30
0.0
 10
87.17056204417959
 20
-138.2885443447682
 30
0.0
 10
86.14254555138103
 20
-138.2885443447682
 30
0.0
 10
86.14254555138103
 20
-138.2885443447682
 30
0.0
 10
86.17424042984533
 20
-137.9309434333992
 30
0.0
 10
86.23986949883934
 20
-137.8527397658841
 30
0.0
 10
86.62485891931601
 20
-137.5543944968614
 30
0.0
 10
86.88082951387007
 20
-137.3556124873625
 30
0.0
 10
86.94628632808983
 20
-137.2877441063031
 30
0.0
 10
86.94628632808983
 20
-137.1502847964416
 30
0.0
 10
86.94628632808983
 20
-137.031773511749
 30
0.0
 10
86.87445608722236
 20
-136.9008598833095
 30
0.0
 10
86.6777411350146
 20
-136.9008598833095
 30
0.0
 10
86.41746417110397
 20
-136.9008598833095
 30
0.0
 10
86.4090236871651
 20
-137.1313367712727
 30
0.0
 10
86.40471731780855
 20
-137.2477809986742
 30
0.0
 10
86.40471731780855
 20
-137.2477809986742
 30
0.0
 10
86.18061385649304
 20
-137.2477809986742
 30
0.0
 10
86.18061385649304
 20
-137.2477809986742
 30
0.0
 10
86.18905434043191
 20
-137.1206569752684
 30
0.0
 10
86.19956188166192
 20
-137.0086913719978
 30
0.0
 10
86.2800048612425
 20
-136.8901800873052
 30
0.0
 10
86.38990340722198
 20
-136.7292941281441
 30
0.0
 10
86.57611081819972
 20
-136.6955321923886
 30
0.0
 10
86.69255504560117
 20
-136.6955321923886
 30
0.0
 10
86.96971297738952
 20
-136.6955321923886
 30
0.0
 10
87.1769354708273
 20
-136.879500291301
 30
0.0
 10
87.1769354708273
 20
-137.1523518537327
 30
0.0
 10
87.1769354708273
 20
-137.3811061939533
 30
0.0
 10
87.06066349820011
 20
-137.4803249439285
 30
0.0
 10
86.75181068794747
 20
-137.7066677173094
 30
0.0
  0
HATCH
  5
71
330
57
100
AcDbEntity
  8
_U+30EC_U+30A4_U+30E4_U+30FC 1
 62
   179
420
  2234388
100
AcDbHatch
 10
0.0
 20
0.0
 30
0.0
210
0.0
220
0.0
230
1.0
  2
SOLID
 70
     1
 71
     0
 91
        1
 92
        1
 93
        1
 72
     4
 94
        3
 73
     0
 74
     1
 95
       44
 96
       40
 40
0.0
 40
0.0
 40
0.0
 40
0.0
 40
1.0
 40
1.0
 40
1.0
 40
2.0
 40
2.0
 40
2.0
 40
3.0
 40
3.0
 40
3.0
 40
4.0
 40
4.0
 40
4.0
 40
5.0
 40
5.0
 40
5.0
 40
6.0
 40
6.0
 40
6.0
 40
7.0
 40
7.0
 40
7.0
 40
8.0
 40
8.0
 40
8.0
 40
9.0
 40
9.0
 40
9.0
 40
10.0
 40
10.0
 40
10.0
 40
11.0
 40
11.0
 40
11.0
 40
12.0
 40
12.0
 40
12.0
 40
13.0
 40
13.0
 40
13.0
 40
13.0
 10
86.75181068794747
 20
-137.7066677173094
 10
86.53390839850542
 20
-137.8654866191795
 10
86.44071856562941
 20
-137.9395561721123
 10
86.39214271928738
 20
-138.0832166538472
 10
86.39214271928738
 20
-138.0832166538472
 10
87.17056204417959
 20
-138.0832166538472
 10
87.17056204417959
 20
-138.0832166538472
 10
87.17056204417959
 20
-138.0832166538472
 10
87.17056204417959
 20
-138.2885443447682
 10
87.17056204417959
 20
-138.2885443447682
 10
87.17056204417959
 20
-138.2885443447682
 10
86.14254555138103
 20
-138.2885443447682
 10
86.14254555138103
 20
-138.2885443447682
 10
86.17424042984533
 20
-137.9309434333992
 10
86.23986949883934
 20
-137.8527397658841
 10
86.62485891931601
 20
-137.5543944968614
 10
86.88082951387007
 20
-137.3556124873625
 10
86.94628632808983
 20
-137.2877441063031
 10
86.94628632808983
 20
-137.1502847964416
 10
86.94628632808983
 20
-137.031773511749
 10
86.87445608722236
 20
-136.9008598833095
 10
86.6777411350146
 20
-136.9008598833095
 10
86.41746417110397
 20
-136.9008598833095
 10
86.4090236871651
 20
-137.1313367712727
 10
86.40471731780855
 20
-137.2477809986742
 10
86.40471731780855
 20
-137.2477809986742
 10
86.18061385649304
 20
-137.2477809986742
 10
86.18061385649304
 20
-137.2477809986742
 10
86.18905434043191
 20
-137.1206569752684
 10
86.19956188166192
 20
-137.0086913719978
 10
86.2800048612425
 20
-136.8901800873052
 10
86.38990340722198
 20
-136.7292941281441
 10
86.57611081819972
 20
-136.6955321923886
 10
86.69255504560117
 20
-136.6955321923886
 10
86.96971297738952
 20
-136.6955321923886
 10
87.1769354708273
 20
-136.879500291301
 10
87.1769354708273
 20
-137.1523518537327
 10
87.1769354708273
 20
-137.3811061939533
 10
87.06066349820011
 20
-137.4803249439285
 10
86.75181068794747
 20
-137.7066677173094
 97
        0
 97
        0
 75
     2
 76
     1
 98
        0
  0
ENDBLK
  5
5A
330
57
100
AcDbEntity
  8
0
100
AcDbBlockEnd
  0
BLOCK
  5
74
330
72
100
AcDbEntity
  8
0
100
AcDbBlockBegin
  2
block 5
 70
     0
 10
0.0
 20
0.0
 30
0.0
  3
block 5
  1

  0
SPLINE
  5
76
330
72
100
AcDbEntity
  8
_U+30EC_U+30A4_U+30E4_U+30FC 1
370
     0
100
AcDbSpline
210
0.0
220
0.0
230
1.0
 70
    11
 71
     3
 72
    62
 73
    58
 74
     0
 42
0.0000000001
 43
0.0000000001
 12
1.0
 22
0.0
 32
0.0
 13
1.0
 23
0.0
 33
0.0
 40
0.0
 40
0.0
 40
0.0
 40
0.0
 40
1.0
 40
1.0
 40
1.0
 40
2.0
 40
2.0
 40
2.0
 40
3.0
 40
3.0
 40
3.0
 40
4.0
 40
4.0
 40
4.0
 40
5.0
 40
5.0
 40
5.0
 40
6.0
 40
6.0
 40
6.0
 40
7.0
 40
7.0
 40
7.0
 40
8.0
 40
8.0
 40
8.0
 40
9.0
 40
9.0
 40
9.0
 40
10.0
 40
10.0
 40
10.0
 40
11.0
 40
11.0
 40
11.0
 40
12.0
 40
12.0
 40
12.0
 40
13.0
 40
13.0
 40
13.0
 40
14.0
 40
14.0
 40
14.0
 40
15.0
 40
15.0
 40
15.0
 40
16.0
 40
16.0
 40
16.0
 40
17.0
 40
17.0
 40
17.0
 40
18.0
 40
18.0
 40
18.0
 40
19.0
 40
19.0
 40
19.0
 40
19.0
 10
115.4196560041312
 20
-136.046131693419
 30
0.0
 10
115.4196560041312
 20
-136.1412163288119
 30
0.0
 10
115.3982964121226
 20
-136.3592908730282
 30
0.0
 10
115.2122612559192
 20
-136.4840033295943
 30
0.0
 10
115.0999511431
 20
-136.5580728825271
 30
0.0
 10
115.0007323931248
 20
-136.5622069971095
 30
0.0
 10
114.9159830441877
 20
-136.5663411116917
 30
0.0
 10
114.9159830441877
 20
-136.5663411116917
 30
0.0
 10
114.9159830441877
 20
-136.3465440197328
 30
0.0
 10
114.9159830441877
 20
-136.3465440197328
 30
0.0
 10
114.9903971066691
 20
-136.3444769624417
 30
0.0
 10
115.2246635996661
 20
-136.3337971664374
 30
0.0
 10
115.2246635996661
 20
-136.0502658080013
 30
0.0
 10
115.2246635996661
 20
-135.9128064981399
 30
0.0
 10
115.155072670864
 20
-135.7605332776918
 30
0.0
 10
114.9270073497405
 20
-135.7605332776918
 30
0.0
 10
114.810563122339
 20
-135.7605332776918
 30
0.0
 10
114.7616427664485
 20
-135.7987738375781
 30
0.0
 10
114.7299478879842
 20
-135.8304687160424
 30
0.0
 10
114.6562228445998
 20
-135.9041937594267
 30
0.0
 10
114.6431314817559
 20
-136.0206379868282
 30
0.0
 10
114.6431314817559
 20
-136.0757595145922
 30
0.0
 10
114.6431314817559
 20
-136.0947075397611
 30
0.0
 10
114.645198539047
 20
-136.1308810423562
 30
0.0
 10
114.6493326536293
 20
-136.1584418062382
 30
0.0
 10
114.6493326536293
 20
-136.1584418062382
 30
0.0
 10
114.4550292682612
 20
-136.1584418062382
 30
0.0
 10
114.4550292682612
 20
-136.1584418062382
 30
0.0
 10
114.4612304401347
 20
-136.1202012463519
 30
0.0
 10
114.4632974974258
 20
-136.0778265718833
 30
0.0
 10
114.4632974974258
 20
-136.0716254000099
 30
0.0
 10
114.4632974974258
 20
-136.0061685857901
 30
0.0
 10
114.4419379054173
 20
-135.8070420667427
 30
0.0
 10
114.2056043551292
 20
-135.8070420667427
 30
0.0
 10
114.0278374280903
 20
-135.8070420667427
 30
0.0
 10
113.9727159003263
 20
-135.9383002047307
 30
0.0
 10
113.9727159003263
 20
-136.0481987507102
 30
0.0
 10
113.9727159003263
 20
-136.3127820839774
 30
0.0
 10
114.2056043551292
 20
-136.321050313142
 30
0.0
 10
114.2772623412224
 20
-136.3251844277243
 30
0.0
 10
114.2772623412224
 20
-136.3251844277243
 30
0.0
 10
114.2772623412224
 20
-136.528445061354
 30
0.0
 10
114.2772623412224
 20
-136.528445061354
 30
0.0
 10
114.1525498846563
 20
-136.5201768321894
 30
0.0
 10
113.77565643857
 20
-136.4926160683074
 30
0.0
 10
113.77565643857
 20
-136.0357964069633
 30
0.0
 10
113.77565643857
 20
-135.811176181325
 30
0.0
 10
113.9031249715242
 20
-135.5700194973575
 30
0.0
 10
114.1987141641587
 20
-135.5700194973575
 30
0.0
 10
114.3854383394592
 20
-135.5700194973575
 30
0.0
 10
114.4674316120081
 20
-135.6651041327504
 30
0.0
 10
114.5287543116456
 20
-135.7650119018226
 30
0.0
 10
114.5563150755276
 20
-135.7033446926367
 30
0.0
 10
114.6369303098824
 20
-135.5214436510155
 30
0.0
 10
114.9139159868965
 20
-135.5214436510155
 30
0.0
 10
115.2522243635481
 20
-135.5214436510155
 30
0.0
 10
115.4196560041312
 20
-135.7691460164049
 30
0.0
 10
115.4196560041312
 20
-136.046131693419
 30
0.0
  0
HATCH
  5
77
330
72
100
AcDbEntity
  8
_U+30EC_U+30A4_U+30E4_U+30FC 1
 62
   179
420
  2234388
100
AcDbHatch
 10
0.0
 20
0.0
 30
0.0
210
0.0
220
0.0
230
1.0
  2
SOLID
 70
     1
 71
     0
 91
        1
 92
        1
 93
        1
 72
     4
 94
        3
 73
     0
 74
     1
 95
       62
 96
       58
 40
0.0
 40
0.0
 40
0.0
 40
0.0
 40
1.0
 40
1.0
 40
1.0
 40
2.0
 40
2.0
 40
2.0
 40
3.0
 40
3.0
 40
3.0
 40
4.0
 40
4.0
 40
4.0
 40
5.0
 40
5.0
 40
5.0
 40
6.0
 40
6.0
 40
6.0
 40
7.0
 40
7.0
 40
7.0
 40
8.0
 40
8.0
 40
8.0
 40
9.0
 40
9.0
 40
9.0
 40
10.0
 40
10.0
 40
10.0
 40
11.0
 40
11.0
 40
11.0
 40
12.0
 40
12.0
 40
12.0
 40
13.0
 40
13.0
 40
13.0
 40
14.0
 40
14.0
 40
14.0
 40
15.0
 40
15.0
 40
15.0
 40
16.0
 40
16.0
 40
16.0
 40
17.0
 40
17.0
 40
17.0
 40
18.0
 40
18.0
 40
18.0
 40
19.0
 40
19.0
 40
19.0
 40
19.0
 10
115.4196560041312
 20
-136.046131693419
 10
115.4196560041312
 20
-136.1412163288119
 10
115.3982964121226
 20
-136.3592908730282
 10
115.2122612559192
 20
-136.4840033295943
 10
115.0999511431
 20
-136.5580728825271
 10
115.0007323931248
 20
-136.5622069971095
 10
114.9159830441877
 20
-136.5663411116917
 10
114.9159830441877
 20
-136.5663411116917
 10
114.9159830441877
 20
-136.3465440197328
 10
114.9159830441877
 20
-136.3465440197328
 10
114.9903971066691
 20
-136.3444769624417
 10
115.2246635996661
 20
-136.3337971664374
 10
115.2246635996661
 20
-136.0502658080013
 10
115.2246635996661
 20
-135.9128064981399
 10
115.155072670864
 20
-135.7605332776918
 10
114.9270073497405
 20
-135.7605332776918
 10
114.810563122339
 20
-135.7605332776918
 10
114.7616427664485
 20
-135.7987738375781
 10
114.7299478879842
 20
-135.8304687160424
 10
114.6562228445998
 20
-135.9041937594267
 10
114.6431314817559
 20
-136.0206379868282
 10
114.6431314817559
 20
-136.0757595145922
 10
114.6431314817559
 20
-136.0947075397611
 10
114.645198539047
 20
-136.1308810423562
 10
114.6493326536293
 20
-136.1584418062382
 10
114.6493326536293
 20
-136.1584418062382
 10
114.4550292682612
 20
-136.1584418062382
 10
114.4550292682612
 20
-136.1584418062382
 10
114.4612304401347
 20
-136.1202012463519
 10
114.4632974974258
 20
-136.0778265718833
 10
114.4632974974258
 20
-136.0716254000099
 10
114.4632974974258
 20
-136.0061685857901
 10
114.4419379054173
 20
-135.8070420667427
 10
114.2056043551292
 20
-135.8070420667427
 10
114.0278374280903
 20
-135.8070420667427
 10
113.9727159003263
 20
-135.9383002047307
 10
113.9727159003263
 20
-136.0481987507102
 10
113.9727159003263
 20
-136.3127820839774
 10
114.2056043551292
 20
-136.321050313142
 10
114.2772623412224
 20
-136.3251844277243
 10
114.2772623412224
 20
-136.3251844277243
 10
114.2772623412224
 20
-136.528445061354
 10
114.2772623412224
 20
-136.528445061354
 10
114.1525498846563
 20
-136.5201768321894
 10
113.77565643857
 20
-136.4926160683074
 10
113.77565643857
 20
-136.0357964069633
 10
113.77565643857
 20
-135.811176181325
 10
113.9031249715242
 20
-135.5700194973575
 10
114.1987141641587
 20
-135.5700194973575
 10
114.3854383394592
 20
-135.5700194973575
 10
114.4674316120081
 20
-135.6651041327504
 10
114.5287543116456
 20
-135.7650119018226
 10
114.5563150755276
 20
-135.7033446926367
 10
114.6369303098824
 20
-135.5214436510155
 10
114.9139159868965
 20
-135.5214436510155
 10
115.2522243635481
 20
-135.5214436510155
 10
115.4196560041312
 20
-135.7691460164049
 10
115.4196560041312
 20
-136.046131693419
 97
        0
 97
        0
 75
     2
 76
     1
 98
        0
  0
ENDBLK
  5
75
330
72
100
AcDbEntity
  8
0
100
AcDbBlockEnd
  0
BLOCK
  5
7A
330
78
100
AcDbEntity
  8
0
100
AcDbBlockBegin
  2
block 6
 70
     0
 10
0.0
 20
0.0
 30
0.0
  3
block 6
  1

  0
SPLINE
  5
7C
330
78
100
AcDbEntity
  8
_U+30EC_U+30A4_U+30E4_U+30FC 1
370
     0
100
AcDbSpline
210
0.0
220
0.0
230
1.0
 70
    11
 71
     3
 72
    26
 73
    22
 74
     0
 42
0.0000000001
 43
0.0000000001
 12
1.0
 22
0.0
 32
0.0
 13
1.0
 23
0.0
 33
0.0
 40
0.0
 40
0.0
 40
0.0
 40
0.0
 40
1.0
 40
1.0
 40
1.0
 40
2.0
 40
2.0
 40
2.0
 40
3.0
 40
3.0
 40
3.0
 40
4.0
 40
4.0
 40
4.0
 40
5.0
 40
5.0
 40
5.0
 40
6.0
 40
6.0
 40
6.0
 40
7.0
 40
7.0
 40
7.0
 40
7.0
 10
115.3686685909495
 20
-129.5328341690057
 30
0.0
 10
115.3686685909495
 20
-129.5328341690057
 30
0.0
 10
114.2648599974755
 20
-129.5328341690057
 30
0.0
 10
114.2648599974755
 20
-129.5328341690057
 30
0.0
 10
114.2648599974755
 20
-129.5328341690057
 30
0.0
 10
114.2648599974755
 20
-129.8628743164926
 30
0.0
 10
114.2648599974755
 20
-129.8628743164926
 30
0.0
 10
114.2648599974755
 20
-129.8628743164926
 30
0.0
 10
114.1167208916097
 20
-129.8628743164926
 30
0.0
 10
114.1167208916097
 20
-129.8628743164926
 30
0.0
 10
114.1015624714746
 20
-129.5307671117145
 30
0.0
 10
113.9389539645708
 20
-129.4839138131152
 30
0.0
 10
113.8245767944605
 20
-129.454285991942
 30
0.0
 10
113.8245767944605
 20
-129.454285991942
 30
0.0
 10
113.8245767944605
 20
-129.3082139433674
 30
0.0
 10
113.8245767944605
 20
-129.3082139433674
 30
0.0
 10
113.8245767944605
 20
-129.3082139433674
 30
0.0
 10
115.3686685909495
 20
-129.3082139433674
 30
0.0
 10
115.3686685909495
 20
-129.3082139433674
 30
0.0
 10
115.3686685909495
 20
-129.3082139433674
 30
0.0
 10
115.3686685909495
 20
-129.5328341690057
 30
0.0
 10
115.3686685909495
 20
-129.5328341690057
 30
0.0
  0
HATCH
  5
7D
330
78
100
AcDbEntity
  8
_U+30EC_U+30A4_U+30E4_U+30FC 1
 62
   179
420
  2234388
100
AcDbHatch
 10
0.0
 20
0.0
 30
0.0
210
0.0
220
0.0
230
1.0
  2
SOLID
 70
     1
 71
     0
 91
        1
 92
        1
 93
        1
 72
     4
 94
        3
 73
     0
 74
     1
 95
       26
 96
       22
 40
0.0
 40
0.0
 40
0.0
 40
0.0
 40
1.0
 40
1.0
 40
1.0
 40
2.0
 40
2.0
 40
2.0
 40
3.0
 40
3.0
 40
3.0
 40
4.0
 40
4.0
 40
4.0
 40
5.0
 40
5.0
 40
5.0
 40
6.0
 40
6.0
 40
6.0
 40
7.0
 40
7.0
 40
7.0
 40
7.0
 10
115.3686685909495
 20
-129.5328341690057
 10
115.3686685909495
 20
-129.5328341690057
 10
114.2648599974755
 20
-129.5328341690057
 10
114.2648599974755
 20
-129.5328341690057
 10
114.2648599974755
 20
-129.5328341690057
 10
114.2648599974755
 20
-129.8628743164926
 10
114.2648599974755
 20
-129.8628743164926
 10
114.2648599974755
 20
-129.8628743164926
 10
114.1167208916097
 20
-129.8628743164926
 10
114.1167208916097
 20
-129.8628743164926
 10
114.1015624714746
 20
-129.5307671117145
 10
113.9389539645708
 20
-129.4839138131152
 10
113.8245767944605
 20
-129.454285991942
 10
113.8245767944605
 20
-129.454285991942
 10
113.8245767944605
 20
-129.3082139433674
 10
113.8245767944605
 20
-129.3082139433674
 10
113.8245767944605
 20
-129.3082139433674
 10
115.3686685909495
 20
-129.3082139433674
 10
115.3686685909495
 20
-129.3082139433674
 10
115.3686685909495
 20
-129.3082139433674
 10
115.3686685909495
 20
-129.5328341690057
 10
115.3686685909495
 20
-129.5328341690057
 97
        0
 97
        0
 75
     2
 76
     1
 98
        0
  0
SPLINE
  5
7E
330
78
100
AcDbEntity
  8
_U+30EC_U+30A4_U+30E4_U+30FC 1
370
     0
100
AcDbSpline
210
0.0
220
0.0
230
1.0
 70
    11
 71
     3
 72
    29
 73
    25
 74
     0
 42
0.0000000001
 43
0.0000000001
 12
1.0
 22
0.0
 32
0.0
 13
1.0
 23
0.0
 33
0.0
 40
0.0
 40
0.0
 40
0.0
 40
0.0
 40
1.0
 40
1.0
 40
1.0
 40
2.0
 40
2.0
 40
2.0
 40
3.0
 40
3.0
 40
3.0
 40
4.0
 40
4.0
 40
4.0
 40
5.0
 40
5.0
 40
5.0
 40
6.0
 40
6.0
 40
6.0
 40
7.0
 40
7.0
 40
7.0
 40
8.0
 40
8.0
 40
8.0
 40
8.0
 10
115.1909016639106
 20
-127.909505176356
 30
0.0
 10
115.4003634694138
 20
-128.0173366650443
 30
0.0
 10
115.4196560041312
 20
-128.1907972227266
 30
0.0
 10
115.4196560041312
 20
-128.3072414501281
 30
0.0
 10
115.4196560041312
 20
-128.467955154515
 30
0.0
 10
115.3728027055318
 20
-128.609720833733
 30
0.0
 10
115.1909016639106
 20
-128.7049777239002
 30
0.0
 10
114.9965982785425
 20
-128.8086750980062
 30
0.0
 10
114.7595757091573
 20
-128.827623123175
 30
0.0
 10
114.5969672022535
 20
-128.827623123175
 30
0.0
 10
114.4529622109701
 20
-128.827623123175
 30
0.0
 10
114.2007812214498
 20
-128.8107421552973
 30
0.0
 10
114.0023437214994
 20
-128.7049777239002
 30
0.0
 10
113.7990830878697
 20
-128.5969739804376
 30
0.0
 10
113.77565643857
 20
-128.4362602760507
 30
0.0
 10
113.77565643857
 20
-128.3072414501281
 30
0.0
 10
113.77565643857
 20
-128.1485948030323
 30
0.0
 10
113.8204426798782
 20
-128.0047620665231
 30
0.0
 10
114.0023437214994
 20
-127.909505176356
 30
0.0
 10
114.1945800495764
 20
-127.8101141716065
 30
0.0
 10
114.4233343897969
 20
-127.7868597770811
 30
0.0
 10
114.5969672022535
 20
-127.7868597770811
 30
0.0
 10
114.7678439383219
 20
-127.7868597770811
 30
0.0
 10
114.9986653358337
 20
-127.8078748595411
 30
0.0
 10
115.1909016639106
 20
-127.909505176356
 30
0.0
  0
SPLINE
  5
7F
330
78
100
AcDbEntity
  8
_U+30EC_U+30A4_U+30E4_U+30FC 1
370
     0
100
AcDbSpline
210
0.0
220
0.0
230
1.0
 70
    11
 71
     3
 72
    17
 73
    13
 74
     0
 42
0.0000000001
 43
0.0000000001
 12
1.0
 22
0.0
 32
0.0
 13
1.0
 23
0.0
 33
0.0
 40
0.0
 40
0.0
 40
0.0
 40
0.0
 40
1.0
 40
1.0
 40
1.0
 40
2.0
 40
2.0
 40
2.0
 40
3.0
 40
3.0
 40
3.0
 40
4.0
 40
4.0
 40
4.0
 40
4.0
 10
113.968581785744
 20
-128.3072414501281
 30
0.0
 10
113.968581785744
 20
-128.5568386180344
 30
0.0
 10
114.2517686346315
 20
-128.6033474070853
 30
0.0
 10
114.5969672022535
 20
-128.6033474070853
 30
0.0
 10
114.9159830441877
 20
-128.6033474070853
 30
0.0
 10
115.2246635996661
 20
-128.5673461592644
 30
0.0
 10
115.2246635996661
 20
-128.3072414501281
 30
0.0
 10
115.2246635996661
 20
-128.0597113395129
 30
0.0
 10
114.9435438080697
 20
-128.0109632383966
 30
0.0
 10
114.5969672022535
 20
-128.0109632383966
 30
0.0
 10
114.2772623412224
 20
-128.0109632383966
 30
0.0
 10
113.968581785744
 20
-128.0490315435086
 30
0.0
 10
113.968581785744
 20
-128.3072414501281
 30
0.0
  0
HATCH
  5
80
330
78
100
AcDbEntity
  8
_U+30EC_U+30A4_U+30E4_U+30FC 1
 62
   179
420
  2234388
100
AcDbHatch
 10
0.0
 20
0.0
 30
0.0
210
0.0
220
0.0
230
1.0
  2
SOLID
 70
     1
 71
     0
 91
        2
 92
        1
 93
        1
 72
     4
 94
        3
 73
     0
 74
     1
 95
       29
 96
       25
 40
0.0
 40
0.0
 40
0.0
 40
0.0
 40
1.0
 40
1.0
 40
1.0
 40
2.0
 40
2.0
 40
2.0
 40
3.0
 40
3.0
 40
3.0
 40
4.0
 40
4.0
 40
4.0
 40
5.0
 40
5.0
 40
5.0
 40
6.0
 40
6.0
 40
6.0
 40
7.0
 40
7.0
 40
7.0
 40
8.0
 40
8.0
 40
8.0
 40
8.0
 10
115.1909016639106
 20
-127.909505176356
 10
115.4003634694138
 20
-128.0173366650443
 10
115.4196560041312
 20
-128.1907972227266
 10
115.4196560041312
 20
-128.3072414501281
 10
115.4196560041312
 20
-128.467955154515
 10
115.3728027055318
 20
-128.609720833733
 10
115.1909016639106
 20
-128.7049777239002
 10
114.9965982785425
 20
-128.8086750980062
 10
114.7595757091573
 20
-128.827623123175
 10
114.5969672022535
 20
-128.827623123175
 10
114.4529622109701
 20
-128.827623123175
 10
114.2007812214498
 20
-128.8107421552973
 10
114.0023437214994
 20
-128.7049777239002
 10
113.7990830878697
 20
-128.5969739804376
 10
113.77565643857
 20
-128.4362602760507
 10
113.77565643857
 20
-128.3072414501281
 10
113.77565643857
 20
-128.1485948030323
 10
113.8204426798782
 20
-128.0047620665231
 10
114.0023437214994
 20
-127.909505176356
 10
114.1945800495764
 20
-127.8101141716065
 10
114.4233343897969
 20
-127.7868597770811
 10
114.5969672022535
 20
-127.7868597770811
 10
114.7678439383219
 20
-127.7868597770811
 10
114.9986653358337
 20
-127.8078748595411
 10
115.1909016639106
 20
-127.909505176356
 97
        0
 97
        0
 92
        1
 93
        1
 72
     4
 94
        3
 73
     0
 74
     1
 95
       17
 96
       13
 40
0.0
 40
0.0
 40
0.0
 40
0.0
 40
1.0
 40
1.0
 40
1.0
 40
2.0
 40
2.0
 40
2.0
 40
3.0
 40
3.0
 40
3.0
 40
4.0
 40
4.0
 40
4.0
 40
4.0
 10
113.968581785744
 20
-128.3072414501281
 10
113.968581785744
 20
-128.5568386180344
 10
114.2517686346315
 20
-128.6033474070853
 10
114.5969672022535
 20
-128.6033474070853
 10
114.9159830441877
 20
-128.6033474070853
 10
115.2246635996661
 20
-128.5673461592644
 10
115.2246635996661
 20
-128.3072414501281
 10
115.2246635996661
 20
-128.0597113395129
 10
114.9435438080697
 20
-128.0109632383966
 10
114.5969672022535
 20
-128.0109632383966
 10
114.2772623412224
 20
-128.0109632383966
 10
113.968581785744
 20
-128.0490315435086
 10
113.968581785744
 20
-128.3072414501281
 97
        0
 97
        0
 75
     2
 76
     1
 98
        0
  0
ENDBLK
  5
7B
330
78
100
AcDbEntity
  8
0
100
AcDbBlockEnd
  0
ENDSEC
  0
SECTION
  2
ENTITIES
  0
SPLINE
  5
41
330
1F
100
AcDbEntity
  8
_U+30EC_U+30A4_U+30E4_U+30FC 1
 62
   253
420
 11711154
370
     9
100
AcDbSpline
210
0.0
220
0.0
230
1.0
 70
    11
 71
     3
 72
    95
 73
    91
 74
     0
 42
0.0000000001
 43
0.0000000001
 12
1.0
 22
0.0
 32
0.0
 13
1.0
 23
0.0
 33
0.0
 40
0.0
 40
0.0
 40
0.0
 40
0.0
 40
1.0
 40
1.0
 40
1.0
 40
2.0
 40
2.0
 40
2.0
 40
3.0
 40
3.0
 40
3.0
 40
4.0
 40
4.0
 40
4.0
 40
5.0
 40
5.0
 40
5.0
 40
6.0
 40
6.0
 40
6.0
 40
7.0
 40
7.0
 40
7.0
 40
8.0
 40
8.0
 40
8.0
 40
9.0
 40
9.0
 40
9.0
 40
10.0
 40
10.0
 40
10.0
 40
11.0
 40
11.0
 40
11.0
 40
12.0
 40
12.0
 40
12.0
 40
13.0
 40
13.0
 40
13.0
 40
14.0
 40
14.0
 40
14.0
 40
15.0
 40
15.0
 40
15.0
 40
16.0
 40
16.0
 40
16.0
 40
17.0
 40
17.0
 40
17.0
 40
18.0
 40
18.0
 40
18.0
 40
19.0
 40
19.0
 40
19.0
 40
20.0
 40
20.0
 40
20.0
 40
21.0
 40
21.0
 40
21.0
 40
22.0
 40
22.0
 40
22.0
 40
23.0
 40
23.0
 40
23.0
 40
24.0
 40
24.0
 40
24.0
 40
25.0
 40
25.0
 40
25.0
 40
26.0
 40
26.0
 40
26.0
 40
27.0
 40
27.0
 40
27.0
 40
28.0
 40
28.0
 40
28.0
 40
29.0
 40
29.0
 40
29.0
 40
30.0
 40
30.0
 40
30.0
 40
30.0
 10
65.62389693690602
 20
-125.3463541353301
 30
0.0
 10
65.62389693690602
 20
-125.3463541353301
 30
0.0
 10
65.62389693690602
 20
-125.9196180240757
 30
0.0
 10
65.62389693690602
 20
-125.9196180240757
 30
0.0
 10
65.62389693690602
 20
-125.9196180240757
 30
0.0
 10
68.97528574029386
 20
-125.9857638573925
 30
0.0
 10
68.97528574029386
 20
-125.9857638573925
 30
0.0
 10
68.97528574029386
 20
-125.9857638573925
 30
0.0
 10
69.06348018248828
 20
-125.8314235796533
 30
0.0
 10
69.06348018248828
 20
-125.8314235796533
 30
0.0
 10
69.06348018248828
 20
-125.8314235796533
 30
0.0
 10
69.1516746246827
 20
-125.9637152462869
 30
0.0
 10
69.1516746246827
 20
-125.9637152462869
 30
0.0
 10
69.1516746246827
 20
-125.9637152462869
 30
0.0
 10
79.07354937155458
 20
-125.9637152462869
 30
0.0
 10
79.07354937155458
 20
-125.9637152462869
 30
0.0
 10
79.07354937155458
 20
-125.9637152462869
 30
0.0
 10
79.58066942454914
 20
-126.4046874683988
 30
0.0
 10
79.58066942454914
 20
-126.4046874683988
 30
0.0
 10
79.58066942454914
 20
-126.4046874683988
 30
0.0
 10
79.62476664676035
 20
-132.9531249667617
 30
0.0
 10
79.62476664676035
 20
-132.9531249667617
 30
0.0
 10
79.62476664676035
 20
-132.9531249667617
 30
0.0
 10
74.3771972036278
 20
-132.9090277445505
 30
0.0
 10
74.3771972036278
 20
-132.9090277445505
 30
0.0
 10
74.3771972036278
 20
-132.9090277445505
 30
0.0
 10
74.35514671415328
 20
-131.8065971892706
 30
0.0
 10
74.35514671415328
 20
-131.8065971892706
 30
0.0
 10
74.35514671415328
 20
-131.8065971892706
 30
0.0
 10
73.78188283988958
 20
-131.784548578165
 30
0.0
 10
73.78188283988958
 20
-131.784548578165
 30
0.0
 10
73.78188283988958
 20
-131.784548578165
 30
0.0
 10
73.78188283988958
 20
-133.0192708000785
 30
0.0
 10
73.78188283988958
 20
-133.0192708000785
 30
0.0
 10
73.78188283988958
 20
-133.0192708000785
 30
0.0
 10
73.9141745031812
 20
-133.4822916332961
 30
0.0
 10
74.3330999814166
 20
-133.5704860777185
 30
0.0
 10
74.3330999814166
 20
-133.5704860777185
 30
0.0
 10
85.95271586271909
 20
-133.4822916332961
 30
0.0
 10
85.95271586271909
 20
-133.4822916332961
 30
0.0
 10
85.95271586271909
 20
-133.4822916332961
 30
0.0
 10
86.06296108959525
 20
-133.1736110778177
 30
0.0
 10
86.06296108959525
 20
-133.1736110778177
 30
0.0
 10
86.06296108959525
 20
-133.1736110778177
 30
0.0
 10
85.84247497853926
 20
-132.9531249667617
 30
0.0
 10
85.84247497853926
 20
-132.9531249667617
 30
0.0
 10
85.84247497853926
 20
-132.9531249667617
 30
0.0
 10
85.26921108979369
 20
-132.7767360779169
 30
0.0
 10
85.26921108979369
 20
-132.7767360779169
 30
0.0
 10
85.26921108979369
 20
-132.7767360779169
 30
0.0
 10
84.03448886788014
 20
-132.115277744749
 30
0.0
 10
84.36521590321958
 20
-130.6380208006738
 30
0.0
 10
84.36521590321958
 20
-130.6380208006738
 30
0.0
 10
84.89438255638609
 20
-129.3151041343379
 30
0.0
 10
86.48188251588559
 20
-129.4473958009715
 30
0.0
 10
86.48188251588559
 20
-129.4473958009715
 30
0.0
 10
87.36382693782976
 20
-129.9104166341891
 30
0.0
 10
87.36382693782976
 20
-129.9104166341891
 30
0.0
 10
87.36382693782976
 20
-129.9104166341891
 30
0.0
 10
87.65046108919837
 20
-129.9986110786115
 30
0.0
 10
87.65046108919837
 20
-129.9986110786115
 30
0.0
 10
87.65046108919837
 20
-129.9986110786115
 30
0.0
 10
87.82684997804316
 20
-129.7340277453443
 30
0.0
 10
87.82684997804316
 20
-129.7340277453443
 30
0.0
 10
87.82684997804316
 20
-129.7340277453443
 30
0.0
 10
87.69455831140957
 20
-129.4032985787603
 30
0.0
 10
87.69455831140957
 20
-129.4032985787603
 30
0.0
 10
87.69455831140957
 20
-129.4032985787603
 30
0.0
 10
86.74646584246884
 20
-128.6536458011699
 30
0.0
 10
85.73222975723304
 20
-128.9182291344371
 30
0.0
 10
85.73222975723304
 20
-128.9182291344371
 30
0.0
 10
84.27702146102517
 20
-129.1387152454931
 30
0.0
 10
83.76990553461295
 20
-130.5939235784626
 30
0.0
 10
83.76990553461295
 20
-130.5939235784626
 30
0.0
 10
83.57146592346983
 20
-131.6963541337426
 30
0.0
 10
84.25497497893613
 20
-132.6444444112833
 30
0.0
 10
84.25497497893613
 20
-132.6444444112833
 30
0.0
 10
84.18882701883075
 20
-132.8869791334449
 30
0.0
 10
84.18882701883075
 20
-132.8869791334449
 30
0.0
 10
84.18882701883075
 20
-132.8869791334449
 30
0.0
 10
80.220077120082
 20
-132.8869791334449
 30
0.0
 10
80.220077120082
 20
-132.8869791334449
 30
0.0
 10
80.220077120082
 20
-132.8869791334449
 30
0.0
 10
80.24212775771711
 20
-126.2944444128708
 30
0.0
 10
80.24212775771711
 20
-126.2944444128708
 30
0.0
 10
80.24212775771711
 20
-126.2944444128708
 30
0.0
 10
79.29403547704062
 20
-125.3022569131189
 30
0.0
 10
79.29403547704062
 20
-125.3022569131189
 30
0.0
 10
79.29403547704062
 20
-125.3022569131189
 30
0.0
 10
65.62389693690602
 20
-125.3463541353301
 30
0.0
 10
65.62389693690602
 20
-125.3463541353301
 30
0.0
  0
HATCH
  5
42
330
1F
100
AcDbEntity
  8
_U+30EC_U+30A4_U+30E4_U+30FC 1
 62
   253
420
 11711154
100
AcDbHatch
 10
0.0
 20
0.0
 30
0.0
210
0.0
220
0.0
230
1.0
  2
SOLID
 70
     1
 71
     0
 91
        1
 92
        1
 93
        1
 72
     4
 94
        3
 73
     0
 74
     1
 95
       95
 96
       91
 40
0.0
 40
0.0
 40
0.0
 40
0.0
 40
1.0
 40
1.0
 40
1.0
 40
2.0
 40
2.0
 40
2.0
 40
3.0
 40
3.0
 40
3.0
 40
4.0
 40
4.0
 40
4.0
 40
5.0
 40
5.0
 40
5.0
 40
6.0
 40
6.0
 40
6.0
 40
7.0
 40
7.0
 40
7.0
 40
8.0
 40
8.0
 40
8.0
 40
9.0
 40
9.0
 40
9.0
 40
10.0
 40
10.0
 40
10.0
 40
11.0
 40
11.0
 40
11.0
 40
12.0
 40
12.0
 40
12.0
 40
13.0
 40
13.0
 40
13.0
 40
14.0
 40
14.0
 40
14.0
 40
15.0
 40
15.0
 40
15.0
 40
16.0
 40
16.0
 40
16.0
 40
17.0
 40
17.0
 40
17.0
 40
18.0
 40
18.0
 40
18.0
 40
19.0
 40
19.0
 40
19.0
 40
20.0
 40
20.0
 40
20.0
 40
21.0
 40
21.0
 40
21.0
 40
22.0
 40
22.0
 40
22.0
 40
23.0
 40
23.0
 40
23.0
 40
24.0
 40
24.0
 40
24.0
 40
25.0
 40
25.0
 40
25.0
 40
26.0
 40
26.0
 40
26.0
 40
27.0
 40
27.0
 40
27.0
 40
28.0
 40
28.0
 40
28.0
 40
29.0
 40
29.0
 40
29.0
 40
30.0
 40
30.0
 40
30.0
 40
30.0
 10
65.62389693690602
 20
-125.3463541353301
 10
65.62389693690602
 20
-125.3463541353301
 10
65.62389693690602
 20
-125.9196180240757
 10
65.62389693690602
 20
-125.9196180240757
 10
65.62389693690602
 20
-125.9196180240757
 10
68.97528574029386
 20
-125.9857638573925
 10
68.97528574029386
 20
-125.9857638573925
 10
68.97528574029386
 20
-125.9857638573925
 10
69.06348018248828
 20
-125.8314235796533
 10
69.06348018248828
 20
-125.8314235796533
 10
69.06348018248828
 20
-125.8314235796533
 10
69.1516746246827
 20
-125.9637152462869
 10
69.1516746246827
 20
-125.9637152462869
 10
69.1516746246827
 20
-125.9637152462869
 10
79.07354937155458
 20
-125.9637152462869
 10
79.07354937155458
 20
-125.9637152462869
 10
79.07354937155458
 20
-125.9637152462869
 10
79.58066942454914
 20
-126.4046874683988
 10
79.58066942454914
 20
-126.4046874683988
 10
79.58066942454914
 20
-126.4046874683988
 10
79.62476664676035
 20
-132.9531249667617
 10
79.62476664676035
 20
-132.9531249667617
 10
79.62476664676035
 20
-132.9531249667617
 10
74.3771972036278
 20
-132.9090277445505
 10
74.3771972036278
 20
-132.9090277445505
 10
74.3771972036278
 20
-132.9090277445505
 10
74.35514671415328
 20
-131.8065971892706
 10
74.35514671415328
 20
-131.8065971892706
 10
74.35514671415328
 20
-131.8065971892706
 10
73.78188283988958
 20
-131.784548578165
 10
73.78188283988958
 20
-131.784548578165
 10
73.78188283988958
 20
-131.784548578165
 10
73.78188283988958
 20
-133.0192708000785
 10
73.78188283988958
 20
-133.0192708000785
 10
73.78188283988958
 20
-133.0192708000785
 10
73.9141745031812
 20
-133.4822916332961
 10
74.3330999814166
 20
-133.5704860777185
 10
74.3330999814166
 20
-133.5704860777185
 10
85.95271586271909
 20
-133.4822916332961
 10
85.95271586271909
 20
-133.4822916332961
 10
85.95271586271909
 20
-133.4822916332961
 10
86.06296108959525
 20
-133.1736110778177
 10
86.06296108959525
 20
-133.1736110778177
 10
86.06296108959525
 20
-133.1736110778177
 10
85.84247497853926
 20
-132.9531249667617
 10
85.84247497853926
 20
-132.9531249667617
 10
85.84247497853926
 20
-132.9531249667617
 10
85.26921108979369
 20
-132.7767360779169
 10
85.26921108979369
 20
-132.7767360779169
 10
85.26921108979369
 20
-132.7767360779169
 10
84.03448886788014
 20
-132.115277744749
 10
84.36521590321958
 20
-130.6380208006738
 10
84.36521590321958
 20
-130.6380208006738
 10
84.89438255638609
 20
-129.3151041343379
 10
86.48188251588559
 20
-129.4473958009715
 10
86.48188251588559
 20
-129.4473958009715
 10
87.36382693782976
 20
-129.9104166341891
 10
87.36382693782976
 20
-129.9104166341891
 10
87.36382693782976
 20
-129.9104166341891
 10
87.65046108919837
 20
-129.9986110786115
 10
87.65046108919837
 20
-129.9986110786115
 10
87.65046108919837
 20
-129.9986110786115
 10
87.82684997804316
 20
-129.7340277453443
 10
87.82684997804316
 20
-129.7340277453443
 10
87.82684997804316
 20
-129.7340277453443
 10
87.69455831140957
 20
-129.4032985787603
 10
87.69455831140957
 20
-129.4032985787603
 10
87.69455831140957
 20
-129.4032985787603
 10
86.74646584246884
 20
-128.6536458011699
 10
85.73222975723304
 20
-128.9182291344371
 10
85.73222975723304
 20
-128.9182291344371
 10
84.27702146102517
 20
-129.1387152454931
 10
83.76990553461295
 20
-130.5939235784626
 10
83.76990553461295
 20
-130.5939235784626
 10
83.57146592346983
 20
-131.6963541337426
 10
84.25497497893613
 20
-132.6444444112833
 10
84.25497497893613
 20
-132.6444444112833
 10
84.18882701883075
 20
-132.8869791334449
 10
84.18882701883075
 20
-132.8869791334449
 10
84.18882701883075
 20
-132.8869791334449
 10
80.220077120082
 20
-132.8869791334449
 10
80.220077120082
 20
-132.8869791334449
 10
80.220077120082
 20
-132.8869791334449
 10
80.24212775771711
 20
-126.2944444128708
 10
80.24212775771711
 20
-126.2944444128708
 10
80.24212775771711
 20
-126.2944444128708
 10
79.29403547704062
 20
-125.3022569131189
 10
79.29403547704062
 20
-125.3022569131189
 10
79.29403547704062
 20
-125.3022569131189
 10
65.62389693690602
 20
-125.3463541353301
 10
65.62389693690602
 20
-125.3463541353301
 97
        0
 97
        0
 75
     2
 76
     1
 98
        0
  0
SPLINE
  5
43
330
1F
100
AcDbEntity
  8
_U+30EC_U+30A4_U+30E4_U+30FC 1
 62
   253
420
 11711154
370
     9
100
AcDbSpline
210
0.0
220
0.0
230
1.0
 70
    11
 71
     3
 72
   113
 73
   109
 74
     0
 42
0.0000000001
 43
0.0000000001
 12
1.0
 22
0.0
 32
0.0
 13
1.0
 23
0.0
 33
0.0
 40
0.0
 40
0.0
 40
0.0
 40
0.0
 40
1.0
 40
1.0
 40
1.0
 40
2.0
 40
2.0
 40
2.0
 40
3.0
 40
3.0
 40
3.0
 40
4.0
 40
4.0
 40
4.0
 40
5.0
 40
5.0
 40
5.0
 40
6.0
 40
6.0
 40
6.0
 40
7.0
 40
7.0
 40
7.0
 40
8.0
 40
8.0
 40
8.0
 40
9.0
 40
9.0
 40
9.0
 40
10.0
 40
10.0
 40
10.0
 40
11.0
 40
11.0
 40
11.0
 40
12.0
 40
12.0
 40
12.0
 40
13.0
 40
13.0
 40
13.0
 40
14.0
 40
14.0
 40
14.0
 40
15.0
 40
15.0
 40
15.0
 40
16.0
 40
16.0
 40
16.0
 40
17.0
 40
17.0
 40
17.0
 40
18.0
 40
18.0
 40
18.0
 40
19.0
 40
19.0
 40
19.0
 40
20.0
 40
20.0
 40
20.0
 40
21.0
 40
21.0
 40
21.0
 40
22.0
 40
22.0
 40
22.0
 40
23.0
 40
23.0
 40
23.0
 40
24.0
 40
24.0
 40
24.0
 40
25.0
 40
25.0
 40
25.0
 40
26.0
 40
26.0
 40
26.0
 40
27.0
 40
27.0
 40
27.0
 40
28.0
 40
28.0
 40
28.0
 40
29.0
 40
29.0
 40
29.0
 40
30.0
 40
30.0
 40
30.0
 40
31.0
 40
31.0
 40
31.0
 40
32.0
 40
32.0
 40
32.0
 40
33.0
 40
33.0
 40
33.0
 40
34.0
 40
34.0
 40
34.0
 40
35.0
 40
35.0
 40
35.0
 40
36.0
 40
36.0
 40
36.0
 40
36.0
 10
92.8318823538836
 20
-125.3243055242245
 30
0.0
 10
92.8318823538836
 20
-125.3243055242245
 30
0.0
 10
106.4799749733802
 20
-125.3684027464357
 30
0.0
 10
106.4799749733802
 20
-125.3684027464357
 30
0.0
 10
106.4799749733802
 20
-125.3684027464357
 30
0.0
 10
106.4799749733802
 20
-125.9416666351812
 30
0.0
 10
106.4799749733802
 20
-125.9416666351812
 30
0.0
 10
106.4799749733802
 20
-125.9416666351812
 30
0.0
 10
103.2167805297516
 20
-125.9857638573925
 30
0.0
 10
103.2167805297516
 20
-125.9857638573925
 30
0.0
 10
103.2167805297516
 20
-125.9857638573925
 30
0.0
 10
102.9962944186956
 20
-125.8093749685477
 30
0.0
 10
102.9962944186956
 20
-125.8093749685477
 30
0.0
 10
102.9962944186956
 20
-125.8093749685477
 30
0.0
 10
102.8860487640471
 20
-125.9857638573925
 30
0.0
 10
102.8860487640471
 20
-125.9857638573925
 30
0.0
 10
102.8860487640471
 20
-125.9857638573925
 30
0.0
 10
93.05236845936963
 20
-125.9637152462869
 30
0.0
 10
93.05236845936963
 20
-125.9637152462869
 30
0.0
 10
93.05236845936963
 20
-125.9637152462869
 30
0.0
 10
92.50115553243046
 20
-126.4928819128212
 30
0.0
 10
92.50115553243046
 20
-126.4928819128212
 30
0.0
 10
92.50115553243046
 20
-126.4928819128212
 30
0.0
 10
92.52320180620313
 20
-132.9090277445505
 30
0.0
 10
92.52320180620313
 20
-132.9090277445505
 30
0.0
 10
92.52320180620313
 20
-132.9090277445505
 30
0.0
 10
97.81486833786815
 20
-132.8649305223393
 30
0.0
 10
97.81486833786815
 20
-132.8649305223393
 30
0.0
 10
97.81486833786815
 20
-132.8649305223393
 30
0.0
 10
97.79282219777421
 20
-131.784548578165
 30
0.0
 10
97.79282219777421
 20
-131.784548578165
 30
0.0
 10
97.79282219777421
 20
-131.784548578165
 30
0.0
 10
98.29993776993743
 20
-131.7624999670594
 30
0.0
 10
98.29993776993743
 20
-131.7624999670594
 30
0.0
 10
98.29993776993743
 20
-131.7624999670594
 30
0.0
 10
98.34403499103465
 20
-133.1074652445009
 30
0.0
 10
98.34403499103465
 20
-133.1074652445009
 30
0.0
 10
98.34403499103465
 20
-133.1074652445009
 30
0.0
 10
98.1676461066458
 20
-133.5704860777185
 30
0.0
 10
97.88101664219661
 20
-133.5704860777185
 30
0.0
 10
97.88101664219661
 20
-133.5704860777185
 30
0.0
 10
86.37164164507362
 20
-133.5484374666129
 30
0.0
 10
86.37164164507362
 20
-133.5484374666129
 30
0.0
 10
86.37164164507362
 20
-133.5484374666129
 30
0.0
 10
86.08500752601071
 20
-133.3499999666625
 30
0.0
 10
86.08500752601071
 20
-133.3499999666625
 30
0.0
 10
86.08500752601071
 20
-133.3499999666625
 30
0.0
 10
86.01886386738404
 20
-132.9972221889729
 30
0.0
 10
86.01886386738404
 20
-132.9972221889729
 30
0.0
 10
86.01886386738404
 20
-132.9972221889729
 30
0.0
 10
84.60775275662571
 20
-132.5782985779665
 30
0.0
 10
84.51955831220332
 20
-131.9168402447986
 30
0.0
 10
84.51955831220332
 20
-131.9168402447986
 30
0.0
 10
84.18882701883075
 20
-131.2994791338418
 30
0.0
 10
84.34316942335853
 20
-130.8364583006242
 30
0.0
 10
84.34316942335853
 20
-130.8364583006242
 30
0.0
 10
84.56365553441451
 20
-130.4395833007235
 30
0.0
 10
84.56365553441451
 20
-130.4395833007235
 30
0.0
 10
84.56365553441451
 20
-130.4395833007235
 30
0.0
 10
84.80618811419167
 20
-130.4836805229346
 30
0.0
 10
84.80618811419167
 20
-130.4836805229346
 30
0.0
 10
84.80618811419167
 20
-130.4836805229346
 30
0.0
 10
85.00462775652649
 20
-130.7041666339906
 30
0.0
 10
85.00462775652649
 20
-130.7041666339906
 30
0.0
 10
85.00462775652649
 20
-130.7041666339906
 30
0.0
 10
84.8723360898929
 20
-131.012847189469
 30
0.0
 10
84.8723360898929
 20
-131.1671874672082
 30
0.0
 10
84.8723360898929
 20
-131.1671874672082
 30
0.0
 10
84.80618811419167
 20
-132.0932291336434
 30
0.0
 10
85.75428053411686
 20
-132.2696180224881
 30
0.0
 10
85.75428053411686
 20
-132.2696180224881
 30
0.0
 10
87.0330999782416
 20
-132.6003471890722
 30
0.0
 10
87.23153527453813
 20
-131.233333300525
 30
0.0
 10
87.23153527453813
 20
-131.233333300525
 30
0.0
 10
87.0330999782416
 20
-130.6380208006738
 30
0.0
 10
87.0330999782416
 20
-130.6380208006738
 30
0.0
 10
87.0330999782416
 20
-130.6380208006738
 30
0.0
 10
86.8126138671856
 20
-130.2852430229842
 30
0.0
 10
86.8126138671856
 20
-130.2852430229842
 30
0.0
 10
86.8126138671856
 20
-130.2852430229842
 30
0.0
 10
86.74646584246884
 20
-130.0206596897171
 30
0.0
 10
86.74646584246884
 20
-130.0206596897171
 30
0.0
 10
86.74646584246884
 20
-130.0206596897171
 30
0.0
 10
87.01104916905209
 20
-129.7340277453443
 30
0.0
 10
87.01104916905209
 20
-129.7340277453443
 30
0.0
 10
87.01104916905209
 20
-129.7340277453443
 30
0.0
 10
87.5843130433158
 20
-130.0427083008227
 30
0.0
 10
87.5843130433158
 20
-130.1529513563507
 30
0.0
 10
87.5843130433158
 20
-130.2631944118787
 30
0.0
 10
87.82684997804316
 20
-131.012847189469
 30
0.0
 10
87.82684997804316
 20
-131.012847189469
 30
0.0
 10
87.82684997804316
 20
-131.012847189469
 30
0.0
 10
87.5843130433158
 20
-131.9829860781154
 30
0.0
 10
87.5843130433158
 20
-131.9829860781154
 30
0.0
 10
87.5843130433158
 20
-131.9829860781154
 30
0.0
 10
87.16539164487519
 20
-132.5342013557554
 30
0.0
 10
87.16539164487519
 20
-132.5342013557554
 30
0.0
 10
87.16539164487519
 20
-132.5342013557554
 30
0.0
 10
87.34178053371998
 20
-132.8649305223393
 30
0.0
 10
87.34178053371998
 20
-132.8649305223393
 30
0.0
 10
87.34178053371998
 20
-132.8649305223393
 30
0.0
 10
91.90584071084221
 20
-132.9090277445505
 30
0.0
 10
91.90584071084221
 20
-132.9090277445505
 30
0.0
 10
91.90584071084221
 20
-132.9090277445505
 30
0.0
 10
91.90584071084221
 20
-126.2062499684484
 30
0.0
 10
91.90584071084221
 20
-126.2062499684484
 30
0.0
 10
91.90584071084221
 20
-126.2062499684484
 30
0.0
 10
92.8318823538836
 20
-125.3243055242245
 30
0.0
 10
92.8318823538836
 20
-125.3243055242245
 30
0.0
  0
HATCH
  5
44
330
1F
100
AcDbEntity
  8
_U+30EC_U+30A4_U+30E4_U+30FC 1
 62
   253
420
 11711154
100
AcDbHatch
 10
0.0
 20
0.0
 30
0.0
210
0.0
220
0.0
230
1.0
  2
SOLID
 70
     1
 71
     0
 91
        1
 92
        1
 93
        1
 72
     4
 94
        3
 73
     0
 74
     1
 95
      113
 96
      109
 40
0.0
 40
0.0
 40
0.0
 40
0.0
 40
1.0
 40
1.0
 40
1.0
 40
2.0
 40
2.0
 40
2.0
 40
3.0
 40
3.0
 40
3.0
 40
4.0
 40
4.0
 40
4.0
 40
5.0
 40
5.0
 40
5.0
 40
6.0
 40
6.0
 40
6.0
 40
7.0
 40
7.0
 40
7.0
 40
8.0
 40
8.0
 40
8.0
 40
9.0
 40
9.0
 40
9.0
 40
10.0
 40
10.0
 40
10.0
 40
11.0
 40
11.0
 40
11.0
 40
12.0
 40
12.0
 40
12.0
 40
13.0
 40
13.0
 40
13.0
 40
14.0
 40
14.0
 40
14.0
 40
15.0
 40
15.0
 40
15.0
 40
16.0
 40
16.0
 40
16.0
 40
17.0
 40
17.0
 40
17.0
 40
18.0
 40
18.0
 40
18.0
 40
19.0
 40
19.0
 40
19.0
 40
20.0
 40
20.0
 40
20.0
 40
21.0
 40
21.0
 40
21.0
 40
22.0
 40
22.0
 40
22.0
 40
23.0
 40
23.0
 40
23.0
 40
24.0
 40
24.0
 40
24.0
 40
25.0
 40
25.0
 40
25.0
 40
26.0
 40
26.0
 40
26.0
 40
27.0
 40
27.0
 40
27.0
 40
28.0
 40
28.0
 40
28.0
 40
29.0
 40
29.0
 40
29.0
 40
30.0
 40
30.0
 40
30.0
 40
31.0
 40
31.0
 40
31.0
 40
32.0
 40
32.0
 40
32.0
 40
33.0
 40
33.0
 40
33.0
 40
34.0
 40
34.0
 40
34.0
 40
35.0
 40
35.0
 40
35.0
 40
36.0
 40
36.0
 40
36.0
 40
36.0
 10
92.8318823538836
 20
-125.3243055242245
 10
92.8318823538836
 20
-125.3243055242245
 10
106.4799749733802
 20
-125.3684027464357
 10
106.4799749733802
 20
-125.3684027464357
 10
106.4799749733802
 20
-125.3684027464357
 10
106.4799749733802
 20
-125.9416666351812
 10
106.4799749733802
 20
-125.9416666351812
 10
106.4799749733802
 20
-125.9416666351812
 10
103.2167805297516
 20
-125.9857638573925
 10
103.2167805297516
 20
-125.9857638573925
 10
103.2167805297516
 20
-125.9857638573925
 10
102.9962944186956
 20
-125.8093749685477
 10
102.9962944186956
 20
-125.8093749685477
 10
102.9962944186956
 20
-125.8093749685477
 10
102.8860487640471
 20
-125.9857638573925
 10
102.8860487640471
 20
-125.9857638573925
 10
102.8860487640471
 20
-125.9857638573925
 10
93.05236845936963
 20
-125.9637152462869
 10
93.05236845936963
 20
-125.9637152462869
 10
93.05236845936963
 20
-125.9637152462869
 10
92.50115553243046
 20
-126.4928819128212
 10
92.50115553243046
 20
-126.4928819128212
 10
92.50115553243046
 20
-126.4928819128212
 10
92.52320180620313
 20
-132.9090277445505
 10
92.52320180620313
 20
-132.9090277445505
 10
92.52320180620313
 20
-132.9090277445505
 10
97.81486833786815
 20
-132.8649305223393
 10
97.81486833786815
 20
-132.8649305223393
 10
97.81486833786815
 20
-132.8649305223393
 10
97.79282219777421
 20
-131.784548578165
 10
97.79282219777421
 20
-131.784548578165
 10
97.79282219777421
 20
-131.784548578165
 10
98.29993776993743
 20
-131.7624999670594
 10
98.29993776993743
 20
-131.7624999670594
 10
98.29993776993743
 20
-131.7624999670594
 10
98.34403499103465
 20
-133.1074652445009
 10
98.34403499103465
 20
-133.1074652445009
 10
98.34403499103465
 20
-133.1074652445009
 10
98.1676461066458
 20
-133.5704860777185
 10
97.88101664219661
 20
-133.5704860777185
 10
97.88101664219661
 20
-133.5704860777185
 10
86.37164164507362
 20
-133.5484374666129
 10
86.37164164507362
 20
-133.5484374666129
 10
86.37164164507362
 20
-133.5484374666129
 10
86.08500752601071
 20
-133.3499999666625
 10
86.08500752601071
 20
-133.3499999666625
 10
86.08500752601071
 20
-133.3499999666625
 10
86.01886386738404
 20
-132.9972221889729
 10
86.01886386738404
 20
-132.9972221889729
 10
86.01886386738404
 20
-132.9972221889729
 10
84.60775275662571
 20
-132.5782985779665
 10
84.51955831220332
 20
-131.9168402447986
 10
84.51955831220332
 20
-131.9168402447986
 10
84.18882701883075
 20
-131.2994791338418
 10
84.34316942335853
 20
-130.8364583006242
 10
84.34316942335853
 20
-130.8364583006242
 10
84.56365553441451
 20
-130.4395833007235
 10
84.56365553441451
 20
-130.4395833007235
 10
84.56365553441451
 20
-130.4395833007235
 10
84.80618811419167
 20
-130.4836805229346
 10
84.80618811419167
 20
-130.4836805229346
 10
84.80618811419167
 20
-130.4836805229346
 10
85.00462775652649
 20
-130.7041666339906
 10
85.00462775652649
 20
-130.7041666339906
 10
85.00462775652649
 20
-130.7041666339906
 10
84.8723360898929
 20
-131.012847189469
 10
84.8723360898929
 20
-131.1671874672082
 10
84.8723360898929
 20
-131.1671874672082
 10
84.80618811419167
 20
-132.0932291336434
 10
85.75428053411686
 20
-132.2696180224881
 10
85.75428053411686
 20
-132.2696180224881
 10
87.0330999782416
 20
-132.6003471890722
 10
87.23153527453813
 20
-131.233333300525
 10
87.23153527453813
 20
-131.233333300525
 10
87.0330999782416
 20
-130.6380208006738
 10
87.0330999782416
 20
-130.6380208006738
 10
87.0330999782416
 20
-130.6380208006738
 10
86.8126138671856
 20
-130.2852430229842
 10
86.8126138671856
 20
-130.2852430229842
 10
86.8126138671856
 20
-130.2852430229842
 10
86.74646584246884
 20
-130.0206596897171
 10
86.74646584246884
 20
-130.0206596897171
 10
86.74646584246884
 20
-130.0206596897171
 10
87.01104916905209
 20
-129.7340277453443
 10
87.01104916905209
 20
-129.7340277453443
 10
87.01104916905209
 20
-129.7340277453443
 10
87.5843130433158
 20
-130.0427083008227
 10
87.5843130433158
 20
-130.1529513563507
 10
87.5843130433158
 20
-130.2631944118787
 10
87.82684997804316
 20
-131.012847189469
 10
87.82684997804316
 20
-131.012847189469
 10
87.82684997804316
 20
-131.012847189469
 10
87.5843130433158
 20
-131.9829860781154
 10
87.5843130433158
 20
-131.9829860781154
 10
87.5843130433158
 20
-131.9829860781154
 10
87.16539164487519
 20
-132.5342013557554
 10
87.16539164487519
 20
-132.5342013557554
 10
87.16539164487519
 20
-132.5342013557554
 10
87.34178053371998
 20
-132.8649305223393
 10
87.34178053371998
 20
-132.8649305223393
 10
87.34178053371998
 20
-132.8649305223393
 10
91.90584071084221
 20
-132.9090277445505
 10
91.90584071084221
 20
-132.9090277445505
 10
91.90584071084221
 20
-132.9090277445505
 10
91.90584071084221
 20
-126.2062499684484
 10
91.90584071084221
 20
-126.2062499684484
 10
91.90584071084221
 20
-126.2062499684484
 10
92.8318823538836
 20
-125.3243055242245
 10
92.8318823538836
 20
-125.3243055242245
 97
        0
 97
        0
 75
     2
 76
     1
 98
        0
  0
INSERT
  5
46
330
1F
100
AcDbEntity
  8
_U+30EC_U+30A4_U+30E4_U+30FC 1
100
AcDbBlockReference
  2
block 2
 10
0.0
 20
0.0
 30
0.0
  0
INSERT
  5
4F
330
1F
100
AcDbEntity
  8
_U+30EC_U+30A4_U+30E4_U+30FC 1
100
AcDbBlockReference
  2
block 3
 10
0.0
 20
0.0
 30
0.0
  0
INSERT
  5
58
330
1F
100
AcDbEntity
  8
_U+30EC_U+30A4_U+30E4_U+30FC 1
100
AcDbBlockReference
  2
block 4
 10
0.0
 20
0.0
 30
0.0
  0
INSERT
  5
73
330
1F
100
AcDbEntity
  8
_U+30EC_U+30A4_U+30E4_U+30FC 1
100
AcDbBlockReference
  2
block 5
 10
0.0
 20
0.0
 30
0.0
  0
INSERT
  5
79
330
1F
100
AcDbEntity
  8
_U+30EC_U+30A4_U+30E4_U+30FC 1
100
AcDbBlockReference
  2
block 6
 10
0.0
 20
0.0
 30
0.0
  0
SPLINE
  5
81
330
1F
100
AcDbEntity
  8
_U+30EC_U+30A4_U+30E4_U+30FC 1
 62
   179
420
  2234388
370
     9
100
AcDbSpline
210
0.0
220
0.0
230
1.0
 70
    11
 71
     3
 72
    17
 73
    13
 74
     0
 42
0.0000000001
 43
0.0000000001
 12
1.0
 22
0.0
 32
0.0
 13
1.0
 23
0.0
 33
0.0
 40
0.0
 40
0.0
 40
0.0
 40
0.0
 40
1.0
 40
1.0
 40
1.0
 40
2.0
 40
2.0
 40
2.0
 40
3.0
 40
3.0
 40
3.0
 40
4.0
 40
4.0
 40
4.0
 40
4.0
 10
65.60770443731913
 20
-121.4067083029818
 30
0.0
 10
65.60770443731913
 20
-121.4058616363153
 30
0.0
 10
65.60632860402089
 20
-121.4058616363153
 30
0.0
 10
65.60632860402089
 20
-121.4058616363153
 30
0.0
 10
65.60565832626021
 20
-121.4058616363153
 30
0.0
 10
65.60565832626021
 20
-121.4058616363153
 30
0.0
 10
65.60565832626021
 20
-121.4067083029818
 30
0.0
 10
65.60565832626021
 20
-121.4067083029818
 30
0.0
 10
65.60565832626021
 20
-121.4067083029818
 30
0.0
 10
65.60632860402089
 20
-121.4067083029818
 30
0.0
 10
65.60632860402089
 20
-121.4067083029818
 30
0.0
 10
65.60770443731913
 20
-121.4067083029818
 30
0.0
 10
65.60770443731913
 20
-121.4067083029818
 30
0.0
  0
SPLINE
  5
82
330
1F
100
AcDbEntity
  8
_U+30EC_U+30A4_U+30E4_U+30FC 1
 62
   179
420
  2234388
370
     9
100
AcDbSpline
210
0.0
220
0.0
230
1.0
 70
    11
 71
     3
 72
    17
 73
    13
 74
     0
 42
0.0000000001
 43
0.0000000001
 12
1.0
 22
0.0
 32
0.0
 13
1.0
 23
0.0
 33
0.0
 40
0.0
 40
0.0
 40
0.0
 40
0.0
 40
1.0
 40
1.0
 40
1.0
 40
2.0
 40
2.0
 40
2.0
 40
3.0
 40
3.0
 40
3.0
 40
4.0
 40
4.0
 40
4.0
 40
4.0
 10
65.60770443731913
 20
-125.3375699686655
 30
0.0
 10
65.60770443731913
 20
-125.3368644131103
 30
0.0
 10
65.60632860402089
 20
-125.3368644131103
 30
0.0
 10
65.60632860402089
 20
-125.3368644131103
 30
0.0
 10
65.60565832626021
 20
-125.3368644131103
 30
0.0
 10
65.60565832626021
 20
-125.3368644131103
 30
0.0
 10
65.60565832626021
 20
-125.3375699686655
 30
0.0
 10
65.60565832626021
 20
-125.3375699686655
 30
0.0
 10
65.60565832626021
 20
-125.3375699686655
 30
0.0
 10
65.60632860402089
 20
-125.3375699686655
 30
0.0
 10
65.60632860402089
 20
-125.3375699686655
 30
0.0
 10
65.60770443731913
 20
-125.3375699686655
 30
0.0
 10
65.60770443731913
 20
-125.3375699686655
 30
0.0
  0
SPLINE
  5
83
330
1F
100
AcDbEntity
  8
_U+30EC_U+30A4_U+30E4_U+30FC 1
 62
   179
420
  2234388
370
     9
100
AcDbSpline
210
0.0
220
0.0
230
1.0
 70
    11
 71
     3
 72
    17
 73
    13
 74
     0
 42
0.0000000001
 43
0.0000000001
 12
1.0
 22
0.0
 32
0.0
 13
1.0
 23
0.0
 33
0.0
 40
0.0
 40
0.0
 40
0.0
 40
0.0
 40
1.0
 40
1.0
 40
1.0
 40
2.0
 40
2.0
 40
2.0
 40
3.0
 40
3.0
 40
3.0
 40
4.0
 40
4.0
 40
4.0
 40
4.0
 10
106.536134504259
 20
-125.3375699686655
 30
0.0
 10
106.536134504259
 20
-125.3368644131103
 30
0.0
 10
106.5351114487295
 20
-125.3368644131103
 30
0.0
 10
106.5351114487295
 20
-125.3368644131103
 30
0.0
 10
106.5351114487295
 20
-125.3368644131103
 30
0.0
 10
106.534405893192
 20
-125.3368644131103
 30
0.0
 10
106.534405893192
 20
-125.3375699686655
 30
0.0
 10
106.534405893192
 20
-125.3375699686655
 30
0.0
 10
106.5351114487295
 20
-125.3375699686655
 30
0.0
 10
106.5351114487295
 20
-125.3375699686655
 30
0.0
 10
106.5351114487295
 20
-125.3375699686655
 30
0.0
 10
106.536134504259
 20
-125.3375699686655
 30
0.0
 10
106.536134504259
 20
-125.3375699686655
 30
0.0
  0
POLYLINE
  5
84
330
1F
100
AcDbEntity
  8
_U+30EC_U+30A4_U+30E4_U+30FC 1
 62
   179
420
  2234388
370
     9
100
AcDb2dPolyline
 66
     1
 10
0.0
 20
0.0
 30
0.0
  0
VERTEX
  5
85
330
84
100
AcDbEntity
  8
_U+30EC_U+30A4_U+30E4_U+30FC 1
 62
   179
420
  2234388
370
     9
100
AcDbVertex
100
AcDb2dVertex
 10
106.5351114487295
 20
-120.63983996984
 30
0.0
  0
VERTEX
  5
86
330
84
100
AcDbEntity
  8
_U+30EC_U+30A4_U+30E4_U+30FC 1
 62
   179
420
  2234388
370
     9
100
AcDbVertex
100
AcDb2dVertex
 10
65.60632860402089
 20
-120.63983996984
 30
0.0
  0
SEQEND
  5
87
330
84
100
AcDbEntity
  8
_U+30EC_U+30A4_U+30E4_U+30FC 1
 62
   179
420
  2234388
370
     9
  0
POLYLINE
  5
88
330
1F
100
AcDbEntity
  8
_U+30EC_U+30A4_U+30E4_U+30FC 1
 62
   179
420
  2234388
370
     9
100
AcDb2dPolyline
 66
     1
 10
0.0
 20
0.0
 30
0.0
  0
VERTEX
  5
89
330
88
100
AcDbEntity
  8
_U+30EC_U+30A4_U+30E4_U+30FC 1
 62
   179
420
  2234388
370
     9
100
AcDbVertex
100
AcDb2dVertex
 10
65.60632860402089
 20
-124.9720569132015
 30
0.0
  0
VERTEX
  5
8A
330
88
100
AcDbEntity
  8
_U+30EC_U+30A4_U+30E4_U+30FC 1
 62
   179
420
  2234388
370
     9
100
AcDbVertex
100
AcDb2dVertex
 10
65.60632860402089
 20
-120.6755058031644
 30
0.0
  0
SEQEND
  5
8B
330
88
100
AcDbEntity
  8
_U+30EC_U+30A4_U+30E4_U+30FC 1
 62
   179
420
  2234388
370
     9
  0
POLYLINE
  5
8C
330
1F
100
AcDbEntity
  8
_U+30EC_U+30A4_U+30E4_U+30FC 1
 62
   179
420
  2234388
370
     9
100
AcDb2dPolyline
 66
     1
 10
0.0
 20
0.0
 30
0.0
  0
VERTEX
  5
8D
330
8C
100
AcDbEntity
  8
_U+30EC_U+30A4_U+30E4_U+30FC 1
 62
   179
420
  2234388
370
     9
100
AcDbVertex
100
AcDb2dVertex
 10
106.5351114487295
 20
-124.9720569132015
 30
0.0
  0
VERTEX
  5
8E
330
8C
100
AcDbEntity
  8
_U+30EC_U+30A4_U+30E4_U+30FC 1
 62
   179
420
  2234388
370
     9
100
AcDbVertex
100
AcDb2dVertex
 10
106.5351114487295
 20
-120.6755058031644
 30
0.0
  0
SEQEND
  5
8F
330
8C
100
AcDbEntity
  8
_U+30EC_U+30A4_U+30E4_U+30FC 1
 62
   179
420
  2234388
370
     9
  0
SPLINE
  5
90
330
1F
100
AcDbEntity
  8
_U+30EC_U+30A4_U+30E4_U+30FC 1
 62
   179
420
  2234388
370
     9
100
AcDbSpline
210
0.0
220
0.0
230
1.0
 70
    11
 71
     3
 72
    17
 73
    13
 74
     0
 42
0.0000000001
 43
0.0000000001
 12
1.0
 22
0.0
 32
0.0
 13
1.0
 23
0.0
 33
0.0
 40
0.0
 40
0.0
 40
0.0
 40
0.0
 40
1.0
 40
1.0
 40
1.0
 40
2.0
 40
2.0
 40
2.0
 40
3.0
 40
3.0
 40
3.0
 40
4.0
 40
4.0
 40
4.0
 40
4.0
 10
115.885098154636
 20
-125.9218405240751
 30
0.0
 10
115.885098154636
 20
-125.9218405240751
 30
0.0
 10
115.8847453768672
 20
-125.9218405240751
 30
0.0
 10
115.8847453768672
 20
-125.9218405240751
 30
0.0
 10
115.8847453768672
 20
-125.9218405240751
 30
0.0
 10
115.8847453768672
 20
-125.9218405240751
 30
0.0
 10
115.8847453768672
 20
-125.9218405240751
 30
0.0
 10
115.8847453768672
 20
-125.9223696907417
 30
0.0
 10
115.8847453768672
 20
-125.9223696907417
 30
0.0
 10
115.8847453768672
 20
-125.9223696907417
 30
0.0
 10
115.8847453768672
 20
-125.9223696907417
 30
0.0
 10
115.885098154636
 20
-125.9223696907417
 30
0.0
 10
115.885098154636
 20
-125.9218405240751
 30
0.0
  0
SPLINE
  5
91
330
1F
100
AcDbEntity
  8
_U+30EC_U+30A4_U+30E4_U+30FC 1
 62
   179
420
  2234388
370
     9
100
AcDbSpline
210
0.0
220
0.0
230
1.0
 70
    11
 71
     3
 72
    17
 73
    13
 74
     0
 42
0.0000000001
 43
0.0000000001
 12
1.0
 22
0.0
 32
0.0
 13
1.0
 23
0.0
 33
0.0
 40
0.0
 40
0.0
 40
0.0
 40
0.0
 40
1.0
 40
1.0
 40
1.0
 40
2.0
 40
2.0
 40
2.0
 40
3.0
 40
3.0
 40
3.0
 40
4.0
 40
4.0
 40
4.0
 40
4.0
 10
106.536134504259
 20
-125.9218405240751
 30
0.0
 10
106.536134504259
 20
-125.9218405240751
 30
0.0
 10
106.5351114487295
 20
-125.9218405240751
 30
0.0
 10
106.5351114487295
 20
-125.9218405240751
 30
0.0
 10
106.5351114487295
 20
-125.9218405240751
 30
0.0
 10
106.534405893192
 20
-125.9218405240751
 30
0.0
 10
106.534405893192
 20
-125.9218405240751
 30
0.0
 10
106.534405893192
 20
-125.9223696907417
 30
0.0
 10
106.5351114487295
 20
-125.9223696907417
 30
0.0
 10
106.5351114487295
 20
-125.9223696907417
 30
0.0
 10
106.5351114487295
 20
-125.9223696907417
 30
0.0
 10
106.536134504259
 20
-125.9223696907417
 30
0.0
 10
106.536134504259
 20
-125.9218405240751
 30
0.0
  0
POLYLINE
  5
92
330
1F
100
AcDbEntity
  8
_U+30EC_U+30A4_U+30E4_U+30FC 1
 62
   179
420
  2234388
370
     9
100
AcDb2dPolyline
 66
     1
 10
0.0
 20
0.0
 30
0.0
  0
VERTEX
  5
93
330
92
100
AcDbEntity
  8
_U+30EC_U+30A4_U+30E4_U+30FC 1
 62
   179
420
  2234388
370
     9
100
AcDbVertex
100
AcDb2dVertex
 10
98.34922082423567
 20
-131.7690616337242
 30
0.0
  0
VERTEX
  5
94
330
92
100
AcDbEntity
  8
_U+30EC_U+30A4_U+30E4_U+30FC 1
 62
   179
420
  2234388
370
     9
100
AcDbVertex
100
AcDb2dVertex
 10
98.34922082423567
 20
-131.7680033003916
 30
0.0
  0
VERTEX
  5
95
330
92
100
AcDbEntity
  8
_U+30EC_U+30A4_U+30E4_U+30FC 1
 62
   179
420
  2234388
370
     9
100
AcDbVertex
100
AcDb2dVertex
 10
98.3488680464669
 20
-131.7690616337242
 30
0.0
  0
VERTEX
  5
96
330
92
100
AcDbEntity
  8
_U+30EC_U+30A4_U+30E4_U+30FC 1
 62
   179
420
  2234388
370
     9
100
AcDbVertex
100
AcDb2dVertex
 10
98.34922082423567
 20
-131.77008468928
 30
0.0
  0
VERTEX
  5
97
330
92
100
AcDbEntity
  8
_U+30EC_U+30A4_U+30E4_U+30FC 1
 62
   179
420
  2234388
370
     9
100
AcDbVertex
100
AcDb2dVertex
 10
98.34922082423567
 20
-131.7690616337242
 30
0.0
  0
SEQEND
  5
98
330
92
100
AcDbEntity
  8
_U+30EC_U+30A4_U+30E4_U+30FC 1
 62
   179
420
  2234388
370
     9
  0
POLYLINE
  5
99
330
1F
100
AcDbEntity
  8
_U+30EC_U+30A4_U+30E4_U+30FC 1
 62
   179
420
  2234388
370
     9
100
AcDb2dPolyline
 66
     1
 10
0.0
 20
0.0
 30
0.0
  0
VERTEX
  5
9A
330
99
100
AcDbEntity
  8
_U+30EC_U+30A4_U+30E4_U+30FC 1
 62
   179
420
  2234388
370
     9
100
AcDbVertex
100
AcDb2dVertex
 10
115.8847453768672
 20
-131.7690616337242
 30
0.0
  0
VERTEX
  5
9B
330
99
100
AcDbEntity
  8
_U+30EC_U+30A4_U+30E4_U+30FC 1
 62
   179
420
  2234388
370
     9
100
AcDbVertex
100
AcDb2dVertex
 10
115.8847453768672
 20
-126.0216060796057
 30
0.0
  0
SEQEND
  5
9C
330
99
100
AcDbEntity
  8
_U+30EC_U+30A4_U+30E4_U+30FC 1
 62
   179
420
  2234388
370
     9
  0
POLYLINE
  5
9D
330
1F
100
AcDbEntity
  8
_U+30EC_U+30A4_U+30E4_U+30FC 1
 62
   179
420
  2234388
370
     9
100
AcDb2dPolyline
 66
     1
 10
0.0
 20
0.0
 30
0.0
  0
VERTEX
  5
9E
330
9D
100
AcDbEntity
  8
_U+30EC_U+30A4_U+30E4_U+30FC 1
 62
   179
420
  2234388
370
     9
100
AcDbVertex
100
AcDb2dVertex
 10
106.9006244949601
 20
-125.9218405240751
 30
0.0
  0
VERTEX
  5
9F
330
9D
100
AcDbEntity
  8
_U+30EC_U+30A4_U+30E4_U+30FC 1
 62
   179
420
  2234388
370
     9
100
AcDbVertex
100
AcDb2dVertex
 10
115.8847453768672
 20
-125.9218405240751
 30
0.0
  0
SEQEND
  5
A0
330
9D
100
AcDbEntity
  8
_U+30EC_U+30A4_U+30E4_U+30FC 1
 62
   179
420
  2234388
370
     9
  0
POLYLINE
  5
A1
330
1F
100
AcDbEntity
  8
_U+30EC_U+30A4_U+30E4_U+30FC 1
 62
   179
420
  2234388
370
     9
100
AcDb2dPolyline
 66
     1
 10
0.0
 20
0.0
 30
0.0
  0
VERTEX
  5
A2
330
A1
100
AcDbEntity
  8
_U+30EC_U+30A4_U+30E4_U+30FC 1
 62
   179
420
  2234388
370
     9
100
AcDbVertex
100
AcDb2dVertex
 10
98.71508664823499
 20
-131.7690616337242
 30
0.0
  0
VERTEX
  5
A3
330
A1
100
AcDbEntity
  8
_U+30EC_U+30A4_U+30E4_U+30FC 1
 62
   179
420
  2234388
370
     9
100
AcDbVertex
100
AcDb2dVertex
 10
115.8847453768672
 20
-131.7690616337242
 30
0.0
  0
SEQEND
  5
A4
330
A1
100
AcDbEntity
  8
_U+30EC_U+30A4_U+30E4_U+30FC 1
 62
   179
420
  2234388
370
     9
  0
SPLINE
  5
A5
330
1F
100
AcDbEntity
  8
_U+30EC_U+30A4_U+30E4_U+30FC 1
 62
   179
420
  2234388
370
     9
100
AcDbSpline
210
0.0
220
0.0
230
1.0
 70
    11
 71
     3
 72
    17
 73
    13
 74
     0
 42
0.0000000001
 43
0.0000000001
 12
1.0
 22
0.0
 32
0.0
 13
1.0
 23
0.0
 33
0.0
 40
0.0
 40
0.0
 40
0.0
 40
0.0
 40
1.0
 40
1.0
 40
1.0
 40
2.0
 40
2.0
 40
2.0
 40
3.0
 40
3.0
 40
3.0
 40
4.0
 40
4.0
 40
4.0
 40
4.0
 10
115.885098154636
 20
-133.5232844110638
 30
0.0
 10
115.885098154636
 20
-133.5222613555086
 30
0.0
 10
115.8847453768672
 20
-133.5222613555086
 30
0.0
 10
115.8847453768672
 20
-133.5222613555086
 30
0.0
 10
115.8847453768672
 20
-133.5222613555086
 30
0.0
 10
115.8847453768672
 20
-133.5222613555086
 30
0.0
 10
115.8847453768672
 20
-133.5232844110638
 30
0.0
 10
115.8847453768672
 20
-133.5232844110638
 30
0.0
 10
115.8847453768672
 20
-133.5232844110638
 30
0.0
 10
115.8847453768672
 20
-133.5232844110638
 30
0.0
 10
115.8847453768672
 20
-133.5232844110638
 30
0.0
 10
115.885098154636
 20
-133.5232844110638
 30
0.0
 10
115.885098154636
 20
-133.5232844110638
 30
0.0
  0
SPLINE
  5
A6
330
1F
100
AcDbEntity
  8
_U+30EC_U+30A4_U+30E4_U+30FC 1
 62
   179
420
  2234388
370
     9
100
AcDbSpline
210
0.0
220
0.0
230
1.0
 70
    11
 71
     3
 72
    17
 73
    13
 74
     0
 42
0.0000000001
 43
0.0000000001
 12
1.0
 22
0.0
 32
0.0
 13
1.0
 23
0.0
 33
0.0
 40
0.0
 40
0.0
 40
0.0
 40
0.0
 40
1.0
 40
1.0
 40
1.0
 40
2.0
 40
2.0
 40
2.0
 40
3.0
 40
3.0
 40
3.0
 40
4.0
 40
4.0
 40
4.0
 40
4.0
 10
97.76593806133869
 20
-133.5232844110638
 30
0.0
 10
97.76593806133869
 20
-133.5222613555086
 30
0.0
 10
97.76491500580923
 20
-133.5222613555086
 30
0.0
 10
97.76491500580923
 20
-133.5222613555086
 30
0.0
 10
97.76491500580923
 20
-133.5222613555086
 30
0.0
 10
97.76389442000355
 20
-133.5222613555086
 30
0.0
 10
97.76389442000355
 20
-133.5232844110638
 30
0.0
 10
97.76389442000355
 20
-133.5232844110638
 30
0.0
 10
97.76491500580923
 20
-133.5232844110638
 30
0.0
 10
97.76491500580923
 20
-133.5232844110638
 30
0.0
 10
97.76491500580923
 20
-133.5232844110638
 30
0.0
 10
97.76593806133869
 20
-133.5232844110638
 30
0.0
 10
97.76593806133869
 20
-133.5232844110638
 30
0.0
  0
POLYLINE
  5
A7
330
1F
100
AcDbEntity
  8
_U+30EC_U+30A4_U+30E4_U+30FC 1
 62
   179
420
  2234388
370
     9
100
AcDb2dPolyline
 66
     1
 10
0.0
 20
0.0
 30
0.0
  0
VERTEX
  5
A8
330
A7
100
AcDbEntity
  8
_U+30EC_U+30A4_U+30E4_U+30FC 1
 62
   179
420
  2234388
370
     9
100
AcDbVertex
100
AcDb2dVertex
 10
98.34922082423567
 20
-131.7690616337242
 30
0.0
  0
VERTEX
  5
A9
330
A7
100
AcDbEntity
  8
_U+30EC_U+30A4_U+30E4_U+30FC 1
 62
   179
420
  2234388
370
     9
100
AcDbVertex
100
AcDb2dVertex
 10
98.34922082423567
 20
-131.7680033003916
 30
0.0
  0
VERTEX
  5
AA
330
A7
100
AcDbEntity
  8
_U+30EC_U+30A4_U+30E4_U+30FC 1
 62
   179
420
  2234388
370
     9
100
AcDbVertex
100
AcDb2dVertex
 10
98.3488680464669
 20
-131.7690616337242
 30
0.0
  0
VERTEX
  5
AB
330
A7
100
AcDbEntity
  8
_U+30EC_U+30A4_U+30E4_U+30FC 1
 62
   179
420
  2234388
370
     9
100
AcDbVertex
100
AcDb2dVertex
 10
98.34922082423567
 20
-131.77008468928
 30
0.0
  0
VERTEX
  5
AC
330
A7
100
AcDbEntity
  8
_U+30EC_U+30A4_U+30E4_U+30FC 1
 62
   179
420
  2234388
370
     9
100
AcDbVertex
100
AcDb2dVertex
 10
98.34922082423567
 20
-131.7690616337242
 30
0.0
  0
SEQEND
  5
AD
330
A7
100
AcDbEntity
  8
_U+30EC_U+30A4_U+30E4_U+30FC 1
 62
   179
420
  2234388
370
     9
  0
POLYLINE
  5
AE
330
1F
100
AcDbEntity
  8
_U+30EC_U+30A4_U+30E4_U+30FC 1
 62
   179
420
  2234388
370
     9
100
AcDb2dPolyline
 66
     1
 10
0.0
 20
0.0
 30
0.0
  0
VERTEX
  5
AF
330
AE
100
AcDbEntity
  8
_U+30EC_U+30A4_U+30E4_U+30FC 1
 62
   179
420
  2234388
370
     9
100
AcDbVertex
100
AcDb2dVertex
 10
115.8847453768672
 20
-131.7690616337242
 30
0.0
  0
VERTEX
  5
B0
330
AE
100
AcDbEntity
  8
_U+30EC_U+30A4_U+30E4_U+30FC 1
 62
   179
420
  2234388
370
     9
100
AcDbVertex
100
AcDb2dVertex
 10
115.8847453768672
 20
-133.5232844110638
 30
0.0
  0
SEQEND
  5
B1
330
AE
100
AcDbEntity
  8
_U+30EC_U+30A4_U+30E4_U+30FC 1
 62
   179
420
  2234388
370
     9
  0
POLYLINE
  5
B2
330
1F
100
AcDbEntity
  8
_U+30EC_U+30A4_U+30E4_U+30FC 1
 62
   179
420
  2234388
370
     9
100
AcDb2dPolyline
 66
     1
 10
0.0
 20
0.0
 30
0.0
  0
VERTEX
  5
B3
330
B2
100
AcDbEntity
  8
_U+30EC_U+30A4_U+30E4_U+30FC 1
 62
   179
420
  2234388
370
     9
100
AcDbVertex
100
AcDb2dVertex
 10
115.8847453768672
 20
-133.5232844110638
 30
0.0
  0
VERTEX
  5
B4
330
B2
100
AcDbEntity
  8
_U+30EC_U+30A4_U+30E4_U+30FC 1
 62
   179
420
  2234388
370
     9
100
AcDbVertex
100
AcDb2dVertex
 10
115.8847453768672
 20
-138.5513907986955
 30
0.0
  0
SEQEND
  5
B5
330
B2
100
AcDbEntity
  8
_U+30EC_U+30A4_U+30E4_U+30FC 1
 62
   179
420
  2234388
370
     9
  0
POLYLINE
  5
B6
330
1F
100
AcDbEntity
  8
_U+30EC_U+30A4_U+30E4_U+30FC 1
 62
   179
420
  2234388
370
     9
100
AcDb2dPolyline
 66
     1
 10
0.0
 20
0.0
 30
0.0
  0
VERTEX
  5
B7
330
B6
100
AcDbEntity
  8
_U+30EC_U+30A4_U+30E4_U+30FC 1
 62
   179
420
  2234388
370
     9
100
AcDbVertex
100
AcDb2dVertex
 10
98.63066941978697
 20
-133.5232844110638
 30
0.0
  0
VERTEX
  5
B8
330
B6
100
AcDbEntity
  8
_U+30EC_U+30A4_U+30E4_U+30FC 1
 62
   179
420
  2234388
370
     9
100
AcDbVertex
100
AcDb2dVertex
 10
115.8847453768672
 20
-133.5232844110638
 30
0.0
  0
SEQEND
  5
B9
330
B6
100
AcDbEntity
  8
_U+30EC_U+30A4_U+30E4_U+30FC 1
 62
   179
420
  2234388
370
     9
  0
POLYLINE
  5
BA
330
1F
100
AcDbEntity
  8
_U+30EC_U+30A4_U+30E4_U+30FC 1
 62
   179
420
  2234388
370
     9
100
AcDb2dPolyline
 66
     1
 10
0.0
 20
0.0
 30
0.0
  0
VERTEX
  5
BB
330
BA
100
AcDbEntity
  8
_U+30EC_U+30A4_U+30E4_U+30FC 1
 62
   179
420
  2234388
370
     9
100
AcDbVertex
100
AcDb2dVertex
 10
98.71508664823499
 20
-131.7690616337242
 30
0.0
  0
VERTEX
  5
BC
330
BA
100
AcDbEntity
  8
_U+30EC_U+30A4_U+30E4_U+30FC 1
 62
   179
420
  2234388
370
     9
100
AcDbVertex
100
AcDb2dVertex
 10
115.8847453768672
 20
-131.7690616337242
 30
0.0
  0
SEQEND
  5
BD
330
BA
100
AcDbEntity
  8
_U+30EC_U+30A4_U+30E4_U+30FC 1
 62
   179
420
  2234388
370
     9
  0
SPLINE
  5
BE
330
1F
100
AcDbEntity
  8
_U+30EC_U+30A4_U+30E4_U+30FC 1
 62
   179
420
  2234388
370
     9
100
AcDbSpline
210
0.0
220
0.0
230
1.0
 70
    11
 71
     3
 72
    17
 73
    13
 74
     0
 42
0.0000000001
 43
0.0000000001
 12
1.0
 22
0.0
 32
0.0
 13
1.0
 23
0.0
 33
0.0
 40
0.0
 40
0.0
 40
0.0
 40
0.0
 40
1.0
 40
1.0
 40
1.0
 40
2.0
 40
2.0
 40
2.0
 40
3.0
 40
3.0
 40
3.0
 40
4.0
 40
4.0
 40
4.0
 40
4.0
 10
98.34922082423567
 20
-136.8791535768912
 30
0.0
 10
98.34922082423567
 20
-136.8784832991139
 30
0.0
 10
98.34922082423567
 20
-136.8784832991139
 30
0.0
 10
98.34922082423567
 20
-136.8784832991139
 30
0.0
 10
98.34922082423567
 20
-136.8784832991139
 30
0.0
 10
98.3488680464669
 20
-136.8784832991139
 30
0.0
 10
98.3488680464669
 20
-136.8791535768912
 30
0.0
 10
98.3488680464669
 20
-136.8791535768912
 30
0.0
 10
98.34922082423567
 20
-136.8791535768912
 30
0.0
 10
98.34922082423567
 20
-136.8791535768912
 30
0.0
 10
98.34922082423567
 20
-136.8791535768912
 30
0.0
 10
98.34922082423567
 20
-136.8791535768912
 30
0.0
 10
98.34922082423567
 20
-136.8791535768912
 30
0.0
  0
SPLINE
  5
BF
330
1F
100
AcDbEntity
  8
_U+30EC_U+30A4_U+30E4_U+30FC 1
 62
   179
420
  2234388
370
     9
100
AcDbSpline
210
0.0
220
0.0
230
1.0
 70
    11
 71
     3
 72
    17
 73
    13
 74
     0
 42
0.0000000001
 43
0.0000000001
 12
1.0
 22
0.0
 32
0.0
 13
1.0
 23
0.0
 33
0.0
 40
0.0
 40
0.0
 40
0.0
 40
0.0
 40
1.0
 40
1.0
 40
1.0
 40
2.0
 40
2.0
 40
2.0
 40
3.0
 40
3.0
 40
3.0
 40
4.0
 40
4.0
 40
4.0
 40
4.0
 10
98.34922082423567
 20
-132.9386610778767
 30
0.0
 10
98.34922082423567
 20
-132.9372852445432
 30
0.0
 10
98.34922082423567
 20
-132.9372852445432
 30
0.0
 10
98.34922082423567
 20
-132.9372852445432
 30
0.0
 10
98.34922082423567
 20
-132.9372852445432
 30
0.0
 10
98.3488680464669
 20
-132.9372852445432
 30
0.0
 10
98.3488680464669
 20
-132.9386610778767
 30
0.0
 10
98.3488680464669
 20
-132.9386610778767
 30
0.0
 10
98.34922082423567
 20
-132.9386610778767
 30
0.0
 10
98.34922082423567
 20
-132.9386610778767
 30
0.0
 10
98.34922082423567
 20
-132.9386610778767
 30
0.0
 10
98.34922082423567
 20
-132.9386610778767
 30
0.0
 10
98.34922082423567
 20
-132.9386610778767
 30
0.0
  0
SPLINE
  5
C0
330
1F
100
AcDbEntity
  8
_U+30EC_U+30A4_U+30E4_U+30FC 1
 62
   179
420
  2234388
370
     9
100
AcDbSpline
210
0.0
220
0.0
230
1.0
 70
    11
 71
     3
 72
    17
 73
    13
 74
     0
 42
0.0000000001
 43
0.0000000001
 12
1.0
 22
0.0
 32
0.0
 13
1.0
 23
0.0
 33
0.0
 40
0.0
 40
0.0
 40
0.0
 40
0.0
 40
1.0
 40
1.0
 40
1.0
 40
2.0
 40
2.0
 40
2.0
 40
3.0
 40
3.0
 40
3.0
 40
4.0
 40
4.0
 40
4.0
 40
4.0
 10
92.50323458449031
 20
-132.9386610778767
 30
0.0
 10
92.50323458449031
 20
-132.9372852445432
 30
0.0
 10
92.50252902895276
 20
-132.9372852445432
 30
0.0
 10
92.50150831020822
 20
-132.9372852445432
 30
0.0
 10
92.50150831020822
 20
-132.9372852445432
 30
0.0
 10
92.50150831020822
 20
-132.9372852445432
 30
0.0
 10
92.50150831020822
 20
-132.9386610778767
 30
0.0
 10
92.50150831020822
 20
-132.9386610778767
 30
0.0
 10
92.50150831020822
 20
-132.9386610778767
 30
0.0
 10
92.50150831020822
 20
-132.9386610778767
 30
0.0
 10
92.50252902895276
 20
-132.9386610778767
 30
0.0
 10
92.50323458449031
 20
-132.9386610778767
 30
0.0
 10
92.50323458449031
 20
-132.9386610778767
 30
0.0
  0
POLYLINE
  5
C1
330
1F
100
AcDbEntity
  8
_U+30EC_U+30A4_U+30E4_U+30FC 1
 62
   179
420
  2234388
370
     9
100
AcDb2dPolyline
 66
     1
 10
0.0
 20
0.0
 30
0.0
  0
VERTEX
  5
C2
330
C1
100
AcDbEntity
  8
_U+30EC_U+30A4_U+30E4_U+30FC 1
 62
   179
420
  2234388
370
     9
100
AcDbVertex
100
AcDb2dVertex
 10
92.50150831020822
 20
-133.9969944109455
 30
0.0
  0
VERTEX
  5
C3
330
C1
100
AcDbEntity
  8
_U+30EC_U+30A4_U+30E4_U+30FC 1
 62
   179
420
  2234388
370
     9
100
AcDbVertex
100
AcDb2dVertex
 10
92.50150831020822
 20
-136.8791535768912
 30
0.0
  0
SEQEND
  5
C4
330
C1
100
AcDbEntity
  8
_U+30EC_U+30A4_U+30E4_U+30FC 1
 62
   179
420
  2234388
370
     9
  0
POLYLINE
  5
C5
330
1F
100
AcDbEntity
  8
_U+30EC_U+30A4_U+30E4_U+30FC 1
 62
   179
420
  2234388
370
     9
100
AcDb2dPolyline
 66
     1
 10
0.0
 20
0.0
 30
0.0
  0
VERTEX
  5
C6
330
C5
100
AcDbEntity
  8
_U+30EC_U+30A4_U+30E4_U+30FC 1
 62
   179
420
  2234388
370
     9
100
AcDbVertex
100
AcDb2dVertex
 10
98.34922082423567
 20
-138.61788940979
 30
0.0
  0
VERTEX
  5
C7
330
C5
100
AcDbEntity
  8
_U+30EC_U+30A4_U+30E4_U+30FC 1
 62
   179
420
  2234388
370
     9
100
AcDbVertex
100
AcDb2dVertex
 10
98.34922082423567
 20
-138.6172191320127
 30
0.0
  0
VERTEX
  5
C8
330
C5
100
AcDbEntity
  8
_U+30EC_U+30A4_U+30E4_U+30FC 1
 62
   179
420
  2234388
370
     9
100
AcDbVertex
100
AcDb2dVertex
 10
98.3488680464669
 20
-138.61788940979
 30
0.0
  0
VERTEX
  5
C9
330
C5
100
AcDbEntity
  8
_U+30EC_U+30A4_U+30E4_U+30FC 1
 62
   179
420
  2234388
370
     9
100
AcDbVertex
100
AcDb2dVertex
 10
98.34922082423567
 20
-138.6189124653451
 30
0.0
  0
VERTEX
  5
CA
330
C5
100
AcDbEntity
  8
_U+30EC_U+30A4_U+30E4_U+30FC 1
 62
   179
420
  2234388
370
     9
100
AcDbVertex
100
AcDb2dVertex
 10
98.34922082423567
 20
-138.61788940979
 30
0.0
  0
SEQEND
  5
CB
330
C5
100
AcDbEntity
  8
_U+30EC_U+30A4_U+30E4_U+30FC 1
 62
   179
420
  2234388
370
     9
  0
SPLINE
  5
CC
330
1F
100
AcDbEntity
  8
_U+30EC_U+30A4_U+30E4_U+30FC 1
 62
   179
420
  2234388
370
     9
100
AcDbSpline
210
0.0
220
0.0
230
1.0
 70
    11
 71
     3
 72
    17
 73
    13
 74
     0
 42
0.0000000001
 43
0.0000000001
 12
1.0
 22
0.0
 32
0.0
 13
1.0
 23
0.0
 33
0.0
 40
0.0
 40
0.0
 40
0.0
 40
0.0
 40
1.0
 40
1.0
 40
1.0
 40
2.0
 40
2.0
 40
2.0
 40
3.0
 40
3.0
 40
3.0
 40
4.0
 40
4.0
 40
4.0
 40
4.0
 10
98.34922082423567
 20
-132.9386610778767
 30
0.0
 10
98.34922082423567
 20
-132.9372852445432
 30
0.0
 10
98.34922082423567
 20
-132.9372852445432
 30
0.0
 10
98.34922082423567
 20
-132.9372852445432
 30
0.0
 10
98.34922082423567
 20
-132.9372852445432
 30
0.0
 10
98.3488680464669
 20
-132.9372852445432
 30
0.0
 10
98.3488680464669
 20
-132.9386610778767
 30
0.0
 10
98.3488680464669
 20
-132.9386610778767
 30
0.0
 10
98.34922082423567
 20
-132.9386610778767
 30
0.0
 10
98.34922082423567
 20
-132.9386610778767
 30
0.0
 10
98.34922082423567
 20
-132.9386610778767
 30
0.0
 10
98.34922082423567
 20
-132.9386610778767
 30
0.0
 10
98.34922082423567
 20
-132.9386610778767
 30
0.0
  0
SPLINE
  5
CD
330
1F
100
AcDbEntity
  8
_U+30EC_U+30A4_U+30E4_U+30FC 1
 62
   179
420
  2234388
370
     9
100
AcDbSpline
210
0.0
220
0.0
230
1.0
 70
    11
 71
     3
 72
    17
 73
    13
 74
     0
 42
0.0000000001
 43
0.0000000001
 12
1.0
 22
0.0
 32
0.0
 13
1.0
 23
0.0
 33
0.0
 40
0.0
 40
0.0
 40
0.0
 40
0.0
 40
1.0
 40
1.0
 40
1.0
 40
2.0
 40
2.0
 40
2.0
 40
3.0
 40
3.0
 40
3.0
 40
4.0
 40
4.0
 40
4.0
 40
4.0
 10
73.79257200628354
 20
-132.9386610778767
 30
0.0
 10
73.79257200628354
 20
-132.9372852445432
 30
0.0
 10
73.79257200628354
 20
-132.9372852445432
 30
0.0
 10
73.79186645074599
 20
-132.9372852445432
 30
0.0
 10
73.79186645074599
 20
-132.9372852445432
 30
0.0
 10
73.79154895075408
 20
-132.9372852445432
 30
0.0
 10
73.79154895075408
 20
-132.9386610778767
 30
0.0
 10
73.79154895075408
 20
-132.9386610778767
 30
0.0
 10
73.79186645074599
 20
-132.9386610778767
 30
0.0
 10
73.79186645074599
 20
-132.9386610778767
 30
0.0
 10
73.79257200628354
 20
-132.9386610778767
 30
0.0
 10
73.79257200628354
 20
-132.9386610778767
 30
0.0
 10
73.79257200628354
 20
-132.9386610778767
 30
0.0
  0
POLYLINE
  5
CE
330
1F
100
AcDbEntity
  8
_U+30EC_U+30A4_U+30E4_U+30FC 1
 62
   179
420
  2234388
370
     9
100
AcDb2dPolyline
 66
     1
 10
0.0
 20
0.0
 30
0.0
  0
VERTEX
  5
CF
330
CE
100
AcDbEntity
  8
_U+30EC_U+30A4_U+30E4_U+30FC 1
 62
   179
420
  2234388
370
     9
100
AcDbVertex
100
AcDb2dVertex
 10
73.79186645074599
 20
-138.61788940979
 30
0.0
  0
VERTEX
  5
D0
330
CE
100
AcDbEntity
  8
_U+30EC_U+30A4_U+30E4_U+30FC 1
 62
   179
420
  2234388
370
     9
100
AcDbVertex
100
AcDb2dVertex
 10
98.34922082423567
 20
-138.61788940979
 30
0.0
  0
SEQEND
  5
D1
330
CE
100
AcDbEntity
  8
_U+30EC_U+30A4_U+30E4_U+30FC 1
 62
   179
420
  2234388
370
     9
  0
POLYLINE
  5
D2
330
1F
100
AcDbEntity
  8
_U+30EC_U+30A4_U+30E4_U+30FC 1
 62
   179
420
  2234388
370
     9
100
AcDb2dPolyline
 66
     1
 10
0.0
 20
0.0
 30
0.0
  0
VERTEX
  5
D3
330
D2
100
AcDbEntity
  8
_U+30EC_U+30A4_U+30E4_U+30FC 1
 62
   179
420
  2234388
370
     9
100
AcDbVertex
100
AcDb2dVertex
 10
98.34922082423567
 20
-133.9969944109455
 30
0.0
  0
VERTEX
  5
D4
330
D2
100
AcDbEntity
  8
_U+30EC_U+30A4_U+30E4_U+30FC 1
 62
   179
420
  2234388
370
     9
100
AcDbVertex
100
AcDb2dVertex
 10
98.34922082423567
 20
-138.61788940979
 30
0.0
  0
SEQEND
  5
D5
330
D2
100
AcDbEntity
  8
_U+30EC_U+30A4_U+30E4_U+30FC 1
 62
   179
420
  2234388
370
     9
  0
POLYLINE
  5
D6
330
1F
100
AcDbEntity
  8
_U+30EC_U+30A4_U+30E4_U+30FC 1
 62
   179
420
  2234388
370
     9
100
AcDb2dPolyline
 66
     1
 10
0.0
 20
0.0
 30
0.0
  0
VERTEX
  5
D7
330
D6
100
AcDbEntity
  8
_U+30EC_U+30A4_U+30E4_U+30FC 1
 62
   179
420
  2234388
370
     9
100
AcDbVertex
100
AcDb2dVertex
 10
73.79186645074599
 20
-134.0555555220417
 30
0.0
  0
VERTEX
  5
D8
330
D6
100
AcDbEntity
  8
_U+30EC_U+30A4_U+30E4_U+30FC 1
 62
   179
420
  2234388
370
     9
100
AcDbVertex
100
AcDb2dVertex
 10
73.79186645074599
 20
-138.61788940979
 30
0.0
  0
SEQEND
  5
D9
330
D6
100
AcDbEntity
  8
_U+30EC_U+30A4_U+30E4_U+30FC 1
 62
   179
420
  2234388
370
     9
  0
POLYLINE
  5
DA
330
1F
100
AcDbEntity
  8
_U+30EC_U+30A4_U+30E4_U+30FC 1
 62
   179
420
  2234388
370
    25
100
AcDb2dPolyline
 66
     1
 10
0.0
 20
0.0
 30
0.0
  0
VERTEX
  5
DB
330
DA
100
AcDbEntity
  8
_U+30EC_U+30A4_U+30E4_U+30FC 1
 62
   179
420
  2234388
370
    25
100
AcDbVertex
100
AcDb2dVertex
 10
106.5351114487295
 20
-125.3375699686655
 30
0.0
  0
VERTEX
  5
DC
330
DA
100
AcDbEntity
  8
_U+30EC_U+30A4_U+30E4_U+30FC 1
 62
   179
420
  2234388
370
    25
100
AcDbVertex
100
AcDb2dVertex
 10
106.5351114487295
 20
-125.9218405240751
 30
0.0
  0
SEQEND
  5
DD
330
DA
100
AcDbEntity
  8
_U+30EC_U+30A4_U+30E4_U+30FC 1
 62
   179
420
  2234388
370
    25
  0
SPLINE
  5
DE
330
1F
100
AcDbEntity
  8
_U+30EC_U+30A4_U+30E4_U+30FC 1
 62
   179
420
  2234388
370
    25
100
AcDbSpline
210
0.0
220
0.0
230
1.0
 70
     8
 71
     3
 72
    14
 73
    10
 74
     0
 42
0.0000000001
 43
0.0000000001
 12
1.0
 22
0.0
 32
0.0
 13
1.0
 23
0.0
 33
0.0
 40
0.0
 40
0.0
 40
0.0
 40
0.0
 40
1.0
 40
1.0
 40
1.0
 40
2.0
 40
2.0
 40
2.0
 40
3.0
 40
3.0
 40
3.0
 40
3.0
 10
97.76491500580923
 20
-133.5232844110638
 30
0.0
 10
97.76491500580923
 20
-133.5232844110638
 30
0.0
 10
97.76491500580923
 20
-133.5232844110638
 30
0.0
 10
97.76491500580923
 20
-133.5232844110638
 30
0.0
 10
98.08805944200957
 20
-133.5232844110638
 30
0.0
 10
98.34922082423567
 20
-133.2610999666846
 30
0.0
 10
98.34922082423567
 20
-132.9386610778767
 30
0.0
 10
98.34922082423567
 20
-132.9386610778767
 30
0.0
 10
98.34922082423567
 20
-132.9386610778767
 30
0.0
 10
98.34922082423567
 20
-132.9386610778767
 30
0.0
  0
POLYLINE
  5
DF
330
1F
100
AcDbEntity
  8
_U+30EC_U+30A4_U+30E4_U+30FC 1
 62
   179
420
  2234388
370
    25
100
AcDb2dPolyline
 66
     1
 10
0.0
 20
0.0
 30
0.0
  0
VERTEX
  5
E0
330
DF
100
AcDbEntity
  8
_U+30EC_U+30A4_U+30E4_U+30FC 1
 62
   179
420
  2234388
370
    25
100
AcDbVertex
100
AcDb2dVertex
 10
97.76491500580923
 20
-132.9386610778767
 30
0.0
  0
VERTEX
  5
E1
330
DF
100
AcDbEntity
  8
_U+30EC_U+30A4_U+30E4_U+30FC 1
 62
   179
420
  2234388
370
    25
100
AcDbVertex
100
AcDb2dVertex
 10
92.50150831020822
 20
-132.9386610778767
 30
0.0
  0
SEQEND
  5
E2
330
DF
100
AcDbEntity
  8
_U+30EC_U+30A4_U+30E4_U+30FC 1
 62
   179
420
  2234388
370
    25
  0
SPLINE
  5
E3
330
1F
100
AcDbEntity
  8
_U+30EC_U+30A4_U+30E4_U+30FC 1
 62
   179
420
  2234388
370
    25
100
AcDbSpline
210
0.0
220
0.0
230
1.0
 70
     8
 71
     3
 72
    14
 73
    10
 74
     0
 42
0.0000000001
 43
0.0000000001
 12
1.0
 22
0.0
 32
0.0
 13
1.0
 23
0.0
 33
0.0
 40
0.0
 40
0.0
 40
0.0
 40
0.0
 40
1.0
 40
1.0
 40
1.0
 40
2.0
 40
2.0
 40
2.0
 40
3.0
 40
3.0
 40
3.0
 40
3.0
 10
87.2983888670643
 20
-132.4370463557795
 30
0.0
 10
87.24222444093209
 20
-132.4921855224325
 30
0.0
 10
87.21019442264192
 20
-132.5679621890802
 30
0.0
 10
87.21019442264192
 20
-132.6458202446162
 30
0.0
 10
87.21019442264192
 20
-132.8070396890205
 30
0.0
 10
87.34213331149775
 20
-132.9386610778767
 30
0.0
 10
87.50268026762065
 20
-132.9386610778767
 30
0.0
 10
87.50268026762065
 20
-132.9386610778767
 30
0.0
 10
87.50268026762065
 20
-132.9386610778767
 30
0.0
 10
87.50268026762065
 20
-132.9386610778767
 30
0.0
  0
POLYLINE
  5
E4
330
1F
100
AcDbEntity
  8
_U+30EC_U+30A4_U+30E4_U+30FC 1
 62
   179
420
  2234388
370
     9
100
AcDb2dPolyline
 66
     1
 10
0.0
 20
0.0
 30
0.0
  0
VERTEX
  5
E5
330
E4
100
AcDbEntity
  8
_U+30EC_U+30A4_U+30E4_U+30FC 1
 62
   179
420
  2234388
370
     9
100
AcDbVertex
100
AcDb2dVertex
 10
86.07054363749083
 20
-133.2301260778037
 30
0.0
  0
VERTEX
  5
E6
330
E4
100
AcDbEntity
  8
_U+30EC_U+30A4_U+30E4_U+30FC 1
 62
   179
420
  2234388
370
     9
100
AcDbVertex
100
AcDb2dVertex
 10
86.07054363749083
 20
-132.9386610778767
 30
0.0
  0
SEQEND
  5
E7
330
E4
100
AcDbEntity
  8
_U+30EC_U+30A4_U+30E4_U+30FC 1
 62
   179
420
  2234388
370
     9
  0
SPLINE
  5
E8
330
1F
100
AcDbEntity
  8
_U+30EC_U+30A4_U+30E4_U+30FC 1
 62
   179
420
  2234388
370
    25
100
AcDbSpline
210
0.0
220
0.0
230
1.0
 70
     8
 71
     3
 72
    14
 73
    10
 74
     0
 42
0.0000000001
 43
0.0000000001
 12
1.0
 22
0.0
 32
0.0
 13
1.0
 23
0.0
 33
0.0
 40
0.0
 40
0.0
 40
0.0
 40
0.0
 40
1.0
 40
1.0
 40
1.0
 40
2.0
 40
2.0
 40
2.0
 40
3.0
 40
3.0
 40
3.0
 40
3.0
 10
84.11372063185799
 20
-132.9386610778767
 30
0.0
 10
84.11372063185799
 20
-132.9386610778767
 30
0.0
 10
84.11372063185799
 20
-132.9386610778767
 30
0.0
 10
84.11372063185799
 20
-132.9386610778767
 30
0.0
 10
84.21123053450269
 20
-132.9386610778767
 30
0.0
 10
84.28975673847805
 20
-132.8600974667852
 30
0.0
 10
84.28975673847805
 20
-132.7629424668093
 30
0.0
 10
84.28975673847805
 20
-132.7230080223749
 30
0.0
 10
84.27599840549571
 20
-132.6837085779404
 30
0.0
 10
84.2501397950443
 20
-132.6526994112813
 30
0.0
  0
SPLINE
  5
E9
330
1F
100
AcDbEntity
  8
_U+30EC_U+30A4_U+30E4_U+30FC 1
 62
   179
420
  2234388
370
    25
100
AcDbSpline
210
0.0
220
0.0
230
1.0
 70
     8
 71
     3
 72
    14
 73
    10
 74
     0
 42
0.0000000001
 43
0.0000000001
 12
1.0
 22
0.0
 32
0.0
 13
1.0
 23
0.0
 33
0.0
 40
0.0
 40
0.0
 40
0.0
 40
0.0
 40
1.0
 40
1.0
 40
1.0
 40
2.0
 40
2.0
 40
2.0
 40
3.0
 40
3.0
 40
3.0
 40
3.0
 10
86.07054363749083
 20
-133.2301260778037
 30
0.0
 10
86.07054363749083
 20
-133.2301260778037
 30
0.0
 10
86.07054363749083
 20
-133.230796355581
 30
0.0
 10
86.07054363749083
 20
-133.230796355581
 30
0.0
 10
86.07054363749083
 20
-133.3920157999853
 30
0.0
 10
86.20145946748421
 20
-133.5232844110638
 30
0.0
 10
86.36370196334506
 20
-133.5232844110638
 30
0.0
 10
86.36370196334506
 20
-133.5232844110638
 30
0.0
 10
86.36370196334506
 20
-133.5232844110638
 30
0.0
 10
86.36370196334506
 20
-133.5232844110638
 30
0.0
  0
SPLINE
  5
EA
330
1F
100
AcDbEntity
  8
_U+30EC_U+30A4_U+30E4_U+30FC 1
 62
   179
420
  2234388
370
    25
100
AcDbSpline
210
0.0
220
0.0
230
1.0
 70
     8
 71
     3
 72
    14
 73
    10
 74
     0
 42
0.0000000001
 43
0.0000000001
 12
1.0
 22
0.0
 32
0.0
 13
1.0
 23
0.0
 33
0.0
 40
0.0
 40
0.0
 40
0.0
 40
0.0
 40
1.0
 40
1.0
 40
1.0
 40
2.0
 40
2.0
 40
2.0
 40
3.0
 40
3.0
 40
3.0
 40
3.0
 10
85.76701364523453
 20
-133.5232844110638
 30
0.0
 10
85.76701364523453
 20
-133.5232844110638
 30
0.0
 10
85.76701364523453
 20
-133.5232844110638
 30
0.0
 10
85.76701364523453
 20
-133.5232844110638
 30
0.0
 10
85.93447725207328
 20
-133.5232844110638
 30
0.0
 10
86.07054363749083
 20
-133.3872180222086
 30
0.0
 10
86.07054363749083
 20
-133.2197896889173
 30
0.0
 10
86.07054363749083
 20
-133.0695769111768
 30
0.0
 10
85.96097086250849
 20
-132.9417655223203
 30
0.0
 10
85.81181642186928
 20
-132.9193641334369
 30
0.0
  0
POLYLINE
  5
EB
330
1F
100
AcDbEntity
  8
_U+30EC_U+30A4_U+30E4_U+30FC 1
 62
   179
420
  2234388
370
    25
100
AcDb2dPolyline
 66
     1
 10
0.0
 20
0.0
 30
0.0
  0
VERTEX
  5
EC
330
EB
100
AcDbEntity
  8
_U+30EC_U+30A4_U+30E4_U+30FC 1
 62
   179
420
  2234388
370
    25
100
AcDbVertex
100
AcDb2dVertex
 10
80.22353434221601
 20
-132.9386610778767
 30
0.0
  0
VERTEX
  5
ED
330
EB
100
AcDbEntity
  8
_U+30EC_U+30A4_U+30E4_U+30FC 1
 62
   179
420
  2234388
370
    25
100
AcDbVertex
100
AcDb2dVertex
 10
84.11372063185799
 20
-132.9386610778767
 30
0.0
  0
SEQEND
  5
EE
330
EB
100
AcDbEntity
  8
_U+30EC_U+30A4_U+30E4_U+30FC 1
 62
   179
420
  2234388
370
    25
  0
POLYLINE
  5
EF
330
1F
100
AcDbEntity
  8
_U+30EC_U+30A4_U+30E4_U+30FC 1
 62
   179
420
  2234388
370
    25
100
AcDb2dPolyline
 66
     1
 10
0.0
 20
0.0
 30
0.0
  0
VERTEX
  5
F0
330
EF
100
AcDbEntity
  8
_U+30EC_U+30A4_U+30E4_U+30FC 1
 62
   179
420
  2234388
370
    25
100
AcDbVertex
100
AcDb2dVertex
 10
87.50268026762065
 20
-132.9386610778767
 30
0.0
  0
VERTEX
  5
F1
330
EF
100
AcDbEntity
  8
_U+30EC_U+30A4_U+30E4_U+30FC 1
 62
   179
420
  2234388
370
    25
100
AcDbVertex
100
AcDb2dVertex
 10
91.91755293276563
 20
-132.9386610778767
 30
0.0
  0
SEQEND
  5
F2
330
EF
100
AcDbEntity
  8
_U+30EC_U+30A4_U+30E4_U+30FC 1
 62
   179
420
  2234388
370
    25
  0
POLYLINE
  5
F3
330
1F
100
AcDbEntity
  8
_U+30EC_U+30A4_U+30E4_U+30FC 1
 62
   179
420
  2234388
370
    25
100
AcDb2dPolyline
 66
     1
 10
0.0
 20
0.0
 30
0.0
  0
VERTEX
  5
F4
330
F3
100
AcDbEntity
  8
_U+30EC_U+30A4_U+30E4_U+30FC 1
 62
   179
420
  2234388
370
    25
100
AcDbVertex
100
AcDb2dVertex
 10
86.36370196334506
 20
-133.5232844110638
 30
0.0
  0
VERTEX
  5
F5
330
F3
100
AcDbEntity
  8
_U+30EC_U+30A4_U+30E4_U+30FC 1
 62
   179
420
  2234388
370
    25
100
AcDbVertex
100
AcDb2dVertex
 10
97.76491500580923
 20
-133.5232844110638
 30
0.0
  0
SEQEND
  5
F6
330
F3
100
AcDbEntity
  8
_U+30EC_U+30A4_U+30E4_U+30FC 1
 62
   179
420
  2234388
370
    25
  0
POLYLINE
  5
F7
330
1F
100
AcDbEntity
  8
_U+30EC_U+30A4_U+30E4_U+30FC 1
 62
   179
420
  2234388
370
    25
100
AcDb2dPolyline
 66
     1
 10
0.0
 20
0.0
 30
0.0
  0
VERTEX
  5
F8
330
F7
100
AcDbEntity
  8
_U+30EC_U+30A4_U+30E4_U+30FC 1
 62
   179
420
  2234388
370
    25
100
AcDbVertex
100
AcDb2dVertex
 10
98.34922082423567
 20
-131.7690616337242
 30
0.0
  0
VERTEX
  5
F9
330
F7
100
AcDbEntity
  8
_U+30EC_U+30A4_U+30E4_U+30FC 1
 62
   179
420
  2234388
370
    25
100
AcDbVertex
100
AcDb2dVertex
 10
97.76491500580923
 20
-131.7690616337242
 30
0.0
  0
SEQEND
  5
FA
330
F7
100
AcDbEntity
  8
_U+30EC_U+30A4_U+30E4_U+30FC 1
 62
   179
420
  2234388
370
    25
  0
SPLINE
  5
FB
330
1F
100
AcDbEntity
  8
_U+30EC_U+30A4_U+30E4_U+30FC 1
 62
   179
420
  2234388
370
    25
100
AcDbSpline
210
0.0
220
0.0
230
1.0
 70
     8
 71
     3
 72
    17
 73
    13
 74
     0
 42
0.0000000001
 43
0.0000000001
 12
1.0
 22
0.0
 32
0.0
 13
1.0
 23
0.0
 33
0.0
 40
0.0
 40
0.0
 40
0.0
 40
0.0
 40
1.0
 40
1.0
 40
1.0
 40
2.0
 40
2.0
 40
2.0
 40
3.0
 40
3.0
 40
3.0
 40
4.0
 40
4.0
 40
4.0
 40
4.0
 10
103.1434027519919
 20
-125.9218405240751
 30
0.0
 10
103.1434027519919
 20
-125.9218405240751
 30
0.0
 10
103.1434027519919
 20
-125.9218405240751
 30
0.0
 10
103.1434027519919
 20
-125.9218405240751
 30
0.0
 10
103.1434027519919
 20
-125.8572469129801
 30
0.0
 10
103.0917182032445
 20
-125.804718301882
 30
0.0
 10
103.0276537604345
 20
-125.804718301882
 30
0.0
 10
102.9625309843181
 20
-125.804718301882
 30
0.0
 10
102.9098259856627
 20
-125.8572469129801
 30
0.0
 10
102.9098259856627
 20
-125.9218405240751
 30
0.0
 10
102.9098259856627
 20
-125.9218405240751
 30
0.0
 10
102.9098259856627
 20
-125.9218405240751
 30
0.0
 10
102.9098259856627
 20
-125.9218405240751
 30
0.0
  0
POLYLINE
  5
FC
330
1F
100
AcDbEntity
  8
_U+30EC_U+30A4_U+30E4_U+30FC 1
 62
   179
420
  2234388
370
    25
100
AcDb2dPolyline
 66
     1
 10
0.0
 20
0.0
 30
0.0
  0
VERTEX
  5
FD
330
FC
100
AcDbEntity
  8
_U+30EC_U+30A4_U+30E4_U+30FC 1
 62
   179
420
  2234388
370
    25
100
AcDbVertex
100
AcDb2dVertex
 10
91.91755293276563
 20
-126.2145049684464
 30
0.0
  0
VERTEX
  5
FE
330
FC
100
AcDbEntity
  8
_U+30EC_U+30A4_U+30E4_U+30FC 1
 62
   179
420
  2234388
370
    25
100
AcDbVertex
100
AcDb2dVertex
 10
92.79501942124543
 20
-125.3375699686655
 30
0.0
  0
SEQEND
  5
FF
330
FC
100
AcDbEntity
  8
_U+30EC_U+30A4_U+30E4_U+30FC 1
 62
   179
420
  2234388
370
    25
  0
POLYLINE
  5
100
330
1F
100
AcDbEntity
  8
_U+30EC_U+30A4_U+30E4_U+30FC 1
 62
   179
420
  2234388
370
    25
100
AcDb2dPolyline
 66
     1
 10
0.0
 20
0.0
 30
0.0
  0
VERTEX
  5
101
330
100
100
AcDbEntity
  8
_U+30EC_U+30A4_U+30E4_U+30FC 1
 62
   179
420
  2234388
370
    25
100
AcDbVertex
100
AcDb2dVertex
 10
92.50150831020822
 20
-126.4567221906081
 30
0.0
  0
VERTEX
  5
102
330
100
100
AcDbEntity
  8
_U+30EC_U+30A4_U+30E4_U+30FC 1
 62
   179
420
  2234388
370
    25
100
AcDbVertex
100
AcDb2dVertex
 10
93.0368815153203
 20
-125.9218405240751
 30
0.0
  0
SEQEND
  5
103
330
100
100
AcDbEntity
  8
_U+30EC_U+30A4_U+30E4_U+30FC 1
 62
   179
420
  2234388
370
    25
  0
POLYLINE
  5
104
330
1F
100
AcDbEntity
  8
_U+30EC_U+30A4_U+30E4_U+30FC 1
 62
   179
420
  2234388
370
    25
100
AcDb2dPolyline
 66
     1
 10
0.0
 20
0.0
 30
0.0
  0
VERTEX
  5
105
330
104
100
AcDbEntity
  8
_U+30EC_U+30A4_U+30E4_U+30FC 1
 62
   179
420
  2234388
370
    25
100
AcDbVertex
100
AcDb2dVertex
 10
102.9098259856627
 20
-125.9218405240751
 30
0.0
  0
VERTEX
  5
106
330
104
100
AcDbEntity
  8
_U+30EC_U+30A4_U+30E4_U+30FC 1
 62
   179
420
  2234388
370
    25
100
AcDbVertex
100
AcDb2dVertex
 10
93.0368815153203
 20
-125.9218405240751
 30
0.0
  0
SEQEND
  5
107
330
104
100
AcDbEntity
  8
_U+30EC_U+30A4_U+30E4_U+30FC 1
 62
   179
420
  2234388
370
    25
  0
SPLINE
  5
108
330
1F
100
AcDbEntity
  8
_U+30EC_U+30A4_U+30E4_U+30FC 1
 62
   179
420
  2234388
370
    25
100
AcDbSpline
210
0.0
220
0.0
230
1.0
 70
     8
 71
     3
 72
    14
 73
    10
 74
     0
 42
0.0000000001
 43
0.0000000001
 12
1.0
 22
0.0
 32
0.0
 13
1.0
 23
0.0
 33
0.0
 40
0.0
 40
0.0
 40
0.0
 40
0.0
 40
1.0
 40
1.0
 40
1.0
 40
2.0
 40
2.0
 40
2.0
 40
3.0
 40
3.0
 40
3.0
 40
3.0
 10
84.96190422133013
 20
-130.8137041339631
 30
0.0
 10
84.97188783218654
 20
-130.7841060784151
 30
0.0
 10
84.97605275653392
 20
-130.7523913562005
 30
0.0
 10
84.97605275653392
 20
-130.7213821895421
 30
0.0
 10
84.97605275653392
 20
-130.5601627451378
 30
0.0
 10
84.8458050576254
 20
-130.4292469118371
 30
0.0
 10
84.68388006175645
 20
-130.4292469118371
 30
0.0
 10
84.55850284273286
 20
-130.4292469118371
 30
0.0
 10
84.44688608999954
 20
-130.5098566340389
 30
0.0
 10
84.40691423548911
 20
-130.628389967343
 30
0.0
  0
SPLINE
  5
109
330
1F
100
AcDbEntity
  8
_U+30EC_U+30A4_U+30E4_U+30FC 1
 62
   179
420
  2234388
370
    25
100
AcDbSpline
210
0.0
220
0.0
230
1.0
 70
     8
 71
     3
 72
    14
 73
    10
 74
     0
 42
0.0000000001
 43
0.0000000001
 12
1.0
 22
0.0
 32
0.0
 13
1.0
 23
0.0
 33
0.0
 40
0.0
 40
0.0
 40
0.0
 40
0.0
 40
1.0
 40
1.0
 40
1.0
 40
2.0
 40
2.0
 40
2.0
 40
3.0
 40
3.0
 40
3.0
 40
3.0
 10
87.23393416336582
 20
-129.8714699675323
 30
0.0
 10
87.18056108931604
 20
-129.8235980230995
 30
0.0
 10
87.1113086109387
 20
-129.7984449675504
 30
0.0
 10
87.03997694609185
 20
-129.7984449675504
 30
0.0
 10
86.877734450231
 20
-129.7984449675504
 30
0.0
 10
86.74784167576708
 20
-129.9290080230734
 30
0.0
 10
86.74784167576708
 20
-130.0899099674774
 30
0.0
 10
86.74784167576708
 20
-130.1739769119011
 30
0.0
 10
86.78403886719303
 20
-130.2535635785478
 30
0.0
 10
86.84637250658668
 20
-130.3093730229783
 30
0.0
  0
SPLINE
  5
10A
330
1F
100
AcDbEntity
  8
_U+30EC_U+30A4_U+30E4_U+30FC 1
 62
   179
420
  2234388
370
    25
100
AcDbSpline
210
0.0
220
0.0
230
1.0
 70
     8
 71
     3
 72
    14
 73
    10
 74
     0
 42
0.0000000001
 43
0.0000000001
 12
1.0
 22
0.0
 32
0.0
 13
1.0
 23
0.0
 33
0.0
 40
0.0
 40
0.0
 40
0.0
 40
0.0
 40
1.0
 40
1.0
 40
1.0
 40
2.0
 40
2.0
 40
2.0
 40
3.0
 40
3.0
 40
3.0
 40
3.0
 10
87.32833749429072
 20
-129.9613930230653
 30
0.0
 10
87.3831238817819
 20
-130.0172024674958
 30
0.0
 10
87.45890275591304
 20
-130.0495874674877
 30
0.0
 10
87.5378169333909
 20
-130.0495874674877
 30
0.0
 10
87.6990363737223
 20
-130.0495874674877
 30
0.0
 10
87.82959942594691
 20
-129.9183541341868
 30
0.0
 10
87.82959942594691
 20
-129.7578049675605
 30
0.0
 10
87.82959942594691
 20
-129.6813227453574
 30
0.0
 10
87.79996609336959
 20
-129.6079449675977
 30
0.0
 10
87.74659081695353
 20
-129.5535113565008
 30
0.0
  0
POLYLINE
  5
10B
330
1F
100
AcDbEntity
  8
_U+30EC_U+30A4_U+30E4_U+30FC 1
 62
   179
420
  2234388
370
    25
100
AcDb2dPolyline
 66
     1
 10
0.0
 20
0.0
 30
0.0
  0
VERTEX
  5
10C
330
10B
100
AcDbEntity
  8
_U+30EC_U+30A4_U+30E4_U+30FC 1
 62
   179
420
  2234388
370
    25
100
AcDbVertex
100
AcDb2dVertex
 10
79.63923053564568
 20
-126.4567221906081
 30
0.0
  0
VERTEX
  5
10D
330
10B
100
AcDbEntity
  8
_U+30EC_U+30A4_U+30E4_U+30FC 1
 62
   179
420
  2234388
370
    25
100
AcDbVertex
100
AcDb2dVertex
 10
79.10455853743014
 20
-125.9218405240751
 30
0.0
  0
SEQEND
  5
10E
330
10B
100
AcDbEntity
  8
_U+30EC_U+30A4_U+30E4_U+30FC 1
 62
   179
420
  2234388
370
    25
  0
POLYLINE
  5
10F
330
1F
100
AcDbEntity
  8
_U+30EC_U+30A4_U+30E4_U+30FC 1
 62
   179
420
  2234388
370
    25
100
AcDb2dPolyline
 66
     1
 10
0.0
 20
0.0
 30
0.0
  0
VERTEX
  5
110
330
10F
100
AcDbEntity
  8
_U+30EC_U+30A4_U+30E4_U+30FC 1
 62
   179
420
  2234388
370
    25
100
AcDbVertex
100
AcDb2dVertex
 10
80.22353434221601
 20
-126.2145049684464
 30
0.0
  0
VERTEX
  5
111
330
10F
100
AcDbEntity
  8
_U+30EC_U+30A4_U+30E4_U+30FC 1
 62
   179
420
  2234388
370
    25
100
AcDbVertex
100
AcDb2dVertex
 10
79.34674047569601
 20
-125.3375699686655
 30
0.0
  0
SEQEND
  5
112
330
10F
100
AcDbEntity
  8
_U+30EC_U+30A4_U+30E4_U+30FC 1
 62
   179
420
  2234388
370
    25
  0
POLYLINE
  5
113
330
1F
100
AcDbEntity
  8
_U+30EC_U+30A4_U+30E4_U+30FC 1
 62
   179
420
  2234388
370
    25
100
AcDb2dPolyline
 66
     1
 10
0.0
 20
0.0
 30
0.0
  0
VERTEX
  5
114
330
113
100
AcDbEntity
  8
_U+30EC_U+30A4_U+30E4_U+30FC 1
 62
   179
420
  2234388
370
    25
100
AcDbVertex
100
AcDb2dVertex
 10
98.34922082423567
 20
-131.7690616337242
 30
0.0
  0
VERTEX
  5
115
330
113
100
AcDbEntity
  8
_U+30EC_U+30A4_U+30E4_U+30FC 1
 62
   179
420
  2234388
370
    25
100
AcDbVertex
100
AcDb2dVertex
 10
98.34922082423567
 20
-132.9386610778767
 30
0.0
  0
SEQEND
  5
116
330
113
100
AcDbEntity
  8
_U+30EC_U+30A4_U+30E4_U+30FC 1
 62
   179
420
  2234388
370
    25
  0
POLYLINE
  5
117
330
1F
100
AcDbEntity
  8
_U+30EC_U+30A4_U+30E4_U+30FC 1
 62
   179
420
  2234388
370
    25
100
AcDb2dPolyline
 66
     1
 10
0.0
 20
0.0
 30
0.0
  0
VERTEX
  5
118
330
117
100
AcDbEntity
  8
_U+30EC_U+30A4_U+30E4_U+30FC 1
 62
   179
420
  2234388
370
    25
100
AcDbVertex
100
AcDb2dVertex
 10
97.76491500580923
 20
-131.7690616337242
 30
0.0
  0
VERTEX
  5
119
330
117
100
AcDbEntity
  8
_U+30EC_U+30A4_U+30E4_U+30FC 1
 62
   179
420
  2234388
370
    25
100
AcDbVertex
100
AcDb2dVertex
 10
97.76491500580923
 20
-132.9386610778767
 30
0.0
  0
SEQEND
  5
11A
330
117
100
AcDbEntity
  8
_U+30EC_U+30A4_U+30E4_U+30FC 1
 62
   179
420
  2234388
370
    25
  0
POLYLINE
  5
11B
330
1F
100
AcDbEntity
  8
_U+30EC_U+30A4_U+30E4_U+30FC 1
 62
   179
420
  2234388
370
    25
100
AcDb2dPolyline
 66
     1
 10
0.0
 20
0.0
 30
0.0
  0
VERTEX
  5
11C
330
11B
100
AcDbEntity
  8
_U+30EC_U+30A4_U+30E4_U+30FC 1
 62
   179
420
  2234388
370
    25
100
AcDbVertex
100
AcDb2dVertex
 10
92.50150831020822
 20
-126.4567221906081
 30
0.0
  0
VERTEX
  5
11D
330
11B
100
AcDbEntity
  8
_U+30EC_U+30A4_U+30E4_U+30FC 1
 62
   179
420
  2234388
370
    25
100
AcDbVertex
100
AcDb2dVertex
 10
92.50150831020822
 20
-132.9386610778767
 30
0.0
  0
SEQEND
  5
11E
330
11B
100
AcDbEntity
  8
_U+30EC_U+30A4_U+30E4_U+30FC 1
 62
   179
420
  2234388
370
    25
  0
POLYLINE
  5
11F
330
1F
100
AcDbEntity
  8
_U+30EC_U+30A4_U+30E4_U+30FC 1
 62
   179
420
  2234388
370
    25
100
AcDb2dPolyline
 66
     1
 10
0.0
 20
0.0
 30
0.0
  0
VERTEX
  5
120
330
11F
100
AcDbEntity
  8
_U+30EC_U+30A4_U+30E4_U+30FC 1
 62
   179
420
  2234388
370
    25
100
AcDbVertex
100
AcDb2dVertex
 10
91.91755293276563
 20
-126.2145049684464
 30
0.0
  0
VERTEX
  5
121
330
11F
100
AcDbEntity
  8
_U+30EC_U+30A4_U+30E4_U+30FC 1
 62
   179
420
  2234388
370
    25
100
AcDbVertex
100
AcDb2dVertex
 10
91.91755293276563
 20
-132.9386610778767
 30
0.0
  0
SEQEND
  5
122
330
11F
100
AcDbEntity
  8
_U+30EC_U+30A4_U+30E4_U+30FC 1
 62
   179
420
  2234388
370
    25
  0
SPLINE
  5
123
330
1F
100
AcDbEntity
  8
_U+30EC_U+30A4_U+30E4_U+30FC 1
 62
   179
420
  2234388
370
    25
100
AcDbSpline
210
0.0
220
0.0
230
1.0
 70
     8
 71
     3
 72
    11
 73
     7
 74
     0
 42
0.0000000001
 43
0.0000000001
 12
1.0
 22
0.0
 32
0.0
 13
1.0
 23
0.0
 33
0.0
 40
0.0
 40
0.0
 40
0.0
 40
0.0
 40
1.0
 40
1.0
 40
1.0
 40
2.0
 40
2.0
 40
2.0
 40
2.0
 10
87.2983888670643
 20
-132.4370463557795
 30
0.0
 10
87.63529164475783
 20
-132.1063171891955
 30
0.0
 10
87.82476637051465
 20
-131.6557141337527
 30
0.0
 10
87.82476637051465
 20
-131.1840855227594
 30
0.0
 10
87.82476637051465
 20
-130.6817652451073
 30
0.0
 10
87.60946609822965
 20
-130.2042805230047
 30
0.0
 10
87.23393416336582
 20
-129.8714699675323
 30
0.0
  0
SPLINE
  5
124
330
1F
100
AcDbEntity
  8
_U+30EC_U+30A4_U+30E4_U+30FC 1
 62
   179
420
  2234388
370
     9
100
AcDbSpline
210
0.0
220
0.0
230
1.0
 70
     8
 71
     3
 72
    14
 73
    10
 74
     0
 42
0.0000000001
 43
0.0000000001
 12
1.0
 22
0.0
 32
0.0
 13
1.0
 23
0.0
 33
0.0
 40
0.0
 40
0.0
 40
0.0
 40
0.0
 40
1.0
 40
1.0
 40
1.0
 40
2.0
 40
2.0
 40
2.0
 40
3.0
 40
3.0
 40
3.0
 40
3.0
 10
84.40691423548911
 20
-130.628389967343
 30
0.0
 10
84.34729479256568
 20
-130.8082008006316
 30
0.0
 10
84.31699118222768
 20
-130.9956316339176
 30
0.0
 10
84.31699118222768
 20
-131.1840855227594
 30
0.0
 10
84.31699118222768
 20
-132.153871633628
 30
0.0
 10
85.10178060665048
 20
-132.9386610778767
 30
0.0
 10
86.07054363749083
 20
-132.9386610778767
 30
0.0
 10
86.07054363749083
 20
-132.9386610778767
 30
0.0
 10
86.07054363749083
 20
-132.9386610778767
 30
0.0
 10
86.07054363749083
 20
-132.9386610778767
 30
0.0
  0
SPLINE
  5
125
330
1F
100
AcDbEntity
  8
_U+30EC_U+30A4_U+30E4_U+30FC 1
 62
   179
420
  2234388
370
    25
100
AcDbSpline
210
0.0
220
0.0
230
1.0
 70
     8
 71
     3
 72
    17
 73
    13
 74
     0
 42
0.0000000001
 43
0.0000000001
 12
1.0
 22
0.0
 32
0.0
 13
1.0
 23
0.0
 33
0.0
 40
0.0
 40
0.0
 40
0.0
 40
0.0
 40
1.0
 40
1.0
 40
1.0
 40
2.0
 40
2.0
 40
2.0
 40
3.0
 40
3.0
 40
3.0
 40
4.0
 40
4.0
 40
4.0
 40
4.0
 10
84.96190422133013
 20
-130.8137041339631
 30
0.0
 10
84.92091144459816
 20
-130.9329077450446
 30
0.0
 10
84.90161664544132
 20
-131.0583202450131
 30
0.0
 10
84.90161664544132
 20
-131.1840855227594
 30
0.0
 10
84.90161664544132
 20
-131.8300216337091
 30
0.0
 10
85.4252778206196
 20
-132.3536849669119
 30
0.0
 10
86.07054363749083
 20
-132.3536849669119
 30
0.0
 10
86.71647973212274
 20
-132.3536849669119
 30
0.0
 10
87.2401430520963
 20
-131.8300216337091
 30
0.0
 10
87.2401430520963
 20
-131.1840855227594
 30
0.0
 10
87.2401430520963
 20
-130.8498991339541
 30
0.0
 10
87.0975150001795
 20
-130.5305294118116
 30
0.0
 10
86.84637250658668
 20
-130.3093730229783
 30
0.0
  0
POLYLINE
  5
126
330
1F
100
AcDbEntity
  8
_U+30EC_U+30A4_U+30E4_U+30FC 1
 62
   179
420
  2234388
370
    25
100
AcDb2dPolyline
 66
     1
 10
0.0
 20
0.0
 30
0.0
  0
VERTEX
  5
127
330
126
100
AcDbEntity
  8
_U+30EC_U+30A4_U+30E4_U+30FC 1
 62
   179
420
  2234388
370
    25
100
AcDbVertex
100
AcDb2dVertex
 10
79.63923053564568
 20
-126.4567221906081
 30
0.0
  0
VERTEX
  5
128
330
126
100
AcDbEntity
  8
_U+30EC_U+30A4_U+30E4_U+30FC 1
 62
   179
420
  2234388
370
    25
100
AcDbVertex
100
AcDb2dVertex
 10
79.63923053564568
 20
-132.9386610778767
 30
0.0
  0
SEQEND
  5
129
330
126
100
AcDbEntity
  8
_U+30EC_U+30A4_U+30E4_U+30FC 1
 62
   179
420
  2234388
370
    25
  0
POLYLINE
  5
12A
330
1F
100
AcDbEntity
  8
_U+30EC_U+30A4_U+30E4_U+30FC 1
 62
   179
420
  2234388
370
    25
100
AcDb2dPolyline
 66
     1
 10
0.0
 20
0.0
 30
0.0
  0
VERTEX
  5
12B
330
12A
100
AcDbEntity
  8
_U+30EC_U+30A4_U+30E4_U+30FC 1
 62
   179
420
  2234388
370
    25
100
AcDbVertex
100
AcDb2dVertex
 10
80.22353434221601
 20
-126.2145049684464
 30
0.0
  0
VERTEX
  5
12C
330
12A
100
AcDbEntity
  8
_U+30EC_U+30A4_U+30E4_U+30FC 1
 62
   179
420
  2234388
370
    25
100
AcDbVertex
100
AcDb2dVertex
 10
80.22353434221601
 20
-132.9386610778767
 30
0.0
  0
SEQEND
  5
12D
330
12A
100
AcDbEntity
  8
_U+30EC_U+30A4_U+30E4_U+30FC 1
 62
   179
420
  2234388
370
    25
  0
SPLINE
  5
12E
330
1F
100
AcDbEntity
  8
_U+30EC_U+30A4_U+30E4_U+30FC 1
 62
   179
420
  2234388
370
    25
100
AcDbSpline
210
0.0
220
0.0
230
1.0
 70
     8
 71
     3
 72
    14
 73
    10
 74
     0
 42
0.0000000001
 43
0.0000000001
 12
1.0
 22
0.0
 32
0.0
 13
1.0
 23
0.0
 33
0.0
 40
0.0
 40
0.0
 40
0.0
 40
0.0
 40
1.0
 40
1.0
 40
1.0
 40
2.0
 40
2.0
 40
2.0
 40
3.0
 40
3.0
 40
3.0
 40
3.0
 10
87.32833749429072
 20
-129.9613930230653
 30
0.0
 10
86.99796111383044
 20
-129.6224088564834
 30
0.0
 10
86.54457112539738
 20
-129.4301802454201
 30
0.0
 10
86.07054363749083
 20
-129.4301802454201
 30
0.0
 10
85.10178060665048
 20
-129.4301802454201
 30
0.0
 10
84.31699118222768
 20
-130.2159927452239
 30
0.0
 10
84.31699118222768
 20
-131.1840855227594
 30
0.0
 10
84.31699118222768
 20
-132.0532594114308
 30
0.0
 10
84.9525908882344
 20
-132.7911999668019
 30
0.0
 10
85.81181642186928
 20
-132.9193641334369
 30
0.0
  0
SPLINE
  5
12F
330
1F
100
AcDbEntity
  8
_U+30EC_U+30A4_U+30E4_U+30FC 1
 62
   179
420
  2234388
370
    25
100
AcDbSpline
210
0.0
220
0.0
230
1.0
 70
     8
 71
     3
 72
    14
 73
    10
 74
     0
 42
0.0000000001
 43
0.0000000001
 12
1.0
 22
0.0
 32
0.0
 13
1.0
 23
0.0
 33
0.0
 40
0.0
 40
0.0
 40
0.0
 40
0.0
 40
1.0
 40
1.0
 40
1.0
 40
2.0
 40
2.0
 40
2.0
 40
3.0
 40
3.0
 40
3.0
 40
3.0
 10
87.74659081695353
 20
-129.5535113565008
 30
0.0
 10
87.3066416615109
 20
-129.100826912169
 30
0.0
 10
86.70236862137163
 20
-128.8452041344553
 30
0.0
 10
86.07054363749083
 20
-128.8452041344553
 30
0.0
 10
84.7793064482108
 20
-128.8452041344553
 30
0.0
 10
83.73236786380933
 20
-129.8932010786376
 30
0.0
 10
83.73236786380933
 20
-131.1840855227594
 30
0.0
 10
83.73236786380933
 20
-131.7187555226259
 30
0.0
 10
83.91493035915177
 20
-132.2365627447188
 30
0.0
 10
84.2501397950443
 20
-132.6526994112813
 30
0.0
  0
SPLINE
  5
130
330
1F
100
AcDbEntity
  8
_U+30EC_U+30A4_U+30E4_U+30FC 1
 62
   179
420
  2234388
370
    25
100
AcDbSpline
210
0.0
220
0.0
230
1.0
 70
     8
 71
     3
 72
    14
 73
    10
 74
     0
 42
0.0000000001
 43
0.0000000001
 12
1.0
 22
0.0
 32
0.0
 13
1.0
 23
0.0
 33
0.0
 40
0.0
 40
0.0
 40
0.0
 40
0.0
 40
1.0
 40
1.0
 40
1.0
 40
2.0
 40
2.0
 40
2.0
 40
3.0
 40
3.0
 40
3.0
 40
3.0
 10
73.79186645074599
 20
-132.9386610778767
 30
0.0
 10
73.79186645074599
 20
-132.9386610778767
 30
0.0
 10
73.79186645074599
 20
-132.9386610778767
 30
0.0
 10
73.79186645074599
 20
-132.9386610778767
 30
0.0
 10
73.79186645074599
 20
-133.2610999666846
 30
0.0
 10
74.05440553704184
 20
-133.5232844110638
 30
0.0
 10
74.37684442585035
 20
-133.5232844110638
 30
0.0
 10
74.37684442585035
 20
-133.5232844110638
 30
0.0
 10
74.37684442585035
 20
-133.5232844110638
 30
0.0
 10
74.37684442585035
 20
-133.5232844110638
 30
0.0
  0
POLYLINE
  5
131
330
1F
100
AcDbEntity
  8
_U+30EC_U+30A4_U+30E4_U+30FC 1
 62
   179
420
  2234388
370
    25
100
AcDb2dPolyline
 66
     1
 10
0.0
 20
0.0
 30
0.0
  0
VERTEX
  5
132
330
131
100
AcDbEntity
  8
_U+30EC_U+30A4_U+30E4_U+30FC 1
 62
   179
420
  2234388
370
    25
100
AcDbVertex
100
AcDb2dVertex
 10
73.79186645074599
 20
-131.7690616337242
 30
0.0
  0
VERTEX
  5
133
330
131
100
AcDbEntity
  8
_U+30EC_U+30A4_U+30E4_U+30FC 1
 62
   179
420
  2234388
370
    25
100
AcDbVertex
100
AcDb2dVertex
 10
74.37684442585035
 20
-131.7690616337242
 30
0.0
  0
SEQEND
  5
134
330
131
100
AcDbEntity
  8
_U+30EC_U+30A4_U+30E4_U+30FC 1
 62
   179
420
  2234388
370
    25
  0
SPLINE
  5
135
330
1F
100
AcDbEntity
  8
_U+30EC_U+30A4_U+30E4_U+30FC 1
 62
   179
420
  2234388
370
    25
100
AcDbSpline
210
0.0
220
0.0
230
1.0
 70
     8
 71
     3
 72
    17
 73
    13
 74
     0
 42
0.0000000001
 43
0.0000000001
 12
1.0
 22
0.0
 32
0.0
 13
1.0
 23
0.0
 33
0.0
 40
0.0
 40
0.0
 40
0.0
 40
0.0
 40
1.0
 40
1.0
 40
1.0
 40
2.0
 40
2.0
 40
2.0
 40
3.0
 40
3.0
 40
3.0
 40
4.0
 40
4.0
 40
4.0
 40
4.0
 10
69.2319333160252
 20
-125.9218405240751
 30
0.0
 10
69.2319333160252
 20
-125.9218405240751
 30
0.0
 10
69.2319333160252
 20
-125.9218405240751
 30
0.0
 10
69.2319333160252
 20
-125.9218405240751
 30
0.0
 10
69.2319333160252
 20
-125.8572469129801
 30
0.0
 10
69.17922656842423
 20
-125.804718301882
 30
0.0
 10
69.11445831605471
 20
-125.804718301882
 30
0.0
 10
69.05003934949785
 20
-125.804718301882
 30
0.0
 10
68.99733609386165
 20
-125.8572469129801
 30
0.0
 10
68.99733609386165
 20
-125.9218405240751
 30
0.0
 10
68.99733609386165
 20
-125.9218405240751
 30
0.0
 10
68.99733609386165
 20
-125.9218405240751
 30
0.0
 10
68.99733609386165
 20
-125.9218405240751
 30
0.0
  0
POLYLINE
  5
136
330
1F
100
AcDbEntity
  8
_U+30EC_U+30A4_U+30E4_U+30FC 1
 62
   179
420
  2234388
370
    25
100
AcDb2dPolyline
 66
     1
 10
0.0
 20
0.0
 30
0.0
  0
VERTEX
  5
137
330
136
100
AcDbEntity
  8
_U+30EC_U+30A4_U+30E4_U+30FC 1
 62
   179
420
  2234388
370
    25
100
AcDbVertex
100
AcDb2dVertex
 10
65.60632860402089
 20
-125.3375699686655
 30
0.0
  0
VERTEX
  5
138
330
136
100
AcDbEntity
  8
_U+30EC_U+30A4_U+30E4_U+30FC 1
 62
   179
420
  2234388
370
    25
100
AcDbVertex
100
AcDb2dVertex
 10
65.60632860402089
 20
-125.9218405240751
 30
0.0
  0
SEQEND
  5
139
330
136
100
AcDbEntity
  8
_U+30EC_U+30A4_U+30E4_U+30FC 1
 62
   179
420
  2234388
370
    25
  0
POLYLINE
  5
13A
330
1F
100
AcDbEntity
  8
_U+30EC_U+30A4_U+30E4_U+30FC 1
 62
   179
420
  2234388
370
    25
100
AcDb2dPolyline
 66
     1
 10
0.0
 20
0.0
 30
0.0
  0
VERTEX
  5
13B
330
13A
100
AcDbEntity
  8
_U+30EC_U+30A4_U+30E4_U+30FC 1
 62
   179
420
  2234388
370
    25
100
AcDbVertex
100
AcDb2dVertex
 10
65.60632860402089
 20
-125.9218405240751
 30
0.0
  0
VERTEX
  5
13C
330
13A
100
AcDbEntity
  8
_U+30EC_U+30A4_U+30E4_U+30FC 1
 62
   179
420
  2234388
370
    25
100
AcDbVertex
100
AcDb2dVertex
 10
68.99733609386165
 20
-125.9218405240751
 30
0.0
  0
SEQEND
  5
13D
330
13A
100
AcDbEntity
  8
_U+30EC_U+30A4_U+30E4_U+30FC 1
 62
   179
420
  2234388
370
    25
  0
POLYLINE
  5
13E
330
1F
100
AcDbEntity
  8
_U+30EC_U+30A4_U+30E4_U+30FC 1
 62
   179
420
  2234388
370
    25
100
AcDb2dPolyline
 66
     1
 10
0.0
 20
0.0
 30
0.0
  0
VERTEX
  5
13F
330
13E
100
AcDbEntity
  8
_U+30EC_U+30A4_U+30E4_U+30FC 1
 62
   179
420
  2234388
370
    25
100
AcDbVertex
100
AcDb2dVertex
 10
73.79186645074599
 20
-131.7690616337242
 30
0.0
  0
VERTEX
  5
140
330
13E
100
AcDbEntity
  8
_U+30EC_U+30A4_U+30E4_U+30FC 1
 62
   179
420
  2234388
370
    25
100
AcDbVertex
100
AcDb2dVertex
 10
73.79186645074599
 20
-132.9386610778767
 30
0.0
  0
SEQEND
  5
141
330
13E
100
AcDbEntity
  8
_U+30EC_U+30A4_U+30E4_U+30FC 1
 62
   179
420
  2234388
370
    25
  0
POLYLINE
  5
142
330
1F
100
AcDbEntity
  8
_U+30EC_U+30A4_U+30E4_U+30FC 1
 62
   179
420
  2234388
370
    25
100
AcDb2dPolyline
 66
     1
 10
0.0
 20
0.0
 30
0.0
  0
VERTEX
  5
143
330
142
100
AcDbEntity
  8
_U+30EC_U+30A4_U+30E4_U+30FC 1
 62
   179
420
  2234388
370
    25
100
AcDbVertex
100
AcDb2dVertex
 10
74.37684442585035
 20
-131.7690616337242
 30
0.0
  0
VERTEX
  5
144
330
142
100
AcDbEntity
  8
_U+30EC_U+30A4_U+30E4_U+30FC 1
 62
   179
420
  2234388
370
    25
100
AcDbVertex
100
AcDb2dVertex
 10
74.37684442585035
 20
-132.9386610778767
 30
0.0
  0
SEQEND
  5
145
330
142
100
AcDbEntity
  8
_U+30EC_U+30A4_U+30E4_U+30FC 1
 62
   179
420
  2234388
370
    25
  0
POLYLINE
  5
146
330
1F
100
AcDbEntity
  8
_U+30EC_U+30A4_U+30E4_U+30FC 1
 62
   179
420
  2234388
370
    25
100
AcDb2dPolyline
 66
     1
 10
0.0
 20
0.0
 30
0.0
  0
VERTEX
  5
147
330
146
100
AcDbEntity
  8
_U+30EC_U+30A4_U+30E4_U+30FC 1
 62
   179
420
  2234388
370
    25
100
AcDbVertex
100
AcDb2dVertex
 10
65.60632860402089
 20
-125.3375699686655
 30
0.0
  0
VERTEX
  5
148
330
146
100
AcDbEntity
  8
_U+30EC_U+30A4_U+30E4_U+30FC 1
 62
   179
420
  2234388
370
    25
100
AcDbVertex
100
AcDb2dVertex
 10
79.34674047569601
 20
-125.3375699686655
 30
0.0
  0
SEQEND
  5
149
330
146
100
AcDbEntity
  8
_U+30EC_U+30A4_U+30E4_U+30FC 1
 62
   179
420
  2234388
370
    25
  0
POLYLINE
  5
14A
330
1F
100
AcDbEntity
  8
_U+30EC_U+30A4_U+30E4_U+30FC 1
 62
   179
420
  2234388
370
    25
100
AcDb2dPolyline
 66
     1
 10
0.0
 20
0.0
 30
0.0
  0
VERTEX
  5
14B
330
14A
100
AcDbEntity
  8
_U+30EC_U+30A4_U+30E4_U+30FC 1
 62
   179
420
  2234388
370
    25
100
AcDbVertex
100
AcDb2dVertex
 10
74.37684442585035
 20
-132.9386610778767
 30
0.0
  0
VERTEX
  5
14C
330
14A
100
AcDbEntity
  8
_U+30EC_U+30A4_U+30E4_U+30FC 1
 62
   179
420
  2234388
370
    25
100
AcDbVertex
100
AcDb2dVertex
 10
79.63923053564568
 20
-132.9386610778767
 30
0.0
  0
SEQEND
  5
14D
330
14A
100
AcDbEntity
  8
_U+30EC_U+30A4_U+30E4_U+30FC 1
 62
   179
420
  2234388
370
    25
  0
POLYLINE
  5
14E
330
1F
100
AcDbEntity
  8
_U+30EC_U+30A4_U+30E4_U+30FC 1
 62
   179
420
  2234388
370
    25
100
AcDb2dPolyline
 66
     1
 10
0.0
 20
0.0
 30
0.0
  0
VERTEX
  5
14F
330
14E
100
AcDbEntity
  8
_U+30EC_U+30A4_U+30E4_U+30FC 1
 62
   179
420
  2234388
370
    25
100
AcDbVertex
100
AcDb2dVertex
 10
69.2319333160252
 20
-125.9218405240751
 30
0.0
  0
VERTEX
  5
150
330
14E
100
AcDbEntity
  8
_U+30EC_U+30A4_U+30E4_U+30FC 1
 62
   179
420
  2234388
370
    25
100
AcDbVertex
100
AcDb2dVertex
 10
79.10455853743014
 20
-125.9218405240751
 30
0.0
  0
SEQEND
  5
151
330
14E
100
AcDbEntity
  8
_U+30EC_U+30A4_U+30E4_U+30FC 1
 62
   179
420
  2234388
370
    25
  0
POLYLINE
  5
152
330
1F
100
AcDbEntity
  8
_U+30EC_U+30A4_U+30E4_U+30FC 1
 62
   179
420
  2234388
370
    25
100
AcDb2dPolyline
 66
     1
 10
0.0
 20
0.0
 30
0.0
  0
VERTEX
  5
153
330
152
100
AcDbEntity
  8
_U+30EC_U+30A4_U+30E4_U+30FC 1
 62
   179
420
  2234388
370
    25
100
AcDbVertex
100
AcDb2dVertex
 10
85.76701364523453
 20
-133.5232844110638
 30
0.0
  0
VERTEX
  5
154
330
152
100
AcDbEntity
  8
_U+30EC_U+30A4_U+30E4_U+30FC 1
 62
   179
420
  2234388
370
    25
100
AcDbVertex
100
AcDb2dVertex
 10
74.37684442585035
 20
-133.5232844110638
 30
0.0
  0
SEQEND
  5
155
330
152
100
AcDbEntity
  8
_U+30EC_U+30A4_U+30E4_U+30FC 1
 62
   179
420
  2234388
370
    25
  0
POLYLINE
  5
156
330
1F
100
AcDbEntity
  8
_U+30EC_U+30A4_U+30E4_U+30FC 1
 62
   179
420
  2234388
370
    25
100
AcDb2dPolyline
 66
     1
 10
0.0
 20
0.0
 30
0.0
  0
VERTEX
  5
157
330
156
100
AcDbEntity
  8
_U+30EC_U+30A4_U+30E4_U+30FC 1
 62
   179
420
  2234388
370
    25
100
AcDbVertex
100
AcDb2dVertex
 10
106.5351114487295
 20
-125.9218405240751
 30
0.0
  0
VERTEX
  5
158
330
156
100
AcDbEntity
  8
_U+30EC_U+30A4_U+30E4_U+30FC 1
 62
   179
420
  2234388
370
    25
100
AcDbVertex
100
AcDb2dVertex
 10
103.1434027519919
 20
-125.9218405240751
 30
0.0
  0
SEQEND
  5
159
330
156
100
AcDbEntity
  8
_U+30EC_U+30A4_U+30E4_U+30FC 1
 62
   179
420
  2234388
370
    25
  0
POLYLINE
  5
15A
330
1F
100
AcDbEntity
  8
_U+30EC_U+30A4_U+30E4_U+30FC 1
 62
   179
420
  2234388
370
    25
100
AcDb2dPolyline
 66
     1
 10
0.0
 20
0.0
 30
0.0
  0
VERTEX
  5
15B
330
15A
100
AcDbEntity
  8
_U+30EC_U+30A4_U+30E4_U+30FC 1
 62
   179
420
  2234388
370
    25
100
AcDbVertex
100
AcDb2dVertex
 10
106.5351114487295
 20
-125.3375699686655
 30
0.0
  0
VERTEX
  5
15C
330
15A
100
AcDbEntity
  8
_U+30EC_U+30A4_U+30E4_U+30FC 1
 62
   179
420
  2234388
370
    25
100
AcDbVertex
100
AcDb2dVertex
 10
92.79501942124543
 20
-125.3375699686655
 30
0.0
  0
SEQEND
  5
15D
330
15A
100
AcDbEntity
  8
_U+30EC_U+30A4_U+30E4_U+30FC 1
 62
   179
420
  2234388
370
    25
  0
SPLINE
  5
15E
330
1F
100
AcDbEntity
  8
_U+30EC_U+30A4_U+30E4_U+30FC 1
370
     0
100
AcDbSpline
210
0.0
220
0.0
230
1.0
 70
    11
 71
     3
 72
    17
 73
    13
 74
     0
 42
0.0000000001
 43
0.0000000001
 12
1.0
 22
0.0
 32
0.0
 13
1.0
 23
0.0
 33
0.0
 40
0.0
 40
0.0
 40
0.0
 40
0.0
 40
1.0
 40
1.0
 40
1.0
 40
2.0
 40
2.0
 40
2.0
 40
3.0
 40
3.0
 40
3.0
 40
4.0
 40
4.0
 40
4.0
 40
4.0
 10
65.60668138178967
 20
-120.5755991365228
 30
0.0
 10
65.66146942802922
 20
-120.5755991365228
 30
0.0
 10
65.70694082367628
 20
-120.6203666365116
 30
0.0
 10
65.70694082367628
 20
-120.6755058031644
 30
0.0
 10
65.70694082367628
 20
-120.7307860809285
 30
0.0
 10
65.66146942802922
 20
-120.7755888586949
 30
0.0
 10
65.60668138178967
 20
-120.7755888586949
 30
0.0
 10
65.55122471653782
 20
-120.7755888586949
 30
0.0
 10
65.50677471767183
 20
-120.7307860809285
 30
0.0
 10
65.50677471767183
 20
-120.6755058031644
 30
0.0
 10
65.50677471767183
 20
-120.6203666365116
 30
0.0
 10
65.55122471653782
 20
-120.5755991365228
 30
0.0
 10
65.60668138178967
 20
-120.5755991365228
 30
0.0
  0
HATCH
  5
15F
330
1F
100
AcDbEntity
  8
_U+30EC_U+30A4_U+30E4_U+30FC 1
 62
     7
420
 16777215
100
AcDbHatch
 10
0.0
 20
0.0
 30
0.0
210
0.0
220
0.0
230
1.0
  2
SOLID
 70
     1
 71
     0
 91
        1
 92
        1
 93
        1
 72
     4
 94
        3
 73
     0
 74
     1
 95
       17
 96
       13
 40
0.0
 40
0.0
 40
0.0
 40
0.0
 40
1.0
 40
1.0
 40
1.0
 40
2.0
 40
2.0
 40
2.0
 40
3.0
 40
3.0
 40
3.0
 40
4.0
 40
4.0
 40
4.0
 40
4.0
 10
65.60668138178967
 20
-120.5755991365228
 10
65.66146942802922
 20
-120.5755991365228
 10
65.70694082367628
 20
-120.6203666365116
 10
65.70694082367628
 20
-120.6755058031644
 10
65.70694082367628
 20
-120.7307860809285
 10
65.66146942802922
 20
-120.7755888586949
 10
65.60668138178967
 20
-120.7755888586949
 10
65.55122471653782
 20
-120.7755888586949
 10
65.50677471767183
 20
-120.7307860809285
 10
65.50677471767183
 20
-120.6755058031644
 10
65.50677471767183
 20
-120.6203666365116
 10
65.55122471653782
 20
-120.5755991365228
 10
65.60668138178967
 20
-120.5755991365228
 97
        0
 97
        0
 75
     2
 76
     1
 98
        0
  0
SPLINE
  5
160
330
1F
100
AcDbEntity
  8
_U+30EC_U+30A4_U+30E4_U+30FC 1
370
     0
100
AcDbSpline
210
0.0
220
0.0
230
1.0
 70
    11
 71
     3
 72
    17
 73
    13
 74
     0
 42
0.0000000001
 43
0.0000000001
 12
1.0
 22
0.0
 32
0.0
 13
1.0
 23
0.0
 33
0.0
 40
0.0
 40
0.0
 40
0.0
 40
0.0
 40
1.0
 40
1.0
 40
1.0
 40
2.0
 40
2.0
 40
2.0
 40
3.0
 40
3.0
 40
3.0
 40
4.0
 40
4.0
 40
4.0
 40
4.0
 10
73.79186645074599
 20
-138.5183355209261
 30
0.0
 10
73.84665283823715
 20
-138.5183355209261
 30
0.0
 10
73.89177498152718
 20
-138.5631030209147
 30
0.0
 10
73.89177498152718
 20
-138.6182421875678
 30
0.0
 10
73.89177498152718
 20
-138.6733460764427
 30
0.0
 10
73.84665283823715
 20
-138.7181488542094
 30
0.0
 10
73.79186645074599
 20
-138.7181488542094
 30
0.0
 10
73.73640978549413
 20
-138.7181488542094
 30
0.0
 10
73.69160700885936
 20
-138.6733460764427
 30
0.0
 10
73.69160700885936
 20
-138.6182421875678
 30
0.0
 10
73.69160700885936
 20
-138.5631030209147
 30
0.0
 10
73.73640978549413
 20
-138.5183355209261
 30
0.0
 10
73.79186645074599
 20
-138.5183355209261
 30
0.0
  0
HATCH
  5
161
330
1F
100
AcDbEntity
  8
_U+30EC_U+30A4_U+30E4_U+30FC 1
 62
     7
420
 16777215
100
AcDbHatch
 10
0.0
 20
0.0
 30
0.0
210
0.0
220
0.0
230
1.0
  2
SOLID
 70
     1
 71
     0
 91
        1
 92
        1
 93
        1
 72
     4
 94
        3
 73
     0
 74
     1
 95
       17
 96
       13
 40
0.0
 40
0.0
 40
0.0
 40
0.0
 40
1.0
 40
1.0
 40
1.0
 40
2.0
 40
2.0
 40
2.0
 40
3.0
 40
3.0
 40
3.0
 40
4.0
 40
4.0
 40
4.0
 40
4.0
 10
73.79186645074599
 20
-138.5183355209261
 10
73.84665283823715
 20
-138.5183355209261
 10
73.89177498152718
 20
-138.5631030209147
 10
73.89177498152718
 20
-138.6182421875678
 10
73.89177498152718
 20
-138.6733460764427
 10
73.84665283823715
 20
-138.7181488542094
 10
73.79186645074599
 20
-138.7181488542094
 10
73.73640978549413
 20
-138.7181488542094
 10
73.69160700885936
 20
-138.6733460764427
 10
73.69160700885936
 20
-138.6182421875678
 10
73.69160700885936
 20
-138.5631030209147
 10
73.73640978549413
 20
-138.5183355209261
 10
73.79186645074599
 20
-138.5183355209261
 97
        0
 97
        0
 75
     2
 76
     1
 98
        0
  0
SPLINE
  5
162
330
1F
100
AcDbEntity
  8
_U+30EC_U+30A4_U+30E4_U+30FC 1
370
     0
100
AcDbSpline
210
0.0
220
0.0
230
1.0
 70
    11
 71
     3
 72
    17
 73
    13
 74
     0
 42
0.0000000001
 43
0.0000000001
 12
1.0
 22
0.0
 32
0.0
 13
1.0
 23
0.0
 33
0.0
 40
0.0
 40
0.0
 40
0.0
 40
0.0
 40
1.0
 40
1.0
 40
1.0
 40
2.0
 40
2.0
 40
2.0
 40
3.0
 40
3.0
 40
3.0
 40
4.0
 40
4.0
 40
4.0
 40
4.0
 10
98.34989110199635
 20
-138.5183355209261
 30
0.0
 10
98.40503026725631
 20
-138.5183355209261
 30
0.0
 10
98.44979776611419
 20
-138.5631030209147
 30
0.0
 10
98.44979776611419
 20
-138.6182421875678
 30
0.0
 10
98.44979776611419
 20
-138.6733460764427
 30
0.0
 10
98.40503026725631
 20
-138.7181488542094
 30
0.0
 10
98.34989110199635
 20
-138.7181488542094
 30
0.0
 10
98.29443443674451
 20
-138.7181488542094
 30
0.0
 10
98.24998443787852
 20
-138.6733460764427
 30
0.0
 10
98.24998443787852
 20
-138.6182421875678
 30
0.0
 10
98.24998443787852
 20
-138.5631030209147
 30
0.0
 10
98.29443443674451
 20
-138.5183355209261
 30
0.0
 10
98.34989110199635
 20
-138.5183355209261
 30
0.0
  0
HATCH
  5
163
330
1F
100
AcDbEntity
  8
_U+30EC_U+30A4_U+30E4_U+30FC 1
 62
     7
420
 16777215
100
AcDbHatch
 10
0.0
 20
0.0
 30
0.0
210
0.0
220
0.0
230
1.0
  2
SOLID
 70
     1
 71
     0
 91
        1
 92
        1
 93
        1
 72
     4
 94
        3
 73
     0
 74
     1
 95
       17
 96
       13
 40
0.0
 40
0.0
 40
0.0
 40
0.0
 40
1.0
 40
1.0
 40
1.0
 40
2.0
 40
2.0
 40
2.0
 40
3.0
 40
3.0
 40
3.0
 40
4.0
 40
4.0
 40
4.0
 40
4.0
 10
98.34989110199635
 20
-138.5183355209261
 10
98.40503026725631
 20
-138.5183355209261
 10
98.44979776611419
 20
-138.5631030209147
 10
98.44979776611419
 20
-138.6182421875678
 10
98.44979776611419
 20
-138.6733460764427
 10
98.40503026725631
 20
-138.7181488542094
 10
98.34989110199635
 20
-138.7181488542094
 10
98.29443443674451
 20
-138.7181488542094
 10
98.24998443787852
 20
-138.6733460764427
 10
98.24998443787852
 20
-138.6182421875678
 10
98.24998443787852
 20
-138.5631030209147
 10
98.29443443674451
 20
-138.5183355209261
 10
98.34989110199635
 20
-138.5183355209261
 97
        0
 97
        0
 75
     2
 76
     1
 98
        0
  0
SPLINE
  5
164
330
1F
100
AcDbEntity
  8
_U+30EC_U+30A4_U+30E4_U+30FC 1
370
     0
100
AcDbSpline
210
0.0
220
0.0
230
1.0
 70
    11
 71
     3
 72
    17
 73
    13
 74
     0
 42
0.0000000001
 43
0.0000000001
 12
1.0
 22
0.0
 32
0.0
 13
1.0
 23
0.0
 33
0.0
 40
0.0
 40
0.0
 40
0.0
 40
0.0
 40
1.0
 40
1.0
 40
1.0
 40
2.0
 40
2.0
 40
2.0
 40
3.0
 40
3.0
 40
3.0
 40
4.0
 40
4.0
 40
4.0
 40
4.0
 10
98.34989110199635
 20
-136.7792469102496
 30
0.0
 10
98.40503026725631
 20
-136.7792469102496
 30
0.0
 10
98.44979776611419
 20
-136.8240496880163
 30
0.0
 10
98.44979776611419
 20
-136.8791535768912
 30
0.0
 10
98.44979776611419
 20
-136.9342927435443
 30
0.0
 10
98.40503026725631
 20
-136.9790602435329
 30
0.0
 10
98.34989110199635
 20
-136.9790602435329
 30
0.0
 10
98.29443443674451
 20
-136.9790602435329
 30
0.0
 10
98.24998443787852
 20
-136.9342927435443
 30
0.0
 10
98.24998443787852
 20
-136.8791535768912
 30
0.0
 10
98.24998443787852
 20
-136.8240496880163
 30
0.0
 10
98.29443443674451
 20
-136.7792469102496
 30
0.0
 10
98.34989110199635
 20
-136.7792469102496
 30
0.0
  0
HATCH
  5
165
330
1F
100
AcDbEntity
  8
_U+30EC_U+30A4_U+30E4_U+30FC 1
 62
     7
420
 16777215
100
AcDbHatch
 10
0.0
 20
0.0
 30
0.0
210
0.0
220
0.0
230
1.0
  2
SOLID
 70
     1
 71
     0
 91
        1
 92
        1
 93
        1
 72
     4
 94
        3
 73
     0
 74
     1
 95
       17
 96
       13
 40
0.0
 40
0.0
 40
0.0
 40
0.0
 40
1.0
 40
1.0
 40
1.0
 40
2.0
 40
2.0
 40
2.0
 40
3.0
 40
3.0
 40
3.0
 40
4.0
 40
4.0
 40
4.0
 40
4.0
 10
98.34989110199635
 20
-136.7792469102496
 10
98.40503026725631
 20
-136.7792469102496
 10
98.44979776611419
 20
-136.8240496880163
 10
98.44979776611419
 20
-136.8791535768912
 10
98.44979776611419
 20
-136.9342927435443
 10
98.40503026725631
 20
-136.9790602435329
 10
98.34989110199635
 20
-136.9790602435329
 10
98.29443443674451
 20
-136.9790602435329
 10
98.24998443787852
 20
-136.9342927435443
 10
98.24998443787852
 20
-136.8791535768912
 10
98.24998443787852
 20
-136.8240496880163
 10
98.29443443674451
 20
-136.7792469102496
 10
98.34989110199635
 20
-136.7792469102496
 97
        0
 97
        0
 75
     2
 76
     1
 98
        0
  0
SPLINE
  5
166
330
1F
100
AcDbEntity
  8
_U+30EC_U+30A4_U+30E4_U+30FC 1
370
     0
100
AcDbSpline
210
0.0
220
0.0
230
1.0
 70
    11
 71
     3
 72
    17
 73
    13
 74
     0
 42
0.0000000001
 43
0.0000000001
 12
1.0
 22
0.0
 32
0.0
 13
1.0
 23
0.0
 33
0.0
 40
0.0
 40
0.0
 40
0.0
 40
0.0
 40
1.0
 40
1.0
 40
1.0
 40
2.0
 40
2.0
 40
2.0
 40
3.0
 40
3.0
 40
3.0
 40
4.0
 40
4.0
 40
4.0
 40
4.0
 10
92.50186108798535
 20
-136.7792469102496
 30
0.0
 10
92.55660986090638
 20
-136.7792469102496
 30
0.0
 10
92.60176541530993
 20
-136.8240496880163
 30
0.0
 10
92.60176541530993
 20
-136.8791535768912
 30
0.0
 10
92.60176541530993
 20
-136.9342927435443
 30
0.0
 10
92.55660986090638
 20
-136.9790602435329
 30
0.0
 10
92.50186108798535
 20
-136.9790602435329
 30
0.0
 10
92.44636680816336
 20
-136.9790602435329
 30
0.0
 10
92.40159930930548
 20
-136.9342927435443
 30
0.0
 10
92.40159930930548
 20
-136.8791535768912
 30
0.0
 10
92.40159930930548
 20
-136.8240496880163
 30
0.0
 10
92.44636680816336
 20
-136.7792469102496
 30
0.0
 10
92.50186108798535
 20
-136.7792469102496
 30
0.0
  0
HATCH
  5
167
330
1F
100
AcDbEntity
  8
_U+30EC_U+30A4_U+30E4_U+30FC 1
 62
     7
420
 16777215
100
AcDbHatch
 10
0.0
 20
0.0
 30
0.0
210
0.0
220
0.0
230
1.0
  2
SOLID
 70
     1
 71
     0
 91
        1
 92
        1
 93
        1
 72
     4
 94
        3
 73
     0
 74
     1
 95
       17
 96
       13
 40
0.0
 40
0.0
 40
0.0
 40
0.0
 40
1.0
 40
1.0
 40
1.0
 40
2.0
 40
2.0
 40
2.0
 40
3.0
 40
3.0
 40
3.0
 40
4.0
 40
4.0
 40
4.0
 40
4.0
 10
92.50186108798535
 20
-136.7792469102496
 10
92.55660986090638
 20
-136.7792469102496
 10
92.60176541530993
 20
-136.8240496880163
 10
92.60176541530993
 20
-136.8791535768912
 10
92.60176541530993
 20
-136.9342927435443
 10
92.55660986090638
 20
-136.9790602435329
 10
92.50186108798535
 20
-136.9790602435329
 10
92.44636680816336
 20
-136.9790602435329
 10
92.40159930930548
 20
-136.9342927435443
 10
92.40159930930548
 20
-136.8791535768912
 10
92.40159930930548
 20
-136.8240496880163
 10
92.44636680816336
 20
-136.7792469102496
 10
92.50186108798535
 20
-136.7792469102496
 97
        0
 97
        0
 75
     2
 76
     1
 98
        0
  0
SPLINE
  5
168
330
1F
100
AcDbEntity
  8
_U+30EC_U+30A4_U+30E4_U+30FC 1
370
     0
100
AcDbSpline
210
0.0
220
0.0
230
1.0
 70
    11
 71
     3
 72
    17
 73
    13
 74
     0
 42
0.0000000001
 43
0.0000000001
 12
1.0
 22
0.0
 32
0.0
 13
1.0
 23
0.0
 33
0.0
 40
0.0
 40
0.0
 40
0.0
 40
0.0
 40
1.0
 40
1.0
 40
1.0
 40
2.0
 40
2.0
 40
2.0
 40
3.0
 40
3.0
 40
3.0
 40
4.0
 40
4.0
 40
4.0
 40
4.0
 10
115.8843925990984
 20
-133.4230249666444
 30
0.0
 10
115.9395317643583
 20
-133.4230249666444
 30
0.0
 10
115.9842992632162
 20
-133.4678277444111
 30
0.0
 10
115.9842992632162
 20
-133.522931633286
 30
0.0
 10
115.9842992632162
 20
-133.5787410777164
 30
0.0
 10
115.9395317643583
 20
-133.6231910777054
 30
0.0
 10
115.8843925990984
 20
-133.6231910777054
 30
0.0
 10
115.8289388599319
 20
-133.6231910777054
 30
0.0
 10
115.784488859943
 20
-133.5787410777164
 30
0.0
 10
115.784488859943
 20
-133.522931633286
 30
0.0
 10
115.784488859943
 20
-133.4678277444111
 30
0.0
 10
115.8289388599319
 20
-133.4230249666444
 30
0.0
 10
115.8843925990984
 20
-133.4230249666444
 30
0.0
  0
HATCH
  5
169
330
1F
100
AcDbEntity
  8
_U+30EC_U+30A4_U+30E4_U+30FC 1
 62
     7
420
 16777215
100
AcDbHatch
 10
0.0
 20
0.0
 30
0.0
210
0.0
220
0.0
230
1.0
  2
SOLID
 70
     1
 71
     0
 91
        1
 92
        1
 93
        1
 72
     4
 94
        3
 73
     0
 74
     1
 95
       17
 96
       13
 40
0.0
 40
0.0
 40
0.0
 40
0.0
 40
1.0
 40
1.0
 40
1.0
 40
2.0
 40
2.0
 40
2.0
 40
3.0
 40
3.0
 40
3.0
 40
4.0
 40
4.0
 40
4.0
 40
4.0
 10
115.8843925990984
 20
-133.4230249666444
 10
115.9395317643583
 20
-133.4230249666444
 10
115.9842992632162
 20
-133.4678277444111
 10
115.9842992632162
 20
-133.522931633286
 10
115.9842992632162
 20
-133.5787410777164
 10
115.9395317643583
 20
-133.6231910777054
 10
115.8843925990984
 20
-133.6231910777054
 10
115.8289388599319
 20
-133.6231910777054
 10
115.784488859943
 20
-133.5787410777164
 10
115.784488859943
 20
-133.522931633286
 10
115.784488859943
 20
-133.4678277444111
 10
115.8289388599319
 20
-133.4230249666444
 10
115.8843925990984
 20
-133.4230249666444
 97
        0
 97
        0
 75
     2
 76
     1
 98
        0
  0
SPLINE
  5
16A
330
1F
100
AcDbEntity
  8
_U+30EC_U+30A4_U+30E4_U+30FC 1
370
     0
100
AcDbSpline
210
0.0
220
0.0
230
1.0
 70
    11
 71
     3
 72
    17
 73
    13
 74
     0
 42
0.0000000001
 43
0.0000000001
 12
1.0
 22
0.0
 32
0.0
 13
1.0
 23
0.0
 33
0.0
 40
0.0
 40
0.0
 40
0.0
 40
0.0
 40
1.0
 40
1.0
 40
1.0
 40
2.0
 40
2.0
 40
2.0
 40
3.0
 40
3.0
 40
3.0
 40
4.0
 40
4.0
 40
4.0
 40
4.0
 10
115.8843925990984
 20
-131.6691549670826
 30
0.0
 10
115.9395317643583
 20
-131.6691549670826
 30
0.0
 10
115.9842992632162
 20
-131.713569689294
 30
0.0
 10
115.9842992632162
 20
-131.7687088559464
 30
0.0
 10
115.9842992632162
 20
-131.8241655225998
 30
0.0
 10
115.9395317643583
 20
-131.8692858003661
 30
0.0
 10
115.8843925990984
 20
-131.8692858003661
 30
0.0
 10
115.8289388599319
 20
-131.8692858003661
 30
0.0
 10
115.784488859943
 20
-131.8241655225998
 30
0.0
 10
115.784488859943
 20
-131.7687088559464
 30
0.0
 10
115.784488859943
 20
-131.713569689294
 30
0.0
 10
115.8289388599319
 20
-131.6691549670826
 30
0.0
 10
115.8843925990984
 20
-131.6691549670826
 30
0.0
  0
HATCH
  5
16B
330
1F
100
AcDbEntity
  8
_U+30EC_U+30A4_U+30E4_U+30FC 1
 62
     7
420
 16777215
100
AcDbHatch
 10
0.0
 20
0.0
 30
0.0
210
0.0
220
0.0
230
1.0
  2
SOLID
 70
     1
 71
     0
 91
        1
 92
        1
 93
        1
 72
     4
 94
        3
 73
     0
 74
     1
 95
       17
 96
       13
 40
0.0
 40
0.0
 40
0.0
 40
0.0
 40
1.0
 40
1.0
 40
1.0
 40
2.0
 40
2.0
 40
2.0
 40
3.0
 40
3.0
 40
3.0
 40
4.0
 40
4.0
 40
4.0
 40
4.0
 10
115.8843925990984
 20
-131.6691549670826
 10
115.9395317643583
 20
-131.6691549670826
 10
115.9842992632162
 20
-131.713569689294
 10
115.9842992632162
 20
-131.7687088559464
 10
115.9842992632162
 20
-131.8241655225998
 10
115.9395317643583
 20
-131.8692858003661
 10
115.8843925990984
 20
-131.8692858003661
 10
115.8289388599319
 20
-131.8692858003661
 10
115.784488859943
 20
-131.8241655225998
 10
115.784488859943
 20
-131.7687088559464
 10
115.784488859943
 20
-131.713569689294
 10
115.8289388599319
 20
-131.6691549670826
 10
115.8843925990984
 20
-131.6691549670826
 97
        0
 97
        0
 75
     2
 76
     1
 98
        0
  0
SPLINE
  5
16C
330
1F
100
AcDbEntity
  8
_U+30EC_U+30A4_U+30E4_U+30FC 1
370
     0
100
AcDbSpline
210
0.0
220
0.0
230
1.0
 70
    11
 71
     3
 72
    17
 73
    13
 74
     0
 42
0.0000000001
 43
0.0000000001
 12
1.0
 22
0.0
 32
0.0
 13
1.0
 23
0.0
 33
0.0
 40
0.0
 40
0.0
 40
0.0
 40
0.0
 40
1.0
 40
1.0
 40
1.0
 40
2.0
 40
2.0
 40
2.0
 40
3.0
 40
3.0
 40
3.0
 40
4.0
 40
4.0
 40
4.0
 40
4.0
 10
115.8843925990984
 20
-125.8216163574335
 30
0.0
 10
115.9395317643583
 20
-125.8216163574335
 30
0.0
 10
115.9842992632162
 20
-125.8662074685335
 30
0.0
 10
115.9842992632162
 20
-125.9215230240752
 30
0.0
 10
115.9842992632162
 20
-125.976803301839
 30
0.0
 10
115.9395317643583
 20
-126.0216060796057
 30
0.0
 10
115.8843925990984
 20
-126.0216060796057
 30
0.0
 10
115.8289388599319
 20
-126.0216060796057
 30
0.0
 10
115.784488859943
 20
-125.976803301839
 30
0.0
 10
115.784488859943
 20
-125.9215230240752
 30
0.0
 10
115.784488859943
 20
-125.8662074685335
 30
0.0
 10
115.8289388599319
 20
-125.8216163574335
 30
0.0
 10
115.8843925990984
 20
-125.8216163574335
 30
0.0
  0
HATCH
  5
16D
330
1F
100
AcDbEntity
  8
_U+30EC_U+30A4_U+30E4_U+30FC 1
 62
     7
420
 16777215
100
AcDbHatch
 10
0.0
 20
0.0
 30
0.0
210
0.0
220
0.0
230
1.0
  2
SOLID
 70
     1
 71
     0
 91
        1
 92
        1
 93
        1
 72
     4
 94
        3
 73
     0
 74
     1
 95
       17
 96
       13
 40
0.0
 40
0.0
 40
0.0
 40
0.0
 40
1.0
 40
1.0
 40
1.0
 40
2.0
 40
2.0
 40
2.0
 40
3.0
 40
3.0
 40
3.0
 40
4.0
 40
4.0
 40
4.0
 40
4.0
 10
115.8843925990984
 20
-125.8216163574335
 10
115.9395317643583
 20
-125.8216163574335
 10
115.9842992632162
 20
-125.8662074685335
 10
115.9842992632162
 20
-125.9215230240752
 10
115.9842992632162
 20
-125.976803301839
 10
115.9395317643583
 20
-126.0216060796057
 10
115.8843925990984
 20
-126.0216060796057
 10
115.8289388599319
 20
-126.0216060796057
 10
115.784488859943
 20
-125.976803301839
 10
115.784488859943
 20
-125.9215230240752
 10
115.784488859943
 20
-125.8662074685335
 10
115.8289388599319
 20
-125.8216163574335
 10
115.8843925990984
 20
-125.8216163574335
 97
        0
 97
        0
 75
     2
 76
     1
 98
        0
  0
SPLINE
  5
16E
330
1F
100
AcDbEntity
  8
_U+30EC_U+30A4_U+30E4_U+30FC 1
370
     0
100
AcDbSpline
210
0.0
220
0.0
230
1.0
 70
    11
 71
     3
 72
    17
 73
    13
 74
     0
 42
0.0000000001
 43
0.0000000001
 12
1.0
 22
0.0
 32
0.0
 13
1.0
 23
0.0
 33
0.0
 40
0.0
 40
0.0
 40
0.0
 40
0.0
 40
1.0
 40
1.0
 40
1.0
 40
2.0
 40
2.0
 40
2.0
 40
3.0
 40
3.0
 40
3.0
 40
4.0
 40
4.0
 40
4.0
 40
4.0
 10
106.5351114487295
 20
-120.575246358745
 30
0.0
 10
106.5902153362126
 20
-120.575246358745
 30
0.0
 10
106.6353356128393
 20
-120.6201902476228
 30
0.0
 10
106.6353356128393
 20
-120.6751530253866
 30
0.0
 10
106.6353356128393
 20
-120.7306096920396
 30
0.0
 10
106.5902153362126
 20
-120.775412469806
 30
0.0
 10
106.5351114487295
 20
-120.775412469806
 30
0.0
 10
106.4799749733802
 20
-120.775412469806
 30
0.0
 10
106.4352047846117
 20
-120.7306096920396
 30
0.0
 10
106.4352047846117
 20
-120.6751530253866
 30
0.0
 10
106.4352047846117
 20
-120.6201902476228
 30
0.0
 10
106.4799749733802
 20
-120.575246358745
 30
0.0
 10
106.5351114487295
 20
-120.575246358745
 30
0.0
  0
HATCH
  5
16F
330
1F
100
AcDbEntity
  8
_U+30EC_U+30A4_U+30E4_U+30FC 1
 62
     7
420
 16777215
100
AcDbHatch
 10
0.0
 20
0.0
 30
0.0
210
0.0
220
0.0
230
1.0
  2
SOLID
 70
     1
 71
     0
 91
        1
 92
        1
 93
        1
 72
     4
 94
        3
 73
     0
 74
     1
 95
       17
 96
       13
 40
0.0
 40
0.0
 40
0.0
 40
0.0
 40
1.0
 40
1.0
 40
1.0
 40
2.0
 40
2.0
 40
2.0
 40
3.0
 40
3.0
 40
3.0
 40
4.0
 40
4.0
 40
4.0
 40
4.0
 10
106.5351114487295
 20
-120.575246358745
 10
106.5902153362126
 20
-120.575246358745
 10
106.6353356128393
 20
-120.6201902476228
 10
106.6353356128393
 20
-120.6751530253866
 10
106.6353356128393
 20
-120.7306096920396
 10
106.5902153362126
 20
-120.775412469806
 10
106.5351114487295
 20
-120.775412469806
 10
106.4799749733802
 20
-120.775412469806
 10
106.4352047846117
 20
-120.7306096920396
 10
106.4352047846117
 20
-120.6751530253866
 10
106.4352047846117
 20
-120.6201902476228
 10
106.4799749733802
 20
-120.575246358745
 10
106.5351114487295
 20
-120.575246358745
 97
        0
 97
        0
 75
     2
 76
     1
 98
        0
  0
POLYLINE
  5
170
330
1F
100
AcDbEntity
  8
_U+30EC_U+30A4_U+30E4_U+30FC 1
 62
   179
420
  2234388
370
     9
100
AcDb2dPolyline
 66
     1
 10
0.0
 20
0.0
 30
0.0
  0
VERTEX
  5
171
330
170
100
AcDbEntity
  8
_U+30EC_U+30A4_U+30E4_U+30FC 1
 62
   179
420
  2234388
370
     9
100
AcDbVertex
100
AcDb2dVertex
 10
92.50150831020822
 20
-136.8791535768912
 30
0.0
  0
VERTEX
  5
172
330
170
100
AcDbEntity
  8
_U+30EC_U+30A4_U+30E4_U+30FC 1
 62
   179
420
  2234388
370
     9
100
AcDbVertex
100
AcDb2dVertex
 10
98.34922082423567
 20
-136.8791535768912
 30
0.0
  0
SEQEND
  5
173
330
170
100
AcDbEntity
  8
_U+30EC_U+30A4_U+30E4_U+30FC 1
 62
   179
420
  2234388
370
     9
  0
ENDSEC
  0
SECTION
  2
OBJECTS
  0
DICTIONARY
  5
C
330
0
100
AcDbDictionary
281
     1
  3
ACAD_GROUP
350
D
  3
ACAD_LAYOUT
350
1A
  3
ACAD_MATERIAL
350
3B
  3
ACAD_MLEADERSTYLE
350
175
  3
ACAD_MLINESTYLE
350
17
  3
ACAD_PLOTSETTINGS
350
19
  3
ACAD_PLOTSTYLENAME
350
E
  3
ACAD_TABLESTYLE
350
174
  3
ACAD_VISUALSTYLE
350
2A
  0
SUN
  5
3F
330
29
100
AcDbSun
 90
        1
290
     0
 63
     7
421
 16777215
 40
1.0
291
     1
 91
  2455826
 92
 54000000
292
     0
 70
     2
 71
   256
280
     1
  0
DICTIONARY
  5
D
102
{ACAD_REACTORS
330
C
102
}
330
C
100
AcDbDictionary
281
     1
  0
DICTIONARY
  5
1A
102
{ACAD_REACTORS
330
C
102
}
330
C
100
AcDbDictionary
281
     1
  3
Layout1
350
1E
  3
Layout2
350
26
  3
Model
350
22
  0
DICTIONARY
  5
3B
102
{ACAD_REACTORS
330
C
102
}
330
C
100
AcDbDictionary
281
     1
  3
ByBlock
350
3D
  3
ByLayer
350
3C
  3
Global
350
3E
  0
DICTIONARY
  5
175
102
{ACAD_REACTORS
330
C
102
}
330
C
100
AcDbDictionary
281
     1
  0
DICTIONARY
  5
17
102
{ACAD_REACTORS
330
C
102
}
330
C
100
AcDbDictionary
281
     1
  3
Standard
350
18
  0
DICTIONARY
  5
19
102
{ACAD_REACTORS
330
C
102
}
330
C
100
AcDbDictionary
281
     1
  0
ACDBDICTIONARYWDFLT
  5
E
102
{ACAD_REACTORS
330
C
102
}
330
C
100
AcDbDictionary
281
     1
  3
Normal
350
F
100
AcDbDictionaryWithDefault
340
F
  0
DICTIONARY
  5
174
102
{ACAD_REACTORS
330
C
102
}
330
C
100
AcDbDictionary
281
     1
  0
DICTIONARY
  5
2A
102
{ACAD_REACTORS
330
C
102
}
330
C
100
AcDbDictionary
281
     1
  3
2dWireframe
350
2F
  3
3D Hidden
350
31
  3
3dWireframe
350
30
  3
Basic
350
32
  3
Brighten
350
36
  3
ColorChange
350
3A
  3
Conceptual
350
34
  3
Dim
350
35
  3
Facepattern
350
39
  3
Flat
350
2B
  3
FlatWithEdges
350
2C
  3
Gouraud
350
2D
  3
GouraudWithEdges
350
2E
  3
Linepattern
350
38
  3
Realistic
350
33
  3
Thicken
350
37
  0
LAYOUT
  5
1E
102
{ACAD_REACTORS
330
1A
102
}
330
1A
100
AcDbPlotSettings
  1

  2
none_device
  4

  6

 40
0.0
 41
0.0
 42
0.0
 43
0.0
 44
0.0
 45
0.0
 46
0.0
 47
0.0
 48
0.0
 49
0.0
140
0.0
141
0.0
142
1.0
143
1.0
 70
   688
 72
     0
 73
     0
 74
     5
  7

 75
    16
 76
     0
 77
     2
 78
   300
147
1.0
148
0.0
149
0.0
100
AcDbLayout
  1
Layout1
 70
     1
 71
     1
 10
0.0
 20
0.0
 11
12.0
 21
9.0
 12
0.0
 22
0.0
 32
0.0
 14
1.000000000000000E+20
 24
1.000000000000000E+20
 34
1.000000000000000E+20
 15
-1.000000000000000E+20
 25
-1.000000000000000E+20
 35
-1.000000000000000E+20
146
0.0
 13
0.0
 23
0.0
 33
0.0
 16
1.0
 26
0.0
 36
0.0
 17
0.0
 27
1.0
 37
0.0
 76
     0
330
1B
  0
LAYOUT
  5
26
102
{ACAD_REACTORS
330
1A
102
}
330
1A
100
AcDbPlotSettings
  1

  2
none_device
  4

  6

 40
0.0
 41
0.0
 42
0.0
 43
0.0
 44
0.0
 45
0.0
 46
0.0
 47
0.0
 48
0.0
 49
0.0
140
0.0
141
0.0
142
1.0
143
1.0
 70
   688
 72
     0
 73
     0
 74
     5
  7

 75
    16
 76
     0
 77
     2
 78
   300
147
1.0
148
0.0
149
0.0
100
AcDbLayout
  1
Layout2
 70
     1
 71
     2
 10
0.0
 20
0.0
 11
0.0
 21
0.0
 12
0.0
 22
0.0
 32
0.0
 14
0.0
 24
0.0
 34
0.0
 15
0.0
 25
0.0
 35
0.0
146
0.0
 13
0.0
 23
0.0
 33
0.0
 16
1.0
 26
0.0
 36
0.0
 17
0.0
 27
1.0
 37
0.0
 76
     0
330
23
  0
LAYOUT
  5
22
102
{ACAD_REACTORS
330
1A
102
}
330
1A
100
AcDbPlotSettings
  1

  2
none_device
  4

  6

 40
0.0
 41
0.0
 42
0.0
 43
0.0
 44
0.0
 45
0.0
 46
0.0
 47
0.0
 48
0.0
 49
0.0
140
0.0
141
0.0
142
1.0
143
1.0
 70
  1712
 72
     0
 73
     0
 74
     0
  7

 75
     0
 76
     0
 77
     2
 78
   300
147
1.0
148
0.0
149
0.0
100
AcDbLayout
  1
Model
 70
     1
 71
     0
 10
0.0
 20
0.0
 11
12.0
 21
9.0
 12
0.0
 22
0.0
 32
0.0
 14
1.000000000000000E+20
 24
1.000000000000000E+20
 34
1.000000000000000E+20
 15
-1.000000000000000E+20
 25
-1.000000000000000E+20
 35
-1.000000000000000E+20
146
0.0
 13
0.0
 23
0.0
 33
0.0
 16
1.0
 26
0.0
 36
0.0
 17
0.0
 27
1.0
 37
0.0
 76
     0
330
1F
331
29
  0
MATERIAL
  5
3D
102
{ACAD_REACTORS
330
3B
102
}
330
3B
100
AcDbMaterial
  1
ByBlock
 72
     1
 94
      127
  0
MATERIAL
  5
3C
102
{ACAD_REACTORS
330
3B
102
}
330
3B
100
AcDbMaterial
  1
ByLayer
 72
     1
 94
      127
  0
MATERIAL
  5
3E
102
{ACAD_REACTORS
330
3B
102
}
330
3B
100
AcDbMaterial
  1
Global
 72
     1
 94
      127
  0
MLINESTYLE
  5
18
102
{ACAD_REACTORS
330
17
102
}
330
17
100
AcDbMlineStyle
  2
Standard
 70
     0
  3

 62
   256
 51
90.0
 52
90.0
 71
     2
 49
0.5
 62
   256
  6
BYLAYER
 49
-0.5
 62
   256
  6
BYLAYER
  0
ACDBPLACEHOLDER
  5
F
102
{ACAD_REACTORS
330
E
102
}
330
E
  0
VISUALSTYLE
  5
2F
102
{ACAD_REACTORS
330
2A
102
}
330
2A
100
AcDbVisualStyle
  2
2dWireframe
 70
     4
177
     2
291
     0
 71
     0
176
     1
 72
     2
176
     1
 73
     0
176
     1
 90
        0
176
     1
 40
-0.6
176
     1
 41
-30.0
176
     1
 62
     5
 63
     7
421
 16777215
176
     1
 74
     1
176
     1
 91
        4
176
     1
 64
     7
176
     1
 65
   257
176
     1
 75
     1
176
     1
175
     1
176
     1
 42
1.0
176
     1
 92
        0
176
     1
 66
   257
176
     1
 43
1.0
176
     1
 76
     1
176
     1
 77
     6
176
     1
 78
     2
176
     1
 67
     7
176
     1
 79
     5
176
     1
170
     0
176
     1
171
     0
176
     1
290
     0
176
     1
 93
        1
176
     1
 44
0.0
176
     1
173
     0
176
     1
  0
VISUALSTYLE
  5
31
102
{ACAD_REACTORS
330
2A
102
}
330
2A
100
AcDbVisualStyle
  2
3D Hidden
 70
     6
177
     2
291
     0
 71
     1
176
     1
 72
     2
176
     1
 73
     2
176
     1
 90
        0
176
     1
 40
-0.6
176
     1
 41
-30.0
176
     1
 62
     5
 63
     7
421
 16777215
176
     1
 74
     2
176
     1
 91
        2
176
     1
 64
     7
176
     1
 65
   257
176
     1
 75
     2
176
     1
175
     1
176
     1
 42
40.0
176
     1
 92
        0
176
     1
 66
   257
176
     1
 43
1.0
176
     1
 76
     1
176
     1
 77
     6
176
     1
 78
     2
176
     1
 67
     7
176
     1
 79
     3
176
     1
170
     0
176
     1
171
     0
176
     1
290
     0
176
     1
 93
        1
176
     1
 44
0.0
176
     1
173
     0
176
     1
  0
VISUALSTYLE
  5
30
102
{ACAD_REACTORS
330
2A
102
}
330
2A
100
AcDbVisualStyle
  2
3dWireframe
 70
     5
177
     2
291
     0
 71
     0
176
     1
 72
     2
176
     1
 73
     0
176
     1
 90
        0
176
     1
 40
-0.6
176
     1
 41
-30.0
176
     1
 62
     5
 63
     7
421
 16777215
176
     1
 74
     1
176
     1
 91
        4
176
     1
 64
     7
176
     1
 65
   257
176
     1
 75
     1
176
     1
175
     1
176
     1
 42
1.0
176
     1
 92
        0
176
     1
 66
   257
176
     1
 43
1.0
176
     1
 76
     1
176
     1
 77
     6
176
     1
 78
     2
176
     1
 67
     7
176
     1
 79
     5
176
     1
170
     0
176
     1
171
     0
176
     1
290
     0
176
     1
 93
        1
176
     1
 44
0.0
176
     1
173
     0
176
     1
  0
VISUALSTYLE
  5
32
102
{ACAD_REACTORS
330
2A
102
}
330
2A
100
AcDbVisualStyle
  2
Basic
 70
     7
177
     2
291
     1
 71
     1
176
     1
 72
     0
176
     1
 73
     1
176
     1
 90
        0
176
     1
 40
-0.6
176
     1
 41
-30.0
176
     1
 62
     5
 63
     7
421
 16777215
176
     1
 74
     0
176
     1
 91
        4
176
     1
 64
     7
176
     1
 65
   257
176
     1
 75
     1
176
     1
175
     1
176
     1
 42
1.0
176
     1
 92
        8
176
     1
 66
     7
176
     1
 43
1.0
176
     1
 76
     1
176
     1
 77
     6
176
     1
 78
     2
176
     1
 67
     7
176
     1
 79
     5
176
     1
170
     0
176
     1
171
     0
176
     1
290
     0
176
     1
 93
        1
176
     1
 44
0.0
176
     1
173
     0
176
     1
  0
VISUALSTYLE
  5
36
102
{ACAD_REACTORS
330
2A
102
}
330
2A
100
AcDbVisualStyle
  2
Brighten
 70
    12
177
     2
291
     1
 71
     2
176
     1
 72
     2
176
     1
 73
     0
176
     1
 90
        0
176
     1
 40
-0.6
176
     1
 41
-30.0
176
     1
 62
     5
 63
     7
421
 16777215
176
     1
 74
     1
176
     1
 91
        4
176
     1
 64
     7
176
     1
 65
   257
176
     1
 75
     1
176
     1
175
     1
176
     1
 42
1.0
176
     1
 92
        8
176
     1
 66
     7
176
     1
 43
1.0
176
     1
 76
     1
176
     1
 77
     6
176
     1
 78
     2
176
     1
 67
     7
176
     1
 79
     5
176
     1
170
     0
176
     1
171
     0
176
     1
290
     0
176
     1
 93
        1
176
     1
 44
50.0
176
     1
173
     0
176
     1
  0
VISUALSTYLE
  5
3A
102
{ACAD_REACTORS
330
2A
102
}
330
2A
100
AcDbVisualStyle
  2
ColorChange
 70
    16
177
     2
291
     1
 71
     2
176
     1
 72
     2
176
     1
 73
     3
176
     1
 90
        0
176
     1
 40
-0.6
176
     1
 41
-30.0
176
     1
 62
     5
 63
     8
421
  8421504
176
     1
 74
     1
176
     1
 91
        4
176
     1
 64
     7
176
     1
 65
   257
176
     1
 75
     1
176
     1
175
     1
176
     1
 42
1.0
176
     1
 92
        8
176
     1
 66
     8
424
  8421504
176
     1
 43
1.0
176
     1
 76
     1
176
     1
 77
     6
176
     1
 78
     2
176
     1
 67
     7
176
     1
 79
     5
176
     1
170
     0
176
     1
171
     0
176
     1
290
     0
176
     1
 93
        1
176
     1
 44
0.0
176
     1
173
     0
176
     1
  0
VISUALSTYLE
  5
34
102
{ACAD_REACTORS
330
2A
102
}
330
2A
100
AcDbVisualStyle
  2
Conceptual
 70
     9
177
     2
291
     0
 71
     3
176
     1
 72
     2
176
     1
 73
     0
176
     1
 90
        0
176
     1
 40
-0.6
176
     1
 41
-30.0
176
     1
 62
     5
 63
     7
421
 16777215
176
     1
 74
     2
176
     1
 91
        2
176
     1
 64
     7
176
     1
 65
   257
176
     1
 75
     1
176
     1
175
     1
176
     1
 42
40.0
176
     1
 92
        8
176
     1
 66
     7
176
     1
 43
1.0
176
     1
 76
     1
176
     1
 77
     6
176
     1
 78
     2
176
     1
 67
     7
176
     1
 79
     3
176
     1
170
     0
176
     1
171
     0
176
     1
290
     0
176
     1
 93
        1
176
     1
 44
0.0
176
     1
173
     0
176
     1
  0
VISUALSTYLE
  5
35
102
{ACAD_REACTORS
330
2A
102
}
330
2A
100
AcDbVisualStyle
  2
Dim
 70
    11
177
     2
291
     1
 71
     2
176
     1
 72
     2
176
     1
 73
     0
176
     1
 90
        0
176
     1
 40
-0.6
176
     1
 41
-30.0
176
     1
 62
     5
 63
     7
421
 16777215
176
     1
 74
     1
176
     1
 91
        4
176
     1
 64
     7
176
     1
 65
   257
176
     1
 75
     1
176
     1
175
     1
176
     1
 42
1.0
176
     1
 92
        8
176
     1
 66
     7
176
     1
 43
1.0
176
     1
 76
     1
176
     1
 77
     6
176
     1
 78
     2
176
     1
 67
     7
176
     1
 79
     5
176
     1
170
     0
176
     1
171
     0
176
     1
290
     0
176
     1
 93
        1
176
     1
 44
-50.0
176
     1
173
     0
176
     1
  0
VISUALSTYLE
  5
39
102
{ACAD_REACTORS
330
2A
102
}
330
2A
100
AcDbVisualStyle
  2
Facepattern
 70
    15
177
     2
291
     1
 71
     2
176
     1
 72
     2
176
     1
 73
     0
176
     1
 90
        0
176
     1
 40
-0.6
176
     1
 41
-30.0
176
     1
 62
     5
 63
     7
421
 16777215
176
     1
 74
     1
176
     1
 91
        4
176
     1
 64
     7
176
     1
 65
   257
176
     1
 75
     1
176
     1
175
     1
176
     1
 42
1.0
176
     1
 92
        8
176
     1
 66
     7
176
     1
 43
1.0
176
     1
 76
     1
176
     1
 77
     6
176
     1
 78
     2
176
     1
 67
     7
176
     1
 79
     5
176
     1
170
     0
176
     1
171
     0
176
     1
290
     0
176
     1
 93
        1
176
     1
 44
0.0
176
     1
173
     0
176
     1
  0
VISUALSTYLE
  5
2B
102
{ACAD_REACTORS
330
2A
102
}
330
2A
100
AcDbVisualStyle
  2
Flat
 70
     0
177
     2
291
     1
 71
     2
176
     1
 72
     1
176
     1
 73
     1
176
     1
 90
        2
176
     1
 40
-0.6
176
     1
 41
30.0
176
     1
 62
     5
 63
     7
421
 16777215
176
     1
 74
     0
176
     1
 91
        4
176
     1
 64
     7
176
     1
 65
   257
176
     1
 75
     1
176
     1
175
     1
176
     1
 42
1.0
176
     1
 92
        8
176
     1
 66
     7
176
     1
 43
1.0
176
     1
 76
     1
176
     1
 77
     6
176
     1
 78
     2
176
     1
 67
     7
176
     1
 79
     5
176
     1
170
     0
176
     1
171
     0
176
     1
290
     0
176
     1
 93
       13
176
     1
 44
0.0
176
     1
173
     0
176
     1
  0
VISUALSTYLE
  5
2C
102
{ACAD_REACTORS
330
2A
102
}
330
2A
100
AcDbVisualStyle
  2
FlatWithEdges
 70
     1
177
     2
291
     1
 71
     2
176
     1
 72
     1
176
     1
 73
     1
176
     1
 90
        2
176
     1
 40
-0.6
176
     1
 41
30.0
176
     1
 62
     5
 63
     7
421
 16777215
176
     1
 74
     1
176
     1
 91
        4
176
     1
 64
     7
176
     1
 65
   257
176
     1
 75
     1
176
     1
175
     1
176
     1
 42
1.0
176
     1
 92
        0
176
     1
 66
   257
176
     1
 43
1.0
176
     1
 76
     1
176
     1
 77
     6
176
     1
 78
     2
176
     1
 67
     7
176
     1
 79
     5
176
     1
170
     0
176
     1
171
     0
176
     1
290
     0
176
     1
 93
       13
176
     1
 44
0.0
176
     1
173
     0
176
     1
  0
VISUALSTYLE
  5
2D
102
{ACAD_REACTORS
330
2A
102
}
330
2A
100
AcDbVisualStyle
  2
Gouraud
 70
     2
177
     2
291
     1
 71
     2
176
     1
 72
     2
176
     1
 73
     1
176
     1
 90
        2
176
     1
 40
-0.6
176
     1
 41
30.0
176
     1
 62
     5
 63
     7
421
 16777215
176
     1
 74
     0
176
     1
 91
        4
176
     1
 64
     7
176
     1
 65
   257
176
     1
 75
     1
176
     1
175
     1
176
     1
 42
1.0
176
     1
 92
        0
176
     1
 66
     7
176
     1
 43
1.0
176
     1
 76
     1
176
     1
 77
     6
176
     1
 78
     2
176
     1
 67
     7
176
     1
 79
     5
176
     1
170
     0
176
     1
171
     0
176
     1
290
     0
176
     1
 93
       13
176
     1
 44
0.0
176
     1
173
     0
176
     1
  0
VISUALSTYLE
  5
2E
102
{ACAD_REACTORS
330
2A
102
}
330
2A
100
AcDbVisualStyle
  2
GouraudWithEdges
 70
     3
177
     2
291
     1
 71
     2
176
     1
 72
     2
176
     1
 73
     1
176
     1
 90
        2
176
     1
 40
-0.6
176
     1
 41
30.0
176
     1
 62
     5
 63
     7
421
 16777215
176
     1
 74
     1
176
     1
 91
        4
176
     1
 64
     7
176
     1
 65
   257
176
     1
 75
     1
176
     1
175
     1
176
     1
 42
1.0
176
     1
 92
        0
176
     1
 66
   257
176
     1
 43
1.0
176
     1
 76
     1
176
     1
 77
     6
176
     1
 78
     2
176
     1
 67
     7
176
     1
 79
     5
176
     1
170
     0
176
     1
171
     0
176
     1
290
     0
176
     1
 93
       13
176
     1
 44
0.0
176
     1
173
     0
176
     1
  0
VISUALSTYLE
  5
38
102
{ACAD_REACTORS
330
2A
102
}
330
2A
100
AcDbVisualStyle
  2
Linepattern
 70
    14
177
     2
291
     1
 71
     2
176
     1
 72
     2
176
     1
 73
     0
176
     1
 90
        0
176
     1
 40
-0.6
176
     1
 41
-30.0
176
     1
 62
     5
 63
     7
421
 16777215
176
     1
 74
     1
176
     1
 91
        4
176
     1
 64
     7
176
     1
 65
   257
176
     1
 75
     7
176
     1
175
     7
176
     1
 42
1.0
176
     1
 92
        8
176
     1
 66
     7
176
     1
 43
1.0
176
     1
 76
     1
176
     1
 77
     6
176
     1
 78
     2
176
     1
 67
     7
176
     1
 79
     5
176
     1
170
     0
176
     1
171
     0
176
     1
290
     0
176
     1
 93
        1
176
     1
 44
0.0
176
     1
173
     0
176
     1
  0
VISUALSTYLE
  5
33
102
{ACAD_REACTORS
330
2A
102
}
330
2A
100
AcDbVisualStyle
  2
Realistic
 70
     8
177
     2
291
     0
 71
     2
176
     1
 72
     2
176
     1
 73
     0
176
     1
 90
        0
176
     1
 40
-0.6
176
     1
 41
-30.0
176
     1
 62
     5
 63
     7
421
 16777215
176
     1
 74
     1
176
     1
 91
        0
176
     1
 64
     7
176
     1
 65
   257
176
     1
 75
     1
176
     1
175
     1
176
     1
 42
1.0
176
     1
 92
        8
176
     1
 66
     8
424
  7895160
176
     1
 43
1.0
176
     1
 76
     1
176
     1
 77
     6
176
     1
 78
     2
176
     1
 67
     7
176
     1
 79
     5
176
     1
170
     0
176
     1
171
     0
176
     1
290
     0
176
     1
 93
       13
176
     1
 44
0.0
176
     1
173
     0
176
     1
  0
VISUALSTYLE
  5
37
102
{ACAD_REACTORS
330
2A
102
}
330
2A
100
AcDbVisualStyle
  2
Thicken
 70
    13
177
     2
291
     1
 71
     2
176
     1
 72
     2
176
     1
 73
     0
176
     1
 90
        0
176
     1
 40
-0.6
176
     1
 41
-30.0
176
     1
 62
     5
 63
     7
421
 16777215
176
     1
 74
     1
176
     1
 91
        4
176
     1
 64
     7
176
     1
 65
   257
176
     1
 75
     1
176
     1
175
     1
176
     1
 42
1.0
176
     1
 92
       12
176
     1
 66
     7
176
     1
 43
1.0
176
     1
 76
     1
176
     1
 77
     6
176
     1
 78
     2
176
     1
 67
     7
176
     1
 79
     5
176
     1
170
     0
176
     1
171
     0
176
     1
290
     0
176
     1
 93
        1
176
     1
 44
0.0
176
     1
173
     0
176
     1
  0
ENDSEC
  0
EOF
