  0
SECTION
  2
HEADER
  9
$ACADVER
  1
AC1024
  9
$ACADMAINTVER
 70
     6
  9
$DWGCODEPAGE
  3
UNDEFINED
  9
$INSBASE
 10
0.0
 20
0.0
 30
0.0
  9
$EXTMIN
 10
1.000000000000000E+20
 20
1.000000000000000E+20
 30
1.000000000000000E+20
  9
$EXTMAX
 10
-1.000000000000000E+20
 20
-1.000000000000000E+20
 30
-1.000000000000000E+20
  9
$LIMMIN
 10
0.0
 20
0.0
  9
$LIMMAX
 10
12.0
 20
9.0
  9
$ORTHOMODE
 70
     0
  9
$REGENMODE
 70
     1
  9
$FILLMODE
 70
     1
  9
$QTEXTMODE
 70
     0
  9
$MIRRTEXT
 70
     1
  9
$LTSCALE
 40
1.0
  9
$ATTMODE
 70
     1
  9
$TEXTSIZE
 40
0.2
  9
$TRACEWID
 40
0.05
  9
$TEXTSTYLE
  7
Standard
  9
$CLAYER
  8
0
  9
$CELTYPE
  6
ByLayer
  9
$CECOLOR
 62
   256
  9
$CELTSCALE
 40
1.0
  9
$DISPSILH
 70
     0
  9
$DIMSCALE
 40
1.0
  9
$DIMASZ
 40
0.18
  9
$DIMEXO
 40
0.0625
  9
$DIMDLI
 40
0.38
  9
$DIMRND
 40
0.0
  9
$DIMDLE
 40
0.0
  9
$DIMEXE
 40
0.18
  9
$DIMTP
 40
0.0
  9
$DIMTM
 40
0.0
  9
$DIMTXT
 40
0.18
  9
$DIMCEN
 40
0.09
  9
$DIMTSZ
 40
0.0
  9
$DIMTOL
 70
     0
  9
$DIMLIM
 70
     0
  9
$DIMTIH
 70
     1
  9
$DIMTOH
 70
     1
  9
$DIMSE1
 70
     0
  9
$DIMSE2
 70
     0
  9
$DIMTAD
 70
     0
  9
$DIMZIN
 70
     0
  9
$DIMBLK
  1

  9
$DIMASO
 70
     1
  9
$DIMSHO
 70
     1
  9
$DIMPOST
  1

  9
$DIMAPOST
  1

  9
$DIMALT
 70
     0
  9
$DIMALTD
 70
     2
  9
$DIMALTF
 40
25.4
  9
$DIMLFAC
 40
1.0
  9
$DIMTOFL
 70
     0
  9
$DIMTVP
 40
0.0
  9
$DIMTIX
 70
     0
  9
$DIMSOXD
 70
     0
  9
$DIMSAH
 70
     0
  9
$DIMBLK1
  1

  9
$DIMBLK2
  1

  9
$DIMSTYLE
  2
Standard
  9
$DIMCLRD
 70
     0
  9
$DIMCLRE
 70
     0
  9
$DIMCLRT
 70
     0
  9
$DIMTFAC
 40
1.0
  9
$DIMGAP
 40
0.09
  9
$DIMJUST
 70
     0
  9
$DIMSD1
 70
     0
  9
$DIMSD2
 70
     0
  9
$DIMTOLJ
 70
     1
  9
$DIMTZIN
 70
     0
  9
$DIMALTZ
 70
     0
  9
$DIMALTTZ
 70
     0
  9
$DIMUPT
 70
     0
  9
$DIMDEC
 70
     4
  9
$DIMTDEC
 70
     4
  9
$DIMALTU
 70
     2
  9
$DIMALTTD
 70
     2
  9
$DIMTXSTY
  7
Standard
  9
$DIMAUNIT
 70
     0
  9
$DIMADEC
 70
     0
  9
$DIMALTRND
 40
0.0
  9
$DIMAZIN
 70
     0
  9
$DIMDSEP
 70
    46
  9
$DIMATFIT
 70
     3
  9
$DIMFRAC
 70
     0
  9
$DIMLDRBLK
  1

  9
$DIMLUNIT
 70
     2
  9
$DIMLWD
 70
    -2
  9
$DIMLWE
 70
    -2
  9
$DIMTMOVE
 70
     0
  9
$DIMFXL
 40
1.0
  9
$DIMFXLON
 70
     0
  9
$DIMJOGANG
 40
0.7853981633974483
  9
$DIMTFILL
 70
     0
  9
$DIMTFILLCLR
 70
     0
  9
$DIMARCSYM
 70
     0
  9
$DIMLTYPE
  6

  9
$DIMLTEX1
  6

  9
$DIMLTEX2
  6

  9
$DIMTXTDIRECTION
 70
     0
  9
$LUNITS
 70
     2
  9
$LUPREC
 70
     4
  9
$SKETCHINC
 40
0.1
  9
$FILLETRAD
 40
0.5
  9
$AUNITS
 70
     0
  9
$AUPREC
 70
     0
  9
$MENU
  1
.
  9
$ELEVATION
 40
0.0
  9
$PELEVATION
 40
0.0
  9
$THICKNESS
 40
0.0
  9
$LIMCHECK
 70
     0
  9
$CHAMFERA
 40
0.5
  9
$CHAMFERB
 40
0.5
  9
$CHAMFERC
 40
1.0
  9
$CHAMFERD
 40
0.0
  9
$SKPOLY
 70
     0
  9
$TDCREATE
 40
2457917.604826377
  9
$TDUCREATE
 40
2457917.229826389
  9
$TDUPDATE
 40
2457917.604837951
  9
$TDUUPDATE
 40
2457917.229837963
  9
$TDINDWG
 40
0.0000000116
  9
$TDUSRTIMER
 40
0.0000000116
  9
$USRTIMER
 70
     1
  9
$ANGBASE
 50
0.0
  9
$ANGDIR
 70
     0
  9
$PDMODE
 70
     0
  9
$PDSIZE
 40
0.0
  9
$PLINEWID
 40
0.0
  9
$SPLFRAME
 70
     0
  9
$SPLINETYPE
 70
     6
  9
$SPLINESEGS
 70
     8
  9
$HANDSEED
  5
228
  9
$SURFTAB1
 70
     6
  9
$SURFTAB2
 70
     6
  9
$SURFTYPE
 70
     6
  9
$SURFU
 70
     6
  9
$SURFV
 70
     6
  9
$UCSBASE
  2

  9
$UCSNAME
  2

  9
$UCSORG
 10
0.0
 20
0.0
 30
0.0
  9
$UCSXDIR
 10
1.0
 20
0.0
 30
0.0
  9
$UCSYDIR
 10
0.0
 20
1.0
 30
0.0
  9
$UCSORTHOREF
  2

  9
$UCSORTHOVIEW
 70
     0
  9
$UCSORGTOP
 10
0.0
 20
0.0
 30
0.0
  9
$UCSORGBOTTOM
 10
0.0
 20
0.0
 30
0.0
  9
$UCSORGLEFT
 10
0.0
 20
0.0
 30
0.0
  9
$UCSORGRIGHT
 10
0.0
 20
0.0
 30
0.0
  9
$UCSORGFRONT
 10
0.0
 20
0.0
 30
0.0
  9
$UCSORGBACK
 10
0.0
 20
0.0
 30
0.0
  9
$PUCSBASE
  2

  9
$PUCSNAME
  2

  9
$PUCSORG
 10
0.0
 20
0.0
 30
0.0
  9
$PUCSXDIR
 10
1.0
 20
0.0
 30
0.0
  9
$PUCSYDIR
 10
0.0
 20
1.0
 30
0.0
  9
$PUCSORTHOREF
  2

  9
$PUCSORTHOVIEW
 70
     0
  9
$PUCSORGTOP
 10
0.0
 20
0.0
 30
0.0
  9
$PUCSORGBOTTOM
 10
0.0
 20
0.0
 30
0.0
  9
$PUCSORGLEFT
 10
0.0
 20
0.0
 30
0.0
  9
$PUCSORGRIGHT
 10
0.0
 20
0.0
 30
0.0
  9
$PUCSORGFRONT
 10
0.0
 20
0.0
 30
0.0
  9
$PUCSORGBACK
 10
0.0
 20
0.0
 30
0.0
  9
$USERI1
 70
     0
  9
$USERI2
 70
     0
  9
$USERI3
 70
     0
  9
$USERI4
 70
     0
  9
$USERI5
 70
     0
  9
$USERR1
 40
0.0
  9
$USERR2
 40
0.0
  9
$USERR3
 40
0.0
  9
$USERR4
 40
0.0
  9
$USERR5
 40
0.0
  9
$WORLDVIEW
 70
     1
  9
$SHADEDGE
 70
     3
  9
$SHADEDIF
 70
    70
  9
$TILEMODE
 70
     1
  9
$MAXACTVP
 70
    64
  9
$PINSBASE
 10
0.0
 20
0.0
 30
0.0
  9
$PLIMCHECK
 70
     0
  9
$PEXTMIN
 10
1.000000000000000E+20
 20
1.000000000000000E+20
 30
1.000000000000000E+20
  9
$PEXTMAX
 10
-1.000000000000000E+20
 20
-1.000000000000000E+20
 30
-1.000000000000000E+20
  9
$PLIMMIN
 10
0.0
 20
0.0
  9
$PLIMMAX
 10
12.0
 20
9.0
  9
$UNITMODE
 70
     0
  9
$VISRETAIN
 70
     1
  9
$PLINEGEN
 70
     0
  9
$PSLTSCALE
 70
     1
  9
$TREEDEPTH
 70
  3020
  9
$CMLSTYLE
  2
Standard
  9
$CMLJUST
 70
     0
  9
$CMLSCALE
 40
1.0
  9
$PROXYGRAPHICS
 70
     1
  9
$MEASUREMENT
 70
     0
  9
$CELWEIGHT
370
    -1
  9
$ENDCAPS
280
     0
  9
$JOINSTYLE
280
     0
  9
$LWDISPLAY
290
     1
  9
$INSUNITS
 70
     1
  9
$HYPERLINKBASE
  1

  9
$STYLESHEET
  1

  9
$XEDIT
290
     1
  9
$CEPSNTYPE
380
     0
  9
$PSTYLEMODE
290
     1
  9
$FINGERPRINTGUID
  2
{C967F1C8-C774-619D-1A01-498DDC8E737F}
  9
$VERSIONGUID
  2
{FAEB1C32-E019-11D5-929B-00C0DF256EC4}
  9
$EXTNAMES
290
     1
  9
$PSVPSCALE
 40
0.0
  9
$OLESTARTUP
290
     0
  9
$SORTENTS
280
   127
  9
$INDEXCTL
280
     0
  9
$HIDETEXT
280
     1
  9
$XCLIPFRAME
280
     2
  9
$HALOGAP
280
     0
  9
$OBSCOLOR
 70
   257
  9
$OBSLTYPE
280
     0
  9
$INTERSECTIONDISPLAY
280
     0
  9
$INTERSECTIONCOLOR
 70
   257
  9
$DIMASSOC
280
     2
  9
$PROJECTNAME
  1

  9
$CAMERADISPLAY
290
     0
  9
$LENSLENGTH
 40
50.0
  9
$CAMERAHEIGHT
 40
0.0
  9
$STEPSPERSEC
 40
2.0
  9
$STEPSIZE
 40
6.0
  9
$3DDWFPREC
 40
2.0
  9
$PSOLWIDTH
 40
0.25
  9
$PSOLHEIGHT
 40
4.0
  9
$LOFTANG1
 40
1.570796326794897
  9
$LOFTANG2
 40
1.570796326794897
  9
$LOFTMAG1
 40
0.0
  9
$LOFTMAG2
 40
0.0
  9
$LOFTPARAM
 70
     7
  9
$LOFTNORMALS
280
     1
  9
$LATITUDE
 40
37.795
  9
$LONGITUDE
 40
-122.394
  9
$NORTHDIRECTION
 40
0.0
  9
$TIMEZONE
 70
 -8000
  9
$LIGHTGLYPHDISPLAY
280
     1
  9
$TILEMODELIGHTSYNCH
280
     1
  9
$CMATERIAL
347
3C
  9
$SOLIDHIST
280
     1
  9
$SHOWHIST
280
     1
  9
$DWFFRAME
280
     2
  9
$DGNFRAME
280
     2
  9
$REALWORLDSCALE
290
     1
  9
$INTERFERECOLOR
 62
   256
  9
$CSHADOW
280
     0
  9
$SHADOWPLANELOCATION
 40
0.0
  0
ENDSEC
  0
SECTION
  2
CLASSES
  0
CLASS
  1
ACDBDICTIONARYWDFLT
  2
AcDbDictionaryWithDefault
  3
ObjectDBX Classes
 90
        0
 91
        4
280
     0
281
     0
  0
CLASS
  1
VISUALSTYLE
  2
AcDbVisualStyle
  3
ObjectDBX Classes
 90
     4095
 91
        4
280
     0
281
     0
  0
CLASS
  1
MATERIAL
  2
AcDbMaterial
  3
ObjectDBX Classes
 90
     1153
 91
        4
280
     0
281
     0
  0
CLASS
  1
SUN
  2
AcDbSun
  3
SCENEOE
 90
     1024
 91
        4
280
     0
281
     0
  0
ENDSEC
  0
SECTION
  2
TABLES
  0
TABLE
  2
VPORT
  5
8
330
0
100
AcDbSymbolTable
 70
     1
  0
VPORT
  5
29
330
8
100
AcDbSymbolTableRecord
100
AcDbViewportTableRecord
  2
*Active
 70
     0
 10
0.0
 20
0.0
 11
1.0
 21
1.0
 12
0.0
 22
0.0
 13
0.0
 23
0.0
 14
0.5
 24
0.5
 15
0.5
 25
0.5
 16
0.0
 26
0.0
 36
1.0
 17
91.00082462281999
 27
-128.4993055234307
 37
0.0
 40
256.9986110468615
 41
0.7081814508812795
 42
50.0
 43
0.0
 44
0.0
 50
0.0
 51
0.0
 71
     0
 72
   100
 73
     1
 74
     3
 75
     0
 76
     0
 77
     0
 78
     0
281
     0
 65
     1
110
0.0
120
0.0
130
0.0
111
1.0
121
0.0
131
0.0
112
0.0
122
1.0
132
0.0
 79
     0
146
0.0
 60
     3
 61
     5
292
     1
282
     1
141
0.0
142
0.0
 63
   250
361
3F
  0
ENDTAB
  0
TABLE
  2
LTYPE
  5
5
330
0
100
AcDbSymbolTable
 70
     1
  0
LTYPE
  5
14
330
5
100
AcDbSymbolTableRecord
100
AcDbLinetypeTableRecord
  2
ByBlock
 70
     0
  3

 72
    65
 73
     0
 40
0.0
  0
LTYPE
  5
15
330
5
100
AcDbSymbolTableRecord
100
AcDbLinetypeTableRecord
  2
ByLayer
 70
     0
  3

 72
    65
 73
     0
 40
0.0
  0
LTYPE
  5
16
330
5
100
AcDbSymbolTableRecord
100
AcDbLinetypeTableRecord
  2
Continuous
 70
     0
  3
Solid line
 72
    65
 73
     0
 40
0.0
  0
ENDTAB
  0
TABLE
  2
LAYER
  5
2
330
0
100
AcDbSymbolTable
 70
     2
  0
LAYER
  5
10
330
2
100
AcDbSymbolTableRecord
100
AcDbLayerTableRecord
  2
0
 70
     0
 62
     7
  6
Continuous
370
    -3
390
F
347
3E
  0
LAYER
  5
40
330
2
100
AcDbSymbolTableRecord
100
AcDbLayerTableRecord
  2
_U+30EC_U+30A4_U+30E4_U+30FC 1
 70
     0
 62
     7
  6
Continuous
370
    -3
390
F
347
3E
  0
ENDTAB
  0
TABLE
  2
STYLE
  5
3
330
0
100
AcDbSymbolTable
 70
     1
  0
STYLE
  5
11
330
3
100
AcDbSymbolTableRecord
100
AcDbTextStyleTableRecord
  2
Standard
 70
     0
 40
0.0
 41
1.0
 50
0.0
 71
     0
 42
0.2
  3
txt
  4

  0
ENDTAB
  0
TABLE
  2
VIEW
  5
6
330
0
100
AcDbSymbolTable
 70
     0
  0
ENDTAB
  0
TABLE
  2
UCS
  5
7
330
0
100
AcDbSymbolTable
 70
     0
  0
ENDTAB
  0
TABLE
  2
APPID
  5
9
330
0
100
AcDbSymbolTable
 70
     1
  0
APPID
  5
12
330
9
100
AcDbSymbolTableRecord
100
AcDbRegAppTableRecord
  2
ACAD
 70
     0
  0
ENDTAB
  0
TABLE
  2
DIMSTYLE
  5
A
330
0
100
AcDbSymbolTable
 70
     1
100
AcDbDimStyleTable
  0
DIMSTYLE
105
27
330
A
100
AcDbSymbolTableRecord
100
AcDbDimStyleTableRecord
  2
Standard
 70
     0
178
     0
340
11
  0
ENDTAB
  0
TABLE
  2
BLOCK_RECORD
  5
1
330
0
100
AcDbSymbolTable
 70
     6
  0
BLOCK_RECORD
  5
1F
330
1
100
AcDbSymbolTableRecord
100
AcDbBlockTableRecord
  2
*Model_Space
340
22
 70
     0
280
     1
281
     0
  0
BLOCK_RECORD
  5
1B
330
1
100
AcDbSymbolTableRecord
100
AcDbBlockTableRecord
  2
*Paper_Space
340
1E
 70
     0
280
     1
281
     0
  0
BLOCK_RECORD
  5
23
330
1
100
AcDbSymbolTableRecord
100
AcDbBlockTableRecord
  2
*Paper_Space0
340
26
 70
     0
280
     1
281
     0
  0
BLOCK_RECORD
  5
41
330
1
100
AcDbSymbolTableRecord
100
AcDbBlockTableRecord
  2
block 2
340
0
102
{BLKREFS
331
42
102
}
 70
     0
280
     1
281
     0
  0
BLOCK_RECORD
  5
53
330
1
100
AcDbSymbolTableRecord
100
AcDbBlockTableRecord
  2
block 3
340
0
102
{BLKREFS
331
54
102
}
 70
     0
280
     1
281
     0
  0
BLOCK_RECORD
  5
8F
330
1
100
AcDbSymbolTableRecord
100
AcDbBlockTableRecord
  2
block 4
340
0
102
{BLKREFS
331
90
102
}
 70
     0
280
     1
281
     0
  0
BLOCK_RECORD
  5
A1
330
1
100
AcDbSymbolTableRecord
100
AcDbBlockTableRecord
  2
block 5
340
0
102
{BLKREFS
331
A2
102
}
 70
     0
280
     1
281
     0
  0
BLOCK_RECORD
  5
AA
330
1
100
AcDbSymbolTableRecord
100
AcDbBlockTableRecord
  2
block 6
340
0
102
{BLKREFS
331
AB
102
}
 70
     0
280
     1
281
     0
  0
ENDTAB
  0
ENDSEC
  0
SECTION
  2
BLOCKS
  0
BLOCK
  5
20
330
1F
100
AcDbEntity
  8
0
100
AcDbBlockBegin
  2
*Model_Space
 70
     0
 10
0.0
 20
0.0
 30
0.0
  3
*Model_Space
  1

  0
ENDBLK
  5
21
330
1F
100
AcDbEntity
  8
0
100
AcDbBlockEnd
  0
BLOCK
  5
1C
330
1B
100
AcDbEntity
 67
     1
  8
0
100
AcDbBlockBegin
  2
*Paper_Space
 70
     0
 10
0.0
 20
0.0
 30
0.0
  3
*Paper_Space
  1

  0
ENDBLK
  5
1D
330
1B
100
AcDbEntity
 67
     1
  8
0
100
AcDbBlockEnd
  0
BLOCK
  5
24
330
23
100
AcDbEntity
  8
0
100
AcDbBlockBegin
  2
*Paper_Space0
 70
     0
 10
0.0
 20
0.0
 30
0.0
  3
*Paper_Space0
  1

  0
ENDBLK
  5
25
330
23
100
AcDbEntity
  8
0
100
AcDbBlockEnd
  0
BLOCK
  5
43
330
41
100
AcDbEntity
  8
0
100
AcDbBlockBegin
  2
block 2
 70
     0
 10
0.0
 20
0.0
 30
0.0
  3
block 2
  1

  0
SPLINE
  5
45
330
41
100
AcDbEntity
  8
_U+30EC_U+30A4_U+30E4_U+30FC 1
370
     0
100
AcDbSpline
210
0.0
220
0.0
230
1.0
 70
    11
 71
     3
 72
    62
 73
    58
 74
     0
 42
0.0000000001
 43
0.0000000001
 12
1.0
 22
0.0
 32
0.0
 13
1.0
 23
0.0
 33
0.0
 40
0.0
 40
0.0
 40
0.0
 40
0.0
 40
1.0
 40
1.0
 40
1.0
 40
2.0
 40
2.0
 40
2.0
 40
3.0
 40
3.0
 40
3.0
 40
4.0
 40
4.0
 40
4.0
 40
5.0
 40
5.0
 40
5.0
 40
6.0
 40
6.0
 40
6.0
 40
7.0
 40
7.0
 40
7.0
 40
8.0
 40
8.0
 40
8.0
 40
9.0
 40
9.0
 40
9.0
 40
10.0
 40
10.0
 40
10.0
 40
11.0
 40
11.0
 40
11.0
 40
12.0
 40
12.0
 40
12.0
 40
13.0
 40
13.0
 40
13.0
 40
14.0
 40
14.0
 40
14.0
 40
15.0
 40
15.0
 40
15.0
 40
16.0
 40
16.0
 40
16.0
 40
17.0
 40
17.0
 40
17.0
 40
18.0
 40
18.0
 40
18.0
 40
19.0
 40
19.0
 40
19.0
 40
19.0
 10
91.2399088313567
 20
-119.9787231145366
 30
0.0
 10
91.13827851454182
 20
-119.9787231145366
 30
0.0
 10
90.90539005973893
 20
-119.9575357773023
 30
0.0
 10
90.77189260968551
 20
-119.7713283663245
 30
0.0
 10
90.69282766829902
 20
-119.6591905082797
 30
0.0
 10
90.68834904416819
 20
-119.5597995035302
 30
0.0
 10
90.68387042003737
 20
-119.4752224093673
 30
0.0
 10
90.68387042003737
 20
-119.4752224093673
 30
0.0
 10
90.91882593213141
 20
-119.4752224093673
 30
0.0
 10
90.91882593213141
 20
-119.4752224093673
 30
0.0
 10
90.92123749897108
 20
-119.5492919623002
 30
0.0
 10
90.93243405929815
 20
-119.78407521962
 30
0.0
 10
91.23543020722587
 20
-119.78407521962
 30
0.0
 10
91.38253578444603
 20
-119.78407521962
 30
0.0
 10
91.54514429134983
 20
-119.7143120360437
 30
0.0
 10
91.54514429134983
 20
-119.4857299505973
 30
0.0
 10
91.54514429134983
 20
-119.3694579779701
 30
0.0
 10
91.50449216462388
 20
-119.3207098768539
 30
0.0
 10
91.47073022886843
 20
-119.2890149983896
 30
0.0
 10
91.39149303270769
 20
-119.2149454454567
 30
0.0
 10
91.26712508569017
 20
-119.2023708469355
 30
0.0
 10
91.2082139528924
 20
-119.2023708469355
 30
0.0
 10
91.18788788952942
 20
-119.2023708469355
 30
0.0
 10
91.14947507486889
 20
-119.2044379042267
 30
0.0
 10
91.12019176324426
 20
-119.208572018809
 30
0.0
 10
91.12019176324426
 20
-119.208572018809
 30
0.0
 10
91.12019176324426
 20
-119.0139241238924
 30
0.0
 10
91.12019176324426
 20
-119.0139241238924
 30
0.0
 10
91.16084388997021
 20
-119.0202975505401
 30
0.0
 10
91.20597464082698
 20
-119.0225368626055
 30
0.0
 10
91.21286483179749
 20
-119.0225368626055
 30
0.0
 10
91.28297252492231
 20
-119.0225368626055
 30
0.0
 10
91.49553491636223
 20
-119.0013495253712
 30
0.0
 10
91.49553491636223
 20
-118.764326955986
 30
0.0
 10
91.49553491636223
 20
-118.5867322837214
 30
0.0
 10
91.35531953011257
 20
-118.5316107559574
 30
0.0
 10
91.23766951929129
 20
-118.5316107559574
 30
0.0
 10
90.95499943472653
 20
-118.5316107559574
 30
0.0
 10
90.94604218646488
 20
-118.764326955986
 30
0.0
 10
90.94156356233405
 20
-118.8363294516277
 30
0.0
 10
90.94156356233405
 20
-118.8363294516277
 30
0.0
 10
90.72452254676332
 20
-118.8363294516277
 30
0.0
 10
90.72452254676332
 20
-118.8363294516277
 30
0.0
 10
90.73347979502496
 20
-118.7114447402874
 30
0.0
 10
90.76293536142386
 20
-118.3348958037496
 30
0.0
 10
91.25127764645802
 20
-118.3348958037496
 30
0.0
 10
91.49071178268288
 20
-118.3348958037496
 30
0.0
 10
91.74840492497957
 20
-118.4618475723811
 30
0.0
 10
91.74840492497957
 20
-118.7579535293383
 30
0.0
 10
91.74840492497957
 20
-118.9441609403161
 30
0.0
 10
91.64711911771323
 20
-119.0266709771878
 30
0.0
 10
91.540665667219
 20
-119.0879936768252
 30
0.0
 10
91.60612248143875
 20
-119.1155544407072
 30
0.0
 10
91.80077037635537
 20
-119.1959974202878
 30
0.0
 10
91.80077037635537
 20
-119.4731553520762
 30
0.0
 10
91.80077037635537
 20
-119.811635983502
 30
0.0
 10
91.53618704308818
 20
-119.9787231145366
 30
0.0
 10
91.2399088313567
 20
-119.9787231145366
 30
0.0
  0
HATCH
  5
46
330
41
100
AcDbEntity
  8
_U+30EC_U+30A4_U+30E4_U+30FC 1
 62
   179
420
  2234388
100
AcDbHatch
 10
0.0
 20
0.0
 30
0.0
210
0.0
220
0.0
230
1.0
  2
SOLID
 70
     1
 71
     0
 91
        1
 92
        1
 93
        1
 72
     4
 94
        3
 73
     0
 74
     1
 95
       62
 96
       58
 40
0.0
 40
0.0
 40
0.0
 40
0.0
 40
1.0
 40
1.0
 40
1.0
 40
2.0
 40
2.0
 40
2.0
 40
3.0
 40
3.0
 40
3.0
 40
4.0
 40
4.0
 40
4.0
 40
5.0
 40
5.0
 40
5.0
 40
6.0
 40
6.0
 40
6.0
 40
7.0
 40
7.0
 40
7.0
 40
8.0
 40
8.0
 40
8.0
 40
9.0
 40
9.0
 40
9.0
 40
10.0
 40
10.0
 40
10.0
 40
11.0
 40
11.0
 40
11.0
 40
12.0
 40
12.0
 40
12.0
 40
13.0
 40
13.0
 40
13.0
 40
14.0
 40
14.0
 40
14.0
 40
15.0
 40
15.0
 40
15.0
 40
16.0
 40
16.0
 40
16.0
 40
17.0
 40
17.0
 40
17.0
 40
18.0
 40
18.0
 40
18.0
 40
19.0
 40
19.0
 40
19.0
 40
19.0
 10
91.2399088313567
 20
-119.9787231145366
 10
91.13827851454182
 20
-119.9787231145366
 10
90.90539005973893
 20
-119.9575357773023
 10
90.77189260968551
 20
-119.7713283663245
 10
90.69282766829902
 20
-119.6591905082797
 10
90.68834904416819
 20
-119.5597995035302
 10
90.68387042003737
 20
-119.4752224093673
 10
90.68387042003737
 20
-119.4752224093673
 10
90.91882593213141
 20
-119.4752224093673
 10
90.91882593213141
 20
-119.4752224093673
 10
90.92123749897108
 20
-119.5492919623002
 10
90.93243405929815
 20
-119.78407521962
 10
91.23543020722587
 20
-119.78407521962
 10
91.38253578444603
 20
-119.78407521962
 10
91.54514429134983
 20
-119.7143120360437
 10
91.54514429134983
 20
-119.4857299505973
 10
91.54514429134983
 20
-119.3694579779701
 10
91.50449216462388
 20
-119.3207098768539
 10
91.47073022886843
 20
-119.2890149983896
 10
91.39149303270769
 20
-119.2149454454567
 10
91.26712508569017
 20
-119.2023708469355
 10
91.2082139528924
 20
-119.2023708469355
 10
91.18788788952942
 20
-119.2023708469355
 10
91.14947507486889
 20
-119.2044379042267
 10
91.12019176324426
 20
-119.208572018809
 10
91.12019176324426
 20
-119.208572018809
 10
91.12019176324426
 20
-119.0139241238924
 10
91.12019176324426
 20
-119.0139241238924
 10
91.16084388997021
 20
-119.0202975505401
 10
91.20597464082698
 20
-119.0225368626055
 10
91.21286483179749
 20
-119.0225368626055
 10
91.28297252492231
 20
-119.0225368626055
 10
91.49553491636223
 20
-119.0013495253712
 10
91.49553491636223
 20
-118.764326955986
 10
91.49553491636223
 20
-118.5867322837214
 10
91.35531953011257
 20
-118.5316107559574
 10
91.23766951929129
 20
-118.5316107559574
 10
90.95499943472653
 20
-118.5316107559574
 10
90.94604218646488
 20
-118.764326955986
 10
90.94156356233405
 20
-118.8363294516277
 10
90.94156356233405
 20
-118.8363294516277
 10
90.72452254676332
 20
-118.8363294516277
 10
90.72452254676332
 20
-118.8363294516277
 10
90.73347979502496
 20
-118.7114447402874
 10
90.76293536142386
 20
-118.3348958037496
 10
91.25127764645802
 20
-118.3348958037496
 10
91.49071178268288
 20
-118.3348958037496
 10
91.74840492497957
 20
-118.4618475723811
 10
91.74840492497957
 20
-118.7579535293383
 10
91.74840492497957
 20
-118.9441609403161
 10
91.64711911771323
 20
-119.0266709771878
 10
91.540665667219
 20
-119.0879936768252
 10
91.60612248143875
 20
-119.1155544407072
 10
91.80077037635537
 20
-119.1959974202878
 10
91.80077037635537
 20
-119.4731553520762
 10
91.80077037635537
 20
-119.811635983502
 10
91.53618704308818
 20
-119.9787231145366
 10
91.2399088313567
 20
-119.9787231145366
 97
        0
 97
        0
 75
     2
 76
     1
 98
        0
  0
SPLINE
  5
47
330
41
100
AcDbEntity
  8
_U+30EC_U+30A4_U+30E4_U+30FC 1
370
     0
100
AcDbSpline
210
0.0
220
0.0
230
1.0
 70
    11
 71
     3
 72
    26
 73
    22
 74
     0
 42
0.0000000001
 43
0.0000000001
 12
1.0
 22
0.0
 32
0.0
 13
1.0
 23
0.0
 33
0.0
 40
0.0
 40
0.0
 40
0.0
 40
0.0
 40
1.0
 40
1.0
 40
1.0
 40
2.0
 40
2.0
 40
2.0
 40
3.0
 40
3.0
 40
3.0
 40
4.0
 40
4.0
 40
4.0
 40
5.0
 40
5.0
 40
5.0
 40
6.0
 40
6.0
 40
6.0
 40
7.0
 40
7.0
 40
7.0
 40
7.0
 10
92.41193031543868
 20
-119.9279079561291
 30
0.0
 10
92.41193031543868
 20
-119.9279079561291
 30
0.0
 10
92.15871579727282
 20
-119.9279079561291
 30
0.0
 10
92.15871579727282
 20
-119.9279079561291
 30
0.0
 10
92.1859320516063
 20
-119.6190551458765
 30
0.0
 10
92.39125974252718
 20
-119.1007405301207
 30
0.0
 10
92.82534177366867
 20
-118.5951727676602
 30
0.0
 10
92.82534177366867
 20
-118.5951727676602
 30
0.0
 10
91.93030596660076
 20
-118.5951727676602
 30
0.0
 10
91.93030596660076
 20
-118.5951727676602
 30
0.0
 10
91.93030596660076
 20
-118.5951727676602
 30
0.0
 10
91.93030596660076
 20
-118.3836439048659
 30
0.0
 10
91.93030596660076
 20
-118.3836439048659
 30
0.0
 10
91.93030596660076
 20
-118.3836439048659
 30
0.0
 10
93.07890080138306
 20
-118.3836439048659
 30
0.0
 10
93.07890080138306
 20
-118.3836439048659
 30
0.0
 10
93.07890080138306
 20
-118.3836439048659
 30
0.0
 10
93.07890080138306
 20
-118.5951727676602
 30
0.0
 10
93.07890080138306
 20
-118.5951727676602
 30
0.0
 10
92.73301321466397
 20
-118.8849052979698
 30
0.0
 10
92.44810381803381
 20
-119.4772894666585
 30
0.0
 10
92.41193031543868
 20
-119.9279079561291
 30
0.0
  0
HATCH
  5
48
330
41
100
AcDbEntity
  8
_U+30EC_U+30A4_U+30E4_U+30FC 1
 62
   179
420
  2234388
100
AcDbHatch
 10
0.0
 20
0.0
 30
0.0
210
0.0
220
0.0
230
1.0
  2
SOLID
 70
     1
 71
     0
 91
        1
 92
        1
 93
        1
 72
     4
 94
        3
 73
     0
 74
     1
 95
       26
 96
       22
 40
0.0
 40
0.0
 40
0.0
 40
0.0
 40
1.0
 40
1.0
 40
1.0
 40
2.0
 40
2.0
 40
2.0
 40
3.0
 40
3.0
 40
3.0
 40
4.0
 40
4.0
 40
4.0
 40
5.0
 40
5.0
 40
5.0
 40
6.0
 40
6.0
 40
6.0
 40
7.0
 40
7.0
 40
7.0
 40
7.0
 10
92.41193031543868
 20
-119.9279079561291
 10
92.41193031543868
 20
-119.9279079561291
 10
92.15871579727282
 20
-119.9279079561291
 10
92.15871579727282
 20
-119.9279079561291
 10
92.1859320516063
 20
-119.6190551458765
 10
92.39125974252718
 20
-119.1007405301207
 10
92.82534177366867
 20
-118.5951727676602
 10
92.82534177366867
 20
-118.5951727676602
 10
91.93030596660076
 20
-118.5951727676602
 10
91.93030596660076
 20
-118.5951727676602
 10
91.93030596660076
 20
-118.5951727676602
 10
91.93030596660076
 20
-118.3836439048659
 10
91.93030596660076
 20
-118.3836439048659
 10
91.93030596660076
 20
-118.3836439048659
 10
93.07890080138306
 20
-118.3836439048659
 10
93.07890080138306
 20
-118.3836439048659
 10
93.07890080138306
 20
-118.3836439048659
 10
93.07890080138306
 20
-118.5951727676602
 10
93.07890080138306
 20
-118.5951727676602
 10
92.73301321466397
 20
-118.8849052979698
 10
92.44810381803381
 20
-119.4772894666585
 10
92.41193031543868
 20
-119.9279079561291
 97
        0
 97
        0
 75
     2
 76
     1
 98
        0
  0
POLYLINE
  5
49
330
41
100
AcDbEntity
  8
_U+30EC_U+30A4_U+30E4_U+30FC 1
370
     0
100
AcDb2dPolyline
 66
     1
 10
0.0
 20
0.0
 30
0.0
  0
VERTEX
  5
4A
330
49
100
AcDbEntity
  8
_U+30EC_U+30A4_U+30E4_U+30FC 1
370
     0
100
AcDbVertex
100
AcDb2dVertex
 10
93.2945637787597
 20
-119.9279079561291
 30
0.0
  0
VERTEX
  5
4B
330
49
100
AcDbEntity
  8
_U+30EC_U+30A4_U+30E4_U+30FC 1
370
     0
100
AcDbVertex
100
AcDb2dVertex
 10
93.2945637787597
 20
-119.6762437309316
 30
0.0
  0
VERTEX
  5
4C
330
49
100
AcDbEntity
  8
_U+30EC_U+30A4_U+30E4_U+30FC 1
370
     0
100
AcDbVertex
100
AcDb2dVertex
 10
93.56328122660918
 20
-119.6762437309316
 30
0.0
  0
VERTEX
  5
4D
330
49
100
AcDbEntity
  8
_U+30EC_U+30A4_U+30E4_U+30FC 1
370
     0
100
AcDbVertex
100
AcDb2dVertex
 10
93.56328122660918
 20
-119.9279079561291
 30
0.0
  0
VERTEX
  5
4E
330
49
100
AcDbEntity
  8
_U+30EC_U+30A4_U+30E4_U+30FC 1
370
     0
100
AcDbVertex
100
AcDb2dVertex
 10
93.2945637787597
 20
-119.9279079561291
 30
0.0
  0
SEQEND
  5
4F
330
49
100
AcDbEntity
  8
_U+30EC_U+30A4_U+30E4_U+30FC 1
370
     0
  0
HATCH
  5
50
330
41
100
AcDbEntity
  8
_U+30EC_U+30A4_U+30E4_U+30FC 1
 62
   179
420
  2234388
100
AcDbHatch
 10
0.0
 20
0.0
 30
0.0
210
0.0
220
0.0
230
1.0
  2
SOLID
 70
     1
 71
     0
 91
        1
 92
        1
 93
        4
 72
     1
 10
93.2945637787597
 20
-119.9279079561291
 11
93.2945637787597
 21
-119.6762437309316
 72
     1
 10
93.2945637787597
 20
-119.6762437309316
 11
93.56328122660918
 21
-119.6762437309316
 72
     1
 10
93.56328122660918
 20
-119.6762437309316
 11
93.56328122660918
 21
-119.9279079561291
 72
     1
 10
93.56328122660918
 20
-119.9279079561291
 11
93.2945637787597
 21
-119.9279079561291
 97
        0
 75
     2
 76
     1
 98
        0
  0
SPLINE
  5
51
330
41
100
AcDbEntity
  8
_U+30EC_U+30A4_U+30E4_U+30FC 1
370
     0
100
AcDbSpline
210
0.0
220
0.0
230
1.0
 70
    11
 71
     3
 72
    53
 73
    49
 74
     0
 42
0.0000000001
 43
0.0000000001
 12
1.0
 22
0.0
 32
0.0
 13
1.0
 23
0.0
 33
0.0
 40
0.0
 40
0.0
 40
0.0
 40
0.0
 40
1.0
 40
1.0
 40
1.0
 40
2.0
 40
2.0
 40
2.0
 40
3.0
 40
3.0
 40
3.0
 40
4.0
 40
4.0
 40
4.0
 40
5.0
 40
5.0
 40
5.0
 40
6.0
 40
6.0
 40
6.0
 40
7.0
 40
7.0
 40
7.0
 40
8.0
 40
8.0
 40
8.0
 40
9.0
 40
9.0
 40
9.0
 40
10.0
 40
10.0
 40
10.0
 40
11.0
 40
11.0
 40
11.0
 40
12.0
 40
12.0
 40
12.0
 40
13.0
 40
13.0
 40
13.0
 40
14.0
 40
14.0
 40
14.0
 40
15.0
 40
15.0
 40
15.0
 40
16.0
 40
16.0
 40
16.0
 40
16.0
 10
94.3301594816258
 20
-119.9787231145366
 30
0.0
 10
94.24644366133423
 20
-119.9787231145366
 30
0.0
 10
94.13792315354885
 20
-119.9616698918846
 30
0.0
 10
94.02940264576348
 20
-119.898280134956
 30
0.0
 10
93.84405650865705
 20
-119.7882093342023
 30
0.0
 10
93.82131887845439
 20
-119.6571234509885
 30
0.0
 10
93.80099281509142
 20
-119.5492919623002
 30
0.0
 10
93.80099281509142
 20
-119.5492919623002
 30
0.0
 10
94.03835989402513
 20
-119.5492919623002
 30
0.0
 10
94.03835989402513
 20
-119.5492919623002
 30
0.0
 10
94.09727102682291
 20
-119.7480739717991
 30
0.0
 10
94.23300778894175
 20
-119.7777017929723
 30
0.0
 10
94.33222653891694
 20
-119.7777017929723
 30
0.0
 10
94.48174368297678
 20
-119.7777017929723
 30
0.0
 10
94.64435218988058
 20
-119.6783107882228
 30
0.0
 10
94.64435218988058
 20
-119.4455945881942
 30
0.0
 10
94.64435218988058
 20
-119.1896239936401
 30
0.0
 10
94.45211586180365
 20
-119.1198608100638
 30
0.0
 10
94.3232692906553
 20
-119.1198608100638
 30
0.0
 10
94.28950735489985
 20
-119.1198608100638
 30
0.0
 10
94.13792315354885
 20
-119.1198608100638
 30
0.0
 10
94.04283851815596
 20
-119.2488796359864
 30
0.0
 10
94.04283851815596
 20
-119.2488796359864
 30
0.0
 10
93.85542532375837
 20
-119.2297593560433
 30
0.0
 10
93.85542532375837
 20
-119.2297593560433
 30
0.0
 10
93.85542532375837
 20
-119.2297593560433
 30
0.0
 10
93.98427189490671
 20
-118.3836439048659
 30
0.0
 10
93.98427189490671
 20
-118.3836439048659
 30
0.0
 10
93.98427189490671
 20
-118.3836439048659
 30
0.0
 10
94.81626245459455
 20
-118.3836439048659
 30
0.0
 10
94.81626245459455
 20
-118.3836439048659
 30
0.0
 10
94.81626245459455
 20
-118.3836439048659
 30
0.0
 10
94.81626245459455
 20
-118.5782917997825
 30
0.0
 10
94.81626245459455
 20
-118.5782917997825
 30
0.0
 10
94.81626245459455
 20
-118.5782917997825
 30
0.0
 10
94.15824921691183
 20
-118.5782917997825
 30
0.0
 10
94.15824921691183
 20
-118.5782917997825
 30
0.0
 10
94.15824921691183
 20
-118.5782917997825
 30
0.0
 10
94.08831377856126
 20
-119.0013495253712
 30
0.0
 10
94.08831377856126
 20
-119.0013495253712
 30
0.0
 10
94.153770592781
 20
-118.9674153348415
 30
0.0
 10
94.2419650372034
 20
-118.9272799724383
 30
0.0
 10
94.3687445510606
 20
-118.9272799724383
 30
0.0
 10
94.63987356574975
 20
-118.9272799724383
 30
0.0
 10
94.89308808391561
 20
-119.1134873834161
 30
0.0
 10
94.89308808391561
 20
-119.426474308251
 30
0.0
 10
94.89308808391561
 20
-119.7439398572168
 30
0.0
 10
94.65330943814223
 20
-119.9787231145366
 30
0.0
 10
94.3301594816258
 20
-119.9787231145366
 30
0.0
  0
HATCH
  5
52
330
41
100
AcDbEntity
  8
_U+30EC_U+30A4_U+30E4_U+30FC 1
 62
   179
420
  2234388
100
AcDbHatch
 10
0.0
 20
0.0
 30
0.0
210
0.0
220
0.0
230
1.0
  2
SOLID
 70
     1
 71
     0
 91
        1
 92
        1
 93
        1
 72
     4
 94
        3
 73
     0
 74
     1
 95
       53
 96
       49
 40
0.0
 40
0.0
 40
0.0
 40
0.0
 40
1.0
 40
1.0
 40
1.0
 40
2.0
 40
2.0
 40
2.0
 40
3.0
 40
3.0
 40
3.0
 40
4.0
 40
4.0
 40
4.0
 40
5.0
 40
5.0
 40
5.0
 40
6.0
 40
6.0
 40
6.0
 40
7.0
 40
7.0
 40
7.0
 40
8.0
 40
8.0
 40
8.0
 40
9.0
 40
9.0
 40
9.0
 40
10.0
 40
10.0
 40
10.0
 40
11.0
 40
11.0
 40
11.0
 40
12.0
 40
12.0
 40
12.0
 40
13.0
 40
13.0
 40
13.0
 40
14.0
 40
14.0
 40
14.0
 40
15.0
 40
15.0
 40
15.0
 40
16.0
 40
16.0
 40
16.0
 40
16.0
 10
94.3301594816258
 20
-119.9787231145366
 10
94.24644366133423
 20
-119.9787231145366
 10
94.13792315354885
 20
-119.9616698918846
 10
94.02940264576348
 20
-119.898280134956
 10
93.84405650865705
 20
-119.7882093342023
 10
93.82131887845439
 20
-119.6571234509885
 10
93.80099281509142
 20
-119.5492919623002
 10
93.80099281509142
 20
-119.5492919623002
 10
94.03835989402513
 20
-119.5492919623002
 10
94.03835989402513
 20
-119.5492919623002
 10
94.09727102682291
 20
-119.7480739717991
 10
94.23300778894175
 20
-119.7777017929723
 10
94.33222653891694
 20
-119.7777017929723
 10
94.48174368297678
 20
-119.7777017929723
 10
94.64435218988058
 20
-119.6783107882228
 10
94.64435218988058
 20
-119.4455945881942
 10
94.64435218988058
 20
-119.1896239936401
 10
94.45211586180365
 20
-119.1198608100638
 10
94.3232692906553
 20
-119.1198608100638
 10
94.28950735489985
 20
-119.1198608100638
 10
94.13792315354885
 20
-119.1198608100638
 10
94.04283851815596
 20
-119.2488796359864
 10
94.04283851815596
 20
-119.2488796359864
 10
93.85542532375837
 20
-119.2297593560433
 10
93.85542532375837
 20
-119.2297593560433
 10
93.85542532375837
 20
-119.2297593560433
 10
93.98427189490671
 20
-118.3836439048659
 10
93.98427189490671
 20
-118.3836439048659
 10
93.98427189490671
 20
-118.3836439048659
 10
94.81626245459455
 20
-118.3836439048659
 10
94.81626245459455
 20
-118.3836439048659
 10
94.81626245459455
 20
-118.3836439048659
 10
94.81626245459455
 20
-118.5782917997825
 10
94.81626245459455
 20
-118.5782917997825
 10
94.81626245459455
 20
-118.5782917997825
 10
94.15824921691183
 20
-118.5782917997825
 10
94.15824921691183
 20
-118.5782917997825
 10
94.15824921691183
 20
-118.5782917997825
 10
94.08831377856126
 20
-119.0013495253712
 10
94.08831377856126
 20
-119.0013495253712
 10
94.153770592781
 20
-118.9674153348415
 10
94.2419650372034
 20
-118.9272799724383
 10
94.3687445510606
 20
-118.9272799724383
 10
94.63987356574975
 20
-118.9272799724383
 10
94.89308808391561
 20
-119.1134873834161
 10
94.89308808391561
 20
-119.426474308251
 10
94.89308808391561
 20
-119.7439398572168
 10
94.65330943814223
 20
-119.9787231145366
 10
94.3301594816258
 20
-119.9787231145366
 97
        0
 97
        0
 75
     2
 76
     1
 98
        0
  0
ENDBLK
  5
44
330
41
100
AcDbEntity
  8
0
100
AcDbBlockEnd
  0
BLOCK
  5
55
330
53
100
AcDbEntity
  8
0
100
AcDbBlockBegin
  2
block 3
 70
     0
 10
0.0
 20
0.0
 30
0.0
  3
block 3
  1

  0
SPLINE
  5
57
330
53
100
AcDbEntity
  8
_U+30EC_U+30A4_U+30E4_U+30FC 1
370
     0
100
AcDbSpline
210
0.0
220
0.0
230
1.0
 70
    11
 71
     3
 72
   197
 73
   193
 74
     0
 42
0.0000000001
 43
0.0000000001
 12
1.0
 22
0.0
 32
0.0
 13
1.0
 23
0.0
 33
0.0
 40
0.0
 40
0.0
 40
0.0
 40
0.0
 40
1.0
 40
1.0
 40
1.0
 40
2.0
 40
2.0
 40
2.0
 40
3.0
 40
3.0
 40
3.0
 40
4.0
 40
4.0
 40
4.0
 40
5.0
 40
5.0
 40
5.0
 40
6.0
 40
6.0
 40
6.0
 40
7.0
 40
7.0
 40
7.0
 40
8.0
 40
8.0
 40
8.0
 40
9.0
 40
9.0
 40
9.0
 40
10.0
 40
10.0
 40
10.0
 40
11.0
 40
11.0
 40
11.0
 40
12.0
 40
12.0
 40
12.0
 40
13.0
 40
13.0
 40
13.0
 40
14.0
 40
14.0
 40
14.0
 40
15.0
 40
15.0
 40
15.0
 40
16.0
 40
16.0
 40
16.0
 40
17.0
 40
17.0
 40
17.0
 40
18.0
 40
18.0
 40
18.0
 40
19.0
 40
19.0
 40
19.0
 40
20.0
 40
20.0
 40
20.0
 40
21.0
 40
21.0
 40
21.0
 40
22.0
 40
22.0
 40
22.0
 40
23.0
 40
23.0
 40
23.0
 40
24.0
 40
24.0
 40
24.0
 40
25.0
 40
25.0
 40
25.0
 40
26.0
 40
26.0
 40
26.0
 40
27.0
 40
27.0
 40
27.0
 40
28.0
 40
28.0
 40
28.0
 40
29.0
 40
29.0
 40
29.0
 40
30.0
 40
30.0
 40
30.0
 40
31.0
 40
31.0
 40
31.0
 40
32.0
 40
32.0
 40
32.0
 40
33.0
 40
33.0
 40
33.0
 40
34.0
 40
34.0
 40
34.0
 40
35.0
 40
35.0
 40
35.0
 40
36.0
 40
36.0
 40
36.0
 40
37.0
 40
37.0
 40
37.0
 40
38.0
 40
38.0
 40
38.0
 40
39.0
 40
39.0
 40
39.0
 40
40.0
 40
40.0
 40
40.0
 40
41.0
 40
41.0
 40
41.0
 40
42.0
 40
42.0
 40
42.0
 40
43.0
 40
43.0
 40
43.0
 40
44.0
 40
44.0
 40
44.0
 40
45.0
 40
45.0
 40
45.0
 40
46.0
 40
46.0
 40
46.0
 40
47.0
 40
47.0
 40
47.0
 40
48.0
 40
48.0
 40
48.0
 40
49.0
 40
49.0
 40
49.0
 40
50.0
 40
50.0
 40
50.0
 40
51.0
 40
51.0
 40
51.0
 40
52.0
 40
52.0
 40
52.0
 40
53.0
 40
53.0
 40
53.0
 40
54.0
 40
54.0
 40
54.0
 40
55.0
 40
55.0
 40
55.0
 40
56.0
 40
56.0
 40
56.0
 40
57.0
 40
57.0
 40
57.0
 40
58.0
 40
58.0
 40
58.0
 40
59.0
 40
59.0
 40
59.0
 40
60.0
 40
60.0
 40
60.0
 40
61.0
 40
61.0
 40
61.0
 40
62.0
 40
62.0
 40
62.0
 40
63.0
 40
63.0
 40
63.0
 40
64.0
 40
64.0
 40
64.0
 40
64.0
 10
94.94200843980617
 20
-127.7239867844753
 30
0.0
 10
94.93098413425336
 20
-127.7534423508741
 30
0.0
 10
94.90617944675957
 20
-127.8001233946993
 30
0.0
 10
94.89446612210972
 20
-127.827511903807
 30
0.0
 10
94.89446612210972
 20
-127.827511903807
 30
0.0
 10
94.82900930788998
 20
-127.9799573790293
 30
0.0
 10
94.82900930788998
 20
-127.9799573790293
 30
0.0
 10
94.81798500233718
 20
-128.0052788308459
 30
0.0
 10
94.76561955096138
 20
-128.1174166888908
 30
0.0
 10
94.7521836785689
 20
-128.1406710834162
 30
0.0
 10
94.74977211172923
 20
-128.1470445100639
 30
0.0
 10
94.74563799714693
 20
-128.1554849940028
 30
0.0
 10
94.74322643030726
 20
-128.1618584206505
 30
0.0
 10
94.74322643030726
 20
-128.1618584206505
 30
0.0
 10
94.51963973331453
 20
-128.1089762049519
 30
0.0
 10
94.51963973331453
 20
-128.1089762049519
 30
0.0
 10
94.60301104405758
 20
-127.9989054041982
 30
0.0
 10
94.66846785827734
 20
-127.8635131516279
 30
0.0
 10
94.7025743035813
 20
-127.7534423508741
 30
0.0
 10
94.7025743035813
 20
-127.7534423508741
 30
0.0
 10
94.20510251551123
 20
-127.7534423508741
 30
0.0
 10
94.20510251551123
 20
-127.7534423508741
 30
0.0
 10
94.11931963792851
 20
-127.9184624246176
 30
0.0
 10
94.04697263273826
 20
-127.996838346907
 30
0.0
 10
94.01045462059461
 20
-128.0369737093102
 30
0.0
 10
94.01045462059461
 20
-128.0369737093102
 30
0.0
 10
93.87954099215511
 20
-127.9713446403162
 30
0.0
 10
93.87954099215511
 20
-127.9713446403162
 30
0.0
 10
93.87954099215511
 20
-127.9713446403162
 30
0.0
 10
93.87954099215511
 20
-128.1427381407074
 30
0.0
 10
93.87954099215511
 20
-128.1427381407074
 30
0.0
 10
93.87954099215511
 20
-128.25074188417
 30
0.0
 10
93.88160804944627
 20
-128.299317730512
 30
0.0
 10
93.89332137409612
 20
-128.4050821619091
 30
0.0
 10
93.81615123522653
 20
-128.403015104618
 30
0.0
 10
93.79341360502387
 20
-128.403015104618
 30
0.0
 10
93.57430553216199
 20
-128.403015104618
 30
0.0
 10
93.57430553216199
 20
-128.403015104618
 30
0.0
 10
93.51573890891274
 20
-128.403015104618
 30
0.0
 10
93.51573890891274
 20
-128.403015104618
 30
0.0
 10
93.51573890891274
 20
-128.403015104618
 30
0.0
 10
93.51573890891274
 20
-128.5384073571883
 30
0.0
 10
93.51573890891274
 20
-128.5384073571883
 30
0.0
 10
93.51573890891274
 20
-128.5384073571883
 30
0.0
 10
93.59222002868528
 20
-128.5384073571883
 30
0.0
 10
93.59222002868528
 20
-128.5384073571883
 30
0.0
 10
93.66249997658439
 20
-128.5384073571883
 30
0.0
 10
93.8185628020662
 20
-128.5341009878317
 30
0.0
 10
93.9315619339824
 20
-128.5256605038929
 30
0.0
 10
93.9315619339824
 20
-128.5256605038929
 30
0.0
 10
93.9315619339824
 20
-128.7034274309318
 30
0.0
 10
93.9315619339824
 20
-128.7034274309318
 30
0.0
 10
93.82752005032785
 20
-128.6970540042841
 30
0.0
 10
93.65802135245356
 20
-128.6927476349275
 30
0.0
 10
93.59222002868528
 20
-128.6927476349275
 30
0.0
 10
93.59222002868528
 20
-128.6927476349275
 30
0.0
 10
93.51573890891274
 20
-128.6927476349275
 30
0.0
 10
93.51573890891274
 20
-128.6927476349275
 30
0.0
 10
93.51780596620388
 20
-128.7818033532212
 30
0.0
 10
93.5222845903347
 20
-129.0208929798976
 30
0.0
 10
93.52469615717439
 20
-129.0946180232819
 30
0.0
 10
93.52469615717439
 20
-129.0946180232819
 30
0.0
 10
93.30972219889479
 20
-129.0946180232819
 30
0.0
 10
93.30972219889479
 20
-129.0946180232819
 30
0.0
 10
93.3235025808358
 20
-128.8810221031964
 30
0.0
 10
93.3235025808358
 20
-128.8513942820233
 30
0.0
 10
93.32798120496662
 20
-128.6927476349275
 30
0.0
 10
93.32798120496662
 20
-128.6927476349275
 30
0.0
 10
93.2532226329367
 20
-128.6927476349275
 30
0.0
 10
93.2532226329367
 20
-128.6927476349275
 30
0.0
 10
93.19224444284778
 20
-128.6927476349275
 30
0.0
 10
93.02929142639546
 20
-128.6970540042841
 30
0.0
 10
92.91215817989696
 20
-128.7034274309318
 30
0.0
 10
92.91215817989696
 20
-128.7034274309318
 30
0.0
 10
92.91215817989696
 20
-128.5256605038929
 30
0.0
 10
92.91215817989696
 20
-128.5256605038929
 30
0.0
 10
93.02515731181316
 20
-128.5341009878317
 30
0.0
 10
93.1788085704553
 20
-128.5384073571883
 30
0.0
 10
93.2532226329367
 20
-128.5384073571883
 30
0.0
 10
93.2532226329367
 20
-128.5384073571883
 30
0.0
 10
93.33245982909744
 20
-128.5384073571883
 30
0.0
 10
93.33245982909744
 20
-128.5384073571883
 30
0.0
 10
93.33245982909744
 20
-128.5384073571883
 30
0.0
 10
93.33245982909744
 20
-128.403015104618
 30
0.0
 10
93.33245982909744
 20
-128.403015104618
 30
0.0
 10
93.33245982909744
 20
-128.403015104618
 30
0.0
 10
93.28491751140099
 20
-128.403015104618
 30
0.0
 10
93.28491751140099
 20
-128.403015104618
 30
0.0
 10
93.2036132579491
 20
-128.403015104618
 30
0.0
 10
92.99759654793117
 20
-128.4050821619091
 30
0.0
 10
92.96176755488456
 20
-128.4050821619091
 30
0.0
 10
92.96865774585507
 20
-128.3332519210417
 30
0.0
 10
92.9776149941167
 20
-128.2528089414611
 30
0.0
 10
92.9776149941167
 20
-128.1322305994774
 30
0.0
 10
92.9776149941167
 20
-128.1322305994774
 30
0.0
 10
92.9776149941167
 20
-127.958770041795
 30
0.0
 10
92.9776149941167
 20
-127.958770041795
 30
0.0
 10
92.9776149941167
 20
-127.8867675461533
 30
0.0
 10
92.96865774585507
 20
-127.7661892041696
 30
0.0
 10
92.96176755488456
 20
-127.6859184793633
 30
0.0
 10
93.0451388656276
 20
-127.6900525939456
 30
0.0
 10
93.08579099235355
 20
-127.6921196512367
 30
0.0
 10
93.2215277544724
 20
-127.6921196512367
 30
0.0
 10
93.2215277544724
 20
-127.6921196512367
 30
0.0
 10
93.33245982909744
 20
-127.6921196512367
 30
0.0
 10
93.33245982909744
 20
-127.6921196512367
 30
0.0
 10
93.33245982909744
 20
-127.6921196512367
 30
0.0
 10
93.33245982909744
 20
-127.5462198574364
 30
0.0
 10
93.33245982909744
 20
-127.5462198574364
 30
0.0
 10
93.33245982909744
 20
-127.5462198574364
 30
0.0
 10
93.24874400880587
 20
-127.5462198574364
 30
0.0
 10
93.24874400880587
 20
-127.5462198574364
 30
0.0
 10
93.1898328760081
 20
-127.5462198574364
 30
0.0
 10
93.00689830574133
 20
-127.5505262267929
 30
0.0
 10
92.91629229447926
 20
-127.5567273986664
 30
0.0
 10
92.91629229447926
 20
-127.5567273986664
 30
0.0
 10
92.91629229447926
 20
-127.3791327264017
 30
0.0
 10
92.91629229447926
 20
-127.3791327264017
 30
0.0
 10
93.00448673890166
 20
-127.3855061530495
 30
0.0
 10
93.1788085704553
 20
-127.3896402676318
 30
0.0
 10
93.24874400880587
 20
-127.3896402676318
 30
0.0
 10
93.24874400880587
 20
-127.3896402676318
 30
0.0
 10
93.33245982909744
 20
-127.3896402676318
 30
0.0
 10
93.33245982909744
 20
-127.3896402676318
 30
0.0
 10
93.33245982909744
 20
-127.3558783318763
 30
0.0
 10
93.32798120496662
 20
-127.2013657993629
 30
0.0
 10
93.32798120496662
 20
-127.1696709208986
 30
0.0
 10
93.32798120496662
 20
-127.1696709208986
 30
0.0
 10
93.53813202956687
 20
-127.1865518887763
 30
0.0
 10
93.53813202956687
 20
-127.1865518887763
 30
0.0
 10
93.55639103563868
 20
-127.1886189460674
 30
0.0
 10
93.57912866584134
 20
-127.1908582581328
 30
0.0
 10
93.57912866584134
 20
-127.2118733405929
 30
0.0
 10
93.57912866584134
 20
-127.2352999898926
 30
0.0
 10
93.55639103563868
 20
-127.2437404738314
 30
0.0
 10
93.52676321446553
 20
-127.2563150723526
 30
0.0
 10
93.52676321446553
 20
-127.2775024095869
 30
0.0
 10
93.52469615717439
 20
-127.372759299754
 30
0.0
 10
93.52469615717439
 20
-127.3896402676318
 30
0.0
 10
93.52469615717439
 20
-127.3896402676318
 30
0.0
 10
93.58808591410298
 20
-127.3896402676318
 30
0.0
 10
93.58808591410298
 20
-127.3896402676318
 30
0.0
 10
93.66043291929323
 20
-127.3896402676318
 30
0.0
 10
93.81408417793537
 20
-127.3855061530495
 30
0.0
 10
93.92708330985157
 20
-127.3791327264017
 30
0.0
 10
93.92708330985157
 20
-127.3791327264017
 30
0.0
 10
93.92708330985157
 20
-127.5567273986664
 30
0.0
 10
93.92708330985157
 20
-127.5567273986664
 30
0.0
 10
93.82304142619702
 20
-127.5505262267929
 30
0.0
 10
93.65560978561388
 20
-127.5462198574364
 30
0.0
 10
93.58808591410298
 20
-127.5462198574364
 30
0.0
 10
93.58808591410298
 20
-127.5462198574364
 30
0.0
 10
93.51573890891274
 20
-127.5462198574364
 30
0.0
 10
93.51573890891274
 20
-127.5462198574364
 30
0.0
 10
93.51573890891274
 20
-127.5462198574364
 30
0.0
 10
93.51573890891274
 20
-127.6921196512367
 30
0.0
 10
93.51573890891274
 20
-127.6921196512367
 30
0.0
 10
93.51573890891274
 20
-127.6921196512367
 30
0.0
 10
93.59015297139413
 20
-127.6921196512367
 30
0.0
 10
93.59015297139413
 20
-127.6921196512367
 30
0.0
 10
93.75069442100677
 20
-127.6921196512367
 30
0.0
 10
93.82752005032785
 20
-127.6879855366544
 30
0.0
 10
93.89332137409612
 20
-127.6859184793633
 30
0.0
 10
93.88401961628594
 20
-127.7810031147561
 30
0.0
 10
93.88160804944627
 20
-127.8593790370456
 30
0.0
 10
93.87954099215511
 20
-127.8974473421576
 30
0.0
 10
94.04456106589859
 20
-127.6859184793633
 30
0.0
 10
94.1579047073633
 20
-127.4383883687481
 30
0.0
 10
94.1758192038866
 20
-127.1760443475463
 30
0.0
 10
94.1758192038866
 20
-127.1760443475463
 30
0.0
 10
94.40629609184982
 20
-127.2266872511794
 30
0.0
 10
94.40629609184982
 20
-127.2266872511794
 30
0.0
 10
94.42214353108197
 20
-127.230993620536
 30
0.0
 10
94.43799097031412
 20
-127.2373670471837
 30
0.0
 10
94.43799097031412
 20
-127.2542480150614
 30
0.0
 10
94.43799097031412
 20
-127.2711289829392
 30
0.0
 10
94.43351234618329
 20
-127.2733682950046
 30
0.0
 10
94.37907983751634
 20
-127.2943833774646
 30
0.0
 10
94.36116534099304
 20
-127.3706922424629
 30
0.0
 10
94.33394908665957
 20
-127.4616427632735
 30
0.0
 10
94.2819281448323
 20
-127.5885945319049
 30
0.0
 10
94.2819281448323
 20
-127.5885945319049
 30
0.0
 10
94.64366317078353
 20
-127.5885945319049
 30
0.0
 10
94.64366317078353
 20
-127.5885945319049
 30
0.0
 10
94.68431529750949
 20
-127.5885945319049
 30
0.0
 10
94.82211911691948
 20
-127.5842881625484
 30
0.0
 10
94.87448456829527
 20
-127.5779147359007
 30
0.0
 10
94.87448456829527
 20
-127.5779147359007
 30
0.0
 10
94.97370331827047
 20
-127.647677919477
 30
0.0
 10
94.97370331827047
 20
-127.647677919477
 30
0.0
 10
94.96474607000881
 20
-127.6688652567113
 30
0.0
 10
94.95785587903832
 20
-127.6879855366544
 30
0.0
 10
94.94200843980617
 20
-127.7239867844753
 30
0.0
  0
POLYLINE
  5
58
330
53
100
AcDbEntity
  8
_U+30EC_U+30A4_U+30E4_U+30FC 1
370
     0
100
AcDb2dPolyline
 66
     1
 10
0.0
 20
0.0
 30
0.0
  0
VERTEX
  5
59
330
58
100
AcDbEntity
  8
_U+30EC_U+30A4_U+30E4_U+30FC 1
370
     0
100
AcDbVertex
100
AcDb2dVertex
 10
93.33245982909744
 20
-127.8486992410413
 30
0.0
  0
VERTEX
  5
5A
330
58
100
AcDbEntity
  8
_U+30EC_U+30A4_U+30E4_U+30FC 1
370
     0
100
AcDbVertex
100
AcDb2dVertex
 10
93.16296113122316
 20
-127.8486992410413
 30
0.0
  0
VERTEX
  5
5B
330
58
100
AcDbEntity
  8
_U+30EC_U+30A4_U+30E4_U+30FC 1
370
     0
100
AcDbVertex
100
AcDb2dVertex
 10
93.16296113122316
 20
-127.9777180669639
 30
0.0
  0
VERTEX
  5
5C
330
58
100
AcDbEntity
  8
_U+30EC_U+30A4_U+30E4_U+30FC 1
370
     0
100
AcDbVertex
100
AcDb2dVertex
 10
93.33245982909744
 20
-127.9777180669639
 30
0.0
  0
VERTEX
  5
5D
330
58
100
AcDbEntity
  8
_U+30EC_U+30A4_U+30E4_U+30FC 1
370
     0
100
AcDbVertex
100
AcDb2dVertex
 10
93.33245982909744
 20
-127.8486992410413
 30
0.0
  0
SEQEND
  5
5E
330
58
100
AcDbEntity
  8
_U+30EC_U+30A4_U+30E4_U+30FC 1
370
     0
  0
POLYLINE
  5
5F
330
53
100
AcDbEntity
  8
_U+30EC_U+30A4_U+30E4_U+30FC 1
370
     0
100
AcDb2dPolyline
 66
     1
 10
0.0
 20
0.0
 30
0.0
  0
VERTEX
  5
60
330
5F
100
AcDbEntity
  8
_U+30EC_U+30A4_U+30E4_U+30FC 1
370
     0
100
AcDbVertex
100
AcDb2dVertex
 10
93.33245982909744
 20
-128.1215508034731
 30
0.0
  0
VERTEX
  5
61
330
5F
100
AcDbEntity
  8
_U+30EC_U+30A4_U+30E4_U+30FC 1
370
     0
100
AcDbVertex
100
AcDb2dVertex
 10
93.16296113122316
 20
-128.1215508034731
 30
0.0
  0
VERTEX
  5
62
330
5F
100
AcDbEntity
  8
_U+30EC_U+30A4_U+30E4_U+30FC 1
370
     0
100
AcDbVertex
100
AcDb2dVertex
 10
93.16296113122316
 20
-128.25074188417
 30
0.0
  0
VERTEX
  5
63
330
5F
100
AcDbEntity
  8
_U+30EC_U+30A4_U+30E4_U+30FC 1
370
     0
100
AcDbVertex
100
AcDb2dVertex
 10
93.33245982909744
 20
-128.25074188417
 30
0.0
  0
VERTEX
  5
64
330
5F
100
AcDbEntity
  8
_U+30EC_U+30A4_U+30E4_U+30FC 1
370
     0
100
AcDbVertex
100
AcDb2dVertex
 10
93.33245982909744
 20
-128.1215508034731
 30
0.0
  0
SEQEND
  5
65
330
5F
100
AcDbEntity
  8
_U+30EC_U+30A4_U+30E4_U+30FC 1
370
     0
  0
POLYLINE
  5
66
330
53
100
AcDbEntity
  8
_U+30EC_U+30A4_U+30E4_U+30FC 1
370
     0
100
AcDb2dPolyline
 66
     1
 10
0.0
 20
0.0
 30
0.0
  0
VERTEX
  5
67
330
66
100
AcDbEntity
  8
_U+30EC_U+30A4_U+30E4_U+30FC 1
370
     0
100
AcDbVertex
100
AcDb2dVertex
 10
93.68730466407818
 20
-127.8486992410413
 30
0.0
  0
VERTEX
  5
68
330
66
100
AcDbEntity
  8
_U+30EC_U+30A4_U+30E4_U+30FC 1
370
     0
100
AcDbVertex
100
AcDb2dVertex
 10
93.51573890891274
 20
-127.8486992410413
 30
0.0
  0
VERTEX
  5
69
330
66
100
AcDbEntity
  8
_U+30EC_U+30A4_U+30E4_U+30FC 1
370
     0
100
AcDbVertex
100
AcDb2dVertex
 10
93.51573890891274
 20
-127.9777180669639
 30
0.0
  0
VERTEX
  5
6A
330
66
100
AcDbEntity
  8
_U+30EC_U+30A4_U+30E4_U+30FC 1
370
     0
100
AcDbVertex
100
AcDb2dVertex
 10
93.68730466407818
 20
-127.9777180669639
 30
0.0
  0
VERTEX
  5
6B
330
66
100
AcDbEntity
  8
_U+30EC_U+30A4_U+30E4_U+30FC 1
370
     0
100
AcDbVertex
100
AcDb2dVertex
 10
93.68730466407818
 20
-127.8486992410413
 30
0.0
  0
SEQEND
  5
6C
330
66
100
AcDbEntity
  8
_U+30EC_U+30A4_U+30E4_U+30FC 1
370
     0
  0
POLYLINE
  5
6D
330
53
100
AcDbEntity
  8
_U+30EC_U+30A4_U+30E4_U+30FC 1
370
     0
100
AcDb2dPolyline
 66
     1
 10
0.0
 20
0.0
 30
0.0
  0
VERTEX
  5
6E
330
6D
100
AcDbEntity
  8
_U+30EC_U+30A4_U+30E4_U+30FC 1
370
     0
100
AcDbVertex
100
AcDb2dVertex
 10
93.68730466407818
 20
-128.1215508034731
 30
0.0
  0
VERTEX
  5
6F
330
6D
100
AcDbEntity
  8
_U+30EC_U+30A4_U+30E4_U+30FC 1
370
     0
100
AcDbVertex
100
AcDb2dVertex
 10
93.51573890891274
 20
-128.1215508034731
 30
0.0
  0
VERTEX
  5
70
330
6D
100
AcDbEntity
  8
_U+30EC_U+30A4_U+30E4_U+30FC 1
370
     0
100
AcDbVertex
100
AcDb2dVertex
 10
93.51573890891274
 20
-128.25074188417
 30
0.0
  0
VERTEX
  5
71
330
6D
100
AcDbEntity
  8
_U+30EC_U+30A4_U+30E4_U+30FC 1
370
     0
100
AcDbVertex
100
AcDb2dVertex
 10
93.68730466407818
 20
-128.25074188417
 30
0.0
  0
VERTEX
  5
72
330
6D
100
AcDbEntity
  8
_U+30EC_U+30A4_U+30E4_U+30FC 1
370
     0
100
AcDbVertex
100
AcDb2dVertex
 10
93.68730466407818
 20
-128.1215508034731
 30
0.0
  0
SEQEND
  5
73
330
6D
100
AcDbEntity
  8
_U+30EC_U+30A4_U+30E4_U+30FC 1
370
     0
  0
SPLINE
  5
74
330
53
100
AcDbEntity
  8
_U+30EC_U+30A4_U+30E4_U+30FC 1
370
     0
100
AcDbSpline
210
0.0
220
0.0
230
1.0
 70
    11
 71
     3
 72
    41
 73
    37
 74
     0
 42
0.0000000001
 43
0.0000000001
 12
1.0
 22
0.0
 32
0.0
 13
1.0
 23
0.0
 33
0.0
 40
0.0
 40
0.0
 40
0.0
 40
0.0
 40
1.0
 40
1.0
 40
1.0
 40
2.0
 40
2.0
 40
2.0
 40
3.0
 40
3.0
 40
3.0
 40
4.0
 40
4.0
 40
4.0
 40
5.0
 40
5.0
 40
5.0
 40
6.0
 40
6.0
 40
6.0
 40
7.0
 40
7.0
 40
7.0
 40
8.0
 40
8.0
 40
8.0
 40
9.0
 40
9.0
 40
9.0
 40
10.0
 40
10.0
 40
10.0
 40
11.0
 40
11.0
 40
11.0
 40
12.0
 40
12.0
 40
12.0
 40
12.0
 10
94.85174693809262
 20
-129.0801486222439
 30
0.0
 10
94.59405379579593
 20
-128.944411860125
 30
0.0
 10
94.40388452501014
 20
-128.6483059031678
 30
0.0
 10
94.36116534099304
 20
-128.5192870772452
 30
0.0
 10
94.2323187698447
 20
-128.7838704105124
 30
0.0
 10
94.05799693829105
 20
-128.9616373375513
 30
0.0
 10
93.86369355292297
 20
-129.075669998113
 30
0.0
 10
93.86369355292297
 20
-129.075669998113
 30
0.0
 10
93.65354272832273
 20
-128.9382106882516
 30
0.0
 10
93.65354272832273
 20
-128.9382106882516
 30
0.0
 10
93.72795679080413
 20
-128.9127169816607
 30
0.0
 10
93.88401961628594
 20
-128.8513942820233
 30
0.0
 10
94.01527775427397
 20
-128.6970540042841
 30
0.0
 10
94.14860294955314
 20
-128.5404744144795
 30
0.0
 10
94.2433430753975
 20
-128.3077582144508
 30
0.0
 10
94.2433430753975
 20
-128.0476535053145
 30
0.0
 10
94.2433430753975
 20
-127.9460231884996
 30
0.0
 10
94.23025171255355
 20
-127.8741929476322
 30
0.0
 10
94.2185383879037
 20
-127.827511903807
 30
0.0
 10
94.2185383879037
 20
-127.827511903807
 30
0.0
 10
94.43799097031412
 20
-127.8486992410413
 30
0.0
 10
94.43799097031412
 20
-127.8486992410413
 30
0.0
 10
94.46038409096825
 20
-127.8507662983325
 30
0.0
 10
94.48312172117089
 20
-127.8530056103979
 30
0.0
 10
94.48312172117089
 20
-127.8741929476322
 30
0.0
 10
94.48312172117089
 20
-127.893140972801
 30
0.0
 10
94.4720974156181
 20
-127.9015814567399
 30
0.0
 10
94.43557940347445
 20
-127.9227687939742
 30
0.0
 10
94.4266221552128
 20
-128.1237901155385
 30
0.0
 10
94.48794485485024
 20
-128.3670138567971
 30
0.0
 10
94.55340166906998
 20
-128.4875921987809
 30
0.0
 10
94.65055336175404
 20
-128.6631198137544
 30
0.0
 10
94.85863712906313
 20
-128.8431260528587
 30
0.0
 10
95.00333113944362
 20
-128.9003146379138
 30
0.0
 10
95.00333113944362
 20
-128.9003146379138
 30
0.0
 10
94.85174693809262
 20
-129.0801486222439
 30
0.0
 10
94.85174693809262
 20
-129.0801486222439
 30
0.0
  0
HATCH
  5
75
330
53
100
AcDbEntity
  8
_U+30EC_U+30A4_U+30E4_U+30FC 1
 62
   179
420
  2234388
100
AcDbHatch
 10
0.0
 20
0.0
 30
0.0
210
0.0
220
0.0
230
1.0
  2
SOLID
 70
     1
 71
     0
 91
        6
 92
        1
 93
        1
 72
     4
 94
        3
 73
     0
 74
     1
 95
      197
 96
      193
 40
0.0
 40
0.0
 40
0.0
 40
0.0
 40
1.0
 40
1.0
 40
1.0
 40
2.0
 40
2.0
 40
2.0
 40
3.0
 40
3.0
 40
3.0
 40
4.0
 40
4.0
 40
4.0
 40
5.0
 40
5.0
 40
5.0
 40
6.0
 40
6.0
 40
6.0
 40
7.0
 40
7.0
 40
7.0
 40
8.0
 40
8.0
 40
8.0
 40
9.0
 40
9.0
 40
9.0
 40
10.0
 40
10.0
 40
10.0
 40
11.0
 40
11.0
 40
11.0
 40
12.0
 40
12.0
 40
12.0
 40
13.0
 40
13.0
 40
13.0
 40
14.0
 40
14.0
 40
14.0
 40
15.0
 40
15.0
 40
15.0
 40
16.0
 40
16.0
 40
16.0
 40
17.0
 40
17.0
 40
17.0
 40
18.0
 40
18.0
 40
18.0
 40
19.0
 40
19.0
 40
19.0
 40
20.0
 40
20.0
 40
20.0
 40
21.0
 40
21.0
 40
21.0
 40
22.0
 40
22.0
 40
22.0
 40
23.0
 40
23.0
 40
23.0
 40
24.0
 40
24.0
 40
24.0
 40
25.0
 40
25.0
 40
25.0
 40
26.0
 40
26.0
 40
26.0
 40
27.0
 40
27.0
 40
27.0
 40
28.0
 40
28.0
 40
28.0
 40
29.0
 40
29.0
 40
29.0
 40
30.0
 40
30.0
 40
30.0
 40
31.0
 40
31.0
 40
31.0
 40
32.0
 40
32.0
 40
32.0
 40
33.0
 40
33.0
 40
33.0
 40
34.0
 40
34.0
 40
34.0
 40
35.0
 40
35.0
 40
35.0
 40
36.0
 40
36.0
 40
36.0
 40
37.0
 40
37.0
 40
37.0
 40
38.0
 40
38.0
 40
38.0
 40
39.0
 40
39.0
 40
39.0
 40
40.0
 40
40.0
 40
40.0
 40
41.0
 40
41.0
 40
41.0
 40
42.0
 40
42.0
 40
42.0
 40
43.0
 40
43.0
 40
43.0
 40
44.0
 40
44.0
 40
44.0
 40
45.0
 40
45.0
 40
45.0
 40
46.0
 40
46.0
 40
46.0
 40
47.0
 40
47.0
 40
47.0
 40
48.0
 40
48.0
 40
48.0
 40
49.0
 40
49.0
 40
49.0
 40
50.0
 40
50.0
 40
50.0
 40
51.0
 40
51.0
 40
51.0
 40
52.0
 40
52.0
 40
52.0
 40
53.0
 40
53.0
 40
53.0
 40
54.0
 40
54.0
 40
54.0
 40
55.0
 40
55.0
 40
55.0
 40
56.0
 40
56.0
 40
56.0
 40
57.0
 40
57.0
 40
57.0
 40
58.0
 40
58.0
 40
58.0
 40
59.0
 40
59.0
 40
59.0
 40
60.0
 40
60.0
 40
60.0
 40
61.0
 40
61.0
 40
61.0
 40
62.0
 40
62.0
 40
62.0
 40
63.0
 40
63.0
 40
63.0
 40
64.0
 40
64.0
 40
64.0
 40
64.0
 10
94.94200843980617
 20
-127.7239867844753
 10
94.93098413425336
 20
-127.7534423508741
 10
94.90617944675957
 20
-127.8001233946993
 10
94.89446612210972
 20
-127.827511903807
 10
94.89446612210972
 20
-127.827511903807
 10
94.82900930788998
 20
-127.9799573790293
 10
94.82900930788998
 20
-127.9799573790293
 10
94.81798500233718
 20
-128.0052788308459
 10
94.76561955096138
 20
-128.1174166888908
 10
94.7521836785689
 20
-128.1406710834162
 10
94.74977211172923
 20
-128.1470445100639
 10
94.74563799714693
 20
-128.1554849940028
 10
94.74322643030726
 20
-128.1618584206505
 10
94.74322643030726
 20
-128.1618584206505
 10
94.51963973331453
 20
-128.1089762049519
 10
94.51963973331453
 20
-128.1089762049519
 10
94.60301104405758
 20
-127.9989054041982
 10
94.66846785827734
 20
-127.8635131516279
 10
94.7025743035813
 20
-127.7534423508741
 10
94.7025743035813
 20
-127.7534423508741
 10
94.20510251551123
 20
-127.7534423508741
 10
94.20510251551123
 20
-127.7534423508741
 10
94.11931963792851
 20
-127.9184624246176
 10
94.04697263273826
 20
-127.996838346907
 10
94.01045462059461
 20
-128.0369737093102
 10
94.01045462059461
 20
-128.0369737093102
 10
93.87954099215511
 20
-127.9713446403162
 10
93.87954099215511
 20
-127.9713446403162
 10
93.87954099215511
 20
-127.9713446403162
 10
93.87954099215511
 20
-128.1427381407074
 10
93.87954099215511
 20
-128.1427381407074
 10
93.87954099215511
 20
-128.25074188417
 10
93.88160804944627
 20
-128.299317730512
 10
93.89332137409612
 20
-128.4050821619091
 10
93.81615123522653
 20
-128.403015104618
 10
93.79341360502387
 20
-128.403015104618
 10
93.57430553216199
 20
-128.403015104618
 10
93.57430553216199
 20
-128.403015104618
 10
93.51573890891274
 20
-128.403015104618
 10
93.51573890891274
 20
-128.403015104618
 10
93.51573890891274
 20
-128.403015104618
 10
93.51573890891274
 20
-128.5384073571883
 10
93.51573890891274
 20
-128.5384073571883
 10
93.51573890891274
 20
-128.5384073571883
 10
93.59222002868528
 20
-128.5384073571883
 10
93.59222002868528
 20
-128.5384073571883
 10
93.66249997658439
 20
-128.5384073571883
 10
93.8185628020662
 20
-128.5341009878317
 10
93.9315619339824
 20
-128.5256605038929
 10
93.9315619339824
 20
-128.5256605038929
 10
93.9315619339824
 20
-128.7034274309318
 10
93.9315619339824
 20
-128.7034274309318
 10
93.82752005032785
 20
-128.6970540042841
 10
93.65802135245356
 20
-128.6927476349275
 10
93.59222002868528
 20
-128.6927476349275
 10
93.59222002868528
 20
-128.6927476349275
 10
93.51573890891274
 20
-128.6927476349275
 10
93.51573890891274
 20
-128.6927476349275
 10
93.51780596620388
 20
-128.7818033532212
 10
93.5222845903347
 20
-129.0208929798976
 10
93.52469615717439
 20
-129.0946180232819
 10
93.52469615717439
 20
-129.0946180232819
 10
93.30972219889479
 20
-129.0946180232819
 10
93.30972219889479
 20
-129.0946180232819
 10
93.3235025808358
 20
-128.8810221031964
 10
93.3235025808358
 20
-128.8513942820233
 10
93.32798120496662
 20
-128.6927476349275
 10
93.32798120496662
 20
-128.6927476349275
 10
93.2532226329367
 20
-128.6927476349275
 10
93.2532226329367
 20
-128.6927476349275
 10
93.19224444284778
 20
-128.6927476349275
 10
93.02929142639546
 20
-128.6970540042841
 10
92.91215817989696
 20
-128.7034274309318
 10
92.91215817989696
 20
-128.7034274309318
 10
92.91215817989696
 20
-128.5256605038929
 10
92.91215817989696
 20
-128.5256605038929
 10
93.02515731181316
 20
-128.5341009878317
 10
93.1788085704553
 20
-128.5384073571883
 10
93.2532226329367
 20
-128.5384073571883
 10
93.2532226329367
 20
-128.5384073571883
 10
93.33245982909744
 20
-128.5384073571883
 10
93.33245982909744
 20
-128.5384073571883
 10
93.33245982909744
 20
-128.5384073571883
 10
93.33245982909744
 20
-128.403015104618
 10
93.33245982909744
 20
-128.403015104618
 10
93.33245982909744
 20
-128.403015104618
 10
93.28491751140099
 20
-128.403015104618
 10
93.28491751140099
 20
-128.403015104618
 10
93.2036132579491
 20
-128.403015104618
 10
92.99759654793117
 20
-128.4050821619091
 10
92.96176755488456
 20
-128.4050821619091
 10
92.96865774585507
 20
-128.3332519210417
 10
92.9776149941167
 20
-128.2528089414611
 10
92.9776149941167
 20
-128.1322305994774
 10
92.9776149941167
 20
-128.1322305994774
 10
92.9776149941167
 20
-127.958770041795
 10
92.9776149941167
 20
-127.958770041795
 10
92.9776149941167
 20
-127.8867675461533
 10
92.96865774585507
 20
-127.7661892041696
 10
92.96176755488456
 20
-127.6859184793633
 10
93.0451388656276
 20
-127.6900525939456
 10
93.08579099235355
 20
-127.6921196512367
 10
93.2215277544724
 20
-127.6921196512367
 10
93.2215277544724
 20
-127.6921196512367
 10
93.33245982909744
 20
-127.6921196512367
 10
93.33245982909744
 20
-127.6921196512367
 10
93.33245982909744
 20
-127.6921196512367
 10
93.33245982909744
 20
-127.5462198574364
 10
93.33245982909744
 20
-127.5462198574364
 10
93.33245982909744
 20
-127.5462198574364
 10
93.24874400880587
 20
-127.5462198574364
 10
93.24874400880587
 20
-127.5462198574364
 10
93.1898328760081
 20
-127.5462198574364
 10
93.00689830574133
 20
-127.5505262267929
 10
92.91629229447926
 20
-127.5567273986664
 10
92.91629229447926
 20
-127.5567273986664
 10
92.91629229447926
 20
-127.3791327264017
 10
92.91629229447926
 20
-127.3791327264017
 10
93.00448673890166
 20
-127.3855061530495
 10
93.1788085704553
 20
-127.3896402676318
 10
93.24874400880587
 20
-127.3896402676318
 10
93.24874400880587
 20
-127.3896402676318
 10
93.33245982909744
 20
-127.3896402676318
 10
93.33245982909744
 20
-127.3896402676318
 10
93.33245982909744
 20
-127.3558783318763
 10
93.32798120496662
 20
-127.2013657993629
 10
93.32798120496662
 20
-127.1696709208986
 10
93.32798120496662
 20
-127.1696709208986
 10
93.53813202956687
 20
-127.1865518887763
 10
93.53813202956687
 20
-127.1865518887763
 10
93.55639103563868
 20
-127.1886189460674
 10
93.57912866584134
 20
-127.1908582581328
 10
93.57912866584134
 20
-127.2118733405929
 10
93.57912866584134
 20
-127.2352999898926
 10
93.55639103563868
 20
-127.2437404738314
 10
93.52676321446553
 20
-127.2563150723526
 10
93.52676321446553
 20
-127.2775024095869
 10
93.52469615717439
 20
-127.372759299754
 10
93.52469615717439
 20
-127.3896402676318
 10
93.52469615717439
 20
-127.3896402676318
 10
93.58808591410298
 20
-127.3896402676318
 10
93.58808591410298
 20
-127.3896402676318
 10
93.66043291929323
 20
-127.3896402676318
 10
93.81408417793537
 20
-127.3855061530495
 10
93.92708330985157
 20
-127.3791327264017
 10
93.92708330985157
 20
-127.3791327264017
 10
93.92708330985157
 20
-127.5567273986664
 10
93.92708330985157
 20
-127.5567273986664
 10
93.82304142619702
 20
-127.5505262267929
 10
93.65560978561388
 20
-127.5462198574364
 10
93.58808591410298
 20
-127.5462198574364
 10
93.58808591410298
 20
-127.5462198574364
 10
93.51573890891274
 20
-127.5462198574364
 10
93.51573890891274
 20
-127.5462198574364
 10
93.51573890891274
 20
-127.5462198574364
 10
93.51573890891274
 20
-127.6921196512367
 10
93.51573890891274
 20
-127.6921196512367
 10
93.51573890891274
 20
-127.6921196512367
 10
93.59015297139413
 20
-127.6921196512367
 10
93.59015297139413
 20
-127.6921196512367
 10
93.75069442100677
 20
-127.6921196512367
 10
93.82752005032785
 20
-127.6879855366544
 10
93.89332137409612
 20
-127.6859184793633
 10
93.88401961628594
 20
-127.7810031147561
 10
93.88160804944627
 20
-127.8593790370456
 10
93.87954099215511
 20
-127.8974473421576
 10
94.04456106589859
 20
-127.6859184793633
 10
94.1579047073633
 20
-127.4383883687481
 10
94.1758192038866
 20
-127.1760443475463
 10
94.1758192038866
 20
-127.1760443475463
 10
94.40629609184982
 20
-127.2266872511794
 10
94.40629609184982
 20
-127.2266872511794
 10
94.42214353108197
 20
-127.230993620536
 10
94.43799097031412
 20
-127.2373670471837
 10
94.43799097031412
 20
-127.2542480150614
 10
94.43799097031412
 20
-127.2711289829392
 10
94.43351234618329
 20
-127.2733682950046
 10
94.37907983751634
 20
-127.2943833774646
 10
94.36116534099304
 20
-127.3706922424629
 10
94.33394908665957
 20
-127.4616427632735
 10
94.2819281448323
 20
-127.5885945319049
 10
94.2819281448323
 20
-127.5885945319049
 10
94.64366317078353
 20
-127.5885945319049
 10
94.64366317078353
 20
-127.5885945319049
 10
94.68431529750949
 20
-127.5885945319049
 10
94.82211911691948
 20
-127.5842881625484
 10
94.87448456829527
 20
-127.5779147359007
 10
94.87448456829527
 20
-127.5779147359007
 10
94.97370331827047
 20
-127.647677919477
 10
94.97370331827047
 20
-127.647677919477
 10
94.96474607000881
 20
-127.6688652567113
 10
94.95785587903832
 20
-127.6879855366544
 10
94.94200843980617
 20
-127.7239867844753
 97
        0
 97
        0
 92
        1
 93
        4
 72
     1
 10
93.33245982909744
 20
-127.8486992410413
 11
93.16296113122316
 21
-127.8486992410413
 72
     1
 10
93.16296113122316
 20
-127.8486992410413
 11
93.16296113122316
 21
-127.9777180669639
 72
     1
 10
93.16296113122316
 20
-127.9777180669639
 11
93.33245982909744
 21
-127.9777180669639
 72
     1
 10
93.33245982909744
 20
-127.9777180669639
 11
93.33245982909744
 21
-127.8486992410413
 97
        0
 92
        1
 93
        4
 72
     1
 10
93.33245982909744
 20
-128.1215508034731
 11
93.16296113122316
 21
-128.1215508034731
 72
     1
 10
93.16296113122316
 20
-128.1215508034731
 11
93.16296113122316
 21
-128.25074188417
 72
     1
 10
93.16296113122316
 20
-128.25074188417
 11
93.33245982909744
 21
-128.25074188417
 72
     1
 10
93.33245982909744
 20
-128.25074188417
 11
93.33245982909744
 21
-128.1215508034731
 97
        0
 92
        1
 93
        4
 72
     1
 10
93.68730466407818
 20
-127.8486992410413
 11
93.51573890891274
 21
-127.8486992410413
 72
     1
 10
93.51573890891274
 20
-127.8486992410413
 11
93.51573890891274
 21
-127.9777180669639
 72
     1
 10
93.51573890891274
 20
-127.9777180669639
 11
93.68730466407818
 21
-127.9777180669639
 72
     1
 10
93.68730466407818
 20
-127.9777180669639
 11
93.68730466407818
 21
-127.8486992410413
 97
        0
 92
        1
 93
        4
 72
     1
 10
93.68730466407818
 20
-128.1215508034731
 11
93.51573890891274
 21
-128.1215508034731
 72
     1
 10
93.51573890891274
 20
-128.1215508034731
 11
93.51573890891274
 21
-128.25074188417
 72
     1
 10
93.51573890891274
 20
-128.25074188417
 11
93.68730466407818
 21
-128.25074188417
 72
     1
 10
93.68730466407818
 20
-128.25074188417
 11
93.68730466407818
 21
-128.1215508034731
 97
        0
 92
        1
 93
        1
 72
     4
 94
        3
 73
     0
 74
     1
 95
       41
 96
       37
 40
0.0
 40
0.0
 40
0.0
 40
0.0
 40
1.0
 40
1.0
 40
1.0
 40
2.0
 40
2.0
 40
2.0
 40
3.0
 40
3.0
 40
3.0
 40
4.0
 40
4.0
 40
4.0
 40
5.0
 40
5.0
 40
5.0
 40
6.0
 40
6.0
 40
6.0
 40
7.0
 40
7.0
 40
7.0
 40
8.0
 40
8.0
 40
8.0
 40
9.0
 40
9.0
 40
9.0
 40
10.0
 40
10.0
 40
10.0
 40
11.0
 40
11.0
 40
11.0
 40
12.0
 40
12.0
 40
12.0
 40
12.0
 10
94.85174693809262
 20
-129.0801486222439
 10
94.59405379579593
 20
-128.944411860125
 10
94.40388452501014
 20
-128.6483059031678
 10
94.36116534099304
 20
-128.5192870772452
 10
94.2323187698447
 20
-128.7838704105124
 10
94.05799693829105
 20
-128.9616373375513
 10
93.86369355292297
 20
-129.075669998113
 10
93.86369355292297
 20
-129.075669998113
 10
93.65354272832273
 20
-128.9382106882516
 10
93.65354272832273
 20
-128.9382106882516
 10
93.72795679080413
 20
-128.9127169816607
 10
93.88401961628594
 20
-128.8513942820233
 10
94.01527775427397
 20
-128.6970540042841
 10
94.14860294955314
 20
-128.5404744144795
 10
94.2433430753975
 20
-128.3077582144508
 10
94.2433430753975
 20
-128.0476535053145
 10
94.2433430753975
 20
-127.9460231884996
 10
94.23025171255355
 20
-127.8741929476322
 10
94.2185383879037
 20
-127.827511903807
 10
94.2185383879037
 20
-127.827511903807
 10
94.43799097031412
 20
-127.8486992410413
 10
94.43799097031412
 20
-127.8486992410413
 10
94.46038409096825
 20
-127.8507662983325
 10
94.48312172117089
 20
-127.8530056103979
 10
94.48312172117089
 20
-127.8741929476322
 10
94.48312172117089
 20
-127.893140972801
 10
94.4720974156181
 20
-127.9015814567399
 10
94.43557940347445
 20
-127.9227687939742
 10
94.4266221552128
 20
-128.1237901155385
 10
94.48794485485024
 20
-128.3670138567971
 10
94.55340166906998
 20
-128.4875921987809
 10
94.65055336175404
 20
-128.6631198137544
 10
94.85863712906313
 20
-128.8431260528587
 10
95.00333113944362
 20
-128.9003146379138
 10
95.00333113944362
 20
-128.9003146379138
 10
94.85174693809262
 20
-129.0801486222439
 10
94.85174693809262
 20
-129.0801486222439
 97
        0
 97
        0
 75
     2
 76
     1
 98
        0
  0
SPLINE
  5
76
330
53
100
AcDbEntity
  8
_U+30EC_U+30A4_U+30E4_U+30FC 1
370
     0
100
AcDbSpline
210
0.0
220
0.0
230
1.0
 70
    11
 71
     3
 72
    71
 73
    67
 74
     0
 42
0.0000000001
 43
0.0000000001
 12
1.0
 22
0.0
 32
0.0
 13
1.0
 23
0.0
 33
0.0
 40
0.0
 40
0.0
 40
0.0
 40
0.0
 40
1.0
 40
1.0
 40
1.0
 40
2.0
 40
2.0
 40
2.0
 40
3.0
 40
3.0
 40
3.0
 40
4.0
 40
4.0
 40
4.0
 40
5.0
 40
5.0
 40
5.0
 40
6.0
 40
6.0
 40
6.0
 40
7.0
 40
7.0
 40
7.0
 40
8.0
 40
8.0
 40
8.0
 40
9.0
 40
9.0
 40
9.0
 40
10.0
 40
10.0
 40
10.0
 40
11.0
 40
11.0
 40
11.0
 40
12.0
 40
12.0
 40
12.0
 40
13.0
 40
13.0
 40
13.0
 40
14.0
 40
14.0
 40
14.0
 40
15.0
 40
15.0
 40
15.0
 40
16.0
 40
16.0
 40
16.0
 40
17.0
 40
17.0
 40
17.0
 40
18.0
 40
18.0
 40
18.0
 40
19.0
 40
19.0
 40
19.0
 40
20.0
 40
20.0
 40
20.0
 40
21.0
 40
21.0
 40
21.0
 40
22.0
 40
22.0
 40
22.0
 40
22.0
 10
96.12815481537768
 20
-127.3472655931632
 30
0.0
 10
96.11265188569406
 20
-127.3472655931632
 30
0.0
 10
96.09887150375306
 20
-127.3431314785809
 30
0.0
 10
96.07165524941959
 20
-127.334690994642
 30
0.0
 10
95.92041555761712
 20
-127.3811997836929
 30
0.0
 10
95.73506942051068
 20
-127.3980807515706
 30
0.0
 10
95.58555227645084
 20
-127.4023871209272
 30
0.0
 10
95.58555227645084
 20
-127.4023871209272
 30
0.0
 10
95.58348521915968
 20
-127.4912705844466
 30
0.0
 10
95.58348521915968
 20
-127.4912705844466
 30
0.0
 10
95.58348521915968
 20
-127.4912705844466
 30
0.0
 10
95.86150442481934
 20
-127.4912705844466
 30
0.0
 10
95.86150442481934
 20
-127.4912705844466
 30
0.0
 10
95.91800399077745
 20
-127.4912705844466
 30
0.0
 10
96.11265188569406
 20
-127.4826578457335
 30
0.0
 10
96.15984969384199
 20
-127.4764566738601
 30
0.0
 10
96.15984969384199
 20
-127.4764566738601
 30
0.0
 10
96.15984969384199
 20
-127.637170378247
 30
0.0
 10
96.15984969384199
 20
-127.637170378247
 30
0.0
 10
96.10093856104422
 20
-127.6307969515993
 30
0.0
 10
95.96795787531357
 20
-127.6287298943081
 30
0.0
 10
95.9269612390391
 20
-127.6307969515993
 30
0.0
 10
95.9269612390391
 20
-127.6307969515993
 30
0.0
 10
95.9269612390391
 20
-127.740867752353
 30
0.0
 10
95.9269612390391
 20
-127.740867752353
 30
0.0
 10
95.9269612390391
 20
-127.7873765414039
 30
0.0
 10
95.92937280587877
 20
-127.8507662983325
 30
0.0
 10
95.93626299684927
 20
-127.8888346034445
 30
0.0
 10
95.93626299684927
 20
-127.8888346034445
 30
0.0
 10
95.73024628683133
 20
-127.8888346034445
 30
0.0
 10
95.73024628683133
 20
-127.8888346034445
 30
0.0
 10
95.73713647780183
 20
-127.8486992410413
 30
0.0
 10
95.74402666877234
 20
-127.7661892041696
 30
0.0
 10
95.74402666877234
 20
-127.751375293583
 30
0.0
 10
95.74402666877234
 20
-127.751375293583
 30
0.0
 10
95.74402666877234
 20
-127.6307969515993
 30
0.0
 10
95.74402666877234
 20
-127.6307969515993
 30
0.0
 10
95.74402666877234
 20
-127.6307969515993
 30
0.0
 10
95.56763777992754
 20
-127.6307969515993
 30
0.0
 10
95.56763777992754
 20
-127.6307969515993
 30
0.0
 10
95.52216251952224
 20
-127.8507662983325
 30
0.0
 10
95.46359589627299
 20
-127.931209277913
 30
0.0
 10
95.3505967643568
 20
-128.0306002826625
 30
0.0
 10
95.3505967643568
 20
-128.0306002826625
 30
0.0
 10
95.17214081822085
 20
-127.9163953673265
 30
0.0
 10
95.17214081822085
 20
-127.9163953673265
 30
0.0
 10
95.23966468973175
 20
-127.8678195209844
 30
0.0
 10
95.40020613934439
 20
-127.7556816629396
 30
0.0
 10
95.40020613934439
 20
-127.4065212355095
 30
0.0
 10
95.40020613934439
 20
-127.3240111986377
 30
0.0
 10
95.39124889108275
 20
-127.2775024095869
 30
0.0
 10
95.3822916428211
 20
-127.2289265632449
 30
0.0
 10
95.53800995875439
 20
-127.2437404738314
 30
0.0
 10
95.55385739798653
 20
-127.2437404738314
 30
0.0
 10
95.59244246742134
 20
-127.2437404738314
 30
0.0
 10
95.70750865662868
 20
-127.2437404738314
 30
0.0
 10
95.85909285797968
 20
-127.2266872511794
 30
0.0
 10
96.03100312269365
 20
-127.165364551542
 30
0.0
 10
96.03100312269365
 20
-127.165364551542
 30
0.0
 10
96.15330401242001
 20
-127.29662268953
 30
0.0
 10
96.15330401242001
 20
-127.29662268953
 30
0.0
 10
96.15984969384199
 20
-127.3029961161777
 30
0.0
 10
96.16432831797282
 20
-127.3114366001166
 30
0.0
 10
96.16432831797282
 20
-127.3198770840554
 30
0.0
 10
96.16432831797282
 20
-127.3431314785809
 30
0.0
 10
96.14400225460983
 20
-127.3472655931632
 30
0.0
 10
96.12815481537768
 20
-127.3472655931632
 30
0.0
  0
SPLINE
  5
77
330
53
100
AcDbEntity
  8
_U+30EC_U+30A4_U+30E4_U+30FC 1
370
     0
100
AcDbSpline
210
0.0
220
0.0
230
1.0
 70
    11
 71
     3
 72
    74
 73
    70
 74
     0
 42
0.0000000001
 43
0.0000000001
 12
1.0
 22
0.0
 32
0.0
 13
1.0
 23
0.0
 33
0.0
 40
0.0
 40
0.0
 40
0.0
 40
0.0
 40
1.0
 40
1.0
 40
1.0
 40
2.0
 40
2.0
 40
2.0
 40
3.0
 40
3.0
 40
3.0
 40
4.0
 40
4.0
 40
4.0
 40
5.0
 40
5.0
 40
5.0
 40
6.0
 40
6.0
 40
6.0
 40
7.0
 40
7.0
 40
7.0
 40
8.0
 40
8.0
 40
8.0
 40
9.0
 40
9.0
 40
9.0
 40
10.0
 40
10.0
 40
10.0
 40
11.0
 40
11.0
 40
11.0
 40
12.0
 40
12.0
 40
12.0
 40
13.0
 40
13.0
 40
13.0
 40
14.0
 40
14.0
 40
14.0
 40
15.0
 40
15.0
 40
15.0
 40
16.0
 40
16.0
 40
16.0
 40
17.0
 40
17.0
 40
17.0
 40
18.0
 40
18.0
 40
18.0
 40
19.0
 40
19.0
 40
19.0
 40
20.0
 40
20.0
 40
20.0
 40
21.0
 40
21.0
 40
21.0
 40
22.0
 40
22.0
 40
22.0
 40
23.0
 40
23.0
 40
23.0
 40
23.0
 10
97.02353513199412
 20
-129.1139105579993
 30
0.0
 10
96.79512530132206
 20
-129.103230761995
 30
0.0
 10
96.58049585259099
 20
-129.0164143557667
 30
0.0
 10
96.39273814864488
 20
-128.895836013783
 30
0.0
 10
96.39273814864488
 20
-128.895836013783
 30
0.0
 10
96.49678003229943
 20
-128.8093641171032
 30
0.0
 10
96.49678003229943
 20
-128.8093641171032
 30
0.0
 10
96.49678003229943
 20
-128.8093641171032
 30
0.0
 10
95.90663517567613
 20
-128.8093641171032
 30
0.0
 10
95.90663517567613
 20
-128.8093641171032
 30
0.0
 10
95.90663517567613
 20
-128.8093641171032
 30
0.0
 10
95.99276256280737
 20
-128.8727538740318
 30
0.0
 10
95.99276256280737
 20
-128.8727538740318
 30
0.0
 10
95.99930824422934
 20
-128.8768879886141
 30
0.0
 10
96.01067705933067
 20
-128.8872232750699
 30
0.0
 10
96.01067705933067
 20
-128.902381695205
 30
0.0
 10
96.01067705933067
 20
-128.9423448028339
 30
0.0
 10
95.93143986316993
 20
-128.9361436309604
 30
0.0
 10
95.91559242393777
 20
-128.9340765736693
 30
0.0
 10
95.66926809674241
 20
-129.0736029408219
 30
0.0
 10
95.51527232855175
 20
-129.1052978192862
 30
0.0
 10
95.40468476347522
 20
-129.1221787871639
 30
0.0
 10
95.40468476347522
 20
-129.1221787871639
 30
0.0
 10
95.26688094406524
 20
-128.944411860125
 30
0.0
 10
95.26688094406524
 20
-128.944411860125
 30
0.0
 10
95.53111976778389
 20
-128.9127169816607
 30
0.0
 10
95.63998478511779
 20
-128.8662081926098
 30
0.0
 10
95.73506942051068
 20
-128.8134982316855
 30
0.0
 10
95.65583222434994
 20
-128.8155652889767
 30
0.0
 10
95.53387584417209
 20
-128.8176323462678
 30
0.0
 10
95.49976939886811
 20
-128.819699403559
 30
0.0
 10
95.51527232855175
 20
-128.7308159400395
 30
0.0
 10
95.51802840493994
 20
-128.6017971141169
 30
0.0
 10
95.51802840493994
 20
-128.527727561184
 30
0.0
 10
95.51802840493994
 20
-128.527727561184
 30
0.0
 10
95.51802840493994
 20
-128.2274874896445
 30
0.0
 10
95.51802840493994
 20
-128.2274874896445
 30
0.0
 10
95.51802840493994
 20
-128.1279242301208
 30
0.0
 10
95.51113821396945
 20
-128.0285332253713
 30
0.0
 10
95.49976939886811
 20
-127.931209277913
 30
0.0
 10
95.60828990665348
 20
-127.9375827045608
 30
0.0
 10
95.85461423384885
 20
-127.9439561312085
 30
0.0
 10
95.97002493260472
 20
-127.9439561312085
 30
0.0
 10
95.97002493260472
 20
-127.9439561312085
 30
0.0
 10
96.4220214602695
 20
-127.9439561312085
 30
0.0
 10
96.4220214602695
 20
-127.9439561312085
 30
0.0
 10
96.54880097412669
 20
-127.9439561312085
 30
0.0
 10
96.59393172498346
 20
-127.9439561312085
 30
0.0
 10
96.68212616940586
 20
-127.9396497618519
 30
0.0
 10
96.84025605217883
 20
-127.9332763352042
 30
0.0
 10
96.85851505825066
 20
-127.9332763352042
 30
0.0
 10
96.90846894278678
 20
-127.931209277913
 30
0.0
 10
96.8991671849766
 20
-128.0116522574936
 30
0.0
 10
96.89468856084578
 20
-128.1702989045894
 30
0.0
 10
96.89468856084578
 20
-128.2528089414611
 30
0.0
 10
96.89468856084578
 20
-128.2528089414611
 30
0.0
 10
96.89468856084578
 20
-128.5384073571883
 30
0.0
 10
96.89468856084578
 20
-128.5384073571883
 30
0.0
 10
96.89468856084578
 20
-128.6102375980558
 30
0.0
 10
96.89675561813692
 20
-128.7414957360438
 30
0.0
 10
96.90846894278678
 20
-128.819699403559
 30
0.0
 10
96.83129880391718
 20
-128.8155652889767
 30
0.0
 10
96.70038517547769
 20
-128.8134982316855
 30
0.0
 10
96.61632484563759
 20
-128.8114311743944
 30
0.0
 10
96.73414711123313
 20
-128.8789550459053
 30
0.0
 10
96.89675561813692
 20
-128.929942459087
 30
0.0
 10
97.12275388196932
 20
-128.9340765736693
 30
0.0
 10
97.12275388196932
 20
-128.9340765736693
 30
0.0
 10
97.02353513199412
 20
-129.1139105579993
 30
0.0
 10
97.02353513199412
 20
-129.1139105579993
 30
0.0
  0
POLYLINE
  5
78
330
53
100
AcDbEntity
  8
_U+30EC_U+30A4_U+30E4_U+30FC 1
370
     0
100
AcDb2dPolyline
 66
     1
 10
0.0
 20
0.0
 30
0.0
  0
VERTEX
  5
79
330
78
100
AcDbEntity
  8
_U+30EC_U+30A4_U+30E4_U+30FC 1
370
     0
100
AcDbVertex
100
AcDb2dVertex
 10
96.69797360863801
 20
-128.0793483837788
 30
0.0
  0
VERTEX
  5
7A
330
78
100
AcDbEntity
  8
_U+30EC_U+30A4_U+30E4_U+30FC 1
370
     0
100
AcDbVertex
100
AcDb2dVertex
 10
95.72335609586084
 20
-128.0793483837788
 30
0.0
  0
VERTEX
  5
7B
330
78
100
AcDbEntity
  8
_U+30EC_U+30A4_U+30E4_U+30FC 1
370
     0
100
AcDbVertex
100
AcDb2dVertex
 10
95.72335609586084
 20
-128.1914862418237
 30
0.0
  0
VERTEX
  5
7C
330
78
100
AcDbEntity
  8
_U+30EC_U+30A4_U+30E4_U+30FC 1
370
     0
100
AcDbVertex
100
AcDb2dVertex
 10
96.69797360863801
 20
-128.1914862418237
 30
0.0
  0
VERTEX
  5
7D
330
78
100
AcDbEntity
  8
_U+30EC_U+30A4_U+30E4_U+30FC 1
370
     0
100
AcDbVertex
100
AcDb2dVertex
 10
96.69797360863801
 20
-128.0793483837788
 30
0.0
  0
SEQEND
  5
7E
330
78
100
AcDbEntity
  8
_U+30EC_U+30A4_U+30E4_U+30FC 1
370
     0
  0
POLYLINE
  5
7F
330
53
100
AcDbEntity
  8
_U+30EC_U+30A4_U+30E4_U+30FC 1
370
     0
100
AcDb2dPolyline
 66
     1
 10
0.0
 20
0.0
 30
0.0
  0
VERTEX
  5
80
330
7F
100
AcDbEntity
  8
_U+30EC_U+30A4_U+30E4_U+30FC 1
370
     0
100
AcDbVertex
100
AcDb2dVertex
 10
96.69797360863801
 20
-128.3246391823286
 30
0.0
  0
VERTEX
  5
81
330
7F
100
AcDbEntity
  8
_U+30EC_U+30A4_U+30E4_U+30FC 1
370
     0
100
AcDbVertex
100
AcDb2dVertex
 10
95.72335609586084
 20
-128.3246391823286
 30
0.0
  0
VERTEX
  5
82
330
7F
100
AcDbEntity
  8
_U+30EC_U+30A4_U+30E4_U+30FC 1
370
     0
100
AcDbVertex
100
AcDb2dVertex
 10
95.72335609586084
 20
-128.4347099830823
 30
0.0
  0
VERTEX
  5
83
330
7F
100
AcDbEntity
  8
_U+30EC_U+30A4_U+30E4_U+30FC 1
370
     0
100
AcDbVertex
100
AcDb2dVertex
 10
96.69797360863801
 20
-128.4347099830823
 30
0.0
  0
VERTEX
  5
84
330
7F
100
AcDbEntity
  8
_U+30EC_U+30A4_U+30E4_U+30FC 1
370
     0
100
AcDbVertex
100
AcDb2dVertex
 10
96.69797360863801
 20
-128.3246391823286
 30
0.0
  0
SEQEND
  5
85
330
7F
100
AcDbEntity
  8
_U+30EC_U+30A4_U+30E4_U+30FC 1
370
     0
  0
POLYLINE
  5
86
330
53
100
AcDbEntity
  8
_U+30EC_U+30A4_U+30E4_U+30FC 1
370
     0
100
AcDb2dPolyline
 66
     1
 10
0.0
 20
0.0
 30
0.0
  0
VERTEX
  5
87
330
86
100
AcDbEntity
  8
_U+30EC_U+30A4_U+30E4_U+30FC 1
370
     0
100
AcDbVertex
100
AcDb2dVertex
 10
96.69797360863801
 20
-128.5701022356526
 30
0.0
  0
VERTEX
  5
88
330
86
100
AcDbEntity
  8
_U+30EC_U+30A4_U+30E4_U+30FC 1
370
     0
100
AcDbVertex
100
AcDb2dVertex
 10
95.72335609586084
 20
-128.5701022356526
 30
0.0
  0
VERTEX
  5
89
330
86
100
AcDbEntity
  8
_U+30EC_U+30A4_U+30E4_U+30FC 1
370
     0
100
AcDbVertex
100
AcDb2dVertex
 10
95.72335609586084
 20
-128.6779337243409
 30
0.0
  0
VERTEX
  5
8A
330
86
100
AcDbEntity
  8
_U+30EC_U+30A4_U+30E4_U+30FC 1
370
     0
100
AcDbVertex
100
AcDb2dVertex
 10
96.69797360863801
 20
-128.6779337243409
 30
0.0
  0
VERTEX
  5
8B
330
86
100
AcDbEntity
  8
_U+30EC_U+30A4_U+30E4_U+30FC 1
370
     0
100
AcDbVertex
100
AcDb2dVertex
 10
96.69797360863801
 20
-128.5701022356526
 30
0.0
  0
SEQEND
  5
8C
330
86
100
AcDbEntity
  8
_U+30EC_U+30A4_U+30E4_U+30FC 1
370
     0
  0
SPLINE
  5
8D
330
53
100
AcDbEntity
  8
_U+30EC_U+30A4_U+30E4_U+30FC 1
370
     0
100
AcDbSpline
210
0.0
220
0.0
230
1.0
 70
    11
 71
     3
 72
    74
 73
    70
 74
     0
 42
0.0000000001
 43
0.0000000001
 12
1.0
 22
0.0
 32
0.0
 13
1.0
 23
0.0
 33
0.0
 40
0.0
 40
0.0
 40
0.0
 40
0.0
 40
1.0
 40
1.0
 40
1.0
 40
2.0
 40
2.0
 40
2.0
 40
3.0
 40
3.0
 40
3.0
 40
4.0
 40
4.0
 40
4.0
 40
5.0
 40
5.0
 40
5.0
 40
6.0
 40
6.0
 40
6.0
 40
7.0
 40
7.0
 40
7.0
 40
8.0
 40
8.0
 40
8.0
 40
9.0
 40
9.0
 40
9.0
 40
10.0
 40
10.0
 40
10.0
 40
11.0
 40
11.0
 40
11.0
 40
12.0
 40
12.0
 40
12.0
 40
13.0
 40
13.0
 40
13.0
 40
14.0
 40
14.0
 40
14.0
 40
15.0
 40
15.0
 40
15.0
 40
16.0
 40
16.0
 40
16.0
 40
17.0
 40
17.0
 40
17.0
 40
18.0
 40
18.0
 40
18.0
 40
19.0
 40
19.0
 40
19.0
 40
20.0
 40
20.0
 40
20.0
 40
21.0
 40
21.0
 40
21.0
 40
22.0
 40
22.0
 40
22.0
 40
23.0
 40
23.0
 40
23.0
 40
23.0
 10
97.03731551393513
 20
-127.626662837017
 30
0.0
 10
97.03731551393513
 20
-127.626662837017
 30
0.0
 10
96.86506073967263
 20
-127.626662837017
 30
0.0
 10
96.86506073967263
 20
-127.626662837017
 30
0.0
 10
96.86506073967263
 20
-127.626662837017
 30
0.0
 10
96.86506073967263
 20
-127.740867752353
 30
0.0
 10
96.86506073967263
 20
-127.740867752353
 30
0.0
 10
96.86506073967263
 20
-127.7810031147561
 30
0.0
 10
96.87195093064312
 20
-127.855072667689
 30
0.0
 10
96.87677406432248
 20
-127.8803941195056
 30
0.0
 10
96.87677406432248
 20
-127.8803941195056
 30
0.0
 10
96.65043129094157
 20
-127.8803941195056
 30
0.0
 10
96.65043129094157
 20
-127.8803941195056
 30
0.0
 10
96.66180010604289
 20
-127.8149373052859
 30
0.0
 10
96.66386716333403
 20
-127.7556816629396
 30
0.0
 10
96.66386716333403
 20
-127.7534423508741
 30
0.0
 10
96.66386716333403
 20
-127.7534423508741
 30
0.0
 10
96.66386716333403
 20
-127.6307969515993
 30
0.0
 10
96.66386716333403
 20
-127.6307969515993
 30
0.0
 10
96.66386716333403
 20
-127.6307969515993
 30
0.0
 10
96.4716308352571
 20
-127.6307969515993
 30
0.0
 10
96.4716308352571
 20
-127.6307969515993
 30
0.0
 10
96.45164928144264
 20
-127.6900525939456
 30
0.0
 10
96.40203990645504
 20
-127.8359523877459
 30
0.0
 10
96.27973901672868
 20
-127.9184624246176
 30
0.0
 10
96.27973901672868
 20
-127.9184624246176
 30
0.0
 10
96.11265188569406
 20
-127.8126979932204
 30
0.0
 10
96.11265188569406
 20
-127.8126979932204
 30
0.0
 10
96.19154457230628
 20
-127.7661892041696
 30
0.0
 10
96.3159125193238
 20
-127.6921196512367
 30
0.0
 10
96.3159125193238
 20
-127.3706922424629
 30
0.0
 10
96.3159125193238
 20
-127.3155707146989
 30
0.0
 10
96.31108938564445
 20
-127.2711289829392
 30
0.0
 10
96.30902232835331
 20
-127.2330606778272
 30
0.0
 10
96.3903265818052
 20
-127.241501161766
 30
0.0
 10
96.46956377796594
 20
-127.2478745884137
 30
0.0
 10
96.53743215902537
 20
-127.2478745884137
 30
0.0
 10
96.72725692026263
 20
-127.2478745884137
 30
0.0
 10
96.93981931170255
 20
-127.1886189460674
 30
0.0
 10
97.00562063547082
 20
-127.1589911248943
 30
0.0
 10
97.00562063547082
 20
-127.1589911248943
 30
0.0
 10
97.14101288804115
 20
-127.2943833774646
 30
0.0
 10
97.14101288804115
 20
-127.2943833774646
 30
0.0
 10
97.14549151217196
 20
-127.2986897468212
 30
0.0
 10
97.14790307901164
 20
-127.30713023076
 30
0.0
 10
97.14790307901164
 20
-127.3135036574077
 30
0.0
 10
97.14790307901164
 20
-127.334690994642
 30
0.0
 10
97.1320556397795
 20
-127.3410644212897
 30
0.0
 10
97.11379663370766
 20
-127.3410644212897
 30
0.0
 10
97.09140351305355
 20
-127.3410644212897
 30
0.0
 10
97.07555607382139
 20
-127.3326239373509
 30
0.0
 10
97.05523001045842
 20
-127.3219441413466
 30
0.0
 10
96.86988387335198
 20
-127.3791327264017
 30
0.0
 10
96.63699541854909
 20
-127.4044541782183
 30
0.0
 10
96.49436846545974
 20
-127.4065212355095
 30
0.0
 10
96.49436846545974
 20
-127.4065212355095
 30
0.0
 10
96.48988984132892
 20
-127.4890312723812
 30
0.0
 10
96.48988984132892
 20
-127.4890312723812
 30
0.0
 10
96.48988984132892
 20
-127.4890312723812
 30
0.0
 10
96.78168942892958
 20
-127.4890312723812
 30
0.0
 10
96.78168942892958
 20
-127.4890312723812
 30
0.0
 10
96.8426676190185
 20
-127.4890312723812
 30
0.0
 10
97.12275388196932
 20
-127.4700832472123
 30
0.0
 10
97.17029619966577
 20
-127.4637098205646
 30
0.0
 10
97.17029619966577
 20
-127.4637098205646
 30
0.0
 10
97.17029619966577
 20
-127.6328640088904
 30
0.0
 10
97.17029619966577
 20
-127.6328640088904
 30
0.0
 10
97.13446720661916
 20
-127.6287298943081
 30
0.0
 10
97.12068682467816
 20
-127.626662837017
 30
0.0
 10
97.03731551393513
 20
-127.626662837017
 30
0.0
  0
HATCH
  5
8E
330
53
100
AcDbEntity
  8
_U+30EC_U+30A4_U+30E4_U+30FC 1
 62
   179
420
  2234388
100
AcDbHatch
 10
0.0
 20
0.0
 30
0.0
210
0.0
220
0.0
230
1.0
  2
SOLID
 70
     1
 71
     0
 91
        6
 92
        1
 93
        1
 72
     4
 94
        3
 73
     0
 74
     1
 95
       71
 96
       67
 40
0.0
 40
0.0
 40
0.0
 40
0.0
 40
1.0
 40
1.0
 40
1.0
 40
2.0
 40
2.0
 40
2.0
 40
3.0
 40
3.0
 40
3.0
 40
4.0
 40
4.0
 40
4.0
 40
5.0
 40
5.0
 40
5.0
 40
6.0
 40
6.0
 40
6.0
 40
7.0
 40
7.0
 40
7.0
 40
8.0
 40
8.0
 40
8.0
 40
9.0
 40
9.0
 40
9.0
 40
10.0
 40
10.0
 40
10.0
 40
11.0
 40
11.0
 40
11.0
 40
12.0
 40
12.0
 40
12.0
 40
13.0
 40
13.0
 40
13.0
 40
14.0
 40
14.0
 40
14.0
 40
15.0
 40
15.0
 40
15.0
 40
16.0
 40
16.0
 40
16.0
 40
17.0
 40
17.0
 40
17.0
 40
18.0
 40
18.0
 40
18.0
 40
19.0
 40
19.0
 40
19.0
 40
20.0
 40
20.0
 40
20.0
 40
21.0
 40
21.0
 40
21.0
 40
22.0
 40
22.0
 40
22.0
 40
22.0
 10
96.12815481537768
 20
-127.3472655931632
 10
96.11265188569406
 20
-127.3472655931632
 10
96.09887150375306
 20
-127.3431314785809
 10
96.07165524941959
 20
-127.334690994642
 10
95.92041555761712
 20
-127.3811997836929
 10
95.73506942051068
 20
-127.3980807515706
 10
95.58555227645084
 20
-127.4023871209272
 10
95.58555227645084
 20
-127.4023871209272
 10
95.58348521915968
 20
-127.4912705844466
 10
95.58348521915968
 20
-127.4912705844466
 10
95.58348521915968
 20
-127.4912705844466
 10
95.86150442481934
 20
-127.4912705844466
 10
95.86150442481934
 20
-127.4912705844466
 10
95.91800399077745
 20
-127.4912705844466
 10
96.11265188569406
 20
-127.4826578457335
 10
96.15984969384199
 20
-127.4764566738601
 10
96.15984969384199
 20
-127.4764566738601
 10
96.15984969384199
 20
-127.637170378247
 10
96.15984969384199
 20
-127.637170378247
 10
96.10093856104422
 20
-127.6307969515993
 10
95.96795787531357
 20
-127.6287298943081
 10
95.9269612390391
 20
-127.6307969515993
 10
95.9269612390391
 20
-127.6307969515993
 10
95.9269612390391
 20
-127.740867752353
 10
95.9269612390391
 20
-127.740867752353
 10
95.9269612390391
 20
-127.7873765414039
 10
95.92937280587877
 20
-127.8507662983325
 10
95.93626299684927
 20
-127.8888346034445
 10
95.93626299684927
 20
-127.8888346034445
 10
95.73024628683133
 20
-127.8888346034445
 10
95.73024628683133
 20
-127.8888346034445
 10
95.73713647780183
 20
-127.8486992410413
 10
95.74402666877234
 20
-127.7661892041696
 10
95.74402666877234
 20
-127.751375293583
 10
95.74402666877234
 20
-127.751375293583
 10
95.74402666877234
 20
-127.6307969515993
 10
95.74402666877234
 20
-127.6307969515993
 10
95.74402666877234
 20
-127.6307969515993
 10
95.56763777992754
 20
-127.6307969515993
 10
95.56763777992754
 20
-127.6307969515993
 10
95.52216251952224
 20
-127.8507662983325
 10
95.46359589627299
 20
-127.931209277913
 10
95.3505967643568
 20
-128.0306002826625
 10
95.3505967643568
 20
-128.0306002826625
 10
95.17214081822085
 20
-127.9163953673265
 10
95.17214081822085
 20
-127.9163953673265
 10
95.23966468973175
 20
-127.8678195209844
 10
95.40020613934439
 20
-127.7556816629396
 10
95.40020613934439
 20
-127.4065212355095
 10
95.40020613934439
 20
-127.3240111986377
 10
95.39124889108275
 20
-127.2775024095869
 10
95.3822916428211
 20
-127.2289265632449
 10
95.53800995875439
 20
-127.2437404738314
 10
95.55385739798653
 20
-127.2437404738314
 10
95.59244246742134
 20
-127.2437404738314
 10
95.70750865662868
 20
-127.2437404738314
 10
95.85909285797968
 20
-127.2266872511794
 10
96.03100312269365
 20
-127.165364551542
 10
96.03100312269365
 20
-127.165364551542
 10
96.15330401242001
 20
-127.29662268953
 10
96.15330401242001
 20
-127.29662268953
 10
96.15984969384199
 20
-127.3029961161777
 10
96.16432831797282
 20
-127.3114366001166
 10
96.16432831797282
 20
-127.3198770840554
 10
96.16432831797282
 20
-127.3431314785809
 10
96.14400225460983
 20
-127.3472655931632
 10
96.12815481537768
 20
-127.3472655931632
 97
        0
 97
        0
 92
        1
 93
        1
 72
     4
 94
        3
 73
     0
 74
     1
 95
       74
 96
       70
 40
0.0
 40
0.0
 40
0.0
 40
0.0
 40
1.0
 40
1.0
 40
1.0
 40
2.0
 40
2.0
 40
2.0
 40
3.0
 40
3.0
 40
3.0
 40
4.0
 40
4.0
 40
4.0
 40
5.0
 40
5.0
 40
5.0
 40
6.0
 40
6.0
 40
6.0
 40
7.0
 40
7.0
 40
7.0
 40
8.0
 40
8.0
 40
8.0
 40
9.0
 40
9.0
 40
9.0
 40
10.0
 40
10.0
 40
10.0
 40
11.0
 40
11.0
 40
11.0
 40
12.0
 40
12.0
 40
12.0
 40
13.0
 40
13.0
 40
13.0
 40
14.0
 40
14.0
 40
14.0
 40
15.0
 40
15.0
 40
15.0
 40
16.0
 40
16.0
 40
16.0
 40
17.0
 40
17.0
 40
17.0
 40
18.0
 40
18.0
 40
18.0
 40
19.0
 40
19.0
 40
19.0
 40
20.0
 40
20.0
 40
20.0
 40
21.0
 40
21.0
 40
21.0
 40
22.0
 40
22.0
 40
22.0
 40
23.0
 40
23.0
 40
23.0
 40
23.0
 10
97.02353513199412
 20
-129.1139105579993
 10
96.79512530132206
 20
-129.103230761995
 10
96.58049585259099
 20
-129.0164143557667
 10
96.39273814864488
 20
-128.895836013783
 10
96.39273814864488
 20
-128.895836013783
 10
96.49678003229943
 20
-128.8093641171032
 10
96.49678003229943
 20
-128.8093641171032
 10
96.49678003229943
 20
-128.8093641171032
 10
95.90663517567613
 20
-128.8093641171032
 10
95.90663517567613
 20
-128.8093641171032
 10
95.90663517567613
 20
-128.8093641171032
 10
95.99276256280737
 20
-128.8727538740318
 10
95.99276256280737
 20
-128.8727538740318
 10
95.99930824422934
 20
-128.8768879886141
 10
96.01067705933067
 20
-128.8872232750699
 10
96.01067705933067
 20
-128.902381695205
 10
96.01067705933067
 20
-128.9423448028339
 10
95.93143986316993
 20
-128.9361436309604
 10
95.91559242393777
 20
-128.9340765736693
 10
95.66926809674241
 20
-129.0736029408219
 10
95.51527232855175
 20
-129.1052978192862
 10
95.40468476347522
 20
-129.1221787871639
 10
95.40468476347522
 20
-129.1221787871639
 10
95.26688094406524
 20
-128.944411860125
 10
95.26688094406524
 20
-128.944411860125
 10
95.53111976778389
 20
-128.9127169816607
 10
95.63998478511779
 20
-128.8662081926098
 10
95.73506942051068
 20
-128.8134982316855
 10
95.65583222434994
 20
-128.8155652889767
 10
95.53387584417209
 20
-128.8176323462678
 10
95.49976939886811
 20
-128.819699403559
 10
95.51527232855175
 20
-128.7308159400395
 10
95.51802840493994
 20
-128.6017971141169
 10
95.51802840493994
 20
-128.527727561184
 10
95.51802840493994
 20
-128.527727561184
 10
95.51802840493994
 20
-128.2274874896445
 10
95.51802840493994
 20
-128.2274874896445
 10
95.51802840493994
 20
-128.1279242301208
 10
95.51113821396945
 20
-128.0285332253713
 10
95.49976939886811
 20
-127.931209277913
 10
95.60828990665348
 20
-127.9375827045608
 10
95.85461423384885
 20
-127.9439561312085
 10
95.97002493260472
 20
-127.9439561312085
 10
95.97002493260472
 20
-127.9439561312085
 10
96.4220214602695
 20
-127.9439561312085
 10
96.4220214602695
 20
-127.9439561312085
 10
96.54880097412669
 20
-127.9439561312085
 10
96.59393172498346
 20
-127.9439561312085
 10
96.68212616940586
 20
-127.9396497618519
 10
96.84025605217883
 20
-127.9332763352042
 10
96.85851505825066
 20
-127.9332763352042
 10
96.90846894278678
 20
-127.931209277913
 10
96.8991671849766
 20
-128.0116522574936
 10
96.89468856084578
 20
-128.1702989045894
 10
96.89468856084578
 20
-128.2528089414611
 10
96.89468856084578
 20
-128.2528089414611
 10
96.89468856084578
 20
-128.5384073571883
 10
96.89468856084578
 20
-128.5384073571883
 10
96.89468856084578
 20
-128.6102375980558
 10
96.89675561813692
 20
-128.7414957360438
 10
96.90846894278678
 20
-128.819699403559
 10
96.83129880391718
 20
-128.8155652889767
 10
96.70038517547769
 20
-128.8134982316855
 10
96.61632484563759
 20
-128.8114311743944
 10
96.73414711123313
 20
-128.8789550459053
 10
96.89675561813692
 20
-128.929942459087
 10
97.12275388196932
 20
-128.9340765736693
 10
97.12275388196932
 20
-128.9340765736693
 10
97.02353513199412
 20
-129.1139105579993
 10
97.02353513199412
 20
-129.1139105579993
 97
        0
 97
        0
 92
        1
 93
        4
 72
     1
 10
96.69797360863801
 20
-128.0793483837788
 11
95.72335609586084
 21
-128.0793483837788
 72
     1
 10
95.72335609586084
 20
-128.0793483837788
 11
95.72335609586084
 21
-128.1914862418237
 72
     1
 10
95.72335609586084
 20
-128.1914862418237
 11
96.69797360863801
 21
-128.1914862418237
 72
     1
 10
96.69797360863801
 20
-128.1914862418237
 11
96.69797360863801
 21
-128.0793483837788
 97
        0
 92
        1
 93
        4
 72
     1
 10
96.69797360863801
 20
-128.3246391823286
 11
95.72335609586084
 21
-128.3246391823286
 72
     1
 10
95.72335609586084
 20
-128.3246391823286
 11
95.72335609586084
 21
-128.4347099830823
 72
     1
 10
95.72335609586084
 20
-128.4347099830823
 11
96.69797360863801
 21
-128.4347099830823
 72
     1
 10
96.69797360863801
 20
-128.4347099830823
 11
96.69797360863801
 21
-128.3246391823286
 97
        0
 92
        1
 93
        4
 72
     1
 10
96.69797360863801
 20
-128.5701022356526
 11
95.72335609586084
 21
-128.5701022356526
 72
     1
 10
95.72335609586084
 20
-128.5701022356526
 11
95.72335609586084
 21
-128.6779337243409
 72
     1
 10
95.72335609586084
 20
-128.6779337243409
 11
96.69797360863801
 21
-128.6779337243409
 72
     1
 10
96.69797360863801
 20
-128.6779337243409
 11
96.69797360863801
 21
-128.5701022356526
 97
        0
 92
        1
 93
        1
 72
     4
 94
        3
 73
     0
 74
     1
 95
       74
 96
       70
 40
0.0
 40
0.0
 40
0.0
 40
0.0
 40
1.0
 40
1.0
 40
1.0
 40
2.0
 40
2.0
 40
2.0
 40
3.0
 40
3.0
 40
3.0
 40
4.0
 40
4.0
 40
4.0
 40
5.0
 40
5.0
 40
5.0
 40
6.0
 40
6.0
 40
6.0
 40
7.0
 40
7.0
 40
7.0
 40
8.0
 40
8.0
 40
8.0
 40
9.0
 40
9.0
 40
9.0
 40
10.0
 40
10.0
 40
10.0
 40
11.0
 40
11.0
 40
11.0
 40
12.0
 40
12.0
 40
12.0
 40
13.0
 40
13.0
 40
13.0
 40
14.0
 40
14.0
 40
14.0
 40
15.0
 40
15.0
 40
15.0
 40
16.0
 40
16.0
 40
16.0
 40
17.0
 40
17.0
 40
17.0
 40
18.0
 40
18.0
 40
18.0
 40
19.0
 40
19.0
 40
19.0
 40
20.0
 40
20.0
 40
20.0
 40
21.0
 40
21.0
 40
21.0
 40
22.0
 40
22.0
 40
22.0
 40
23.0
 40
23.0
 40
23.0
 40
23.0
 10
97.03731551393513
 20
-127.626662837017
 10
97.03731551393513
 20
-127.626662837017
 10
96.86506073967263
 20
-127.626662837017
 10
96.86506073967263
 20
-127.626662837017
 10
96.86506073967263
 20
-127.626662837017
 10
96.86506073967263
 20
-127.740867752353
 10
96.86506073967263
 20
-127.740867752353
 10
96.86506073967263
 20
-127.7810031147561
 10
96.87195093064312
 20
-127.855072667689
 10
96.87677406432248
 20
-127.8803941195056
 10
96.87677406432248
 20
-127.8803941195056
 10
96.65043129094157
 20
-127.8803941195056
 10
96.65043129094157
 20
-127.8803941195056
 10
96.66180010604289
 20
-127.8149373052859
 10
96.66386716333403
 20
-127.7556816629396
 10
96.66386716333403
 20
-127.7534423508741
 10
96.66386716333403
 20
-127.7534423508741
 10
96.66386716333403
 20
-127.6307969515993
 10
96.66386716333403
 20
-127.6307969515993
 10
96.66386716333403
 20
-127.6307969515993
 10
96.4716308352571
 20
-127.6307969515993
 10
96.4716308352571
 20
-127.6307969515993
 10
96.45164928144264
 20
-127.6900525939456
 10
96.40203990645504
 20
-127.8359523877459
 10
96.27973901672868
 20
-127.9184624246176
 10
96.27973901672868
 20
-127.9184624246176
 10
96.11265188569406
 20
-127.8126979932204
 10
96.11265188569406
 20
-127.8126979932204
 10
96.19154457230628
 20
-127.7661892041696
 10
96.3159125193238
 20
-127.6921196512367
 10
96.3159125193238
 20
-127.3706922424629
 10
96.3159125193238
 20
-127.3155707146989
 10
96.31108938564445
 20
-127.2711289829392
 10
96.30902232835331
 20
-127.2330606778272
 10
96.3903265818052
 20
-127.241501161766
 10
96.46956377796594
 20
-127.2478745884137
 10
96.53743215902537
 20
-127.2478745884137
 10
96.72725692026263
 20
-127.2478745884137
 10
96.93981931170255
 20
-127.1886189460674
 10
97.00562063547082
 20
-127.1589911248943
 10
97.00562063547082
 20
-127.1589911248943
 10
97.14101288804115
 20
-127.2943833774646
 10
97.14101288804115
 20
-127.2943833774646
 10
97.14549151217196
 20
-127.2986897468212
 10
97.14790307901164
 20
-127.30713023076
 10
97.14790307901164
 20
-127.3135036574077
 10
97.14790307901164
 20
-127.334690994642
 10
97.1320556397795
 20
-127.3410644212897
 10
97.11379663370766
 20
-127.3410644212897
 10
97.09140351305355
 20
-127.3410644212897
 10
97.07555607382139
 20
-127.3326239373509
 10
97.05523001045842
 20
-127.3219441413466
 10
96.86988387335198
 20
-127.3791327264017
 10
96.63699541854909
 20
-127.4044541782183
 10
96.49436846545974
 20
-127.4065212355095
 10
96.49436846545974
 20
-127.4065212355095
 10
96.48988984132892
 20
-127.4890312723812
 10
96.48988984132892
 20
-127.4890312723812
 10
96.48988984132892
 20
-127.4890312723812
 10
96.78168942892958
 20
-127.4890312723812
 10
96.78168942892958
 20
-127.4890312723812
 10
96.8426676190185
 20
-127.4890312723812
 10
97.12275388196932
 20
-127.4700832472123
 10
97.17029619966577
 20
-127.4637098205646
 10
97.17029619966577
 20
-127.4637098205646
 10
97.17029619966577
 20
-127.6328640088904
 10
97.17029619966577
 20
-127.6328640088904
 10
97.13446720661916
 20
-127.6287298943081
 10
97.12068682467816
 20
-127.626662837017
 10
97.03731551393513
 20
-127.626662837017
 97
        0
 97
        0
 75
     2
 76
     1
 98
        0
  0
ENDBLK
  5
56
330
53
100
AcDbEntity
  8
0
100
AcDbBlockEnd
  0
BLOCK
  5
91
330
8F
100
AcDbEntity
  8
0
100
AcDbBlockBegin
  2
block 4
 70
     0
 10
0.0
 20
0.0
 30
0.0
  3
block 4
  1

  0
SPLINE
  5
93
330
8F
100
AcDbEntity
  8
_U+30EC_U+30A4_U+30E4_U+30FC 1
370
     0
100
AcDbSpline
210
0.0
220
0.0
230
1.0
 70
    11
 71
     3
 72
    44
 73
    40
 74
     0
 42
0.0000000001
 43
0.0000000001
 12
1.0
 22
0.0
 32
0.0
 13
1.0
 23
0.0
 33
0.0
 40
0.0
 40
0.0
 40
0.0
 40
0.0
 40
1.0
 40
1.0
 40
1.0
 40
2.0
 40
2.0
 40
2.0
 40
3.0
 40
3.0
 40
3.0
 40
4.0
 40
4.0
 40
4.0
 40
5.0
 40
5.0
 40
5.0
 40
6.0
 40
6.0
 40
6.0
 40
7.0
 40
7.0
 40
7.0
 40
8.0
 40
8.0
 40
8.0
 40
9.0
 40
9.0
 40
9.0
 40
10.0
 40
10.0
 40
10.0
 40
11.0
 40
11.0
 40
11.0
 40
12.0
 40
12.0
 40
12.0
 40
13.0
 40
13.0
 40
13.0
 40
13.0
 10
97.30189884720231
 20
-137.6687716669717
 30
0.0
 10
97.06901039239942
 20
-137.8272460592932
 30
0.0
 10
96.96979164242423
 20
-137.9013156122261
 30
0.0
 10
96.91777070059695
 20
-138.044976093961
 30
0.0
 10
96.91777070059695
 20
-138.044976093961
 30
0.0
 10
97.74976126028479
 20
-138.044976093961
 30
0.0
 10
97.74976126028479
 20
-138.044976093961
 30
0.0
 10
97.74976126028479
 20
-138.044976093961
 30
0.0
 10
97.74976126028479
 20
-138.2503037848819
 30
0.0
 10
97.74976126028479
 20
-138.2503037848819
 30
0.0
 10
97.74976126028479
 20
-138.2503037848819
 30
0.0
 10
96.6507758004901
 20
-138.2503037848819
 30
0.0
 10
96.6507758004901
 20
-138.2503037848819
 30
0.0
 10
96.68488224579406
 20
-137.8927028735129
 30
0.0
 10
96.75481768414463
 20
-137.8144992059978
 30
0.0
 10
97.16650659463198
 20
-137.5161539369751
 30
0.0
 10
97.44004717616083
 20
-137.3173719274762
 30
0.0
 10
97.5099826145114
 20
-137.2498480559653
 30
0.0
 10
97.5099826145114
 20
-137.1120442365553
 30
0.0
 10
97.5099826145114
 20
-136.9935329518627
 30
0.0
 10
97.43350149473885
 20
-136.8626193234232
 30
0.0
 10
97.22300616059009
 20
-136.8626193234232
 30
0.0
 10
96.94498695493043
 20
-136.8626193234232
 30
0.0
 10
96.93602970666878
 20
-137.0930962113865
 30
0.0
 10
96.93120657298942
 20
-137.2095404387879
 30
0.0
 10
96.93120657298942
 20
-137.2095404387879
 30
0.0
 10
96.69142792721604
 20
-137.2095404387879
 30
0.0
 10
96.69142792721604
 20
-137.2095404387879
 30
0.0
 10
96.70072968502622
 20
-137.0824164153822
 30
0.0
 10
96.71209850012754
 20
-136.9704508121116
 30
0.0
 10
96.79788137771025
 20
-136.851939527419
 30
0.0
 10
96.91535913375728
 20
-136.6910535682578
 30
0.0
 10
97.11448565280472
 20
-136.6572916325024
 30
0.0
 10
97.23885359982224
 20
-136.6572916325024
 30
0.0
 10
97.5347873020052
 20
-136.6572916325024
 30
0.0
 10
97.75665145125528
 20
-136.8412597314147
 30
0.0
 10
97.75665145125528
 20
-137.1141112938465
 30
0.0
 10
97.75665145125528
 20
-137.3428656340671
 30
0.0
 10
97.63193899468924
 20
-137.4420843840423
 30
0.0
 10
97.30189884720231
 20
-137.6687716669717
 30
0.0
  0
HATCH
  5
94
330
8F
100
AcDbEntity
  8
_U+30EC_U+30A4_U+30E4_U+30FC 1
 62
   179
420
  2234388
100
AcDbHatch
 10
0.0
 20
0.0
 30
0.0
210
0.0
220
0.0
230
1.0
  2
SOLID
 70
     1
 71
     0
 91
        1
 92
        1
 93
        1
 72
     4
 94
        3
 73
     0
 74
     1
 95
       44
 96
       40
 40
0.0
 40
0.0
 40
0.0
 40
0.0
 40
1.0
 40
1.0
 40
1.0
 40
2.0
 40
2.0
 40
2.0
 40
3.0
 40
3.0
 40
3.0
 40
4.0
 40
4.0
 40
4.0
 40
5.0
 40
5.0
 40
5.0
 40
6.0
 40
6.0
 40
6.0
 40
7.0
 40
7.0
 40
7.0
 40
8.0
 40
8.0
 40
8.0
 40
9.0
 40
9.0
 40
9.0
 40
10.0
 40
10.0
 40
10.0
 40
11.0
 40
11.0
 40
11.0
 40
12.0
 40
12.0
 40
12.0
 40
13.0
 40
13.0
 40
13.0
 40
13.0
 10
97.30189884720231
 20
-137.6687716669717
 10
97.06901039239942
 20
-137.8272460592932
 10
96.96979164242423
 20
-137.9013156122261
 10
96.91777070059695
 20
-138.044976093961
 10
96.91777070059695
 20
-138.044976093961
 10
97.74976126028479
 20
-138.044976093961
 10
97.74976126028479
 20
-138.044976093961
 10
97.74976126028479
 20
-138.044976093961
 10
97.74976126028479
 20
-138.2503037848819
 10
97.74976126028479
 20
-138.2503037848819
 10
97.74976126028479
 20
-138.2503037848819
 10
96.6507758004901
 20
-138.2503037848819
 10
96.6507758004901
 20
-138.2503037848819
 10
96.68488224579406
 20
-137.8927028735129
 10
96.75481768414463
 20
-137.8144992059978
 10
97.16650659463198
 20
-137.5161539369751
 10
97.44004717616083
 20
-137.3173719274762
 10
97.5099826145114
 20
-137.2498480559653
 10
97.5099826145114
 20
-137.1120442365553
 10
97.5099826145114
 20
-136.9935329518627
 10
97.43350149473885
 20
-136.8626193234232
 10
97.22300616059009
 20
-136.8626193234232
 10
96.94498695493043
 20
-136.8626193234232
 10
96.93602970666878
 20
-137.0930962113865
 10
96.93120657298942
 20
-137.2095404387879
 10
96.93120657298942
 20
-137.2095404387879
 10
96.69142792721604
 20
-137.2095404387879
 10
96.69142792721604
 20
-137.2095404387879
 10
96.70072968502622
 20
-137.0824164153822
 10
96.71209850012754
 20
-136.9704508121116
 10
96.79788137771025
 20
-136.851939527419
 10
96.91535913375728
 20
-136.6910535682578
 10
97.11448565280472
 20
-136.6572916325024
 10
97.23885359982224
 20
-136.6572916325024
 10
97.5347873020052
 20
-136.6572916325024
 10
97.75665145125528
 20
-136.8412597314147
 10
97.75665145125528
 20
-137.1141112938465
 10
97.75665145125528
 20
-137.3428656340671
 10
97.63193899468924
 20
-137.4420843840423
 10
97.30189884720231
 20
-137.6687716669717
 97
        0
 97
        0
 75
     2
 76
     1
 98
        0
  0
SPLINE
  5
95
330
8F
100
AcDbEntity
  8
_U+30EC_U+30A4_U+30E4_U+30FC 1
370
     0
100
AcDbSpline
210
0.0
220
0.0
230
1.0
 70
    11
 71
     3
 72
    62
 73
    58
 74
     0
 42
0.0000000001
 43
0.0000000001
 12
1.0
 22
0.0
 32
0.0
 13
1.0
 23
0.0
 33
0.0
 40
0.0
 40
0.0
 40
0.0
 40
0.0
 40
1.0
 40
1.0
 40
1.0
 40
2.0
 40
2.0
 40
2.0
 40
3.0
 40
3.0
 40
3.0
 40
4.0
 40
4.0
 40
4.0
 40
5.0
 40
5.0
 40
5.0
 40
6.0
 40
6.0
 40
6.0
 40
7.0
 40
7.0
 40
7.0
 40
8.0
 40
8.0
 40
8.0
 40
9.0
 40
9.0
 40
9.0
 40
10.0
 40
10.0
 40
10.0
 40
11.0
 40
11.0
 40
11.0
 40
12.0
 40
12.0
 40
12.0
 40
13.0
 40
13.0
 40
13.0
 40
14.0
 40
14.0
 40
14.0
 40
15.0
 40
15.0
 40
15.0
 40
16.0
 40
16.0
 40
16.0
 40
17.0
 40
17.0
 40
17.0
 40
18.0
 40
18.0
 40
18.0
 40
19.0
 40
19.0
 40
19.0
 40
19.0
 10
98.45118270108165
 20
-138.3012911980636
 30
0.0
 10
98.34989689381531
 20
-138.3012911980636
 30
0.0
 10
98.11700843901242
 20
-138.279931606055
 30
0.0
 10
97.98333873418473
 20
-138.0938964498515
 30
0.0
 10
97.90410153802398
 20
-137.9815863370324
 30
0.0
 10
97.89996742344168
 20
-137.8823675870572
 30
0.0
 10
97.89514428976233
 20
-137.79761823812
 30
0.0
 10
97.89514428976233
 20
-137.79761823812
 30
0.0
 10
98.13009980185637
 20
-137.79761823812
 30
0.0
 10
98.13009980185637
 20
-137.79761823812
 30
0.0
 10
98.13285587824457
 20
-137.8716877910529
 30
0.0
 10
98.14388018379736
 20
-138.1062987935984
 30
0.0
 10
98.44704858649935
 20
-138.1062987935984
 30
0.0
 10
98.593809654171
 20
-138.1062987935984
 30
0.0
 10
98.75641816107479
 20
-138.0367078647964
 30
0.0
 10
98.75641816107479
 20
-137.8079535245758
 30
0.0
 10
98.75641816107479
 20
-137.6918538067229
 30
0.0
 10
98.71576603434885
 20
-137.6432779603809
 30
0.0
 10
98.6820040985934
 20
-137.6115830819166
 30
0.0
 10
98.60276690243265
 20
-137.5371690194352
 30
0.0
 10
98.47874346496366
 20
-137.5247666756883
 30
0.0
 10
98.41948782261736
 20
-137.5247666756883
 30
0.0
 10
98.39950626880291
 20
-137.5247666756883
 30
0.0
 10
98.36092119936811
 20
-137.5268337329794
 30
0.0
 10
98.33163788774348
 20
-137.5309678475617
 30
0.0
 10
98.33163788774348
 20
-137.5309678475617
 30
0.0
 10
98.33163788774348
 20
-137.3363199526451
 30
0.0
 10
98.33163788774348
 20
-137.3363199526451
 30
0.0
 10
98.37229001446943
 20
-137.3428656340671
 30
0.0
 10
98.4174207653262
 20
-137.3449326913582
 30
0.0
 10
98.42431095629671
 20
-137.3449326913582
 30
0.0
 10
98.4945909041958
 20
-137.3449326913582
 30
0.0
 10
98.7068087860872
 20
-137.3235730993497
 30
0.0
 10
98.7068087860872
 20
-137.0865505299645
 30
0.0
 10
98.7068087860872
 20
-136.9091281124741
 30
0.0
 10
98.56693790938604
 20
-136.8540065847101
 30
0.0
 10
98.4491156437905
 20
-136.8540065847101
 30
0.0
 10
98.16661781400002
 20
-136.8540065847101
 30
0.0
 10
98.15766056573837
 20
-137.0865505299645
 30
0.0
 10
98.15283743205902
 20
-137.1588975351547
 30
0.0
 10
98.15283743205902
 20
-137.1588975351547
 30
0.0
 10
97.93579641648827
 20
-137.1588975351547
 30
0.0
 10
97.93579641648827
 20
-137.1588975351547
 30
0.0
 10
97.94475366474992
 20
-137.0338405690402
 30
0.0
 10
97.97438148592308
 20
-136.6572916325024
 30
0.0
 10
98.4628960257315
 20
-136.6572916325024
 30
0.0
 10
98.70233016195637
 20
-136.6572916325024
 30
0.0
 10
98.96002330425306
 20
-136.7840711463595
 30
0.0
 10
98.96002330425306
 20
-137.080349358091
 30
0.0
 10
98.96002330425306
 20
-137.2663845142945
 30
0.0
 10
98.85839298743818
 20
-137.3490668059405
 30
0.0
 10
98.75228404649249
 20
-137.410389505578
 30
0.0
 10
98.81774086071223
 20
-137.43795026946
 30
0.0
 10
99.01204424608032
 20
-137.5185655038148
 30
0.0
 10
99.01204424608032
 20
-137.7955511808289
 30
0.0
 10
99.01204424608032
 20
-138.1338595574804
 30
0.0
 10
98.74746091281314
 20
-138.3012911980636
 30
0.0
 10
98.45118270108165
 20
-138.3012911980636
 30
0.0
  0
HATCH
  5
96
330
8F
100
AcDbEntity
  8
_U+30EC_U+30A4_U+30E4_U+30FC 1
 62
   179
420
  2234388
100
AcDbHatch
 10
0.0
 20
0.0
 30
0.0
210
0.0
220
0.0
230
1.0
  2
SOLID
 70
     1
 71
     0
 91
        1
 92
        1
 93
        1
 72
     4
 94
        3
 73
     0
 74
     1
 95
       62
 96
       58
 40
0.0
 40
0.0
 40
0.0
 40
0.0
 40
1.0
 40
1.0
 40
1.0
 40
2.0
 40
2.0
 40
2.0
 40
3.0
 40
3.0
 40
3.0
 40
4.0
 40
4.0
 40
4.0
 40
5.0
 40
5.0
 40
5.0
 40
6.0
 40
6.0
 40
6.0
 40
7.0
 40
7.0
 40
7.0
 40
8.0
 40
8.0
 40
8.0
 40
9.0
 40
9.0
 40
9.0
 40
10.0
 40
10.0
 40
10.0
 40
11.0
 40
11.0
 40
11.0
 40
12.0
 40
12.0
 40
12.0
 40
13.0
 40
13.0
 40
13.0
 40
14.0
 40
14.0
 40
14.0
 40
15.0
 40
15.0
 40
15.0
 40
16.0
 40
16.0
 40
16.0
 40
17.0
 40
17.0
 40
17.0
 40
18.0
 40
18.0
 40
18.0
 40
19.0
 40
19.0
 40
19.0
 40
19.0
 10
98.45118270108165
 20
-138.3012911980636
 10
98.34989689381531
 20
-138.3012911980636
 10
98.11700843901242
 20
-138.279931606055
 10
97.98333873418473
 20
-138.0938964498515
 10
97.90410153802398
 20
-137.9815863370324
 10
97.89996742344168
 20
-137.8823675870572
 10
97.89514428976233
 20
-137.79761823812
 10
97.89514428976233
 20
-137.79761823812
 10
98.13009980185637
 20
-137.79761823812
 10
98.13009980185637
 20
-137.79761823812
 10
98.13285587824457
 20
-137.8716877910529
 10
98.14388018379736
 20
-138.1062987935984
 10
98.44704858649935
 20
-138.1062987935984
 10
98.593809654171
 20
-138.1062987935984
 10
98.75641816107479
 20
-138.0367078647964
 10
98.75641816107479
 20
-137.8079535245758
 10
98.75641816107479
 20
-137.6918538067229
 10
98.71576603434885
 20
-137.6432779603809
 10
98.6820040985934
 20
-137.6115830819166
 10
98.60276690243265
 20
-137.5371690194352
 10
98.47874346496366
 20
-137.5247666756883
 10
98.41948782261736
 20
-137.5247666756883
 10
98.39950626880291
 20
-137.5247666756883
 10
98.36092119936811
 20
-137.5268337329794
 10
98.33163788774348
 20
-137.5309678475617
 10
98.33163788774348
 20
-137.5309678475617
 10
98.33163788774348
 20
-137.3363199526451
 10
98.33163788774348
 20
-137.3363199526451
 10
98.37229001446943
 20
-137.3428656340671
 10
98.4174207653262
 20
-137.3449326913582
 10
98.42431095629671
 20
-137.3449326913582
 10
98.4945909041958
 20
-137.3449326913582
 10
98.7068087860872
 20
-137.3235730993497
 10
98.7068087860872
 20
-137.0865505299645
 10
98.7068087860872
 20
-136.9091281124741
 10
98.56693790938604
 20
-136.8540065847101
 10
98.4491156437905
 20
-136.8540065847101
 10
98.16661781400002
 20
-136.8540065847101
 10
98.15766056573837
 20
-137.0865505299645
 10
98.15283743205902
 20
-137.1588975351547
 10
98.15283743205902
 20
-137.1588975351547
 10
97.93579641648827
 20
-137.1588975351547
 10
97.93579641648827
 20
-137.1588975351547
 10
97.94475366474992
 20
-137.0338405690402
 10
97.97438148592308
 20
-136.6572916325024
 10
98.4628960257315
 20
-136.6572916325024
 10
98.70233016195637
 20
-136.6572916325024
 10
98.96002330425306
 20
-136.7840711463595
 10
98.96002330425306
 20
-137.080349358091
 10
98.96002330425306
 20
-137.2663845142945
 10
98.85839298743818
 20
-137.3490668059405
 10
98.75228404649249
 20
-137.410389505578
 10
98.81774086071223
 20
-137.43795026946
 10
99.01204424608032
 20
-137.5185655038148
 10
99.01204424608032
 20
-137.7955511808289
 10
99.01204424608032
 20
-138.1338595574804
 10
98.74746091281314
 20
-138.3012911980636
 10
98.45118270108165
 20
-138.3012911980636
 97
        0
 97
        0
 75
     2
 76
     1
 98
        0
  0
POLYLINE
  5
97
330
8F
100
AcDbEntity
  8
_U+30EC_U+30A4_U+30E4_U+30FC 1
370
     0
100
AcDb2dPolyline
 66
     1
 10
0.0
 20
0.0
 30
0.0
  0
VERTEX
  5
98
330
97
100
AcDbEntity
  8
_U+30EC_U+30A4_U+30E4_U+30FC 1
370
     0
100
AcDbVertex
100
AcDb2dVertex
 10
99.24803328681995
 20
-138.2503037848819
 30
0.0
  0
VERTEX
  5
99
330
97
100
AcDbEntity
  8
_U+30EC_U+30A4_U+30E4_U+30FC 1
370
     0
100
AcDbVertex
100
AcDb2dVertex
 10
99.24803328681995
 20
-137.9988118144586
 30
0.0
  0
VERTEX
  5
9A
330
97
100
AcDbEntity
  8
_U+30EC_U+30A4_U+30E4_U+30FC 1
370
     0
100
AcDbVertex
100
AcDb2dVertex
 10
99.51709524421796
 20
-137.9988118144586
 30
0.0
  0
VERTEX
  5
9B
330
97
100
AcDbEntity
  8
_U+30EC_U+30A4_U+30E4_U+30FC 1
370
     0
100
AcDbVertex
100
AcDb2dVertex
 10
99.51709524421796
 20
-138.2503037848819
 30
0.0
  0
VERTEX
  5
9C
330
97
100
AcDbEntity
  8
_U+30EC_U+30A4_U+30E4_U+30FC 1
370
     0
100
AcDbVertex
100
AcDb2dVertex
 10
99.24803328681995
 20
-138.2503037848819
 30
0.0
  0
SEQEND
  5
9D
330
97
100
AcDbEntity
  8
_U+30EC_U+30A4_U+30E4_U+30FC 1
370
     0
  0
HATCH
  5
9E
330
8F
100
AcDbEntity
  8
_U+30EC_U+30A4_U+30E4_U+30FC 1
 62
   179
420
  2234388
100
AcDbHatch
 10
0.0
 20
0.0
 30
0.0
210
0.0
220
0.0
230
1.0
  2
SOLID
 70
     1
 71
     0
 91
        1
 92
        1
 93
        4
 72
     1
 10
99.24803328681995
 20
-138.2503037848819
 11
99.24803328681995
 21
-137.9988118144586
 72
     1
 10
99.24803328681995
 20
-137.9988118144586
 11
99.51709524421796
 21
-137.9988118144586
 72
     1
 10
99.51709524421796
 20
-137.9988118144586
 11
99.51709524421796
 21
-138.2503037848819
 72
     1
 10
99.51709524421796
 20
-138.2503037848819
 11
99.24803328681995
 21
-138.2503037848819
 97
        0
 75
     2
 76
     1
 98
        0
  0
SPLINE
  5
9F
330
8F
100
AcDbEntity
  8
_U+30EC_U+30A4_U+30E4_U+30FC 1
370
     0
100
AcDbSpline
210
0.0
220
0.0
230
1.0
 70
    11
 71
     3
 72
    53
 73
    49
 74
     0
 42
0.0000000001
 43
0.0000000001
 12
1.0
 22
0.0
 32
0.0
 13
1.0
 23
0.0
 33
0.0
 40
0.0
 40
0.0
 40
0.0
 40
0.0
 40
1.0
 40
1.0
 40
1.0
 40
2.0
 40
2.0
 40
2.0
 40
3.0
 40
3.0
 40
3.0
 40
4.0
 40
4.0
 40
4.0
 40
5.0
 40
5.0
 40
5.0
 40
6.0
 40
6.0
 40
6.0
 40
7.0
 40
7.0
 40
7.0
 40
8.0
 40
8.0
 40
8.0
 40
9.0
 40
9.0
 40
9.0
 40
10.0
 40
10.0
 40
10.0
 40
11.0
 40
11.0
 40
11.0
 40
12.0
 40
12.0
 40
12.0
 40
13.0
 40
13.0
 40
13.0
 40
14.0
 40
14.0
 40
14.0
 40
15.0
 40
15.0
 40
15.0
 40
16.0
 40
16.0
 40
16.0
 40
16.0
 10
100.2839734992346
 20
-138.3012911980636
 30
0.0
 10
100.1999131693945
 20
-138.3012911980636
 30
0.0
 10
100.0917371711576
 20
-138.2840657206373
 30
0.0
 10
99.98287215382373
 20
-138.2206759637087
 30
0.0
 10
99.79752601671728
 20
-138.1104329081807
 30
0.0
 10
99.77478838651464
 20
-137.9795192797412
 30
0.0
 10
99.7548068327002
 20
-137.8716877910529
 30
0.0
 10
99.7548068327002
 20
-137.8716877910529
 30
0.0
 10
99.99182940208539
 20
-137.8716877910529
 30
0.0
 10
99.99182940208539
 20
-137.8716877910529
 30
0.0
 10
100.0510850444317
 20
-138.0704698005518
 30
0.0
 10
100.186477297002
 20
-138.100097621725
 30
0.0
 10
100.2860405565257
 20
-138.100097621725
 30
0.0
 10
100.435213191037
 20
-138.100097621725
 30
0.0
 10
100.5981662074894
 20
-138.0008788717498
 30
0.0
 10
100.5981662074894
 20
-137.7679904169469
 30
0.0
 10
100.5981662074894
 20
-137.5120198223928
 30
0.0
 10
100.4059298794124
 20
-137.4420843840423
 30
0.0
 10
100.2770833082641
 20
-137.4420843840423
 30
0.0
 10
100.2429768629601
 20
-137.4420843840423
 30
0.0
 10
100.0917371711576
 20
-137.4420843840423
 30
0.0
 10
99.99665253576472
 20
-137.5712754647391
 30
0.0
 10
99.99665253576472
 20
-137.5712754647391
 30
0.0
 10
99.80889483181862
 20
-137.5523274395703
 30
0.0
 10
99.80889483181862
 20
-137.5523274395703
 30
0.0
 10
99.80889483181862
 20
-137.5523274395703
 30
0.0
 10
99.93808591251549
 20
-136.7062119883929
 30
0.0
 10
99.93808591251549
 20
-136.7062119883929
 30
0.0
 10
99.93808591251549
 20
-136.7062119883929
 30
0.0
 10
100.7697319626548
 20
-136.7062119883929
 30
0.0
 10
100.7697319626548
 20
-136.7062119883929
 30
0.0
 10
100.7697319626548
 20
-136.7062119883929
 30
0.0
 10
100.7697319626548
 20
-136.900515373761
 30
0.0
 10
100.7697319626548
 20
-136.900515373761
 30
0.0
 10
100.7697319626548
 20
-136.900515373761
 30
0.0
 10
100.1117187249721
 20
-136.900515373761
 30
0.0
 10
100.1117187249721
 20
-136.900515373761
 30
0.0
 10
100.1117187249721
 20
-136.900515373761
 30
0.0
 10
100.0417832866215
 20
-137.3235730993497
 30
0.0
 10
100.0417832866215
 20
-137.3235730993497
 30
0.0
 10
100.1075846103898
 20
-137.2898111635942
 30
0.0
 10
100.1957790548122
 20
-137.2498480559653
 30
0.0
 10
100.3222140591208
 20
-137.2498480559653
 30
0.0
 10
100.59334307381
 20
-137.2498480559653
 30
0.0
 10
100.8469021015244
 20
-137.4358832121688
 30
0.0
 10
100.8469021015244
 20
-137.7486978822295
 30
0.0
 10
100.8469021015244
 20
-138.0663356859695
 30
0.0
 10
100.607123455751
 20
-138.3012911980636
 30
0.0
 10
100.2839734992346
 20
-138.3012911980636
 30
0.0
  0
HATCH
  5
A0
330
8F
100
AcDbEntity
  8
_U+30EC_U+30A4_U+30E4_U+30FC 1
 62
   179
420
  2234388
100
AcDbHatch
 10
0.0
 20
0.0
 30
0.0
210
0.0
220
0.0
230
1.0
  2
SOLID
 70
     1
 71
     0
 91
        1
 92
        1
 93
        1
 72
     4
 94
        3
 73
     0
 74
     1
 95
       53
 96
       49
 40
0.0
 40
0.0
 40
0.0
 40
0.0
 40
1.0
 40
1.0
 40
1.0
 40
2.0
 40
2.0
 40
2.0
 40
3.0
 40
3.0
 40
3.0
 40
4.0
 40
4.0
 40
4.0
 40
5.0
 40
5.0
 40
5.0
 40
6.0
 40
6.0
 40
6.0
 40
7.0
 40
7.0
 40
7.0
 40
8.0
 40
8.0
 40
8.0
 40
9.0
 40
9.0
 40
9.0
 40
10.0
 40
10.0
 40
10.0
 40
11.0
 40
11.0
 40
11.0
 40
12.0
 40
12.0
 40
12.0
 40
13.0
 40
13.0
 40
13.0
 40
14.0
 40
14.0
 40
14.0
 40
15.0
 40
15.0
 40
15.0
 40
16.0
 40
16.0
 40
16.0
 40
16.0
 10
100.2839734992346
 20
-138.3012911980636
 10
100.1999131693945
 20
-138.3012911980636
 10
100.0917371711576
 20
-138.2840657206373
 10
99.98287215382373
 20
-138.2206759637087
 10
99.79752601671728
 20
-138.1104329081807
 10
99.77478838651464
 20
-137.9795192797412
 10
99.7548068327002
 20
-137.8716877910529
 10
99.7548068327002
 20
-137.8716877910529
 10
99.99182940208539
 20
-137.8716877910529
 10
99.99182940208539
 20
-137.8716877910529
 10
100.0510850444317
 20
-138.0704698005518
 10
100.186477297002
 20
-138.100097621725
 10
100.2860405565257
 20
-138.100097621725
 10
100.435213191037
 20
-138.100097621725
 10
100.5981662074894
 20
-138.0008788717498
 10
100.5981662074894
 20
-137.7679904169469
 10
100.5981662074894
 20
-137.5120198223928
 10
100.4059298794124
 20
-137.4420843840423
 10
100.2770833082641
 20
-137.4420843840423
 10
100.2429768629601
 20
-137.4420843840423
 10
100.0917371711576
 20
-137.4420843840423
 10
99.99665253576472
 20
-137.5712754647391
 10
99.99665253576472
 20
-137.5712754647391
 10
99.80889483181862
 20
-137.5523274395703
 10
99.80889483181862
 20
-137.5523274395703
 10
99.80889483181862
 20
-137.5523274395703
 10
99.93808591251549
 20
-136.7062119883929
 10
99.93808591251549
 20
-136.7062119883929
 10
99.93808591251549
 20
-136.7062119883929
 10
100.7697319626548
 20
-136.7062119883929
 10
100.7697319626548
 20
-136.7062119883929
 10
100.7697319626548
 20
-136.7062119883929
 10
100.7697319626548
 20
-136.900515373761
 10
100.7697319626548
 20
-136.900515373761
 10
100.7697319626548
 20
-136.900515373761
 10
100.1117187249721
 20
-136.900515373761
 10
100.1117187249721
 20
-136.900515373761
 10
100.1117187249721
 20
-136.900515373761
 10
100.0417832866215
 20
-137.3235730993497
 10
100.0417832866215
 20
-137.3235730993497
 10
100.1075846103898
 20
-137.2898111635942
 10
100.1957790548122
 20
-137.2498480559653
 10
100.3222140591208
 20
-137.2498480559653
 10
100.59334307381
 20
-137.2498480559653
 10
100.8469021015244
 20
-137.4358832121688
 10
100.8469021015244
 20
-137.7486978822295
 10
100.8469021015244
 20
-138.0663356859695
 10
100.607123455751
 20
-138.3012911980636
 10
100.2839734992346
 20
-138.3012911980636
 97
        0
 97
        0
 75
     2
 76
     1
 98
        0
  0
ENDBLK
  5
92
330
8F
100
AcDbEntity
  8
0
100
AcDbBlockEnd
  0
BLOCK
  5
A3
330
A1
100
AcDbEntity
  8
0
100
AcDbBlockBegin
  2
block 5
 70
     0
 10
0.0
 20
0.0
 30
0.0
  3
block 5
  1

  0
SPLINE
  5
A5
330
A1
100
AcDbEntity
  8
_U+30EC_U+30A4_U+30E4_U+30FC 1
370
     0
100
AcDbSpline
210
0.0
220
0.0
230
1.0
 70
    11
 71
     3
 72
    26
 73
    22
 74
     0
 42
0.0000000001
 43
0.0000000001
 12
1.0
 22
0.0
 32
0.0
 13
1.0
 23
0.0
 33
0.0
 40
0.0
 40
0.0
 40
0.0
 40
0.0
 40
1.0
 40
1.0
 40
1.0
 40
2.0
 40
2.0
 40
2.0
 40
3.0
 40
3.0
 40
3.0
 40
4.0
 40
4.0
 40
4.0
 40
5.0
 40
5.0
 40
5.0
 40
6.0
 40
6.0
 40
6.0
 40
7.0
 40
7.0
 40
7.0
 40
7.0
 10
78.47686358715163
 20
-128.755448372759
 30
0.0
 10
78.47686358715163
 20
-128.755448372759
 30
0.0
 10
77.37253822935479
 20
-128.755448372759
 30
0.0
 10
77.37253822935479
 20
-128.755448372759
 30
0.0
 10
77.37253822935479
 20
-128.755448372759
 30
0.0
 10
77.37253822935479
 20
-129.1083984052229
 30
0.0
 10
77.37253822935479
 20
-129.1083984052229
 30
0.0
 10
77.37253822935479
 20
-129.1083984052229
 30
0.0
 10
77.2245713782633
 20
-129.1083984052229
 30
0.0
 10
77.2245713782633
 20
-129.1083984052229
 30
0.0
 10
77.20975746767672
 20
-128.7532090606936
 30
0.0
 10
77.04680445122442
 20
-128.7034274309318
 30
0.0
 10
76.93259953588839
 20
-128.6719048072418
 30
0.0
 10
76.93259953588839
 20
-128.6719048072418
 30
0.0
 10
76.93259953588839
 20
-128.5158419817599
 30
0.0
 10
76.93259953588839
 20
-128.5158419817599
 30
0.0
 10
76.93259953588839
 20
-128.5158419817599
 30
0.0
 10
78.47686358715163
 20
-128.5158419817599
 30
0.0
 10
78.47686358715163
 20
-128.5158419817599
 30
0.0
 10
78.47686358715163
 20
-128.5158419817599
 30
0.0
 10
78.47686358715163
 20
-128.755448372759
 30
0.0
 10
78.47686358715163
 20
-128.755448372759
 30
0.0
  0
HATCH
  5
A6
330
A1
100
AcDbEntity
  8
_U+30EC_U+30A4_U+30E4_U+30FC 1
 62
   179
420
  2234388
100
AcDbHatch
 10
0.0
 20
0.0
 30
0.0
210
0.0
220
0.0
230
1.0
  2
SOLID
 70
     1
 71
     0
 91
        1
 92
        1
 93
        1
 72
     4
 94
        3
 73
     0
 74
     1
 95
       26
 96
       22
 40
0.0
 40
0.0
 40
0.0
 40
0.0
 40
1.0
 40
1.0
 40
1.0
 40
2.0
 40
2.0
 40
2.0
 40
3.0
 40
3.0
 40
3.0
 40
4.0
 40
4.0
 40
4.0
 40
5.0
 40
5.0
 40
5.0
 40
6.0
 40
6.0
 40
6.0
 40
7.0
 40
7.0
 40
7.0
 40
7.0
 10
78.47686358715163
 20
-128.755448372759
 10
78.47686358715163
 20
-128.755448372759
 10
77.37253822935479
 20
-128.755448372759
 10
77.37253822935479
 20
-128.755448372759
 10
77.37253822935479
 20
-128.755448372759
 10
77.37253822935479
 20
-129.1083984052229
 10
77.37253822935479
 20
-129.1083984052229
 10
77.37253822935479
 20
-129.1083984052229
 10
77.2245713782633
 20
-129.1083984052229
 10
77.2245713782633
 20
-129.1083984052229
 10
77.20975746767672
 20
-128.7532090606936
 10
77.04680445122442
 20
-128.7034274309318
 10
76.93259953588839
 20
-128.6719048072418
 10
76.93259953588839
 20
-128.6719048072418
 10
76.93259953588839
 20
-128.5158419817599
 10
76.93259953588839
 20
-128.5158419817599
 10
76.93259953588839
 20
-128.5158419817599
 10
78.47686358715163
 20
-128.5158419817599
 10
78.47686358715163
 20
-128.5158419817599
 10
78.47686358715163
 20
-128.5158419817599
 10
78.47686358715163
 20
-128.755448372759
 10
78.47686358715163
 20
-128.755448372759
 97
        0
 97
        0
 75
     2
 76
     1
 98
        0
  0
SPLINE
  5
A7
330
A1
100
AcDbEntity
  8
_U+30EC_U+30A4_U+30E4_U+30FC 1
370
     0
100
AcDbSpline
210
0.0
220
0.0
230
1.0
 70
    11
 71
     3
 72
    29
 73
    25
 74
     0
 42
0.0000000001
 43
0.0000000001
 12
1.0
 22
0.0
 32
0.0
 13
1.0
 23
0.0
 33
0.0
 40
0.0
 40
0.0
 40
0.0
 40
0.0
 40
1.0
 40
1.0
 40
1.0
 40
2.0
 40
2.0
 40
2.0
 40
3.0
 40
3.0
 40
3.0
 40
4.0
 40
4.0
 40
4.0
 40
5.0
 40
5.0
 40
5.0
 40
6.0
 40
6.0
 40
6.0
 40
7.0
 40
7.0
 40
7.0
 40
8.0
 40
8.0
 40
8.0
 40
8.0
 10
78.29909666011272
 20
-127.0206705411615
 30
0.0
 10
78.50855846561592
 20
-127.1359089851431
 30
0.0
 10
78.52767874555906
 20
-127.3212551222496
 30
0.0
 10
78.52767874555906
 20
-127.4456230692671
 30
0.0
 10
78.52767874555906
 20
-127.617533333981
 30
0.0
 10
78.48116995650818
 20
-127.7689452805578
 30
0.0
 10
78.29909666011272
 20
-127.8707478521469
 30
0.0
 10
78.10444876519611
 20
-127.9815076719977
 30
0.0
 10
77.86759845058519
 20
-128.0018337353607
 30
0.0
 10
77.70464543413287
 20
-128.0018337353607
 30
0.0
 10
77.56081269762369
 20
-128.0018337353607
 30
0.0
 10
77.30914847242619
 20
-127.9837469840631
 30
0.0
 10
77.110194208153
 20
-127.8707478521469
 30
0.0
 10
76.90710582929754
 20
-127.755337153391
 30
0.0
 10
76.8838514347721
 20
-127.5835991434513
 30
0.0
 10
76.8838514347721
 20
-127.4456230692671
 30
0.0
 10
76.8838514347721
 20
-127.2761243713928
 30
0.0
 10
76.92829316653182
 20
-127.1223008579764
 30
0.0
 10
77.110194208153
 20
-127.0206705411615
 30
0.0
 10
77.30277504577847
 20
-126.9143893454415
 30
0.0
 10
77.53118487645054
 20
-126.8894124031735
 30
0.0
 10
77.70464543413287
 20
-126.8894124031735
 30
0.0
 10
77.87603893452405
 20
-126.8894124031735
 30
0.0
 10
78.10668807726152
 20
-126.9121500333761
 30
0.0
 10
78.29909666011272
 20
-127.0206705411615
 30
0.0
  0
SPLINE
  5
A8
330
A1
100
AcDbEntity
  8
_U+30EC_U+30A4_U+30E4_U+30FC 1
370
     0
100
AcDbSpline
210
0.0
220
0.0
230
1.0
 70
    11
 71
     3
 72
    17
 73
    13
 74
     0
 42
0.0000000001
 43
0.0000000001
 12
1.0
 22
0.0
 32
0.0
 13
1.0
 23
0.0
 33
0.0
 40
0.0
 40
0.0
 40
0.0
 40
0.0
 40
1.0
 40
1.0
 40
1.0
 40
2.0
 40
2.0
 40
2.0
 40
3.0
 40
3.0
 40
3.0
 40
4.0
 40
4.0
 40
4.0
 40
4.0
 10
77.07643227239757
 20
-127.4456230692671
 30
0.0
 10
77.07643227239757
 20
-127.7124457145997
 30
0.0
 10
77.35996363083362
 20
-127.7622273443615
 30
0.0
 10
77.70464543413287
 20
-127.7622273443615
 30
0.0
 10
78.0241780403898
 20
-127.7622273443615
 30
0.0
 10
78.33303085064244
 20
-127.723814529701
 30
0.0
 10
78.33303085064244
 20
-127.4456230692671
 30
0.0
 10
78.33303085064244
 20
-127.1812119907741
 30
0.0
 10
78.05156654949752
 20
-127.1291910489469
 30
0.0
 10
77.70464543413287
 20
-127.1291910489469
 30
0.0
 10
77.38528508265021
 20
-127.1291910489469
 30
0.0
 10
77.07643227239757
 20
-127.1698431756728
 30
0.0
 10
77.07643227239757
 20
-127.4456230692671
 30
0.0
  0
HATCH
  5
A9
330
A1
100
AcDbEntity
  8
_U+30EC_U+30A4_U+30E4_U+30FC 1
 62
   179
420
  2234388
100
AcDbHatch
 10
0.0
 20
0.0
 30
0.0
210
0.0
220
0.0
230
1.0
  2
SOLID
 70
     1
 71
     0
 91
        2
 92
        1
 93
        1
 72
     4
 94
        3
 73
     0
 74
     1
 95
       29
 96
       25
 40
0.0
 40
0.0
 40
0.0
 40
0.0
 40
1.0
 40
1.0
 40
1.0
 40
2.0
 40
2.0
 40
2.0
 40
3.0
 40
3.0
 40
3.0
 40
4.0
 40
4.0
 40
4.0
 40
5.0
 40
5.0
 40
5.0
 40
6.0
 40
6.0
 40
6.0
 40
7.0
 40
7.0
 40
7.0
 40
8.0
 40
8.0
 40
8.0
 40
8.0
 10
78.29909666011272
 20
-127.0206705411615
 10
78.50855846561592
 20
-127.1359089851431
 10
78.52767874555906
 20
-127.3212551222496
 10
78.52767874555906
 20
-127.4456230692671
 10
78.52767874555906
 20
-127.617533333981
 10
78.48116995650818
 20
-127.7689452805578
 10
78.29909666011272
 20
-127.8707478521469
 10
78.10444876519611
 20
-127.9815076719977
 10
77.86759845058519
 20
-128.0018337353607
 10
77.70464543413287
 20
-128.0018337353607
 10
77.56081269762369
 20
-128.0018337353607
 10
77.30914847242619
 20
-127.9837469840631
 10
77.110194208153
 20
-127.8707478521469
 10
76.90710582929754
 20
-127.755337153391
 10
76.8838514347721
 20
-127.5835991434513
 10
76.8838514347721
 20
-127.4456230692671
 10
76.8838514347721
 20
-127.2761243713928
 10
76.92829316653182
 20
-127.1223008579764
 10
77.110194208153
 20
-127.0206705411615
 10
77.30277504577847
 20
-126.9143893454415
 10
77.53118487645054
 20
-126.8894124031735
 10
77.70464543413287
 20
-126.8894124031735
 10
77.87603893452405
 20
-126.8894124031735
 10
78.10668807726152
 20
-126.9121500333761
 10
78.29909666011272
 20
-127.0206705411615
 97
        0
 97
        0
 92
        1
 93
        1
 72
     4
 94
        3
 73
     0
 74
     1
 95
       17
 96
       13
 40
0.0
 40
0.0
 40
0.0
 40
0.0
 40
1.0
 40
1.0
 40
1.0
 40
2.0
 40
2.0
 40
2.0
 40
3.0
 40
3.0
 40
3.0
 40
4.0
 40
4.0
 40
4.0
 40
4.0
 10
77.07643227239757
 20
-127.4456230692671
 10
77.07643227239757
 20
-127.7124457145997
 10
77.35996363083362
 20
-127.7622273443615
 10
77.70464543413287
 20
-127.7622273443615
 10
78.0241780403898
 20
-127.7622273443615
 10
78.33303085064244
 20
-127.723814529701
 10
78.33303085064244
 20
-127.4456230692671
 10
78.33303085064244
 20
-127.1812119907741
 10
78.05156654949752
 20
-127.1291910489469
 10
77.70464543413287
 20
-127.1291910489469
 10
77.38528508265021
 20
-127.1291910489469
 10
77.07643227239757
 20
-127.1698431756728
 10
77.07643227239757
 20
-127.4456230692671
 97
        0
 97
        0
 75
     2
 76
     1
 98
        0
  0
ENDBLK
  5
A4
330
A1
100
AcDbEntity
  8
0
100
AcDbBlockEnd
  0
BLOCK
  5
AC
330
AA
100
AcDbEntity
  8
0
100
AcDbBlockBegin
  2
block 6
 70
     0
 10
0.0
 20
0.0
 30
0.0
  3
block 6
  1

  0
SPLINE
  5
AE
330
AA
100
AcDbEntity
  8
_U+30EC_U+30A4_U+30E4_U+30FC 1
370
     0
100
AcDbSpline
210
0.0
220
0.0
230
1.0
 70
    11
 71
     3
 72
    62
 73
    58
 74
     0
 42
0.0000000001
 43
0.0000000001
 12
1.0
 22
0.0
 32
0.0
 13
1.0
 23
0.0
 33
0.0
 40
0.0
 40
0.0
 40
0.0
 40
0.0
 40
1.0
 40
1.0
 40
1.0
 40
2.0
 40
2.0
 40
2.0
 40
3.0
 40
3.0
 40
3.0
 40
4.0
 40
4.0
 40
4.0
 40
5.0
 40
5.0
 40
5.0
 40
6.0
 40
6.0
 40
6.0
 40
7.0
 40
7.0
 40
7.0
 40
8.0
 40
8.0
 40
8.0
 40
9.0
 40
9.0
 40
9.0
 40
10.0
 40
10.0
 40
10.0
 40
11.0
 40
11.0
 40
11.0
 40
12.0
 40
12.0
 40
12.0
 40
13.0
 40
13.0
 40
13.0
 40
14.0
 40
14.0
 40
14.0
 40
15.0
 40
15.0
 40
15.0
 40
16.0
 40
16.0
 40
16.0
 40
17.0
 40
17.0
 40
17.0
 40
18.0
 40
18.0
 40
18.0
 40
19.0
 40
19.0
 40
19.0
 40
19.0
 10
78.52767874555906
 20
-132.3144042637964
 30
0.0
 10
78.52767874555906
 20
-132.4163790901598
 30
0.0
 10
78.50649140832476
 20
-132.6492675449627
 30
0.0
 10
78.32028399734702
 20
-132.7825927402419
 30
0.0
 10
78.20814613930213
 20
-132.8614854268541
 30
0.0
 10
78.10875513455268
 20
-132.8663085605334
 30
0.0
 10
78.0241780403898
 20
-132.8707871846643
 30
0.0
 10
78.0241780403898
 20
-132.8707871846643
 30
0.0
 10
78.0241780403898
 20
-132.6354871630217
 30
0.0
 10
78.0241780403898
 20
-132.6354871630217
 30
0.0
 10
78.09824759332267
 20
-132.6334201057306
 30
0.0
 10
78.33303085064244
 20
-132.6220512906292
 30
0.0
 10
78.33303085064244
 20
-132.3192273974757
 30
0.0
 10
78.33303085064244
 20
-132.1721218202556
 30
0.0
 10
78.26326766706613
 20
-132.0091688038033
 30
0.0
 10
78.0346855816198
 20
-132.0091688038033
 30
0.0
 10
77.91841360899262
 20
-132.0091688038033
 30
0.0
 10
77.86966550787633
 20
-132.0498209305292
 30
0.0
 10
77.83797062941204
 20
-132.0839273758332
 30
0.0
 10
77.76390107647917
 20
-132.1628200624454
 30
0.0
 10
77.751326477958
 20
-132.2875325190114
 30
0.0
 10
77.751326477958
 20
-132.3460991422607
 30
0.0
 10
77.751326477958
 20
-132.3667697151722
 30
0.0
 10
77.75339353524916
 20
-132.4050102750585
 30
0.0
 10
77.75752764983146
 20
-132.4342935866831
 30
0.0
 10
77.75752764983146
 20
-132.4342935866831
 30
0.0
 10
77.56287975491485
 20
-132.4342935866831
 30
0.0
 10
77.56287975491485
 20
-132.4342935866831
 30
0.0
 10
77.56925318156254
 20
-132.3936414599571
 30
0.0
 10
77.57149249362796
 20
-132.3485107091004
 30
0.0
 10
77.57149249362796
 20
-132.3416205181299
 30
0.0
 10
77.57149249362796
 20
-132.2716850797793
 30
0.0
 10
77.55030515639368
 20
-132.0591226883394
 30
0.0
 10
77.31328258700849
 20
-132.0591226883394
 30
0.0
 10
77.13568791474385
 20
-132.0591226883394
 30
0.0
 10
77.08056638697987
 20
-132.1993380745891
 30
0.0
 10
77.08056638697987
 20
-132.3168158306361
 30
0.0
 10
77.08056638697987
 20
-132.5993136604266
 30
0.0
 10
77.31328258700849
 20
-132.6086154182368
 30
0.0
 10
77.38528508265021
 20
-132.612749532819
 30
0.0
 10
77.38528508265021
 20
-132.612749532819
 30
0.0
 10
77.38528508265021
 20
-132.8297905483898
 30
0.0
 10
77.38528508265021
 20
-132.8297905483898
 30
0.0
 10
77.2604003713099
 20
-132.8208333001281
 30
0.0
 10
76.8838514347721
 20
-132.7915499885035
 30
0.0
 10
76.8838514347721
 20
-132.3033799582436
 30
0.0
 10
76.8838514347721
 20
-132.0636013124702
 30
0.0
 10
77.01080320340355
 20
-131.8059081701735
 30
0.0
 10
77.30690916036077
 20
-131.8059081701735
 30
0.0
 10
77.49311657133853
 20
-131.8059081701735
 30
0.0
 10
77.57562660821026
 20
-131.9075384869884
 30
0.0
 10
77.63694930784771
 20
-132.0139919374826
 30
0.0
 10
77.66451007172971
 20
-131.9481906137144
 30
0.0
 10
77.74495305131029
 20
-131.7538872283463
 30
0.0
 10
78.02211098309864
 20
-131.7538872283463
 30
0.0
 10
78.36059161452444
 20
-131.7538872283463
 30
0.0
 10
78.52767874555906
 20
-132.0181260520649
 30
0.0
 10
78.52767874555906
 20
-132.3144042637964
 30
0.0
  0
HATCH
  5
AF
330
AA
100
AcDbEntity
  8
_U+30EC_U+30A4_U+30E4_U+30FC 1
 62
   179
420
  2234388
100
AcDbHatch
 10
0.0
 20
0.0
 30
0.0
210
0.0
220
0.0
230
1.0
  2
SOLID
 70
     1
 71
     0
 91
        1
 92
        1
 93
        1
 72
     4
 94
        3
 73
     0
 74
     1
 95
       62
 96
       58
 40
0.0
 40
0.0
 40
0.0
 40
0.0
 40
1.0
 40
1.0
 40
1.0
 40
2.0
 40
2.0
 40
2.0
 40
3.0
 40
3.0
 40
3.0
 40
4.0
 40
4.0
 40
4.0
 40
5.0
 40
5.0
 40
5.0
 40
6.0
 40
6.0
 40
6.0
 40
7.0
 40
7.0
 40
7.0
 40
8.0
 40
8.0
 40
8.0
 40
9.0
 40
9.0
 40
9.0
 40
10.0
 40
10.0
 40
10.0
 40
11.0
 40
11.0
 40
11.0
 40
12.0
 40
12.0
 40
12.0
 40
13.0
 40
13.0
 40
13.0
 40
14.0
 40
14.0
 40
14.0
 40
15.0
 40
15.0
 40
15.0
 40
16.0
 40
16.0
 40
16.0
 40
17.0
 40
17.0
 40
17.0
 40
18.0
 40
18.0
 40
18.0
 40
19.0
 40
19.0
 40
19.0
 40
19.0
 10
78.52767874555906
 20
-132.3144042637964
 10
78.52767874555906
 20
-132.4163790901598
 10
78.50649140832476
 20
-132.6492675449627
 10
78.32028399734702
 20
-132.7825927402419
 10
78.20814613930213
 20
-132.8614854268541
 10
78.10875513455268
 20
-132.8663085605334
 10
78.0241780403898
 20
-132.8707871846643
 10
78.0241780403898
 20
-132.8707871846643
 10
78.0241780403898
 20
-132.6354871630217
 10
78.0241780403898
 20
-132.6354871630217
 10
78.09824759332267
 20
-132.6334201057306
 10
78.33303085064244
 20
-132.6220512906292
 10
78.33303085064244
 20
-132.3192273974757
 10
78.33303085064244
 20
-132.1721218202556
 10
78.26326766706613
 20
-132.0091688038033
 10
78.0346855816198
 20
-132.0091688038033
 10
77.91841360899262
 20
-132.0091688038033
 10
77.86966550787633
 20
-132.0498209305292
 10
77.83797062941204
 20
-132.0839273758332
 10
77.76390107647917
 20
-132.1628200624454
 10
77.751326477958
 20
-132.2875325190114
 10
77.751326477958
 20
-132.3460991422607
 10
77.751326477958
 20
-132.3667697151722
 10
77.75339353524916
 20
-132.4050102750585
 10
77.75752764983146
 20
-132.4342935866831
 10
77.75752764983146
 20
-132.4342935866831
 10
77.56287975491485
 20
-132.4342935866831
 10
77.56287975491485
 20
-132.4342935866831
 10
77.56925318156254
 20
-132.3936414599571
 10
77.57149249362796
 20
-132.3485107091004
 10
77.57149249362796
 20
-132.3416205181299
 10
77.57149249362796
 20
-132.2716850797793
 10
77.55030515639368
 20
-132.0591226883394
 10
77.31328258700849
 20
-132.0591226883394
 10
77.13568791474385
 20
-132.0591226883394
 10
77.08056638697987
 20
-132.1993380745891
 10
77.08056638697987
 20
-132.3168158306361
 10
77.08056638697987
 20
-132.5993136604266
 10
77.31328258700849
 20
-132.6086154182368
 10
77.38528508265021
 20
-132.612749532819
 10
77.38528508265021
 20
-132.612749532819
 10
77.38528508265021
 20
-132.8297905483898
 10
77.38528508265021
 20
-132.8297905483898
 10
77.2604003713099
 20
-132.8208333001281
 10
76.8838514347721
 20
-132.7915499885035
 10
76.8838514347721
 20
-132.3033799582436
 10
76.8838514347721
 20
-132.0636013124702
 10
77.01080320340355
 20
-131.8059081701735
 10
77.30690916036077
 20
-131.8059081701735
 10
77.49311657133853
 20
-131.8059081701735
 10
77.57562660821026
 20
-131.9075384869884
 10
77.63694930784771
 20
-132.0139919374826
 10
77.66451007172971
 20
-131.9481906137144
 10
77.74495305131029
 20
-131.7538872283463
 10
78.02211098309864
 20
-131.7538872283463
 10
78.36059161452444
 20
-131.7538872283463
 10
78.52767874555906
 20
-132.0181260520649
 10
78.52767874555906
 20
-132.3144042637964
 97
        0
 97
        0
 75
     2
 76
     1
 98
        0
  0
ENDBLK
  5
AD
330
AA
100
AcDbEntity
  8
0
100
AcDbBlockEnd
  0
ENDSEC
  0
SECTION
  2
ENTITIES
  0
INSERT
  5
42
330
1F
100
AcDbEntity
  8
_U+30EC_U+30A4_U+30E4_U+30FC 1
100
AcDbBlockReference
  2
block 2
 10
0.0
 20
0.0
 30
0.0
  0
INSERT
  5
54
330
1F
100
AcDbEntity
  8
_U+30EC_U+30A4_U+30E4_U+30FC 1
100
AcDbBlockReference
  2
block 3
 10
0.0
 20
0.0
 30
0.0
  0
INSERT
  5
90
330
1F
100
AcDbEntity
  8
_U+30EC_U+30A4_U+30E4_U+30FC 1
100
AcDbBlockReference
  2
block 4
 10
0.0
 20
0.0
 30
0.0
  0
INSERT
  5
A2
330
1F
100
AcDbEntity
  8
_U+30EC_U+30A4_U+30E4_U+30FC 1
100
AcDbBlockReference
  2
block 5
 10
0.0
 20
0.0
 30
0.0
  0
INSERT
  5
AB
330
1F
100
AcDbEntity
  8
_U+30EC_U+30A4_U+30E4_U+30FC 1
100
AcDbBlockReference
  2
block 6
 10
0.0
 20
0.0
 30
0.0
  0
POLYLINE
  5
B0
330
1F
100
AcDbEntity
  8
_U+30EC_U+30A4_U+30E4_U+30FC 1
 62
     7
420
 16777215
370
     9
100
AcDb2dPolyline
 66
     1
 10
0.0
 20
0.0
 30
0.0
  0
VERTEX
  5
B1
330
B0
100
AcDbEntity
  8
_U+30EC_U+30A4_U+30E4_U+30FC 1
 62
     7
420
 16777215
370
     9
100
AcDbVertex
100
AcDb2dVertex
 10
91.13516239717053
 20
-133.5443099666142
 30
0.0
  0
VERTEX
  5
B2
330
B0
100
AcDbEntity
  8
_U+30EC_U+30A4_U+30E4_U+30FC 1
 62
     7
420
 16777215
370
     9
100
AcDbVertex
100
AcDb2dVertex
 10
91.13516239717053
 20
-138.8800738541692
 30
0.0
  0
SEQEND
  5
B3
330
B0
100
AcDbEntity
  8
_U+30EC_U+30A4_U+30E4_U+30FC 1
 62
     7
420
 16777215
370
     9
  0
POLYLINE
  5
B4
330
1F
100
AcDbEntity
  8
_U+30EC_U+30A4_U+30E4_U+30FC 1
 62
     7
420
 16777215
370
     9
100
AcDb2dPolyline
 66
     1
 10
0.0
 20
0.0
 30
0.0
  0
VERTEX
  5
B5
330
B4
100
AcDbEntity
  8
_U+30EC_U+30A4_U+30E4_U+30FC 1
 62
     7
420
 16777215
370
     9
100
AcDbVertex
100
AcDb2dVertex
 10
106.7786692202936
 20
-133.3369119111104
 30
0.0
  0
VERTEX
  5
B6
330
B4
100
AcDbEntity
  8
_U+30EC_U+30A4_U+30E4_U+30FC 1
 62
     7
420
 16777215
370
     9
100
AcDbVertex
100
AcDb2dVertex
 10
106.7786692202936
 20
-138.826310520849
 30
0.0
  0
SEQEND
  5
B7
330
B4
100
AcDbEntity
  8
_U+30EC_U+30A4_U+30E4_U+30FC 1
 62
     7
420
 16777215
370
     9
  0
POLYLINE
  5
B8
330
1F
100
AcDbEntity
  8
_U+30EC_U+30A4_U+30E4_U+30FC 1
 62
     7
420
 16777215
370
     9
100
AcDb2dPolyline
 66
     1
 10
0.0
 20
0.0
 30
0.0
  0
VERTEX
  5
B9
330
B8
100
AcDbEntity
  8
_U+30EC_U+30A4_U+30E4_U+30FC 1
 62
     7
420
 16777215
370
     9
100
AcDbVertex
100
AcDb2dVertex
 10
91.17322711842164
 20
-138.8401041319567
 30
0.0
  0
VERTEX
  5
BA
330
B8
100
AcDbEntity
  8
_U+30EC_U+30A4_U+30E4_U+30FC 1
 62
     7
420
 16777215
370
     9
100
AcDbVertex
100
AcDb2dVertex
 10
106.7786692202936
 20
-138.8401041319567
 30
0.0
  0
SEQEND
  5
BB
330
B8
100
AcDbEntity
  8
_U+30EC_U+30A4_U+30E4_U+30FC 1
 62
     7
420
 16777215
370
     9
  0
POLYLINE
  5
BC
330
1F
100
AcDbEntity
  8
_U+30EC_U+30A4_U+30E4_U+30FC 1
 62
     7
420
 16777215
370
     9
100
AcDb2dPolyline
 66
     1
 10
0.0
 20
0.0
 30
0.0
  0
VERTEX
  5
BD
330
BC
100
AcDbEntity
  8
_U+30EC_U+30A4_U+30E4_U+30FC 1
 62
     7
420
 16777215
370
     9
100
AcDbVertex
100
AcDb2dVertex
 10
91.13516239717053
 20
-133.3369119111104
 30
0.0
  0
VERTEX
  5
BE
330
BC
100
AcDbEntity
  8
_U+30EC_U+30A4_U+30E4_U+30FC 1
 62
     7
420
 16777215
370
     9
100
AcDbVertex
100
AcDb2dVertex
 10
91.13516239717053
 20
-133.3369119111104
 30
0.0
  0
SEQEND
  5
BF
330
BC
100
AcDbEntity
  8
_U+30EC_U+30A4_U+30E4_U+30FC 1
 62
     7
420
 16777215
370
     9
  0
POLYLINE
  5
C0
330
1F
100
AcDbEntity
  8
_U+30EC_U+30A4_U+30E4_U+30FC 1
 62
     7
420
 16777215
370
     9
100
AcDb2dPolyline
 66
     1
 10
0.0
 20
0.0
 30
0.0
  0
VERTEX
  5
C1
330
C0
100
AcDbEntity
  8
_U+30EC_U+30A4_U+30E4_U+30FC 1
 62
     7
420
 16777215
370
     9
100
AcDbVertex
100
AcDb2dVertex
 10
106.7786692202936
 20
-133.1291610778288
 30
0.0
  0
VERTEX
  5
C2
330
C0
100
AcDbEntity
  8
_U+30EC_U+30A4_U+30E4_U+30FC 1
 62
     7
420
 16777215
370
     9
100
AcDbVertex
100
AcDb2dVertex
 10
106.7786692202936
 20
-133.1291610778288
 30
0.0
  0
SEQEND
  5
C3
330
C0
100
AcDbEntity
  8
_U+30EC_U+30A4_U+30E4_U+30FC 1
 62
     7
420
 16777215
370
     9
  0
POLYLINE
  5
C4
330
1F
100
AcDbEntity
  8
_U+30EC_U+30A4_U+30E4_U+30FC 1
 62
     7
420
 16777215
370
     9
100
AcDb2dPolyline
 66
     1
 10
0.0
 20
0.0
 30
0.0
  0
VERTEX
  5
C5
330
C4
100
AcDbEntity
  8
_U+30EC_U+30A4_U+30E4_U+30FC 1
 62
     7
420
 16777215
370
     9
100
AcDbVertex
100
AcDb2dVertex
 10
106.7786692202936
 20
-138.8401041319567
 30
0.0
  0
VERTEX
  5
C6
330
C4
100
AcDbEntity
  8
_U+30EC_U+30A4_U+30E4_U+30FC 1
 62
     7
420
 16777215
370
     9
100
AcDbVertex
100
AcDb2dVertex
 10
106.7786692202936
 20
-138.8401041319567
 30
0.0
  0
SEQEND
  5
C7
330
C4
100
AcDbEntity
  8
_U+30EC_U+30A4_U+30E4_U+30FC 1
 62
     7
420
 16777215
370
     9
  0
POLYLINE
  5
C8
330
1F
100
AcDbEntity
  8
_U+30EC_U+30A4_U+30E4_U+30FC 1
 62
     7
420
 16777215
370
    25
100
AcDb2dPolyline
 66
     1
 10
0.0
 20
0.0
 30
0.0
  0
VERTEX
  5
C9
330
C8
100
AcDbEntity
  8
_U+30EC_U+30A4_U+30E4_U+30FC 1
 62
     7
420
 16777215
370
    25
100
AcDbVertex
100
AcDb2dVertex
 10
100.4551982705077
 20
-133.1291610778288
 30
0.0
  0
VERTEX
  5
CA
330
C8
100
AcDbEntity
  8
_U+30EC_U+30A4_U+30E4_U+30FC 1
 62
     7
420
 16777215
370
    25
100
AcDbVertex
100
AcDb2dVertex
 10
96.79340275357943
 20
-133.1291610778288
 30
0.0
  0
SEQEND
  5
CB
330
C8
100
AcDbEntity
  8
_U+30EC_U+30A4_U+30E4_U+30FC 1
 62
     7
420
 16777215
370
    25
  0
POLYLINE
  5
CC
330
1F
100
AcDbEntity
  8
_U+30EC_U+30A4_U+30E4_U+30FC 1
 62
     7
420
 16777215
370
    25
100
AcDb2dPolyline
 66
     1
 10
0.0
 20
0.0
 30
0.0
  0
VERTEX
  5
CD
330
CC
100
AcDbEntity
  8
_U+30EC_U+30A4_U+30E4_U+30FC 1
 62
     7
420
 16777215
370
    25
100
AcDbVertex
100
AcDb2dVertex
 10
105.9160217423016
 20
-132.329907744695
 30
0.0
  0
VERTEX
  5
CE
330
CC
100
AcDbEntity
  8
_U+30EC_U+30A4_U+30E4_U+30FC 1
 62
     7
420
 16777215
370
    25
100
AcDbVertex
100
AcDb2dVertex
 10
91.80145376906091
 20
-132.329907744695
 30
0.0
  0
SEQEND
  5
CF
330
CC
100
AcDbEntity
  8
_U+30EC_U+30A4_U+30E4_U+30FC 1
 62
     7
420
 16777215
370
    25
  0
POLYLINE
  5
D0
330
1F
100
AcDbEntity
  8
_U+30EC_U+30A4_U+30E4_U+30FC 1
 62
     7
420
 16777215
370
    25
100
AcDb2dPolyline
 66
     1
 10
0.0
 20
0.0
 30
0.0
  0
VERTEX
  5
D1
330
D0
100
AcDbEntity
  8
_U+30EC_U+30A4_U+30E4_U+30FC 1
 62
     7
420
 16777215
370
    25
100
AcDbVertex
100
AcDb2dVertex
 10
84.61170173026454
 20
-124.4988760799865
 30
0.0
  0
VERTEX
  5
D2
330
D0
100
AcDbEntity
  8
_U+30EC_U+30A4_U+30E4_U+30FC 1
 62
     7
420
 16777215
370
    25
100
AcDbVertex
100
AcDb2dVertex
 10
105.3648064785865
 20
-124.4988760799865
 30
0.0
  0
SEQEND
  5
D3
330
D0
100
AcDbEntity
  8
_U+30EC_U+30A4_U+30E4_U+30FC 1
 62
     7
420
 16777215
370
    25
  0
POLYLINE
  5
D4
330
1F
100
AcDbEntity
  8
_U+30EC_U+30A4_U+30E4_U+30FC 1
 62
     7
420
 16777215
370
    25
100
AcDb2dPolyline
 66
     1
 10
0.0
 20
0.0
 30
0.0
  0
VERTEX
  5
D5
330
D4
100
AcDbEntity
  8
_U+30EC_U+30A4_U+30E4_U+30FC 1
 62
     7
420
 16777215
370
    25
100
AcDbVertex
100
AcDb2dVertex
 10
106.1130860845827
 20
-123.832584691264
 30
0.0
  0
VERTEX
  5
D6
330
D4
100
AcDbEntity
  8
_U+30EC_U+30A4_U+30E4_U+30FC 1
 62
     7
420
 16777215
370
    25
100
AcDbVertex
100
AcDb2dVertex
 10
81.15112820744001
 20
-123.832584691264
 30
0.0
  0
SEQEND
  5
D7
330
D4
100
AcDbEntity
  8
_U+30EC_U+30A4_U+30E4_U+30FC 1
 62
     7
420
 16777215
370
    25
  0
POLYLINE
  5
D8
330
1F
100
AcDbEntity
  8
_U+30EC_U+30A4_U+30E4_U+30FC 1
 62
     7
420
 16777215
370
     9
100
AcDb2dPolyline
 66
     1
 10
0.0
 20
0.0
 30
0.0
  0
VERTEX
  5
D9
330
D8
100
AcDbEntity
  8
_U+30EC_U+30A4_U+30E4_U+30FC 1
 62
     7
420
 16777215
370
     9
100
AcDbVertex
100
AcDb2dVertex
 10
80.94253071276178
 20
-124.4988760799865
 30
0.0
  0
VERTEX
  5
DA
330
D8
100
AcDbEntity
  8
_U+30EC_U+30A4_U+30E4_U+30FC 1
 62
     7
420
 16777215
370
     9
100
AcDbVertex
100
AcDb2dVertex
 10
79.1677763135951
 20
-124.4988760799865
 30
0.0
  0
SEQEND
  5
DB
330
D8
100
AcDbEntity
  8
_U+30EC_U+30A4_U+30E4_U+30FC 1
 62
     7
420
 16777215
370
     9
  0
POLYLINE
  5
DC
330
1F
100
AcDbEntity
  8
_U+30EC_U+30A4_U+30E4_U+30FC 1
 62
     7
420
 16777215
370
     9
100
AcDb2dPolyline
 66
     1
 10
0.0
 20
0.0
 30
0.0
  0
VERTEX
  5
DD
330
DC
100
AcDbEntity
  8
_U+30EC_U+30A4_U+30E4_U+30FC 1
 62
     7
420
 16777215
370
     9
100
AcDbVertex
100
AcDb2dVertex
 10
90.92794073579053
 20
-131.1320508005505
 30
0.0
  0
VERTEX
  5
DE
330
DC
100
AcDbEntity
  8
_U+30EC_U+30A4_U+30E4_U+30FC 1
 62
     7
420
 16777215
370
     9
100
AcDbVertex
100
AcDb2dVertex
 10
79.19102436855754
 20
-131.1320508005505
 30
0.0
  0
SEQEND
  5
DF
330
DC
100
AcDbEntity
  8
_U+30EC_U+30A4_U+30E4_U+30FC 1
 62
     7
420
 16777215
370
     9
  0
POLYLINE
  5
E0
330
1F
100
AcDbEntity
  8
_U+30EC_U+30A4_U+30E4_U+30FC 1
 62
     7
420
 16777215
370
     9
100
AcDb2dPolyline
 66
     1
 10
0.0
 20
0.0
 30
0.0
  0
VERTEX
  5
E1
330
E0
100
AcDbEntity
  8
_U+30EC_U+30A4_U+30E4_U+30FC 1
 62
     7
420
 16777215
370
     9
100
AcDbVertex
100
AcDb2dVertex
 10
79.1677763135951
 20
-124.5916919132967
 30
0.0
  0
VERTEX
  5
E2
330
E0
100
AcDbEntity
  8
_U+30EC_U+30A4_U+30E4_U+30FC 1
 62
     7
420
 16777215
370
     9
100
AcDbVertex
100
AcDb2dVertex
 10
79.1677763135951
 20
-131.1320508005505
 30
0.0
  0
SEQEND
  5
E3
330
E0
100
AcDbEntity
  8
_U+30EC_U+30A4_U+30E4_U+30FC 1
 62
     7
420
 16777215
370
     9
  0
POLYLINE
  5
E4
330
1F
100
AcDbEntity
  8
_U+30EC_U+30A4_U+30E4_U+30FC 1
 62
     7
420
 16777215
370
     9
100
AcDb2dPolyline
 66
     1
 10
0.0
 20
0.0
 30
0.0
  0
VERTEX
  5
E5
330
E4
100
AcDbEntity
  8
_U+30EC_U+30A4_U+30E4_U+30FC 1
 62
     7
420
 16777215
370
     9
100
AcDbVertex
100
AcDb2dVertex
 10
81.15112820744001
 20
-124.4988760799865
 30
0.0
  0
VERTEX
  5
E6
330
E4
100
AcDbEntity
  8
_U+30EC_U+30A4_U+30E4_U+30FC 1
 62
     7
420
 16777215
370
     9
100
AcDbVertex
100
AcDb2dVertex
 10
81.15112820744001
 20
-124.4988760799865
 30
0.0
  0
SEQEND
  5
E7
330
E4
100
AcDbEntity
  8
_U+30EC_U+30A4_U+30E4_U+30FC 1
 62
     7
420
 16777215
370
     9
  0
POLYLINE
  5
E8
330
1F
100
AcDbEntity
  8
_U+30EC_U+30A4_U+30E4_U+30FC 1
 62
     7
420
 16777215
370
     9
100
AcDb2dPolyline
 66
     1
 10
0.0
 20
0.0
 30
0.0
  0
VERTEX
  5
E9
330
E8
100
AcDbEntity
  8
_U+30EC_U+30A4_U+30E4_U+30FC 1
 62
     7
420
 16777215
370
     9
100
AcDbVertex
100
AcDb2dVertex
 10
91.13516239717053
 20
-131.1320508005505
 30
0.0
  0
VERTEX
  5
EA
330
E8
100
AcDbEntity
  8
_U+30EC_U+30A4_U+30E4_U+30FC 1
 62
     7
420
 16777215
370
     9
100
AcDbVertex
100
AcDb2dVertex
 10
91.13516239717053
 20
-131.1320508005505
 30
0.0
  0
SEQEND
  5
EB
330
E8
100
AcDbEntity
  8
_U+30EC_U+30A4_U+30E4_U+30FC 1
 62
     7
420
 16777215
370
     9
  0
POLYLINE
  5
EC
330
1F
100
AcDbEntity
  8
_U+30EC_U+30A4_U+30E4_U+30FC 1
 62
     7
420
 16777215
370
     9
100
AcDb2dPolyline
 66
     1
 10
0.0
 20
0.0
 30
0.0
  0
VERTEX
  5
ED
330
EC
100
AcDbEntity
  8
_U+30EC_U+30A4_U+30E4_U+30FC 1
 62
     7
420
 16777215
370
     9
100
AcDbVertex
100
AcDb2dVertex
 10
79.1677763135951
 20
-131.1320508005505
 30
0.0
  0
VERTEX
  5
EE
330
EC
100
AcDbEntity
  8
_U+30EC_U+30A4_U+30E4_U+30FC 1
 62
     7
420
 16777215
370
     9
100
AcDbVertex
100
AcDb2dVertex
 10
79.1677763135951
 20
-131.1320508005505
 30
0.0
  0
SEQEND
  5
EF
330
EC
100
AcDbEntity
  8
_U+30EC_U+30A4_U+30E4_U+30FC 1
 62
     7
420
 16777215
370
     9
  0
POLYLINE
  5
F0
330
1F
100
AcDbEntity
  8
_U+30EC_U+30A4_U+30E4_U+30FC 1
 62
     7
420
 16777215
370
    25
100
AcDb2dPolyline
 66
     1
 10
0.0
 20
0.0
 30
0.0
  0
VERTEX
  5
F1
330
F0
100
AcDbEntity
  8
_U+30EC_U+30A4_U+30E4_U+30FC 1
 62
     7
420
 16777215
370
    25
100
AcDbVertex
100
AcDb2dVertex
 10
81.15112820744001
 20
-124.4988760799865
 30
0.0
  0
VERTEX
  5
F2
330
F0
100
AcDbEntity
  8
_U+30EC_U+30A4_U+30E4_U+30FC 1
 62
     7
420
 16777215
370
    25
100
AcDbVertex
100
AcDb2dVertex
 10
84.34507229262238
 20
-124.4988760799865
 30
0.0
  0
SEQEND
  5
F3
330
F0
100
AcDbEntity
  8
_U+30EC_U+30A4_U+30E4_U+30FC 1
 62
     7
420
 16777215
370
    25
  0
POLYLINE
  5
F4
330
1F
100
AcDbEntity
  8
_U+30EC_U+30A4_U+30E4_U+30FC 1
 62
     7
420
 16777215
370
    25
100
AcDb2dPolyline
 66
     1
 10
0.0
 20
0.0
 30
0.0
  0
VERTEX
  5
F5
330
F4
100
AcDbEntity
  8
_U+30EC_U+30A4_U+30E4_U+30FC 1
 62
     7
420
 16777215
370
    25
100
AcDbVertex
100
AcDb2dVertex
 10
81.15112820744001
 20
-123.832584691264
 30
0.0
  0
VERTEX
  5
F6
330
F4
100
AcDbEntity
  8
_U+30EC_U+30A4_U+30E4_U+30FC 1
 62
     7
420
 16777215
370
    25
100
AcDbVertex
100
AcDb2dVertex
 10
81.15112820744001
 20
-124.4988760799865
 30
0.0
  0
SEQEND
  5
F7
330
F4
100
AcDbEntity
  8
_U+30EC_U+30A4_U+30E4_U+30FC 1
 62
     7
420
 16777215
370
    25
  0
SPLINE
  5
F8
330
1F
100
AcDbEntity
  8
_U+30EC_U+30A4_U+30E4_U+30FC 1
 62
     7
420
 16777215
370
    25
100
AcDbSpline
210
0.0
220
0.0
230
1.0
 70
     8
 71
     3
 72
    14
 73
    10
 74
     0
 42
0.0000000001
 43
0.0000000001
 12
1.0
 22
0.0
 32
0.0
 13
1.0
 23
0.0
 33
0.0
 40
0.0
 40
0.0
 40
0.0
 40
0.0
 40
1.0
 40
1.0
 40
1.0
 40
2.0
 40
2.0
 40
2.0
 40
3.0
 40
3.0
 40
3.0
 40
3.0
 10
84.61170173026454
 20
-124.4988760799865
 30
0.0
 10
84.61170173026454
 20
-124.4249691355605
 30
0.0
 10
84.552117565118
 20
-124.3655260800196
 30
0.0
 10
84.47838701144346
 20
-124.3655260800196
 30
0.0
 10
84.40536201330649
 20
-124.3655260800196
 30
0.0
 10
84.34507229262238
 20
-124.4249691355605
 30
0.0
 10
84.34507229262238
 20
-124.4988760799865
 30
0.0
 10
84.34507229262238
 20
-124.4988760799865
 30
0.0
 10
84.34507229262238
 20
-124.4988760799865
 30
0.0
 10
84.34507229262238
 20
-124.4988760799865
 30
0.0
  0
SPLINE
  5
F9
330
1F
100
AcDbEntity
  8
_U+30EC_U+30A4_U+30E4_U+30FC 1
 62
     7
420
 16777215
370
    25
100
AcDbSpline
210
0.0
220
0.0
230
1.0
 70
     8
 71
     3
 72
    11
 73
     7
 74
     0
 42
0.0000000001
 43
0.0000000001
 12
1.0
 22
0.0
 32
0.0
 13
1.0
 23
0.0
 33
0.0
 40
0.0
 40
0.0
 40
0.0
 40
0.0
 40
1.0
 40
1.0
 40
1.0
 40
2.0
 40
2.0
 40
2.0
 40
2.0
 10
91.13516239717053
 20
-132.4632224668844
 30
0.0
 10
91.13516239717053
 20
-132.830464133459
 30
0.0
 10
91.43385933399458
 20
-133.1291610778288
 30
0.0
 10
91.80145376906091
 20
-133.1291610778288
 30
0.0
 10
91.80145376906091
 20
-133.1291610778288
 30
0.0
 10
91.80145376906091
 20
-133.1291610778288
 30
0.0
 10
91.80145376906091
 20
-133.1291610778288
 30
0.0
  0
POLYLINE
  5
FA
330
1F
100
AcDbEntity
  8
_U+30EC_U+30A4_U+30E4_U+30FC 1
 62
     7
420
 16777215
370
    25
100
AcDb2dPolyline
 66
     1
 10
0.0
 20
0.0
 30
0.0
  0
VERTEX
  5
FB
330
FA
100
AcDbEntity
  8
_U+30EC_U+30A4_U+30E4_U+30FC 1
 62
     7
420
 16777215
370
    25
100
AcDbVertex
100
AcDb2dVertex
 10
93.79789371812748
 20
-133.1291610778288
 30
0.0
  0
VERTEX
  5
FC
330
FA
100
AcDbEntity
  8
_U+30EC_U+30A4_U+30E4_U+30FC 1
 62
     7
420
 16777215
370
    25
100
AcDbVertex
100
AcDb2dVertex
 10
93.96461649165181
 20
-132.9620855223152
 30
0.0
  0
SEQEND
  5
FD
330
FA
100
AcDbEntity
  8
_U+30EC_U+30A4_U+30E4_U+30FC 1
 62
     7
420
 16777215
370
    25
  0
POLYLINE
  5
FE
330
1F
100
AcDbEntity
  8
_U+30EC_U+30A4_U+30E4_U+30FC 1
 62
     7
420
 16777215
370
    25
100
AcDb2dPolyline
 66
     1
 10
0.0
 20
0.0
 30
0.0
  0
VERTEX
  5
FF
330
FE
100
AcDbEntity
  8
_U+30EC_U+30A4_U+30E4_U+30FC 1
 62
     7
420
 16777215
370
    25
100
AcDbVertex
100
AcDb2dVertex
 10
91.80145376906091
 20
-131.1320508005505
 30
0.0
  0
VERTEX
  5
100
330
FE
100
AcDbEntity
  8
_U+30EC_U+30A4_U+30E4_U+30FC 1
 62
     7
420
 16777215
370
    25
100
AcDbVertex
100
AcDb2dVertex
 10
91.13516239717053
 20
-131.1320508005505
 30
0.0
  0
SEQEND
  5
101
330
FE
100
AcDbEntity
  8
_U+30EC_U+30A4_U+30E4_U+30FC 1
 62
     7
420
 16777215
370
    25
  0
POLYLINE
  5
102
330
1F
100
AcDbEntity
  8
_U+30EC_U+30A4_U+30E4_U+30FC 1
 62
     7
420
 16777215
370
    25
100
AcDb2dPolyline
 66
     1
 10
0.0
 20
0.0
 30
0.0
  0
VERTEX
  5
103
330
102
100
AcDbEntity
  8
_U+30EC_U+30A4_U+30E4_U+30FC 1
 62
     7
420
 16777215
370
    25
100
AcDbVertex
100
AcDb2dVertex
 10
91.80145376906091
 20
-132.329907744695
 30
0.0
  0
VERTEX
  5
104
330
102
100
AcDbEntity
  8
_U+30EC_U+30A4_U+30E4_U+30FC 1
 62
     7
420
 16777215
370
    25
100
AcDbVertex
100
AcDb2dVertex
 10
91.80145376906091
 20
-131.1320508005505
 30
0.0
  0
SEQEND
  5
105
330
102
100
AcDbEntity
  8
_U+30EC_U+30A4_U+30E4_U+30FC 1
 62
     7
420
 16777215
370
    25
  0
POLYLINE
  5
106
330
1F
100
AcDbEntity
  8
_U+30EC_U+30A4_U+30E4_U+30FC 1
 62
     7
420
 16777215
370
    25
100
AcDb2dPolyline
 66
     1
 10
0.0
 20
0.0
 30
0.0
  0
VERTEX
  5
107
330
106
100
AcDbEntity
  8
_U+30EC_U+30A4_U+30E4_U+30FC 1
 62
     7
420
 16777215
370
    25
100
AcDbVertex
100
AcDb2dVertex
 10
91.13516239717053
 20
-132.4632224668844
 30
0.0
  0
VERTEX
  5
108
330
106
100
AcDbEntity
  8
_U+30EC_U+30A4_U+30E4_U+30FC 1
 62
     7
420
 16777215
370
    25
100
AcDbVertex
100
AcDb2dVertex
 10
91.13516239717053
 20
-131.1320508005505
 30
0.0
  0
SEQEND
  5
109
330
106
100
AcDbEntity
  8
_U+30EC_U+30A4_U+30E4_U+30FC 1
 62
     7
420
 16777215
370
    25
  0
POLYLINE
  5
10A
330
1F
100
AcDbEntity
  8
_U+30EC_U+30A4_U+30E4_U+30FC 1
 62
     7
420
 16777215
370
    25
100
AcDb2dPolyline
 66
     1
 10
0.0
 20
0.0
 30
0.0
  0
VERTEX
  5
10B
330
10A
100
AcDbEntity
  8
_U+30EC_U+30A4_U+30E4_U+30FC 1
 62
     7
420
 16777215
370
    25
100
AcDbVertex
100
AcDb2dVertex
 10
93.63219400013261
 20
-132.9620855223152
 30
0.0
  0
VERTEX
  5
10C
330
10A
100
AcDbEntity
  8
_U+30EC_U+30A4_U+30E4_U+30FC 1
 62
     7
420
 16777215
370
    25
100
AcDbVertex
100
AcDb2dVertex
 10
93.79789371812748
 20
-133.1291610778288
 30
0.0
  0
SEQEND
  5
10D
330
10A
100
AcDbEntity
  8
_U+30EC_U+30A4_U+30E4_U+30FC 1
 62
     7
420
 16777215
370
    25
  0
POLYLINE
  5
10E
330
1F
100
AcDbEntity
  8
_U+30EC_U+30A4_U+30E4_U+30FC 1
 62
     7
420
 16777215
370
    25
100
AcDb2dPolyline
 66
     1
 10
0.0
 20
0.0
 30
0.0
  0
VERTEX
  5
10F
330
10E
100
AcDbEntity
  8
_U+30EC_U+30A4_U+30E4_U+30FC 1
 62
     7
420
 16777215
370
    25
100
AcDbVertex
100
AcDb2dVertex
 10
93.46543594883141
 20
-133.1291610778288
 30
0.0
  0
VERTEX
  5
110
330
10E
100
AcDbEntity
  8
_U+30EC_U+30A4_U+30E4_U+30FC 1
 62
     7
420
 16777215
370
    25
100
AcDbVertex
100
AcDb2dVertex
 10
93.63219400013261
 20
-132.9620855223152
 30
0.0
  0
SEQEND
  5
111
330
10E
100
AcDbEntity
  8
_U+30EC_U+30A4_U+30E4_U+30FC 1
 62
     7
420
 16777215
370
    25
  0
POLYLINE
  5
112
330
1F
100
AcDbEntity
  8
_U+30EC_U+30A4_U+30E4_U+30FC 1
 62
     7
420
 16777215
370
    25
100
AcDb2dPolyline
 66
     1
 10
0.0
 20
0.0
 30
0.0
  0
VERTEX
  5
113
330
112
100
AcDbEntity
  8
_U+30EC_U+30A4_U+30E4_U+30FC 1
 62
     7
420
 16777215
370
    25
100
AcDbVertex
100
AcDb2dVertex
 10
93.46543594883141
 20
-133.1291610778288
 30
0.0
  0
VERTEX
  5
114
330
112
100
AcDbEntity
  8
_U+30EC_U+30A4_U+30E4_U+30FC 1
 62
     7
420
 16777215
370
    25
100
AcDbVertex
100
AcDb2dVertex
 10
91.80145376906091
 20
-133.1291610778288
 30
0.0
  0
SEQEND
  5
115
330
112
100
AcDbEntity
  8
_U+30EC_U+30A4_U+30E4_U+30FC 1
 62
     7
420
 16777215
370
    25
  0
POLYLINE
  5
116
330
1F
100
AcDbEntity
  8
_U+30EC_U+30A4_U+30E4_U+30FC 1
 62
     7
420
 16777215
370
    25
100
AcDb2dPolyline
 66
     1
 10
0.0
 20
0.0
 30
0.0
  0
VERTEX
  5
117
330
116
100
AcDbEntity
  8
_U+30EC_U+30A4_U+30E4_U+30FC 1
 62
     7
420
 16777215
370
    25
100
AcDbVertex
100
AcDb2dVertex
 10
96.62734781260876
 20
-132.9620855223152
 30
0.0
  0
VERTEX
  5
118
330
116
100
AcDbEntity
  8
_U+30EC_U+30A4_U+30E4_U+30FC 1
 62
     7
420
 16777215
370
    25
100
AcDbVertex
100
AcDb2dVertex
 10
96.79340275357943
 20
-133.1291610778288
 30
0.0
  0
SEQEND
  5
119
330
116
100
AcDbEntity
  8
_U+30EC_U+30A4_U+30E4_U+30FC 1
 62
     7
420
 16777215
370
    25
  0
POLYLINE
  5
11A
330
1F
100
AcDbEntity
  8
_U+30EC_U+30A4_U+30E4_U+30FC 1
 62
     7
420
 16777215
370
    25
100
AcDb2dPolyline
 66
     1
 10
0.0
 20
0.0
 30
0.0
  0
VERTEX
  5
11B
330
11A
100
AcDbEntity
  8
_U+30EC_U+30A4_U+30E4_U+30FC 1
 62
     7
420
 16777215
370
    25
100
AcDbVertex
100
AcDb2dVertex
 10
96.46058976130756
 20
-133.1291610778288
 30
0.0
  0
VERTEX
  5
11C
330
11A
100
AcDbEntity
  8
_U+30EC_U+30A4_U+30E4_U+30FC 1
 62
     7
420
 16777215
370
    25
100
AcDbVertex
100
AcDb2dVertex
 10
96.62734781260876
 20
-132.9620855223152
 30
0.0
  0
SEQEND
  5
11D
330
11A
100
AcDbEntity
  8
_U+30EC_U+30A4_U+30E4_U+30FC 1
 62
     7
420
 16777215
370
    25
  0
POLYLINE
  5
11E
330
1F
100
AcDbEntity
  8
_U+30EC_U+30A4_U+30E4_U+30FC 1
 62
     7
420
 16777215
370
    25
100
AcDb2dPolyline
 66
     1
 10
0.0
 20
0.0
 30
0.0
  0
VERTEX
  5
11F
330
11E
100
AcDbEntity
  8
_U+30EC_U+30A4_U+30E4_U+30FC 1
 62
     7
420
 16777215
370
    25
100
AcDbVertex
100
AcDb2dVertex
 10
96.29453726554391
 20
-132.9620855223152
 30
0.0
  0
VERTEX
  5
120
330
11E
100
AcDbEntity
  8
_U+30EC_U+30A4_U+30E4_U+30FC 1
 62
     7
420
 16777215
370
    25
100
AcDbVertex
100
AcDb2dVertex
 10
96.46058976130756
 20
-133.1291610778288
 30
0.0
  0
SEQEND
  5
121
330
11E
100
AcDbEntity
  8
_U+30EC_U+30A4_U+30E4_U+30FC 1
 62
     7
420
 16777215
370
    25
  0
POLYLINE
  5
122
330
1F
100
AcDbEntity
  8
_U+30EC_U+30A4_U+30E4_U+30FC 1
 62
     7
420
 16777215
370
    25
100
AcDb2dPolyline
 66
     1
 10
0.0
 20
0.0
 30
0.0
  0
VERTEX
  5
123
330
122
100
AcDbEntity
  8
_U+30EC_U+30A4_U+30E4_U+30FC 1
 62
     7
420
 16777215
370
    25
100
AcDbVertex
100
AcDb2dVertex
 10
96.12781449201958
 20
-133.1291610778288
 30
0.0
  0
VERTEX
  5
124
330
122
100
AcDbEntity
  8
_U+30EC_U+30A4_U+30E4_U+30FC 1
 62
     7
420
 16777215
370
    25
100
AcDbVertex
100
AcDb2dVertex
 10
96.29453726554391
 20
-132.9620855223152
 30
0.0
  0
SEQEND
  5
125
330
122
100
AcDbEntity
  8
_U+30EC_U+30A4_U+30E4_U+30FC 1
 62
     7
420
 16777215
370
    25
  0
POLYLINE
  5
126
330
1F
100
AcDbEntity
  8
_U+30EC_U+30A4_U+30E4_U+30FC 1
 62
     7
420
 16777215
370
    25
100
AcDb2dPolyline
 66
     1
 10
0.0
 20
0.0
 30
0.0
  0
VERTEX
  5
127
330
126
100
AcDbEntity
  8
_U+30EC_U+30A4_U+30E4_U+30FC 1
 62
     7
420
 16777215
370
    25
100
AcDbVertex
100
AcDb2dVertex
 10
95.96105644071838
 20
-132.9620855223152
 30
0.0
  0
VERTEX
  5
128
330
126
100
AcDbEntity
  8
_U+30EC_U+30A4_U+30E4_U+30FC 1
 62
     7
420
 16777215
370
    25
100
AcDbVertex
100
AcDb2dVertex
 10
96.12781449201958
 20
-133.1291610778288
 30
0.0
  0
SEQEND
  5
129
330
126
100
AcDbEntity
  8
_U+30EC_U+30A4_U+30E4_U+30FC 1
 62
     7
420
 16777215
370
    25
  0
POLYLINE
  5
12A
330
1F
100
AcDbEntity
  8
_U+30EC_U+30A4_U+30E4_U+30FC 1
 62
     7
420
 16777215
370
    25
100
AcDb2dPolyline
 66
     1
 10
0.0
 20
0.0
 30
0.0
  0
VERTEX
  5
12B
330
12A
100
AcDbEntity
  8
_U+30EC_U+30A4_U+30E4_U+30FC 1
 62
     7
420
 16777215
370
    25
100
AcDbVertex
100
AcDb2dVertex
 10
95.79535672272351
 20
-133.1291610778288
 30
0.0
  0
VERTEX
  5
12C
330
12A
100
AcDbEntity
  8
_U+30EC_U+30A4_U+30E4_U+30FC 1
 62
     7
420
 16777215
370
    25
100
AcDbVertex
100
AcDb2dVertex
 10
95.96105644071838
 20
-132.9620855223152
 30
0.0
  0
SEQEND
  5
12D
330
12A
100
AcDbEntity
  8
_U+30EC_U+30A4_U+30E4_U+30FC 1
 62
     7
420
 16777215
370
    25
  0
POLYLINE
  5
12E
330
1F
100
AcDbEntity
  8
_U+30EC_U+30A4_U+30E4_U+30FC 1
 62
     7
420
 16777215
370
    25
100
AcDb2dPolyline
 66
     1
 10
0.0
 20
0.0
 30
0.0
  0
VERTEX
  5
12F
330
12E
100
AcDbEntity
  8
_U+30EC_U+30A4_U+30E4_U+30FC 1
 62
     7
420
 16777215
370
    25
100
AcDbVertex
100
AcDb2dVertex
 10
95.62859867142231
 20
-132.9620855223152
 30
0.0
  0
VERTEX
  5
130
330
12E
100
AcDbEntity
  8
_U+30EC_U+30A4_U+30E4_U+30FC 1
 62
     7
420
 16777215
370
    25
100
AcDbVertex
100
AcDb2dVertex
 10
95.79535672272351
 20
-133.1291610778288
 30
0.0
  0
SEQEND
  5
131
330
12E
100
AcDbEntity
  8
_U+30EC_U+30A4_U+30E4_U+30FC 1
 62
     7
420
 16777215
370
    25
  0
POLYLINE
  5
132
330
1F
100
AcDbEntity
  8
_U+30EC_U+30A4_U+30E4_U+30FC 1
 62
     7
420
 16777215
370
    25
100
AcDb2dPolyline
 66
     1
 10
0.0
 20
0.0
 30
0.0
  0
VERTEX
  5
133
330
132
100
AcDbEntity
  8
_U+30EC_U+30A4_U+30E4_U+30FC 1
 62
     7
420
 16777215
370
    25
100
AcDbVertex
100
AcDb2dVertex
 10
95.46254617565866
 20
-133.1291610778288
 30
0.0
  0
VERTEX
  5
134
330
132
100
AcDbEntity
  8
_U+30EC_U+30A4_U+30E4_U+30FC 1
 62
     7
420
 16777215
370
    25
100
AcDbVertex
100
AcDb2dVertex
 10
95.62859867142231
 20
-132.9620855223152
 30
0.0
  0
SEQEND
  5
135
330
132
100
AcDbEntity
  8
_U+30EC_U+30A4_U+30E4_U+30FC 1
 62
     7
420
 16777215
370
    25
  0
POLYLINE
  5
136
330
1F
100
AcDbEntity
  8
_U+30EC_U+30A4_U+30E4_U+30FC 1
 62
     7
420
 16777215
370
    25
100
AcDb2dPolyline
 66
     1
 10
0.0
 20
0.0
 30
0.0
  0
VERTEX
  5
137
330
136
100
AcDbEntity
  8
_U+30EC_U+30A4_U+30E4_U+30FC 1
 62
     7
420
 16777215
370
    25
100
AcDbVertex
100
AcDb2dVertex
 10
95.29617617990311
 20
-132.9620855223152
 30
0.0
  0
VERTEX
  5
138
330
136
100
AcDbEntity
  8
_U+30EC_U+30A4_U+30E4_U+30FC 1
 62
     7
420
 16777215
370
    25
100
AcDbVertex
100
AcDb2dVertex
 10
95.46254617565866
 20
-133.1291610778288
 30
0.0
  0
SEQEND
  5
139
330
136
100
AcDbEntity
  8
_U+30EC_U+30A4_U+30E4_U+30FC 1
 62
     7
420
 16777215
370
    25
  0
POLYLINE
  5
13A
330
1F
100
AcDbEntity
  8
_U+30EC_U+30A4_U+30E4_U+30FC 1
 62
     7
420
 16777215
370
    25
100
AcDb2dPolyline
 66
     1
 10
0.0
 20
0.0
 30
0.0
  0
VERTEX
  5
13B
330
13A
100
AcDbEntity
  8
_U+30EC_U+30A4_U+30E4_U+30FC 1
 62
     7
420
 16777215
370
    25
100
AcDbVertex
100
AcDb2dVertex
 10
95.13012368413946
 20
-133.1291610778288
 30
0.0
  0
VERTEX
  5
13C
330
13A
100
AcDbEntity
  8
_U+30EC_U+30A4_U+30E4_U+30FC 1
 62
     7
420
 16777215
370
    25
100
AcDbVertex
100
AcDb2dVertex
 10
95.29617617990311
 20
-132.9620855223152
 30
0.0
  0
SEQEND
  5
13D
330
13A
100
AcDbEntity
  8
_U+30EC_U+30A4_U+30E4_U+30FC 1
 62
     7
420
 16777215
370
    25
  0
POLYLINE
  5
13E
330
1F
100
AcDbEntity
  8
_U+30EC_U+30A4_U+30E4_U+30FC 1
 62
     7
420
 16777215
370
    25
100
AcDb2dPolyline
 66
     1
 10
0.0
 20
0.0
 30
0.0
  0
VERTEX
  5
13F
330
13E
100
AcDbEntity
  8
_U+30EC_U+30A4_U+30E4_U+30FC 1
 62
     7
420
 16777215
370
    25
100
AcDbVertex
100
AcDb2dVertex
 10
94.96266007730071
 20
-132.9620855223152
 30
0.0
  0
VERTEX
  5
140
330
13E
100
AcDbEntity
  8
_U+30EC_U+30A4_U+30E4_U+30FC 1
 62
     7
420
 16777215
370
    25
100
AcDbVertex
100
AcDb2dVertex
 10
95.13012368413946
 20
-133.1291610778288
 30
0.0
  0
SEQEND
  5
141
330
13E
100
AcDbEntity
  8
_U+30EC_U+30A4_U+30E4_U+30FC 1
 62
     7
420
 16777215
370
    25
  0
POLYLINE
  5
142
330
1F
100
AcDbEntity
  8
_U+30EC_U+30A4_U+30E4_U+30FC 1
 62
     7
420
 16777215
370
    25
100
AcDb2dPolyline
 66
     1
 10
0.0
 20
0.0
 30
0.0
  0
VERTEX
  5
143
330
142
100
AcDbEntity
  8
_U+30EC_U+30A4_U+30E4_U+30FC 1
 62
     7
420
 16777215
370
    25
100
AcDbVertex
100
AcDb2dVertex
 10
94.79660758153706
 20
-133.1291610778288
 30
0.0
  0
VERTEX
  5
144
330
142
100
AcDbEntity
  8
_U+30EC_U+30A4_U+30E4_U+30FC 1
 62
     7
420
 16777215
370
    25
100
AcDbVertex
100
AcDb2dVertex
 10
94.96266007730071
 20
-132.9620855223152
 30
0.0
  0
SEQEND
  5
145
330
142
100
AcDbEntity
  8
_U+30EC_U+30A4_U+30E4_U+30FC 1
 62
     7
420
 16777215
370
    25
  0
POLYLINE
  5
146
330
1F
100
AcDbEntity
  8
_U+30EC_U+30A4_U+30E4_U+30FC 1
 62
     7
420
 16777215
370
    25
100
AcDb2dPolyline
 66
     1
 10
0.0
 20
0.0
 30
0.0
  0
VERTEX
  5
147
330
146
100
AcDbEntity
  8
_U+30EC_U+30A4_U+30E4_U+30FC 1
 62
     7
420
 16777215
370
    25
100
AcDbVertex
100
AcDb2dVertex
 10
94.63055508577341
 20
-132.9620855223152
 30
0.0
  0
VERTEX
  5
148
330
146
100
AcDbEntity
  8
_U+30EC_U+30A4_U+30E4_U+30FC 1
 62
     7
420
 16777215
370
    25
100
AcDbVertex
100
AcDb2dVertex
 10
94.79660758153706
 20
-133.1291610778288
 30
0.0
  0
SEQEND
  5
149
330
146
100
AcDbEntity
  8
_U+30EC_U+30A4_U+30E4_U+30FC 1
 62
     7
420
 16777215
370
    25
  0
POLYLINE
  5
14A
330
1F
100
AcDbEntity
  8
_U+30EC_U+30A4_U+30E4_U+30FC 1
 62
     7
420
 16777215
370
    25
100
AcDb2dPolyline
 66
     1
 10
0.0
 20
0.0
 30
0.0
  0
VERTEX
  5
14B
330
14A
100
AcDbEntity
  8
_U+30EC_U+30A4_U+30E4_U+30FC 1
 62
     7
420
 16777215
370
    25
100
AcDbVertex
100
AcDb2dVertex
 10
94.46383231224908
 20
-133.1291610778288
 30
0.0
  0
VERTEX
  5
14C
330
14A
100
AcDbEntity
  8
_U+30EC_U+30A4_U+30E4_U+30FC 1
 62
     7
420
 16777215
370
    25
100
AcDbVertex
100
AcDb2dVertex
 10
94.63055508577341
 20
-132.9620855223152
 30
0.0
  0
SEQEND
  5
14D
330
14A
100
AcDbEntity
  8
_U+30EC_U+30A4_U+30E4_U+30FC 1
 62
     7
420
 16777215
370
    25
  0
POLYLINE
  5
14E
330
1F
100
AcDbEntity
  8
_U+30EC_U+30A4_U+30E4_U+30FC 1
 62
     7
420
 16777215
370
    25
100
AcDb2dPolyline
 66
     1
 10
0.0
 20
0.0
 30
0.0
  0
VERTEX
  5
14F
330
14E
100
AcDbEntity
  8
_U+30EC_U+30A4_U+30E4_U+30FC 1
 62
     7
420
 16777215
370
    25
100
AcDbVertex
100
AcDb2dVertex
 10
94.29707426094788
 20
-132.9620855223152
 30
0.0
  0
VERTEX
  5
150
330
14E
100
AcDbEntity
  8
_U+30EC_U+30A4_U+30E4_U+30FC 1
 62
     7
420
 16777215
370
    25
100
AcDbVertex
100
AcDb2dVertex
 10
94.46383231224908
 20
-133.1291610778288
 30
0.0
  0
SEQEND
  5
151
330
14E
100
AcDbEntity
  8
_U+30EC_U+30A4_U+30E4_U+30FC 1
 62
     7
420
 16777215
370
    25
  0
POLYLINE
  5
152
330
1F
100
AcDbEntity
  8
_U+30EC_U+30A4_U+30E4_U+30FC 1
 62
     7
420
 16777215
370
    25
100
AcDb2dPolyline
 66
     1
 10
0.0
 20
0.0
 30
0.0
  0
VERTEX
  5
153
330
152
100
AcDbEntity
  8
_U+30EC_U+30A4_U+30E4_U+30FC 1
 62
     7
420
 16777215
370
    25
100
AcDbVertex
100
AcDb2dVertex
 10
94.1317273207218
 20
-133.1291610778288
 30
0.0
  0
VERTEX
  5
154
330
152
100
AcDbEntity
  8
_U+30EC_U+30A4_U+30E4_U+30FC 1
 62
     7
420
 16777215
370
    25
100
AcDbVertex
100
AcDb2dVertex
 10
94.29707426094788
 20
-132.9620855223152
 30
0.0
  0
SEQEND
  5
155
330
152
100
AcDbEntity
  8
_U+30EC_U+30A4_U+30E4_U+30FC 1
 62
     7
420
 16777215
370
    25
  0
POLYLINE
  5
156
330
1F
100
AcDbEntity
  8
_U+30EC_U+30A4_U+30E4_U+30FC 1
 62
     7
420
 16777215
370
    25
100
AcDb2dPolyline
 66
     1
 10
0.0
 20
0.0
 30
0.0
  0
VERTEX
  5
157
330
156
100
AcDbEntity
  8
_U+30EC_U+30A4_U+30E4_U+30FC 1
 62
     7
420
 16777215
370
    25
100
AcDbVertex
100
AcDb2dVertex
 10
93.96461649165181
 20
-132.9620855223152
 30
0.0
  0
VERTEX
  5
158
330
156
100
AcDbEntity
  8
_U+30EC_U+30A4_U+30E4_U+30FC 1
 62
     7
420
 16777215
370
    25
100
AcDbVertex
100
AcDb2dVertex
 10
94.1317273207218
 20
-133.1291610778288
 30
0.0
  0
SEQEND
  5
159
330
156
100
AcDbEntity
  8
_U+30EC_U+30A4_U+30E4_U+30FC 1
 62
     7
420
 16777215
370
    25
  0
POLYLINE
  5
15A
330
1F
100
AcDbEntity
  8
_U+30EC_U+30A4_U+30E4_U+30FC 1
 62
     7
420
 16777215
370
    25
100
AcDb2dPolyline
 66
     1
 10
0.0
 20
0.0
 30
0.0
  0
VERTEX
  5
15B
330
15A
100
AcDbEntity
  8
_U+30EC_U+30A4_U+30E4_U+30FC 1
 62
     7
420
 16777215
370
    25
100
AcDbVertex
100
AcDb2dVertex
 10
105.5563295292559
 20
-127.2277180237485
 30
0.0
  0
VERTEX
  5
15C
330
15A
100
AcDbEntity
  8
_U+30EC_U+30A4_U+30E4_U+30FC 1
 62
     7
420
 16777215
370
    25
100
AcDbVertex
100
AcDb2dVertex
 10
103.6477665223918
 20
-127.2277180237485
 30
0.0
  0
VERTEX
  5
15D
330
15A
100
AcDbEntity
  8
_U+30EC_U+30A4_U+30E4_U+30FC 1
 62
     7
420
 16777215
370
    25
100
AcDbVertex
100
AcDb2dVertex
 10
102.0492246187296
 20
-128.8259071900161
 30
0.0
  0
VERTEX
  5
15E
330
15A
100
AcDbEntity
  8
_U+30EC_U+30A4_U+30E4_U+30FC 1
 62
     7
420
 16777215
370
    25
100
AcDbVertex
100
AcDb2dVertex
 10
103.6477665223918
 20
-130.42303802295
 30
0.0
  0
VERTEX
  5
15F
330
15A
100
AcDbEntity
  8
_U+30EC_U+30A4_U+30E4_U+30FC 1
 62
     7
420
 16777215
370
    25
100
AcDbVertex
100
AcDb2dVertex
 10
105.7812959124054
 20
-130.42303802295
 30
0.0
  0
VERTEX
  5
160
330
15A
100
AcDbEntity
  8
_U+30EC_U+30A4_U+30E4_U+30FC 1
 62
     7
420
 16777215
370
    25
100
AcDbVertex
100
AcDb2dVertex
 10
105.7620342462302
 20
-130.1567260785722
 30
0.0
  0
VERTEX
  5
161
330
15A
100
AcDbEntity
  8
_U+30EC_U+30A4_U+30E4_U+30FC 1
 62
     7
420
 16777215
370
    25
100
AcDbVertex
100
AcDb2dVertex
 10
103.6477665223918
 20
-130.1567260785722
 30
0.0
  0
VERTEX
  5
162
330
15A
100
AcDbEntity
  8
_U+30EC_U+30A4_U+30E4_U+30FC 1
 62
     7
420
 16777215
370
    25
100
AcDbVertex
100
AcDb2dVertex
 10
102.3158893341486
 20
-128.8259071900161
 30
0.0
  0
VERTEX
  5
163
330
15A
100
AcDbEntity
  8
_U+30EC_U+30A4_U+30E4_U+30FC 1
 62
     7
420
 16777215
370
    25
100
AcDbVertex
100
AcDb2dVertex
 10
103.6477665223918
 20
-127.4938535792378
 30
0.0
  0
VERTEX
  5
164
330
15A
100
AcDbEntity
  8
_U+30EC_U+30A4_U+30E4_U+30FC 1
 62
     7
420
 16777215
370
    25
100
AcDbVertex
100
AcDb2dVertex
 10
105.575626473208
 20
-127.4938535792378
 30
0.0
  0
VERTEX
  5
165
330
15A
100
AcDbEntity
  8
_U+30EC_U+30A4_U+30E4_U+30FC 1
 62
     7
420
 16777215
370
    25
100
AcDbVertex
100
AcDb2dVertex
 10
105.5563295292559
 20
-127.2277180237485
 30
0.0
  0
SEQEND
  5
167
330
15A
100
AcDbEntity
  8
_U+30EC_U+30A4_U+30E4_U+30FC 1
 62
     7
420
 16777215
370
    25
  0
HATCH
  5
166
330
1F
100
AcDbEntity
  8
_U+30EC_U+30A4_U+30E4_U+30FC 1
 62
     7
420
 16777215
100
AcDbHatch
 10
0.0
 20
0.0
 30
0.0
210
0.0
220
0.0
230
1.0
  2
SOLID
 70
     1
 71
     0
 91
        1
 92
        1
 93
       10
 72
     1
 10
105.5563295292559
 20
-127.2277180237485
 11
103.6477665223918
 21
-127.2277180237485
 72
     1
 10
103.6477665223918
 20
-127.2277180237485
 11
102.0492246187296
 21
-128.8259071900161
 72
     1
 10
102.0492246187296
 20
-128.8259071900161
 11
103.6477665223918
 21
-130.42303802295
 72
     1
 10
103.6477665223918
 20
-130.42303802295
 11
105.7812959124054
 21
-130.42303802295
 72
     1
 10
105.7812959124054
 20
-130.42303802295
 11
105.7620342462302
 21
-130.1567260785722
 72
     1
 10
105.7620342462302
 20
-130.1567260785722
 11
103.6477665223918
 21
-130.1567260785722
 72
     1
 10
103.6477665223918
 20
-130.1567260785722
 11
102.3158893341486
 21
-128.8259071900161
 72
     1
 10
102.3158893341486
 20
-128.8259071900161
 11
103.6477665223918
 21
-127.4938535792378
 72
     1
 10
103.6477665223918
 20
-127.4938535792378
 11
105.575626473208
 21
-127.4938535792378
 72
     1
 10
105.575626473208
 20
-127.4938535792378
 11
105.5563295292559
 21
-127.2277180237485
 97
        0
 75
     0
 76
     1
 98
        0
  0
SPLINE
  5
168
330
1F
100
AcDbEntity
  8
_U+30EC_U+30A4_U+30E4_U+30FC 1
 62
     7
420
 16777215
370
    18
100
AcDbSpline
210
0.0
220
0.0
230
1.0
 70
     8
 71
     3
 72
    11
 73
     7
 74
     0
 42
0.0000000001
 43
0.0000000001
 12
1.0
 22
0.0
 32
0.0
 13
1.0
 23
0.0
 33
0.0
 40
0.0
 40
0.0
 40
0.0
 40
0.0
 40
1.0
 40
1.0
 40
1.0
 40
2.0
 40
2.0
 40
2.0
 40
2.0
 10
103.6477665223918
 20
-127.4938535792378
 30
0.0
 10
102.9122248744904
 20
-127.4938535792378
 30
0.0
 10
102.3158893341486
 20
-128.0900127457552
 30
0.0
 10
102.3158893341486
 20
-128.8259071900161
 30
0.0
 10
102.3158893341486
 20
-128.8259071900161
 30
0.0
 10
102.3158893341486
 20
-128.8259071900161
 30
0.0
 10
102.3158893341486
 20
-128.8259071900161
 30
0.0
  0
SPLINE
  5
169
330
1F
100
AcDbEntity
  8
_U+30EC_U+30A4_U+30E4_U+30FC 1
 62
     7
420
 16777215
370
    18
100
AcDbSpline
210
0.0
220
0.0
230
1.0
 70
     8
 71
     3
 72
    11
 73
     7
 74
     0
 42
0.0000000001
 43
0.0000000001
 12
1.0
 22
0.0
 32
0.0
 13
1.0
 23
0.0
 33
0.0
 40
0.0
 40
0.0
 40
0.0
 40
0.0
 40
1.0
 40
1.0
 40
1.0
 40
2.0
 40
2.0
 40
2.0
 40
2.0
 10
103.6477665223918
 20
-127.2277180237485
 30
0.0
 10
102.7658221004477
 20
-127.2277180237485
 30
0.0
 10
102.0492246187296
 20
-127.9432571902366
 30
0.0
 10
102.0492246187296
 20
-128.8259071900161
 30
0.0
 10
102.0492246187296
 20
-128.8259071900161
 30
0.0
 10
102.0492246187296
 20
-128.8259071900161
 30
0.0
 10
102.0492246187296
 20
-128.8259071900161
 30
0.0
  0
POLYLINE
  5
16A
330
1F
100
AcDbEntity
  8
_U+30EC_U+30A4_U+30E4_U+30FC 1
 62
     7
420
 16777215
370
    25
100
AcDb2dPolyline
 66
     1
 10
0.0
 20
0.0
 30
0.0
  0
VERTEX
  5
16B
330
16A
100
AcDbEntity
  8
_U+30EC_U+30A4_U+30E4_U+30FC 1
 62
     7
420
 16777215
370
    25
100
AcDbVertex
100
AcDb2dVertex
 10
105.9160217423016
 20
-132.329907744695
 30
0.0
  0
VERTEX
  5
16C
330
16A
100
AcDbEntity
  8
_U+30EC_U+30A4_U+30E4_U+30FC 1
 62
     7
420
 16777215
370
    25
100
AcDbVertex
100
AcDb2dVertex
 10
105.3648064785865
 20
-124.4988760799865
 30
0.0
  0
SEQEND
  5
16D
330
16A
100
AcDbEntity
  8
_U+30EC_U+30A4_U+30E4_U+30FC 1
 62
     7
420
 16777215
370
    25
  0
POLYLINE
  5
16E
330
1F
100
AcDbEntity
  8
_U+30EC_U+30A4_U+30E4_U+30FC 1
 62
     7
420
 16777215
370
    25
100
AcDb2dPolyline
 66
     1
 10
0.0
 20
0.0
 30
0.0
  0
VERTEX
  5
16F
330
16E
100
AcDbEntity
  8
_U+30EC_U+30A4_U+30E4_U+30FC 1
 62
     7
420
 16777215
370
    25
100
AcDbVertex
100
AcDb2dVertex
 10
106.7786692202936
 20
-133.1291610778288
 30
0.0
  0
VERTEX
  5
170
330
16E
100
AcDbEntity
  8
_U+30EC_U+30A4_U+30E4_U+30FC 1
 62
     7
420
 16777215
370
    25
100
AcDbVertex
100
AcDb2dVertex
 10
106.1130860845827
 20
-123.832584691264
 30
0.0
  0
SEQEND
  5
171
330
16E
100
AcDbEntity
  8
_U+30EC_U+30A4_U+30E4_U+30FC 1
 62
     7
420
 16777215
370
    25
  0
SPLINE
  5
172
330
1F
100
AcDbEntity
  8
_U+30EC_U+30A4_U+30E4_U+30FC 1
 62
     7
420
 16777215
370
    18
100
AcDbSpline
210
0.0
220
0.0
230
1.0
 70
     8
 71
     3
 72
    11
 73
     7
 74
     0
 42
0.0000000001
 43
0.0000000001
 12
1.0
 22
0.0
 32
0.0
 13
1.0
 23
0.0
 33
0.0
 40
0.0
 40
0.0
 40
0.0
 40
0.0
 40
1.0
 40
1.0
 40
1.0
 40
2.0
 40
2.0
 40
2.0
 40
2.0
 10
102.0492246187296
 20
-128.8259071900161
 30
0.0
 10
102.0492246187296
 20
-129.70785163424
 30
0.0
 10
102.7658221004477
 20
-130.42303802295
 30
0.0
 10
103.6477665223918
 20
-130.42303802295
 30
0.0
 10
103.6477665223918
 20
-130.42303802295
 30
0.0
 10
103.6477665223918
 20
-130.42303802295
 30
0.0
 10
103.6477665223918
 20
-130.42303802295
 30
0.0
  0
SPLINE
  5
173
330
1F
100
AcDbEntity
  8
_U+30EC_U+30A4_U+30E4_U+30FC 1
 62
     7
420
 16777215
370
    18
100
AcDbSpline
210
0.0
220
0.0
230
1.0
 70
     8
 71
     3
 72
    11
 73
     7
 74
     0
 42
0.0000000001
 43
0.0000000001
 12
1.0
 22
0.0
 32
0.0
 13
1.0
 23
0.0
 33
0.0
 40
0.0
 40
0.0
 40
0.0
 40
0.0
 40
1.0
 40
1.0
 40
1.0
 40
2.0
 40
2.0
 40
2.0
 40
2.0
 10
102.3158893341486
 20
-128.8259071900161
 30
0.0
 10
102.3158893341486
 20
-129.5603905231653
 30
0.0
 10
102.9122248744904
 20
-130.1567260785722
 30
0.0
 10
103.6477665223918
 20
-130.1567260785722
 30
0.0
 10
103.6477665223918
 20
-130.1567260785722
 30
0.0
 10
103.6477665223918
 20
-130.1567260785722
 30
0.0
 10
103.6477665223918
 20
-130.1567260785722
 30
0.0
  0
POLYLINE
  5
174
330
1F
100
AcDbEntity
  8
_U+30EC_U+30A4_U+30E4_U+30FC 1
 62
     7
420
 16777215
370
    25
100
AcDb2dPolyline
 66
     1
 10
0.0
 20
0.0
 30
0.0
  0
VERTEX
  5
175
330
174
100
AcDbEntity
  8
_U+30EC_U+30A4_U+30E4_U+30FC 1
 62
     7
420
 16777215
370
    25
100
AcDbVertex
100
AcDb2dVertex
 10
102.4512854418055
 20
-133.1291610778288
 30
0.0
  0
VERTEX
  5
176
330
174
100
AcDbEntity
  8
_U+30EC_U+30A4_U+30E4_U+30FC 1
 62
     7
420
 16777215
370
    25
100
AcDbVertex
100
AcDb2dVertex
 10
102.6183609930986
 20
-132.9620855223152
 30
0.0
  0
SEQEND
  5
177
330
174
100
AcDbEntity
  8
_U+30EC_U+30A4_U+30E4_U+30FC 1
 62
     7
420
 16777215
370
    25
  0
POLYLINE
  5
178
330
1F
100
AcDbEntity
  8
_U+30EC_U+30A4_U+30E4_U+30FC 1
 62
     7
420
 16777215
370
     9
100
AcDb2dPolyline
 66
     1
 10
0.0
 20
0.0
 30
0.0
  0
VERTEX
  5
179
330
178
100
AcDbEntity
  8
_U+30EC_U+30A4_U+30E4_U+30FC 1
 62
     7
420
 16777215
370
     9
100
AcDbVertex
100
AcDb2dVertex
 10
102.0492246187296
 20
-128.8259071900161
 30
0.0
  0
VERTEX
  5
17A
330
178
100
AcDbEntity
  8
_U+30EC_U+30A4_U+30E4_U+30FC 1
 62
     7
420
 16777215
370
     9
100
AcDbVertex
100
AcDb2dVertex
 10
102.0492246187296
 20
-128.8259071900161
 30
0.0
  0
SEQEND
  5
17B
330
178
100
AcDbEntity
  8
_U+30EC_U+30A4_U+30E4_U+30FC 1
 62
     7
420
 16777215
370
     9
  0
POLYLINE
  5
17C
330
1F
100
AcDbEntity
  8
_U+30EC_U+30A4_U+30E4_U+30FC 1
 62
     7
420
 16777215
370
    25
100
AcDb2dPolyline
 66
     1
 10
0.0
 20
0.0
 30
0.0
  0
VERTEX
  5
17D
330
17C
100
AcDbEntity
  8
_U+30EC_U+30A4_U+30E4_U+30FC 1
 62
     7
420
 16777215
370
    25
100
AcDbVertex
100
AcDb2dVertex
 10
102.2859032238025
 20
-132.9620855223152
 30
0.0
  0
VERTEX
  5
17E
330
17C
100
AcDbEntity
  8
_U+30EC_U+30A4_U+30E4_U+30FC 1
 62
     7
420
 16777215
370
    25
100
AcDbVertex
100
AcDb2dVertex
 10
102.4512854418055
 20
-133.1291610778288
 30
0.0
  0
SEQEND
  5
17F
330
17C
100
AcDbEntity
  8
_U+30EC_U+30A4_U+30E4_U+30FC 1
 62
     7
420
 16777215
370
    25
  0
POLYLINE
  5
180
330
1F
100
AcDbEntity
  8
_U+30EC_U+30A4_U+30E4_U+30FC 1
 62
     7
420
 16777215
370
    25
100
AcDb2dPolyline
 66
     1
 10
0.0
 20
0.0
 30
0.0
  0
VERTEX
  5
181
330
180
100
AcDbEntity
  8
_U+30EC_U+30A4_U+30E4_U+30FC 1
 62
     7
420
 16777215
370
    25
100
AcDbVertex
100
AcDb2dVertex
 10
102.1188276725094
 20
-133.1291610778288
 30
0.0
  0
VERTEX
  5
182
330
180
100
AcDbEntity
  8
_U+30EC_U+30A4_U+30E4_U+30FC 1
 62
     7
420
 16777215
370
    25
100
AcDbVertex
100
AcDb2dVertex
 10
102.2859032238025
 20
-132.9620855223152
 30
0.0
  0
SEQEND
  5
183
330
180
100
AcDbEntity
  8
_U+30EC_U+30A4_U+30E4_U+30FC 1
 62
     7
420
 16777215
370
    25
  0
POLYLINE
  5
184
330
1F
100
AcDbEntity
  8
_U+30EC_U+30A4_U+30E4_U+30FC 1
 62
     7
420
 16777215
370
    25
100
AcDb2dPolyline
 66
     1
 10
0.0
 20
0.0
 30
0.0
  0
VERTEX
  5
185
330
184
100
AcDbEntity
  8
_U+30EC_U+30A4_U+30E4_U+30FC 1
 62
     7
420
 16777215
370
    25
100
AcDbVertex
100
AcDb2dVertex
 10
101.9520721967341
 20
-132.9620855223152
 30
0.0
  0
VERTEX
  5
186
330
184
100
AcDbEntity
  8
_U+30EC_U+30A4_U+30E4_U+30FC 1
 62
     7
420
 16777215
370
    25
100
AcDbVertex
100
AcDb2dVertex
 10
102.1188276725094
 20
-133.1291610778288
 30
0.0
  0
SEQEND
  5
187
330
184
100
AcDbEntity
  8
_U+30EC_U+30A4_U+30E4_U+30FC 1
 62
     7
420
 16777215
370
    25
  0
POLYLINE
  5
188
330
1F
100
AcDbEntity
  8
_U+30EC_U+30A4_U+30E4_U+30FC 1
 62
     7
420
 16777215
370
    25
100
AcDb2dPolyline
 66
     1
 10
0.0
 20
0.0
 30
0.0
  0
VERTEX
  5
189
330
188
100
AcDbEntity
  8
_U+30EC_U+30A4_U+30E4_U+30FC 1
 62
     7
420
 16777215
370
    25
100
AcDbVertex
100
AcDb2dVertex
 10
101.7863699032134
 20
-133.1291610778288
 30
0.0
  0
VERTEX
  5
18A
330
188
100
AcDbEntity
  8
_U+30EC_U+30A4_U+30E4_U+30FC 1
 62
     7
420
 16777215
370
    25
100
AcDbVertex
100
AcDb2dVertex
 10
101.9520721967341
 20
-132.9620855223152
 30
0.0
  0
SEQEND
  5
18B
330
188
100
AcDbEntity
  8
_U+30EC_U+30A4_U+30E4_U+30FC 1
 62
     7
420
 16777215
370
    25
  0
POLYLINE
  5
18C
330
1F
100
AcDbEntity
  8
_U+30EC_U+30A4_U+30E4_U+30FC 1
 62
     7
420
 16777215
370
    25
100
AcDb2dPolyline
 66
     1
 10
0.0
 20
0.0
 30
0.0
  0
VERTEX
  5
18D
330
18C
100
AcDbEntity
  8
_U+30EC_U+30A4_U+30E4_U+30FC 1
 62
     7
420
 16777215
370
    25
100
AcDbVertex
100
AcDb2dVertex
 10
101.4532444190814
 20
-133.1291610778288
 30
0.0
  0
VERTEX
  5
18E
330
18C
100
AcDbEntity
  8
_U+30EC_U+30A4_U+30E4_U+30FC 1
 62
     7
420
 16777215
370
    25
100
AcDbVertex
100
AcDb2dVertex
 10
101.6199646296809
 20
-132.9620855223152
 30
0.0
  0
SEQEND
  5
18F
330
18C
100
AcDbEntity
  8
_U+30EC_U+30A4_U+30E4_U+30FC 1
 62
     7
420
 16777215
370
    25
  0
POLYLINE
  5
190
330
1F
100
AcDbEntity
  8
_U+30EC_U+30A4_U+30E4_U+30FC 1
 62
     7
420
 16777215
370
    25
100
AcDb2dPolyline
 66
     1
 10
0.0
 20
0.0
 30
0.0
  0
VERTEX
  5
191
330
190
100
AcDbEntity
  8
_U+30EC_U+30A4_U+30E4_U+30FC 1
 62
     7
420
 16777215
370
    25
100
AcDbVertex
100
AcDb2dVertex
 10
101.287189360393
 20
-132.9620855223152
 30
0.0
  0
VERTEX
  5
192
330
190
100
AcDbEntity
  8
_U+30EC_U+30A4_U+30E4_U+30FC 1
 62
     7
420
 16777215
370
    25
100
AcDbVertex
100
AcDb2dVertex
 10
101.4532444190814
 20
-133.1291610778288
 30
0.0
  0
SEQEND
  5
193
330
190
100
AcDbEntity
  8
_U+30EC_U+30A4_U+30E4_U+30FC 1
 62
     7
420
 16777215
370
    25
  0
POLYLINE
  5
194
330
1F
100
AcDbEntity
  8
_U+30EC_U+30A4_U+30E4_U+30FC 1
 62
     7
420
 16777215
370
    25
100
AcDb2dPolyline
 66
     1
 10
0.0
 20
0.0
 30
0.0
  0
VERTEX
  5
195
330
194
100
AcDbEntity
  8
_U+30EC_U+30A4_U+30E4_U+30FC 1
 62
     7
420
 16777215
370
    25
100
AcDbVertex
100
AcDb2dVertex
 10
101.1204313090918
 20
-133.1291610778288
 30
0.0
  0
VERTEX
  5
196
330
194
100
AcDbEntity
  8
_U+30EC_U+30A4_U+30E4_U+30FC 1
 62
     7
420
 16777215
370
    25
100
AcDbVertex
100
AcDb2dVertex
 10
101.287189360393
 20
-132.9620855223152
 30
0.0
  0
SEQEND
  5
197
330
194
100
AcDbEntity
  8
_U+30EC_U+30A4_U+30E4_U+30FC 1
 62
     7
420
 16777215
370
    25
  0
POLYLINE
  5
198
330
1F
100
AcDbEntity
  8
_U+30EC_U+30A4_U+30E4_U+30FC 1
 62
     7
420
 16777215
370
    25
100
AcDb2dPolyline
 66
     1
 10
0.0
 20
0.0
 30
0.0
  0
VERTEX
  5
199
330
198
100
AcDbEntity
  8
_U+30EC_U+30A4_U+30E4_U+30FC 1
 62
     7
420
 16777215
370
    25
100
AcDbVertex
100
AcDb2dVertex
 10
100.9543788133281
 20
-132.9620855223152
 30
0.0
  0
VERTEX
  5
19A
330
198
100
AcDbEntity
  8
_U+30EC_U+30A4_U+30E4_U+30FC 1
 62
     7
420
 16777215
370
    25
100
AcDbVertex
100
AcDb2dVertex
 10
101.1204313090918
 20
-133.1291610778288
 30
0.0
  0
SEQEND
  5
19B
330
198
100
AcDbEntity
  8
_U+30EC_U+30A4_U+30E4_U+30FC 1
 62
     7
420
 16777215
370
    25
  0
POLYLINE
  5
19C
330
1F
100
AcDbEntity
  8
_U+30EC_U+30A4_U+30E4_U+30FC 1
 62
     7
420
 16777215
370
    25
100
AcDb2dPolyline
 66
     1
 10
0.0
 20
0.0
 30
0.0
  0
VERTEX
  5
19D
330
19C
100
AcDbEntity
  8
_U+30EC_U+30A4_U+30E4_U+30FC 1
 62
     7
420
 16777215
370
    25
100
AcDbVertex
100
AcDb2dVertex
 10
100.787303262035
 20
-133.1291610778288
 30
0.0
  0
VERTEX
  5
19E
330
19C
100
AcDbEntity
  8
_U+30EC_U+30A4_U+30E4_U+30FC 1
 62
     7
420
 16777215
370
    25
100
AcDbVertex
100
AcDb2dVertex
 10
100.9543788133281
 20
-132.9620855223152
 30
0.0
  0
SEQEND
  5
19F
330
19C
100
AcDbEntity
  8
_U+30EC_U+30A4_U+30E4_U+30FC 1
 62
     7
420
 16777215
370
    25
  0
POLYLINE
  5
1A0
330
1F
100
AcDbEntity
  8
_U+30EC_U+30A4_U+30E4_U+30FC 1
 62
     7
420
 16777215
370
    25
100
AcDb2dPolyline
 66
     1
 10
0.0
 20
0.0
 30
0.0
  0
VERTEX
  5
1A1
330
1A0
100
AcDbEntity
  8
_U+30EC_U+30A4_U+30E4_U+30FC 1
 62
     7
420
 16777215
370
    25
100
AcDbVertex
100
AcDb2dVertex
 10
100.621921044032
 20
-132.9620855223152
 30
0.0
  0
VERTEX
  5
1A2
330
1A0
100
AcDbEntity
  8
_U+30EC_U+30A4_U+30E4_U+30FC 1
 62
     7
420
 16777215
370
    25
100
AcDbVertex
100
AcDb2dVertex
 10
100.787303262035
 20
-133.1291610778288
 30
0.0
  0
SEQEND
  5
1A3
330
1A0
100
AcDbEntity
  8
_U+30EC_U+30A4_U+30E4_U+30FC 1
 62
     7
420
 16777215
370
    25
  0
POLYLINE
  5
1A4
330
1F
100
AcDbEntity
  8
_U+30EC_U+30A4_U+30E4_U+30FC 1
 62
     7
420
 16777215
370
    25
100
AcDb2dPolyline
 66
     1
 10
0.0
 20
0.0
 30
0.0
  0
VERTEX
  5
1A5
330
1A4
100
AcDbEntity
  8
_U+30EC_U+30A4_U+30E4_U+30FC 1
 62
     7
420
 16777215
370
    25
100
AcDbVertex
100
AcDb2dVertex
 10
100.4551982705077
 20
-133.1291610778288
 30
0.0
  0
VERTEX
  5
1A6
330
1A4
100
AcDbEntity
  8
_U+30EC_U+30A4_U+30E4_U+30FC 1
 62
     7
420
 16777215
370
    25
100
AcDbVertex
100
AcDb2dVertex
 10
100.621921044032
 20
-132.9620855223152
 30
0.0
  0
SEQEND
  5
1A7
330
1A4
100
AcDbEntity
  8
_U+30EC_U+30A4_U+30E4_U+30FC 1
 62
     7
420
 16777215
370
    25
  0
POLYLINE
  5
1A8
330
1F
100
AcDbEntity
  8
_U+30EC_U+30A4_U+30E4_U+30FC 1
 62
     7
420
 16777215
370
    25
100
AcDb2dPolyline
 66
     1
 10
0.0
 20
0.0
 30
0.0
  0
VERTEX
  5
1A9
330
1A8
100
AcDbEntity
  8
_U+30EC_U+30A4_U+30E4_U+30FC 1
 62
     7
420
 16777215
370
    25
100
AcDbVertex
100
AcDb2dVertex
 10
101.6199646296809
 20
-132.9620855223152
 30
0.0
  0
VERTEX
  5
1AA
330
1A8
100
AcDbEntity
  8
_U+30EC_U+30A4_U+30E4_U+30FC 1
 62
     7
420
 16777215
370
    25
100
AcDbVertex
100
AcDb2dVertex
 10
101.7863699032134
 20
-133.1291610778288
 30
0.0
  0
SEQEND
  5
1AB
330
1A8
100
AcDbEntity
  8
_U+30EC_U+30A4_U+30E4_U+30FC 1
 62
     7
420
 16777215
370
    25
  0
POLYLINE
  5
1AC
330
1F
100
AcDbEntity
  8
_U+30EC_U+30A4_U+30E4_U+30FC 1
 62
     7
420
 16777215
370
     9
100
AcDb2dPolyline
 66
     1
 10
0.0
 20
0.0
 30
0.0
  0
VERTEX
  5
1AD
330
1AC
100
AcDbEntity
  8
_U+30EC_U+30A4_U+30E4_U+30FC 1
 62
     7
420
 16777215
370
     9
100
AcDbVertex
100
AcDb2dVertex
 10
103.6477665223918
 20
-130.42303802295
 30
0.0
  0
VERTEX
  5
1AE
330
1AC
100
AcDbEntity
  8
_U+30EC_U+30A4_U+30E4_U+30FC 1
 62
     7
420
 16777215
370
     9
100
AcDbVertex
100
AcDb2dVertex
 10
105.7812959124054
 20
-130.42303802295
 30
0.0
  0
SEQEND
  5
1AF
330
1AC
100
AcDbEntity
  8
_U+30EC_U+30A4_U+30E4_U+30FC 1
 62
     7
420
 16777215
370
     9
  0
POLYLINE
  5
1B0
330
1F
100
AcDbEntity
  8
_U+30EC_U+30A4_U+30E4_U+30FC 1
 62
     7
420
 16777215
370
     9
100
AcDb2dPolyline
 66
     1
 10
0.0
 20
0.0
 30
0.0
  0
VERTEX
  5
1B1
330
1B0
100
AcDbEntity
  8
_U+30EC_U+30A4_U+30E4_U+30FC 1
 62
     7
420
 16777215
370
     9
100
AcDbVertex
100
AcDb2dVertex
 10
103.6477665223918
 20
-130.1567260785722
 30
0.0
  0
VERTEX
  5
1B2
330
1B0
100
AcDbEntity
  8
_U+30EC_U+30A4_U+30E4_U+30FC 1
 62
     7
420
 16777215
370
     9
100
AcDbVertex
100
AcDb2dVertex
 10
105.7630573017596
 20
-130.1567260785722
 30
0.0
  0
SEQEND
  5
1B3
330
1B0
100
AcDbEntity
  8
_U+30EC_U+30A4_U+30E4_U+30FC 1
 62
     7
420
 16777215
370
     9
  0
POLYLINE
  5
1B4
330
1F
100
AcDbEntity
  8
_U+30EC_U+30A4_U+30E4_U+30FC 1
 62
     7
420
 16777215
370
    25
100
AcDb2dPolyline
 66
     1
 10
0.0
 20
0.0
 30
0.0
  0
VERTEX
  5
1B5
330
1B4
100
AcDbEntity
  8
_U+30EC_U+30A4_U+30E4_U+30FC 1
 62
     7
420
 16777215
370
    25
100
AcDbVertex
100
AcDb2dVertex
 10
106.7786692202936
 20
-133.1291610778288
 30
0.0
  0
VERTEX
  5
1B6
330
1B4
100
AcDbEntity
  8
_U+30EC_U+30A4_U+30E4_U+30FC 1
 62
     7
420
 16777215
370
    25
100
AcDbVertex
100
AcDb2dVertex
 10
103.7828098522799
 20
-133.1291610778288
 30
0.0
  0
SEQEND
  5
1B7
330
1B4
100
AcDbEntity
  8
_U+30EC_U+30A4_U+30E4_U+30FC 1
 62
     7
420
 16777215
370
    25
  0
POLYLINE
  5
1B8
330
1F
100
AcDbEntity
  8
_U+30EC_U+30A4_U+30E4_U+30FC 1
 62
     7
420
 16777215
370
    25
100
AcDb2dPolyline
 66
     1
 10
0.0
 20
0.0
 30
0.0
  0
VERTEX
  5
1B9
330
1B8
100
AcDbEntity
  8
_U+30EC_U+30A4_U+30E4_U+30FC 1
 62
     7
420
 16777215
370
    25
100
AcDbVertex
100
AcDb2dVertex
 10
103.6160518009787
 20
-132.9620855223152
 30
0.0
  0
VERTEX
  5
1BA
330
1B8
100
AcDbEntity
  8
_U+30EC_U+30A4_U+30E4_U+30FC 1
 62
     7
420
 16777215
370
    25
100
AcDbVertex
100
AcDb2dVertex
 10
103.7828098522799
 20
-133.1291610778288
 30
0.0
  0
SEQEND
  5
1BB
330
1B8
100
AcDbEntity
  8
_U+30EC_U+30A4_U+30E4_U+30FC 1
 62
     7
420
 16777215
370
    25
  0
POLYLINE
  5
1BC
330
1F
100
AcDbEntity
  8
_U+30EC_U+30A4_U+30E4_U+30FC 1
 62
     7
420
 16777215
370
    25
100
AcDb2dPolyline
 66
     1
 10
0.0
 20
0.0
 30
0.0
  0
VERTEX
  5
1BD
330
1BC
100
AcDbEntity
  8
_U+30EC_U+30A4_U+30E4_U+30FC 1
 62
     7
420
 16777215
370
    25
100
AcDbVertex
100
AcDb2dVertex
 10
103.4507048607526
 20
-133.1291610778288
 30
0.0
  0
VERTEX
  5
1BE
330
1BC
100
AcDbEntity
  8
_U+30EC_U+30A4_U+30E4_U+30FC 1
 62
     7
420
 16777215
370
    25
100
AcDbVertex
100
AcDb2dVertex
 10
103.6160518009787
 20
-132.9620855223152
 30
0.0
  0
SEQEND
  5
1BF
330
1BC
100
AcDbEntity
  8
_U+30EC_U+30A4_U+30E4_U+30FC 1
 62
     7
420
 16777215
370
    25
  0
POLYLINE
  5
1C0
330
1F
100
AcDbEntity
  8
_U+30EC_U+30A4_U+30E4_U+30FC 1
 62
     7
420
 16777215
370
    25
100
AcDb2dPolyline
 66
     1
 10
0.0
 20
0.0
 30
0.0
  0
VERTEX
  5
1C1
330
1C0
100
AcDbEntity
  8
_U+30EC_U+30A4_U+30E4_U+30FC 1
 62
     7
420
 16777215
370
    25
100
AcDbVertex
100
AcDb2dVertex
 10
103.2839468094514
 20
-132.9620855223152
 30
0.0
  0
VERTEX
  5
1C2
330
1C0
100
AcDbEntity
  8
_U+30EC_U+30A4_U+30E4_U+30FC 1
 62
     7
420
 16777215
370
    25
100
AcDbVertex
100
AcDb2dVertex
 10
103.4507048607526
 20
-133.1291610778288
 30
0.0
  0
SEQEND
  5
1C3
330
1C0
100
AcDbEntity
  8
_U+30EC_U+30A4_U+30E4_U+30FC 1
 62
     7
420
 16777215
370
    25
  0
POLYLINE
  5
1C4
330
1F
100
AcDbEntity
  8
_U+30EC_U+30A4_U+30E4_U+30FC 1
 62
     7
420
 16777215
370
    25
100
AcDb2dPolyline
 66
     1
 10
0.0
 20
0.0
 30
0.0
  0
VERTEX
  5
1C5
330
1C4
100
AcDbEntity
  8
_U+30EC_U+30A4_U+30E4_U+30FC 1
 62
     7
420
 16777215
370
    25
100
AcDbVertex
100
AcDb2dVertex
 10
103.1178943136878
 20
-133.1291610778288
 30
0.0
  0
VERTEX
  5
1C6
330
1C4
100
AcDbEntity
  8
_U+30EC_U+30A4_U+30E4_U+30FC 1
 62
     7
420
 16777215
370
    25
100
AcDbVertex
100
AcDb2dVertex
 10
103.2839468094514
 20
-132.9620855223152
 30
0.0
  0
SEQEND
  5
1C7
330
1C4
100
AcDbEntity
  8
_U+30EC_U+30A4_U+30E4_U+30FC 1
 62
     7
420
 16777215
370
    25
  0
POLYLINE
  5
1C8
330
1F
100
AcDbEntity
  8
_U+30EC_U+30A4_U+30E4_U+30FC 1
 62
     7
420
 16777215
370
    25
100
AcDb2dPolyline
 66
     1
 10
0.0
 20
0.0
 30
0.0
  0
VERTEX
  5
1C9
330
1C8
100
AcDbEntity
  8
_U+30EC_U+30A4_U+30E4_U+30FC 1
 62
     7
420
 16777215
370
    25
100
AcDbVertex
100
AcDb2dVertex
 10
102.9511715401635
 20
-132.9620855223152
 30
0.0
  0
VERTEX
  5
1CA
330
1C8
100
AcDbEntity
  8
_U+30EC_U+30A4_U+30E4_U+30FC 1
 62
     7
420
 16777215
370
    25
100
AcDbVertex
100
AcDb2dVertex
 10
103.1178943136878
 20
-133.1291610778288
 30
0.0
  0
SEQEND
  5
1CB
330
1C8
100
AcDbEntity
  8
_U+30EC_U+30A4_U+30E4_U+30FC 1
 62
     7
420
 16777215
370
    25
  0
POLYLINE
  5
1CC
330
1F
100
AcDbEntity
  8
_U+30EC_U+30A4_U+30E4_U+30FC 1
 62
     7
420
 16777215
370
    25
100
AcDb2dPolyline
 66
     1
 10
0.0
 20
0.0
 30
0.0
  0
VERTEX
  5
1CD
330
1CC
100
AcDbEntity
  8
_U+30EC_U+30A4_U+30E4_U+30FC 1
 62
     7
420
 16777215
370
    25
100
AcDbVertex
100
AcDb2dVertex
 10
102.7851190443998
 20
-133.1291610778288
 30
0.0
  0
VERTEX
  5
1CE
330
1CC
100
AcDbEntity
  8
_U+30EC_U+30A4_U+30E4_U+30FC 1
 62
     7
420
 16777215
370
    25
100
AcDbVertex
100
AcDb2dVertex
 10
102.9511715401635
 20
-132.9620855223152
 30
0.0
  0
SEQEND
  5
1CF
330
1CC
100
AcDbEntity
  8
_U+30EC_U+30A4_U+30E4_U+30FC 1
 62
     7
420
 16777215
370
    25
  0
POLYLINE
  5
1D0
330
1F
100
AcDbEntity
  8
_U+30EC_U+30A4_U+30E4_U+30FC 1
 62
     7
420
 16777215
370
    25
100
AcDb2dPolyline
 66
     1
 10
0.0
 20
0.0
 30
0.0
  0
VERTEX
  5
1D1
330
1D0
100
AcDbEntity
  8
_U+30EC_U+30A4_U+30E4_U+30FC 1
 62
     7
420
 16777215
370
    25
100
AcDbVertex
100
AcDb2dVertex
 10
102.6183609930986
 20
-132.9620855223152
 30
0.0
  0
VERTEX
  5
1D2
330
1D0
100
AcDbEntity
  8
_U+30EC_U+30A4_U+30E4_U+30FC 1
 62
     7
420
 16777215
370
    25
100
AcDbVertex
100
AcDb2dVertex
 10
102.7851190443998
 20
-133.1291610778288
 30
0.0
  0
SEQEND
  5
1D3
330
1D0
100
AcDbEntity
  8
_U+30EC_U+30A4_U+30E4_U+30FC 1
 62
     7
420
 16777215
370
    25
  0
POLYLINE
  5
1D4
330
1F
100
AcDbEntity
  8
_U+30EC_U+30A4_U+30E4_U+30FC 1
 62
     7
420
 16777215
370
     9
100
AcDb2dPolyline
 66
     1
 10
0.0
 20
0.0
 30
0.0
  0
VERTEX
  5
1D5
330
1D4
100
AcDbEntity
  8
_U+30EC_U+30A4_U+30E4_U+30FC 1
 62
     7
420
 16777215
370
     9
100
AcDbVertex
100
AcDb2dVertex
 10
103.6477665223918
 20
-127.4938535792378
 30
0.0
  0
VERTEX
  5
1D6
330
1D4
100
AcDbEntity
  8
_U+30EC_U+30A4_U+30E4_U+30FC 1
 62
     7
420
 16777215
370
     9
100
AcDbVertex
100
AcDb2dVertex
 10
105.5749561954474
 20
-127.4938535792378
 30
0.0
  0
SEQEND
  5
1D7
330
1D4
100
AcDbEntity
  8
_U+30EC_U+30A4_U+30E4_U+30FC 1
 62
     7
420
 16777215
370
     9
  0
POLYLINE
  5
1D8
330
1F
100
AcDbEntity
  8
_U+30EC_U+30A4_U+30E4_U+30FC 1
 62
     7
420
 16777215
370
    25
100
AcDb2dPolyline
 66
     1
 10
0.0
 20
0.0
 30
0.0
  0
VERTEX
  5
1D9
330
1D8
100
AcDbEntity
  8
_U+30EC_U+30A4_U+30E4_U+30FC 1
 62
     7
420
 16777215
370
    25
100
AcDbVertex
100
AcDb2dVertex
 10
103.6477665223918
 20
-127.2277180237485
 30
0.0
  0
VERTEX
  5
1DA
330
1D8
100
AcDbEntity
  8
_U+30EC_U+30A4_U+30E4_U+30FC 1
 62
     7
420
 16777215
370
    25
100
AcDbVertex
100
AcDb2dVertex
 10
105.5563295292559
 20
-127.2277180237485
 30
0.0
  0
SEQEND
  5
1DB
330
1D8
100
AcDbEntity
  8
_U+30EC_U+30A4_U+30E4_U+30FC 1
 62
     7
420
 16777215
370
    25
  0
POLYLINE
  5
1DC
330
1F
100
AcDbEntity
  8
_U+30EC_U+30A4_U+30E4_U+30FC 1
 62
     7
420
 16777215
370
     9
100
AcDb2dPolyline
 66
     1
 10
0.0
 20
0.0
 30
0.0
  0
VERTEX
  5
1DD
330
1DC
100
AcDbEntity
  8
_U+30EC_U+30A4_U+30E4_U+30FC 1
 62
     7
420
 16777215
370
     9
100
AcDbVertex
100
AcDb2dVertex
 10
90.71987240776546
 20
-131.1320508005505
 30
0.0
  0
VERTEX
  5
1DE
330
1DC
100
AcDbEntity
  8
_U+30EC_U+30A4_U+30E4_U+30FC 1
 62
     7
420
 16777215
370
     9
100
AcDbVertex
100
AcDb2dVertex
 10
79.19102436855754
 20
-131.1320508005505
 30
0.0
  0
SEQEND
  5
1DF
330
1DC
100
AcDbEntity
  8
_U+30EC_U+30A4_U+30E4_U+30FC 1
 62
     7
420
 16777215
370
     9
  0
POLYLINE
  5
1E0
330
1F
100
AcDbEntity
  8
_U+30EC_U+30A4_U+30E4_U+30FC 1
 62
     7
420
 16777215
370
     9
100
AcDb2dPolyline
 66
     1
 10
0.0
 20
0.0
 30
0.0
  0
VERTEX
  5
1E1
330
1E0
100
AcDbEntity
  8
_U+30EC_U+30A4_U+30E4_U+30FC 1
 62
     7
420
 16777215
370
     9
100
AcDbVertex
100
AcDb2dVertex
 10
91.59200960773761
 20
-133.1291610778288
 30
0.0
  0
VERTEX
  5
1E2
330
1E0
100
AcDbEntity
  8
_U+30EC_U+30A4_U+30E4_U+30FC 1
 62
     7
420
 16777215
370
     9
100
AcDbVertex
100
AcDb2dVertex
 10
79.14643325858404
 20
-133.1291610778288
 30
0.0
  0
SEQEND
  5
1E3
330
1E0
100
AcDbEntity
  8
_U+30EC_U+30A4_U+30E4_U+30FC 1
 62
     7
420
 16777215
370
     9
  0
POLYLINE
  5
1E4
330
1F
100
AcDbEntity
  8
_U+30EC_U+30A4_U+30E4_U+30FC 1
 62
     7
420
 16777215
370
     9
100
AcDb2dPolyline
 66
     1
 10
0.0
 20
0.0
 30
0.0
  0
VERTEX
  5
1E5
330
1E4
100
AcDbEntity
  8
_U+30EC_U+30A4_U+30E4_U+30FC 1
 62
     7
420
 16777215
370
     9
100
AcDbVertex
100
AcDb2dVertex
 10
79.1677763135951
 20
-131.1320508005505
 30
0.0
  0
VERTEX
  5
1E6
330
1E4
100
AcDbEntity
  8
_U+30EC_U+30A4_U+30E4_U+30FC 1
 62
     7
420
 16777215
370
     9
100
AcDbVertex
100
AcDb2dVertex
 10
79.1677763135951
 20
-129.4673630231887
 30
0.0
  0
SEQEND
  5
1E7
330
1E4
100
AcDbEntity
  8
_U+30EC_U+30A4_U+30E4_U+30FC 1
 62
     7
420
 16777215
370
     9
  0
POLYLINE
  5
1E8
330
1F
100
AcDbEntity
  8
_U+30EC_U+30A4_U+30E4_U+30FC 1
 62
     7
420
 16777215
370
     9
100
AcDb2dPolyline
 66
     1
 10
0.0
 20
0.0
 30
0.0
  0
VERTEX
  5
1E9
330
1E8
100
AcDbEntity
  8
_U+30EC_U+30A4_U+30E4_U+30FC 1
 62
     7
420
 16777215
370
     9
100
AcDbVertex
100
AcDb2dVertex
 10
79.1677763135951
 20
-133.1874046889254
 30
0.0
  0
VERTEX
  5
1EA
330
1E8
100
AcDbEntity
  8
_U+30EC_U+30A4_U+30E4_U+30FC 1
 62
     7
420
 16777215
370
     9
100
AcDbVertex
100
AcDb2dVertex
 10
79.1677763135951
 20
-134.793143299635
 30
0.0
  0
SEQEND
  5
1EB
330
1E8
100
AcDbEntity
  8
_U+30EC_U+30A4_U+30E4_U+30FC 1
 62
     7
420
 16777215
370
     9
  0
POLYLINE
  5
1EC
330
1F
100
AcDbEntity
  8
_U+30EC_U+30A4_U+30E4_U+30FC 1
 62
     7
420
 16777215
370
     9
100
AcDb2dPolyline
 66
     1
 10
0.0
 20
0.0
 30
0.0
  0
VERTEX
  5
1ED
330
1EC
100
AcDbEntity
  8
_U+30EC_U+30A4_U+30E4_U+30FC 1
 62
     7
420
 16777215
370
     9
100
AcDbVertex
100
AcDb2dVertex
 10
79.1677763135951
 20
-131.1320508005505
 30
0.0
  0
VERTEX
  5
1EE
330
1EC
100
AcDbEntity
  8
_U+30EC_U+30A4_U+30E4_U+30FC 1
 62
     7
420
 16777215
370
     9
100
AcDbVertex
100
AcDb2dVertex
 10
79.1677763135951
 20
-133.1291610778288
 30
0.0
  0
SEQEND
  5
1EF
330
1EC
100
AcDbEntity
  8
_U+30EC_U+30A4_U+30E4_U+30FC 1
 62
     7
420
 16777215
370
     9
  0
POLYLINE
  5
1F0
330
1F
100
AcDbEntity
  8
_U+30EC_U+30A4_U+30E4_U+30FC 1
 62
     7
420
 16777215
370
     9
100
AcDb2dPolyline
 66
     1
 10
0.0
 20
0.0
 30
0.0
  0
VERTEX
  5
1F1
330
1F0
100
AcDbEntity
  8
_U+30EC_U+30A4_U+30E4_U+30FC 1
 62
     7
420
 16777215
370
     9
100
AcDbVertex
100
AcDb2dVertex
 10
90.92794073579053
 20
-131.1320508005505
 30
0.0
  0
VERTEX
  5
1F2
330
1F0
100
AcDbEntity
  8
_U+30EC_U+30A4_U+30E4_U+30FC 1
 62
     7
420
 16777215
370
     9
100
AcDbVertex
100
AcDb2dVertex
 10
90.92794073579053
 20
-131.1320508005505
 30
0.0
  0
SEQEND
  5
1F3
330
1F0
100
AcDbEntity
  8
_U+30EC_U+30A4_U+30E4_U+30FC 1
 62
     7
420
 16777215
370
     9
  0
POLYLINE
  5
1F4
330
1F
100
AcDbEntity
  8
_U+30EC_U+30A4_U+30E4_U+30FC 1
 62
     7
420
 16777215
370
     9
100
AcDb2dPolyline
 66
     1
 10
0.0
 20
0.0
 30
0.0
  0
VERTEX
  5
1F5
330
1F4
100
AcDbEntity
  8
_U+30EC_U+30A4_U+30E4_U+30FC 1
 62
     7
420
 16777215
370
     9
100
AcDbVertex
100
AcDb2dVertex
 10
91.80145376906091
 20
-133.1291610778288
 30
0.0
  0
VERTEX
  5
1F6
330
1F4
100
AcDbEntity
  8
_U+30EC_U+30A4_U+30E4_U+30FC 1
 62
     7
420
 16777215
370
     9
100
AcDbVertex
100
AcDb2dVertex
 10
91.80145376906091
 20
-133.1291610778288
 30
0.0
  0
SEQEND
  5
1F7
330
1F4
100
AcDbEntity
  8
_U+30EC_U+30A4_U+30E4_U+30FC 1
 62
     7
420
 16777215
370
     9
  0
POLYLINE
  5
1F8
330
1F
100
AcDbEntity
  8
_U+30EC_U+30A4_U+30E4_U+30FC 1
 62
     7
420
 16777215
370
     9
100
AcDb2dPolyline
 66
     1
 10
0.0
 20
0.0
 30
0.0
  0
VERTEX
  5
1F9
330
1F8
100
AcDbEntity
  8
_U+30EC_U+30A4_U+30E4_U+30FC 1
 62
     7
420
 16777215
370
     9
100
AcDbVertex
100
AcDb2dVertex
 10
79.1677763135951
 20
-133.1291610778288
 30
0.0
  0
VERTEX
  5
1FA
330
1F8
100
AcDbEntity
  8
_U+30EC_U+30A4_U+30E4_U+30FC 1
 62
     7
420
 16777215
370
     9
100
AcDbVertex
100
AcDb2dVertex
 10
79.1677763135951
 20
-133.1291610778288
 30
0.0
  0
SEQEND
  5
1FB
330
1F8
100
AcDbEntity
  8
_U+30EC_U+30A4_U+30E4_U+30FC 1
 62
     7
420
 16777215
370
     9
  0
POLYLINE
  5
1FC
330
1F
100
AcDbEntity
  8
_U+30EC_U+30A4_U+30E4_U+30FC 1
 62
     7
420
 16777215
370
     9
100
AcDb2dPolyline
 66
     1
 10
0.0
 20
0.0
 30
0.0
  0
VERTEX
  5
1FD
330
1FC
100
AcDbEntity
  8
_U+30EC_U+30A4_U+30E4_U+30FC 1
 62
     7
420
 16777215
370
     9
100
AcDbVertex
100
AcDb2dVertex
 10
81.15112820744001
 20
-123.520976080231
 30
0.0
  0
VERTEX
  5
1FE
330
1FC
100
AcDbEntity
  8
_U+30EC_U+30A4_U+30E4_U+30FC 1
 62
     7
420
 16777215
370
     9
100
AcDbVertex
100
AcDb2dVertex
 10
81.15112820744001
 20
-120.4782677476583
 30
0.0
  0
SEQEND
  5
1FF
330
1FC
100
AcDbEntity
  8
_U+30EC_U+30A4_U+30E4_U+30FC 1
 62
     7
420
 16777215
370
     9
  0
POLYLINE
  5
200
330
1F
100
AcDbEntity
  8
_U+30EC_U+30A4_U+30E4_U+30FC 1
 62
     7
420
 16777215
370
     9
100
AcDb2dPolyline
 66
     1
 10
0.0
 20
0.0
 30
0.0
  0
VERTEX
  5
201
330
200
100
AcDbEntity
  8
_U+30EC_U+30A4_U+30E4_U+30FC 1
 62
     7
420
 16777215
370
     9
100
AcDbVertex
100
AcDb2dVertex
 10
106.1130860845827
 20
-123.520976080231
 30
0.0
  0
VERTEX
  5
202
330
200
100
AcDbEntity
  8
_U+30EC_U+30A4_U+30E4_U+30FC 1
 62
     7
420
 16777215
370
     9
100
AcDbVertex
100
AcDb2dVertex
 10
106.1130860845827
 20
-120.4782677476583
 30
0.0
  0
SEQEND
  5
203
330
200
100
AcDbEntity
  8
_U+30EC_U+30A4_U+30E4_U+30FC 1
 62
     7
420
 16777215
370
     9
  0
POLYLINE
  5
204
330
1F
100
AcDbEntity
  8
_U+30EC_U+30A4_U+30E4_U+30FC 1
 62
     7
420
 16777215
370
     9
100
AcDb2dPolyline
 66
     1
 10
0.0
 20
0.0
 30
0.0
  0
VERTEX
  5
205
330
204
100
AcDbEntity
  8
_U+30EC_U+30A4_U+30E4_U+30FC 1
 62
     7
420
 16777215
370
     9
100
AcDbVertex
100
AcDb2dVertex
 10
81.15112820744001
 20
-120.4782677476583
 30
0.0
  0
VERTEX
  5
206
330
204
100
AcDbEntity
  8
_U+30EC_U+30A4_U+30E4_U+30FC 1
 62
     7
420
 16777215
370
     9
100
AcDbVertex
100
AcDb2dVertex
 10
106.1130860845827
 20
-120.4782677476583
 30
0.0
  0
SEQEND
  5
207
330
204
100
AcDbEntity
  8
_U+30EC_U+30A4_U+30E4_U+30FC 1
 62
     7
420
 16777215
370
     9
  0
POLYLINE
  5
208
330
1F
100
AcDbEntity
  8
_U+30EC_U+30A4_U+30E4_U+30FC 1
 62
     7
420
 16777215
370
     9
100
AcDb2dPolyline
 66
     1
 10
0.0
 20
0.0
 30
0.0
  0
VERTEX
  5
209
330
208
100
AcDbEntity
  8
_U+30EC_U+30A4_U+30E4_U+30FC 1
 62
     7
420
 16777215
370
     9
100
AcDbVertex
100
AcDb2dVertex
 10
81.15112820744001
 20
-123.832584691264
 30
0.0
  0
VERTEX
  5
20A
330
208
100
AcDbEntity
  8
_U+30EC_U+30A4_U+30E4_U+30FC 1
 62
     7
420
 16777215
370
     9
100
AcDbVertex
100
AcDb2dVertex
 10
81.15112820744001
 20
-123.832584691264
 30
0.0
  0
SEQEND
  5
20B
330
208
100
AcDbEntity
  8
_U+30EC_U+30A4_U+30E4_U+30FC 1
 62
     7
420
 16777215
370
     9
  0
POLYLINE
  5
20C
330
1F
100
AcDbEntity
  8
_U+30EC_U+30A4_U+30E4_U+30FC 1
 62
     7
420
 16777215
370
     9
100
AcDb2dPolyline
 66
     1
 10
0.0
 20
0.0
 30
0.0
  0
VERTEX
  5
20D
330
20C
100
AcDbEntity
  8
_U+30EC_U+30A4_U+30E4_U+30FC 1
 62
     7
420
 16777215
370
     9
100
AcDbVertex
100
AcDb2dVertex
 10
106.1130860845827
 20
-120.4782677476583
 30
0.0
  0
VERTEX
  5
20E
330
20C
100
AcDbEntity
  8
_U+30EC_U+30A4_U+30E4_U+30FC 1
 62
     7
420
 16777215
370
     9
100
AcDbVertex
100
AcDb2dVertex
 10
106.1130860845827
 20
-120.4782677476583
 30
0.0
  0
SEQEND
  5
20F
330
20C
100
AcDbEntity
  8
_U+30EC_U+30A4_U+30E4_U+30FC 1
 62
     7
420
 16777215
370
     9
  0
POLYLINE
  5
210
330
1F
100
AcDbEntity
  8
_U+30EC_U+30A4_U+30E4_U+30FC 1
 62
     7
420
 16777215
370
     9
100
AcDb2dPolyline
 66
     1
 10
0.0
 20
0.0
 30
0.0
  0
VERTEX
  5
211
330
210
100
AcDbEntity
  8
_U+30EC_U+30A4_U+30E4_U+30FC 1
 62
     7
420
 16777215
370
     9
100
AcDbVertex
100
AcDb2dVertex
 10
92.60966763733055
 20
-129.4394583009738
 30
0.0
  0
VERTEX
  5
212
330
210
100
AcDbEntity
  8
_U+30EC_U+30A4_U+30E4_U+30FC 1
 62
     7
420
 16777215
370
     9
100
AcDbVertex
100
AcDb2dVertex
 10
99.25458969002668
 20
-129.4394583009738
 30
0.0
  0
SEQEND
  5
213
330
210
100
AcDbEntity
  8
_U+30EC_U+30A4_U+30E4_U+30FC 1
 62
     7
420
 16777215
370
     9
  0
POLYLINE
  5
214
330
1F
100
AcDbEntity
  8
_U+30EC_U+30A4_U+30E4_U+30FC 1
 62
     7
420
 16777215
370
     9
100
AcDb2dPolyline
 66
     1
 10
0.0
 20
0.0
 30
0.0
  0
VERTEX
  5
215
330
214
100
AcDbEntity
  8
_U+30EC_U+30A4_U+30E4_U+30FC 1
 62
     7
420
 16777215
370
     9
100
AcDbVertex
100
AcDb2dVertex
 10
99.25458969002668
 20
-129.4394583009738
 30
0.0
  0
VERTEX
  5
216
330
214
100
AcDbEntity
  8
_U+30EC_U+30A4_U+30E4_U+30FC 1
 62
     7
420
 16777215
370
     9
100
AcDbVertex
100
AcDb2dVertex
 10
101.8914624005322
 20
-128.2181769123898
 30
0.0
  0
SEQEND
  5
217
330
214
100
AcDbEntity
  8
_U+30EC_U+30A4_U+30E4_U+30FC 1
 62
     7
420
 16777215
370
     9
  0
SPLINE
  5
218
330
1F
100
AcDbEntity
  8
_U+30EC_U+30A4_U+30E4_U+30FC 1
370
     0
100
AcDbSpline
210
0.0
220
0.0
230
1.0
 70
    11
 71
     3
 72
    17
 73
    13
 74
     0
 42
0.0000000001
 43
0.0000000001
 12
1.0
 22
0.0
 32
0.0
 13
1.0
 23
0.0
 33
0.0
 40
0.0
 40
0.0
 40
0.0
 40
0.0
 40
1.0
 40
1.0
 40
1.0
 40
2.0
 40
2.0
 40
2.0
 40
3.0
 40
3.0
 40
3.0
 40
4.0
 40
4.0
 40
4.0
 40
4.0
 10
79.17603331353922
 20
-133.2294205222481
 30
0.0
 10
79.23117047864444
 20
-133.2294205222481
 30
0.0
 10
79.27593797750232
 20
-133.1846530222596
 30
0.0
 10
79.27593797750232
 20
-133.1295138556065
 30
0.0
 10
79.27593797750232
 20
-133.0737044111761
 30
0.0
 10
79.23117047864444
 20
-133.0292544111871
 30
0.0
 10
79.17603331353922
 20
-133.0292544111871
 30
0.0
 10
79.12092742590141
 20
-133.0292544111871
 30
0.0
 10
79.07594826038226
 20
-133.0737044111761
 30
0.0
 10
79.07594826038226
 20
-133.1295138556065
 30
0.0
 10
79.07594826038226
 20
-133.1846530222596
 30
0.0
 10
79.12092742590141
 20
-133.2294205222481
 30
0.0
 10
79.17603331353922
 20
-133.2294205222481
 30
0.0
  0
HATCH
  5
219
330
1F
100
AcDbEntity
  8
_U+30EC_U+30A4_U+30E4_U+30FC 1
 62
     7
420
 16777215
100
AcDbHatch
 10
0.0
 20
0.0
 30
0.0
210
0.0
220
0.0
230
1.0
  2
SOLID
 70
     1
 71
     0
 91
        1
 92
        1
 93
        1
 72
     4
 94
        3
 73
     0
 74
     1
 95
       17
 96
       13
 40
0.0
 40
0.0
 40
0.0
 40
0.0
 40
1.0
 40
1.0
 40
1.0
 40
2.0
 40
2.0
 40
2.0
 40
3.0
 40
3.0
 40
3.0
 40
4.0
 40
4.0
 40
4.0
 40
4.0
 10
79.17603331353922
 20
-133.2294205222481
 10
79.23117047864444
 20
-133.2294205222481
 10
79.27593797750232
 20
-133.1846530222596
 10
79.27593797750232
 20
-133.1295138556065
 10
79.27593797750232
 20
-133.0737044111761
 10
79.23117047864444
 20
-133.0292544111871
 10
79.17603331353922
 20
-133.0292544111871
 10
79.12092742590141
 20
-133.0292544111871
 10
79.07594826038226
 20
-133.0737044111761
 10
79.07594826038226
 20
-133.1295138556065
 10
79.07594826038226
 20
-133.1846530222596
 10
79.12092742590141
 20
-133.2294205222481
 10
79.17603331353922
 20
-133.2294205222481
 97
        0
 97
        0
 75
     2
 76
     1
 98
        0
  0
SPLINE
  5
21A
330
1F
100
AcDbEntity
  8
_U+30EC_U+30A4_U+30E4_U+30FC 1
370
     0
100
AcDbSpline
210
0.0
220
0.0
230
1.0
 70
    11
 71
     3
 72
    17
 73
    13
 74
     0
 42
0.0000000001
 43
0.0000000001
 12
1.0
 22
0.0
 32
0.0
 13
1.0
 23
0.0
 33
0.0
 40
0.0
 40
0.0
 40
0.0
 40
0.0
 40
1.0
 40
1.0
 40
1.0
 40
2.0
 40
2.0
 40
2.0
 40
3.0
 40
3.0
 40
3.0
 40
4.0
 40
4.0
 40
4.0
 40
4.0
 10
91.12225073083326
 20
-138.9262171874906
 30
0.0
 10
91.17770739608511
 20
-138.9262171874906
 30
0.0
 10
91.2223360883054
 20
-138.8814496875021
 30
0.0
 10
91.2223360883054
 20
-138.826310520849
 30
0.0
 10
91.2223360883054
 20
-138.7712066319741
 30
0.0
 10
91.17770739608511
 20
-138.7264038542073
 30
0.0
 10
91.12225073083326
 20
-138.7264038542073
 30
0.0
 10
91.06714684335019
 20
-138.7264038542073
 30
0.0
 10
91.02216767783104
 20
-138.7712066319741
 30
0.0
 10
91.02216767783104
 20
-138.826310520849
 30
0.0
 10
91.02216767783104
 20
-138.8814496875021
 30
0.0
 10
91.06714684335019
 20
-138.9262171874906
 30
0.0
 10
91.12225073083326
 20
-138.9262171874906
 30
0.0
  0
HATCH
  5
21B
330
1F
100
AcDbEntity
  8
_U+30EC_U+30A4_U+30E4_U+30FC 1
 62
     7
420
 16777215
100
AcDbHatch
 10
0.0
 20
0.0
 30
0.0
210
0.0
220
0.0
230
1.0
  2
SOLID
 70
     1
 71
     0
 91
        1
 92
        1
 93
        1
 72
     4
 94
        3
 73
     0
 74
     1
 95
       17
 96
       13
 40
0.0
 40
0.0
 40
0.0
 40
0.0
 40
1.0
 40
1.0
 40
1.0
 40
2.0
 40
2.0
 40
2.0
 40
3.0
 40
3.0
 40
3.0
 40
4.0
 40
4.0
 40
4.0
 40
4.0
 10
91.12225073083326
 20
-138.9262171874906
 10
91.17770739608511
 20
-138.9262171874906
 10
91.2223360883054
 20
-138.8814496875021
 10
91.2223360883054
 20
-138.826310520849
 10
91.2223360883054
 20
-138.7712066319741
 10
91.17770739608511
 20
-138.7264038542073
 10
91.12225073083326
 20
-138.7264038542073
 10
91.06714684335019
 20
-138.7264038542073
 10
91.02216767783104
 20
-138.7712066319741
 10
91.02216767783104
 20
-138.826310520849
 10
91.02216767783104
 20
-138.8814496875021
 10
91.06714684335019
 20
-138.9262171874906
 10
91.12225073083326
 20
-138.9262171874906
 97
        0
 97
        0
 75
     2
 76
     1
 98
        0
  0
SPLINE
  5
21C
330
1F
100
AcDbEntity
  8
_U+30EC_U+30A4_U+30E4_U+30FC 1
370
     0
100
AcDbSpline
210
0.0
220
0.0
230
1.0
 70
    11
 71
     3
 72
    17
 73
    13
 74
     0
 42
0.0000000001
 43
0.0000000001
 12
1.0
 22
0.0
 32
0.0
 13
1.0
 23
0.0
 33
0.0
 40
0.0
 40
0.0
 40
0.0
 40
0.0
 40
1.0
 40
1.0
 40
1.0
 40
2.0
 40
2.0
 40
2.0
 40
3.0
 40
3.0
 40
3.0
 40
4.0
 40
4.0
 40
4.0
 40
4.0
 10
79.17603331353922
 20
-131.2481499671878
 30
0.0
 10
79.23117047864444
 20
-131.2481499671878
 30
0.0
 10
79.27593797750232
 20
-131.2036999671988
 30
0.0
 10
79.27593797750232
 20
-131.1478905227684
 30
0.0
 10
79.27593797750232
 20
-131.0927866338935
 30
0.0
 10
79.23117047864444
 20
-131.0479838561267
 30
0.0
 10
79.17603331353922
 20
-131.0479838561267
 30
0.0
 10
79.12092742590141
 20
-131.0479838561267
 30
0.0
 10
79.07594826038226
 20
-131.0927866338935
 30
0.0
 10
79.07594826038226
 20
-131.1478905227684
 30
0.0
 10
79.07594826038226
 20
-131.2036999671988
 30
0.0
 10
79.12092742590141
 20
-131.2481499671878
 30
0.0
 10
79.17603331353922
 20
-131.2481499671878
 30
0.0
  0
HATCH
  5
21D
330
1F
100
AcDbEntity
  8
_U+30EC_U+30A4_U+30E4_U+30FC 1
 62
     7
420
 16777215
100
AcDbHatch
 10
0.0
 20
0.0
 30
0.0
210
0.0
220
0.0
230
1.0
  2
SOLID
 70
     1
 71
     0
 91
        1
 92
        1
 93
        1
 72
     4
 94
        3
 73
     0
 74
     1
 95
       17
 96
       13
 40
0.0
 40
0.0
 40
0.0
 40
0.0
 40
1.0
 40
1.0
 40
1.0
 40
2.0
 40
2.0
 40
2.0
 40
3.0
 40
3.0
 40
3.0
 40
4.0
 40
4.0
 40
4.0
 40
4.0
 10
79.17603331353922
 20
-131.2481499671878
 10
79.23117047864444
 20
-131.2481499671878
 10
79.27593797750232
 20
-131.2036999671988
 10
79.27593797750232
 20
-131.1478905227684
 10
79.27593797750232
 20
-131.0927866338935
 10
79.23117047864444
 20
-131.0479838561267
 10
79.17603331353922
 20
-131.0479838561267
 10
79.12092742590141
 20
-131.0479838561267
 10
79.07594826038226
 20
-131.0927866338935
 10
79.07594826038226
 20
-131.1478905227684
 10
79.07594826038226
 20
-131.2036999671988
 10
79.12092742590141
 20
-131.2481499671878
 10
79.17603331353922
 20
-131.2481499671878
 97
        0
 97
        0
 75
     2
 76
     1
 98
        0
  0
SPLINE
  5
21E
330
1F
100
AcDbEntity
  8
_U+30EC_U+30A4_U+30E4_U+30FC 1
370
     0
100
AcDbSpline
210
0.0
220
0.0
230
1.0
 70
    11
 71
     3
 72
    17
 73
    13
 74
     0
 42
0.0000000001
 43
0.0000000001
 12
1.0
 22
0.0
 32
0.0
 13
1.0
 23
0.0
 33
0.0
 40
0.0
 40
0.0
 40
0.0
 40
0.0
 40
1.0
 40
1.0
 40
1.0
 40
2.0
 40
2.0
 40
2.0
 40
3.0
 40
3.0
 40
3.0
 40
4.0
 40
4.0
 40
4.0
 40
4.0
 10
79.19257659074016
 20
-124.5958546910732
 30
0.0
 10
79.24771575600012
 20
-124.5958546910732
 30
0.0
 10
79.292483254858
 20
-124.5510519133068
 30
0.0
 10
79.292483254858
 20
-124.4957716355426
 30
0.0
 10
79.292483254858
 20
-124.4402796911121
 30
0.0
 10
79.24771575600012
 20
-124.395864968901
 30
0.0
 10
79.19257659074016
 20
-124.395864968901
 30
0.0
 10
79.13747270325709
 20
-124.395864968901
 30
0.0
 10
79.09249353773794
 20
-124.4402796911121
 30
0.0
 10
79.09249353773794
 20
-124.4957716355426
 30
0.0
 10
79.09249353773794
 20
-124.5510519133068
 30
0.0
 10
79.13747270325709
 20
-124.5958546910732
 30
0.0
 10
79.19257659074016
 20
-124.5958546910732
 30
0.0
  0
HATCH
  5
21F
330
1F
100
AcDbEntity
  8
_U+30EC_U+30A4_U+30E4_U+30FC 1
 62
     7
420
 16777215
100
AcDbHatch
 10
0.0
 20
0.0
 30
0.0
210
0.0
220
0.0
230
1.0
  2
SOLID
 70
     1
 71
     0
 91
        1
 92
        1
 93
        1
 72
     4
 94
        3
 73
     0
 74
     1
 95
       17
 96
       13
 40
0.0
 40
0.0
 40
0.0
 40
0.0
 40
1.0
 40
1.0
 40
1.0
 40
2.0
 40
2.0
 40
2.0
 40
3.0
 40
3.0
 40
3.0
 40
4.0
 40
4.0
 40
4.0
 40
4.0
 10
79.19257659074016
 20
-124.5958546910732
 10
79.24771575600012
 20
-124.5958546910732
 10
79.292483254858
 20
-124.5510519133068
 10
79.292483254858
 20
-124.4957716355426
 10
79.292483254858
 20
-124.4402796911121
 10
79.24771575600012
 20
-124.395864968901
 10
79.19257659074016
 20
-124.395864968901
 10
79.13747270325709
 20
-124.395864968901
 10
79.09249353773794
 20
-124.4402796911121
 10
79.09249353773794
 20
-124.4957716355426
 10
79.09249353773794
 20
-124.5510519133068
 10
79.13747270325709
 20
-124.5958546910732
 10
79.19257659074016
 20
-124.5958546910732
 97
        0
 97
        0
 75
     2
 76
     1
 98
        0
  0
SPLINE
  5
220
330
1F
100
AcDbEntity
  8
_U+30EC_U+30A4_U+30E4_U+30FC 1
370
     0
100
AcDbSpline
210
0.0
220
0.0
230
1.0
 70
    11
 71
     3
 72
    17
 73
    13
 74
     0
 42
0.0000000001
 43
0.0000000001
 12
1.0
 22
0.0
 32
0.0
 13
1.0
 23
0.0
 33
0.0
 40
0.0
 40
0.0
 40
0.0
 40
0.0
 40
1.0
 40
1.0
 40
1.0
 40
2.0
 40
2.0
 40
2.0
 40
3.0
 40
3.0
 40
3.0
 40
4.0
 40
4.0
 40
4.0
 40
4.0
 10
81.1688749797078
 20
-120.575246358745
 30
0.0
 10
81.22432959446138
 20
-120.575246358745
 30
0.0
 10
81.26895598221175
 20
-120.5302671920897
 30
0.0
 10
81.26895598221175
 20
-120.4751633032145
 30
0.0
 10
81.26895598221175
 20
-120.4198830254507
 30
0.0
 10
81.22432959446138
 20
-120.3752566365728
 30
0.0
 10
81.1688749797078
 20
-120.3752566365728
 30
0.0
 10
81.1133809861808
 20
-120.3752566365728
 30
0.0
 10
81.0687898762073
 20
-120.4198830254507
 30
0.0
 10
81.0687898762073
 20
-120.4751633032145
 30
0.0
 10
81.0687898762073
 20
-120.5302671920897
 30
0.0
 10
81.1133809861808
 20
-120.575246358745
 30
0.0
 10
81.1688749797078
 20
-120.575246358745
 30
0.0
  0
HATCH
  5
221
330
1F
100
AcDbEntity
  8
_U+30EC_U+30A4_U+30E4_U+30FC 1
 62
     7
420
 16777215
100
AcDbHatch
 10
0.0
 20
0.0
 30
0.0
210
0.0
220
0.0
230
1.0
  2
SOLID
 70
     1
 71
     0
 91
        1
 92
        1
 93
        1
 72
     4
 94
        3
 73
     0
 74
     1
 95
       17
 96
       13
 40
0.0
 40
0.0
 40
0.0
 40
0.0
 40
1.0
 40
1.0
 40
1.0
 40
2.0
 40
2.0
 40
2.0
 40
3.0
 40
3.0
 40
3.0
 40
4.0
 40
4.0
 40
4.0
 40
4.0
 10
81.1688749797078
 20
-120.575246358745
 10
81.22432959446138
 20
-120.575246358745
 10
81.26895598221175
 20
-120.5302671920897
 10
81.26895598221175
 20
-120.4751633032145
 10
81.26895598221175
 20
-120.4198830254507
 10
81.22432959446138
 20
-120.3752566365728
 10
81.1688749797078
 20
-120.3752566365728
 10
81.1133809861808
 20
-120.3752566365728
 10
81.0687898762073
 20
-120.4198830254507
 10
81.0687898762073
 20
-120.4751633032145
 10
81.0687898762073
 20
-120.5302671920897
 10
81.1133809861808
 20
-120.575246358745
 10
81.1688749797078
 20
-120.575246358745
 97
        0
 97
        0
 75
     2
 76
     1
 98
        0
  0
SPLINE
  5
222
330
1F
100
AcDbEntity
  8
_U+30EC_U+30A4_U+30E4_U+30FC 1
370
     0
100
AcDbSpline
210
0.0
220
0.0
230
1.0
 70
    11
 71
     3
 72
    17
 73
    13
 74
     0
 42
0.0000000001
 43
0.0000000001
 12
1.0
 22
0.0
 32
0.0
 13
1.0
 23
0.0
 33
0.0
 40
0.0
 40
0.0
 40
0.0
 40
0.0
 40
1.0
 40
1.0
 40
1.0
 40
2.0
 40
2.0
 40
2.0
 40
3.0
 40
3.0
 40
3.0
 40
4.0
 40
4.0
 40
4.0
 40
4.0
 10
106.0924106266905
 20
-120.5864294142979
 30
0.0
 10
106.1475145141735
 20
-120.5864294142979
 30
0.0
 10
106.1923172908083
 20
-120.5414855254202
 30
0.0
 10
106.1923172908083
 20
-120.4863463587674
 30
0.0
 10
106.1923172908083
 20
-120.4310660810033
 30
0.0
 10
106.1475145141735
 20
-120.3864396921258
 30
0.0
 10
106.0924106266905
 20
-120.3864396921258
 30
0.0
 10
106.0369186836617
 20
-120.3864396921258
 30
0.0
 10
105.9921511848038
 20
-120.4310660810033
 30
0.0
 10
105.9921511848038
 20
-120.4863463587674
 30
0.0
 10
105.9921511848038
 20
-120.5414855254202
 30
0.0
 10
106.0369186836617
 20
-120.5864294142979
 30
0.0
 10
106.0924106266905
 20
-120.5864294142979
 30
0.0
  0
HATCH
  5
223
330
1F
100
AcDbEntity
  8
_U+30EC_U+30A4_U+30E4_U+30FC 1
 62
     7
420
 16777215
100
AcDbHatch
 10
0.0
 20
0.0
 30
0.0
210
0.0
220
0.0
230
1.0
  2
SOLID
 70
     1
 71
     0
 91
        1
 92
        1
 93
        1
 72
     4
 94
        3
 73
     0
 74
     1
 95
       17
 96
       13
 40
0.0
 40
0.0
 40
0.0
 40
0.0
 40
1.0
 40
1.0
 40
1.0
 40
2.0
 40
2.0
 40
2.0
 40
3.0
 40
3.0
 40
3.0
 40
4.0
 40
4.0
 40
4.0
 40
4.0
 10
106.0924106266905
 20
-120.5864294142979
 10
106.1475145141735
 20
-120.5864294142979
 10
106.1923172908083
 20
-120.5414855254202
 10
106.1923172908083
 20
-120.4863463587674
 10
106.1923172908083
 20
-120.4310660810033
 10
106.1475145141735
 20
-120.3864396921258
 10
106.0924106266905
 20
-120.3864396921258
 10
106.0369186836617
 20
-120.3864396921258
 10
105.9921511848038
 20
-120.4310660810033
 10
105.9921511848038
 20
-120.4863463587674
 10
105.9921511848038
 20
-120.5414855254202
 10
106.0369186836617
 20
-120.5864294142979
 10
106.0924106266905
 20
-120.5864294142979
 97
        0
 97
        0
 75
     2
 76
     1
 98
        0
  0
SPLINE
  5
224
330
1F
100
AcDbEntity
  8
_U+30EC_U+30A4_U+30E4_U+30FC 1
370
     0
100
AcDbSpline
210
0.0
220
0.0
230
1.0
 70
    11
 71
     3
 72
    17
 73
    13
 74
     0
 42
0.0000000001
 43
0.0000000001
 12
1.0
 22
0.0
 32
0.0
 13
1.0
 23
0.0
 33
0.0
 40
0.0
 40
0.0
 40
0.0
 40
0.0
 40
1.0
 40
1.0
 40
1.0
 40
2.0
 40
2.0
 40
2.0
 40
3.0
 40
3.0
 40
3.0
 40
4.0
 40
4.0
 40
4.0
 40
4.0
 10
106.7807153313526
 20
-138.9262171874906
 30
0.0
 10
106.8358544966125
 20
-138.9262171874906
 30
0.0
 10
106.8806572732473
 20
-138.8814496875021
 30
0.0
 10
106.8806572732473
 20
-138.8259930208488
 30
0.0
 10
106.8806572732473
 20
-138.7708538541963
 30
0.0
 10
106.8358544966125
 20
-138.7264038542073
 30
0.0
 10
106.7807153313526
 20
-138.7264038542073
 30
0.0
 10
106.7256114438695
 20
-138.7264038542073
 30
0.0
 10
106.6804911672428
 20
-138.7708538541963
 30
0.0
 10
106.6804911672428
 20
-138.8259930208488
 30
0.0
 10
106.6804911672428
 20
-138.8814496875021
 30
0.0
 10
106.7256114438695
 20
-138.9262171874906
 30
0.0
 10
106.7807153313526
 20
-138.9262171874906
 30
0.0
  0
HATCH
  5
225
330
1F
100
AcDbEntity
  8
_U+30EC_U+30A4_U+30E4_U+30FC 1
 62
     7
420
 16777215
100
AcDbHatch
 10
0.0
 20
0.0
 30
0.0
210
0.0
220
0.0
230
1.0
  2
SOLID
 70
     1
 71
     0
 91
        1
 92
        1
 93
        1
 72
     4
 94
        3
 73
     0
 74
     1
 95
       17
 96
       13
 40
0.0
 40
0.0
 40
0.0
 40
0.0
 40
1.0
 40
1.0
 40
1.0
 40
2.0
 40
2.0
 40
2.0
 40
3.0
 40
3.0
 40
3.0
 40
4.0
 40
4.0
 40
4.0
 40
4.0
 10
106.7807153313526
 20
-138.9262171874906
 10
106.8358544966125
 20
-138.9262171874906
 10
106.8806572732473
 20
-138.8814496875021
 10
106.8806572732473
 20
-138.8259930208488
 10
106.8806572732473
 20
-138.7708538541963
 10
106.8358544966125
 20
-138.7264038542073
 10
106.7807153313526
 20
-138.7264038542073
 10
106.7256114438695
 20
-138.7264038542073
 10
106.6804911672428
 20
-138.7708538541963
 10
106.6804911672428
 20
-138.8259930208488
 10
106.6804911672428
 20
-138.8814496875021
 10
106.7256114438695
 20
-138.9262171874906
 10
106.7807153313526
 20
-138.9262171874906
 97
        0
 97
        0
 75
     2
 76
     1
 98
        0
  0
ENDSEC
  0
SECTION
  2
OBJECTS
  0
DICTIONARY
  5
C
330
0
100
AcDbDictionary
281
     1
  3
ACAD_GROUP
350
D
  3
ACAD_LAYOUT
350
1A
  3
ACAD_MATERIAL
350
3B
  3
ACAD_MLEADERSTYLE
350
227
  3
ACAD_MLINESTYLE
350
17
  3
ACAD_PLOTSETTINGS
350
19
  3
ACAD_PLOTSTYLENAME
350
E
  3
ACAD_TABLESTYLE
350
226
  3
ACAD_VISUALSTYLE
350
2A
  0
SUN
  5
3F
330
29
100
AcDbSun
 90
        1
290
     0
 63
     7
421
 16777215
 40
1.0
291
     1
 91
  2455826
 92
 54000000
292
     0
 70
     2
 71
   256
280
     1
  0
DICTIONARY
  5
D
102
{ACAD_REACTORS
330
C
102
}
330
C
100
AcDbDictionary
281
     1
  0
DICTIONARY
  5
1A
102
{ACAD_REACTORS
330
C
102
}
330
C
100
AcDbDictionary
281
     1
  3
Layout1
350
1E
  3
Layout2
350
26
  3
Model
350
22
  0
DICTIONARY
  5
3B
102
{ACAD_REACTORS
330
C
102
}
330
C
100
AcDbDictionary
281
     1
  3
ByBlock
350
3D
  3
ByLayer
350
3C
  3
Global
350
3E
  0
DICTIONARY
  5
227
102
{ACAD_REACTORS
330
C
102
}
330
C
100
AcDbDictionary
281
     1
  0
DICTIONARY
  5
17
102
{ACAD_REACTORS
330
C
102
}
330
C
100
AcDbDictionary
281
     1
  3
Standard
350
18
  0
DICTIONARY
  5
19
102
{ACAD_REACTORS
330
C
102
}
330
C
100
AcDbDictionary
281
     1
  0
ACDBDICTIONARYWDFLT
  5
E
102
{ACAD_REACTORS
330
C
102
}
330
C
100
AcDbDictionary
281
     1
  3
Normal
350
F
100
AcDbDictionaryWithDefault
340
F
  0
DICTIONARY
  5
226
102
{ACAD_REACTORS
330
C
102
}
330
C
100
AcDbDictionary
281
     1
  0
DICTIONARY
  5
2A
102
{ACAD_REACTORS
330
C
102
}
330
C
100
AcDbDictionary
281
     1
  3
2dWireframe
350
2F
  3
3D Hidden
350
31
  3
3dWireframe
350
30
  3
Basic
350
32
  3
Brighten
350
36
  3
ColorChange
350
3A
  3
Conceptual
350
34
  3
Dim
350
35
  3
Facepattern
350
39
  3
Flat
350
2B
  3
FlatWithEdges
350
2C
  3
Gouraud
350
2D
  3
GouraudWithEdges
350
2E
  3
Linepattern
350
38
  3
Realistic
350
33
  3
Thicken
350
37
  0
LAYOUT
  5
1E
102
{ACAD_REACTORS
330
1A
102
}
330
1A
100
AcDbPlotSettings
  1

  2
none_device
  4

  6

 40
0.0
 41
0.0
 42
0.0
 43
0.0
 44
0.0
 45
0.0
 46
0.0
 47
0.0
 48
0.0
 49
0.0
140
0.0
141
0.0
142
1.0
143
1.0
 70
   688
 72
     0
 73
     0
 74
     5
  7

 75
    16
 76
     0
 77
     2
 78
   300
147
1.0
148
0.0
149
0.0
100
AcDbLayout
  1
Layout1
 70
     1
 71
     1
 10
0.0
 20
0.0
 11
12.0
 21
9.0
 12
0.0
 22
0.0
 32
0.0
 14
1.000000000000000E+20
 24
1.000000000000000E+20
 34
1.000000000000000E+20
 15
-1.000000000000000E+20
 25
-1.000000000000000E+20
 35
-1.000000000000000E+20
146
0.0
 13
0.0
 23
0.0
 33
0.0
 16
1.0
 26
0.0
 36
0.0
 17
0.0
 27
1.0
 37
0.0
 76
     0
330
1B
  0
LAYOUT
  5
26
102
{ACAD_REACTORS
330
1A
102
}
330
1A
100
AcDbPlotSettings
  1

  2
none_device
  4

  6

 40
0.0
 41
0.0
 42
0.0
 43
0.0
 44
0.0
 45
0.0
 46
0.0
 47
0.0
 48
0.0
 49
0.0
140
0.0
141
0.0
142
1.0
143
1.0
 70
   688
 72
     0
 73
     0
 74
     5
  7

 75
    16
 76
     0
 77
     2
 78
   300
147
1.0
148
0.0
149
0.0
100
AcDbLayout
  1
Layout2
 70
     1
 71
     2
 10
0.0
 20
0.0
 11
0.0
 21
0.0
 12
0.0
 22
0.0
 32
0.0
 14
0.0
 24
0.0
 34
0.0
 15
0.0
 25
0.0
 35
0.0
146
0.0
 13
0.0
 23
0.0
 33
0.0
 16
1.0
 26
0.0
 36
0.0
 17
0.0
 27
1.0
 37
0.0
 76
     0
330
23
  0
LAYOUT
  5
22
102
{ACAD_REACTORS
330
1A
102
}
330
1A
100
AcDbPlotSettings
  1

  2
none_device
  4

  6

 40
0.0
 41
0.0
 42
0.0
 43
0.0
 44
0.0
 45
0.0
 46
0.0
 47
0.0
 48
0.0
 49
0.0
140
0.0
141
0.0
142
1.0
143
1.0
 70
  1712
 72
     0
 73
     0
 74
     0
  7

 75
     0
 76
     0
 77
     2
 78
   300
147
1.0
148
0.0
149
0.0
100
AcDbLayout
  1
Model
 70
     1
 71
     0
 10
0.0
 20
0.0
 11
12.0
 21
9.0
 12
0.0
 22
0.0
 32
0.0
 14
1.000000000000000E+20
 24
1.000000000000000E+20
 34
1.000000000000000E+20
 15
-1.000000000000000E+20
 25
-1.000000000000000E+20
 35
-1.000000000000000E+20
146
0.0
 13
0.0
 23
0.0
 33
0.0
 16
1.0
 26
0.0
 36
0.0
 17
0.0
 27
1.0
 37
0.0
 76
     0
330
1F
331
29
  0
MATERIAL
  5
3D
102
{ACAD_REACTORS
330
3B
102
}
330
3B
100
AcDbMaterial
  1
ByBlock
 72
     1
 94
      127
  0
MATERIAL
  5
3C
102
{ACAD_REACTORS
330
3B
102
}
330
3B
100
AcDbMaterial
  1
ByLayer
 72
     1
 94
      127
  0
MATERIAL
  5
3E
102
{ACAD_REACTORS
330
3B
102
}
330
3B
100
AcDbMaterial
  1
Global
 72
     1
 94
      127
  0
MLINESTYLE
  5
18
102
{ACAD_REACTORS
330
17
102
}
330
17
100
AcDbMlineStyle
  2
Standard
 70
     0
  3

 62
   256
 51
90.0
 52
90.0
 71
     2
 49
0.5
 62
   256
  6
BYLAYER
 49
-0.5
 62
   256
  6
BYLAYER
  0
ACDBPLACEHOLDER
  5
F
102
{ACAD_REACTORS
330
E
102
}
330
E
  0
VISUALSTYLE
  5
2F
102
{ACAD_REACTORS
330
2A
102
}
330
2A
100
AcDbVisualStyle
  2
2dWireframe
 70
     4
177
     2
291
     0
 71
     0
176
     1
 72
     2
176
     1
 73
     0
176
     1
 90
        0
176
     1
 40
-0.6
176
     1
 41
-30.0
176
     1
 62
     5
 63
     7
421
 16777215
176
     1
 74
     1
176
     1
 91
        4
176
     1
 64
     7
176
     1
 65
   257
176
     1
 75
     1
176
     1
175
     1
176
     1
 42
1.0
176
     1
 92
        0
176
     1
 66
   257
176
     1
 43
1.0
176
     1
 76
     1
176
     1
 77
     6
176
     1
 78
     2
176
     1
 67
     7
176
     1
 79
     5
176
     1
170
     0
176
     1
171
     0
176
     1
290
     0
176
     1
 93
        1
176
     1
 44
0.0
176
     1
173
     0
176
     1
  0
VISUALSTYLE
  5
31
102
{ACAD_REACTORS
330
2A
102
}
330
2A
100
AcDbVisualStyle
  2
3D Hidden
 70
     6
177
     2
291
     0
 71
     1
176
     1
 72
     2
176
     1
 73
     2
176
     1
 90
        0
176
     1
 40
-0.6
176
     1
 41
-30.0
176
     1
 62
     5
 63
     7
421
 16777215
176
     1
 74
     2
176
     1
 91
        2
176
     1
 64
     7
176
     1
 65
   257
176
     1
 75
     2
176
     1
175
     1
176
     1
 42
40.0
176
     1
 92
        0
176
     1
 66
   257
176
     1
 43
1.0
176
     1
 76
     1
176
     1
 77
     6
176
     1
 78
     2
176
     1
 67
     7
176
     1
 79
     3
176
     1
170
     0
176
     1
171
     0
176
     1
290
     0
176
     1
 93
        1
176
     1
 44
0.0
176
     1
173
     0
176
     1
  0
VISUALSTYLE
  5
30
102
{ACAD_REACTORS
330
2A
102
}
330
2A
100
AcDbVisualStyle
  2
3dWireframe
 70
     5
177
     2
291
     0
 71
     0
176
     1
 72
     2
176
     1
 73
     0
176
     1
 90
        0
176
     1
 40
-0.6
176
     1
 41
-30.0
176
     1
 62
     5
 63
     7
421
 16777215
176
     1
 74
     1
176
     1
 91
        4
176
     1
 64
     7
176
     1
 65
   257
176
     1
 75
     1
176
     1
175
     1
176
     1
 42
1.0
176
     1
 92
        0
176
     1
 66
   257
176
     1
 43
1.0
176
     1
 76
     1
176
     1
 77
     6
176
     1
 78
     2
176
     1
 67
     7
176
     1
 79
     5
176
     1
170
     0
176
     1
171
     0
176
     1
290
     0
176
     1
 93
        1
176
     1
 44
0.0
176
     1
173
     0
176
     1
  0
VISUALSTYLE
  5
32
102
{ACAD_REACTORS
330
2A
102
}
330
2A
100
AcDbVisualStyle
  2
Basic
 70
     7
177
     2
291
     1
 71
     1
176
     1
 72
     0
176
     1
 73
     1
176
     1
 90
        0
176
     1
 40
-0.6
176
     1
 41
-30.0
176
     1
 62
     5
 63
     7
421
 16777215
176
     1
 74
     0
176
     1
 91
        4
176
     1
 64
     7
176
     1
 65
   257
176
     1
 75
     1
176
     1
175
     1
176
     1
 42
1.0
176
     1
 92
        8
176
     1
 66
     7
176
     1
 43
1.0
176
     1
 76
     1
176
     1
 77
     6
176
     1
 78
     2
176
     1
 67
     7
176
     1
 79
     5
176
     1
170
     0
176
     1
171
     0
176
     1
290
     0
176
     1
 93
        1
176
     1
 44
0.0
176
     1
173
     0
176
     1
  0
VISUALSTYLE
  5
36
102
{ACAD_REACTORS
330
2A
102
}
330
2A
100
AcDbVisualStyle
  2
Brighten
 70
    12
177
     2
291
     1
 71
     2
176
     1
 72
     2
176
     1
 73
     0
176
     1
 90
        0
176
     1
 40
-0.6
176
     1
 41
-30.0
176
     1
 62
     5
 63
     7
421
 16777215
176
     1
 74
     1
176
     1
 91
        4
176
     1
 64
     7
176
     1
 65
   257
176
     1
 75
     1
176
     1
175
     1
176
     1
 42
1.0
176
     1
 92
        8
176
     1
 66
     7
176
     1
 43
1.0
176
     1
 76
     1
176
     1
 77
     6
176
     1
 78
     2
176
     1
 67
     7
176
     1
 79
     5
176
     1
170
     0
176
     1
171
     0
176
     1
290
     0
176
     1
 93
        1
176
     1
 44
50.0
176
     1
173
     0
176
     1
  0
VISUALSTYLE
  5
3A
102
{ACAD_REACTORS
330
2A
102
}
330
2A
100
AcDbVisualStyle
  2
ColorChange
 70
    16
177
     2
291
     1
 71
     2
176
     1
 72
     2
176
     1
 73
     3
176
     1
 90
        0
176
     1
 40
-0.6
176
     1
 41
-30.0
176
     1
 62
     5
 63
     8
421
  8421504
176
     1
 74
     1
176
     1
 91
        4
176
     1
 64
     7
176
     1
 65
   257
176
     1
 75
     1
176
     1
175
     1
176
     1
 42
1.0
176
     1
 92
        8
176
     1
 66
     8
424
  8421504
176
     1
 43
1.0
176
     1
 76
     1
176
     1
 77
     6
176
     1
 78
     2
176
     1
 67
     7
176
     1
 79
     5
176
     1
170
     0
176
     1
171
     0
176
     1
290
     0
176
     1
 93
        1
176
     1
 44
0.0
176
     1
173
     0
176
     1
  0
VISUALSTYLE
  5
34
102
{ACAD_REACTORS
330
2A
102
}
330
2A
100
AcDbVisualStyle
  2
Conceptual
 70
     9
177
     2
291
     0
 71
     3
176
     1
 72
     2
176
     1
 73
     0
176
     1
 90
        0
176
     1
 40
-0.6
176
     1
 41
-30.0
176
     1
 62
     5
 63
     7
421
 16777215
176
     1
 74
     2
176
     1
 91
        2
176
     1
 64
     7
176
     1
 65
   257
176
     1
 75
     1
176
     1
175
     1
176
     1
 42
40.0
176
     1
 92
        8
176
     1
 66
     7
176
     1
 43
1.0
176
     1
 76
     1
176
     1
 77
     6
176
     1
 78
     2
176
     1
 67
     7
176
     1
 79
     3
176
     1
170
     0
176
     1
171
     0
176
     1
290
     0
176
     1
 93
        1
176
     1
 44
0.0
176
     1
173
     0
176
     1
  0
VISUALSTYLE
  5
35
102
{ACAD_REACTORS
330
2A
102
}
330
2A
100
AcDbVisualStyle
  2
Dim
 70
    11
177
     2
291
     1
 71
     2
176
     1
 72
     2
176
     1
 73
     0
176
     1
 90
        0
176
     1
 40
-0.6
176
     1
 41
-30.0
176
     1
 62
     5
 63
     7
421
 16777215
176
     1
 74
     1
176
     1
 91
        4
176
     1
 64
     7
176
     1
 65
   257
176
     1
 75
     1
176
     1
175
     1
176
     1
 42
1.0
176
     1
 92
        8
176
     1
 66
     7
176
     1
 43
1.0
176
     1
 76
     1
176
     1
 77
     6
176
     1
 78
     2
176
     1
 67
     7
176
     1
 79
     5
176
     1
170
     0
176
     1
171
     0
176
     1
290
     0
176
     1
 93
        1
176
     1
 44
-50.0
176
     1
173
     0
176
     1
  0
VISUALSTYLE
  5
39
102
{ACAD_REACTORS
330
2A
102
}
330
2A
100
AcDbVisualStyle
  2
Facepattern
 70
    15
177
     2
291
     1
 71
     2
176
     1
 72
     2
176
     1
 73
     0
176
     1
 90
        0
176
     1
 40
-0.6
176
     1
 41
-30.0
176
     1
 62
     5
 63
     7
421
 16777215
176
     1
 74
     1
176
     1
 91
        4
176
     1
 64
     7
176
     1
 65
   257
176
     1
 75
     1
176
     1
175
     1
176
     1
 42
1.0
176
     1
 92
        8
176
     1
 66
     7
176
     1
 43
1.0
176
     1
 76
     1
176
     1
 77
     6
176
     1
 78
     2
176
     1
 67
     7
176
     1
 79
     5
176
     1
170
     0
176
     1
171
     0
176
     1
290
     0
176
     1
 93
        1
176
     1
 44
0.0
176
     1
173
     0
176
     1
  0
VISUALSTYLE
  5
2B
102
{ACAD_REACTORS
330
2A
102
}
330
2A
100
AcDbVisualStyle
  2
Flat
 70
     0
177
     2
291
     1
 71
     2
176
     1
 72
     1
176
     1
 73
     1
176
     1
 90
        2
176
     1
 40
-0.6
176
     1
 41
30.0
176
     1
 62
     5
 63
     7
421
 16777215
176
     1
 74
     0
176
     1
 91
        4
176
     1
 64
     7
176
     1
 65
   257
176
     1
 75
     1
176
     1
175
     1
176
     1
 42
1.0
176
     1
 92
        8
176
     1
 66
     7
176
     1
 43
1.0
176
     1
 76
     1
176
     1
 77
     6
176
     1
 78
     2
176
     1
 67
     7
176
     1
 79
     5
176
     1
170
     0
176
     1
171
     0
176
     1
290
     0
176
     1
 93
       13
176
     1
 44
0.0
176
     1
173
     0
176
     1
  0
VISUALSTYLE
  5
2C
102
{ACAD_REACTORS
330
2A
102
}
330
2A
100
AcDbVisualStyle
  2
FlatWithEdges
 70
     1
177
     2
291
     1
 71
     2
176
     1
 72
     1
176
     1
 73
     1
176
     1
 90
        2
176
     1
 40
-0.6
176
     1
 41
30.0
176
     1
 62
     5
 63
     7
421
 16777215
176
     1
 74
     1
176
     1
 91
        4
176
     1
 64
     7
176
     1
 65
   257
176
     1
 75
     1
176
     1
175
     1
176
     1
 42
1.0
176
     1
 92
        0
176
     1
 66
   257
176
     1
 43
1.0
176
     1
 76
     1
176
     1
 77
     6
176
     1
 78
     2
176
     1
 67
     7
176
     1
 79
     5
176
     1
170
     0
176
     1
171
     0
176
     1
290
     0
176
     1
 93
       13
176
     1
 44
0.0
176
     1
173
     0
176
     1
  0
VISUALSTYLE
  5
2D
102
{ACAD_REACTORS
330
2A
102
}
330
2A
100
AcDbVisualStyle
  2
Gouraud
 70
     2
177
     2
291
     1
 71
     2
176
     1
 72
     2
176
     1
 73
     1
176
     1
 90
        2
176
     1
 40
-0.6
176
     1
 41
30.0
176
     1
 62
     5
 63
     7
421
 16777215
176
     1
 74
     0
176
     1
 91
        4
176
     1
 64
     7
176
     1
 65
   257
176
     1
 75
     1
176
     1
175
     1
176
     1
 42
1.0
176
     1
 92
        0
176
     1
 66
     7
176
     1
 43
1.0
176
     1
 76
     1
176
     1
 77
     6
176
     1
 78
     2
176
     1
 67
     7
176
     1
 79
     5
176
     1
170
     0
176
     1
171
     0
176
     1
290
     0
176
     1
 93
       13
176
     1
 44
0.0
176
     1
173
     0
176
     1
  0
VISUALSTYLE
  5
2E
102
{ACAD_REACTORS
330
2A
102
}
330
2A
100
AcDbVisualStyle
  2
GouraudWithEdges
 70
     3
177
     2
291
     1
 71
     2
176
     1
 72
     2
176
     1
 73
     1
176
     1
 90
        2
176
     1
 40
-0.6
176
     1
 41
30.0
176
     1
 62
     5
 63
     7
421
 16777215
176
     1
 74
     1
176
     1
 91
        4
176
     1
 64
     7
176
     1
 65
   257
176
     1
 75
     1
176
     1
175
     1
176
     1
 42
1.0
176
     1
 92
        0
176
     1
 66
   257
176
     1
 43
1.0
176
     1
 76
     1
176
     1
 77
     6
176
     1
 78
     2
176
     1
 67
     7
176
     1
 79
     5
176
     1
170
     0
176
     1
171
     0
176
     1
290
     0
176
     1
 93
       13
176
     1
 44
0.0
176
     1
173
     0
176
     1
  0
VISUALSTYLE
  5
38
102
{ACAD_REACTORS
330
2A
102
}
330
2A
100
AcDbVisualStyle
  2
Linepattern
 70
    14
177
     2
291
     1
 71
     2
176
     1
 72
     2
176
     1
 73
     0
176
     1
 90
        0
176
     1
 40
-0.6
176
     1
 41
-30.0
176
     1
 62
     5
 63
     7
421
 16777215
176
     1
 74
     1
176
     1
 91
        4
176
     1
 64
     7
176
     1
 65
   257
176
     1
 75
     7
176
     1
175
     7
176
     1
 42
1.0
176
     1
 92
        8
176
     1
 66
     7
176
     1
 43
1.0
176
     1
 76
     1
176
     1
 77
     6
176
     1
 78
     2
176
     1
 67
     7
176
     1
 79
     5
176
     1
170
     0
176
     1
171
     0
176
     1
290
     0
176
     1
 93
        1
176
     1
 44
0.0
176
     1
173
     0
176
     1
  0
VISUALSTYLE
  5
33
102
{ACAD_REACTORS
330
2A
102
}
330
2A
100
AcDbVisualStyle
  2
Realistic
 70
     8
177
     2
291
     0
 71
     2
176
     1
 72
     2
176
     1
 73
     0
176
     1
 90
        0
176
     1
 40
-0.6
176
     1
 41
-30.0
176
     1
 62
     5
 63
     7
421
 16777215
176
     1
 74
     1
176
     1
 91
        0
176
     1
 64
     7
176
     1
 65
   257
176
     1
 75
     1
176
     1
175
     1
176
     1
 42
1.0
176
     1
 92
        8
176
     1
 66
     8
424
  7895160
176
     1
 43
1.0
176
     1
 76
     1
176
     1
 77
     6
176
     1
 78
     2
176
     1
 67
     7
176
     1
 79
     5
176
     1
170
     0
176
     1
171
     0
176
     1
290
     0
176
     1
 93
       13
176
     1
 44
0.0
176
     1
173
     0
176
     1
  0
VISUALSTYLE
  5
37
102
{ACAD_REACTORS
330
2A
102
}
330
2A
100
AcDbVisualStyle
  2
Thicken
 70
    13
177
     2
291
     1
 71
     2
176
     1
 72
     2
176
     1
 73
     0
176
     1
 90
        0
176
     1
 40
-0.6
176
     1
 41
-30.0
176
     1
 62
     5
 63
     7
421
 16777215
176
     1
 74
     1
176
     1
 91
        4
176
     1
 64
     7
176
     1
 65
   257
176
     1
 75
     1
176
     1
175
     1
176
     1
 42
1.0
176
     1
 92
       12
176
     1
 66
     7
176
     1
 43
1.0
176
     1
 76
     1
176
     1
 77
     6
176
     1
 78
     2
176
     1
 67
     7
176
     1
 79
     5
176
     1
170
     0
176
     1
171
     0
176
     1
290
     0
176
     1
 93
        1
176
     1
 44
0.0
176
     1
173
     0
176
     1
  0
ENDSEC
  0
EOF
