  0
SECTION
  2
HEADER
  9
$ACADVER
  1
AC1024
  9
$ACADMAINTVER
 70
     6
  9
$DWGCODEPAGE
  3
UNDEFINED
  9
$INSBASE
 10
0.0
 20
0.0
 30
0.0
  9
$EXTMIN
 10
1.000000000000000E+20
 20
1.000000000000000E+20
 30
1.000000000000000E+20
  9
$EXTMAX
 10
-1.000000000000000E+20
 20
-1.000000000000000E+20
 30
-1.000000000000000E+20
  9
$LIMMIN
 10
0.0
 20
0.0
  9
$LIMMAX
 10
12.0
 20
9.0
  9
$ORTHOMODE
 70
     0
  9
$REGENMODE
 70
     1
  9
$FILLMODE
 70
     1
  9
$QTEXTMODE
 70
     0
  9
$MIRRTEXT
 70
     1
  9
$LTSCALE
 40
1.0
  9
$ATTMODE
 70
     1
  9
$TEXTSIZE
 40
0.2
  9
$TRACEWID
 40
0.05
  9
$TEXTSTYLE
  7
Standard
  9
$CLAYER
  8
0
  9
$CELTYPE
  6
ByLayer
  9
$CECOLOR
 62
   256
  9
$CELTSCALE
 40
1.0
  9
$DISPSILH
 70
     0
  9
$DIMSCALE
 40
1.0
  9
$DIMASZ
 40
0.18
  9
$DIMEXO
 40
0.0625
  9
$DIMDLI
 40
0.38
  9
$DIMRND
 40
0.0
  9
$DIMDLE
 40
0.0
  9
$DIMEXE
 40
0.18
  9
$DIMTP
 40
0.0
  9
$DIMTM
 40
0.0
  9
$DIMTXT
 40
0.18
  9
$DIMCEN
 40
0.09
  9
$DIMTSZ
 40
0.0
  9
$DIMTOL
 70
     0
  9
$DIMLIM
 70
     0
  9
$DIMTIH
 70
     1
  9
$DIMTOH
 70
     1
  9
$DIMSE1
 70
     0
  9
$DIMSE2
 70
     0
  9
$DIMTAD
 70
     0
  9
$DIMZIN
 70
     0
  9
$DIMBLK
  1

  9
$DIMASO
 70
     1
  9
$DIMSHO
 70
     1
  9
$DIMPOST
  1

  9
$DIMAPOST
  1

  9
$DIMALT
 70
     0
  9
$DIMALTD
 70
     2
  9
$DIMALTF
 40
25.4
  9
$DIMLFAC
 40
1.0
  9
$DIMTOFL
 70
     0
  9
$DIMTVP
 40
0.0
  9
$DIMTIX
 70
     0
  9
$DIMSOXD
 70
     0
  9
$DIMSAH
 70
     0
  9
$DIMBLK1
  1

  9
$DIMBLK2
  1

  9
$DIMSTYLE
  2
Standard
  9
$DIMCLRD
 70
     0
  9
$DIMCLRE
 70
     0
  9
$DIMCLRT
 70
     0
  9
$DIMTFAC
 40
1.0
  9
$DIMGAP
 40
0.09
  9
$DIMJUST
 70
     0
  9
$DIMSD1
 70
     0
  9
$DIMSD2
 70
     0
  9
$DIMTOLJ
 70
     1
  9
$DIMTZIN
 70
     0
  9
$DIMALTZ
 70
     0
  9
$DIMALTTZ
 70
     0
  9
$DIMUPT
 70
     0
  9
$DIMDEC
 70
     4
  9
$DIMTDEC
 70
     4
  9
$DIMALTU
 70
     2
  9
$DIMALTTD
 70
     2
  9
$DIMTXSTY
  7
Standard
  9
$DIMAUNIT
 70
     0
  9
$DIMADEC
 70
     0
  9
$DIMALTRND
 40
0.0
  9
$DIMAZIN
 70
     0
  9
$DIMDSEP
 70
    46
  9
$DIMATFIT
 70
     3
  9
$DIMFRAC
 70
     0
  9
$DIMLDRBLK
  1

  9
$DIMLUNIT
 70
     2
  9
$DIMLWD
 70
    -2
  9
$DIMLWE
 70
    -2
  9
$DIMTMOVE
 70
     0
  9
$DIMFXL
 40
1.0
  9
$DIMFXLON
 70
     0
  9
$DIMJOGANG
 40
0.7853981633974483
  9
$DIMTFILL
 70
     0
  9
$DIMTFILLCLR
 70
     0
  9
$DIMARCSYM
 70
     0
  9
$DIMLTYPE
  6

  9
$DIMLTEX1
  6

  9
$DIMLTEX2
  6

  9
$DIMTXTDIRECTION
 70
     0
  9
$LUNITS
 70
     2
  9
$LUPREC
 70
     4
  9
$SKETCHINC
 40
0.1
  9
$FILLETRAD
 40
0.5
  9
$AUNITS
 70
     0
  9
$AUPREC
 70
     0
  9
$MENU
  1
.
  9
$ELEVATION
 40
0.0
  9
$PELEVATION
 40
0.0
  9
$THICKNESS
 40
0.0
  9
$LIMCHECK
 70
     0
  9
$CHAMFERA
 40
0.5
  9
$CHAMFERB
 40
0.5
  9
$CHAMFERC
 40
1.0
  9
$CHAMFERD
 40
0.0
  9
$SKPOLY
 70
     0
  9
$TDCREATE
 40
2458263.575810174
  9
$TDUCREATE
 40
2458263.200810185
  9
$TDUPDATE
 40
2458263.575810174
  9
$TDUUPDATE
 40
2458263.200810185
  9
$TDINDWG
 40
0.0000000116
  9
$TDUSRTIMER
 40
0.0000000116
  9
$USRTIMER
 70
     1
  9
$ANGBASE
 50
0.0
  9
$ANGDIR
 70
     0
  9
$PDMODE
 70
     0
  9
$PDSIZE
 40
0.0
  9
$PLINEWID
 40
0.0
  9
$SPLFRAME
 70
     0
  9
$SPLINETYPE
 70
     6
  9
$SPLINESEGS
 70
     8
  9
$HANDSEED
  5
13A
  9
$SURFTAB1
 70
     6
  9
$SURFTAB2
 70
     6
  9
$SURFTYPE
 70
     6
  9
$SURFU
 70
     6
  9
$SURFV
 70
     6
  9
$UCSBASE
  2

  9
$UCSNAME
  2

  9
$UCSORG
 10
0.0
 20
0.0
 30
0.0
  9
$UCSXDIR
 10
1.0
 20
0.0
 30
0.0
  9
$UCSYDIR
 10
0.0
 20
1.0
 30
0.0
  9
$UCSORTHOREF
  2

  9
$UCSORTHOVIEW
 70
     0
  9
$UCSORGTOP
 10
0.0
 20
0.0
 30
0.0
  9
$UCSORGBOTTOM
 10
0.0
 20
0.0
 30
0.0
  9
$UCSORGLEFT
 10
0.0
 20
0.0
 30
0.0
  9
$UCSORGRIGHT
 10
0.0
 20
0.0
 30
0.0
  9
$UCSORGFRONT
 10
0.0
 20
0.0
 30
0.0
  9
$UCSORGBACK
 10
0.0
 20
0.0
 30
0.0
  9
$PUCSBASE
  2

  9
$PUCSNAME
  2

  9
$PUCSORG
 10
0.0
 20
0.0
 30
0.0
  9
$PUCSXDIR
 10
1.0
 20
0.0
 30
0.0
  9
$PUCSYDIR
 10
0.0
 20
1.0
 30
0.0
  9
$PUCSORTHOREF
  2

  9
$PUCSORTHOVIEW
 70
     0
  9
$PUCSORGTOP
 10
0.0
 20
0.0
 30
0.0
  9
$PUCSORGBOTTOM
 10
0.0
 20
0.0
 30
0.0
  9
$PUCSORGLEFT
 10
0.0
 20
0.0
 30
0.0
  9
$PUCSORGRIGHT
 10
0.0
 20
0.0
 30
0.0
  9
$PUCSORGFRONT
 10
0.0
 20
0.0
 30
0.0
  9
$PUCSORGBACK
 10
0.0
 20
0.0
 30
0.0
  9
$USERI1
 70
     0
  9
$USERI2
 70
     0
  9
$USERI3
 70
     0
  9
$USERI4
 70
     0
  9
$USERI5
 70
     0
  9
$USERR1
 40
0.0
  9
$USERR2
 40
0.0
  9
$USERR3
 40
0.0
  9
$USERR4
 40
0.0
  9
$USERR5
 40
0.0
  9
$WORLDVIEW
 70
     1
  9
$SHADEDGE
 70
     3
  9
$SHADEDIF
 70
    70
  9
$TILEMODE
 70
     1
  9
$MAXACTVP
 70
    64
  9
$PINSBASE
 10
0.0
 20
0.0
 30
0.0
  9
$PLIMCHECK
 70
     0
  9
$PEXTMIN
 10
1.000000000000000E+20
 20
1.000000000000000E+20
 30
1.000000000000000E+20
  9
$PEXTMAX
 10
-1.000000000000000E+20
 20
-1.000000000000000E+20
 30
-1.000000000000000E+20
  9
$PLIMMIN
 10
0.0
 20
0.0
  9
$PLIMMAX
 10
12.0
 20
9.0
  9
$UNITMODE
 70
     0
  9
$VISRETAIN
 70
     1
  9
$PLINEGEN
 70
     0
  9
$PSLTSCALE
 70
     1
  9
$TREEDEPTH
 70
  3020
  9
$CMLSTYLE
  2
Standard
  9
$CMLJUST
 70
     0
  9
$CMLSCALE
 40
1.0
  9
$PROXYGRAPHICS
 70
     1
  9
$MEASUREMENT
 70
     0
  9
$CELWEIGHT
370
    -1
  9
$ENDCAPS
280
     0
  9
$JOINSTYLE
280
     0
  9
$LWDISPLAY
290
     1
  9
$INSUNITS
 70
     1
  9
$HYPERLINKBASE
  1

  9
$STYLESHEET
  1

  9
$XEDIT
290
     1
  9
$CEPSNTYPE
380
     0
  9
$PSTYLEMODE
290
     1
  9
$FINGERPRINTGUID
  2
{89A799A9-30AC-5F94-ED5F-ECAA32016CC5}
  9
$VERSIONGUID
  2
{FAEB1C32-E019-11D5-929B-00C0DF256EC4}
  9
$EXTNAMES
290
     1
  9
$PSVPSCALE
 40
0.0
  9
$OLESTARTUP
290
     0
  9
$SORTENTS
280
   127
  9
$INDEXCTL
280
     0
  9
$HIDETEXT
280
     1
  9
$XCLIPFRAME
280
     2
  9
$HALOGAP
280
     0
  9
$OBSCOLOR
 70
   257
  9
$OBSLTYPE
280
     0
  9
$INTERSECTIONDISPLAY
280
     0
  9
$INTERSECTIONCOLOR
 70
   257
  9
$DIMASSOC
280
     2
  9
$PROJECTNAME
  1

  9
$CAMERADISPLAY
290
     0
  9
$LENSLENGTH
 40
50.0
  9
$CAMERAHEIGHT
 40
0.0
  9
$STEPSPERSEC
 40
2.0
  9
$STEPSIZE
 40
6.0
  9
$3DDWFPREC
 40
2.0
  9
$PSOLWIDTH
 40
0.25
  9
$PSOLHEIGHT
 40
4.0
  9
$LOFTANG1
 40
1.570796326794897
  9
$LOFTANG2
 40
1.570796326794897
  9
$LOFTMAG1
 40
0.0
  9
$LOFTMAG2
 40
0.0
  9
$LOFTPARAM
 70
     7
  9
$LOFTNORMALS
280
     1
  9
$LATITUDE
 40
37.795
  9
$LONGITUDE
 40
-122.394
  9
$NORTHDIRECTION
 40
0.0
  9
$TIMEZONE
 70
 -8000
  9
$LIGHTGLYPHDISPLAY
280
     1
  9
$TILEMODELIGHTSYNCH
280
     1
  9
$CMATERIAL
347
3C
  9
$SOLIDHIST
280
     1
  9
$SHOWHIST
280
     1
  9
$DWFFRAME
280
     2
  9
$DGNFRAME
280
     2
  9
$REALWORLDSCALE
290
     1
  9
$INTERFERECOLOR
 62
   256
  9
$CSHADOW
280
     0
  9
$SHADOWPLANELOCATION
 40
0.0
  0
ENDSEC
  0
SECTION
  2
CLASSES
  0
CLASS
  1
ACDBDICTIONARYWDFLT
  2
AcDbDictionaryWithDefault
  3
ObjectDBX Classes
 90
        0
 91
        4
280
     0
281
     0
  0
CLASS
  1
VISUALSTYLE
  2
AcDbVisualStyle
  3
ObjectDBX Classes
 90
     4095
 91
        4
280
     0
281
     0
  0
CLASS
  1
MATERIAL
  2
AcDbMaterial
  3
ObjectDBX Classes
 90
     1153
 91
        4
280
     0
281
     0
  0
CLASS
  1
SUN
  2
AcDbSun
  3
SCENEOE
 90
     1024
 91
        4
280
     0
281
     0
  0
ENDSEC
  0
SECTION
  2
TABLES
  0
TABLE
  2
VPORT
  5
8
330
0
100
AcDbSymbolTable
 70
     1
  0
VPORT
  5
29
330
8
100
AcDbSymbolTableRecord
100
AcDbViewportTableRecord
  2
*Active
 70
     0
 10
0.0
 20
0.0
 11
1.0
 21
1.0
 12
0.0
 22
0.0
 13
0.0
 23
0.0
 14
0.5
 24
0.5
 15
0.5
 25
0.5
 16
0.0
 26
0.0
 36
1.0
 17
105.0007777515277
 27
-148.5000416295416
 37
0.0
 40
297.0000832590831
 41
0.7070757462376333
 42
50.0
 43
0.0
 44
0.0
 50
0.0
 51
0.0
 71
     0
 72
   100
 73
     1
 74
     3
 75
     0
 76
     0
 77
     0
 78
     0
281
     0
 65
     1
110
0.0
120
0.0
130
0.0
111
1.0
121
0.0
131
0.0
112
0.0
122
1.0
132
0.0
 79
     0
146
0.0
 60
     3
 61
     5
292
     1
282
     1
141
0.0
142
0.0
 63
   250
361
3F
  0
ENDTAB
  0
TABLE
  2
LTYPE
  5
5
330
0
100
AcDbSymbolTable
 70
     1
  0
LTYPE
  5
14
330
5
100
AcDbSymbolTableRecord
100
AcDbLinetypeTableRecord
  2
ByBlock
 70
     0
  3

 72
    65
 73
     0
 40
0.0
  0
LTYPE
  5
15
330
5
100
AcDbSymbolTableRecord
100
AcDbLinetypeTableRecord
  2
ByLayer
 70
     0
  3

 72
    65
 73
     0
 40
0.0
  0
LTYPE
  5
16
330
5
100
AcDbSymbolTableRecord
100
AcDbLinetypeTableRecord
  2
Continuous
 70
     0
  3
Solid line
 72
    65
 73
     0
 40
0.0
  0
ENDTAB
  0
TABLE
  2
LAYER
  5
2
330
0
100
AcDbSymbolTable
 70
     2
  0
LAYER
  5
10
330
2
100
AcDbSymbolTableRecord
100
AcDbLayerTableRecord
  2
0
 70
     0
 62
     7
  6
Continuous
370
    -3
390
F
347
3E
  0
LAYER
  5
40
330
2
100
AcDbSymbolTableRecord
100
AcDbLayerTableRecord
  2
_U+30EC_U+30A4_U+30E4_U+30FC 1
 70
     0
 62
     7
  6
Continuous
370
    -3
390
F
347
3E
  0
ENDTAB
  0
TABLE
  2
STYLE
  5
3
330
0
100
AcDbSymbolTable
 70
     1
  0
STYLE
  5
11
330
3
100
AcDbSymbolTableRecord
100
AcDbTextStyleTableRecord
  2
Standard
 70
     0
 40
0.0
 41
1.0
 50
0.0
 71
     0
 42
0.2
  3
txt
  4

  0
ENDTAB
  0
TABLE
  2
VIEW
  5
6
330
0
100
AcDbSymbolTable
 70
     0
  0
ENDTAB
  0
TABLE
  2
UCS
  5
7
330
0
100
AcDbSymbolTable
 70
     0
  0
ENDTAB
  0
TABLE
  2
APPID
  5
9
330
0
100
AcDbSymbolTable
 70
     1
  0
APPID
  5
12
330
9
100
AcDbSymbolTableRecord
100
AcDbRegAppTableRecord
  2
ACAD
 70
     0
  0
ENDTAB
  0
TABLE
  2
DIMSTYLE
  5
A
330
0
100
AcDbSymbolTable
 70
     1
100
AcDbDimStyleTable
  0
DIMSTYLE
105
27
330
A
100
AcDbSymbolTableRecord
100
AcDbDimStyleTableRecord
  2
Standard
 70
     0
178
     0
340
11
  0
ENDTAB
  0
TABLE
  2
BLOCK_RECORD
  5
1
330
0
100
AcDbSymbolTable
 70
     5
  0
BLOCK_RECORD
  5
1F
330
1
100
AcDbSymbolTableRecord
100
AcDbBlockTableRecord
  2
*Model_Space
340
22
 70
     0
280
     1
281
     0
  0
BLOCK_RECORD
  5
1B
330
1
100
AcDbSymbolTableRecord
100
AcDbBlockTableRecord
  2
*Paper_Space
340
1E
 70
     0
280
     1
281
     0
  0
BLOCK_RECORD
  5
23
330
1
100
AcDbSymbolTableRecord
100
AcDbBlockTableRecord
  2
*Paper_Space0
340
26
 70
     0
280
     1
281
     0
  0
BLOCK_RECORD
  5
BC
330
1
100
AcDbSymbolTableRecord
100
AcDbBlockTableRecord
  2
block 2
340
0
102
{BLKREFS
331
BD
102
}
 70
     0
280
     1
281
     0
  0
BLOCK_RECORD
  5
CD
330
1
100
AcDbSymbolTableRecord
100
AcDbBlockTableRecord
  2
block 3
340
0
102
{BLKREFS
331
CE
102
}
 70
     0
280
     1
281
     0
  0
BLOCK_RECORD
  5
106
330
1
100
AcDbSymbolTableRecord
100
AcDbBlockTableRecord
  2
block 4
340
0
102
{BLKREFS
331
107
102
}
 70
     0
280
     1
281
     0
  0
BLOCK_RECORD
  5
123
330
1
100
AcDbSymbolTableRecord
100
AcDbBlockTableRecord
  2
block 5
340
0
102
{BLKREFS
331
124
102
}
 70
     0
280
     1
281
     0
  0
ENDTAB
  0
ENDSEC
  0
SECTION
  2
BLOCKS
  0
BLOCK
  5
20
330
1F
100
AcDbEntity
  8
0
100
AcDbBlockBegin
  2
*Model_Space
 70
     0
 10
0.0
 20
0.0
 30
0.0
  3
*Model_Space
  1

  0
ENDBLK
  5
21
330
1F
100
AcDbEntity
  8
0
100
AcDbBlockEnd
  0
BLOCK
  5
1C
330
1B
100
AcDbEntity
 67
     1
  8
0
100
AcDbBlockBegin
  2
*Paper_Space
 70
     0
 10
0.0
 20
0.0
 30
0.0
  3
*Paper_Space
  1

  0
ENDBLK
  5
1D
330
1B
100
AcDbEntity
 67
     1
  8
0
100
AcDbBlockEnd
  0
BLOCK
  5
24
330
23
100
AcDbEntity
  8
0
100
AcDbBlockBegin
  2
*Paper_Space0
 70
     0
 10
0.0
 20
0.0
 30
0.0
  3
*Paper_Space0
  1

  0
ENDBLK
  5
25
330
23
100
AcDbEntity
  8
0
100
AcDbBlockEnd
  0
BLOCK
  5
BE
330
BC
100
AcDbEntity
  8
0
100
AcDbBlockBegin
  2
block 2
 70
     0
 10
0.0
 20
0.0
 30
0.0
  3
block 2
  1

  0
SPLINE
  5
C0
330
BC
100
AcDbEntity
  8
_U+30EC_U+30A4_U+30E4_U+30FC 1
370
     0
100
AcDbSpline
210
0.0
220
0.0
230
1.0
 70
    11
 71
     3
 72
    53
 73
    49
 74
     0
 42
0.0000000001
 43
0.0000000001
 12
1.0
 22
0.0
 32
0.0
 13
1.0
 23
0.0
 33
0.0
 40
0.0
 40
0.0
 40
0.0
 40
0.0
 40
1.0
 40
1.0
 40
1.0
 40
2.0
 40
2.0
 40
2.0
 40
3.0
 40
3.0
 40
3.0
 40
4.0
 40
4.0
 40
4.0
 40
5.0
 40
5.0
 40
5.0
 40
6.0
 40
6.0
 40
6.0
 40
7.0
 40
7.0
 40
7.0
 40
8.0
 40
8.0
 40
8.0
 40
9.0
 40
9.0
 40
9.0
 40
10.0
 40
10.0
 40
10.0
 40
11.0
 40
11.0
 40
11.0
 40
12.0
 40
12.0
 40
12.0
 40
13.0
 40
13.0
 40
13.0
 40
14.0
 40
14.0
 40
14.0
 40
15.0
 40
15.0
 40
15.0
 40
16.0
 40
16.0
 40
16.0
 40
16.0
 10
97.86896156407443
 20
-158.129538263419
 30
0.0
 10
97.790585641785
 20
-158.129538263419
 30
0.0
 10
97.6891275797444
 20
-158.1126572955413
 30
0.0
 10
97.58749726292952
 20
-158.0492675386127
 30
0.0
 10
97.41403670524718
 20
-157.9393689926332
 30
0.0
 10
97.3928493680129
 20
-157.8081108546452
 30
0.0
 10
97.37390134284404
 20
-157.7002793659569
 30
0.0
 10
97.37390134284404
 20
-157.7002793659569
 30
0.0
 10
97.59593774686839
 20
-157.7002793659569
 30
0.0
 10
97.59593774686839
 20
-157.7002793659569
 30
0.0
 10
97.65105927463237
 20
-157.8990613754558
 30
0.0
 10
97.77801104326383
 20
-157.9286891966289
 30
0.0
 10
97.87102862136558
 20
-157.9286891966289
 30
0.0
 10
98.0105549885182
 20
-157.9286891966289
 30
0.0
 10
98.1630004637405
 20
-157.8291259371052
 30
0.0
 10
98.1630004637405
 20
-157.5965819918509
 30
0.0
 10
98.1630004637405
 20
-157.3406113972968
 30
0.0
 10
97.98316647941046
 20
-157.2706759589462
 30
0.0
 10
97.86258813742671
 20
-157.2706759589462
 30
0.0
 10
97.83089325896242
 20
-157.2706759589462
 30
0.0
 10
97.6891275797444
 20
-157.2706759589462
 30
0.0
 10
97.60024411622494
 20
-157.3998670396431
 30
0.0
 10
97.60024411622494
 20
-157.3998670396431
 30
0.0
 10
97.42471650125147
 20
-157.3809190144742
 30
0.0
 10
97.42471650125147
 20
-157.3809190144742
 30
0.0
 10
97.42471650125147
 20
-157.3809190144742
 30
0.0
 10
97.54529484323521
 20
-156.5344590537483
 30
0.0
 10
97.54529484323521
 20
-156.5344590537483
 30
0.0
 10
97.54529484323521
 20
-156.5344590537483
 30
0.0
 10
98.32371416812741
 20
-156.5344590537483
 30
0.0
 10
98.32371416812741
 20
-156.5344590537483
 30
0.0
 10
98.32371416812741
 20
-156.5344590537483
 30
0.0
 10
98.32371416812741
 20
-156.729106948665
 30
0.0
 10
98.32371416812741
 20
-156.729106948665
 30
0.0
 10
98.32371416812741
 20
-156.729106948665
 30
0.0
 10
97.70807560491326
 20
-156.729106948665
 30
0.0
 10
97.70807560491326
 20
-156.729106948665
 30
0.0
 10
97.70807560491326
 20
-156.729106948665
 30
0.0
 10
97.64261879069352
 20
-157.1521646742536
 30
0.0
 10
97.64261879069352
 20
-157.1521646742536
 30
0.0
 10
97.70394149033096
 20
-157.1184027384982
 30
0.0
 10
97.7864515272027
 20
-157.0780951213208
 30
0.0
 10
97.90479055712103
 20
-157.0780951213208
 30
0.0
 10
98.15869409438395
 20
-157.0780951213208
 30
0.0
 10
98.39571666376914
 20
-157.2644747870728
 30
0.0
 10
98.39571666376914
 20
-157.577633966682
 30
0.0
 10
98.39571666376914
 20
-157.8949272608735
 30
0.0
 10
98.17144094767937
 20
-158.129538263419
 30
0.0
 10
97.86896156407443
 20
-158.129538263419
 30
0.0
  0
HATCH
  5
C1
330
BC
100
AcDbEntity
  8
_U+30EC_U+30A4_U+30E4_U+30FC 1
 62
   179
420
  2234388
100
AcDbHatch
 10
0.0
 20
0.0
 30
0.0
210
0.0
220
0.0
230
1.0
  2
SOLID
 70
     1
 71
     0
 91
        1
 92
        1
 93
        1
 72
     4
 94
        3
 73
     0
 74
     1
 95
       53
 96
       49
 40
0.0
 40
0.0
 40
0.0
 40
0.0
 40
1.0
 40
1.0
 40
1.0
 40
2.0
 40
2.0
 40
2.0
 40
3.0
 40
3.0
 40
3.0
 40
4.0
 40
4.0
 40
4.0
 40
5.0
 40
5.0
 40
5.0
 40
6.0
 40
6.0
 40
6.0
 40
7.0
 40
7.0
 40
7.0
 40
8.0
 40
8.0
 40
8.0
 40
9.0
 40
9.0
 40
9.0
 40
10.0
 40
10.0
 40
10.0
 40
11.0
 40
11.0
 40
11.0
 40
12.0
 40
12.0
 40
12.0
 40
13.0
 40
13.0
 40
13.0
 40
14.0
 40
14.0
 40
14.0
 40
15.0
 40
15.0
 40
15.0
 40
16.0
 40
16.0
 40
16.0
 40
16.0
 10
97.86896156407443
 20
-158.129538263419
 10
97.790585641785
 20
-158.129538263419
 10
97.6891275797444
 20
-158.1126572955413
 10
97.58749726292952
 20
-158.0492675386127
 10
97.41403670524718
 20
-157.9393689926332
 10
97.3928493680129
 20
-157.8081108546452
 10
97.37390134284404
 20
-157.7002793659569
 10
97.37390134284404
 20
-157.7002793659569
 10
97.59593774686839
 20
-157.7002793659569
 10
97.59593774686839
 20
-157.7002793659569
 10
97.65105927463237
 20
-157.8990613754558
 10
97.77801104326383
 20
-157.9286891966289
 10
97.87102862136558
 20
-157.9286891966289
 10
98.0105549885182
 20
-157.9286891966289
 10
98.1630004637405
 20
-157.8291259371052
 10
98.1630004637405
 20
-157.5965819918509
 10
98.1630004637405
 20
-157.3406113972968
 10
97.98316647941046
 20
-157.2706759589462
 10
97.86258813742671
 20
-157.2706759589462
 10
97.83089325896242
 20
-157.2706759589462
 10
97.6891275797444
 20
-157.2706759589462
 10
97.60024411622494
 20
-157.3998670396431
 10
97.60024411622494
 20
-157.3998670396431
 10
97.42471650125147
 20
-157.3809190144742
 10
97.42471650125147
 20
-157.3809190144742
 10
97.42471650125147
 20
-157.3809190144742
 10
97.54529484323521
 20
-156.5344590537483
 10
97.54529484323521
 20
-156.5344590537483
 10
97.54529484323521
 20
-156.5344590537483
 10
98.32371416812741
 20
-156.5344590537483
 10
98.32371416812741
 20
-156.5344590537483
 10
98.32371416812741
 20
-156.5344590537483
 10
98.32371416812741
 20
-156.729106948665
 10
98.32371416812741
 20
-156.729106948665
 10
98.32371416812741
 20
-156.729106948665
 10
97.70807560491326
 20
-156.729106948665
 10
97.70807560491326
 20
-156.729106948665
 10
97.70807560491326
 20
-156.729106948665
 10
97.64261879069352
 20
-157.1521646742536
 10
97.64261879069352
 20
-157.1521646742536
 10
97.70394149033096
 20
-157.1184027384982
 10
97.7864515272027
 20
-157.0780951213208
 10
97.90479055712103
 20
-157.0780951213208
 10
98.15869409438395
 20
-157.0780951213208
 10
98.39571666376914
 20
-157.2644747870728
 10
98.39571666376914
 20
-157.577633966682
 10
98.39571666376914
 20
-157.8949272608735
 10
98.17144094767937
 20
-158.129538263419
 10
97.86896156407443
 20
-158.129538263419
 97
        0
 97
        0
 75
     2
 76
     1
 98
        0
  0
SPLINE
  5
C2
330
BC
100
AcDbEntity
  8
_U+30EC_U+30A4_U+30E4_U+30FC 1
370
     0
100
AcDbSpline
210
0.0
220
0.0
230
1.0
 70
    11
 71
     3
 72
    29
 73
    25
 74
     0
 42
0.0000000001
 43
0.0000000001
 12
1.0
 22
0.0
 32
0.0
 13
1.0
 23
0.0
 33
0.0
 40
0.0
 40
0.0
 40
0.0
 40
0.0
 40
1.0
 40
1.0
 40
1.0
 40
2.0
 40
2.0
 40
2.0
 40
3.0
 40
3.0
 40
3.0
 40
4.0
 40
4.0
 40
4.0
 40
5.0
 40
5.0
 40
5.0
 40
6.0
 40
6.0
 40
6.0
 40
7.0
 40
7.0
 40
7.0
 40
8.0
 40
8.0
 40
8.0
 40
8.0
 10
99.46249048077674
 20
-157.901128432747
 30
0.0
 10
99.35465899208842
 20
-158.1105902382501
 30
0.0
 10
99.1811984344061
 20
-158.129538263419
 30
0.0
 10
99.06475420700465
 20
-158.129538263419
 30
0.0
 10
98.90404050261775
 20
-158.129538263419
 30
0.0
 10
98.76227482339971
 20
-158.0830294743681
 30
0.0
 10
98.66701793323256
 20
-157.901128432747
 30
0.0
 10
98.5634928139008
 20
-157.7064805378303
 30
0.0
 10
98.54437253395766
 20
-157.4698024779937
 30
0.0
 10
98.54437253395766
 20
-157.3068494615414
 30
0.0
 10
98.54437253395766
 20
-157.1628444702579
 30
0.0
 10
98.56125350183538
 20
-156.9110079902862
 30
0.0
 10
98.66701793323256
 20
-156.7122259807872
 30
0.0
 10
98.77502167669513
 20
-156.509309856706
 30
0.0
 10
98.93573538108204
 20
-156.4858832074063
 30
0.0
 10
99.06475420700465
 20
-156.4858832074063
 30
0.0
 10
99.2234008541004
 20
-156.4858832074063
 30
0.0
 10
99.36723359060959
 20
-156.530324939166
 30
0.0
 10
99.46249048077674
 20
-156.7122259807872
 30
0.0
 10
99.5618814855262
 20
-156.9048068184127
 30
0.0
 10
99.58513588005164
 20
-157.1332166490848
 30
0.0
 10
99.58513588005164
 20
-157.3068494615414
 30
0.0
 10
99.58513588005164
 20
-157.4780707071583
 30
0.0
 10
99.56412079759161
 20
-157.7085475951215
 30
0.0
 10
99.46249048077674
 20
-157.901128432747
 30
0.0
  0
SPLINE
  5
C3
330
BC
100
AcDbEntity
  8
_U+30EC_U+30A4_U+30E4_U+30FC 1
370
     0
100
AcDbSpline
210
0.0
220
0.0
230
1.0
 70
    11
 71
     3
 72
    17
 73
    13
 74
     0
 42
0.0000000001
 43
0.0000000001
 12
1.0
 22
0.0
 32
0.0
 13
1.0
 23
0.0
 33
0.0
 40
0.0
 40
0.0
 40
0.0
 40
0.0
 40
1.0
 40
1.0
 40
1.0
 40
2.0
 40
2.0
 40
2.0
 40
3.0
 40
3.0
 40
3.0
 40
4.0
 40
4.0
 40
4.0
 40
4.0
 10
99.06475420700465
 20
-156.6784640450318
 30
0.0
 10
98.8151570390983
 20
-156.6784640450318
 30
0.0
 10
98.76864825004742
 20
-156.9619954034679
 30
0.0
 10
98.76864825004742
 20
-157.3068494615414
 30
0.0
 10
98.76864825004742
 20
-157.626209813024
 30
0.0
 10
98.80464949786828
 20
-157.9348903685024
 30
0.0
 10
99.06475420700465
 20
-157.9348903685024
 30
0.0
 10
99.31228431761986
 20
-157.9348903685024
 30
0.0
 10
99.36103241873613
 20
-157.653770576906
 30
0.0
 10
99.36103241873613
 20
-157.3068494615414
 30
0.0
 10
99.36103241873613
 20
-156.9871446005102
 30
0.0
 10
99.32279185884987
 20
-156.6784640450318
 30
0.0
 10
99.06475420700465
 20
-156.6784640450318
 30
0.0
  0
HATCH
  5
C4
330
BC
100
AcDbEntity
  8
_U+30EC_U+30A4_U+30E4_U+30FC 1
 62
   179
420
  2234388
100
AcDbHatch
 10
0.0
 20
0.0
 30
0.0
210
0.0
220
0.0
230
1.0
  2
SOLID
 70
     1
 71
     0
 91
        2
 92
        1
 93
        1
 72
     4
 94
        3
 73
     0
 74
     1
 95
       29
 96
       25
 40
0.0
 40
0.0
 40
0.0
 40
0.0
 40
1.0
 40
1.0
 40
1.0
 40
2.0
 40
2.0
 40
2.0
 40
3.0
 40
3.0
 40
3.0
 40
4.0
 40
4.0
 40
4.0
 40
5.0
 40
5.0
 40
5.0
 40
6.0
 40
6.0
 40
6.0
 40
7.0
 40
7.0
 40
7.0
 40
8.0
 40
8.0
 40
8.0
 40
8.0
 10
99.46249048077674
 20
-157.901128432747
 10
99.35465899208842
 20
-158.1105902382501
 10
99.1811984344061
 20
-158.129538263419
 10
99.06475420700465
 20
-158.129538263419
 10
98.90404050261775
 20
-158.129538263419
 10
98.76227482339971
 20
-158.0830294743681
 10
98.66701793323256
 20
-157.901128432747
 10
98.5634928139008
 20
-157.7064805378303
 10
98.54437253395766
 20
-157.4698024779937
 10
98.54437253395766
 20
-157.3068494615414
 10
98.54437253395766
 20
-157.1628444702579
 10
98.56125350183538
 20
-156.9110079902862
 10
98.66701793323256
 20
-156.7122259807872
 10
98.77502167669513
 20
-156.509309856706
 10
98.93573538108204
 20
-156.4858832074063
 10
99.06475420700465
 20
-156.4858832074063
 10
99.2234008541004
 20
-156.4858832074063
 10
99.36723359060959
 20
-156.530324939166
 10
99.46249048077674
 20
-156.7122259807872
 10
99.5618814855262
 20
-156.9048068184127
 10
99.58513588005164
 20
-157.1332166490848
 10
99.58513588005164
 20
-157.3068494615414
 10
99.58513588005164
 20
-157.4780707071583
 10
99.56412079759161
 20
-157.7085475951215
 10
99.46249048077674
 20
-157.901128432747
 97
        0
 97
        0
 92
        1
 93
        1
 72
     4
 94
        3
 73
     0
 74
     1
 95
       17
 96
       13
 40
0.0
 40
0.0
 40
0.0
 40
0.0
 40
1.0
 40
1.0
 40
1.0
 40
2.0
 40
2.0
 40
2.0
 40
3.0
 40
3.0
 40
3.0
 40
4.0
 40
4.0
 40
4.0
 40
4.0
 10
99.06475420700465
 20
-156.6784640450318
 10
98.8151570390983
 20
-156.6784640450318
 10
98.76864825004742
 20
-156.9619954034679
 10
98.76864825004742
 20
-157.3068494615414
 10
98.76864825004742
 20
-157.626209813024
 10
98.80464949786828
 20
-157.9348903685024
 10
99.06475420700465
 20
-157.9348903685024
 10
99.31228431761986
 20
-157.9348903685024
 10
99.36103241873613
 20
-157.653770576906
 10
99.36103241873613
 20
-157.3068494615414
 10
99.36103241873613
 20
-156.9871446005102
 10
99.32279185884987
 20
-156.6784640450318
 10
99.06475420700465
 20
-156.6784640450318
 97
        0
 97
        0
 75
     2
 76
     1
 98
        0
  0
ENDBLK
  5
BF
330
BC
100
AcDbEntity
  8
0
100
AcDbBlockEnd
  0
BLOCK
  5
CF
330
CD
100
AcDbEntity
  8
0
100
AcDbBlockBegin
  2
block 3
 70
     0
 10
0.0
 20
0.0
 30
0.0
  3
block 3
  1

  0
SPLINE
  5
D1
330
CD
100
AcDbEntity
  8
_U+30EC_U+30A4_U+30E4_U+30FC 1
370
     0
100
AcDbSpline
210
0.0
220
0.0
230
1.0
 70
    11
 71
     3
 72
    53
 73
    49
 74
     0
 42
0.0000000001
 43
0.0000000001
 12
1.0
 22
0.0
 32
0.0
 13
1.0
 23
0.0
 33
0.0
 40
0.0
 40
0.0
 40
0.0
 40
0.0
 40
1.0
 40
1.0
 40
1.0
 40
2.0
 40
2.0
 40
2.0
 40
3.0
 40
3.0
 40
3.0
 40
4.0
 40
4.0
 40
4.0
 40
5.0
 40
5.0
 40
5.0
 40
6.0
 40
6.0
 40
6.0
 40
7.0
 40
7.0
 40
7.0
 40
8.0
 40
8.0
 40
8.0
 40
9.0
 40
9.0
 40
9.0
 40
10.0
 40
10.0
 40
10.0
 40
11.0
 40
11.0
 40
11.0
 40
12.0
 40
12.0
 40
12.0
 40
13.0
 40
13.0
 40
13.0
 40
14.0
 40
14.0
 40
14.0
 40
15.0
 40
15.0
 40
15.0
 40
16.0
 40
16.0
 40
16.0
 40
16.0
 10
110.3336615392569
 20
-158.129538263419
 30
0.0
 10
110.2554578717417
 20
-158.129538263419
 30
0.0
 10
110.1538275549268
 20
-158.1126572955413
 30
0.0
 10
110.052197238112
 20
-158.0492675386127
 30
0.0
 10
109.8785644256554
 20
-157.9393689926332
 30
0.0
 10
109.8575493431953
 20
-157.8081108546452
 30
0.0
 10
109.8386013180265
 20
-157.7002793659569
 30
0.0
 10
109.8386013180265
 20
-157.7002793659569
 30
0.0
 10
110.0604654672766
 20
-157.7002793659569
 30
0.0
 10
110.0604654672766
 20
-157.7002793659569
 30
0.0
 10
110.1155869950406
 20
-157.8990613754558
 30
0.0
 10
110.2427110184463
 20
-157.9286891966289
 30
0.0
 10
110.335728596548
 20
-157.9286891966289
 30
0.0
 10
110.4752549637006
 20
-157.9286891966289
 30
0.0
 10
110.6275281841487
 20
-157.8291259371052
 30
0.0
 10
110.6275281841487
 20
-157.5965819918509
 30
0.0
 10
110.6275281841487
 20
-157.3406113972968
 30
0.0
 10
110.4476941998186
 20
-157.2706759589462
 30
0.0
 10
110.3271158578349
 20
-157.2706759589462
 30
0.0
 10
110.2954209793706
 20
-157.2706759589462
 30
0.0
 10
110.1538275549268
 20
-157.2706759589462
 30
0.0
 10
110.0649440914074
 20
-157.3998670396431
 30
0.0
 10
110.0649440914074
 20
-157.3998670396431
 30
0.0
 10
109.8895887312082
 20
-157.3809190144742
 30
0.0
 10
109.8895887312082
 20
-157.3809190144742
 30
0.0
 10
109.8895887312082
 20
-157.3809190144742
 30
0.0
 10
110.0101670731919
 20
-156.5344590537483
 30
0.0
 10
110.0101670731919
 20
-156.5344590537483
 30
0.0
 10
110.0101670731919
 20
-156.5344590537483
 30
0.0
 10
110.7884141433099
 20
-156.5344590537483
 30
0.0
 10
110.7884141433099
 20
-156.5344590537483
 30
0.0
 10
110.7884141433099
 20
-156.5344590537483
 30
0.0
 10
110.7884141433099
 20
-156.729106948665
 30
0.0
 10
110.7884141433099
 20
-156.729106948665
 30
0.0
 10
110.7884141433099
 20
-156.729106948665
 30
0.0
 10
110.1727755800957
 20
-156.729106948665
 30
0.0
 10
110.1727755800957
 20
-156.729106948665
 30
0.0
 10
110.1727755800957
 20
-156.729106948665
 30
0.0
 10
110.107318765876
 20
-157.1521646742536
 30
0.0
 10
110.107318765876
 20
-157.1521646742536
 30
0.0
 10
110.1686414655134
 20
-157.1184027384982
 30
0.0
 10
110.2513237571594
 20
-157.0780951213208
 30
0.0
 10
110.3694905323035
 20
-157.0780951213208
 30
0.0
 10
110.6233940695664
 20
-157.0780951213208
 30
0.0
 10
110.8604166389516
 20
-157.2644747870728
 30
0.0
 10
110.8604166389516
 20
-157.577633966682
 30
0.0
 10
110.8604166389516
 20
-157.8949272608735
 30
0.0
 10
110.6361409228618
 20
-158.129538263419
 30
0.0
 10
110.3336615392569
 20
-158.129538263419
 30
0.0
  0
HATCH
  5
D2
330
CD
100
AcDbEntity
  8
_U+30EC_U+30A4_U+30E4_U+30FC 1
 62
   179
420
  2234388
100
AcDbHatch
 10
0.0
 20
0.0
 30
0.0
210
0.0
220
0.0
230
1.0
  2
SOLID
 70
     1
 71
     0
 91
        1
 92
        1
 93
        1
 72
     4
 94
        3
 73
     0
 74
     1
 95
       53
 96
       49
 40
0.0
 40
0.0
 40
0.0
 40
0.0
 40
1.0
 40
1.0
 40
1.0
 40
2.0
 40
2.0
 40
2.0
 40
3.0
 40
3.0
 40
3.0
 40
4.0
 40
4.0
 40
4.0
 40
5.0
 40
5.0
 40
5.0
 40
6.0
 40
6.0
 40
6.0
 40
7.0
 40
7.0
 40
7.0
 40
8.0
 40
8.0
 40
8.0
 40
9.0
 40
9.0
 40
9.0
 40
10.0
 40
10.0
 40
10.0
 40
11.0
 40
11.0
 40
11.0
 40
12.0
 40
12.0
 40
12.0
 40
13.0
 40
13.0
 40
13.0
 40
14.0
 40
14.0
 40
14.0
 40
15.0
 40
15.0
 40
15.0
 40
16.0
 40
16.0
 40
16.0
 40
16.0
 10
110.3336615392569
 20
-158.129538263419
 10
110.2554578717417
 20
-158.129538263419
 10
110.1538275549268
 20
-158.1126572955413
 10
110.052197238112
 20
-158.0492675386127
 10
109.8785644256554
 20
-157.9393689926332
 10
109.8575493431953
 20
-157.8081108546452
 10
109.8386013180265
 20
-157.7002793659569
 10
109.8386013180265
 20
-157.7002793659569
 10
110.0604654672766
 20
-157.7002793659569
 10
110.0604654672766
 20
-157.7002793659569
 10
110.1155869950406
 20
-157.8990613754558
 10
110.2427110184463
 20
-157.9286891966289
 10
110.335728596548
 20
-157.9286891966289
 10
110.4752549637006
 20
-157.9286891966289
 10
110.6275281841487
 20
-157.8291259371052
 10
110.6275281841487
 20
-157.5965819918509
 10
110.6275281841487
 20
-157.3406113972968
 10
110.4476941998186
 20
-157.2706759589462
 10
110.3271158578349
 20
-157.2706759589462
 10
110.2954209793706
 20
-157.2706759589462
 10
110.1538275549268
 20
-157.2706759589462
 10
110.0649440914074
 20
-157.3998670396431
 10
110.0649440914074
 20
-157.3998670396431
 10
109.8895887312082
 20
-157.3809190144742
 10
109.8895887312082
 20
-157.3809190144742
 10
109.8895887312082
 20
-157.3809190144742
 10
110.0101670731919
 20
-156.5344590537483
 10
110.0101670731919
 20
-156.5344590537483
 10
110.0101670731919
 20
-156.5344590537483
 10
110.7884141433099
 20
-156.5344590537483
 10
110.7884141433099
 20
-156.5344590537483
 10
110.7884141433099
 20
-156.5344590537483
 10
110.7884141433099
 20
-156.729106948665
 10
110.7884141433099
 20
-156.729106948665
 10
110.7884141433099
 20
-156.729106948665
 10
110.1727755800957
 20
-156.729106948665
 10
110.1727755800957
 20
-156.729106948665
 10
110.1727755800957
 20
-156.729106948665
 10
110.107318765876
 20
-157.1521646742536
 10
110.107318765876
 20
-157.1521646742536
 10
110.1686414655134
 20
-157.1184027384982
 10
110.2513237571594
 20
-157.0780951213208
 10
110.3694905323035
 20
-157.0780951213208
 10
110.6233940695664
 20
-157.0780951213208
 10
110.8604166389516
 20
-157.2644747870728
 10
110.8604166389516
 20
-157.577633966682
 10
110.8604166389516
 20
-157.8949272608735
 10
110.6361409228618
 20
-158.129538263419
 10
110.3336615392569
 20
-158.129538263419
 97
        0
 97
        0
 75
     2
 76
     1
 98
        0
  0
SPLINE
  5
D3
330
CD
100
AcDbEntity
  8
_U+30EC_U+30A4_U+30E4_U+30FC 1
370
     0
100
AcDbSpline
210
0.0
220
0.0
230
1.0
 70
    11
 71
     3
 72
    29
 73
    25
 74
     0
 42
0.0000000001
 43
0.0000000001
 12
1.0
 22
0.0
 32
0.0
 13
1.0
 23
0.0
 33
0.0
 40
0.0
 40
0.0
 40
0.0
 40
0.0
 40
1.0
 40
1.0
 40
1.0
 40
2.0
 40
2.0
 40
2.0
 40
3.0
 40
3.0
 40
3.0
 40
4.0
 40
4.0
 40
4.0
 40
5.0
 40
5.0
 40
5.0
 40
6.0
 40
6.0
 40
6.0
 40
7.0
 40
7.0
 40
7.0
 40
8.0
 40
8.0
 40
8.0
 40
8.0
 10
111.9270182011849
 20
-157.901128432747
 30
0.0
 10
111.8195312220451
 20
-158.1105902382501
 30
0.0
 10
111.6458984095885
 20
-158.129538263419
 30
0.0
 10
111.5294541821871
 20
-158.129538263419
 30
0.0
 10
111.3689127325744
 20
-158.129538263419
 30
0.0
 10
111.2269747985821
 20
-158.0830294743681
 30
0.0
 10
111.1318901631893
 20
-157.901128432747
 30
0.0
 10
111.0281927890832
 20
-157.7064805378303
 30
0.0
 10
111.0092447639144
 20
-157.4698024779937
 30
0.0
 10
111.0092447639144
 20
-157.3068494615414
 30
0.0
 10
111.0092447639144
 20
-157.1628444702579
 30
0.0
 10
111.0257812222436
 20
-156.9110079902862
 30
0.0
 10
111.1318901631893
 20
-156.7122259807872
 30
0.0
 10
111.2397216518776
 20
-156.509309856706
 30
0.0
 10
111.4006076110387
 20
-156.4858832074063
 30
0.0
 10
111.5294541821871
 20
-156.4858832074063
 30
0.0
 10
111.6879285745086
 20
-156.4858832074063
 30
0.0
 10
111.831933565792
 20
-156.530324939166
 30
0.0
 10
111.9270182011849
 20
-156.7122259807872
 30
0.0
 10
112.0265814607086
 20
-156.9048068184127
 30
0.0
 10
112.0496636004598
 20
-157.1332166490848
 30
0.0
 10
112.0496636004598
 20
-157.3068494615414
 30
0.0
 10
112.0496636004598
 20
-157.4780707071583
 30
0.0
 10
112.0289930275483
 20
-157.7085475951215
 30
0.0
 10
111.9270182011849
 20
-157.901128432747
 30
0.0
  0
SPLINE
  5
D4
330
CD
100
AcDbEntity
  8
_U+30EC_U+30A4_U+30E4_U+30FC 1
370
     0
100
AcDbSpline
210
0.0
220
0.0
230
1.0
 70
    11
 71
     3
 72
    17
 73
    13
 74
     0
 42
0.0000000001
 43
0.0000000001
 12
1.0
 22
0.0
 32
0.0
 13
1.0
 23
0.0
 33
0.0
 40
0.0
 40
0.0
 40
0.0
 40
0.0
 40
1.0
 40
1.0
 40
1.0
 40
2.0
 40
2.0
 40
2.0
 40
3.0
 40
3.0
 40
3.0
 40
4.0
 40
4.0
 40
4.0
 40
4.0
 10
111.5294541821871
 20
-156.6784640450318
 30
0.0
 10
111.280029269055
 20
-156.6784640450318
 30
0.0
 10
111.2331759704556
 20
-156.9619954034679
 30
0.0
 10
111.2331759704556
 20
-157.3068494615414
 30
0.0
 10
111.2331759704556
 20
-157.626209813024
 30
0.0
 10
111.2693494730507
 20
-157.9348903685024
 30
0.0
 10
111.5294541821871
 20
-157.9348903685024
 30
0.0
 10
111.776812038028
 20
-157.9348903685024
 30
0.0
 10
111.8257323939186
 20
-157.653770576906
 30
0.0
 10
111.8257323939186
 20
-157.3068494615414
 30
0.0
 10
111.8257323939186
 20
-156.9871446005102
 30
0.0
 10
111.7874918340323
 20
-156.6784640450318
 30
0.0
 10
111.5294541821871
 20
-156.6784640450318
 30
0.0
  0
HATCH
  5
D5
330
CD
100
AcDbEntity
  8
_U+30EC_U+30A4_U+30E4_U+30FC 1
 62
   179
420
  2234388
100
AcDbHatch
 10
0.0
 20
0.0
 30
0.0
210
0.0
220
0.0
230
1.0
  2
SOLID
 70
     1
 71
     0
 91
        2
 92
        1
 93
        1
 72
     4
 94
        3
 73
     0
 74
     1
 95
       29
 96
       25
 40
0.0
 40
0.0
 40
0.0
 40
0.0
 40
1.0
 40
1.0
 40
1.0
 40
2.0
 40
2.0
 40
2.0
 40
3.0
 40
3.0
 40
3.0
 40
4.0
 40
4.0
 40
4.0
 40
5.0
 40
5.0
 40
5.0
 40
6.0
 40
6.0
 40
6.0
 40
7.0
 40
7.0
 40
7.0
 40
8.0
 40
8.0
 40
8.0
 40
8.0
 10
111.9270182011849
 20
-157.901128432747
 10
111.8195312220451
 20
-158.1105902382501
 10
111.6458984095885
 20
-158.129538263419
 10
111.5294541821871
 20
-158.129538263419
 10
111.3689127325744
 20
-158.129538263419
 10
111.2269747985821
 20
-158.0830294743681
 10
111.1318901631893
 20
-157.901128432747
 10
111.0281927890832
 20
-157.7064805378303
 10
111.0092447639144
 20
-157.4698024779937
 10
111.0092447639144
 20
-157.3068494615414
 10
111.0092447639144
 20
-157.1628444702579
 10
111.0257812222436
 20
-156.9110079902862
 10
111.1318901631893
 20
-156.7122259807872
 10
111.2397216518776
 20
-156.509309856706
 10
111.4006076110387
 20
-156.4858832074063
 10
111.5294541821871
 20
-156.4858832074063
 10
111.6879285745086
 20
-156.4858832074063
 10
111.831933565792
 20
-156.530324939166
 10
111.9270182011849
 20
-156.7122259807872
 10
112.0265814607086
 20
-156.9048068184127
 10
112.0496636004598
 20
-157.1332166490848
 10
112.0496636004598
 20
-157.3068494615414
 10
112.0496636004598
 20
-157.4780707071583
 10
112.0289930275483
 20
-157.7085475951215
 10
111.9270182011849
 20
-157.901128432747
 97
        0
 97
        0
 92
        1
 93
        1
 72
     4
 94
        3
 73
     0
 74
     1
 95
       17
 96
       13
 40
0.0
 40
0.0
 40
0.0
 40
0.0
 40
1.0
 40
1.0
 40
1.0
 40
2.0
 40
2.0
 40
2.0
 40
3.0
 40
3.0
 40
3.0
 40
4.0
 40
4.0
 40
4.0
 40
4.0
 10
111.5294541821871
 20
-156.6784640450318
 10
111.280029269055
 20
-156.6784640450318
 10
111.2331759704556
 20
-156.9619954034679
 10
111.2331759704556
 20
-157.3068494615414
 10
111.2331759704556
 20
-157.626209813024
 10
111.2693494730507
 20
-157.9348903685024
 10
111.5294541821871
 20
-157.9348903685024
 10
111.776812038028
 20
-157.9348903685024
 10
111.8257323939186
 20
-157.653770576906
 10
111.8257323939186
 20
-157.3068494615414
 10
111.8257323939186
 20
-156.9871446005102
 10
111.7874918340323
 20
-156.6784640450318
 10
111.5294541821871
 20
-156.6784640450318
 97
        0
 97
        0
 75
     2
 76
     1
 98
        0
  0
ENDBLK
  5
D0
330
CD
100
AcDbEntity
  8
0
100
AcDbBlockEnd
  0
BLOCK
  5
108
330
106
100
AcDbEntity
  8
0
100
AcDbBlockBegin
  2
block 4
 70
     0
 10
0.0
 20
0.0
 30
0.0
  3
block 4
  1

  0
SPLINE
  5
10A
330
106
100
AcDbEntity
  8
_U+30EC_U+30A4_U+30E4_U+30FC 1
370
     0
100
AcDbSpline
210
0.0
220
0.0
230
1.0
 70
    11
 71
     3
 72
    62
 73
    58
 74
     0
 42
0.0000000001
 43
0.0000000001
 12
1.0
 22
0.0
 32
0.0
 13
1.0
 23
0.0
 33
0.0
 40
0.0
 40
0.0
 40
0.0
 40
0.0
 40
1.0
 40
1.0
 40
1.0
 40
2.0
 40
2.0
 40
2.0
 40
3.0
 40
3.0
 40
3.0
 40
4.0
 40
4.0
 40
4.0
 40
5.0
 40
5.0
 40
5.0
 40
6.0
 40
6.0
 40
6.0
 40
7.0
 40
7.0
 40
7.0
 40
8.0
 40
8.0
 40
8.0
 40
9.0
 40
9.0
 40
9.0
 40
10.0
 40
10.0
 40
10.0
 40
11.0
 40
11.0
 40
11.0
 40
12.0
 40
12.0
 40
12.0
 40
13.0
 40
13.0
 40
13.0
 40
14.0
 40
14.0
 40
14.0
 40
15.0
 40
15.0
 40
15.0
 40
16.0
 40
16.0
 40
16.0
 40
17.0
 40
17.0
 40
17.0
 40
18.0
 40
18.0
 40
18.0
 40
19.0
 40
19.0
 40
19.0
 40
19.0
 10
99.8681504741649
 20
-140.1972994983708
 30
0.0
 10
99.77289358399776
 20
-140.1972994983708
 30
0.0
 10
99.5549912945557
 20
-140.1762844159108
 30
0.0
 10
99.43027883798966
 20
-139.9902492597073
 30
0.0
 10
99.35620928505679
 20
-139.8779391468882
 30
0.0
 10
99.35190291570022
 20
-139.778720396913
 30
0.0
 10
99.34776880111792
 20
-139.6939710479758
 30
0.0
 10
99.34776880111792
 20
-139.6939710479758
 30
0.0
 10
99.56773814785113
 20
-139.6939710479758
 30
0.0
 10
99.56773814785113
 20
-139.6939710479758
 30
0.0
 10
99.56980520514227
 20
-139.7680406009087
 30
0.0
 10
99.58048500114656
 20
-140.0026516034542
 30
0.0
 10
99.8640163595826
 20
-140.0026516034542
 30
0.0
 10
100.0014756694441
 20
-140.0026516034542
 30
0.0
 10
100.1537488898921
 20
-139.9330606746522
 30
0.0
 10
100.1537488898921
 20
-139.7046508439801
 30
0.0
 10
100.1537488898921
 20
-139.5882066165786
 30
0.0
 10
100.1156805847801
 20
-139.5396307702366
 30
0.0
 10
100.0839857063158
 20
-139.5079358917723
 30
0.0
 10
100.0099161533829
 20
-139.4338663388395
 30
0.0
 10
99.8934719259815
 20
-139.421119485544
 30
0.0
 10
99.83852265299176
 20
-139.421119485544
 30
0.0
 10
99.81957462782289
 20
-139.421119485544
 30
0.0
 10
99.78357338000203
 20
-139.4231865428352
 30
0.0
 10
99.75601261612003
 20
-139.4273206574175
 30
0.0
 10
99.75601261612003
 20
-139.4273206574175
 30
0.0
 10
99.75601261612003
 20
-139.2326727625009
 30
0.0
 10
99.75601261612003
 20
-139.2326727625009
 30
0.0
 10
99.79408092123204
 20
-139.2392184439229
 30
0.0
 10
99.83645559570061
 20
-139.241285501214
 30
0.0
 10
99.84282902234833
 20
-139.241285501214
 30
0.0
 10
99.90828583656807
 20
-139.241285501214
 30
0.0
 10
100.1072401008413
 20
-139.2199259092054
 30
0.0
 10
100.1072401008413
 20
-138.9832478493688
 30
0.0
 10
100.1072401008413
 20
-138.8054809223299
 30
0.0
 10
99.97598196285323
 20
-138.7503593945659
 30
0.0
 10
99.86608341687376
 20
-138.7503593945659
 30
0.0
 10
99.60167233838084
 20
-138.7503593945659
 30
0.0
 10
99.59323185444198
 20
-138.9832478493688
 30
0.0
 10
99.58892548508541
 20
-139.054905835462
 30
0.0
 10
99.58892548508541
 20
-139.054905835462
 30
0.0
 10
99.38583710622993
 20
-139.054905835462
 30
0.0
 10
99.38583710622993
 20
-139.054905835462
 30
0.0
 10
99.3942775901688
 20
-138.9301933788959
 30
0.0
 10
99.42183835405079
 20
-138.5536444423581
 30
0.0
 10
99.87865801539492
 20
-138.5536444423581
 30
0.0
 10
100.1029337314847
 20
-138.5536444423581
 30
0.0
 10
100.3440904154522
 20
-138.6807684657638
 30
0.0
 10
100.3440904154522
 20
-138.9767021679468
 30
0.0
 10
100.3440904154522
 20
-139.1630818336988
 30
0.0
 10
100.2490057800593
 20
-139.2454196157963
 30
0.0
 10
100.1494425205356
 20
-139.3067423154337
 30
0.0
 10
100.2109374749473
 20
-139.3343030793157
 30
0.0
 10
100.3928385165685
 20
-139.4145738041221
 30
0.0
 10
100.3928385165685
 20
-139.6919039906847
 30
0.0
 10
100.3928385165685
 20
-140.0302123673362
 30
0.0
 10
100.1453084059533
 20
-140.1972994983708
 30
0.0
 10
99.8681504741649
 20
-140.1972994983708
 30
0.0
  0
HATCH
  5
10B
330
106
100
AcDbEntity
  8
_U+30EC_U+30A4_U+30E4_U+30FC 1
 62
   179
420
  2234388
100
AcDbHatch
 10
0.0
 20
0.0
 30
0.0
210
0.0
220
0.0
230
1.0
  2
SOLID
 70
     1
 71
     0
 91
        1
 92
        1
 93
        1
 72
     4
 94
        3
 73
     0
 74
     1
 95
       62
 96
       58
 40
0.0
 40
0.0
 40
0.0
 40
0.0
 40
1.0
 40
1.0
 40
1.0
 40
2.0
 40
2.0
 40
2.0
 40
3.0
 40
3.0
 40
3.0
 40
4.0
 40
4.0
 40
4.0
 40
5.0
 40
5.0
 40
5.0
 40
6.0
 40
6.0
 40
6.0
 40
7.0
 40
7.0
 40
7.0
 40
8.0
 40
8.0
 40
8.0
 40
9.0
 40
9.0
 40
9.0
 40
10.0
 40
10.0
 40
10.0
 40
11.0
 40
11.0
 40
11.0
 40
12.0
 40
12.0
 40
12.0
 40
13.0
 40
13.0
 40
13.0
 40
14.0
 40
14.0
 40
14.0
 40
15.0
 40
15.0
 40
15.0
 40
16.0
 40
16.0
 40
16.0
 40
17.0
 40
17.0
 40
17.0
 40
18.0
 40
18.0
 40
18.0
 40
19.0
 40
19.0
 40
19.0
 40
19.0
 10
99.8681504741649
 20
-140.1972994983708
 10
99.77289358399776
 20
-140.1972994983708
 10
99.5549912945557
 20
-140.1762844159108
 10
99.43027883798966
 20
-139.9902492597073
 10
99.35620928505679
 20
-139.8779391468882
 10
99.35190291570022
 20
-139.778720396913
 10
99.34776880111792
 20
-139.6939710479758
 10
99.34776880111792
 20
-139.6939710479758
 10
99.56773814785113
 20
-139.6939710479758
 10
99.56773814785113
 20
-139.6939710479758
 10
99.56980520514227
 20
-139.7680406009087
 10
99.58048500114656
 20
-140.0026516034542
 10
99.8640163595826
 20
-140.0026516034542
 10
100.0014756694441
 20
-140.0026516034542
 10
100.1537488898921
 20
-139.9330606746522
 10
100.1537488898921
 20
-139.7046508439801
 10
100.1537488898921
 20
-139.5882066165786
 10
100.1156805847801
 20
-139.5396307702366
 10
100.0839857063158
 20
-139.5079358917723
 10
100.0099161533829
 20
-139.4338663388395
 10
99.8934719259815
 20
-139.421119485544
 10
99.83852265299176
 20
-139.421119485544
 10
99.81957462782289
 20
-139.421119485544
 10
99.78357338000203
 20
-139.4231865428352
 10
99.75601261612003
 20
-139.4273206574175
 10
99.75601261612003
 20
-139.4273206574175
 10
99.75601261612003
 20
-139.2326727625009
 10
99.75601261612003
 20
-139.2326727625009
 10
99.79408092123204
 20
-139.2392184439229
 10
99.83645559570061
 20
-139.241285501214
 10
99.84282902234833
 20
-139.241285501214
 10
99.90828583656807
 20
-139.241285501214
 10
100.1072401008413
 20
-139.2199259092054
 10
100.1072401008413
 20
-138.9832478493688
 10
100.1072401008413
 20
-138.8054809223299
 10
99.97598196285323
 20
-138.7503593945659
 10
99.86608341687376
 20
-138.7503593945659
 10
99.60167233838084
 20
-138.7503593945659
 10
99.59323185444198
 20
-138.9832478493688
 10
99.58892548508541
 20
-139.054905835462
 10
99.58892548508541
 20
-139.054905835462
 10
99.38583710622993
 20
-139.054905835462
 10
99.38583710622993
 20
-139.054905835462
 10
99.3942775901688
 20
-138.9301933788959
 10
99.42183835405079
 20
-138.5536444423581
 10
99.87865801539492
 20
-138.5536444423581
 10
100.1029337314847
 20
-138.5536444423581
 10
100.3440904154522
 20
-138.6807684657638
 10
100.3440904154522
 20
-138.9767021679468
 10
100.3440904154522
 20
-139.1630818336988
 10
100.2490057800593
 20
-139.2454196157963
 10
100.1494425205356
 20
-139.3067423154337
 10
100.2109374749473
 20
-139.3343030793157
 10
100.3928385165685
 20
-139.4145738041221
 10
100.3928385165685
 20
-139.6919039906847
 10
100.3928385165685
 20
-140.0302123673362
 10
100.1453084059533
 20
-140.1972994983708
 10
99.8681504741649
 20
-140.1972994983708
 97
        0
 97
        0
 75
     2
 76
     1
 98
        0
  0
SPLINE
  5
10C
330
106
100
AcDbEntity
  8
_U+30EC_U+30A4_U+30E4_U+30FC 1
370
     0
100
AcDbSpline
210
0.0
220
0.0
230
1.0
 70
    11
 71
     3
 72
    32
 73
    28
 74
     0
 42
0.0000000001
 43
0.0000000001
 12
1.0
 22
0.0
 32
0.0
 13
1.0
 23
0.0
 33
0.0
 40
0.0
 40
0.0
 40
0.0
 40
0.0
 40
1.0
 40
1.0
 40
1.0
 40
2.0
 40
2.0
 40
2.0
 40
3.0
 40
3.0
 40
3.0
 40
4.0
 40
4.0
 40
4.0
 40
5.0
 40
5.0
 40
5.0
 40
6.0
 40
6.0
 40
6.0
 40
7.0
 40
7.0
 40
7.0
 40
8.0
 40
8.0
 40
8.0
 40
9.0
 40
9.0
 40
9.0
 40
9.0
 10
101.0577419452217
 20
-140.1972994983708
 30
0.0
 10
100.541494386757
 20
-140.1972994983708
 30
0.0
 10
100.5330539028181
 20
-139.6433281443426
 30
0.0
 10
100.5330539028181
 20
-139.4293877147086
 30
0.0
 10
100.5330539028181
 20
-139.1989108267454
 30
0.0
 10
100.5521741827613
 20
-138.551577385067
 30
0.0
 10
101.0958102503337
 20
-138.551577385067
 30
0.0
 10
101.269270808016
 20
-138.551577385067
 30
0.0
 10
101.5145616065658
 20
-138.6215128234175
 30
0.0
 10
101.5528021664521
 20
-138.9536200281956
 30
0.0
 10
101.5528021664521
 20
-138.9536200281956
 30
0.0
 10
101.3390339915923
 20
-138.9536200281956
 30
0.0
 10
101.3390339915923
 20
-138.9536200281956
 30
0.0
 10
101.3285264503623
 20
-138.8964314431405
 30
0.0
 10
101.296831571898
 20
-138.7482923372747
 30
0.0
 10
101.0937431930425
 20
-138.7482923372747
 30
0.0
 10
100.8017713506676
 20
-138.7482923372747
 30
0.0
 10
100.7614637334902
 20
-139.0762654274705
 30
0.0
 10
100.748889134969
 20
-139.2812486088429
 30
0.0
 10
100.8419067130708
 20
-139.2030449413277
 30
0.0
 10
100.9096028393559
 20
-139.1437892989814
 30
0.0
 10
101.0915038809771
 20
-139.1437892989814
 30
0.0
 10
101.2713378653072
 20
-139.1437892989814
 30
0.0
 10
101.5738172489121
 20
-139.2519652972183
 30
0.0
 10
101.5738172489121
 20
-139.6581420549292
 30
0.0
 10
101.5738172489121
 20
-139.9775024064119
 30
0.0
 10
101.3750352394132
 20
-140.1972994983708
 30
0.0
 10
101.0577419452217
 20
-140.1972994983708
 30
0.0
  0
SPLINE
  5
10D
330
106
100
AcDbEntity
  8
_U+30EC_U+30A4_U+30E4_U+30FC 1
370
     0
100
AcDbSpline
210
0.0
220
0.0
230
1.0
 70
    11
 71
     3
 72
    17
 73
    13
 74
     0
 42
0.0000000001
 43
0.0000000001
 12
1.0
 22
0.0
 32
0.0
 13
1.0
 23
0.0
 33
0.0
 40
0.0
 40
0.0
 40
0.0
 40
0.0
 40
1.0
 40
1.0
 40
1.0
 40
2.0
 40
2.0
 40
2.0
 40
3.0
 40
3.0
 40
3.0
 40
4.0
 40
4.0
 40
4.0
 40
4.0
 10
101.0746229130994
 20
-139.338437193898
 30
0.0
 10
100.8122788918976
 20
-139.338437193898
 30
0.0
 10
100.7742105867856
 20
-139.5499660566924
 30
0.0
 10
100.7742105867856
 20
-139.6664102840938
 30
0.0
 10
100.7742105867856
 20
-139.8421101538416
 30
0.0
 10
100.8694674769528
 20
-140.0050631702939
 30
0.0
 10
101.0534355758651
 20
-140.0050631702939
 30
0.0
 10
101.1740139178489
 20
-140.0050631702939
 30
0.0
 10
101.3497137875966
 20
-139.9458075279476
 30
0.0
 10
101.3497137875966
 20
-139.6602091122204
 30
0.0
 10
101.3497137875966
 20
-139.4359333961306
 30
0.0
 10
101.2100151656697
 20
-139.338437193898
 30
0.0
 10
101.0746229130994
 20
-139.338437193898
 30
0.0
  0
HATCH
  5
10E
330
106
100
AcDbEntity
  8
_U+30EC_U+30A4_U+30E4_U+30FC 1
 62
   179
420
  2234388
100
AcDbHatch
 10
0.0
 20
0.0
 30
0.0
210
0.0
220
0.0
230
1.0
  2
SOLID
 70
     1
 71
     0
 91
        2
 92
        1
 93
        1
 72
     4
 94
        3
 73
     0
 74
     1
 95
       32
 96
       28
 40
0.0
 40
0.0
 40
0.0
 40
0.0
 40
1.0
 40
1.0
 40
1.0
 40
2.0
 40
2.0
 40
2.0
 40
3.0
 40
3.0
 40
3.0
 40
4.0
 40
4.0
 40
4.0
 40
5.0
 40
5.0
 40
5.0
 40
6.0
 40
6.0
 40
6.0
 40
7.0
 40
7.0
 40
7.0
 40
8.0
 40
8.0
 40
8.0
 40
9.0
 40
9.0
 40
9.0
 40
9.0
 10
101.0577419452217
 20
-140.1972994983708
 10
100.541494386757
 20
-140.1972994983708
 10
100.5330539028181
 20
-139.6433281443426
 10
100.5330539028181
 20
-139.4293877147086
 10
100.5330539028181
 20
-139.1989108267454
 10
100.5521741827613
 20
-138.551577385067
 10
101.0958102503337
 20
-138.551577385067
 10
101.269270808016
 20
-138.551577385067
 10
101.5145616065658
 20
-138.6215128234175
 10
101.5528021664521
 20
-138.9536200281956
 10
101.5528021664521
 20
-138.9536200281956
 10
101.3390339915923
 20
-138.9536200281956
 10
101.3390339915923
 20
-138.9536200281956
 10
101.3285264503623
 20
-138.8964314431405
 10
101.296831571898
 20
-138.7482923372747
 10
101.0937431930425
 20
-138.7482923372747
 10
100.8017713506676
 20
-138.7482923372747
 10
100.7614637334902
 20
-139.0762654274705
 10
100.748889134969
 20
-139.2812486088429
 10
100.8419067130708
 20
-139.2030449413277
 10
100.9096028393559
 20
-139.1437892989814
 10
101.0915038809771
 20
-139.1437892989814
 10
101.2713378653072
 20
-139.1437892989814
 10
101.5738172489121
 20
-139.2519652972183
 10
101.5738172489121
 20
-139.6581420549292
 10
101.5738172489121
 20
-139.9775024064119
 10
101.3750352394132
 20
-140.1972994983708
 10
101.0577419452217
 20
-140.1972994983708
 97
        0
 97
        0
 92
        1
 93
        1
 72
     4
 94
        3
 73
     0
 74
     1
 95
       17
 96
       13
 40
0.0
 40
0.0
 40
0.0
 40
0.0
 40
1.0
 40
1.0
 40
1.0
 40
2.0
 40
2.0
 40
2.0
 40
3.0
 40
3.0
 40
3.0
 40
4.0
 40
4.0
 40
4.0
 40
4.0
 10
101.0746229130994
 20
-139.338437193898
 10
100.8122788918976
 20
-139.338437193898
 10
100.7742105867856
 20
-139.5499660566924
 10
100.7742105867856
 20
-139.6664102840938
 10
100.7742105867856
 20
-139.8421101538416
 10
100.8694674769528
 20
-140.0050631702939
 10
101.0534355758651
 20
-140.0050631702939
 10
101.1740139178489
 20
-140.0050631702939
 10
101.3497137875966
 20
-139.9458075279476
 10
101.3497137875966
 20
-139.6602091122204
 10
101.3497137875966
 20
-139.4359333961306
 10
101.2100151656697
 20
-139.338437193898
 10
101.0746229130994
 20
-139.338437193898
 97
        0
 97
        0
 75
     2
 76
     1
 98
        0
  0
POLYLINE
  5
10F
330
106
100
AcDbEntity
  8
_U+30EC_U+30A4_U+30E4_U+30FC 1
370
     0
100
AcDb2dPolyline
 66
     1
 10
0.0
 20
0.0
 30
0.0
  0
VERTEX
  5
110
330
10F
100
AcDbEntity
  8
_U+30EC_U+30A4_U+30E4_U+30FC 1
370
     0
100
AcDbVertex
100
AcDb2dVertex
 10
101.7903415001601
 20
-140.1466565947376
 30
0.0
  0
VERTEX
  5
111
330
10F
100
AcDbEntity
  8
_U+30EC_U+30A4_U+30E4_U+30FC 1
370
     0
100
AcDbVertex
100
AcDb2dVertex
 10
101.7903415001601
 20
-139.8948201147659
 30
0.0
  0
VERTEX
  5
112
330
10F
100
AcDbEntity
  8
_U+30EC_U+30A4_U+30E4_U+30FC 1
370
     0
100
AcDbVertex
100
AcDb2dVertex
 10
102.0420057253576
 20
-139.8948201147659
 30
0.0
  0
VERTEX
  5
113
330
10F
100
AcDbEntity
  8
_U+30EC_U+30A4_U+30E4_U+30FC 1
370
     0
100
AcDbVertex
100
AcDb2dVertex
 10
102.0420057253576
 20
-140.1466565947376
 30
0.0
  0
VERTEX
  5
114
330
10F
100
AcDbEntity
  8
_U+30EC_U+30A4_U+30E4_U+30FC 1
370
     0
100
AcDbVertex
100
AcDb2dVertex
 10
101.7903415001601
 20
-140.1466565947376
 30
0.0
  0
SEQEND
  5
115
330
10F
100
AcDbEntity
  8
_U+30EC_U+30A4_U+30E4_U+30FC 1
370
     0
  0
HATCH
  5
116
330
106
100
AcDbEntity
  8
_U+30EC_U+30A4_U+30E4_U+30FC 1
 62
   179
420
  2234388
100
AcDbHatch
 10
0.0
 20
0.0
 30
0.0
210
0.0
220
0.0
230
1.0
  2
SOLID
 70
     1
 71
     0
 91
        1
 92
        1
 93
        4
 72
     1
 10
101.7903415001601
 20
-140.1466565947376
 11
101.7903415001601
 21
-139.8948201147659
 72
     1
 10
101.7903415001601
 20
-139.8948201147659
 11
102.0420057253576
 21
-139.8948201147659
 72
     1
 10
102.0420057253576
 20
-139.8948201147659
 11
102.0420057253576
 21
-140.1466565947376
 72
     1
 10
102.0420057253576
 20
-140.1466565947376
 11
101.7903415001601
 21
-140.1466565947376
 97
        0
 75
     2
 76
     1
 98
        0
  0
SPLINE
  5
117
330
106
100
AcDbEntity
  8
_U+30EC_U+30A4_U+30E4_U+30FC 1
370
     0
100
AcDbSpline
210
0.0
220
0.0
230
1.0
 70
    11
 71
     3
 72
    29
 73
    25
 74
     0
 42
0.0000000001
 43
0.0000000001
 12
1.0
 22
0.0
 32
0.0
 13
1.0
 23
0.0
 33
0.0
 40
0.0
 40
0.0
 40
0.0
 40
0.0
 40
1.0
 40
1.0
 40
1.0
 40
2.0
 40
2.0
 40
2.0
 40
3.0
 40
3.0
 40
3.0
 40
4.0
 40
4.0
 40
4.0
 40
5.0
 40
5.0
 40
5.0
 40
6.0
 40
6.0
 40
6.0
 40
7.0
 40
7.0
 40
7.0
 40
8.0
 40
8.0
 40
8.0
 40
8.0
 10
102.778567140104
 20
-140.1972994983708
 30
0.0
 10
102.5120890043199
 20
-140.1972994983708
 30
0.0
 10
102.258185467057
 20
-140.0598401885094
 30
0.0
 10
102.258185467057
 20
-139.7108520158535
 30
0.0
 10
102.258185467057
 20
-139.4548814212995
 30
0.0
 10
102.399951146275
 20
-139.3597967859066
 30
0.0
 10
102.5057155776722
 20
-139.2984740862691
 30
0.0
 10
102.3808308663319
 20
-139.2392184439229
 30
0.0
 10
102.3046942561079
 20
-139.1248412738125
 30
0.0
 10
102.3046942561079
 20
-138.9639553146514
 30
0.0
 10
102.3046942561079
 20
-138.6890366949284
 30
0.0
 10
102.503648520381
 20
-138.5536444423581
 30
0.0
 10
102.778567140104
 20
-138.5536444423581
 30
0.0
 10
103.06209849854
 20
-138.5536444423581
 30
0.0
 10
103.2524400241001
 20
-138.6976494336416
 30
0.0
 10
103.2524400241001
 20
-138.9639553146514
 30
0.0
 10
103.2524400241001
 20
-139.1248412738125
 30
0.0
 10
103.1742363565849
 20
-139.2392184439229
 30
0.0
 10
103.0493516452446
 20
-139.2984740862691
 30
0.0
 10
103.1382351087641
 20
-139.3491169899023
 30
0.0
 10
103.2968817558598
 20
-139.4442016252952
 30
0.0
 10
103.2968817558598
 20
-139.7067179012712
 30
0.0
 10
103.2968817558598
 20
-140.0811997805179
 30
0.0
 10
103.0176567667803
 20
-140.1972994983708
 30
0.0
 10
102.778567140104
 20
-140.1972994983708
 30
0.0
  0
SPLINE
  5
118
330
106
100
AcDbEntity
  8
_U+30EC_U+30A4_U+30E4_U+30FC 1
370
     0
100
AcDbSpline
210
0.0
220
0.0
230
1.0
 70
    11
 71
     3
 72
    17
 73
    13
 74
     0
 42
0.0000000001
 43
0.0000000001
 12
1.0
 22
0.0
 32
0.0
 13
1.0
 23
0.0
 33
0.0
 40
0.0
 40
0.0
 40
0.0
 40
0.0
 40
1.0
 40
1.0
 40
1.0
 40
2.0
 40
2.0
 40
2.0
 40
3.0
 40
3.0
 40
3.0
 40
4.0
 40
4.0
 40
4.0
 40
4.0
 10
102.778567140104
 20
-139.4063055749575
 30
0.0
 10
102.6347344035948
 20
-139.4063055749575
 30
0.0
 10
102.4824611831468
 20
-139.4931219811858
 30
0.0
 10
102.4824611831468
 20
-139.696038105267
 30
0.0
 10
102.4824611831468
 20
-139.9013657961879
 30
0.0
 10
102.6094129517782
 20
-140.0026516034542
 30
0.0
 10
102.778567140104
 20
-140.0026516034542
 30
0.0
 10
102.9647745510817
 20
-140.0026516034542
 30
0.0
 10
103.0748453518355
 20
-139.8800062041793
 30
0.0
 10
103.0748453518355
 20
-139.7022392771404
 30
0.0
 10
103.0748453518355
 20
-139.4803751278903
 30
0.0
 10
102.9118923353831
 20
-139.4063055749575
 30
0.0
 10
102.778567140104
 20
-139.4063055749575
 30
0.0
  0
SPLINE
  5
119
330
106
100
AcDbEntity
  8
_U+30EC_U+30A4_U+30E4_U+30FC 1
370
     0
100
AcDbSpline
210
0.0
220
0.0
230
1.0
 70
    11
 71
     3
 72
    17
 73
    13
 74
     0
 42
0.0000000001
 43
0.0000000001
 12
1.0
 22
0.0
 32
0.0
 13
1.0
 23
0.0
 33
0.0
 40
0.0
 40
0.0
 40
0.0
 40
0.0
 40
1.0
 40
1.0
 40
1.0
 40
2.0
 40
2.0
 40
2.0
 40
3.0
 40
3.0
 40
3.0
 40
4.0
 40
4.0
 40
4.0
 40
4.0
 10
102.778567140104
 20
-138.7462252799836
 30
0.0
 10
102.6135470663605
 20
-138.7462252799836
 30
0.0
 10
102.5289699721976
 20
-138.8413099153765
 30
0.0
 10
102.5289699721976
 20
-138.9767021679468
 30
0.0
 10
102.5289699721976
 20
-139.0993475672217
 30
0.0
 10
102.6009724678393
 20
-139.2178588519143
 30
0.0
 10
102.778567140104
 20
-139.2178588519143
 30
0.0
 10
102.9563340671429
 20
-139.2178588519143
 30
0.0
 10
103.0281643080103
 20
-139.0993475672217
 30
0.0
 10
103.0281643080103
 20
-138.9767021679468
 30
0.0
 10
103.0281643080103
 20
-138.8413099153765
 30
0.0
 10
102.9415201565563
 20
-138.7462252799836
 30
0.0
 10
102.778567140104
 20
-138.7462252799836
 30
0.0
  0
HATCH
  5
11A
330
106
100
AcDbEntity
  8
_U+30EC_U+30A4_U+30E4_U+30FC 1
 62
   179
420
  2234388
100
AcDbHatch
 10
0.0
 20
0.0
 30
0.0
210
0.0
220
0.0
230
1.0
  2
SOLID
 70
     1
 71
     0
 91
        3
 92
        1
 93
        1
 72
     4
 94
        3
 73
     0
 74
     1
 95
       29
 96
       25
 40
0.0
 40
0.0
 40
0.0
 40
0.0
 40
1.0
 40
1.0
 40
1.0
 40
2.0
 40
2.0
 40
2.0
 40
3.0
 40
3.0
 40
3.0
 40
4.0
 40
4.0
 40
4.0
 40
5.0
 40
5.0
 40
5.0
 40
6.0
 40
6.0
 40
6.0
 40
7.0
 40
7.0
 40
7.0
 40
8.0
 40
8.0
 40
8.0
 40
8.0
 10
102.778567140104
 20
-140.1972994983708
 10
102.5120890043199
 20
-140.1972994983708
 10
102.258185467057
 20
-140.0598401885094
 10
102.258185467057
 20
-139.7108520158535
 10
102.258185467057
 20
-139.4548814212995
 10
102.399951146275
 20
-139.3597967859066
 10
102.5057155776722
 20
-139.2984740862691
 10
102.3808308663319
 20
-139.2392184439229
 10
102.3046942561079
 20
-139.1248412738125
 10
102.3046942561079
 20
-138.9639553146514
 10
102.3046942561079
 20
-138.6890366949284
 10
102.503648520381
 20
-138.5536444423581
 10
102.778567140104
 20
-138.5536444423581
 10
103.06209849854
 20
-138.5536444423581
 10
103.2524400241001
 20
-138.6976494336416
 10
103.2524400241001
 20
-138.9639553146514
 10
103.2524400241001
 20
-139.1248412738125
 10
103.1742363565849
 20
-139.2392184439229
 10
103.0493516452446
 20
-139.2984740862691
 10
103.1382351087641
 20
-139.3491169899023
 10
103.2968817558598
 20
-139.4442016252952
 10
103.2968817558598
 20
-139.7067179012712
 10
103.2968817558598
 20
-140.0811997805179
 10
103.0176567667803
 20
-140.1972994983708
 10
102.778567140104
 20
-140.1972994983708
 97
        0
 97
        0
 92
        1
 93
        1
 72
     4
 94
        3
 73
     0
 74
     1
 95
       17
 96
       13
 40
0.0
 40
0.0
 40
0.0
 40
0.0
 40
1.0
 40
1.0
 40
1.0
 40
2.0
 40
2.0
 40
2.0
 40
3.0
 40
3.0
 40
3.0
 40
4.0
 40
4.0
 40
4.0
 40
4.0
 10
102.778567140104
 20
-139.4063055749575
 10
102.6347344035948
 20
-139.4063055749575
 10
102.4824611831468
 20
-139.4931219811858
 10
102.4824611831468
 20
-139.696038105267
 10
102.4824611831468
 20
-139.9013657961879
 10
102.6094129517782
 20
-140.0026516034542
 10
102.778567140104
 20
-140.0026516034542
 10
102.9647745510817
 20
-140.0026516034542
 10
103.0748453518355
 20
-139.8800062041793
 10
103.0748453518355
 20
-139.7022392771404
 10
103.0748453518355
 20
-139.4803751278903
 10
102.9118923353831
 20
-139.4063055749575
 10
102.778567140104
 20
-139.4063055749575
 97
        0
 97
        0
 92
        1
 93
        1
 72
     4
 94
        3
 73
     0
 74
     1
 95
       17
 96
       13
 40
0.0
 40
0.0
 40
0.0
 40
0.0
 40
1.0
 40
1.0
 40
1.0
 40
2.0
 40
2.0
 40
2.0
 40
3.0
 40
3.0
 40
3.0
 40
4.0
 40
4.0
 40
4.0
 40
4.0
 10
102.778567140104
 20
-138.7462252799836
 10
102.6135470663605
 20
-138.7462252799836
 10
102.5289699721976
 20
-138.8413099153765
 10
102.5289699721976
 20
-138.9767021679468
 10
102.5289699721976
 20
-139.0993475672217
 10
102.6009724678393
 20
-139.2178588519143
 10
102.778567140104
 20
-139.2178588519143
 10
102.9563340671429
 20
-139.2178588519143
 10
103.0281643080103
 20
-139.0993475672217
 10
103.0281643080103
 20
-138.9767021679468
 10
103.0281643080103
 20
-138.8413099153765
 10
102.9415201565563
 20
-138.7462252799836
 10
102.778567140104
 20
-138.7462252799836
 97
        0
 97
        0
 75
     2
 76
     1
 98
        0
  0
ENDBLK
  5
109
330
106
100
AcDbEntity
  8
0
100
AcDbBlockEnd
  0
BLOCK
  5
125
330
123
100
AcDbEntity
  8
0
100
AcDbBlockBegin
  2
block 5
 70
     0
 10
0.0
 20
0.0
 30
0.0
  3
block 5
  1

  0
SPLINE
  5
127
330
123
100
AcDbEntity
  8
_U+30EC_U+30A4_U+30E4_U+30FC 1
370
     0
100
AcDbSpline
210
0.0
220
0.0
230
1.0
 70
    11
 71
     3
 72
    62
 73
    58
 74
     0
 42
0.0000000001
 43
0.0000000001
 12
1.0
 22
0.0
 32
0.0
 13
1.0
 23
0.0
 33
0.0
 40
0.0
 40
0.0
 40
0.0
 40
0.0
 40
1.0
 40
1.0
 40
1.0
 40
2.0
 40
2.0
 40
2.0
 40
3.0
 40
3.0
 40
3.0
 40
4.0
 40
4.0
 40
4.0
 40
5.0
 40
5.0
 40
5.0
 40
6.0
 40
6.0
 40
6.0
 40
7.0
 40
7.0
 40
7.0
 40
8.0
 40
8.0
 40
8.0
 40
9.0
 40
9.0
 40
9.0
 40
10.0
 40
10.0
 40
10.0
 40
11.0
 40
11.0
 40
11.0
 40
12.0
 40
12.0
 40
12.0
 40
13.0
 40
13.0
 40
13.0
 40
14.0
 40
14.0
 40
14.0
 40
15.0
 40
15.0
 40
15.0
 40
16.0
 40
16.0
 40
16.0
 40
17.0
 40
17.0
 40
17.0
 40
18.0
 40
18.0
 40
18.0
 40
19.0
 40
19.0
 40
19.0
 40
19.0
 10
107.5117838272887
 20
-140.1972994983708
 30
0.0
 10
107.4163546823473
 20
-140.1972994983708
 30
0.0
 10
107.198280138131
 20
-140.1762844159108
 30
0.0
 10
107.073567681565
 20
-139.9902492597073
 30
0.0
 10
106.9998426381806
 20
-139.8779391468882
 30
0.0
 10
106.9953640140498
 20
-139.778720396913
 30
0.0
 10
106.9912298994675
 20
-139.6939710479758
 30
0.0
 10
106.9912298994675
 20
-139.6939710479758
 30
0.0
 10
107.2113715009749
 20
-139.6939710479758
 30
0.0
 10
107.2113715009749
 20
-139.6939710479758
 30
0.0
 10
107.2134385582661
 20
-139.7680406009087
 30
0.0
 10
107.2237738447218
 20
-140.0026516034542
 30
0.0
 10
107.5073052031579
 20
-140.0026516034542
 30
0.0
 10
107.6447645130194
 20
-140.0026516034542
 30
0.0
 10
107.7970377334674
 20
-139.9330606746522
 30
0.0
 10
107.7970377334674
 20
-139.7046508439801
 30
0.0
 10
107.7970377334674
 20
-139.5882066165786
 30
0.0
 10
107.7591416831297
 20
-139.5396307702366
 30
0.0
 10
107.7274468046654
 20
-139.5079358917723
 30
0.0
 10
107.6533772517325
 20
-139.4338663388395
 30
0.0
 10
107.536933024331
 20
-139.421119485544
 30
0.0
 10
107.4821560061156
 20
-139.421119485544
 30
0.0
 10
107.4628634713982
 20
-139.421119485544
 30
0.0
 10
107.4270344783516
 20
-139.4231865428352
 30
0.0
 10
107.3994737144696
 20
-139.4273206574175
 30
0.0
 10
107.3994737144696
 20
-139.4273206574175
 30
0.0
 10
107.3994737144696
 20
-139.2326727625009
 30
0.0
 10
107.3994737144696
 20
-139.2326727625009
 30
0.0
 10
107.4373697648073
 20
-139.2392184439229
 30
0.0
 10
107.4800889488244
 20
-139.241285501214
 30
0.0
 10
107.4862901206979
 20
-139.241285501214
 30
0.0
 10
107.5517469349176
 20
-139.241285501214
 30
0.0
 10
107.7508734539651
 20
-139.2199259092054
 30
0.0
 10
107.7508734539651
 20
-138.9832478493688
 30
0.0
 10
107.7508734539651
 20
-138.8054809223299
 30
0.0
 10
107.6192708064285
 20
-138.7503593945659
 30
0.0
 10
107.5097167699976
 20
-138.7503593945659
 30
0.0
 10
107.2451334367304
 20
-138.7503593945659
 30
0.0
 10
107.2365206980173
 20
-138.9832478493688
 30
0.0
 10
107.232386583435
 20
-139.054905835462
 30
0.0
 10
107.232386583435
 20
-139.054905835462
 30
0.0
 10
107.0294704593537
 20
-139.054905835462
 30
0.0
 10
107.0294704593537
 20
-139.054905835462
 30
0.0
 10
107.0377386885183
 20
-138.9301933788959
 30
0.0
 10
107.0652994524004
 20
-138.5536444423581
 30
0.0
 10
107.5221191137445
 20
-138.5536444423581
 30
0.0
 10
107.7463948298342
 20
-138.5536444423581
 30
0.0
 10
107.9875515138017
 20
-138.6807684657638
 30
0.0
 10
107.9875515138017
 20
-138.9767021679468
 30
0.0
 10
107.9875515138017
 20
-139.1630818336988
 30
0.0
 10
107.8924668784088
 20
-139.2454196157963
 30
0.0
 10
107.7929036188851
 20
-139.3067423154337
 30
0.0
 10
107.8542263185226
 20
-139.3343030793157
 30
0.0
 10
108.0361273601438
 20
-139.4145738041221
 30
0.0
 10
108.0361273601438
 20
-139.6919039906847
 30
0.0
 10
108.0361273601438
 20
-140.0302123673362
 30
0.0
 10
107.7887695043028
 20
-140.1972994983708
 30
0.0
 10
107.5117838272887
 20
-140.1972994983708
 30
0.0
  0
HATCH
  5
128
330
123
100
AcDbEntity
  8
_U+30EC_U+30A4_U+30E4_U+30FC 1
 62
   179
420
  2234388
100
AcDbHatch
 10
0.0
 20
0.0
 30
0.0
210
0.0
220
0.0
230
1.0
  2
SOLID
 70
     1
 71
     0
 91
        1
 92
        1
 93
        1
 72
     4
 94
        3
 73
     0
 74
     1
 95
       62
 96
       58
 40
0.0
 40
0.0
 40
0.0
 40
0.0
 40
1.0
 40
1.0
 40
1.0
 40
2.0
 40
2.0
 40
2.0
 40
3.0
 40
3.0
 40
3.0
 40
4.0
 40
4.0
 40
4.0
 40
5.0
 40
5.0
 40
5.0
 40
6.0
 40
6.0
 40
6.0
 40
7.0
 40
7.0
 40
7.0
 40
8.0
 40
8.0
 40
8.0
 40
9.0
 40
9.0
 40
9.0
 40
10.0
 40
10.0
 40
10.0
 40
11.0
 40
11.0
 40
11.0
 40
12.0
 40
12.0
 40
12.0
 40
13.0
 40
13.0
 40
13.0
 40
14.0
 40
14.0
 40
14.0
 40
15.0
 40
15.0
 40
15.0
 40
16.0
 40
16.0
 40
16.0
 40
17.0
 40
17.0
 40
17.0
 40
18.0
 40
18.0
 40
18.0
 40
19.0
 40
19.0
 40
19.0
 40
19.0
 10
107.5117838272887
 20
-140.1972994983708
 10
107.4163546823473
 20
-140.1972994983708
 10
107.198280138131
 20
-140.1762844159108
 10
107.073567681565
 20
-139.9902492597073
 10
106.9998426381806
 20
-139.8779391468882
 10
106.9953640140498
 20
-139.778720396913
 10
106.9912298994675
 20
-139.6939710479758
 10
106.9912298994675
 20
-139.6939710479758
 10
107.2113715009749
 20
-139.6939710479758
 10
107.2113715009749
 20
-139.6939710479758
 10
107.2134385582661
 20
-139.7680406009087
 10
107.2237738447218
 20
-140.0026516034542
 10
107.5073052031579
 20
-140.0026516034542
 10
107.6447645130194
 20
-140.0026516034542
 10
107.7970377334674
 20
-139.9330606746522
 10
107.7970377334674
 20
-139.7046508439801
 10
107.7970377334674
 20
-139.5882066165786
 10
107.7591416831297
 20
-139.5396307702366
 10
107.7274468046654
 20
-139.5079358917723
 10
107.6533772517325
 20
-139.4338663388395
 10
107.536933024331
 20
-139.421119485544
 10
107.4821560061156
 20
-139.421119485544
 10
107.4628634713982
 20
-139.421119485544
 10
107.4270344783516
 20
-139.4231865428352
 10
107.3994737144696
 20
-139.4273206574175
 10
107.3994737144696
 20
-139.4273206574175
 10
107.3994737144696
 20
-139.2326727625009
 10
107.3994737144696
 20
-139.2326727625009
 10
107.4373697648073
 20
-139.2392184439229
 10
107.4800889488244
 20
-139.241285501214
 10
107.4862901206979
 20
-139.241285501214
 10
107.5517469349176
 20
-139.241285501214
 10
107.7508734539651
 20
-139.2199259092054
 10
107.7508734539651
 20
-138.9832478493688
 10
107.7508734539651
 20
-138.8054809223299
 10
107.6192708064285
 20
-138.7503593945659
 10
107.5097167699976
 20
-138.7503593945659
 10
107.2451334367304
 20
-138.7503593945659
 10
107.2365206980173
 20
-138.9832478493688
 10
107.232386583435
 20
-139.054905835462
 10
107.232386583435
 20
-139.054905835462
 10
107.0294704593537
 20
-139.054905835462
 10
107.0294704593537
 20
-139.054905835462
 10
107.0377386885183
 20
-138.9301933788959
 10
107.0652994524004
 20
-138.5536444423581
 10
107.5221191137445
 20
-138.5536444423581
 10
107.7463948298342
 20
-138.5536444423581
 10
107.9875515138017
 20
-138.6807684657638
 10
107.9875515138017
 20
-138.9767021679468
 10
107.9875515138017
 20
-139.1630818336988
 10
107.8924668784088
 20
-139.2454196157963
 10
107.7929036188851
 20
-139.3067423154337
 10
107.8542263185226
 20
-139.3343030793157
 10
108.0361273601438
 20
-139.4145738041221
 10
108.0361273601438
 20
-139.6919039906847
 10
108.0361273601438
 20
-140.0302123673362
 10
107.7887695043028
 20
-140.1972994983708
 10
107.5117838272887
 20
-140.1972994983708
 97
        0
 97
        0
 75
     2
 76
     1
 98
        0
  0
SPLINE
  5
129
330
123
100
AcDbEntity
  8
_U+30EC_U+30A4_U+30E4_U+30FC 1
370
     0
100
AcDbSpline
210
0.0
220
0.0
230
1.0
 70
    11
 71
     3
 72
    32
 73
    28
 74
     0
 42
0.0000000001
 43
0.0000000001
 12
1.0
 22
0.0
 32
0.0
 13
1.0
 23
0.0
 33
0.0
 40
0.0
 40
0.0
 40
0.0
 40
0.0
 40
1.0
 40
1.0
 40
1.0
 40
2.0
 40
2.0
 40
2.0
 40
3.0
 40
3.0
 40
3.0
 40
4.0
 40
4.0
 40
4.0
 40
5.0
 40
5.0
 40
5.0
 40
6.0
 40
6.0
 40
6.0
 40
7.0
 40
7.0
 40
7.0
 40
8.0
 40
8.0
 40
8.0
 40
9.0
 40
9.0
 40
9.0
 40
9.0
 10
108.701030788797
 20
-140.1972994983708
 30
0.0
 10
108.1849554851065
 20
-140.1972994983708
 30
0.0
 10
108.1766872559419
 20
-139.6433281443426
 30
0.0
 10
108.1766872559419
 20
-139.4293877147086
 30
0.0
 10
108.1766872559419
 20
-139.1989108267454
 30
0.0
 10
108.1956352811108
 20
-138.551577385067
 30
0.0
 10
108.7392713486832
 20
-138.551577385067
 30
0.0
 10
108.9125596515913
 20
-138.551577385067
 30
0.0
 10
109.1581949596896
 20
-138.6215128234175
 30
0.0
 10
109.1964355195759
 20
-138.9536200281956
 30
0.0
 10
109.1964355195759
 20
-138.9536200281956
 30
0.0
 10
108.9824950899419
 20
-138.9536200281956
 30
0.0
 10
108.9824950899419
 20
-138.9536200281956
 30
0.0
 10
108.9718152939376
 20
-138.8964314431405
 30
0.0
 10
108.9401204154733
 20
-138.7482923372747
 30
0.0
 10
108.7372042913921
 20
-138.7482923372747
 30
0.0
 10
108.4454047037914
 20
-138.7482923372747
 30
0.0
 10
108.4047525770655
 20
-139.0762654274705
 30
0.0
 10
108.3923502333186
 20
-139.2812486088429
 30
0.0
 10
108.4853678114203
 20
-139.2030449413277
 30
0.0
 10
108.5528916829312
 20
-139.1437892989814
 30
0.0
 10
108.7347927245524
 20
-139.1437892989814
 30
0.0
 10
108.9146267088825
 20
-139.1437892989814
 30
0.0
 10
109.2171060924874
 20
-139.2519652972183
 30
0.0
 10
109.2171060924874
 20
-139.6581420549292
 30
0.0
 10
109.2171060924874
 20
-139.9775024064119
 30
0.0
 10
109.018668592537
 20
-140.1972994983708
 30
0.0
 10
108.701030788797
 20
-140.1972994983708
 30
0.0
  0
SPLINE
  5
12A
330
123
100
AcDbEntity
  8
_U+30EC_U+30A4_U+30E4_U+30FC 1
370
     0
100
AcDbSpline
210
0.0
220
0.0
230
1.0
 70
    11
 71
     3
 72
    17
 73
    13
 74
     0
 42
0.0000000001
 43
0.0000000001
 12
1.0
 22
0.0
 32
0.0
 13
1.0
 23
0.0
 33
0.0
 40
0.0
 40
0.0
 40
0.0
 40
0.0
 40
1.0
 40
1.0
 40
1.0
 40
2.0
 40
2.0
 40
2.0
 40
3.0
 40
3.0
 40
3.0
 40
4.0
 40
4.0
 40
4.0
 40
4.0
 10
108.7182562662232
 20
-139.338437193898
 30
0.0
 10
108.4557399902472
 20
-139.338437193898
 30
0.0
 10
108.4178439399094
 20
-139.5499660566924
 30
0.0
 10
108.4178439399094
 20
-139.6664102840938
 30
0.0
 10
108.4178439399094
 20
-139.8421101538416
 30
0.0
 10
108.5129285753023
 20
-140.0050631702939
 30
0.0
 10
108.6968966742147
 20
-140.0050631702939
 30
0.0
 10
108.8174750161984
 20
-140.0050631702939
 30
0.0
 10
108.9931748859462
 20
-139.9458075279476
 30
0.0
 10
108.9931748859462
 20
-139.6602091122204
 30
0.0
 10
108.9931748859462
 20
-139.4359333961306
 30
0.0
 10
108.853304009245
 20
-139.338437193898
 30
0.0
 10
108.7182562662232
 20
-139.338437193898
 30
0.0
  0
HATCH
  5
12B
330
123
100
AcDbEntity
  8
_U+30EC_U+30A4_U+30E4_U+30FC 1
 62
   179
420
  2234388
100
AcDbHatch
 10
0.0
 20
0.0
 30
0.0
210
0.0
220
0.0
230
1.0
  2
SOLID
 70
     1
 71
     0
 91
        2
 92
        1
 93
        1
 72
     4
 94
        3
 73
     0
 74
     1
 95
       32
 96
       28
 40
0.0
 40
0.0
 40
0.0
 40
0.0
 40
1.0
 40
1.0
 40
1.0
 40
2.0
 40
2.0
 40
2.0
 40
3.0
 40
3.0
 40
3.0
 40
4.0
 40
4.0
 40
4.0
 40
5.0
 40
5.0
 40
5.0
 40
6.0
 40
6.0
 40
6.0
 40
7.0
 40
7.0
 40
7.0
 40
8.0
 40
8.0
 40
8.0
 40
9.0
 40
9.0
 40
9.0
 40
9.0
 10
108.701030788797
 20
-140.1972994983708
 10
108.1849554851065
 20
-140.1972994983708
 10
108.1766872559419
 20
-139.6433281443426
 10
108.1766872559419
 20
-139.4293877147086
 10
108.1766872559419
 20
-139.1989108267454
 10
108.1956352811108
 20
-138.551577385067
 10
108.7392713486832
 20
-138.551577385067
 10
108.9125596515913
 20
-138.551577385067
 10
109.1581949596896
 20
-138.6215128234175
 10
109.1964355195759
 20
-138.9536200281956
 10
109.1964355195759
 20
-138.9536200281956
 10
108.9824950899419
 20
-138.9536200281956
 10
108.9824950899419
 20
-138.9536200281956
 10
108.9718152939376
 20
-138.8964314431405
 10
108.9401204154733
 20
-138.7482923372747
 10
108.7372042913921
 20
-138.7482923372747
 10
108.4454047037914
 20
-138.7482923372747
 10
108.4047525770655
 20
-139.0762654274705
 10
108.3923502333186
 20
-139.2812486088429
 10
108.4853678114203
 20
-139.2030449413277
 10
108.5528916829312
 20
-139.1437892989814
 10
108.7347927245524
 20
-139.1437892989814
 10
108.9146267088825
 20
-139.1437892989814
 10
109.2171060924874
 20
-139.2519652972183
 10
109.2171060924874
 20
-139.6581420549292
 10
109.2171060924874
 20
-139.9775024064119
 10
109.018668592537
 20
-140.1972994983708
 10
108.701030788797
 20
-140.1972994983708
 97
        0
 97
        0
 92
        1
 93
        1
 72
     4
 94
        3
 73
     0
 74
     1
 95
       17
 96
       13
 40
0.0
 40
0.0
 40
0.0
 40
0.0
 40
1.0
 40
1.0
 40
1.0
 40
2.0
 40
2.0
 40
2.0
 40
3.0
 40
3.0
 40
3.0
 40
4.0
 40
4.0
 40
4.0
 40
4.0
 10
108.7182562662232
 20
-139.338437193898
 10
108.4557399902472
 20
-139.338437193898
 10
108.4178439399094
 20
-139.5499660566924
 10
108.4178439399094
 20
-139.6664102840938
 10
108.4178439399094
 20
-139.8421101538416
 10
108.5129285753023
 20
-140.0050631702939
 10
108.6968966742147
 20
-140.0050631702939
 10
108.8174750161984
 20
-140.0050631702939
 10
108.9931748859462
 20
-139.9458075279476
 10
108.9931748859462
 20
-139.6602091122204
 10
108.9931748859462
 20
-139.4359333961306
 10
108.853304009245
 20
-139.338437193898
 10
108.7182562662232
 20
-139.338437193898
 97
        0
 97
        0
 75
     2
 76
     1
 98
        0
  0
POLYLINE
  5
12C
330
123
100
AcDbEntity
  8
_U+30EC_U+30A4_U+30E4_U+30FC 1
370
     0
100
AcDb2dPolyline
 66
     1
 10
0.0
 20
0.0
 30
0.0
  0
VERTEX
  5
12D
330
12C
100
AcDbEntity
  8
_U+30EC_U+30A4_U+30E4_U+30FC 1
370
     0
100
AcDbVertex
100
AcDb2dVertex
 10
109.4338025985096
 20
-140.1466565947376
 30
0.0
  0
VERTEX
  5
12E
330
12C
100
AcDbEntity
  8
_U+30EC_U+30A4_U+30E4_U+30FC 1
370
     0
100
AcDbVertex
100
AcDb2dVertex
 10
109.4338025985096
 20
-139.8948201147659
 30
0.0
  0
VERTEX
  5
12F
330
12C
100
AcDbEntity
  8
_U+30EC_U+30A4_U+30E4_U+30FC 1
370
     0
100
AcDbVertex
100
AcDb2dVertex
 10
109.6856390784814
 20
-139.8948201147659
 30
0.0
  0
VERTEX
  5
130
330
12C
100
AcDbEntity
  8
_U+30EC_U+30A4_U+30E4_U+30FC 1
370
     0
100
AcDbVertex
100
AcDb2dVertex
 10
109.6856390784814
 20
-140.1466565947376
 30
0.0
  0
VERTEX
  5
131
330
12C
100
AcDbEntity
  8
_U+30EC_U+30A4_U+30E4_U+30FC 1
370
     0
100
AcDbVertex
100
AcDb2dVertex
 10
109.4338025985096
 20
-140.1466565947376
 30
0.0
  0
SEQEND
  5
132
330
12C
100
AcDbEntity
  8
_U+30EC_U+30A4_U+30E4_U+30FC 1
370
     0
  0
HATCH
  5
133
330
123
100
AcDbEntity
  8
_U+30EC_U+30A4_U+30E4_U+30FC 1
 62
   179
420
  2234388
100
AcDbHatch
 10
0.0
 20
0.0
 30
0.0
210
0.0
220
0.0
230
1.0
  2
SOLID
 70
     1
 71
     0
 91
        1
 92
        1
 93
        4
 72
     1
 10
109.4338025985096
 20
-140.1466565947376
 11
109.4338025985096
 21
-139.8948201147659
 72
     1
 10
109.4338025985096
 20
-139.8948201147659
 11
109.6856390784814
 21
-139.8948201147659
 72
     1
 10
109.6856390784814
 20
-139.8948201147659
 11
109.6856390784814
 21
-140.1466565947376
 72
     1
 10
109.6856390784814
 20
-140.1466565947376
 11
109.4338025985096
 21
-140.1466565947376
 97
        0
 75
     2
 76
     1
 98
        0
  0
SPLINE
  5
134
330
123
100
AcDbEntity
  8
_U+30EC_U+30A4_U+30E4_U+30FC 1
370
     0
100
AcDbSpline
210
0.0
220
0.0
230
1.0
 70
    11
 71
     3
 72
    29
 73
    25
 74
     0
 42
0.0000000001
 43
0.0000000001
 12
1.0
 22
0.0
 32
0.0
 13
1.0
 23
0.0
 33
0.0
 40
0.0
 40
0.0
 40
0.0
 40
0.0
 40
1.0
 40
1.0
 40
1.0
 40
2.0
 40
2.0
 40
2.0
 40
3.0
 40
3.0
 40
3.0
 40
4.0
 40
4.0
 40
4.0
 40
5.0
 40
5.0
 40
5.0
 40
6.0
 40
6.0
 40
6.0
 40
7.0
 40
7.0
 40
7.0
 40
8.0
 40
8.0
 40
8.0
 40
8.0
 10
110.4222004932278
 20
-140.1972994983708
 30
0.0
 10
110.1555501026695
 20
-140.1972994983708
 30
0.0
 10
109.9016465654065
 20
-140.0598401885094
 30
0.0
 10
109.9016465654065
 20
-139.7108520158535
 30
0.0
 10
109.9016465654065
 20
-139.4548814212995
 30
0.0
 10
110.0432399898503
 20
-139.3597967859066
 30
0.0
 10
110.149348930796
 20
-139.2984740862691
 30
0.0
 10
110.0242919646814
 20
-139.2392184439229
 30
0.0
 10
109.9481553544574
 20
-139.1248412738125
 30
0.0
 10
109.9481553544574
 20
-138.9639553146514
 30
0.0
 10
109.9481553544574
 20
-138.6890366949284
 30
0.0
 10
110.1472818735049
 20
-138.5536444423581
 30
0.0
 10
110.4222004932278
 20
-138.5536444423581
 30
0.0
 10
110.7053873421153
 20
-138.5536444423581
 30
0.0
 10
110.8959011224496
 20
-138.6976494336416
 30
0.0
 10
110.8959011224496
 20
-138.9639553146514
 30
0.0
 10
110.8959011224496
 20
-139.1248412738125
 30
0.0
 10
110.8176974549345
 20
-139.2392184439229
 30
0.0
 10
110.6929849983684
 20
-139.2984740862691
 30
0.0
 10
110.7818684618879
 20
-139.3491169899023
 30
0.0
 10
110.9403428542094
 20
-139.4442016252952
 30
0.0
 10
110.9403428542094
 20
-139.7067179012712
 30
0.0
 10
110.9403428542094
 20
-140.0811997805179
 30
0.0
 10
110.6612901199041
 20
-140.1972994983708
 30
0.0
 10
110.4222004932278
 20
-140.1972994983708
 30
0.0
  0
SPLINE
  5
135
330
123
100
AcDbEntity
  8
_U+30EC_U+30A4_U+30E4_U+30FC 1
370
     0
100
AcDbSpline
210
0.0
220
0.0
230
1.0
 70
    11
 71
     3
 72
    17
 73
    13
 74
     0
 42
0.0000000001
 43
0.0000000001
 12
1.0
 22
0.0
 32
0.0
 13
1.0
 23
0.0
 33
0.0
 40
0.0
 40
0.0
 40
0.0
 40
0.0
 40
1.0
 40
1.0
 40
1.0
 40
2.0
 40
2.0
 40
2.0
 40
3.0
 40
3.0
 40
3.0
 40
4.0
 40
4.0
 40
4.0
 40
4.0
 10
110.4222004932278
 20
-139.4063055749575
 30
0.0
 10
110.2781955019443
 20
-139.4063055749575
 30
0.0
 10
110.1259222814963
 20
-139.4931219811858
 30
0.0
 10
110.1259222814963
 20
-139.696038105267
 30
0.0
 10
110.1259222814963
 20
-139.9013657961879
 30
0.0
 10
110.2527017953535
 20
-140.0026516034542
 30
0.0
 10
110.4222004932278
 20
-140.0026516034542
 30
0.0
 10
110.6082356494313
 20
-140.0026516034542
 30
0.0
 10
110.7184787049593
 20
-139.8800062041793
 30
0.0
 10
110.7184787049593
 20
-139.7022392771404
 30
0.0
 10
110.7184787049593
 20
-139.4803751278903
 30
0.0
 10
110.5551811789584
 20
-139.4063055749575
 30
0.0
 10
110.4222004932278
 20
-139.4063055749575
 30
0.0
  0
SPLINE
  5
136
330
123
100
AcDbEntity
  8
_U+30EC_U+30A4_U+30E4_U+30FC 1
370
     0
100
AcDbSpline
210
0.0
220
0.0
230
1.0
 70
    11
 71
     3
 72
    17
 73
    13
 74
     0
 42
0.0000000001
 43
0.0000000001
 12
1.0
 22
0.0
 32
0.0
 13
1.0
 23
0.0
 33
0.0
 40
0.0
 40
0.0
 40
0.0
 40
0.0
 40
1.0
 40
1.0
 40
1.0
 40
2.0
 40
2.0
 40
2.0
 40
3.0
 40
3.0
 40
3.0
 40
4.0
 40
4.0
 40
4.0
 40
4.0
 10
110.4222004932278
 20
-138.7462252799836
 30
0.0
 10
110.2568359099358
 20
-138.7462252799836
 30
0.0
 10
110.1724310705472
 20
-138.8413099153765
 30
0.0
 10
110.1724310705472
 20
-138.9767021679468
 30
0.0
 10
110.1724310705472
 20
-139.0993475672217
 30
0.0
 10
110.2444335661889
 20
-139.2178588519143
 30
0.0
 10
110.4222004932278
 20
-139.2178588519143
 30
0.0
 10
110.5999674202667
 20
-139.2178588519143
 30
0.0
 10
110.6716254063599
 20
-139.0993475672217
 30
0.0
 10
110.6716254063599
 20
-138.9767021679468
 30
0.0
 10
110.6716254063599
 20
-138.8413099153765
 30
0.0
 10
110.5848090001316
 20
-138.7462252799836
 30
0.0
 10
110.4222004932278
 20
-138.7462252799836
 30
0.0
  0
HATCH
  5
137
330
123
100
AcDbEntity
  8
_U+30EC_U+30A4_U+30E4_U+30FC 1
 62
   179
420
  2234388
100
AcDbHatch
 10
0.0
 20
0.0
 30
0.0
210
0.0
220
0.0
230
1.0
  2
SOLID
 70
     1
 71
     0
 91
        3
 92
        1
 93
        1
 72
     4
 94
        3
 73
     0
 74
     1
 95
       29
 96
       25
 40
0.0
 40
0.0
 40
0.0
 40
0.0
 40
1.0
 40
1.0
 40
1.0
 40
2.0
 40
2.0
 40
2.0
 40
3.0
 40
3.0
 40
3.0
 40
4.0
 40
4.0
 40
4.0
 40
5.0
 40
5.0
 40
5.0
 40
6.0
 40
6.0
 40
6.0
 40
7.0
 40
7.0
 40
7.0
 40
8.0
 40
8.0
 40
8.0
 40
8.0
 10
110.4222004932278
 20
-140.1972994983708
 10
110.1555501026695
 20
-140.1972994983708
 10
109.9016465654065
 20
-140.0598401885094
 10
109.9016465654065
 20
-139.7108520158535
 10
109.9016465654065
 20
-139.4548814212995
 10
110.0432399898503
 20
-139.3597967859066
 10
110.149348930796
 20
-139.2984740862691
 10
110.0242919646814
 20
-139.2392184439229
 10
109.9481553544574
 20
-139.1248412738125
 10
109.9481553544574
 20
-138.9639553146514
 10
109.9481553544574
 20
-138.6890366949284
 10
110.1472818735049
 20
-138.5536444423581
 10
110.4222004932278
 20
-138.5536444423581
 10
110.7053873421153
 20
-138.5536444423581
 10
110.8959011224496
 20
-138.6976494336416
 10
110.8959011224496
 20
-138.9639553146514
 10
110.8959011224496
 20
-139.1248412738125
 10
110.8176974549345
 20
-139.2392184439229
 10
110.6929849983684
 20
-139.2984740862691
 10
110.7818684618879
 20
-139.3491169899023
 10
110.9403428542094
 20
-139.4442016252952
 10
110.9403428542094
 20
-139.7067179012712
 10
110.9403428542094
 20
-140.0811997805179
 10
110.6612901199041
 20
-140.1972994983708
 10
110.4222004932278
 20
-140.1972994983708
 97
        0
 97
        0
 92
        1
 93
        1
 72
     4
 94
        3
 73
     0
 74
     1
 95
       17
 96
       13
 40
0.0
 40
0.0
 40
0.0
 40
0.0
 40
1.0
 40
1.0
 40
1.0
 40
2.0
 40
2.0
 40
2.0
 40
3.0
 40
3.0
 40
3.0
 40
4.0
 40
4.0
 40
4.0
 40
4.0
 10
110.4222004932278
 20
-139.4063055749575
 10
110.2781955019443
 20
-139.4063055749575
 10
110.1259222814963
 20
-139.4931219811858
 10
110.1259222814963
 20
-139.696038105267
 10
110.1259222814963
 20
-139.9013657961879
 10
110.2527017953535
 20
-140.0026516034542
 10
110.4222004932278
 20
-140.0026516034542
 10
110.6082356494313
 20
-140.0026516034542
 10
110.7184787049593
 20
-139.8800062041793
 10
110.7184787049593
 20
-139.7022392771404
 10
110.7184787049593
 20
-139.4803751278903
 10
110.5551811789584
 20
-139.4063055749575
 10
110.4222004932278
 20
-139.4063055749575
 97
        0
 97
        0
 92
        1
 93
        1
 72
     4
 94
        3
 73
     0
 74
     1
 95
       17
 96
       13
 40
0.0
 40
0.0
 40
0.0
 40
0.0
 40
1.0
 40
1.0
 40
1.0
 40
2.0
 40
2.0
 40
2.0
 40
3.0
 40
3.0
 40
3.0
 40
4.0
 40
4.0
 40
4.0
 40
4.0
 10
110.4222004932278
 20
-138.7462252799836
 10
110.2568359099358
 20
-138.7462252799836
 10
110.1724310705472
 20
-138.8413099153765
 10
110.1724310705472
 20
-138.9767021679468
 10
110.1724310705472
 20
-139.0993475672217
 10
110.2444335661889
 20
-139.2178588519143
 10
110.4222004932278
 20
-139.2178588519143
 10
110.5999674202667
 20
-139.2178588519143
 10
110.6716254063599
 20
-139.0993475672217
 10
110.6716254063599
 20
-138.9767021679468
 10
110.6716254063599
 20
-138.8413099153765
 10
110.5848090001316
 20
-138.7462252799836
 10
110.4222004932278
 20
-138.7462252799836
 97
        0
 97
        0
 75
     2
 76
     1
 98
        0
  0
ENDBLK
  5
126
330
123
100
AcDbEntity
  8
0
100
AcDbBlockEnd
  0
ENDSEC
  0
SECTION
  2
ENTITIES
  0
POLYLINE
  5
41
330
1F
100
AcDbEntity
  8
_U+30EC_U+30A4_U+30E4_U+30FC 1
 62
   179
420
  2234388
370
    25
100
AcDb2dPolyline
 66
     1
 10
0.0
 20
0.0
 30
0.0
  0
VERTEX
  5
42
330
41
100
AcDbEntity
  8
_U+30EC_U+30A4_U+30E4_U+30FC 1
 62
   179
420
  2234388
370
    25
100
AcDbVertex
100
AcDb2dVertex
 10
94.59351549962636
 20
-144.3740686691474
 30
0.0
  0
VERTEX
  5
43
330
41
100
AcDbEntity
  8
_U+30EC_U+30A4_U+30E4_U+30FC 1
 62
   179
420
  2234388
370
    25
100
AcDbVertex
100
AcDb2dVertex
 10
105.1207556779638
 20
-150.4520783789994
 30
0.0
  0
SEQEND
  5
44
330
41
100
AcDbEntity
  8
_U+30EC_U+30A4_U+30E4_U+30FC 1
 62
   179
420
  2234388
370
    25
  0
POLYLINE
  5
45
330
1F
100
AcDbEntity
  8
_U+30EC_U+30A4_U+30E4_U+30FC 1
 62
   179
420
  2234388
370
    25
100
AcDb2dPolyline
 66
     1
 10
0.0
 20
0.0
 30
0.0
  0
VERTEX
  5
46
330
45
100
AcDbEntity
  8
_U+30EC_U+30A4_U+30E4_U+30FC 1
 62
   179
420
  2234388
370
    25
100
AcDbVertex
100
AcDb2dVertex
 10
115.647823601527
 20
-144.3740686691474
 30
0.0
  0
VERTEX
  5
47
330
45
100
AcDbEntity
  8
_U+30EC_U+30A4_U+30E4_U+30FC 1
 62
   179
420
  2234388
370
    25
100
AcDbVertex
100
AcDb2dVertex
 10
105.1205807317087
 20
-150.4520783789994
 30
0.0
  0
SEQEND
  5
48
330
45
100
AcDbEntity
  8
_U+30EC_U+30A4_U+30E4_U+30FC 1
 62
   179
420
  2234388
370
    25
  0
POLYLINE
  5
49
330
1F
100
AcDbEntity
  8
_U+30EC_U+30A4_U+30E4_U+30FC 1
 62
   179
420
  2234388
370
    25
100
AcDb2dPolyline
 66
     1
 10
0.0
 20
0.0
 30
0.0
  0
VERTEX
  5
4A
330
49
100
AcDbEntity
  8
_U+30EC_U+30A4_U+30E4_U+30FC 1
 62
   179
420
  2234388
370
    25
100
AcDbVertex
100
AcDb2dVertex
 10
94.29517292208457
 20
-144.8825647627702
 30
0.0
  0
VERTEX
  5
4B
330
49
100
AcDbEntity
  8
_U+30EC_U+30A4_U+30E4_U+30FC 1
 62
   179
420
  2234388
370
    25
100
AcDbVertex
100
AcDb2dVertex
 10
105.1208633371977
 20
-151.1327323535743
 30
0.0
  0
SEQEND
  5
4C
330
49
100
AcDbEntity
  8
_U+30EC_U+30A4_U+30E4_U+30FC 1
 62
   179
420
  2234388
370
    25
  0
POLYLINE
  5
4D
330
1F
100
AcDbEntity
  8
_U+30EC_U+30A4_U+30E4_U+30FC 1
 62
   179
420
  2234388
370
    25
100
AcDb2dPolyline
 66
     1
 10
0.0
 20
0.0
 30
0.0
  0
VERTEX
  5
4E
330
4D
100
AcDbEntity
  8
_U+30EC_U+30A4_U+30E4_U+30FC 1
 62
   179
420
  2234388
370
    25
100
AcDbVertex
100
AcDb2dVertex
 10
115.9462011683198
 20
-144.8825647627702
 30
0.0
  0
VERTEX
  5
4F
330
4D
100
AcDbEntity
  8
_U+30EC_U+30A4_U+30E4_U+30FC 1
 62
   179
420
  2234388
370
    25
100
AcDbVertex
100
AcDb2dVertex
 10
105.1205080617258
 20
-151.1327323535743
 30
0.0
  0
SEQEND
  5
50
330
4D
100
AcDbEntity
  8
_U+30EC_U+30A4_U+30E4_U+30FC 1
 62
   179
420
  2234388
370
    25
  0
POLYLINE
  5
51
330
1F
100
AcDbEntity
  8
_U+30EC_U+30A4_U+30E4_U+30FC 1
 62
   179
420
  2234388
370
    25
100
AcDb2dPolyline
 66
     1
 10
0.0
 20
0.0
 30
0.0
  0
VERTEX
  5
52
330
51
100
AcDbEntity
  8
_U+30EC_U+30A4_U+30E4_U+30FC 1
 62
   179
420
  2234388
370
    25
100
AcDbVertex
100
AcDb2dVertex
 10
94.29517292208457
 20
-148.259415059642
 30
0.0
  0
VERTEX
  5
53
330
51
100
AcDbEntity
  8
_U+30EC_U+30A4_U+30E4_U+30FC 1
 62
   179
420
  2234388
370
    25
100
AcDbVertex
100
AcDb2dVertex
 10
105.1208633371977
 20
-154.509582650446
 30
0.0
  0
SEQEND
  5
54
330
51
100
AcDbEntity
  8
_U+30EC_U+30A4_U+30E4_U+30FC 1
 62
   179
420
  2234388
370
    25
  0
POLYLINE
  5
55
330
1F
100
AcDbEntity
  8
_U+30EC_U+30A4_U+30E4_U+30FC 1
 62
   179
420
  2234388
370
    25
100
AcDb2dPolyline
 66
     1
 10
0.0
 20
0.0
 30
0.0
  0
VERTEX
  5
56
330
55
100
AcDbEntity
  8
_U+30EC_U+30A4_U+30E4_U+30FC 1
 62
   179
420
  2234388
370
    25
100
AcDbVertex
100
AcDb2dVertex
 10
115.9462011683198
 20
-148.259415059642
 30
0.0
  0
VERTEX
  5
57
330
55
100
AcDbEntity
  8
_U+30EC_U+30A4_U+30E4_U+30FC 1
 62
   179
420
  2234388
370
    25
100
AcDbVertex
100
AcDb2dVertex
 10
105.1205080617258
 20
-154.509582650446
 30
0.0
  0
SEQEND
  5
58
330
55
100
AcDbEntity
  8
_U+30EC_U+30A4_U+30E4_U+30FC 1
 62
   179
420
  2234388
370
    25
  0
POLYLINE
  5
59
330
1F
100
AcDbEntity
  8
_U+30EC_U+30A4_U+30E4_U+30FC 1
 62
   179
420
  2234388
370
    25
100
AcDb2dPolyline
 66
     1
 10
0.0
 20
0.0
 30
0.0
  0
VERTEX
  5
5A
330
59
100
AcDbEntity
  8
_U+30EC_U+30A4_U+30E4_U+30FC 1
 62
   179
420
  2234388
370
    25
100
AcDbVertex
100
AcDb2dVertex
 10
97.16903927810982
 20
-141.7702439695488
 30
0.0
  0
VERTEX
  5
5B
330
59
100
AcDbEntity
  8
_U+30EC_U+30A4_U+30E4_U+30FC 1
 62
   179
420
  2234388
370
    25
100
AcDbVertex
100
AcDb2dVertex
 10
105.1206507102107
 20
-146.36129663835
 30
0.0
  0
SEQEND
  5
5C
330
59
100
AcDbEntity
  8
_U+30EC_U+30A4_U+30E4_U+30FC 1
 62
   179
420
  2234388
370
    25
  0
POLYLINE
  5
5D
330
1F
100
AcDbEntity
  8
_U+30EC_U+30A4_U+30E4_U+30FC 1
 62
   179
420
  2234388
370
    25
100
AcDb2dPolyline
 66
     1
 10
0.0
 20
0.0
 30
0.0
  0
VERTEX
  5
5E
330
5D
100
AcDbEntity
  8
_U+30EC_U+30A4_U+30E4_U+30FC 1
 62
   179
420
  2234388
370
    25
100
AcDbVertex
100
AcDb2dVertex
 10
113.0722971315627
 20
-141.7702439695488
 30
0.0
  0
VERTEX
  5
5F
330
5D
100
AcDbEntity
  8
_U+30EC_U+30A4_U+30E4_U+30FC 1
 62
   179
420
  2234388
370
    25
100
AcDbVertex
100
AcDb2dVertex
 10
105.1206856994617
 20
-146.36129663835
 30
0.0
  0
SEQEND
  5
60
330
5D
100
AcDbEntity
  8
_U+30EC_U+30A4_U+30E4_U+30FC 1
 62
   179
420
  2234388
370
    25
  0
POLYLINE
  5
61
330
1F
100
AcDbEntity
  8
_U+30EC_U+30A4_U+30E4_U+30FC 1
 62
   179
420
  2234388
370
    25
100
AcDb2dPolyline
 66
     1
 10
0.0
 20
0.0
 30
0.0
  0
VERTEX
  5
62
330
61
100
AcDbEntity
  8
_U+30EC_U+30A4_U+30E4_U+30FC 1
 62
   179
420
  2234388
370
    25
100
AcDbVertex
100
AcDb2dVertex
 10
97.61586816254672
 20
-141.3926722702888
 30
0.0
  0
VERTEX
  5
63
330
61
100
AcDbEntity
  8
_U+30EC_U+30A4_U+30E4_U+30FC 1
 62
   179
420
  2234388
370
    25
100
AcDbVertex
100
AcDb2dVertex
 10
105.1205080617258
 20
-145.7607734315774
 30
0.0
  0
SEQEND
  5
64
330
61
100
AcDbEntity
  8
_U+30EC_U+30A4_U+30E4_U+30FC 1
 62
   179
420
  2234388
370
    25
  0
POLYLINE
  5
65
330
1F
100
AcDbEntity
  8
_U+30EC_U+30A4_U+30E4_U+30FC 1
 62
   179
420
  2234388
370
    25
100
AcDb2dPolyline
 66
     1
 10
0.0
 20
0.0
 30
0.0
  0
VERTEX
  5
66
330
65
100
AcDbEntity
  8
_U+30EC_U+30A4_U+30E4_U+30FC 1
 62
   179
420
  2234388
370
    25
100
AcDbVertex
100
AcDb2dVertex
 10
112.6860750128577
 20
-141.3926722702888
 30
0.0
  0
VERTEX
  5
67
330
65
100
AcDbEntity
  8
_U+30EC_U+30A4_U+30E4_U+30FC 1
 62
   179
420
  2234388
370
    25
100
AcDbVertex
100
AcDb2dVertex
 10
105.1207556779638
 20
-145.7607734315774
 30
0.0
  0
SEQEND
  5
68
330
65
100
AcDbEntity
  8
_U+30EC_U+30A4_U+30E4_U+30FC 1
 62
   179
420
  2234388
370
    25
  0
POLYLINE
  5
69
330
1F
100
AcDbEntity
  8
_U+30EC_U+30A4_U+30E4_U+30FC 1
 62
   179
420
  2234388
370
    25
100
AcDb2dPolyline
 66
     1
 10
0.0
 20
0.0
 30
0.0
  0
VERTEX
  5
6A
330
69
100
AcDbEntity
  8
_U+30EC_U+30A4_U+30E4_U+30FC 1
 62
   179
420
  2234388
370
    25
100
AcDbVertex
100
AcDb2dVertex
 10
94.19523016376131
 20
-148.1918588903612
 30
0.0
  0
VERTEX
  5
6B
330
69
100
AcDbEntity
  8
_U+30EC_U+30A4_U+30E4_U+30FC 1
 62
   179
420
  2234388
370
    25
100
AcDbVertex
100
AcDb2dVertex
 10
94.19523016376131
 20
-144.8859883264087
 30
0.0
  0
VERTEX
  5
6C
330
69
100
AcDbEntity
  8
_U+30EC_U+30A4_U+30E4_U+30FC 1
 62
   179
420
  2234388
370
    25
100
AcDbVertex
100
AcDb2dVertex
 10
94.59351549962636
 20
-144.3741009669176
 30
0.0
  0
SEQEND
  5
6D
330
69
100
AcDbEntity
  8
_U+30EC_U+30A4_U+30E4_U+30FC 1
 62
   179
420
  2234388
370
    25
  0
POLYLINE
  5
6E
330
1F
100
AcDbEntity
  8
_U+30EC_U+30A4_U+30E4_U+30FC 1
 62
   179
420
  2234388
370
     9
100
AcDb2dPolyline
 66
     1
 10
0.0
 20
0.0
 30
0.0
  0
VERTEX
  5
6F
330
6E
100
AcDbEntity
  8
_U+30EC_U+30A4_U+30E4_U+30FC 1
 62
   179
420
  2234388
370
     9
100
AcDbVertex
100
AcDb2dVertex
 10
105.1199805314796
 20
-160.8557392142077
 30
0.0
  0
VERTEX
  5
70
330
6E
100
AcDbEntity
  8
_U+30EC_U+30A4_U+30E4_U+30FC 1
 62
   179
420
  2234388
370
     9
100
AcDbVertex
100
AcDb2dVertex
 10
105.1199805314796
 20
-160.8564497651516
 30
0.0
  0
VERTEX
  5
71
330
6E
100
AcDbEntity
  8
_U+30EC_U+30A4_U+30E4_U+30FC 1
 62
   179
420
  2234388
370
     9
100
AcDbVertex
100
AcDb2dVertex
 10
105.1196252560077
 20
-160.8557392142077
 30
0.0
  0
VERTEX
  5
72
330
6E
100
AcDbEntity
  8
_U+30EC_U+30A4_U+30E4_U+30FC 1
 62
   179
420
  2234388
370
     9
100
AcDbVertex
100
AcDb2dVertex
 10
105.1199805314796
 20
-160.8546841537154
 30
0.0
  0
VERTEX
  5
73
330
6E
100
AcDbEntity
  8
_U+30EC_U+30A4_U+30E4_U+30FC 1
 62
   179
420
  2234388
370
     9
100
AcDbVertex
100
AcDb2dVertex
 10
105.1199805314796
 20
-160.8557392142077
 30
0.0
  0
SEQEND
  5
74
330
6E
100
AcDbEntity
  8
_U+30EC_U+30A4_U+30E4_U+30FC 1
 62
   179
420
  2234388
370
     9
  0
POLYLINE
  5
75
330
1F
100
AcDbEntity
  8
_U+30EC_U+30A4_U+30E4_U+30FC 1
 62
   179
420
  2234388
370
     9
100
AcDb2dPolyline
 66
     1
 10
0.0
 20
0.0
 30
0.0
  0
VERTEX
  5
76
330
75
100
AcDbEntity
  8
_U+30EC_U+30A4_U+30E4_U+30FC 1
 62
   179
420
  2234388
370
     9
100
AcDbVertex
100
AcDb2dVertex
 10
94.29517292208457
 20
-154.6052917093956
 30
0.0
  0
VERTEX
  5
77
330
75
100
AcDbEntity
  8
_U+30EC_U+30A4_U+30E4_U+30FC 1
 62
   179
420
  2234388
370
     9
100
AcDbVertex
100
AcDb2dVertex
 10
105.1208633371977
 20
-160.8554593001996
 30
0.0
  0
SEQEND
  5
78
330
75
100
AcDbEntity
  8
_U+30EC_U+30A4_U+30E4_U+30FC 1
 62
   179
420
  2234388
370
     9
  0
POLYLINE
  5
79
330
1F
100
AcDbEntity
  8
_U+30EC_U+30A4_U+30E4_U+30FC 1
 62
   179
420
  2234388
370
     9
100
AcDb2dPolyline
 66
     1
 10
0.0
 20
0.0
 30
0.0
  0
VERTEX
  5
7A
330
79
100
AcDbEntity
  8
_U+30EC_U+30A4_U+30E4_U+30FC 1
 62
   179
420
  2234388
370
     9
100
AcDbVertex
100
AcDb2dVertex
 10
105.1199805314796
 20
-160.8564389992282
 30
0.0
  0
VERTEX
  5
7B
330
79
100
AcDbEntity
  8
_U+30EC_U+30A4_U+30E4_U+30FC 1
 62
   179
420
  2234388
370
     9
100
AcDbVertex
100
AcDb2dVertex
 10
105.1199805314796
 20
-158.2878726987364
 30
0.0
  0
SEQEND
  5
7C
330
79
100
AcDbEntity
  8
_U+30EC_U+30A4_U+30E4_U+30FC 1
 62
   179
420
  2234388
370
     9
  0
POLYLINE
  5
7D
330
1F
100
AcDbEntity
  8
_U+30EC_U+30A4_U+30E4_U+30FC 1
 62
   179
420
  2234388
370
     9
100
AcDb2dPolyline
 66
     1
 10
0.0
 20
0.0
 30
0.0
  0
VERTEX
  5
7E
330
7D
100
AcDbEntity
  8
_U+30EC_U+30A4_U+30E4_U+30FC 1
 62
   179
420
  2234388
370
     9
100
AcDbVertex
100
AcDb2dVertex
 10
94.19523016376131
 20
-154.5474356370901
 30
0.0
  0
VERTEX
  5
7F
330
7D
100
AcDbEntity
  8
_U+30EC_U+30A4_U+30E4_U+30FC 1
 62
   179
420
  2234388
370
     9
100
AcDbVertex
100
AcDb2dVertex
 10
94.19523016376131
 20
-149.0229451124839
 30
0.0
  0
SEQEND
  5
80
330
7D
100
AcDbEntity
  8
_U+30EC_U+30A4_U+30E4_U+30FC 1
 62
   179
420
  2234388
370
     9
  0
SPLINE
  5
81
330
1F
100
AcDbEntity
  8
_U+30EC_U+30A4_U+30E4_U+30FC 1
370
     0
100
AcDbSpline
210
0.0
220
0.0
230
1.0
 70
    11
 71
     3
 72
    17
 73
    13
 74
     0
 42
0.0000000001
 43
0.0000000001
 12
1.0
 22
0.0
 32
0.0
 13
1.0
 23
0.0
 33
0.0
 40
0.0
 40
0.0
 40
0.0
 40
0.0
 40
1.0
 40
1.0
 40
1.0
 40
2.0
 40
2.0
 40
2.0
 40
3.0
 40
3.0
 40
3.0
 40
4.0
 40
4.0
 40
4.0
 40
4.0
 10
94.19523016376131
 20
-154.7048765007661
 30
0.0
 10
94.24991028866626
 20
-154.7048765007661
 30
0.0
 10
94.29506526285066
 20
-154.6600794935344
 30
0.0
 10
94.29506526285066
 20
-154.6050440931575
 30
0.0
 10
94.29506526285066
 20
-154.5500086927807
 30
0.0
 10
94.24991028866626
 20
-154.5052116855491
 30
0.0
 10
94.19523016376131
 20
-154.5052116855491
 30
0.0
 10
94.13984217939337
 20
-154.5052116855491
 30
0.0
 10
94.09503978920004
 20
-154.5500086927807
 30
0.0
 10
94.09503978920004
 20
-154.6050440931575
 30
0.0
 10
94.09503978920004
 20
-154.6600794935344
 30
0.0
 10
94.13984217939337
 20
-154.7048765007661
 30
0.0
 10
94.19523016376131
 20
-154.7048765007661
 30
0.0
  0
HATCH
  5
82
330
1F
100
AcDbEntity
  8
_U+30EC_U+30A4_U+30E4_U+30FC 1
 62
   179
420
  2234388
100
AcDbHatch
 10
0.0
 20
0.0
 30
0.0
210
0.0
220
0.0
230
1.0
  2
SOLID
 70
     1
 71
     0
 91
        1
 92
        1
 93
        2
 72
     4
 94
        3
 73
     0
 74
     0
 95
       17
 96
       13
 40
0.0
 40
0.0
 40
0.0
 40
0.0
 40
0.3527777776895833
 40
0.3527777776895833
 40
0.3527777776895833
 40
0.7055555553791667
 40
0.7055555553791667
 40
0.7055555553791667
 40
1.05833333306875
 40
1.05833333306875
 40
1.05833333306875
 40
1.411111110758333
 40
1.411111110758333
 40
1.411111110758333
 40
1.411111110758333
 10
94.19523016376131
 20
-154.7048765007661
 10
94.24991028866626
 20
-154.7048765007661
 10
94.29506526285066
 20
-154.6600794935344
 10
94.29506526285066
 20
-154.6050440931575
 10
94.29506526285066
 20
-154.5500086927807
 10
94.24991028866626
 20
-154.5052116855491
 10
94.19523016376131
 20
-154.5052116855491
 10
94.13984217939337
 20
-154.5052116855491
 10
94.09503978920004
 20
-154.5500086927807
 10
94.09503978920004
 20
-154.6050440931575
 10
94.09503978920004
 20
-154.6600794935344
 10
94.13984217939337
 20
-154.7048765007661
 10
94.19523016376131
 20
-154.7048765007661
 97
        0
 72
     1
 10
94.19523016376131
 20
-154.7048765007661
 11
94.19523016376131
 21
-154.7048765007661
 97
        0
 75
     2
 76
     1
 98
        0
  0
POLYLINE
  5
83
330
1F
100
AcDbEntity
  8
_U+30EC_U+30A4_U+30E4_U+30FC 1
 62
   179
420
  2234388
370
     9
100
AcDb2dPolyline
 66
     1
 10
0.0
 20
0.0
 30
0.0
  0
VERTEX
  5
84
330
83
100
AcDbEntity
  8
_U+30EC_U+30A4_U+30E4_U+30FC 1
 62
   179
420
  2234388
370
     9
100
AcDbVertex
100
AcDb2dVertex
 10
116.046108937392
 20
-154.6052917093956
 30
0.0
  0
VERTEX
  5
85
330
83
100
AcDbEntity
  8
_U+30EC_U+30A4_U+30E4_U+30FC 1
 62
   179
420
  2234388
370
     9
100
AcDbVertex
100
AcDb2dVertex
 10
105.220415830798
 20
-160.8554593001996
 30
0.0
  0
SEQEND
  5
86
330
83
100
AcDbEntity
  8
_U+30EC_U+30A4_U+30E4_U+30FC 1
 62
   179
420
  2234388
370
     9
  0
POLYLINE
  5
87
330
1F
100
AcDbEntity
  8
_U+30EC_U+30A4_U+30E4_U+30FC 1
 62
   179
420
  2234388
370
     9
100
AcDb2dPolyline
 66
     1
 10
0.0
 20
0.0
 30
0.0
  0
VERTEX
  5
88
330
87
100
AcDbEntity
  8
_U+30EC_U+30A4_U+30E4_U+30FC 1
 62
   179
420
  2234388
370
     9
100
AcDbVertex
100
AcDb2dVertex
 10
116.1460167064643
 20
-154.5474356370901
 30
0.0
  0
VERTEX
  5
89
330
87
100
AcDbEntity
  8
_U+30EC_U+30A4_U+30E4_U+30FC 1
 62
   179
420
  2234388
370
     9
100
AcDbVertex
100
AcDb2dVertex
 10
116.1460167064643
 20
-149.0229451124839
 30
0.0
  0
SEQEND
  5
8A
330
87
100
AcDbEntity
  8
_U+30EC_U+30A4_U+30E4_U+30FC 1
 62
   179
420
  2234388
370
     9
  0
SPLINE
  5
8B
330
1F
100
AcDbEntity
  8
_U+30EC_U+30A4_U+30E4_U+30FC 1
370
     0
100
AcDbSpline
210
0.0
220
0.0
230
1.0
 70
    11
 71
     3
 72
    17
 73
    13
 74
     0
 42
0.0000000001
 43
0.0000000001
 12
1.0
 22
0.0
 32
0.0
 13
1.0
 23
0.0
 33
0.0
 40
0.0
 40
0.0
 40
0.0
 40
0.0
 40
1.0
 40
1.0
 40
1.0
 40
2.0
 40
2.0
 40
2.0
 40
3.0
 40
3.0
 40
3.0
 40
4.0
 40
4.0
 40
4.0
 40
4.0
 10
116.1460167064643
 20
-154.7048765007661
 30
0.0
 10
116.0913311985976
 20
-154.7048765007661
 30
0.0
 10
116.0461789158941
 20
-154.6600794935344
 30
0.0
 10
116.0461789158941
 20
-154.6050440931575
 30
0.0
 10
116.0461789158941
 20
-154.5500086927807
 30
0.0
 10
116.0913311985976
 20
-154.5052116855491
 30
0.0
 10
116.1460167064643
 20
-154.5052116855491
 30
0.0
 10
116.2014019993513
 20
-154.5052116855491
 30
0.0
 10
116.2462043895447
 20
-154.5500086927807
 30
0.0
 10
116.2462043895447
 20
-154.6050440931575
 30
0.0
 10
116.2462043895447
 20
-154.6600794935344
 30
0.0
 10
116.2014019993513
 20
-154.7048765007661
 30
0.0
 10
116.1460167064643
 20
-154.7048765007661
 30
0.0
  0
HATCH
  5
8C
330
1F
100
AcDbEntity
  8
_U+30EC_U+30A4_U+30E4_U+30FC 1
 62
   179
420
  2234388
100
AcDbHatch
 10
0.0
 20
0.0
 30
0.0
210
0.0
220
0.0
230
1.0
  2
SOLID
 70
     1
 71
     0
 91
        1
 92
        1
 93
        2
 72
     4
 94
        3
 73
     0
 74
     0
 95
       17
 96
       13
 40
0.0
 40
0.0
 40
0.0
 40
0.0
 40
0.3527777776895833
 40
0.3527777776895833
 40
0.3527777776895833
 40
0.7055555553791667
 40
0.7055555553791667
 40
0.7055555553791667
 40
1.05833333306875
 40
1.05833333306875
 40
1.05833333306875
 40
1.411111110758333
 40
1.411111110758333
 40
1.411111110758333
 40
1.411111110758333
 10
116.1460167064643
 20
-154.7048765007661
 10
116.0913311985976
 20
-154.7048765007661
 10
116.0461789158941
 20
-154.6600794935344
 10
116.0461789158941
 20
-154.6050440931575
 10
116.0461789158941
 20
-154.5500086927807
 10
116.0913311985976
 20
-154.5052116855491
 10
116.1460167064643
 20
-154.5052116855491
 10
116.2014019993513
 20
-154.5052116855491
 10
116.2462043895447
 20
-154.5500086927807
 10
116.2462043895447
 20
-154.6050440931575
 10
116.2462043895447
 20
-154.6600794935344
 10
116.2014019993513
 20
-154.7048765007661
 10
116.1460167064643
 20
-154.7048765007661
 97
        0
 72
     1
 10
116.1460167064643
 20
-154.7048765007661
 11
116.1460167064643
 21
-154.7048765007661
 97
        0
 75
     2
 76
     1
 98
        0
  0
SPLINE
  5
8D
330
1F
100
AcDbEntity
  8
_U+30EC_U+30A4_U+30E4_U+30FC 1
370
     0
100
AcDbSpline
210
0.0
220
0.0
230
1.0
 70
    11
 71
     3
 72
    17
 73
    13
 74
     0
 42
0.0000000001
 43
0.0000000001
 12
1.0
 22
0.0
 32
0.0
 13
1.0
 23
0.0
 33
0.0
 40
0.0
 40
0.0
 40
0.0
 40
0.0
 40
1.0
 40
1.0
 40
1.0
 40
2.0
 40
2.0
 40
2.0
 40
3.0
 40
3.0
 40
3.0
 40
4.0
 40
4.0
 40
4.0
 40
4.0
 10
105.1206856994617
 20
-160.9552917078081
 30
0.0
 10
105.1757184083578
 20
-160.9552917078081
 30
0.0
 10
105.2205207985511
 20
-160.9104947005764
 30
0.0
 10
105.2205207985511
 20
-160.8554593001996
 30
0.0
 10
105.2205207985511
 20
-160.8004238998227
 30
0.0
 10
105.1757184083578
 20
-160.755626892591
 30
0.0
 10
105.1206856994617
 20
-160.755626892591
 30
0.0
 10
105.0652977150938
 20
-160.755626892591
 30
0.0
 10
105.0208479088916
 20
-160.8004238998227
 30
0.0
 10
105.0208479088916
 20
-160.8554593001996
 30
0.0
 10
105.0208479088916
 20
-160.9104947005764
 30
0.0
 10
105.0652977150938
 20
-160.9552917078081
 30
0.0
 10
105.1206856994617
 20
-160.9552917078081
 30
0.0
  0
HATCH
  5
8E
330
1F
100
AcDbEntity
  8
_U+30EC_U+30A4_U+30E4_U+30FC 1
 62
   179
420
  2234388
100
AcDbHatch
 10
0.0
 20
0.0
 30
0.0
210
0.0
220
0.0
230
1.0
  2
SOLID
 70
     1
 71
     0
 91
        1
 92
        1
 93
        2
 72
     4
 94
        3
 73
     0
 74
     0
 95
       17
 96
       13
 40
0.0
 40
0.0
 40
0.0
 40
0.0
 40
0.3527777776895833
 40
0.3527777776895833
 40
0.3527777776895833
 40
0.7055555553791667
 40
0.7055555553791667
 40
0.7055555553791667
 40
1.05833333306875
 40
1.05833333306875
 40
1.05833333306875
 40
1.411111110758333
 40
1.411111110758333
 40
1.411111110758333
 40
1.411111110758333
 10
105.1206856994617
 20
-160.9552917078081
 10
105.1757184083578
 20
-160.9552917078081
 10
105.2205207985511
 20
-160.9104947005764
 10
105.2205207985511
 20
-160.8554593001996
 10
105.2205207985511
 20
-160.8004238998227
 10
105.1757184083578
 20
-160.755626892591
 10
105.1206856994617
 20
-160.755626892591
 10
105.0652977150938
 20
-160.755626892591
 10
105.0208479088916
 20
-160.8004238998227
 10
105.0208479088916
 20
-160.8554593001996
 10
105.0208479088916
 20
-160.9104947005764
 10
105.0652977150938
 20
-160.9552917078081
 10
105.1206856994617
 20
-160.9552917078081
 97
        0
 72
     1
 10
105.1206856994617
 20
-160.9552917078081
 11
105.1206856994617
 21
-160.9552917078081
 97
        0
 75
     2
 76
     1
 98
        0
  0
POLYLINE
  5
8F
330
1F
100
AcDbEntity
  8
_U+30EC_U+30A4_U+30E4_U+30FC 1
 62
   179
420
  2234388
370
    25
100
AcDb2dPolyline
 66
     1
 10
0.0
 20
0.0
 30
0.0
  0
VERTEX
  5
90
330
8F
100
AcDbEntity
  8
_U+30EC_U+30A4_U+30E4_U+30FC 1
 62
   179
420
  2234388
370
    25
100
AcDbVertex
100
AcDb2dVertex
 10
105.1199805314796
 20
-157.4633536898822
 30
0.0
  0
VERTEX
  5
91
330
8F
100
AcDbEntity
  8
_U+30EC_U+30A4_U+30E4_U+30FC 1
 62
   179
420
  2234388
370
    25
100
AcDbVertex
100
AcDb2dVertex
 10
105.1199805314796
 20
-146.3886097859943
 30
0.0
  0
SEQEND
  5
92
330
8F
100
AcDbEntity
  8
_U+30EC_U+30A4_U+30E4_U+30FC 1
 62
   179
420
  2234388
370
    25
  0
POLYLINE
  5
93
330
1F
100
AcDbEntity
  8
_U+30EC_U+30A4_U+30E4_U+30FC 1
 62
   179
420
  2234388
370
     9
100
AcDb2dPolyline
 66
     1
 10
0.0
 20
0.0
 30
0.0
  0
VERTEX
  5
94
330
93
100
AcDbEntity
  8
_U+30EC_U+30A4_U+30E4_U+30FC 1
 62
   179
420
  2234388
370
     9
100
AcDbVertex
100
AcDb2dVertex
 10
105.1199805314796
 20
-154.1542964126062
 30
0.0
  0
VERTEX
  5
95
330
93
100
AcDbEntity
  8
_U+30EC_U+30A4_U+30E4_U+30FC 1
 62
   179
420
  2234388
370
     9
100
AcDbVertex
100
AcDb2dVertex
 10
105.1199805314796
 20
-154.1535966275857
 30
0.0
  0
VERTEX
  5
96
330
93
100
AcDbEntity
  8
_U+30EC_U+30A4_U+30E4_U+30FC 1
 62
   179
420
  2234388
370
     9
100
AcDbVertex
100
AcDb2dVertex
 10
105.1196252560077
 20
-154.1542964126062
 30
0.0
  0
VERTEX
  5
97
330
93
100
AcDbEntity
  8
_U+30EC_U+30A4_U+30E4_U+30FC 1
 62
   179
420
  2234388
370
     9
100
AcDbVertex
100
AcDb2dVertex
 10
105.1199805314796
 20
-154.1553622390219
 30
0.0
  0
VERTEX
  5
98
330
93
100
AcDbEntity
  8
_U+30EC_U+30A4_U+30E4_U+30FC 1
 62
   179
420
  2234388
370
     9
100
AcDbVertex
100
AcDb2dVertex
 10
105.1199805314796
 20
-154.1542964126062
 30
0.0
  0
SEQEND
  5
99
330
93
100
AcDbEntity
  8
_U+30EC_U+30A4_U+30E4_U+30FC 1
 62
   179
420
  2234388
370
     9
  0
POLYLINE
  5
9A
330
1F
100
AcDbEntity
  8
_U+30EC_U+30A4_U+30E4_U+30FC 1
 62
   179
420
  2234388
370
     9
100
AcDb2dPolyline
 66
     1
 10
0.0
 20
0.0
 30
0.0
  0
VERTEX
  5
9B
330
9A
100
AcDbEntity
  8
_U+30EC_U+30A4_U+30E4_U+30FC 1
 62
   179
420
  2234388
370
     9
100
AcDbVertex
100
AcDb2dVertex
 10
105.1199805314796
 20
-144.8946225969686
 30
0.0
  0
VERTEX
  5
9C
330
9A
100
AcDbEntity
  8
_U+30EC_U+30A4_U+30E4_U+30FC 1
 62
   179
420
  2234388
370
     9
100
AcDbVertex
100
AcDb2dVertex
 10
105.1199805314796
 20
-141.7499717358027
 30
0.0
  0
SEQEND
  5
9D
330
9A
100
AcDbEntity
  8
_U+30EC_U+30A4_U+30E4_U+30FC 1
 62
   179
420
  2234388
370
     9
  0
POLYLINE
  5
9E
330
1F
100
AcDbEntity
  8
_U+30EC_U+30A4_U+30E4_U+30FC 1
 62
   179
420
  2234388
370
     9
100
AcDb2dPolyline
 66
     1
 10
0.0
 20
0.0
 30
0.0
  0
VERTEX
  5
9F
330
9E
100
AcDbEntity
  8
_U+30EC_U+30A4_U+30E4_U+30FC 1
 62
   179
420
  2234388
370
     9
100
AcDbVertex
100
AcDb2dVertex
 10
97.1084325123779
 20
-137.0514536197088
 30
0.0
  0
VERTEX
  5
A0
330
9E
100
AcDbEntity
  8
_U+30EC_U+30A4_U+30E4_U+30FC 1
 62
   179
420
  2234388
370
     9
100
AcDbVertex
100
AcDb2dVertex
 10
105.1207206887128
 20
-141.7543427006997
 30
0.0
  0
SEQEND
  5
A1
330
9E
100
AcDbEntity
  8
_U+30EC_U+30A4_U+30E4_U+30FC 1
 62
   179
420
  2234388
370
     9
  0
POLYLINE
  5
A2
330
1F
100
AcDbEntity
  8
_U+30EC_U+30A4_U+30E4_U+30FC 1
 62
   179
420
  2234388
370
     9
100
AcDb2dPolyline
 66
     1
 10
0.0
 20
0.0
 30
0.0
  0
VERTEX
  5
A3
330
A2
100
AcDbEntity
  8
_U+30EC_U+30A4_U+30E4_U+30FC 1
 62
   179
420
  2234388
370
     9
100
AcDbVertex
100
AcDb2dVertex
 10
97.13323450839086
 20
-140.609257556943
 30
0.0
  0
VERTEX
  5
A4
330
A2
100
AcDbEntity
  8
_U+30EC_U+30A4_U+30E4_U+30FC 1
 62
   179
420
  2234388
370
     9
100
AcDbVertex
100
AcDb2dVertex
 10
97.13323450839086
 20
-137.0462106150169
 30
0.0
  0
SEQEND
  5
A5
330
A2
100
AcDbEntity
  8
_U+30EC_U+30A4_U+30E4_U+30FC 1
 62
   179
420
  2234388
370
     9
  0
SPLINE
  5
A6
330
1F
100
AcDbEntity
  8
_U+30EC_U+30A4_U+30E4_U+30FC 1
370
     0
100
AcDbSpline
210
0.0
220
0.0
230
1.0
 70
    11
 71
     3
 72
    17
 73
    13
 74
     0
 42
0.0000000001
 43
0.0000000001
 12
1.0
 22
0.0
 32
0.0
 13
1.0
 23
0.0
 33
0.0
 40
0.0
 40
0.0
 40
0.0
 40
0.0
 40
1.0
 40
1.0
 40
1.0
 40
2.0
 40
2.0
 40
2.0
 40
3.0
 40
3.0
 40
3.0
 40
4.0
 40
4.0
 40
4.0
 40
4.0
 10
97.13323450839086
 20
-137.1514044524743
 30
0.0
 10
97.1879146332958
 20
-137.1514044524743
 30
0.0
 10
97.2330696074802
 20
-137.1066074452427
 30
0.0
 10
97.2330696074802
 20
-137.0515720448658
 30
0.0
 10
97.2330696074802
 20
-136.9965366444889
 30
0.0
 10
97.1879146332958
 20
-136.9517396372573
 30
0.0
 10
97.13323450839086
 20
-136.9517396372573
 30
0.0
 10
97.07784652402292
 20
-136.9517396372573
 30
0.0
 10
97.03304413382958
 20
-136.9965366444889
 30
0.0
 10
97.03304413382958
 20
-137.0515720448658
 30
0.0
 10
97.03304413382958
 20
-137.1066074452427
 30
0.0
 10
97.07784652402292
 20
-137.1514044524743
 30
0.0
 10
97.13323450839086
 20
-137.1514044524743
 30
0.0
  0
HATCH
  5
A7
330
1F
100
AcDbEntity
  8
_U+30EC_U+30A4_U+30E4_U+30FC 1
 62
   179
420
  2234388
100
AcDbHatch
 10
0.0
 20
0.0
 30
0.0
210
0.0
220
0.0
230
1.0
  2
SOLID
 70
     1
 71
     0
 91
        1
 92
        1
 93
        2
 72
     4
 94
        3
 73
     0
 74
     0
 95
       17
 96
       13
 40
0.0
 40
0.0
 40
0.0
 40
0.0
 40
0.3527777776895833
 40
0.3527777776895833
 40
0.3527777776895833
 40
0.7055555553791667
 40
0.7055555553791667
 40
0.7055555553791667
 40
1.05833333306875
 40
1.05833333306875
 40
1.05833333306875
 40
1.411111110758333
 40
1.411111110758333
 40
1.411111110758333
 40
1.411111110758333
 10
97.13323450839086
 20
-137.1514044524743
 10
97.1879146332958
 20
-137.1514044524743
 10
97.2330696074802
 20
-137.1066074452427
 10
97.2330696074802
 20
-137.0515720448658
 10
97.2330696074802
 20
-136.9965366444889
 10
97.1879146332958
 20
-136.9517396372573
 10
97.13323450839086
 20
-136.9517396372573
 10
97.07784652402292
 20
-136.9517396372573
 10
97.03304413382958
 20
-136.9965366444889
 10
97.03304413382958
 20
-137.0515720448658
 10
97.03304413382958
 20
-137.1066074452427
 10
97.07784652402292
 20
-137.1514044524743
 10
97.13323450839086
 20
-137.1514044524743
 97
        0
 72
     1
 10
97.13323450839086
 20
-137.1514044524743
 11
97.13323450839086
 21
-137.1514044524743
 97
        0
 75
     2
 76
     1
 98
        0
  0
POLYLINE
  5
A8
330
1F
100
AcDbEntity
  8
_U+30EC_U+30A4_U+30E4_U+30FC 1
 62
   179
420
  2234388
370
     9
100
AcDb2dPolyline
 66
     1
 10
0.0
 20
0.0
 30
0.0
  0
VERTEX
  5
A9
330
A8
100
AcDbEntity
  8
_U+30EC_U+30A4_U+30E4_U+30FC 1
 62
   179
420
  2234388
370
     9
100
AcDbVertex
100
AcDb2dVertex
 10
113.0722971315627
 20
-137.1165766903031
 30
0.0
  0
VERTEX
  5
AA
330
A8
100
AcDbEntity
  8
_U+30EC_U+30A4_U+30E4_U+30FC 1
 62
   179
420
  2234388
370
     9
100
AcDbVertex
100
AcDb2dVertex
 10
105.2205207985511
 20
-141.7542027436956
 30
0.0
  0
SEQEND
  5
AB
330
A8
100
AcDbEntity
  8
_U+30EC_U+30A4_U+30E4_U+30FC 1
 62
   179
420
  2234388
370
     9
  0
POLYLINE
  5
AC
330
1F
100
AcDbEntity
  8
_U+30EC_U+30A4_U+30E4_U+30FC 1
 62
   179
420
  2234388
370
     9
100
AcDb2dPolyline
 66
     1
 10
0.0
 20
0.0
 30
0.0
  0
VERTEX
  5
AD
330
AC
100
AcDbEntity
  8
_U+30EC_U+30A4_U+30E4_U+30FC 1
 62
   179
420
  2234388
370
     9
100
AcDbVertex
100
AcDb2dVertex
 10
113.0722971315627
 20
-140.6795267389187
 30
0.0
  0
VERTEX
  5
AE
330
AC
100
AcDbEntity
  8
_U+30EC_U+30A4_U+30E4_U+30FC 1
 62
   179
420
  2234388
370
     9
100
AcDbVertex
100
AcDb2dVertex
 10
113.0722971315627
 20
-137.1164797969929
 30
0.0
  0
SEQEND
  5
AF
330
AC
100
AcDbEntity
  8
_U+30EC_U+30A4_U+30E4_U+30FC 1
 62
   179
420
  2234388
370
     9
  0
SPLINE
  5
B0
330
1F
100
AcDbEntity
  8
_U+30EC_U+30A4_U+30E4_U+30FC 1
370
     0
100
AcDbSpline
210
0.0
220
0.0
230
1.0
 70
    11
 71
     3
 72
    17
 73
    13
 74
     0
 42
0.0000000001
 43
0.0000000001
 12
1.0
 22
0.0
 32
0.0
 13
1.0
 23
0.0
 33
0.0
 40
0.0
 40
0.0
 40
0.0
 40
0.0
 40
1.0
 40
1.0
 40
1.0
 40
2.0
 40
2.0
 40
2.0
 40
3.0
 40
3.0
 40
3.0
 40
4.0
 40
4.0
 40
4.0
 40
4.0
 10
113.0722971315627
 20
-137.2313414336555
 30
0.0
 10
113.017611623696
 20
-137.2313414336555
 30
0.0
 10
112.9724593409925
 20
-137.1865444264239
 30
0.0
 10
112.9724593409925
 20
-137.1318643015189
 30
0.0
 10
112.9724593409925
 20
-137.0768289011421
 30
0.0
 10
113.017611623696
 20
-137.0320318939104
 30
0.0
 10
113.0722971315627
 20
-137.0320318939104
 30
0.0
 10
113.1276824244497
 20
-137.0320318939104
 30
0.0
 10
113.1724848146431
 20
-137.0768289011421
 30
0.0
 10
113.1724848146431
 20
-137.1318643015189
 30
0.0
 10
113.1724848146431
 20
-137.1865444264239
 30
0.0
 10
113.1276824244497
 20
-137.2313414336555
 30
0.0
 10
113.0722971315627
 20
-137.2313414336555
 30
0.0
  0
HATCH
  5
B1
330
1F
100
AcDbEntity
  8
_U+30EC_U+30A4_U+30E4_U+30FC 1
 62
   179
420
  2234388
100
AcDbHatch
 10
0.0
 20
0.0
 30
0.0
210
0.0
220
0.0
230
1.0
  2
SOLID
 70
     1
 71
     0
 91
        1
 92
        1
 93
        2
 72
     4
 94
        3
 73
     0
 74
     0
 95
       17
 96
       13
 40
0.0
 40
0.0
 40
0.0
 40
0.0
 40
0.3527777776895833
 40
0.3527777776895833
 40
0.3527777776895833
 40
0.7055555553791667
 40
0.7055555553791667
 40
0.7055555553791667
 40
1.05833333306875
 40
1.05833333306875
 40
1.05833333306875
 40
1.411111110758333
 40
1.411111110758333
 40
1.411111110758333
 40
1.411111110758333
 10
113.0722971315627
 20
-137.2313414336555
 10
113.017611623696
 20
-137.2313414336555
 10
112.9724593409925
 20
-137.1865444264239
 10
112.9724593409925
 20
-137.1318643015189
 10
112.9724593409925
 20
-137.0768289011421
 10
113.017611623696
 20
-137.0320318939104
 10
113.0722971315627
 20
-137.0320318939104
 10
113.1276824244497
 20
-137.0320318939104
 10
113.1724848146431
 20
-137.0768289011421
 10
113.1724848146431
 20
-137.1318643015189
 10
113.1724848146431
 20
-137.1865444264239
 10
113.1276824244497
 20
-137.2313414336555
 10
113.0722971315627
 20
-137.2313414336555
 97
        0
 72
     1
 10
113.0722971315627
 20
-137.2313414336555
 11
113.0722971315627
 21
-137.2313414336555
 97
        0
 75
     2
 76
     1
 98
        0
  0
SPLINE
  5
B2
330
1F
100
AcDbEntity
  8
_U+30EC_U+30A4_U+30E4_U+30FC 1
370
     0
100
AcDbSpline
210
0.0
220
0.0
230
1.0
 70
    11
 71
     3
 72
    17
 73
    13
 74
     0
 42
0.0000000001
 43
0.0000000001
 12
1.0
 22
0.0
 32
0.0
 13
1.0
 23
0.0
 33
0.0
 40
0.0
 40
0.0
 40
0.0
 40
0.0
 40
1.0
 40
1.0
 40
1.0
 40
2.0
 40
2.0
 40
2.0
 40
3.0
 40
3.0
 40
3.0
 40
4.0
 40
4.0
 40
4.0
 40
4.0
 10
105.1206856994617
 20
-141.8543150653122
 30
0.0
 10
105.1757184083578
 20
-141.8543150653122
 30
0.0
 10
105.2205207985511
 20
-141.8095180580806
 30
0.0
 10
105.2205207985511
 20
-141.7544826577038
 30
0.0
 10
105.2205207985511
 20
-141.6994472573269
 30
0.0
 10
105.1757184083578
 20
-141.6546502500952
 30
0.0
 10
105.1206856994617
 20
-141.6546502500952
 30
0.0
 10
105.0652977150938
 20
-141.6546502500952
 30
0.0
 10
105.0208479088916
 20
-141.6994472573269
 30
0.0
 10
105.0208479088916
 20
-141.7544826577038
 30
0.0
 10
105.0208479088916
 20
-141.8095180580806
 30
0.0
 10
105.0652977150938
 20
-141.8543150653122
 30
0.0
 10
105.1206856994617
 20
-141.8543150653122
 30
0.0
  0
HATCH
  5
B3
330
1F
100
AcDbEntity
  8
_U+30EC_U+30A4_U+30E4_U+30FC 1
 62
   179
420
  2234388
100
AcDbHatch
 10
0.0
 20
0.0
 30
0.0
210
0.0
220
0.0
230
1.0
  2
SOLID
 70
     1
 71
     0
 91
        1
 92
        1
 93
        2
 72
     4
 94
        3
 73
     0
 74
     0
 95
       17
 96
       13
 40
0.0
 40
0.0
 40
0.0
 40
0.0
 40
0.3527777776895833
 40
0.3527777776895833
 40
0.3527777776895833
 40
0.7055555553791667
 40
0.7055555553791667
 40
0.7055555553791667
 40
1.05833333306875
 40
1.05833333306875
 40
1.05833333306875
 40
1.411111110758333
 40
1.411111110758333
 40
1.411111110758333
 40
1.411111110758333
 10
105.1206856994617
 20
-141.8543150653122
 10
105.1757184083578
 20
-141.8543150653122
 10
105.2205207985511
 20
-141.8095180580806
 10
105.2205207985511
 20
-141.7544826577038
 10
105.2205207985511
 20
-141.6994472573269
 10
105.1757184083578
 20
-141.6546502500952
 10
105.1206856994617
 20
-141.6546502500952
 10
105.0652977150938
 20
-141.6546502500952
 10
105.0208479088916
 20
-141.6994472573269
 10
105.0208479088916
 20
-141.7544826577038
 10
105.0208479088916
 20
-141.8095180580806
 10
105.0652977150938
 20
-141.8543150653122
 10
105.1206856994617
 20
-141.8543150653122
 97
        0
 72
     1
 10
105.1206856994617
 20
-141.8543150653122
 11
105.1206856994617
 21
-141.8543150653122
 97
        0
 75
     2
 76
     1
 98
        0
  0
POLYLINE
  5
B4
330
1F
100
AcDbEntity
  8
_U+30EC_U+30A4_U+30E4_U+30FC 1
370
     0
100
AcDb2dPolyline
 66
     1
 10
0.0
 20
0.0
 30
0.0
  0
VERTEX
  5
B5
330
B4
100
AcDbEntity
  8
_U+30EC_U+30A4_U+30E4_U+30FC 1
370
     0
100
AcDbVertex
100
AcDb2dVertex
 10
100.2266368827328
 20
-158.4381542233571
 30
0.0
  0
VERTEX
  5
B6
330
B4
100
AcDbEntity
  8
_U+30EC_U+30A4_U+30E4_U+30FC 1
370
     0
100
AcDbVertex
100
AcDb2dVertex
 10
96.72672939001646
 20
-158.4381542233571
 30
0.0
  0
VERTEX
  5
B7
330
B4
100
AcDbEntity
  8
_U+30EC_U+30A4_U+30E4_U+30FC 1
370
     0
100
AcDbVertex
100
AcDb2dVertex
 10
96.72672939001646
 20
-156.2043650766445
 30
0.0
  0
VERTEX
  5
B8
330
B4
100
AcDbEntity
  8
_U+30EC_U+30A4_U+30E4_U+30FC 1
370
     0
100
AcDbVertex
100
AcDb2dVertex
 10
100.2266368827328
 20
-156.2043650766445
 30
0.0
  0
VERTEX
  5
B9
330
B4
100
AcDbEntity
  8
_U+30EC_U+30A4_U+30E4_U+30FC 1
370
     0
100
AcDbVertex
100
AcDb2dVertex
 10
100.2266368827328
 20
-158.4381542233571
 30
0.0
  0
SEQEND
  5
BB
330
B4
100
AcDbEntity
  8
_U+30EC_U+30A4_U+30E4_U+30FC 1
370
     0
  0
HATCH
  5
BA
330
1F
100
AcDbEntity
  8
_U+30EC_U+30A4_U+30E4_U+30FC 1
 62
     7
420
 16711422
100
AcDbHatch
 10
0.0
 20
0.0
 30
0.0
210
0.0
220
0.0
230
1.0
  2
SOLID
 70
     1
 71
     0
 91
        1
 92
        1
 93
        4
 72
     1
 10
100.2266368827328
 20
-158.4381542233571
 11
96.72672939001646
 21
-158.4381542233571
 72
     1
 10
96.72672939001646
 20
-158.4381542233571
 11
96.72672939001646
 21
-156.2043650766445
 72
     1
 10
96.72672939001646
 20
-156.2043650766445
 11
100.2266368827328
 21
-156.2043650766445
 72
     1
 10
100.2266368827328
 20
-156.2043650766445
 11
100.2266368827328
 21
-158.4381542233571
 97
        0
 75
     2
 76
     1
 98
        0
  0
INSERT
  5
BD
330
1F
100
AcDbEntity
  8
_U+30EC_U+30A4_U+30E4_U+30FC 1
100
AcDbBlockReference
  2
block 2
 10
0.0
 20
0.0
 30
0.0
  0
POLYLINE
  5
C5
330
1F
100
AcDbEntity
  8
_U+30EC_U+30A4_U+30E4_U+30FC 1
370
     0
100
AcDb2dPolyline
 66
     1
 10
0.0
 20
0.0
 30
0.0
  0
VERTEX
  5
C6
330
C5
100
AcDbEntity
  8
_U+30EC_U+30A4_U+30E4_U+30FC 1
370
     0
100
AcDbVertex
100
AcDb2dVertex
 10
112.6913341664344
 20
-158.4381542233571
 30
0.0
  0
VERTEX
  5
C7
330
C5
100
AcDbEntity
  8
_U+30EC_U+30A4_U+30E4_U+30FC 1
370
     0
100
AcDbVertex
100
AcDb2dVertex
 10
109.1914239822372
 20
-158.4381542233571
 30
0.0
  0
VERTEX
  5
C8
330
C5
100
AcDbEntity
  8
_U+30EC_U+30A4_U+30E4_U+30FC 1
370
     0
100
AcDbVertex
100
AcDb2dVertex
 10
109.1914239822372
 20
-156.2043650766445
 30
0.0
  0
VERTEX
  5
C9
330
C5
100
AcDbEntity
  8
_U+30EC_U+30A4_U+30E4_U+30FC 1
370
     0
100
AcDbVertex
100
AcDb2dVertex
 10
112.6913341664344
 20
-156.2043650766445
 30
0.0
  0
VERTEX
  5
CA
330
C5
100
AcDbEntity
  8
_U+30EC_U+30A4_U+30E4_U+30FC 1
370
     0
100
AcDbVertex
100
AcDb2dVertex
 10
112.6913341664344
 20
-158.4381542233571
 30
0.0
  0
SEQEND
  5
CC
330
C5
100
AcDbEntity
  8
_U+30EC_U+30A4_U+30E4_U+30FC 1
370
     0
  0
HATCH
  5
CB
330
1F
100
AcDbEntity
  8
_U+30EC_U+30A4_U+30E4_U+30FC 1
 62
     7
420
 16711422
100
AcDbHatch
 10
0.0
 20
0.0
 30
0.0
210
0.0
220
0.0
230
1.0
  2
SOLID
 70
     1
 71
     0
 91
        1
 92
        1
 93
        4
 72
     1
 10
112.6913341664344
 20
-158.4381542233571
 11
109.1914239822372
 21
-158.4381542233571
 72
     1
 10
109.1914239822372
 20
-158.4381542233571
 11
109.1914239822372
 21
-156.2043650766445
 72
     1
 10
109.1914239822372
 20
-156.2043650766445
 11
112.6913341664344
 21
-156.2043650766445
 72
     1
 10
112.6913341664344
 20
-156.2043650766445
 11
112.6913341664344
 21
-158.4381542233571
 97
        0
 75
     2
 76
     1
 98
        0
  0
INSERT
  5
CE
330
1F
100
AcDbEntity
  8
_U+30EC_U+30A4_U+30E4_U+30FC 1
100
AcDbBlockReference
  2
block 3
 10
0.0
 20
0.0
 30
0.0
  0
POLYLINE
  5
D6
330
1F
100
AcDbEntity
  8
_U+30EC_U+30A4_U+30E4_U+30FC 1
 62
   179
420
  2234388
370
    25
100
AcDb2dPolyline
 66
     1
 10
0.0
 20
0.0
 30
0.0
  0
VERTEX
  5
D7
330
D6
100
AcDbEntity
  8
_U+30EC_U+30A4_U+30E4_U+30FC 1
 62
   179
420
  2234388
370
    25
100
AcDbVertex
100
AcDb2dVertex
 10
113.1329038972946
 20
-145.8451136754257
 30
0.0
  0
VERTEX
  5
D8
330
D6
100
AcDbEntity
  8
_U+30EC_U+30A4_U+30E4_U+30FC 1
 62
   179
420
  2234388
370
    25
100
AcDbVertex
100
AcDb2dVertex
 10
113.1329038972946
 20
-141.7701793740084
 30
0.0
  0
SEQEND
  5
D9
330
D6
100
AcDbEntity
  8
_U+30EC_U+30A4_U+30E4_U+30FC 1
 62
   179
420
  2234388
370
    25
  0
POLYLINE
  5
DA
330
1F
100
AcDbEntity
  8
_U+30EC_U+30A4_U+30E4_U+30FC 1
 62
   179
420
  2234388
370
    25
100
AcDb2dPolyline
 66
     1
 10
0.0
 20
0.0
 30
0.0
  0
VERTEX
  5
DB
330
DA
100
AcDbEntity
  8
_U+30EC_U+30A4_U+30E4_U+30FC 1
 62
   179
420
  2234388
370
    25
100
AcDbVertex
100
AcDb2dVertex
 10
97.16903927810982
 20
-145.8451136754257
 30
0.0
  0
VERTEX
  5
DC
330
DA
100
AcDbEntity
  8
_U+30EC_U+30A4_U+30E4_U+30FC 1
 62
   179
420
  2234388
370
    25
100
AcDbVertex
100
AcDb2dVertex
 10
97.16903927810982
 20
-141.7701793740084
 30
0.0
  0
SEQEND
  5
DD
330
DA
100
AcDbEntity
  8
_U+30EC_U+30A4_U+30E4_U+30FC 1
 62
   179
420
  2234388
370
    25
  0
POLYLINE
  5
DE
330
1F
100
AcDbEntity
  8
_U+30EC_U+30A4_U+30E4_U+30FC 1
 62
   179
420
  2234388
370
    25
100
AcDb2dPolyline
 66
     1
 10
0.0
 20
0.0
 30
0.0
  0
VERTEX
  5
DF
330
DE
100
AcDbEntity
  8
_U+30EC_U+30A4_U+30E4_U+30FC 1
 62
   179
420
  2234388
370
    25
100
AcDbVertex
100
AcDb2dVertex
 10
97.16903927810982
 20
-152.9723164493871
 30
0.0
  0
VERTEX
  5
E0
330
DE
100
AcDbEntity
  8
_U+30EC_U+30A4_U+30E4_U+30FC 1
 62
   179
420
  2234388
370
    25
100
AcDbVertex
100
AcDb2dVertex
 10
105.1206507102107
 20
-157.5633691181884
 30
0.0
  0
SEQEND
  5
E1
330
DE
100
AcDbEntity
  8
_U+30EC_U+30A4_U+30E4_U+30FC 1
 62
   179
420
  2234388
370
    25
  0
POLYLINE
  5
E2
330
1F
100
AcDbEntity
  8
_U+30EC_U+30A4_U+30E4_U+30FC 1
 62
   179
420
  2234388
370
    25
100
AcDb2dPolyline
 66
     1
 10
0.0
 20
0.0
 30
0.0
  0
VERTEX
  5
E3
330
E2
100
AcDbEntity
  8
_U+30EC_U+30A4_U+30E4_U+30FC 1
 62
   179
420
  2234388
370
    25
100
AcDbVertex
100
AcDb2dVertex
 10
113.0722971315627
 20
-152.9723164493871
 30
0.0
  0
VERTEX
  5
E4
330
E2
100
AcDbEntity
  8
_U+30EC_U+30A4_U+30E4_U+30FC 1
 62
   179
420
  2234388
370
    25
100
AcDbVertex
100
AcDb2dVertex
 10
105.1206856994617
 20
-157.5633691181884
 30
0.0
  0
SEQEND
  5
E5
330
E2
100
AcDbEntity
  8
_U+30EC_U+30A4_U+30E4_U+30FC 1
 62
   179
420
  2234388
370
    25
  0
POLYLINE
  5
E6
330
1F
100
AcDbEntity
  8
_U+30EC_U+30A4_U+30E4_U+30FC 1
 62
   179
420
  2234388
370
    25
100
AcDb2dPolyline
 66
     1
 10
0.0
 20
0.0
 30
0.0
  0
VERTEX
  5
E7
330
E6
100
AcDbEntity
  8
_U+30EC_U+30A4_U+30E4_U+30FC 1
 62
   179
420
  2234388
370
    25
100
AcDbVertex
100
AcDb2dVertex
 10
113.1329038972946
 20
-152.9723164493871
 30
0.0
  0
VERTEX
  5
E8
330
E6
100
AcDbEntity
  8
_U+30EC_U+30A4_U+30E4_U+30FC 1
 62
   179
420
  2234388
370
    25
100
AcDbVertex
100
AcDb2dVertex
 10
113.1329038972946
 20
-149.9962922463008
 30
0.0
  0
SEQEND
  5
E9
330
E6
100
AcDbEntity
  8
_U+30EC_U+30A4_U+30E4_U+30FC 1
 62
   179
420
  2234388
370
    25
  0
POLYLINE
  5
EA
330
1F
100
AcDbEntity
  8
_U+30EC_U+30A4_U+30E4_U+30FC 1
 62
   179
420
  2234388
370
    25
100
AcDb2dPolyline
 66
     1
 10
0.0
 20
0.0
 30
0.0
  0
VERTEX
  5
EB
330
EA
100
AcDbEntity
  8
_U+30EC_U+30A4_U+30E4_U+30FC 1
 62
   179
420
  2234388
370
    25
100
AcDbVertex
100
AcDb2dVertex
 10
97.16903927810982
 20
-152.9723164493871
 30
0.0
  0
VERTEX
  5
EC
330
EA
100
AcDbEntity
  8
_U+30EC_U+30A4_U+30E4_U+30FC 1
 62
   179
420
  2234388
370
    25
100
AcDbVertex
100
AcDb2dVertex
 10
97.16903927810982
 20
-149.9962922463008
 30
0.0
  0
SEQEND
  5
ED
330
EA
100
AcDbEntity
  8
_U+30EC_U+30A4_U+30E4_U+30FC 1
 62
   179
420
  2234388
370
    25
  0
POLYLINE
  5
EE
330
1F
100
AcDbEntity
  8
_U+30EC_U+30A4_U+30E4_U+30FC 1
 62
   179
420
  2234388
370
    25
100
AcDb2dPolyline
 66
     1
 10
0.0
 20
0.0
 30
0.0
  0
VERTEX
  5
EF
330
EE
100
AcDbEntity
  8
_U+30EC_U+30A4_U+30E4_U+30FC 1
 62
   179
420
  2234388
370
    25
100
AcDbVertex
100
AcDb2dVertex
 10
116.046108937392
 20
-144.8859775604853
 30
0.0
  0
VERTEX
  5
F0
330
EE
100
AcDbEntity
  8
_U+30EC_U+30A4_U+30E4_U+30FC 1
 62
   179
420
  2234388
370
    25
100
AcDbVertex
100
AcDb2dVertex
 10
116.046108937392
 20
-148.1918588903612
 30
0.0
  0
SEQEND
  5
F1
330
EE
100
AcDbEntity
  8
_U+30EC_U+30A4_U+30E4_U+30FC 1
 62
   179
420
  2234388
370
    25
  0
POLYLINE
  5
F2
330
1F
100
AcDbEntity
  8
_U+30EC_U+30A4_U+30E4_U+30FC 1
 62
   179
420
  2234388
370
    25
100
AcDb2dPolyline
 66
     1
 10
0.0
 20
0.0
 30
0.0
  0
VERTEX
  5
F3
330
F2
100
AcDbEntity
  8
_U+30EC_U+30A4_U+30E4_U+30FC 1
 62
   179
420
  2234388
370
    25
100
AcDbVertex
100
AcDb2dVertex
 10
116.046108937392
 20
-144.8157083785096
 30
0.0
  0
VERTEX
  5
F4
330
F2
100
AcDbEntity
  8
_U+30EC_U+30A4_U+30E4_U+30FC 1
 62
   179
420
  2234388
370
    25
100
AcDbVertex
100
AcDb2dVertex
 10
115.6478182185653
 20
-144.3740363713772
 30
0.0
  0
SEQEND
  5
F5
330
F2
100
AcDbEntity
  8
_U+30EC_U+30A4_U+30E4_U+30FC 1
 62
   179
420
  2234388
370
    25
  0
POLYLINE
  5
F6
330
1F
100
AcDbEntity
  8
_U+30EC_U+30A4_U+30E4_U+30FC 1
 62
   179
420
  2234388
370
    25
100
AcDb2dPolyline
 66
     1
 10
0.0
 20
0.0
 30
0.0
  0
VERTEX
  5
F7
330
F6
100
AcDbEntity
  8
_U+30EC_U+30A4_U+30E4_U+30FC 1
 62
   179
420
  2234388
370
    25
100
AcDbVertex
100
AcDb2dVertex
 10
113.1329038972946
 20
-141.7702439695488
 30
0.0
  0
VERTEX
  5
F8
330
F6
100
AcDbEntity
  8
_U+30EC_U+30A4_U+30E4_U+30FC 1
 62
   179
420
  2234388
370
    25
100
AcDbVertex
100
AcDb2dVertex
 10
112.6859296728919
 20
-141.3927799295227
 30
0.0
  0
SEQEND
  5
F9
330
F6
100
AcDbEntity
  8
_U+30EC_U+30A4_U+30E4_U+30FC 1
 62
   179
420
  2234388
370
    25
  0
POLYLINE
  5
FA
330
1F
100
AcDbEntity
  8
_U+30EC_U+30A4_U+30E4_U+30FC 1
 62
   179
420
  2234388
370
    25
100
AcDb2dPolyline
 66
     1
 10
0.0
 20
0.0
 30
0.0
  0
VERTEX
  5
FB
330
FA
100
AcDbEntity
  8
_U+30EC_U+30A4_U+30E4_U+30FC 1
 62
   179
420
  2234388
370
    25
100
AcDbVertex
100
AcDb2dVertex
 10
97.16903927810982
 20
-141.7702439695488
 30
0.0
  0
VERTEX
  5
FC
330
FA
100
AcDbEntity
  8
_U+30EC_U+30A4_U+30E4_U+30FC 1
 62
   179
420
  2234388
370
    25
100
AcDbVertex
100
AcDb2dVertex
 10
97.61600811955081
 20
-141.3927799295227
 30
0.0
  0
SEQEND
  5
FD
330
FA
100
AcDbEntity
  8
_U+30EC_U+30A4_U+30E4_U+30FC 1
 62
   179
420
  2234388
370
    25
  0
POLYLINE
  5
FE
330
1F
100
AcDbEntity
  8
_U+30EC_U+30A4_U+30E4_U+30FC 1
370
     0
100
AcDb2dPolyline
 66
     1
 10
0.0
 20
0.0
 30
0.0
  0
VERTEX
  5
FF
330
FE
100
AcDbEntity
  8
_U+30EC_U+30A4_U+30E4_U+30FC 1
370
     0
100
AcDbVertex
100
AcDb2dVertex
 10
103.5776731867928
 20
-140.7410539911006
 30
0.0
  0
VERTEX
  5
100
330
FE
100
AcDbEntity
  8
_U+30EC_U+30A4_U+30E4_U+30FC 1
370
     0
100
AcDbVertex
100
AcDb2dVertex
 10
99.07764101730416
 20
-140.7410539911006
 30
0.0
  0
VERTEX
  5
101
330
FE
100
AcDbEntity
  8
_U+30EC_U+30A4_U+30E4_U+30FC 1
370
     0
100
AcDbVertex
100
AcDb2dVertex
 10
99.07764101730416
 20
-138.0363095256309
 30
0.0
  0
VERTEX
  5
102
330
FE
100
AcDbEntity
  8
_U+30EC_U+30A4_U+30E4_U+30FC 1
370
     0
100
AcDbVertex
100
AcDb2dVertex
 10
103.5776731867928
 20
-138.0363095256309
 30
0.0
  0
VERTEX
  5
103
330
FE
100
AcDbEntity
  8
_U+30EC_U+30A4_U+30E4_U+30FC 1
370
     0
100
AcDbVertex
100
AcDb2dVertex
 10
103.5776731867928
 20
-140.7410539911006
 30
0.0
  0
SEQEND
  5
105
330
FE
100
AcDbEntity
  8
_U+30EC_U+30A4_U+30E4_U+30FC 1
370
     0
  0
HATCH
  5
104
330
1F
100
AcDbEntity
  8
_U+30EC_U+30A4_U+30E4_U+30FC 1
 62
     7
420
 16711422
100
AcDbHatch
 10
0.0
 20
0.0
 30
0.0
210
0.0
220
0.0
230
1.0
  2
SOLID
 70
     1
 71
     0
 91
        1
 92
        1
 93
        4
 72
     1
 10
103.5776731867928
 20
-140.7410539911006
 11
99.07764101730416
 21
-140.7410539911006
 72
     1
 10
99.07764101730416
 20
-140.7410539911006
 11
99.07764101730416
 21
-138.0363095256309
 72
     1
 10
99.07764101730416
 20
-138.0363095256309
 11
103.5776731867928
 21
-138.0363095256309
 72
     1
 10
103.5776731867928
 20
-138.0363095256309
 11
103.5776731867928
 21
-140.7410539911006
 97
        0
 75
     2
 76
     1
 98
        0
  0
INSERT
  5
107
330
1F
100
AcDbEntity
  8
_U+30EC_U+30A4_U+30E4_U+30FC 1
100
AcDbBlockReference
  2
block 4
 10
0.0
 20
0.0
 30
0.0
  0
POLYLINE
  5
11B
330
1F
100
AcDbEntity
  8
_U+30EC_U+30A4_U+30E4_U+30FC 1
370
     0
100
AcDb2dPolyline
 66
     1
 10
0.0
 20
0.0
 30
0.0
  0
VERTEX
  5
11C
330
11B
100
AcDbEntity
  8
_U+30EC_U+30A4_U+30E4_U+30FC 1
370
     0
100
AcDbVertex
100
AcDb2dVertex
 10
111.2216618153885
 20
-140.7410539911006
 30
0.0
  0
VERTEX
  5
11D
330
11B
100
AcDbEntity
  8
_U+30EC_U+30A4_U+30E4_U+30FC 1
370
     0
100
AcDbVertex
100
AcDb2dVertex
 10
106.7216296458999
 20
-140.7410539911006
 30
0.0
  0
VERTEX
  5
11E
330
11B
100
AcDbEntity
  8
_U+30EC_U+30A4_U+30E4_U+30FC 1
370
     0
100
AcDbVertex
100
AcDb2dVertex
 10
106.7216296458999
 20
-138.0363095256309
 30
0.0
  0
VERTEX
  5
11F
330
11B
100
AcDbEntity
  8
_U+30EC_U+30A4_U+30E4_U+30FC 1
370
     0
100
AcDbVertex
100
AcDb2dVertex
 10
111.2216618153885
 20
-138.0363095256309
 30
0.0
  0
VERTEX
  5
120
330
11B
100
AcDbEntity
  8
_U+30EC_U+30A4_U+30E4_U+30FC 1
370
     0
100
AcDbVertex
100
AcDb2dVertex
 10
111.2216618153885
 20
-140.7410539911006
 30
0.0
  0
SEQEND
  5
122
330
11B
100
AcDbEntity
  8
_U+30EC_U+30A4_U+30E4_U+30FC 1
370
     0
  0
HATCH
  5
121
330
1F
100
AcDbEntity
  8
_U+30EC_U+30A4_U+30E4_U+30FC 1
 62
     7
420
 16711422
100
AcDbHatch
 10
0.0
 20
0.0
 30
0.0
210
0.0
220
0.0
230
1.0
  2
SOLID
 70
     1
 71
     0
 91
        1
 92
        1
 93
        4
 72
     1
 10
111.2216618153885
 20
-140.7410539911006
 11
106.7216296458999
 21
-140.7410539911006
 72
     1
 10
106.7216296458999
 20
-140.7410539911006
 11
106.7216296458999
 21
-138.0363095256309
 72
     1
 10
106.7216296458999
 20
-138.0363095256309
 11
111.2216618153885
 21
-138.0363095256309
 72
     1
 10
111.2216618153885
 20
-138.0363095256309
 11
111.2216618153885
 21
-140.7410539911006
 97
        0
 75
     2
 76
     1
 98
        0
  0
INSERT
  5
124
330
1F
100
AcDbEntity
  8
_U+30EC_U+30A4_U+30E4_U+30FC 1
100
AcDbBlockReference
  2
block 5
 10
0.0
 20
0.0
 30
0.0
  0
ENDSEC
  0
SECTION
  2
OBJECTS
  0
DICTIONARY
  5
C
330
0
100
AcDbDictionary
281
     1
  3
ACAD_GROUP
350
D
  3
ACAD_LAYOUT
350
1A
  3
ACAD_MATERIAL
350
3B
  3
ACAD_MLEADERSTYLE
350
139
  3
ACAD_MLINESTYLE
350
17
  3
ACAD_PLOTSETTINGS
350
19
  3
ACAD_PLOTSTYLENAME
350
E
  3
ACAD_TABLESTYLE
350
138
  3
ACAD_VISUALSTYLE
350
2A
  0
SUN
  5
3F
330
29
100
AcDbSun
 90
        1
290
     0
 63
     7
421
 16777215
 40
1.0
291
     1
 91
  2455826
 92
 54000000
292
     0
 70
     2
 71
   256
280
     1
  0
DICTIONARY
  5
D
102
{ACAD_REACTORS
330
C
102
}
330
C
100
AcDbDictionary
281
     1
  0
DICTIONARY
  5
1A
102
{ACAD_REACTORS
330
C
102
}
330
C
100
AcDbDictionary
281
     1
  3
Layout1
350
1E
  3
Layout2
350
26
  3
Model
350
22
  0
DICTIONARY
  5
3B
102
{ACAD_REACTORS
330
C
102
}
330
C
100
AcDbDictionary
281
     1
  3
ByBlock
350
3D
  3
ByLayer
350
3C
  3
Global
350
3E
  0
DICTIONARY
  5
139
102
{ACAD_REACTORS
330
C
102
}
330
C
100
AcDbDictionary
281
     1
  0
DICTIONARY
  5
17
102
{ACAD_REACTORS
330
C
102
}
330
C
100
AcDbDictionary
281
     1
  3
Standard
350
18
  0
DICTIONARY
  5
19
102
{ACAD_REACTORS
330
C
102
}
330
C
100
AcDbDictionary
281
     1
  0
ACDBDICTIONARYWDFLT
  5
E
102
{ACAD_REACTORS
330
C
102
}
330
C
100
AcDbDictionary
281
     1
  3
Normal
350
F
100
AcDbDictionaryWithDefault
340
F
  0
DICTIONARY
  5
138
102
{ACAD_REACTORS
330
C
102
}
330
C
100
AcDbDictionary
281
     1
  0
DICTIONARY
  5
2A
102
{ACAD_REACTORS
330
C
102
}
330
C
100
AcDbDictionary
281
     1
  3
2dWireframe
350
2F
  3
3D Hidden
350
31
  3
3dWireframe
350
30
  3
Basic
350
32
  3
Brighten
350
36
  3
ColorChange
350
3A
  3
Conceptual
350
34
  3
Dim
350
35
  3
Facepattern
350
39
  3
Flat
350
2B
  3
FlatWithEdges
350
2C
  3
Gouraud
350
2D
  3
GouraudWithEdges
350
2E
  3
Linepattern
350
38
  3
Realistic
350
33
  3
Thicken
350
37
  0
LAYOUT
  5
1E
102
{ACAD_REACTORS
330
1A
102
}
330
1A
100
AcDbPlotSettings
  1

  2
none_device
  4

  6

 40
0.0
 41
0.0
 42
0.0
 43
0.0
 44
0.0
 45
0.0
 46
0.0
 47
0.0
 48
0.0
 49
0.0
140
0.0
141
0.0
142
1.0
143
1.0
 70
   688
 72
     0
 73
     0
 74
     5
  7

 75
    16
 76
     0
 77
     2
 78
   300
147
1.0
148
0.0
149
0.0
100
AcDbLayout
  1
Layout1
 70
     1
 71
     1
 10
0.0
 20
0.0
 11
12.0
 21
9.0
 12
0.0
 22
0.0
 32
0.0
 14
1.000000000000000E+20
 24
1.000000000000000E+20
 34
1.000000000000000E+20
 15
-1.000000000000000E+20
 25
-1.000000000000000E+20
 35
-1.000000000000000E+20
146
0.0
 13
0.0
 23
0.0
 33
0.0
 16
1.0
 26
0.0
 36
0.0
 17
0.0
 27
1.0
 37
0.0
 76
     0
330
1B
  0
LAYOUT
  5
26
102
{ACAD_REACTORS
330
1A
102
}
330
1A
100
AcDbPlotSettings
  1

  2
none_device
  4

  6

 40
0.0
 41
0.0
 42
0.0
 43
0.0
 44
0.0
 45
0.0
 46
0.0
 47
0.0
 48
0.0
 49
0.0
140
0.0
141
0.0
142
1.0
143
1.0
 70
   688
 72
     0
 73
     0
 74
     5
  7

 75
    16
 76
     0
 77
     2
 78
   300
147
1.0
148
0.0
149
0.0
100
AcDbLayout
  1
Layout2
 70
     1
 71
     2
 10
0.0
 20
0.0
 11
0.0
 21
0.0
 12
0.0
 22
0.0
 32
0.0
 14
0.0
 24
0.0
 34
0.0
 15
0.0
 25
0.0
 35
0.0
146
0.0
 13
0.0
 23
0.0
 33
0.0
 16
1.0
 26
0.0
 36
0.0
 17
0.0
 27
1.0
 37
0.0
 76
     0
330
23
  0
LAYOUT
  5
22
102
{ACAD_REACTORS
330
1A
102
}
330
1A
100
AcDbPlotSettings
  1

  2
none_device
  4

  6

 40
0.0
 41
0.0
 42
0.0
 43
0.0
 44
0.0
 45
0.0
 46
0.0
 47
0.0
 48
0.0
 49
0.0
140
0.0
141
0.0
142
1.0
143
1.0
 70
  1712
 72
     0
 73
     0
 74
     0
  7

 75
     0
 76
     0
 77
     2
 78
   300
147
1.0
148
0.0
149
0.0
100
AcDbLayout
  1
Model
 70
     1
 71
     0
 10
0.0
 20
0.0
 11
12.0
 21
9.0
 12
0.0
 22
0.0
 32
0.0
 14
1.000000000000000E+20
 24
1.000000000000000E+20
 34
1.000000000000000E+20
 15
-1.000000000000000E+20
 25
-1.000000000000000E+20
 35
-1.000000000000000E+20
146
0.0
 13
0.0
 23
0.0
 33
0.0
 16
1.0
 26
0.0
 36
0.0
 17
0.0
 27
1.0
 37
0.0
 76
     0
330
1F
331
29
  0
MATERIAL
  5
3D
102
{ACAD_REACTORS
330
3B
102
}
330
3B
100
AcDbMaterial
  1
ByBlock
 72
     1
 94
      127
  0
MATERIAL
  5
3C
102
{ACAD_REACTORS
330
3B
102
}
330
3B
100
AcDbMaterial
  1
ByLayer
 72
     1
 94
      127
  0
MATERIAL
  5
3E
102
{ACAD_REACTORS
330
3B
102
}
330
3B
100
AcDbMaterial
  1
Global
 72
     1
 94
      127
  0
MLINESTYLE
  5
18
102
{ACAD_REACTORS
330
17
102
}
330
17
100
AcDbMlineStyle
  2
Standard
 70
     0
  3

 62
   256
 51
90.0
 52
90.0
 71
     2
 49
0.5
 62
   256
  6
BYLAYER
 49
-0.5
 62
   256
  6
BYLAYER
  0
ACDBPLACEHOLDER
  5
F
102
{ACAD_REACTORS
330
E
102
}
330
E
  0
VISUALSTYLE
  5
2F
102
{ACAD_REACTORS
330
2A
102
}
330
2A
100
AcDbVisualStyle
  2
2dWireframe
 70
     4
177
     2
291
     0
 71
     0
176
     1
 72
     2
176
     1
 73
     0
176
     1
 90
        0
176
     1
 40
-0.6
176
     1
 41
-30.0
176
     1
 62
     5
 63
     7
421
 16777215
176
     1
 74
     1
176
     1
 91
        4
176
     1
 64
     7
176
     1
 65
   257
176
     1
 75
     1
176
     1
175
     1
176
     1
 42
1.0
176
     1
 92
        0
176
     1
 66
   257
176
     1
 43
1.0
176
     1
 76
     1
176
     1
 77
     6
176
     1
 78
     2
176
     1
 67
     7
176
     1
 79
     5
176
     1
170
     0
176
     1
171
     0
176
     1
290
     0
176
     1
 93
        1
176
     1
 44
0.0
176
     1
173
     0
176
     1
  0
VISUALSTYLE
  5
31
102
{ACAD_REACTORS
330
2A
102
}
330
2A
100
AcDbVisualStyle
  2
3D Hidden
 70
     6
177
     2
291
     0
 71
     1
176
     1
 72
     2
176
     1
 73
     2
176
     1
 90
        0
176
     1
 40
-0.6
176
     1
 41
-30.0
176
     1
 62
     5
 63
     7
421
 16777215
176
     1
 74
     2
176
     1
 91
        2
176
     1
 64
     7
176
     1
 65
   257
176
     1
 75
     2
176
     1
175
     1
176
     1
 42
40.0
176
     1
 92
        0
176
     1
 66
   257
176
     1
 43
1.0
176
     1
 76
     1
176
     1
 77
     6
176
     1
 78
     2
176
     1
 67
     7
176
     1
 79
     3
176
     1
170
     0
176
     1
171
     0
176
     1
290
     0
176
     1
 93
        1
176
     1
 44
0.0
176
     1
173
     0
176
     1
  0
VISUALSTYLE
  5
30
102
{ACAD_REACTORS
330
2A
102
}
330
2A
100
AcDbVisualStyle
  2
3dWireframe
 70
     5
177
     2
291
     0
 71
     0
176
     1
 72
     2
176
     1
 73
     0
176
     1
 90
        0
176
     1
 40
-0.6
176
     1
 41
-30.0
176
     1
 62
     5
 63
     7
421
 16777215
176
     1
 74
     1
176
     1
 91
        4
176
     1
 64
     7
176
     1
 65
   257
176
     1
 75
     1
176
     1
175
     1
176
     1
 42
1.0
176
     1
 92
        0
176
     1
 66
   257
176
     1
 43
1.0
176
     1
 76
     1
176
     1
 77
     6
176
     1
 78
     2
176
     1
 67
     7
176
     1
 79
     5
176
     1
170
     0
176
     1
171
     0
176
     1
290
     0
176
     1
 93
        1
176
     1
 44
0.0
176
     1
173
     0
176
     1
  0
VISUALSTYLE
  5
32
102
{ACAD_REACTORS
330
2A
102
}
330
2A
100
AcDbVisualStyle
  2
Basic
 70
     7
177
     2
291
     1
 71
     1
176
     1
 72
     0
176
     1
 73
     1
176
     1
 90
        0
176
     1
 40
-0.6
176
     1
 41
-30.0
176
     1
 62
     5
 63
     7
421
 16777215
176
     1
 74
     0
176
     1
 91
        4
176
     1
 64
     7
176
     1
 65
   257
176
     1
 75
     1
176
     1
175
     1
176
     1
 42
1.0
176
     1
 92
        8
176
     1
 66
     7
176
     1
 43
1.0
176
     1
 76
     1
176
     1
 77
     6
176
     1
 78
     2
176
     1
 67
     7
176
     1
 79
     5
176
     1
170
     0
176
     1
171
     0
176
     1
290
     0
176
     1
 93
        1
176
     1
 44
0.0
176
     1
173
     0
176
     1
  0
VISUALSTYLE
  5
36
102
{ACAD_REACTORS
330
2A
102
}
330
2A
100
AcDbVisualStyle
  2
Brighten
 70
    12
177
     2
291
     1
 71
     2
176
     1
 72
     2
176
     1
 73
     0
176
     1
 90
        0
176
     1
 40
-0.6
176
     1
 41
-30.0
176
     1
 62
     5
 63
     7
421
 16777215
176
     1
 74
     1
176
     1
 91
        4
176
     1
 64
     7
176
     1
 65
   257
176
     1
 75
     1
176
     1
175
     1
176
     1
 42
1.0
176
     1
 92
        8
176
     1
 66
     7
176
     1
 43
1.0
176
     1
 76
     1
176
     1
 77
     6
176
     1
 78
     2
176
     1
 67
     7
176
     1
 79
     5
176
     1
170
     0
176
     1
171
     0
176
     1
290
     0
176
     1
 93
        1
176
     1
 44
50.0
176
     1
173
     0
176
     1
  0
VISUALSTYLE
  5
3A
102
{ACAD_REACTORS
330
2A
102
}
330
2A
100
AcDbVisualStyle
  2
ColorChange
 70
    16
177
     2
291
     1
 71
     2
176
     1
 72
     2
176
     1
 73
     3
176
     1
 90
        0
176
     1
 40
-0.6
176
     1
 41
-30.0
176
     1
 62
     5
 63
     8
421
  8421504
176
     1
 74
     1
176
     1
 91
        4
176
     1
 64
     7
176
     1
 65
   257
176
     1
 75
     1
176
     1
175
     1
176
     1
 42
1.0
176
     1
 92
        8
176
     1
 66
     8
424
  8421504
176
     1
 43
1.0
176
     1
 76
     1
176
     1
 77
     6
176
     1
 78
     2
176
     1
 67
     7
176
     1
 79
     5
176
     1
170
     0
176
     1
171
     0
176
     1
290
     0
176
     1
 93
        1
176
     1
 44
0.0
176
     1
173
     0
176
     1
  0
VISUALSTYLE
  5
34
102
{ACAD_REACTORS
330
2A
102
}
330
2A
100
AcDbVisualStyle
  2
Conceptual
 70
     9
177
     2
291
     0
 71
     3
176
     1
 72
     2
176
     1
 73
     0
176
     1
 90
        0
176
     1
 40
-0.6
176
     1
 41
-30.0
176
     1
 62
     5
 63
     7
421
 16777215
176
     1
 74
     2
176
     1
 91
        2
176
     1
 64
     7
176
     1
 65
   257
176
     1
 75
     1
176
     1
175
     1
176
     1
 42
40.0
176
     1
 92
        8
176
     1
 66
     7
176
     1
 43
1.0
176
     1
 76
     1
176
     1
 77
     6
176
     1
 78
     2
176
     1
 67
     7
176
     1
 79
     3
176
     1
170
     0
176
     1
171
     0
176
     1
290
     0
176
     1
 93
        1
176
     1
 44
0.0
176
     1
173
     0
176
     1
  0
VISUALSTYLE
  5
35
102
{ACAD_REACTORS
330
2A
102
}
330
2A
100
AcDbVisualStyle
  2
Dim
 70
    11
177
     2
291
     1
 71
     2
176
     1
 72
     2
176
     1
 73
     0
176
     1
 90
        0
176
     1
 40
-0.6
176
     1
 41
-30.0
176
     1
 62
     5
 63
     7
421
 16777215
176
     1
 74
     1
176
     1
 91
        4
176
     1
 64
     7
176
     1
 65
   257
176
     1
 75
     1
176
     1
175
     1
176
     1
 42
1.0
176
     1
 92
        8
176
     1
 66
     7
176
     1
 43
1.0
176
     1
 76
     1
176
     1
 77
     6
176
     1
 78
     2
176
     1
 67
     7
176
     1
 79
     5
176
     1
170
     0
176
     1
171
     0
176
     1
290
     0
176
     1
 93
        1
176
     1
 44
-50.0
176
     1
173
     0
176
     1
  0
VISUALSTYLE
  5
39
102
{ACAD_REACTORS
330
2A
102
}
330
2A
100
AcDbVisualStyle
  2
Facepattern
 70
    15
177
     2
291
     1
 71
     2
176
     1
 72
     2
176
     1
 73
     0
176
     1
 90
        0
176
     1
 40
-0.6
176
     1
 41
-30.0
176
     1
 62
     5
 63
     7
421
 16777215
176
     1
 74
     1
176
     1
 91
        4
176
     1
 64
     7
176
     1
 65
   257
176
     1
 75
     1
176
     1
175
     1
176
     1
 42
1.0
176
     1
 92
        8
176
     1
 66
     7
176
     1
 43
1.0
176
     1
 76
     1
176
     1
 77
     6
176
     1
 78
     2
176
     1
 67
     7
176
     1
 79
     5
176
     1
170
     0
176
     1
171
     0
176
     1
290
     0
176
     1
 93
        1
176
     1
 44
0.0
176
     1
173
     0
176
     1
  0
VISUALSTYLE
  5
2B
102
{ACAD_REACTORS
330
2A
102
}
330
2A
100
AcDbVisualStyle
  2
Flat
 70
     0
177
     2
291
     1
 71
     2
176
     1
 72
     1
176
     1
 73
     1
176
     1
 90
        2
176
     1
 40
-0.6
176
     1
 41
30.0
176
     1
 62
     5
 63
     7
421
 16777215
176
     1
 74
     0
176
     1
 91
        4
176
     1
 64
     7
176
     1
 65
   257
176
     1
 75
     1
176
     1
175
     1
176
     1
 42
1.0
176
     1
 92
        8
176
     1
 66
     7
176
     1
 43
1.0
176
     1
 76
     1
176
     1
 77
     6
176
     1
 78
     2
176
     1
 67
     7
176
     1
 79
     5
176
     1
170
     0
176
     1
171
     0
176
     1
290
     0
176
     1
 93
       13
176
     1
 44
0.0
176
     1
173
     0
176
     1
  0
VISUALSTYLE
  5
2C
102
{ACAD_REACTORS
330
2A
102
}
330
2A
100
AcDbVisualStyle
  2
FlatWithEdges
 70
     1
177
     2
291
     1
 71
     2
176
     1
 72
     1
176
     1
 73
     1
176
     1
 90
        2
176
     1
 40
-0.6
176
     1
 41
30.0
176
     1
 62
     5
 63
     7
421
 16777215
176
     1
 74
     1
176
     1
 91
        4
176
     1
 64
     7
176
     1
 65
   257
176
     1
 75
     1
176
     1
175
     1
176
     1
 42
1.0
176
     1
 92
        0
176
     1
 66
   257
176
     1
 43
1.0
176
     1
 76
     1
176
     1
 77
     6
176
     1
 78
     2
176
     1
 67
     7
176
     1
 79
     5
176
     1
170
     0
176
     1
171
     0
176
     1
290
     0
176
     1
 93
       13
176
     1
 44
0.0
176
     1
173
     0
176
     1
  0
VISUALSTYLE
  5
2D
102
{ACAD_REACTORS
330
2A
102
}
330
2A
100
AcDbVisualStyle
  2
Gouraud
 70
     2
177
     2
291
     1
 71
     2
176
     1
 72
     2
176
     1
 73
     1
176
     1
 90
        2
176
     1
 40
-0.6
176
     1
 41
30.0
176
     1
 62
     5
 63
     7
421
 16777215
176
     1
 74
     0
176
     1
 91
        4
176
     1
 64
     7
176
     1
 65
   257
176
     1
 75
     1
176
     1
175
     1
176
     1
 42
1.0
176
     1
 92
        0
176
     1
 66
     7
176
     1
 43
1.0
176
     1
 76
     1
176
     1
 77
     6
176
     1
 78
     2
176
     1
 67
     7
176
     1
 79
     5
176
     1
170
     0
176
     1
171
     0
176
     1
290
     0
176
     1
 93
       13
176
     1
 44
0.0
176
     1
173
     0
176
     1
  0
VISUALSTYLE
  5
2E
102
{ACAD_REACTORS
330
2A
102
}
330
2A
100
AcDbVisualStyle
  2
GouraudWithEdges
 70
     3
177
     2
291
     1
 71
     2
176
     1
 72
     2
176
     1
 73
     1
176
     1
 90
        2
176
     1
 40
-0.6
176
     1
 41
30.0
176
     1
 62
     5
 63
     7
421
 16777215
176
     1
 74
     1
176
     1
 91
        4
176
     1
 64
     7
176
     1
 65
   257
176
     1
 75
     1
176
     1
175
     1
176
     1
 42
1.0
176
     1
 92
        0
176
     1
 66
   257
176
     1
 43
1.0
176
     1
 76
     1
176
     1
 77
     6
176
     1
 78
     2
176
     1
 67
     7
176
     1
 79
     5
176
     1
170
     0
176
     1
171
     0
176
     1
290
     0
176
     1
 93
       13
176
     1
 44
0.0
176
     1
173
     0
176
     1
  0
VISUALSTYLE
  5
38
102
{ACAD_REACTORS
330
2A
102
}
330
2A
100
AcDbVisualStyle
  2
Linepattern
 70
    14
177
     2
291
     1
 71
     2
176
     1
 72
     2
176
     1
 73
     0
176
     1
 90
        0
176
     1
 40
-0.6
176
     1
 41
-30.0
176
     1
 62
     5
 63
     7
421
 16777215
176
     1
 74
     1
176
     1
 91
        4
176
     1
 64
     7
176
     1
 65
   257
176
     1
 75
     7
176
     1
175
     7
176
     1
 42
1.0
176
     1
 92
        8
176
     1
 66
     7
176
     1
 43
1.0
176
     1
 76
     1
176
     1
 77
     6
176
     1
 78
     2
176
     1
 67
     7
176
     1
 79
     5
176
     1
170
     0
176
     1
171
     0
176
     1
290
     0
176
     1
 93
        1
176
     1
 44
0.0
176
     1
173
     0
176
     1
  0
VISUALSTYLE
  5
33
102
{ACAD_REACTORS
330
2A
102
}
330
2A
100
AcDbVisualStyle
  2
Realistic
 70
     8
177
     2
291
     0
 71
     2
176
     1
 72
     2
176
     1
 73
     0
176
     1
 90
        0
176
     1
 40
-0.6
176
     1
 41
-30.0
176
     1
 62
     5
 63
     7
421
 16777215
176
     1
 74
     1
176
     1
 91
        0
176
     1
 64
     7
176
     1
 65
   257
176
     1
 75
     1
176
     1
175
     1
176
     1
 42
1.0
176
     1
 92
        8
176
     1
 66
     8
424
  7895160
176
     1
 43
1.0
176
     1
 76
     1
176
     1
 77
     6
176
     1
 78
     2
176
     1
 67
     7
176
     1
 79
     5
176
     1
170
     0
176
     1
171
     0
176
     1
290
     0
176
     1
 93
       13
176
     1
 44
0.0
176
     1
173
     0
176
     1
  0
VISUALSTYLE
  5
37
102
{ACAD_REACTORS
330
2A
102
}
330
2A
100
AcDbVisualStyle
  2
Thicken
 70
    13
177
     2
291
     1
 71
     2
176
     1
 72
     2
176
     1
 73
     0
176
     1
 90
        0
176
     1
 40
-0.6
176
     1
 41
-30.0
176
     1
 62
     5
 63
     7
421
 16777215
176
     1
 74
     1
176
     1
 91
        4
176
     1
 64
     7
176
     1
 65
   257
176
     1
 75
     1
176
     1
175
     1
176
     1
 42
1.0
176
     1
 92
       12
176
     1
 66
     7
176
     1
 43
1.0
176
     1
 76
     1
176
     1
 77
     6
176
     1
 78
     2
176
     1
 67
     7
176
     1
 79
     5
176
     1
170
     0
176
     1
171
     0
176
     1
290
     0
176
     1
 93
        1
176
     1
 44
0.0
176
     1
173
     0
176
     1
  0
ENDSEC
  0
EOF
