  0
SECTION
  2
HEADER
  9
$ACADVER
  1
AC1024
  9
$ACADMAINTVER
 70
     6
  9
$DWGCODEPAGE
  3
UNDEFINED
  9
$INSBASE
 10
0.0
 20
0.0
 30
0.0
  9
$EXTMIN
 10
1.000000000000000E+20
 20
1.000000000000000E+20
 30
1.000000000000000E+20
  9
$EXTMAX
 10
-1.000000000000000E+20
 20
-1.000000000000000E+20
 30
-1.000000000000000E+20
  9
$LIMMIN
 10
0.0
 20
0.0
  9
$LIMMAX
 10
12.0
 20
9.0
  9
$ORTHOMODE
 70
     0
  9
$REGENMODE
 70
     1
  9
$FILLMODE
 70
     1
  9
$QTEXTMODE
 70
     0
  9
$MIRRTEXT
 70
     1
  9
$LTSCALE
 40
1.0
  9
$ATTMODE
 70
     1
  9
$TEXTSIZE
 40
0.2
  9
$TRACEWID
 40
0.05
  9
$TEXTSTYLE
  7
Standard
  9
$CLAYER
  8
0
  9
$CELTYPE
  6
ByLayer
  9
$CECOLOR
 62
   256
  9
$CELTSCALE
 40
1.0
  9
$DISPSILH
 70
     0
  9
$DIMSCALE
 40
1.0
  9
$DIMASZ
 40
0.18
  9
$DIMEXO
 40
0.0625
  9
$DIMDLI
 40
0.38
  9
$DIMRND
 40
0.0
  9
$DIMDLE
 40
0.0
  9
$DIMEXE
 40
0.18
  9
$DIMTP
 40
0.0
  9
$DIMTM
 40
0.0
  9
$DIMTXT
 40
0.18
  9
$DIMCEN
 40
0.09
  9
$DIMTSZ
 40
0.0
  9
$DIMTOL
 70
     0
  9
$DIMLIM
 70
     0
  9
$DIMTIH
 70
     1
  9
$DIMTOH
 70
     1
  9
$DIMSE1
 70
     0
  9
$DIMSE2
 70
     0
  9
$DIMTAD
 70
     0
  9
$DIMZIN
 70
     0
  9
$DIMBLK
  1

  9
$DIMASO
 70
     1
  9
$DIMSHO
 70
     1
  9
$DIMPOST
  1

  9
$DIMAPOST
  1

  9
$DIMALT
 70
     0
  9
$DIMALTD
 70
     2
  9
$DIMALTF
 40
25.4
  9
$DIMLFAC
 40
1.0
  9
$DIMTOFL
 70
     0
  9
$DIMTVP
 40
0.0
  9
$DIMTIX
 70
     0
  9
$DIMSOXD
 70
     0
  9
$DIMSAH
 70
     0
  9
$DIMBLK1
  1

  9
$DIMBLK2
  1

  9
$DIMSTYLE
  2
Standard
  9
$DIMCLRD
 70
     0
  9
$DIMCLRE
 70
     0
  9
$DIMCLRT
 70
     0
  9
$DIMTFAC
 40
1.0
  9
$DIMGAP
 40
0.09
  9
$DIMJUST
 70
     0
  9
$DIMSD1
 70
     0
  9
$DIMSD2
 70
     0
  9
$DIMTOLJ
 70
     1
  9
$DIMTZIN
 70
     0
  9
$DIMALTZ
 70
     0
  9
$DIMALTTZ
 70
     0
  9
$DIMUPT
 70
     0
  9
$DIMDEC
 70
     4
  9
$DIMTDEC
 70
     4
  9
$DIMALTU
 70
     2
  9
$DIMALTTD
 70
     2
  9
$DIMTXSTY
  7
Standard
  9
$DIMAUNIT
 70
     0
  9
$DIMADEC
 70
     0
  9
$DIMALTRND
 40
0.0
  9
$DIMAZIN
 70
     0
  9
$DIMDSEP
 70
    46
  9
$DIMATFIT
 70
     3
  9
$DIMFRAC
 70
     0
  9
$DIMLDRBLK
  1

  9
$DIMLUNIT
 70
     2
  9
$DIMLWD
 70
    -2
  9
$DIMLWE
 70
    -2
  9
$DIMTMOVE
 70
     0
  9
$DIMFXL
 40
1.0
  9
$DIMFXLON
 70
     0
  9
$DIMJOGANG
 40
0.7853981633974483
  9
$DIMTFILL
 70
     0
  9
$DIMTFILLCLR
 70
     0
  9
$DIMARCSYM
 70
     0
  9
$DIMLTYPE
  6

  9
$DIMLTEX1
  6

  9
$DIMLTEX2
  6

  9
$DIMTXTDIRECTION
 70
     0
  9
$LUNITS
 70
     2
  9
$LUPREC
 70
     4
  9
$SKETCHINC
 40
0.1
  9
$FILLETRAD
 40
0.5
  9
$AUNITS
 70
     0
  9
$AUPREC
 70
     0
  9
$MENU
  1
.
  9
$ELEVATION
 40
0.0
  9
$PELEVATION
 40
0.0
  9
$THICKNESS
 40
0.0
  9
$LIMCHECK
 70
     0
  9
$CHAMFERA
 40
0.5
  9
$CHAMFERB
 40
0.5
  9
$CHAMFERC
 40
1.0
  9
$CHAMFERD
 40
0.0
  9
$SKPOLY
 70
     0
  9
$TDCREATE
 40
2458263.575752303
  9
$TDUCREATE
 40
2458263.200752315
  9
$TDUPDATE
 40
2458263.575752303
  9
$TDUUPDATE
 40
2458263.200752315
  9
$TDINDWG
 40
0.0000000116
  9
$TDUSRTIMER
 40
0.0000000116
  9
$USRTIMER
 70
     1
  9
$ANGBASE
 50
0.0
  9
$ANGDIR
 70
     0
  9
$PDMODE
 70
     0
  9
$PDSIZE
 40
0.0
  9
$PLINEWID
 40
0.0
  9
$SPLFRAME
 70
     0
  9
$SPLINETYPE
 70
     6
  9
$SPLINESEGS
 70
     8
  9
$HANDSEED
  5
DB
  9
$SURFTAB1
 70
     6
  9
$SURFTAB2
 70
     6
  9
$SURFTYPE
 70
     6
  9
$SURFU
 70
     6
  9
$SURFV
 70
     6
  9
$UCSBASE
  2

  9
$UCSNAME
  2

  9
$UCSORG
 10
0.0
 20
0.0
 30
0.0
  9
$UCSXDIR
 10
1.0
 20
0.0
 30
0.0
  9
$UCSYDIR
 10
0.0
 20
1.0
 30
0.0
  9
$UCSORTHOREF
  2

  9
$UCSORTHOVIEW
 70
     0
  9
$UCSORGTOP
 10
0.0
 20
0.0
 30
0.0
  9
$UCSORGBOTTOM
 10
0.0
 20
0.0
 30
0.0
  9
$UCSORGLEFT
 10
0.0
 20
0.0
 30
0.0
  9
$UCSORGRIGHT
 10
0.0
 20
0.0
 30
0.0
  9
$UCSORGFRONT
 10
0.0
 20
0.0
 30
0.0
  9
$UCSORGBACK
 10
0.0
 20
0.0
 30
0.0
  9
$PUCSBASE
  2

  9
$PUCSNAME
  2

  9
$PUCSORG
 10
0.0
 20
0.0
 30
0.0
  9
$PUCSXDIR
 10
1.0
 20
0.0
 30
0.0
  9
$PUCSYDIR
 10
0.0
 20
1.0
 30
0.0
  9
$PUCSORTHOREF
  2

  9
$PUCSORTHOVIEW
 70
     0
  9
$PUCSORGTOP
 10
0.0
 20
0.0
 30
0.0
  9
$PUCSORGBOTTOM
 10
0.0
 20
0.0
 30
0.0
  9
$PUCSORGLEFT
 10
0.0
 20
0.0
 30
0.0
  9
$PUCSORGRIGHT
 10
0.0
 20
0.0
 30
0.0
  9
$PUCSORGFRONT
 10
0.0
 20
0.0
 30
0.0
  9
$PUCSORGBACK
 10
0.0
 20
0.0
 30
0.0
  9
$USERI1
 70
     0
  9
$USERI2
 70
     0
  9
$USERI3
 70
     0
  9
$USERI4
 70
     0
  9
$USERI5
 70
     0
  9
$USERR1
 40
0.0
  9
$USERR2
 40
0.0
  9
$USERR3
 40
0.0
  9
$USERR4
 40
0.0
  9
$USERR5
 40
0.0
  9
$WORLDVIEW
 70
     1
  9
$SHADEDGE
 70
     3
  9
$SHADEDIF
 70
    70
  9
$TILEMODE
 70
     1
  9
$MAXACTVP
 70
    64
  9
$PINSBASE
 10
0.0
 20
0.0
 30
0.0
  9
$PLIMCHECK
 70
     0
  9
$PEXTMIN
 10
1.000000000000000E+20
 20
1.000000000000000E+20
 30
1.000000000000000E+20
  9
$PEXTMAX
 10
-1.000000000000000E+20
 20
-1.000000000000000E+20
 30
-1.000000000000000E+20
  9
$PLIMMIN
 10
0.0
 20
0.0
  9
$PLIMMAX
 10
12.0
 20
9.0
  9
$UNITMODE
 70
     0
  9
$VISRETAIN
 70
     1
  9
$PLINEGEN
 70
     0
  9
$PSLTSCALE
 70
     1
  9
$TREEDEPTH
 70
  3020
  9
$CMLSTYLE
  2
Standard
  9
$CMLJUST
 70
     0
  9
$CMLSCALE
 40
1.0
  9
$PROXYGRAPHICS
 70
     1
  9
$MEASUREMENT
 70
     0
  9
$CELWEIGHT
370
    -1
  9
$ENDCAPS
280
     0
  9
$JOINSTYLE
280
     0
  9
$LWDISPLAY
290
     1
  9
$INSUNITS
 70
     1
  9
$HYPERLINKBASE
  1

  9
$STYLESHEET
  1

  9
$XEDIT
290
     1
  9
$CEPSNTYPE
380
     0
  9
$PSTYLEMODE
290
     1
  9
$FINGERPRINTGUID
  2
{6986DB2C-2694-4DED-2B85-1D95E303392D}
  9
$VERSIONGUID
  2
{FAEB1C32-E019-11D5-929B-00C0DF256EC4}
  9
$EXTNAMES
290
     1
  9
$PSVPSCALE
 40
0.0
  9
$OLESTARTUP
290
     0
  9
$SORTENTS
280
   127
  9
$INDEXCTL
280
     0
  9
$HIDETEXT
280
     1
  9
$XCLIPFRAME
280
     2
  9
$HALOGAP
280
     0
  9
$OBSCOLOR
 70
   257
  9
$OBSLTYPE
280
     0
  9
$INTERSECTIONDISPLAY
280
     0
  9
$INTERSECTIONCOLOR
 70
   257
  9
$DIMASSOC
280
     2
  9
$PROJECTNAME
  1

  9
$CAMERADISPLAY
290
     0
  9
$LENSLENGTH
 40
50.0
  9
$CAMERAHEIGHT
 40
0.0
  9
$STEPSPERSEC
 40
2.0
  9
$STEPSIZE
 40
6.0
  9
$3DDWFPREC
 40
2.0
  9
$PSOLWIDTH
 40
0.25
  9
$PSOLHEIGHT
 40
4.0
  9
$LOFTANG1
 40
1.570796326794897
  9
$LOFTANG2
 40
1.570796326794897
  9
$LOFTMAG1
 40
0.0
  9
$LOFTMAG2
 40
0.0
  9
$LOFTPARAM
 70
     7
  9
$LOFTNORMALS
280
     1
  9
$LATITUDE
 40
37.795
  9
$LONGITUDE
 40
-122.394
  9
$NORTHDIRECTION
 40
0.0
  9
$TIMEZONE
 70
 -8000
  9
$LIGHTGLYPHDISPLAY
280
     1
  9
$TILEMODELIGHTSYNCH
280
     1
  9
$CMATERIAL
347
3C
  9
$SOLIDHIST
280
     1
  9
$SHOWHIST
280
     1
  9
$DWFFRAME
280
     2
  9
$DGNFRAME
280
     2
  9
$REALWORLDSCALE
290
     1
  9
$INTERFERECOLOR
 62
   256
  9
$CSHADOW
280
     0
  9
$SHADOWPLANELOCATION
 40
0.0
  0
ENDSEC
  0
SECTION
  2
CLASSES
  0
CLASS
  1
ACDBDICTIONARYWDFLT
  2
AcDbDictionaryWithDefault
  3
ObjectDBX Classes
 90
        0
 91
        4
280
     0
281
     0
  0
CLASS
  1
VISUALSTYLE
  2
AcDbVisualStyle
  3
ObjectDBX Classes
 90
     4095
 91
        4
280
     0
281
     0
  0
CLASS
  1
MATERIAL
  2
AcDbMaterial
  3
ObjectDBX Classes
 90
     1153
 91
        4
280
     0
281
     0
  0
CLASS
  1
SUN
  2
AcDbSun
  3
SCENEOE
 90
     1024
 91
        4
280
     0
281
     0
  0
ENDSEC
  0
SECTION
  2
TABLES
  0
TABLE
  2
VPORT
  5
8
330
0
100
AcDbSymbolTable
 70
     1
  0
VPORT
  5
29
330
8
100
AcDbSymbolTableRecord
100
AcDbViewportTableRecord
  2
*Active
 70
     0
 10
0.0
 20
0.0
 11
1.0
 21
1.0
 12
0.0
 22
0.0
 13
0.0
 23
0.0
 14
0.5
 24
0.5
 15
0.5
 25
0.5
 16
0.0
 26
0.0
 36
1.0
 17
105.0007777515277
 27
-148.5000416295416
 37
0.0
 40
297.0000832590831
 41
0.7070757462376333
 42
50.0
 43
0.0
 44
0.0
 50
0.0
 51
0.0
 71
     0
 72
   100
 73
     1
 74
     3
 75
     0
 76
     0
 77
     0
 78
     0
281
     0
 65
     1
110
0.0
120
0.0
130
0.0
111
1.0
121
0.0
131
0.0
112
0.0
122
1.0
132
0.0
 79
     0
146
0.0
 60
     3
 61
     5
292
     1
282
     1
141
0.0
142
0.0
 63
   250
361
3F
  0
ENDTAB
  0
TABLE
  2
LTYPE
  5
5
330
0
100
AcDbSymbolTable
 70
     1
  0
LTYPE
  5
14
330
5
100
AcDbSymbolTableRecord
100
AcDbLinetypeTableRecord
  2
ByBlock
 70
     0
  3

 72
    65
 73
     0
 40
0.0
  0
LTYPE
  5
15
330
5
100
AcDbSymbolTableRecord
100
AcDbLinetypeTableRecord
  2
ByLayer
 70
     0
  3

 72
    65
 73
     0
 40
0.0
  0
LTYPE
  5
16
330
5
100
AcDbSymbolTableRecord
100
AcDbLinetypeTableRecord
  2
Continuous
 70
     0
  3
Solid line
 72
    65
 73
     0
 40
0.0
  0
ENDTAB
  0
TABLE
  2
LAYER
  5
2
330
0
100
AcDbSymbolTable
 70
     2
  0
LAYER
  5
10
330
2
100
AcDbSymbolTableRecord
100
AcDbLayerTableRecord
  2
0
 70
     0
 62
     7
  6
Continuous
370
    -3
390
F
347
3E
  0
LAYER
  5
40
330
2
100
AcDbSymbolTableRecord
100
AcDbLayerTableRecord
  2
_U+30EC_U+30A4_U+30E4_U+30FC 1
 70
     0
 62
     7
  6
Continuous
370
    -3
390
F
347
3E
  0
ENDTAB
  0
TABLE
  2
STYLE
  5
3
330
0
100
AcDbSymbolTable
 70
     1
  0
STYLE
  5
11
330
3
100
AcDbSymbolTableRecord
100
AcDbTextStyleTableRecord
  2
Standard
 70
     0
 40
0.0
 41
1.0
 50
0.0
 71
     0
 42
0.2
  3
txt
  4

  0
ENDTAB
  0
TABLE
  2
VIEW
  5
6
330
0
100
AcDbSymbolTable
 70
     0
  0
ENDTAB
  0
TABLE
  2
UCS
  5
7
330
0
100
AcDbSymbolTable
 70
     0
  0
ENDTAB
  0
TABLE
  2
APPID
  5
9
330
0
100
AcDbSymbolTable
 70
     1
  0
APPID
  5
12
330
9
100
AcDbSymbolTableRecord
100
AcDbRegAppTableRecord
  2
ACAD
 70
     0
  0
ENDTAB
  0
TABLE
  2
DIMSTYLE
  5
A
330
0
100
AcDbSymbolTable
 70
     1
100
AcDbDimStyleTable
  0
DIMSTYLE
105
27
330
A
100
AcDbSymbolTableRecord
100
AcDbDimStyleTableRecord
  2
Standard
 70
     0
178
     0
340
11
  0
ENDTAB
  0
TABLE
  2
BLOCK_RECORD
  5
1
330
0
100
AcDbSymbolTable
 70
     6
  0
BLOCK_RECORD
  5
1F
330
1
100
AcDbSymbolTableRecord
100
AcDbBlockTableRecord
  2
*Model_Space
340
22
 70
     0
280
     1
281
     0
  0
BLOCK_RECORD
  5
1B
330
1
100
AcDbSymbolTableRecord
100
AcDbBlockTableRecord
  2
*Paper_Space
340
1E
 70
     0
280
     1
281
     0
  0
BLOCK_RECORD
  5
23
330
1
100
AcDbSymbolTableRecord
100
AcDbBlockTableRecord
  2
*Paper_Space0
340
26
 70
     0
280
     1
281
     0
  0
BLOCK_RECORD
  5
78
330
1
100
AcDbSymbolTableRecord
100
AcDbBlockTableRecord
  2
block 2
340
0
102
{BLKREFS
331
79
102
}
 70
     0
280
     1
281
     0
  0
BLOCK_RECORD
  5
81
330
1
100
AcDbSymbolTableRecord
100
AcDbBlockTableRecord
  2
block 3
340
0
102
{BLKREFS
331
82
102
}
 70
     0
280
     1
281
     0
  0
BLOCK_RECORD
  5
93
330
1
100
AcDbSymbolTableRecord
100
AcDbBlockTableRecord
  2
block 4
340
0
102
{BLKREFS
331
94
102
}
 70
     0
280
     1
281
     0
  0
BLOCK_RECORD
  5
A5
330
1
100
AcDbSymbolTableRecord
100
AcDbBlockTableRecord
  2
block 5
340
0
102
{BLKREFS
331
A6
102
}
 70
     0
280
     1
281
     0
  0
BLOCK_RECORD
  5
C8
330
1
100
AcDbSymbolTableRecord
100
AcDbBlockTableRecord
  2
block 6
340
0
102
{BLKREFS
331
C9
102
}
 70
     0
280
     1
281
     0
  0
ENDTAB
  0
ENDSEC
  0
SECTION
  2
BLOCKS
  0
BLOCK
  5
20
330
1F
100
AcDbEntity
  8
0
100
AcDbBlockBegin
  2
*Model_Space
 70
     0
 10
0.0
 20
0.0
 30
0.0
  3
*Model_Space
  1

  0
ENDBLK
  5
21
330
1F
100
AcDbEntity
  8
0
100
AcDbBlockEnd
  0
BLOCK
  5
1C
330
1B
100
AcDbEntity
 67
     1
  8
0
100
AcDbBlockBegin
  2
*Paper_Space
 70
     0
 10
0.0
 20
0.0
 30
0.0
  3
*Paper_Space
  1

  0
ENDBLK
  5
1D
330
1B
100
AcDbEntity
 67
     1
  8
0
100
AcDbBlockEnd
  0
BLOCK
  5
24
330
23
100
AcDbEntity
  8
0
100
AcDbBlockBegin
  2
*Paper_Space0
 70
     0
 10
0.0
 20
0.0
 30
0.0
  3
*Paper_Space0
  1

  0
ENDBLK
  5
25
330
23
100
AcDbEntity
  8
0
100
AcDbBlockEnd
  0
BLOCK
  5
7A
330
78
100
AcDbEntity
  8
0
100
AcDbBlockBegin
  2
block 2
 70
     0
 10
0.0
 20
0.0
 30
0.0
  3
block 2
  1

  0
SPLINE
  5
7C
330
78
100
AcDbEntity
  8
_U+30EC_U+30A4_U+30E4_U+30FC 1
370
     0
100
AcDbSpline
210
0.0
220
0.0
230
1.0
 70
    11
 71
     3
 72
    44
 73
    40
 74
     0
 42
0.0000000001
 43
0.0000000001
 12
1.0
 22
0.0
 32
0.0
 13
1.0
 23
0.0
 33
0.0
 40
0.0
 40
0.0
 40
0.0
 40
0.0
 40
1.0
 40
1.0
 40
1.0
 40
2.0
 40
2.0
 40
2.0
 40
3.0
 40
3.0
 40
3.0
 40
4.0
 40
4.0
 40
4.0
 40
5.0
 40
5.0
 40
5.0
 40
6.0
 40
6.0
 40
6.0
 40
7.0
 40
7.0
 40
7.0
 40
8.0
 40
8.0
 40
8.0
 40
9.0
 40
9.0
 40
9.0
 40
10.0
 40
10.0
 40
10.0
 40
11.0
 40
11.0
 40
11.0
 40
12.0
 40
12.0
 40
12.0
 40
13.0
 40
13.0
 40
13.0
 40
13.0
 10
119.498649058667
 20
-156.4548773480391
 30
0.0
 10
119.657467960537
 20
-156.6726073827068
 30
0.0
 10
119.7315375134699
 20
-156.7656249608086
 30
0.0
 10
119.8751979952048
 20
-156.8145453166991
 30
0.0
 10
119.8751979952048
 20
-156.8145453166991
 30
0.0
 10
119.8751979952048
 20
-156.0359537370327
 30
0.0
 10
119.8751979952048
 20
-156.0359537370327
 30
0.0
 10
119.8751979952048
 20
-156.0359537370327
 30
0.0
 10
120.0805256861257
 20
-156.0359537370327
 30
0.0
 10
120.0805256861257
 20
-156.0359537370327
 30
0.0
 10
120.0805256861257
 20
-156.0359537370327
 30
0.0
 10
120.0805256861257
 20
-157.0639702298312
 30
0.0
 10
120.0805256861257
 20
-157.0639702298312
 30
0.0
 10
119.7229247747568
 20
-157.0322753513669
 30
0.0
 10
119.6447211072416
 20
-156.9668185371472
 30
0.0
 10
119.346375838219
 20
-156.5816568618962
 30
0.0
 10
119.14759382872
 20
-156.3256862673422
 30
0.0
 10
119.0797254476606
 20
-156.2602294531225
 30
0.0
 10
118.9422661377992
 20
-156.2602294531225
 30
0.0
 10
118.8237548531066
 20
-156.2602294531225
 30
0.0
 10
118.6928412246671
 20
-156.3322319487642
 30
0.0
 10
118.6928412246671
 20
-156.5289469009719
 30
0.0
 10
118.6928412246671
 20
-156.7890516101083
 30
0.0
 10
118.9233181126303
 20
-156.7973198392729
 30
0.0
 10
119.0397623400317
 20
-156.8017984634037
 30
0.0
 10
119.0397623400317
 20
-156.8017984634037
 30
0.0
 10
119.0397623400317
 20
-157.0260741794935
 30
0.0
 10
119.0397623400317
 20
-157.0260741794935
 30
0.0
 10
118.912638316626
 20
-157.0174614407804
 30
0.0
 10
118.8006727133554
 20
-157.0067816447761
 30
0.0
 10
118.6821614286628
 20
-156.9265109199698
 30
0.0
 10
118.5212754695016
 20
-156.8166123739903
 30
0.0
 10
118.4875135337462
 20
-156.6302327082383
 30
0.0
 10
118.4875135337462
 20
-156.5141329903853
 30
0.0
 10
118.4875135337462
 20
-156.2368028038227
 30
0.0
 10
118.6714816326585
 20
-156.0294080556107
 30
0.0
 10
118.9443331950903
 20
-156.0294080556107
 30
0.0
 10
119.1730875353109
 20
-156.0294080556107
 30
0.0
 10
119.2723062852861
 20
-156.1458522830121
 30
0.0
 10
119.498649058667
 20
-156.4548773480391
 30
0.0
  0
HATCH
  5
7D
330
78
100
AcDbEntity
  8
_U+30EC_U+30A4_U+30E4_U+30FC 1
 62
   179
420
  2234388
100
AcDbHatch
 10
0.0
 20
0.0
 30
0.0
210
0.0
220
0.0
230
1.0
  2
SOLID
 70
     1
 71
     0
 91
        1
 92
        1
 93
        1
 72
     4
 94
        3
 73
     0
 74
     1
 95
       44
 96
       40
 40
0.0
 40
0.0
 40
0.0
 40
0.0
 40
1.0
 40
1.0
 40
1.0
 40
2.0
 40
2.0
 40
2.0
 40
3.0
 40
3.0
 40
3.0
 40
4.0
 40
4.0
 40
4.0
 40
5.0
 40
5.0
 40
5.0
 40
6.0
 40
6.0
 40
6.0
 40
7.0
 40
7.0
 40
7.0
 40
8.0
 40
8.0
 40
8.0
 40
9.0
 40
9.0
 40
9.0
 40
10.0
 40
10.0
 40
10.0
 40
11.0
 40
11.0
 40
11.0
 40
12.0
 40
12.0
 40
12.0
 40
13.0
 40
13.0
 40
13.0
 40
13.0
 10
119.498649058667
 20
-156.4548773480391
 10
119.657467960537
 20
-156.6726073827068
 10
119.7315375134699
 20
-156.7656249608086
 10
119.8751979952048
 20
-156.8145453166991
 10
119.8751979952048
 20
-156.8145453166991
 10
119.8751979952048
 20
-156.0359537370327
 10
119.8751979952048
 20
-156.0359537370327
 10
119.8751979952048
 20
-156.0359537370327
 10
120.0805256861257
 20
-156.0359537370327
 10
120.0805256861257
 20
-156.0359537370327
 10
120.0805256861257
 20
-156.0359537370327
 10
120.0805256861257
 20
-157.0639702298312
 10
120.0805256861257
 20
-157.0639702298312
 10
119.7229247747568
 20
-157.0322753513669
 10
119.6447211072416
 20
-156.9668185371472
 10
119.346375838219
 20
-156.5816568618962
 10
119.14759382872
 20
-156.3256862673422
 10
119.0797254476606
 20
-156.2602294531225
 10
118.9422661377992
 20
-156.2602294531225
 10
118.8237548531066
 20
-156.2602294531225
 10
118.6928412246671
 20
-156.3322319487642
 10
118.6928412246671
 20
-156.5289469009719
 10
118.6928412246671
 20
-156.7890516101083
 10
118.9233181126303
 20
-156.7973198392729
 10
119.0397623400317
 20
-156.8017984634037
 10
119.0397623400317
 20
-156.8017984634037
 10
119.0397623400317
 20
-157.0260741794935
 10
119.0397623400317
 20
-157.0260741794935
 10
118.912638316626
 20
-157.0174614407804
 10
118.8006727133554
 20
-157.0067816447761
 10
118.6821614286628
 20
-156.9265109199698
 10
118.5212754695016
 20
-156.8166123739903
 10
118.4875135337462
 20
-156.6302327082383
 10
118.4875135337462
 20
-156.5141329903853
 10
118.4875135337462
 20
-156.2368028038227
 10
118.6714816326585
 20
-156.0294080556107
 10
118.9443331950903
 20
-156.0294080556107
 10
119.1730875353109
 20
-156.0294080556107
 10
119.2723062852861
 20
-156.1458522830121
 10
119.498649058667
 20
-156.4548773480391
 97
        0
 97
        0
 75
     2
 76
     1
 98
        0
  0
SPLINE
  5
7E
330
78
100
AcDbEntity
  8
_U+30EC_U+30A4_U+30E4_U+30FC 1
370
     0
100
AcDbSpline
210
0.0
220
0.0
230
1.0
 70
    11
 71
     3
 72
    29
 73
    25
 74
     0
 42
0.0000000001
 43
0.0000000001
 12
1.0
 22
0.0
 32
0.0
 13
1.0
 23
0.0
 33
0.0
 40
0.0
 40
0.0
 40
0.0
 40
0.0
 40
1.0
 40
1.0
 40
1.0
 40
2.0
 40
2.0
 40
2.0
 40
3.0
 40
3.0
 40
3.0
 40
4.0
 40
4.0
 40
4.0
 40
5.0
 40
5.0
 40
5.0
 40
6.0
 40
6.0
 40
6.0
 40
7.0
 40
7.0
 40
7.0
 40
8.0
 40
8.0
 40
8.0
 40
8.0
 10
119.9027587590868
 20
-154.9731417798331
 30
0.0
 10
120.11222056459
 20
-155.0813177780699
 30
0.0
 10
120.1311685897589
 20
-155.254606080978
 30
0.0
 10
120.1311685897589
 20
-155.3710503083795
 30
0.0
 10
120.1311685897589
 20
-155.5319362675406
 30
0.0
 10
120.084659800708
 20
-155.6735296919844
 30
0.0
 10
119.9027587590868
 20
-155.7686143273773
 30
0.0
 10
119.7081108641702
 20
-155.8723117014833
 30
0.0
 10
119.4714328043335
 20
-155.8912597266522
 30
0.0
 10
119.3084797878812
 20
-155.8912597266522
 30
0.0
 10
119.1644747965978
 20
-155.8912597266522
 30
0.0
 10
118.912638316626
 20
-155.8743787587745
 30
0.0
 10
118.7138563071271
 20
-155.7686143273773
 30
0.0
 10
118.5109401830459
 20
-155.660782838689
 30
0.0
 10
118.4875135337462
 20
-155.4998968795278
 30
0.0
 10
118.4875135337462
 20
-155.3710503083795
 30
0.0
 10
118.4875135337462
 20
-155.2122314065095
 30
0.0
 10
118.5319552655059
 20
-155.0685709247745
 30
0.0
 10
118.7138563071271
 20
-154.9731417798331
 30
0.0
 10
118.9064371447526
 20
-154.8739230298579
 30
0.0
 10
119.1348469754246
 20
-154.8504963805582
 30
0.0
 10
119.3084797878812
 20
-154.8504963805582
 30
0.0
 10
119.4797010334981
 20
-154.8504963805582
 30
0.0
 10
119.7101779214614
 20
-154.8718559725668
 30
0.0
 10
119.9027587590868
 20
-154.9731417798331
 30
0.0
  0
SPLINE
  5
7F
330
78
100
AcDbEntity
  8
_U+30EC_U+30A4_U+30E4_U+30FC 1
370
     0
100
AcDbSpline
210
0.0
220
0.0
230
1.0
 70
    11
 71
     3
 72
    17
 73
    13
 74
     0
 42
0.0000000001
 43
0.0000000001
 12
1.0
 22
0.0
 32
0.0
 13
1.0
 23
0.0
 33
0.0
 40
0.0
 40
0.0
 40
0.0
 40
0.0
 40
1.0
 40
1.0
 40
1.0
 40
2.0
 40
2.0
 40
2.0
 40
3.0
 40
3.0
 40
3.0
 40
4.0
 40
4.0
 40
4.0
 40
4.0
 10
118.6800943713717
 20
-155.3710503083795
 30
0.0
 10
118.6800943713717
 20
-155.6204752215116
 30
0.0
 10
118.9636257298077
 20
-155.6673285201109
 30
0.0
 10
119.3084797878812
 20
-155.6673285201109
 30
0.0
 10
119.6278401393639
 20
-155.6673285201109
 30
0.0
 10
119.9365206948423
 20
-155.6311550175158
 30
0.0
 10
119.9365206948423
 20
-155.3710503083795
 30
0.0
 10
119.9365206948423
 20
-155.12334794299
 30
0.0
 10
119.6554009032459
 20
-155.074772096648
 30
0.0
 10
119.3084797878812
 20
-155.074772096648
 30
0.0
 10
118.98877492685
 20
-155.074772096648
 30
0.0
 10
118.6800943713717
 20
-155.1130126565343
 30
0.0
 10
118.6800943713717
 20
-155.3710503083795
 30
0.0
  0
HATCH
  5
80
330
78
100
AcDbEntity
  8
_U+30EC_U+30A4_U+30E4_U+30FC 1
 62
   179
420
  2234388
100
AcDbHatch
 10
0.0
 20
0.0
 30
0.0
210
0.0
220
0.0
230
1.0
  2
SOLID
 70
     1
 71
     0
 91
        2
 92
        1
 93
        1
 72
     4
 94
        3
 73
     0
 74
     1
 95
       29
 96
       25
 40
0.0
 40
0.0
 40
0.0
 40
0.0
 40
1.0
 40
1.0
 40
1.0
 40
2.0
 40
2.0
 40
2.0
 40
3.0
 40
3.0
 40
3.0
 40
4.0
 40
4.0
 40
4.0
 40
5.0
 40
5.0
 40
5.0
 40
6.0
 40
6.0
 40
6.0
 40
7.0
 40
7.0
 40
7.0
 40
8.0
 40
8.0
 40
8.0
 40
8.0
 10
119.9027587590868
 20
-154.9731417798331
 10
120.11222056459
 20
-155.0813177780699
 10
120.1311685897589
 20
-155.254606080978
 10
120.1311685897589
 20
-155.3710503083795
 10
120.1311685897589
 20
-155.5319362675406
 10
120.084659800708
 20
-155.6735296919844
 10
119.9027587590868
 20
-155.7686143273773
 10
119.7081108641702
 20
-155.8723117014833
 10
119.4714328043335
 20
-155.8912597266522
 10
119.3084797878812
 20
-155.8912597266522
 10
119.1644747965978
 20
-155.8912597266522
 10
118.912638316626
 20
-155.8743787587745
 10
118.7138563071271
 20
-155.7686143273773
 10
118.5109401830459
 20
-155.660782838689
 10
118.4875135337462
 20
-155.4998968795278
 10
118.4875135337462
 20
-155.3710503083795
 10
118.4875135337462
 20
-155.2122314065095
 10
118.5319552655059
 20
-155.0685709247745
 10
118.7138563071271
 20
-154.9731417798331
 10
118.9064371447526
 20
-154.8739230298579
 10
119.1348469754246
 20
-154.8504963805582
 10
119.3084797878812
 20
-154.8504963805582
 10
119.4797010334981
 20
-154.8504963805582
 10
119.7101779214614
 20
-154.8718559725668
 10
119.9027587590868
 20
-154.9731417798331
 97
        0
 97
        0
 92
        1
 93
        1
 72
     4
 94
        3
 73
     0
 74
     1
 95
       17
 96
       13
 40
0.0
 40
0.0
 40
0.0
 40
0.0
 40
1.0
 40
1.0
 40
1.0
 40
2.0
 40
2.0
 40
2.0
 40
3.0
 40
3.0
 40
3.0
 40
4.0
 40
4.0
 40
4.0
 40
4.0
 10
118.6800943713717
 20
-155.3710503083795
 10
118.6800943713717
 20
-155.6204752215116
 10
118.9636257298077
 20
-155.6673285201109
 10
119.3084797878812
 20
-155.6673285201109
 10
119.6278401393639
 20
-155.6673285201109
 10
119.9365206948423
 20
-155.6311550175158
 10
119.9365206948423
 20
-155.3710503083795
 10
119.9365206948423
 20
-155.12334794299
 10
119.6554009032459
 20
-155.074772096648
 10
119.3084797878812
 20
-155.074772096648
 10
118.98877492685
 20
-155.074772096648
 10
118.6800943713717
 20
-155.1130126565343
 10
118.6800943713717
 20
-155.3710503083795
 97
        0
 97
        0
 75
     2
 76
     1
 98
        0
  0
ENDBLK
  5
7B
330
78
100
AcDbEntity
  8
0
100
AcDbBlockEnd
  0
BLOCK
  5
83
330
81
100
AcDbEntity
  8
0
100
AcDbBlockBegin
  2
block 3
 70
     0
 10
0.0
 20
0.0
 30
0.0
  3
block 3
  1

  0
SPLINE
  5
85
330
81
100
AcDbEntity
  8
_U+30EC_U+30A4_U+30E4_U+30FC 1
370
     0
100
AcDbSpline
210
0.0
220
0.0
230
1.0
 70
    11
 71
     3
 72
    26
 73
    22
 74
     0
 42
0.0000000001
 43
0.0000000001
 12
1.0
 22
0.0
 32
0.0
 13
1.0
 23
0.0
 33
0.0
 40
0.0
 40
0.0
 40
0.0
 40
0.0
 40
1.0
 40
1.0
 40
1.0
 40
2.0
 40
2.0
 40
2.0
 40
3.0
 40
3.0
 40
3.0
 40
4.0
 40
4.0
 40
4.0
 40
5.0
 40
5.0
 40
5.0
 40
6.0
 40
6.0
 40
6.0
 40
7.0
 40
7.0
 40
7.0
 40
7.0
 10
120.0805256861257
 20
-146.3238850545649
 30
0.0
 10
120.0805256861257
 20
-146.3238850545649
 30
0.0
 10
118.9763725831031
 20
-146.3238850545649
 30
0.0
 10
118.9763725831031
 20
-146.3238850545649
 30
0.0
 10
118.9763725831031
 20
-146.3238850545649
 30
0.0
 10
118.9763725831031
 20
-146.6539252020518
 30
0.0
 10
118.9763725831031
 20
-146.6539252020518
 30
0.0
 10
118.9763725831031
 20
-146.6539252020518
 30
0.0
 10
118.8282334772374
 20
-146.6539252020518
 30
0.0
 10
118.8282334772374
 20
-146.6539252020518
 30
0.0
 10
118.8134195666508
 20
-146.3218179972737
 30
0.0
 10
118.6504665501985
 20
-146.2753092082228
 30
0.0
 10
118.5364338896367
 20
-146.2456813870497
 30
0.0
 10
118.5364338896367
 20
-146.2456813870497
 30
0.0
 10
118.5364338896367
 20
-146.0996093384751
 30
0.0
 10
118.5364338896367
 20
-146.0996093384751
 30
0.0
 10
118.5364338896367
 20
-146.0996093384751
 30
0.0
 10
120.0805256861257
 20
-146.0996093384751
 30
0.0
 10
120.0805256861257
 20
-146.0996093384751
 30
0.0
 10
120.0805256861257
 20
-146.0996093384751
 30
0.0
 10
120.0805256861257
 20
-146.3238850545649
 30
0.0
 10
120.0805256861257
 20
-146.3238850545649
 30
0.0
  0
HATCH
  5
86
330
81
100
AcDbEntity
  8
_U+30EC_U+30A4_U+30E4_U+30FC 1
 62
   179
420
  2234388
100
AcDbHatch
 10
0.0
 20
0.0
 30
0.0
210
0.0
220
0.0
230
1.0
  2
SOLID
 70
     1
 71
     0
 91
        1
 92
        1
 93
        1
 72
     4
 94
        3
 73
     0
 74
     1
 95
       26
 96
       22
 40
0.0
 40
0.0
 40
0.0
 40
0.0
 40
1.0
 40
1.0
 40
1.0
 40
2.0
 40
2.0
 40
2.0
 40
3.0
 40
3.0
 40
3.0
 40
4.0
 40
4.0
 40
4.0
 40
5.0
 40
5.0
 40
5.0
 40
6.0
 40
6.0
 40
6.0
 40
7.0
 40
7.0
 40
7.0
 40
7.0
 10
120.0805256861257
 20
-146.3238850545649
 10
120.0805256861257
 20
-146.3238850545649
 10
118.9763725831031
 20
-146.3238850545649
 10
118.9763725831031
 20
-146.3238850545649
 10
118.9763725831031
 20
-146.3238850545649
 10
118.9763725831031
 20
-146.6539252020518
 10
118.9763725831031
 20
-146.6539252020518
 10
118.9763725831031
 20
-146.6539252020518
 10
118.8282334772374
 20
-146.6539252020518
 10
118.8282334772374
 20
-146.6539252020518
 10
118.8134195666508
 20
-146.3218179972737
 10
118.6504665501985
 20
-146.2753092082228
 10
118.5364338896367
 20
-146.2456813870497
 10
118.5364338896367
 20
-146.2456813870497
 10
118.5364338896367
 20
-146.0996093384751
 10
118.5364338896367
 20
-146.0996093384751
 10
118.5364338896367
 20
-146.0996093384751
 10
120.0805256861257
 20
-146.0996093384751
 10
120.0805256861257
 20
-146.0996093384751
 10
120.0805256861257
 20
-146.0996093384751
 10
120.0805256861257
 20
-146.3238850545649
 10
120.0805256861257
 20
-146.3238850545649
 97
        0
 97
        0
 75
     2
 76
     1
 98
        0
  0
SPLINE
  5
87
330
81
100
AcDbEntity
  8
_U+30EC_U+30A4_U+30E4_U+30FC 1
370
     0
100
AcDbSpline
210
0.0
220
0.0
230
1.0
 70
    11
 71
     3
 72
    26
 73
    22
 74
     0
 42
0.0000000001
 43
0.0000000001
 12
1.0
 22
0.0
 32
0.0
 13
1.0
 23
0.0
 33
0.0
 40
0.0
 40
0.0
 40
0.0
 40
0.0
 40
1.0
 40
1.0
 40
1.0
 40
2.0
 40
2.0
 40
2.0
 40
3.0
 40
3.0
 40
3.0
 40
4.0
 40
4.0
 40
4.0
 40
5.0
 40
5.0
 40
5.0
 40
6.0
 40
6.0
 40
6.0
 40
7.0
 40
7.0
 40
7.0
 40
7.0
 10
120.0805256861257
 20
-145.1470404368035
 30
0.0
 10
120.0805256861257
 20
-145.1470404368035
 30
0.0
 10
118.9763725831031
 20
-145.1470404368035
 30
0.0
 10
118.9763725831031
 20
-145.1470404368035
 30
0.0
 10
118.9763725831031
 20
-145.1470404368035
 30
0.0
 10
118.9763725831031
 20
-145.4770805842905
 30
0.0
 10
118.9763725831031
 20
-145.4770805842905
 30
0.0
 10
118.9763725831031
 20
-145.4770805842905
 30
0.0
 10
118.8282334772374
 20
-145.4770805842905
 30
0.0
 10
118.8282334772374
 20
-145.4770805842905
 30
0.0
 10
118.8134195666508
 20
-145.1449733795124
 30
0.0
 10
118.6504665501985
 20
-145.0984645904615
 30
0.0
 10
118.5364338896367
 20
-145.0688367692883
 30
0.0
 10
118.5364338896367
 20
-145.0688367692883
 30
0.0
 10
118.5364338896367
 20
-144.9227647207138
 30
0.0
 10
118.5364338896367
 20
-144.9227647207138
 30
0.0
 10
118.5364338896367
 20
-144.9227647207138
 30
0.0
 10
120.0805256861257
 20
-144.9227647207138
 30
0.0
 10
120.0805256861257
 20
-144.9227647207138
 30
0.0
 10
120.0805256861257
 20
-144.9227647207138
 30
0.0
 10
120.0805256861257
 20
-145.1470404368035
 30
0.0
 10
120.0805256861257
 20
-145.1470404368035
 30
0.0
  0
HATCH
  5
88
330
81
100
AcDbEntity
  8
_U+30EC_U+30A4_U+30E4_U+30FC 1
 62
   179
420
  2234388
100
AcDbHatch
 10
0.0
 20
0.0
 30
0.0
210
0.0
220
0.0
230
1.0
  2
SOLID
 70
     1
 71
     0
 91
        1
 92
        1
 93
        1
 72
     4
 94
        3
 73
     0
 74
     1
 95
       26
 96
       22
 40
0.0
 40
0.0
 40
0.0
 40
0.0
 40
1.0
 40
1.0
 40
1.0
 40
2.0
 40
2.0
 40
2.0
 40
3.0
 40
3.0
 40
3.0
 40
4.0
 40
4.0
 40
4.0
 40
5.0
 40
5.0
 40
5.0
 40
6.0
 40
6.0
 40
6.0
 40
7.0
 40
7.0
 40
7.0
 40
7.0
 10
120.0805256861257
 20
-145.1470404368035
 10
120.0805256861257
 20
-145.1470404368035
 10
118.9763725831031
 20
-145.1470404368035
 10
118.9763725831031
 20
-145.1470404368035
 10
118.9763725831031
 20
-145.1470404368035
 10
118.9763725831031
 20
-145.4770805842905
 10
118.9763725831031
 20
-145.4770805842905
 10
118.9763725831031
 20
-145.4770805842905
 10
118.8282334772374
 20
-145.4770805842905
 10
118.8282334772374
 20
-145.4770805842905
 10
118.8134195666508
 20
-145.1449733795124
 10
118.6504665501985
 20
-145.0984645904615
 10
118.5364338896367
 20
-145.0688367692883
 10
118.5364338896367
 20
-145.0688367692883
 10
118.5364338896367
 20
-144.9227647207138
 10
118.5364338896367
 20
-144.9227647207138
 10
118.5364338896367
 20
-144.9227647207138
 10
120.0805256861257
 20
-144.9227647207138
 10
120.0805256861257
 20
-144.9227647207138
 10
120.0805256861257
 20
-144.9227647207138
 10
120.0805256861257
 20
-145.1470404368035
 10
120.0805256861257
 20
-145.1470404368035
 97
        0
 97
        0
 75
     2
 76
     1
 98
        0
  0
POLYLINE
  5
89
330
81
100
AcDbEntity
  8
_U+30EC_U+30A4_U+30E4_U+30FC 1
370
     0
100
AcDb2dPolyline
 66
     1
 10
0.0
 20
0.0
 30
0.0
  0
VERTEX
  5
8A
330
89
100
AcDbEntity
  8
_U+30EC_U+30A4_U+30E4_U+30FC 1
370
     0
100
AcDbVertex
100
AcDb2dVertex
 10
120.0805256861257
 20
-144.3615586661666
 30
0.0
  0
VERTEX
  5
8B
330
89
100
AcDbEntity
  8
_U+30EC_U+30A4_U+30E4_U+30FC 1
370
     0
100
AcDbVertex
100
AcDb2dVertex
 10
119.8290337157025
 20
-144.3615586661666
 30
0.0
  0
VERTEX
  5
8C
330
89
100
AcDbEntity
  8
_U+30EC_U+30A4_U+30E4_U+30FC 1
370
     0
100
AcDbVertex
100
AcDb2dVertex
 10
119.8290337157025
 20
-144.1097221861948
 30
0.0
  0
VERTEX
  5
8D
330
89
100
AcDbEntity
  8
_U+30EC_U+30A4_U+30E4_U+30FC 1
370
     0
100
AcDbVertex
100
AcDb2dVertex
 10
120.0805256861257
 20
-144.1097221861948
 30
0.0
  0
VERTEX
  5
8E
330
89
100
AcDbEntity
  8
_U+30EC_U+30A4_U+30E4_U+30FC 1
370
     0
100
AcDbVertex
100
AcDb2dVertex
 10
120.0805256861257
 20
-144.3615586661666
 30
0.0
  0
SEQEND
  5
8F
330
89
100
AcDbEntity
  8
_U+30EC_U+30A4_U+30E4_U+30FC 1
370
     0
  0
HATCH
  5
90
330
81
100
AcDbEntity
  8
_U+30EC_U+30A4_U+30E4_U+30FC 1
 62
   179
420
  2234388
100
AcDbHatch
 10
0.0
 20
0.0
 30
0.0
210
0.0
220
0.0
230
1.0
  2
SOLID
 70
     1
 71
     0
 91
        1
 92
        1
 93
        4
 72
     1
 10
120.0805256861257
 20
-144.3615586661666
 11
119.8290337157025
 21
-144.3615586661666
 72
     1
 10
119.8290337157025
 20
-144.3615586661666
 11
119.8290337157025
 21
-144.1097221861948
 72
     1
 10
119.8290337157025
 20
-144.1097221861948
 11
120.0805256861257
 21
-144.1097221861948
 72
     1
 10
120.0805256861257
 20
-144.1097221861948
 11
120.0805256861257
 21
-144.3615586661666
 97
        0
 75
     2
 76
     1
 98
        0
  0
SPLINE
  5
91
330
81
100
AcDbEntity
  8
_U+30EC_U+30A4_U+30E4_U+30FC 1
370
     0
100
AcDbSpline
210
0.0
220
0.0
230
1.0
 70
    11
 71
     3
 72
    44
 73
    40
 74
     0
 42
0.0000000001
 43
0.0000000001
 12
1.0
 22
0.0
 32
0.0
 13
1.0
 23
0.0
 33
0.0
 40
0.0
 40
0.0
 40
0.0
 40
0.0
 40
1.0
 40
1.0
 40
1.0
 40
2.0
 40
2.0
 40
2.0
 40
3.0
 40
3.0
 40
3.0
 40
4.0
 40
4.0
 40
4.0
 40
5.0
 40
5.0
 40
5.0
 40
6.0
 40
6.0
 40
6.0
 40
7.0
 40
7.0
 40
7.0
 40
8.0
 40
8.0
 40
8.0
 40
9.0
 40
9.0
 40
9.0
 40
10.0
 40
10.0
 40
10.0
 40
11.0
 40
11.0
 40
11.0
 40
12.0
 40
12.0
 40
12.0
 40
13.0
 40
13.0
 40
13.0
 40
13.0
 10
119.4989935682155
 20
-143.2804877028952
 30
0.0
 10
119.657467960537
 20
-143.498217737563
 30
0.0
 10
119.7315375134699
 20
-143.5912353156647
 30
0.0
 10
119.8755425047533
 20
-143.6401556715552
 30
0.0
 10
119.8755425047533
 20
-143.6401556715552
 30
0.0
 10
119.8755425047533
 20
-142.8615640918888
 30
0.0
 10
119.8755425047533
 20
-142.8615640918888
 30
0.0
 10
119.8755425047533
 20
-142.8615640918888
 30
0.0
 10
120.0805256861257
 20
-142.8615640918888
 30
0.0
 10
120.0805256861257
 20
-142.8615640918888
 30
0.0
 10
120.0805256861257
 20
-142.8615640918888
 30
0.0
 10
120.0805256861257
 20
-143.8895805846873
 30
0.0
 10
120.0805256861257
 20
-143.8895805846873
 30
0.0
 10
119.7229247747568
 20
-143.857885706223
 30
0.0
 10
119.6447211072416
 20
-143.7924288920033
 30
0.0
 10
119.346375838219
 20
-143.4072672167524
 30
0.0
 10
119.14759382872
 20
-143.1512966221983
 30
0.0
 10
119.0800699572092
 20
-143.0858398079785
 30
0.0
 10
118.9426106473477
 20
-143.0858398079785
 30
0.0
 10
118.8240993626551
 20
-143.0858398079785
 30
0.0
 10
118.6928412246671
 20
-143.1578423036203
 30
0.0
 10
118.6928412246671
 20
-143.354557255828
 30
0.0
 10
118.6928412246671
 20
-143.6146619649644
 30
0.0
 10
118.9233181126303
 20
-143.6232747036775
 30
0.0
 10
119.0397623400317
 20
-143.6274088182598
 30
0.0
 10
119.0397623400317
 20
-143.6274088182598
 30
0.0
 10
119.0397623400317
 20
-143.8516845343496
 30
0.0
 10
119.0397623400317
 20
-143.8516845343496
 30
0.0
 10
118.9129828261745
 20
-143.8430717956365
 30
0.0
 10
118.8006727133554
 20
-143.8323919996322
 30
0.0
 10
118.6821614286628
 20
-143.7521212748259
 30
0.0
 10
118.5216199790502
 20
-143.6422227288464
 30
0.0
 10
118.4875135337462
 20
-143.4558430630944
 30
0.0
 10
118.4875135337462
 20
-143.3397433452415
 30
0.0
 10
118.4875135337462
 20
-143.0624131586789
 30
0.0
 10
118.6718261422071
 20
-142.8550184104668
 30
0.0
 10
118.9446777046388
 20
-142.8550184104668
 30
0.0
 10
119.1730875353109
 20
-142.8550184104668
 30
0.0
 10
119.2726507948346
 20
-142.9714626378683
 30
0.0
 10
119.4989935682155
 20
-143.2804877028952
 30
0.0
  0
HATCH
  5
92
330
81
100
AcDbEntity
  8
_U+30EC_U+30A4_U+30E4_U+30FC 1
 62
   179
420
  2234388
100
AcDbHatch
 10
0.0
 20
0.0
 30
0.0
210
0.0
220
0.0
230
1.0
  2
SOLID
 70
     1
 71
     0
 91
        1
 92
        1
 93
        1
 72
     4
 94
        3
 73
     0
 74
     1
 95
       44
 96
       40
 40
0.0
 40
0.0
 40
0.0
 40
0.0
 40
1.0
 40
1.0
 40
1.0
 40
2.0
 40
2.0
 40
2.0
 40
3.0
 40
3.0
 40
3.0
 40
4.0
 40
4.0
 40
4.0
 40
5.0
 40
5.0
 40
5.0
 40
6.0
 40
6.0
 40
6.0
 40
7.0
 40
7.0
 40
7.0
 40
8.0
 40
8.0
 40
8.0
 40
9.0
 40
9.0
 40
9.0
 40
10.0
 40
10.0
 40
10.0
 40
11.0
 40
11.0
 40
11.0
 40
12.0
 40
12.0
 40
12.0
 40
13.0
 40
13.0
 40
13.0
 40
13.0
 10
119.4989935682155
 20
-143.2804877028952
 10
119.657467960537
 20
-143.498217737563
 10
119.7315375134699
 20
-143.5912353156647
 10
119.8755425047533
 20
-143.6401556715552
 10
119.8755425047533
 20
-143.6401556715552
 10
119.8755425047533
 20
-142.8615640918888
 10
119.8755425047533
 20
-142.8615640918888
 10
119.8755425047533
 20
-142.8615640918888
 10
120.0805256861257
 20
-142.8615640918888
 10
120.0805256861257
 20
-142.8615640918888
 10
120.0805256861257
 20
-142.8615640918888
 10
120.0805256861257
 20
-143.8895805846873
 10
120.0805256861257
 20
-143.8895805846873
 10
119.7229247747568
 20
-143.857885706223
 10
119.6447211072416
 20
-143.7924288920033
 10
119.346375838219
 20
-143.4072672167524
 10
119.14759382872
 20
-143.1512966221983
 10
119.0800699572092
 20
-143.0858398079785
 10
118.9426106473477
 20
-143.0858398079785
 10
118.8240993626551
 20
-143.0858398079785
 10
118.6928412246671
 20
-143.1578423036203
 10
118.6928412246671
 20
-143.354557255828
 10
118.6928412246671
 20
-143.6146619649644
 10
118.9233181126303
 20
-143.6232747036775
 10
119.0397623400317
 20
-143.6274088182598
 10
119.0397623400317
 20
-143.6274088182598
 10
119.0397623400317
 20
-143.8516845343496
 10
119.0397623400317
 20
-143.8516845343496
 10
118.9129828261745
 20
-143.8430717956365
 10
118.8006727133554
 20
-143.8323919996322
 10
118.6821614286628
 20
-143.7521212748259
 10
118.5216199790502
 20
-143.6422227288464
 10
118.4875135337462
 20
-143.4558430630944
 10
118.4875135337462
 20
-143.3397433452415
 10
118.4875135337462
 20
-143.0624131586789
 10
118.6718261422071
 20
-142.8550184104668
 10
118.9446777046388
 20
-142.8550184104668
 10
119.1730875353109
 20
-142.8550184104668
 10
119.2726507948346
 20
-142.9714626378683
 10
119.4989935682155
 20
-143.2804877028952
 97
        0
 97
        0
 75
     2
 76
     1
 98
        0
  0
ENDBLK
  5
84
330
81
100
AcDbEntity
  8
0
100
AcDbBlockEnd
  0
BLOCK
  5
95
330
93
100
AcDbEntity
  8
0
100
AcDbBlockBegin
  2
block 4
 70
     0
 10
0.0
 20
0.0
 30
0.0
  3
block 4
  1

  0
SPLINE
  5
97
330
93
100
AcDbEntity
  8
_U+30EC_U+30A4_U+30E4_U+30FC 1
370
     0
100
AcDbSpline
210
0.0
220
0.0
230
1.0
 70
    11
 71
     3
 72
    29
 73
    25
 74
     0
 42
0.0000000001
 43
0.0000000001
 12
1.0
 22
0.0
 32
0.0
 13
1.0
 23
0.0
 33
0.0
 40
0.0
 40
0.0
 40
0.0
 40
0.0
 40
1.0
 40
1.0
 40
1.0
 40
2.0
 40
2.0
 40
2.0
 40
3.0
 40
3.0
 40
3.0
 40
4.0
 40
4.0
 40
4.0
 40
5.0
 40
5.0
 40
5.0
 40
6.0
 40
6.0
 40
6.0
 40
7.0
 40
7.0
 40
7.0
 40
8.0
 40
8.0
 40
8.0
 40
8.0
 10
120.1315130993074
 20
-139.1443060633042
 30
0.0
 10
120.1315130993074
 20
-139.4109564538626
 30
0.0
 10
119.9937092798974
 20
-139.6645154815769
 30
0.0
 10
119.6447211072416
 20
-139.6645154815769
 30
0.0
 10
119.3887505126875
 20
-139.6645154815769
 30
0.0
 10
119.2936658772946
 20
-139.5229220571332
 30
0.0
 10
119.2323431776572
 20
-139.417157625736
 30
0.0
 10
119.1730875353109
 20
-139.541870082302
 30
0.0
 10
119.0587103652006
 20
-139.6180066925261
 30
0.0
 10
118.898168915588
 20
-139.6180066925261
 30
0.0
 10
118.6229057863165
 20
-139.6180066925261
 30
0.0
 10
118.4875135337462
 20
-139.4192246830272
 30
0.0
 10
118.4875135337462
 20
-139.1443060633042
 30
0.0
 10
118.4875135337462
 20
-138.8607747048681
 30
0.0
 10
118.6315185250296
 20
-138.6702609245338
 30
0.0
 10
118.898168915588
 20
-138.6702609245338
 30
0.0
 10
119.0587103652006
 20
-138.6702609245338
 30
0.0
 10
119.1730875353109
 20
-138.7488091015975
 30
0.0
 10
119.2323431776572
 20
-138.8735215581636
 30
0.0
 10
119.2829860812904
 20
-138.7846380946441
 30
0.0
 10
119.3784152262318
 20
-138.6258191927741
 30
0.0
 10
119.6405869926593
 20
-138.6258191927741
 30
0.0
 10
120.015068871906
 20
-138.6258191927741
 30
0.0
 10
120.1315130993074
 20
-138.9052164366279
 30
0.0
 10
120.1315130993074
 20
-139.1443060633042
 30
0.0
  0
SPLINE
  5
98
330
93
100
AcDbEntity
  8
_U+30EC_U+30A4_U+30E4_U+30FC 1
370
     0
100
AcDbSpline
210
0.0
220
0.0
230
1.0
 70
    11
 71
     3
 72
    17
 73
    13
 74
     0
 42
0.0000000001
 43
0.0000000001
 12
1.0
 22
0.0
 32
0.0
 13
1.0
 23
0.0
 33
0.0
 40
0.0
 40
0.0
 40
0.0
 40
0.0
 40
1.0
 40
1.0
 40
1.0
 40
2.0
 40
2.0
 40
2.0
 40
3.0
 40
3.0
 40
3.0
 40
4.0
 40
4.0
 40
4.0
 40
4.0
 10
118.6800943713717
 20
-139.1443060633042
 30
0.0
 10
118.6800943713717
 20
-139.3093261370477
 30
0.0
 10
118.7751790067645
 20
-139.3937309764363
 30
0.0
 10
118.9105712593349
 20
-139.3937309764363
 30
0.0
 10
119.0335611681583
 20
-139.3937309764363
 30
0.0
 10
119.1520724528509
 20
-139.3220729903431
 30
0.0
 10
119.1520724528509
 20
-139.1443060633042
 30
0.0
 10
119.1520724528509
 20
-138.9665391362653
 30
0.0
 10
119.0335611681583
 20
-138.8945366406236
 30
0.0
 10
118.9105712593349
 20
-138.8945366406236
 30
0.0
 10
118.7751790067645
 20
-138.8945366406236
 30
0.0
 10
118.6800943713717
 20
-138.9813530468519
 30
0.0
 10
118.6800943713717
 20
-139.1443060633042
 30
0.0
  0
SPLINE
  5
99
330
93
100
AcDbEntity
  8
_U+30EC_U+30A4_U+30E4_U+30FC 1
370
     0
100
AcDbSpline
210
0.0
220
0.0
230
1.0
 70
    11
 71
     3
 72
    17
 73
    13
 74
     0
 42
0.0000000001
 43
0.0000000001
 12
1.0
 22
0.0
 32
0.0
 13
1.0
 23
0.0
 33
0.0
 40
0.0
 40
0.0
 40
0.0
 40
0.0
 40
1.0
 40
1.0
 40
1.0
 40
2.0
 40
2.0
 40
2.0
 40
3.0
 40
3.0
 40
3.0
 40
4.0
 40
4.0
 40
4.0
 40
4.0
 10
119.3401746663455
 20
-139.1443060633042
 30
0.0
 10
119.3401746663455
 20
-139.2879665450391
 30
0.0
 10
119.4269910725738
 20
-139.4405842750357
 30
0.0
 10
119.629907196655
 20
-139.4405842750357
 30
0.0
 10
119.8352348875759
 20
-139.4405842750357
 30
0.0
 10
119.9368652043908
 20
-139.31346025163
 30
0.0
 10
119.9368652043908
 20
-139.1443060633042
 30
0.0
 10
119.9368652043908
 20
-138.9582709071007
 30
0.0
 10
119.8142198051159
 20
-138.8480278515727
 30
0.0
 10
119.636452878077
 20
-138.8480278515727
 30
0.0
 10
119.4142442192784
 20
-138.8480278515727
 30
0.0
 10
119.3401746663455
 20
-139.010980868025
 30
0.0
 10
119.3401746663455
 20
-139.1443060633042
 30
0.0
  0
HATCH
  5
9A
330
93
100
AcDbEntity
  8
_U+30EC_U+30A4_U+30E4_U+30FC 1
 62
   179
420
  2234388
100
AcDbHatch
 10
0.0
 20
0.0
 30
0.0
210
0.0
220
0.0
230
1.0
  2
SOLID
 70
     1
 71
     0
 91
        3
 92
        1
 93
        1
 72
     4
 94
        3
 73
     0
 74
     1
 95
       29
 96
       25
 40
0.0
 40
0.0
 40
0.0
 40
0.0
 40
1.0
 40
1.0
 40
1.0
 40
2.0
 40
2.0
 40
2.0
 40
3.0
 40
3.0
 40
3.0
 40
4.0
 40
4.0
 40
4.0
 40
5.0
 40
5.0
 40
5.0
 40
6.0
 40
6.0
 40
6.0
 40
7.0
 40
7.0
 40
7.0
 40
8.0
 40
8.0
 40
8.0
 40
8.0
 10
120.1315130993074
 20
-139.1443060633042
 10
120.1315130993074
 20
-139.4109564538626
 10
119.9937092798974
 20
-139.6645154815769
 10
119.6447211072416
 20
-139.6645154815769
 10
119.3887505126875
 20
-139.6645154815769
 10
119.2936658772946
 20
-139.5229220571332
 10
119.2323431776572
 20
-139.417157625736
 10
119.1730875353109
 20
-139.541870082302
 10
119.0587103652006
 20
-139.6180066925261
 10
118.898168915588
 20
-139.6180066925261
 10
118.6229057863165
 20
-139.6180066925261
 10
118.4875135337462
 20
-139.4192246830272
 10
118.4875135337462
 20
-139.1443060633042
 10
118.4875135337462
 20
-138.8607747048681
 10
118.6315185250296
 20
-138.6702609245338
 10
118.898168915588
 20
-138.6702609245338
 10
119.0587103652006
 20
-138.6702609245338
 10
119.1730875353109
 20
-138.7488091015975
 10
119.2323431776572
 20
-138.8735215581636
 10
119.2829860812904
 20
-138.7846380946441
 10
119.3784152262318
 20
-138.6258191927741
 10
119.6405869926593
 20
-138.6258191927741
 10
120.015068871906
 20
-138.6258191927741
 10
120.1315130993074
 20
-138.9052164366279
 10
120.1315130993074
 20
-139.1443060633042
 97
        0
 97
        0
 92
        1
 93
        1
 72
     4
 94
        3
 73
     0
 74
     1
 95
       17
 96
       13
 40
0.0
 40
0.0
 40
0.0
 40
0.0
 40
1.0
 40
1.0
 40
1.0
 40
2.0
 40
2.0
 40
2.0
 40
3.0
 40
3.0
 40
3.0
 40
4.0
 40
4.0
 40
4.0
 40
4.0
 10
118.6800943713717
 20
-139.1443060633042
 10
118.6800943713717
 20
-139.3093261370477
 10
118.7751790067645
 20
-139.3937309764363
 10
118.9105712593349
 20
-139.3937309764363
 10
119.0335611681583
 20
-139.3937309764363
 10
119.1520724528509
 20
-139.3220729903431
 10
119.1520724528509
 20
-139.1443060633042
 10
119.1520724528509
 20
-138.9665391362653
 10
119.0335611681583
 20
-138.8945366406236
 10
118.9105712593349
 20
-138.8945366406236
 10
118.7751790067645
 20
-138.8945366406236
 10
118.6800943713717
 20
-138.9813530468519
 10
118.6800943713717
 20
-139.1443060633042
 97
        0
 97
        0
 92
        1
 93
        1
 72
     4
 94
        3
 73
     0
 74
     1
 95
       17
 96
       13
 40
0.0
 40
0.0
 40
0.0
 40
0.0
 40
1.0
 40
1.0
 40
1.0
 40
2.0
 40
2.0
 40
2.0
 40
3.0
 40
3.0
 40
3.0
 40
4.0
 40
4.0
 40
4.0
 40
4.0
 10
119.3401746663455
 20
-139.1443060633042
 10
119.3401746663455
 20
-139.2879665450391
 10
119.4269910725738
 20
-139.4405842750357
 10
119.629907196655
 20
-139.4405842750357
 10
119.8352348875759
 20
-139.4405842750357
 10
119.9368652043908
 20
-139.31346025163
 10
119.9368652043908
 20
-139.1443060633042
 10
119.9368652043908
 20
-138.9582709071007
 10
119.8142198051159
 20
-138.8480278515727
 10
119.636452878077
 20
-138.8480278515727
 10
119.4142442192784
 20
-138.8480278515727
 10
119.3401746663455
 20
-139.010980868025
 10
119.3401746663455
 20
-139.1443060633042
 97
        0
 97
        0
 75
     2
 76
     1
 98
        0
  0
POLYLINE
  5
9B
330
93
100
AcDbEntity
  8
_U+30EC_U+30A4_U+30E4_U+30FC 1
370
     0
100
AcDb2dPolyline
 66
     1
 10
0.0
 20
0.0
 30
0.0
  0
VERTEX
  5
9C
330
9B
100
AcDbEntity
  8
_U+30EC_U+30A4_U+30E4_U+30FC 1
370
     0
100
AcDbVertex
100
AcDb2dVertex
 10
120.0805256861257
 20
-138.4074001390093
 30
0.0
  0
VERTEX
  5
9D
330
9B
100
AcDbEntity
  8
_U+30EC_U+30A4_U+30E4_U+30FC 1
370
     0
100
AcDbVertex
100
AcDb2dVertex
 10
119.8290337157025
 20
-138.4074001390093
 30
0.0
  0
VERTEX
  5
9E
330
9B
100
AcDbEntity
  8
_U+30EC_U+30A4_U+30E4_U+30FC 1
370
     0
100
AcDbVertex
100
AcDb2dVertex
 10
119.8290337157025
 20
-138.1555636590375
 30
0.0
  0
VERTEX
  5
9F
330
9B
100
AcDbEntity
  8
_U+30EC_U+30A4_U+30E4_U+30FC 1
370
     0
100
AcDbVertex
100
AcDb2dVertex
 10
120.0805256861257
 20
-138.1555636590375
 30
0.0
  0
VERTEX
  5
A0
330
9B
100
AcDbEntity
  8
_U+30EC_U+30A4_U+30E4_U+30FC 1
370
     0
100
AcDbVertex
100
AcDb2dVertex
 10
120.0805256861257
 20
-138.4074001390093
 30
0.0
  0
SEQEND
  5
A1
330
9B
100
AcDbEntity
  8
_U+30EC_U+30A4_U+30E4_U+30FC 1
370
     0
  0
HATCH
  5
A2
330
93
100
AcDbEntity
  8
_U+30EC_U+30A4_U+30E4_U+30FC 1
 62
   179
420
  2234388
100
AcDbHatch
 10
0.0
 20
0.0
 30
0.0
210
0.0
220
0.0
230
1.0
  2
SOLID
 70
     1
 71
     0
 91
        1
 92
        1
 93
        4
 72
     1
 10
120.0805256861257
 20
-138.4074001390093
 11
119.8290337157025
 21
-138.4074001390093
 72
     1
 10
119.8290337157025
 20
-138.4074001390093
 11
119.8290337157025
 21
-138.1555636590375
 72
     1
 10
119.8290337157025
 20
-138.1555636590375
 11
120.0805256861257
 21
-138.1555636590375
 72
     1
 10
120.0805256861257
 20
-138.1555636590375
 11
120.0805256861257
 21
-138.4074001390093
 97
        0
 75
     2
 76
     1
 98
        0
  0
SPLINE
  5
A3
330
93
100
AcDbEntity
  8
_U+30EC_U+30A4_U+30E4_U+30FC 1
370
     0
100
AcDbSpline
210
0.0
220
0.0
230
1.0
 70
    11
 71
     3
 72
    53
 73
    49
 74
     0
 42
0.0000000001
 43
0.0000000001
 12
1.0
 22
0.0
 32
0.0
 13
1.0
 23
0.0
 33
0.0
 40
0.0
 40
0.0
 40
0.0
 40
0.0
 40
1.0
 40
1.0
 40
1.0
 40
2.0
 40
2.0
 40
2.0
 40
3.0
 40
3.0
 40
3.0
 40
4.0
 40
4.0
 40
4.0
 40
5.0
 40
5.0
 40
5.0
 40
6.0
 40
6.0
 40
6.0
 40
7.0
 40
7.0
 40
7.0
 40
8.0
 40
8.0
 40
8.0
 40
9.0
 40
9.0
 40
9.0
 40
10.0
 40
10.0
 40
10.0
 40
11.0
 40
11.0
 40
11.0
 40
12.0
 40
12.0
 40
12.0
 40
13.0
 40
13.0
 40
13.0
 40
14.0
 40
14.0
 40
14.0
 40
15.0
 40
15.0
 40
15.0
 40
16.0
 40
16.0
 40
16.0
 40
16.0
 10
120.1315130993074
 20
-137.4382947790085
 30
0.0
 10
120.1315130993074
 20
-137.5164984465237
 30
0.0
 10
120.1142876218812
 20
-137.6181287633385
 30
0.0
 10
120.0508978649526
 20
-137.7197590801534
 30
0.0
 10
119.9409993189731
 20
-137.8930473830615
 30
0.0
 10
119.8097411809851
 20
-137.91440697507
 30
0.0
 10
119.7019096922968
 20
-137.9333550002389
 30
0.0
 10
119.7019096922968
 20
-137.9333550002389
 30
0.0
 10
119.7019096922968
 20
-137.7111463414403
 30
0.0
 10
119.7019096922968
 20
-137.7111463414403
 30
0.0
 10
119.9006917017957
 20
-137.6563693232248
 30
0.0
 10
119.9303195229688
 20
-137.5292452998191
 30
0.0
 10
119.9303195229688
 20
-137.4362277217173
 30
0.0
 10
119.9303195229688
 20
-137.2967013545647
 30
0.0
 10
119.8311007729936
 20
-137.1444281341167
 30
0.0
 10
119.5982123181907
 20
-137.1444281341167
 30
0.0
 10
119.3422417236367
 20
-137.1444281341167
 30
0.0
 10
119.2726507948346
 20
-137.3242621184467
 30
0.0
 10
119.2726507948346
 20
-137.4448404604305
 30
0.0
 10
119.2726507948346
 20
-137.4765353388948
 30
0.0
 10
119.2726507948346
 20
-137.6181287633385
 30
0.0
 10
119.401497365983
 20
-137.707012226858
 30
0.0
 10
119.401497365983
 20
-137.707012226858
 30
0.0
 10
119.3825493408141
 20
-137.8827120966057
 30
0.0
 10
119.3825493408141
 20
-137.8827120966057
 30
0.0
 10
119.3825493408141
 20
-137.8827120966057
 30
0.0
 10
118.5364338896367
 20
-137.762133754622
 30
0.0
 10
118.5364338896367
 20
-137.762133754622
 30
0.0
 10
118.5364338896367
 20
-137.762133754622
 30
0.0
 10
118.5364338896367
 20
-136.9835421749555
 30
0.0
 10
118.5364338896367
 20
-136.9835421749555
 30
0.0
 10
118.5364338896367
 20
-136.9835421749555
 30
0.0
 10
118.7310817845533
 20
-136.9835421749555
 30
0.0
 10
118.7310817845533
 20
-136.9835421749555
 30
0.0
 10
118.7310817845533
 20
-136.9835421749555
 30
0.0
 10
118.7310817845533
 20
-137.5991807381697
 30
0.0
 10
118.7310817845533
 20
-137.5991807381697
 30
0.0
 10
118.7310817845533
 20
-137.5991807381697
 30
0.0
 10
119.154139510142
 20
-137.6646375523894
 30
0.0
 10
119.154139510142
 20
-137.6646375523894
 30
0.0
 10
119.1200330648381
 20
-137.603314852752
 30
0.0
 10
119.0800699572092
 20
-137.5209770706545
 30
0.0
 10
119.0800699572092
 20
-137.4024657859619
 30
0.0
 10
119.0800699572092
 20
-137.148562248699
 30
0.0
 10
119.2661051134126
 20
-136.9115396793138
 30
0.0
 10
119.5792642930219
 20
-136.9115396793138
 30
0.0
 10
119.8965575872134
 20
-136.9115396793138
 30
0.0
 10
120.1315130993074
 20
-137.1358153954035
 30
0.0
 10
120.1315130993074
 20
-137.4382947790085
 30
0.0
  0
HATCH
  5
A4
330
93
100
AcDbEntity
  8
_U+30EC_U+30A4_U+30E4_U+30FC 1
 62
   179
420
  2234388
100
AcDbHatch
 10
0.0
 20
0.0
 30
0.0
210
0.0
220
0.0
230
1.0
  2
SOLID
 70
     1
 71
     0
 91
        1
 92
        1
 93
        1
 72
     4
 94
        3
 73
     0
 74
     1
 95
       53
 96
       49
 40
0.0
 40
0.0
 40
0.0
 40
0.0
 40
1.0
 40
1.0
 40
1.0
 40
2.0
 40
2.0
 40
2.0
 40
3.0
 40
3.0
 40
3.0
 40
4.0
 40
4.0
 40
4.0
 40
5.0
 40
5.0
 40
5.0
 40
6.0
 40
6.0
 40
6.0
 40
7.0
 40
7.0
 40
7.0
 40
8.0
 40
8.0
 40
8.0
 40
9.0
 40
9.0
 40
9.0
 40
10.0
 40
10.0
 40
10.0
 40
11.0
 40
11.0
 40
11.0
 40
12.0
 40
12.0
 40
12.0
 40
13.0
 40
13.0
 40
13.0
 40
14.0
 40
14.0
 40
14.0
 40
15.0
 40
15.0
 40
15.0
 40
16.0
 40
16.0
 40
16.0
 40
16.0
 10
120.1315130993074
 20
-137.4382947790085
 10
120.1315130993074
 20
-137.5164984465237
 10
120.1142876218812
 20
-137.6181287633385
 10
120.0508978649526
 20
-137.7197590801534
 10
119.9409993189731
 20
-137.8930473830615
 10
119.8097411809851
 20
-137.91440697507
 10
119.7019096922968
 20
-137.9333550002389
 10
119.7019096922968
 20
-137.9333550002389
 10
119.7019096922968
 20
-137.7111463414403
 10
119.7019096922968
 20
-137.7111463414403
 10
119.9006917017957
 20
-137.6563693232248
 10
119.9303195229688
 20
-137.5292452998191
 10
119.9303195229688
 20
-137.4362277217173
 10
119.9303195229688
 20
-137.2967013545647
 10
119.8311007729936
 20
-137.1444281341167
 10
119.5982123181907
 20
-137.1444281341167
 10
119.3422417236367
 20
-137.1444281341167
 10
119.2726507948346
 20
-137.3242621184467
 10
119.2726507948346
 20
-137.4448404604305
 10
119.2726507948346
 20
-137.4765353388948
 10
119.2726507948346
 20
-137.6181287633385
 10
119.401497365983
 20
-137.707012226858
 10
119.401497365983
 20
-137.707012226858
 10
119.3825493408141
 20
-137.8827120966057
 10
119.3825493408141
 20
-137.8827120966057
 10
119.3825493408141
 20
-137.8827120966057
 10
118.5364338896367
 20
-137.762133754622
 10
118.5364338896367
 20
-137.762133754622
 10
118.5364338896367
 20
-137.762133754622
 10
118.5364338896367
 20
-136.9835421749555
 10
118.5364338896367
 20
-136.9835421749555
 10
118.5364338896367
 20
-136.9835421749555
 10
118.7310817845533
 20
-136.9835421749555
 10
118.7310817845533
 20
-136.9835421749555
 10
118.7310817845533
 20
-136.9835421749555
 10
118.7310817845533
 20
-137.5991807381697
 10
118.7310817845533
 20
-137.5991807381697
 10
118.7310817845533
 20
-137.5991807381697
 10
119.154139510142
 20
-137.6646375523894
 10
119.154139510142
 20
-137.6646375523894
 10
119.1200330648381
 20
-137.603314852752
 10
119.0800699572092
 20
-137.5209770706545
 10
119.0800699572092
 20
-137.4024657859619
 10
119.0800699572092
 20
-137.148562248699
 10
119.2661051134126
 20
-136.9115396793138
 10
119.5792642930219
 20
-136.9115396793138
 10
119.8965575872134
 20
-136.9115396793138
 10
120.1315130993074
 20
-137.1358153954035
 10
120.1315130993074
 20
-137.4382947790085
 97
        0
 97
        0
 75
     2
 76
     1
 98
        0
  0
ENDBLK
  5
96
330
93
100
AcDbEntity
  8
0
100
AcDbBlockEnd
  0
BLOCK
  5
A7
330
A5
100
AcDbEntity
  8
0
100
AcDbBlockBegin
  2
block 5
 70
     0
 10
0.0
 20
0.0
 30
0.0
  3
block 5
  1

  0
SPLINE
  5
A9
330
A5
100
AcDbEntity
  8
_U+30EC_U+30A4_U+30E4_U+30FC 1
370
     0
100
AcDbSpline
210
0.0
220
0.0
230
1.0
 70
    11
 71
     3
 72
    62
 73
    58
 74
     0
 42
0.0000000001
 43
0.0000000001
 12
1.0
 22
0.0
 32
0.0
 13
1.0
 23
0.0
 33
0.0
 40
0.0
 40
0.0
 40
0.0
 40
0.0
 40
1.0
 40
1.0
 40
1.0
 40
2.0
 40
2.0
 40
2.0
 40
3.0
 40
3.0
 40
3.0
 40
4.0
 40
4.0
 40
4.0
 40
5.0
 40
5.0
 40
5.0
 40
6.0
 40
6.0
 40
6.0
 40
7.0
 40
7.0
 40
7.0
 40
8.0
 40
8.0
 40
8.0
 40
9.0
 40
9.0
 40
9.0
 40
10.0
 40
10.0
 40
10.0
 40
11.0
 40
11.0
 40
11.0
 40
12.0
 40
12.0
 40
12.0
 40
13.0
 40
13.0
 40
13.0
 40
14.0
 40
14.0
 40
14.0
 40
15.0
 40
15.0
 40
15.0
 40
16.0
 40
16.0
 40
16.0
 40
17.0
 40
17.0
 40
17.0
 40
18.0
 40
18.0
 40
18.0
 40
19.0
 40
19.0
 40
19.0
 40
19.0
 10
100.261924888129
 20
-151.7278618327278
 30
0.0
 10
100.261924888129
 20
-151.8232909776692
 30
0.0
 10
100.2409098056689
 20
-152.041021012337
 30
0.0
 10
100.0548746494654
 20
-152.165733468903
 30
0.0
 10
99.9425645366463
 20
-152.2398030218359
 30
0.0
 10
99.84334578667111
 20
-152.2442816459667
 30
0.0
 10
99.75859643773397
 20
-152.248415760549
 30
0.0
 10
99.75859643773397
 20
-152.248415760549
 30
0.0
 10
99.75859643773397
 20
-152.0282741590416
 30
0.0
 10
99.75859643773397
 20
-152.0282741590416
 30
0.0
 10
99.83266599066684
 20
-152.0262071017504
 30
0.0
 10
100.0672769932123
 20
-152.0155273057461
 30
0.0
 10
100.0672769932123
 20
-151.7319959473101
 30
0.0
 10
100.0672769932123
 20
-151.5945366374486
 30
0.0
 10
99.9976860644103
 20
-151.4422634170006
 30
0.0
 10
99.76927623373824
 20
-151.4422634170006
 30
0.0
 10
99.6528320063368
 20
-151.4422634170006
 30
0.0
 10
99.60425615999478
 20
-151.4801594673383
 30
0.0
 10
99.57256128153047
 20
-151.5118543458026
 30
0.0
 10
99.4984917285976
 20
-151.586268408284
 30
0.0
 10
99.48574487530217
 20
-151.7027126356854
 30
0.0
 10
99.48574487530217
 20
-151.7574896539009
 30
0.0
 10
99.48574487530217
 20
-151.7764376790698
 30
0.0
 10
99.48781193259333
 20
-151.8122666721164
 30
0.0
 10
99.49194604717563
 20
-151.8398274359984
 30
0.0
 10
99.49194604717563
 20
-151.8398274359984
 30
0.0
 10
99.29729815225902
 20
-151.8398274359984
 30
0.0
 10
99.29729815225902
 20
-151.8398274359984
 30
0.0
 10
99.30384383368099
 20
-151.8019313856606
 30
0.0
 10
99.30591089097214
 20
-151.7595567111921
 30
0.0
 10
99.30591089097214
 20
-151.7530110297701
 30
0.0
 10
99.30591089097214
 20
-151.6875542155503
 30
0.0
 10
99.28455129896359
 20
-151.4887722060514
 30
0.0
 10
99.04787323912693
 20
-151.4887722060514
 30
0.0
 10
98.87010631208804
 20
-151.4887722060514
 30
0.0
 10
98.81498478432404
 20
-151.6200303440394
 30
0.0
 10
98.81498478432404
 20
-151.7299288900189
 30
0.0
 10
98.81498478432404
 20
-151.9941677137376
 30
0.0
 10
99.04787323912693
 20
-152.0027804524507
 30
0.0
 10
99.11953122522011
 20
-152.0072590765815
 30
0.0
 10
99.11953122522011
 20
-152.0072590765815
 30
0.0
 10
99.11953122522011
 20
-152.2101752006627
 30
0.0
 10
99.11953122522011
 20
-152.2101752006627
 30
0.0
 10
98.99481876865407
 20
-152.2015624619496
 30
0.0
 10
98.61826983211627
 20
-152.1740016980676
 30
0.0
 10
98.61826983211627
 20
-151.7171820367235
 30
0.0
 10
98.61826983211627
 20
-151.4932508301823
 30
0.0
 10
98.745393855522
 20
-151.2520941462148
 30
0.0
 10
99.04132755770495
 20
-151.2520941462148
 30
0.0
 10
99.22770722345696
 20
-151.2520941462148
 30
0.0
 10
99.31004500555444
 20
-151.3471787816077
 30
0.0
 10
99.37136770519189
 20
-151.4463975315828
 30
0.0
 10
99.39892846907388
 20
-151.3850748319454
 30
0.0
 10
99.4791991938802
 20
-151.2031737903242
 30
0.0
 10
99.75652938044281
 20
-151.2031737903242
 30
0.0
 10
100.0948377570944
 20
-151.2031737903242
 30
0.0
 10
100.261924888129
 20
-151.4505316461652
 30
0.0
 10
100.261924888129
 20
-151.7278618327278
 30
0.0
  0
HATCH
  5
AA
330
A5
100
AcDbEntity
  8
_U+30EC_U+30A4_U+30E4_U+30FC 1
 62
   179
420
  2234388
100
AcDbHatch
 10
0.0
 20
0.0
 30
0.0
210
0.0
220
0.0
230
1.0
  2
SOLID
 70
     1
 71
     0
 91
        1
 92
        1
 93
        1
 72
     4
 94
        3
 73
     0
 74
     1
 95
       62
 96
       58
 40
0.0
 40
0.0
 40
0.0
 40
0.0
 40
1.0
 40
1.0
 40
1.0
 40
2.0
 40
2.0
 40
2.0
 40
3.0
 40
3.0
 40
3.0
 40
4.0
 40
4.0
 40
4.0
 40
5.0
 40
5.0
 40
5.0
 40
6.0
 40
6.0
 40
6.0
 40
7.0
 40
7.0
 40
7.0
 40
8.0
 40
8.0
 40
8.0
 40
9.0
 40
9.0
 40
9.0
 40
10.0
 40
10.0
 40
10.0
 40
11.0
 40
11.0
 40
11.0
 40
12.0
 40
12.0
 40
12.0
 40
13.0
 40
13.0
 40
13.0
 40
14.0
 40
14.0
 40
14.0
 40
15.0
 40
15.0
 40
15.0
 40
16.0
 40
16.0
 40
16.0
 40
17.0
 40
17.0
 40
17.0
 40
18.0
 40
18.0
 40
18.0
 40
19.0
 40
19.0
 40
19.0
 40
19.0
 10
100.261924888129
 20
-151.7278618327278
 10
100.261924888129
 20
-151.8232909776692
 10
100.2409098056689
 20
-152.041021012337
 10
100.0548746494654
 20
-152.165733468903
 10
99.9425645366463
 20
-152.2398030218359
 10
99.84334578667111
 20
-152.2442816459667
 10
99.75859643773397
 20
-152.248415760549
 10
99.75859643773397
 20
-152.248415760549
 10
99.75859643773397
 20
-152.0282741590416
 10
99.75859643773397
 20
-152.0282741590416
 10
99.83266599066684
 20
-152.0262071017504
 10
100.0672769932123
 20
-152.0155273057461
 10
100.0672769932123
 20
-151.7319959473101
 10
100.0672769932123
 20
-151.5945366374486
 10
99.9976860644103
 20
-151.4422634170006
 10
99.76927623373824
 20
-151.4422634170006
 10
99.6528320063368
 20
-151.4422634170006
 10
99.60425615999478
 20
-151.4801594673383
 10
99.57256128153047
 20
-151.5118543458026
 10
99.4984917285976
 20
-151.586268408284
 10
99.48574487530217
 20
-151.7027126356854
 10
99.48574487530217
 20
-151.7574896539009
 10
99.48574487530217
 20
-151.7764376790698
 10
99.48781193259333
 20
-151.8122666721164
 10
99.49194604717563
 20
-151.8398274359984
 10
99.49194604717563
 20
-151.8398274359984
 10
99.29729815225902
 20
-151.8398274359984
 10
99.29729815225902
 20
-151.8398274359984
 10
99.30384383368099
 20
-151.8019313856606
 10
99.30591089097214
 20
-151.7595567111921
 10
99.30591089097214
 20
-151.7530110297701
 10
99.30591089097214
 20
-151.6875542155503
 10
99.28455129896359
 20
-151.4887722060514
 10
99.04787323912693
 20
-151.4887722060514
 10
98.87010631208804
 20
-151.4887722060514
 10
98.81498478432404
 20
-151.6200303440394
 10
98.81498478432404
 20
-151.7299288900189
 10
98.81498478432404
 20
-151.9941677137376
 10
99.04787323912693
 20
-152.0027804524507
 10
99.11953122522011
 20
-152.0072590765815
 10
99.11953122522011
 20
-152.0072590765815
 10
99.11953122522011
 20
-152.2101752006627
 10
99.11953122522011
 20
-152.2101752006627
 10
98.99481876865407
 20
-152.2015624619496
 10
98.61826983211627
 20
-152.1740016980676
 10
98.61826983211627
 20
-151.7171820367235
 10
98.61826983211627
 20
-151.4932508301823
 10
98.745393855522
 20
-151.2520941462148
 10
99.04132755770495
 20
-151.2520941462148
 10
99.22770722345696
 20
-151.2520941462148
 10
99.31004500555444
 20
-151.3471787816077
 10
99.37136770519189
 20
-151.4463975315828
 10
99.39892846907388
 20
-151.3850748319454
 10
99.4791991938802
 20
-151.2031737903242
 10
99.75652938044281
 20
-151.2031737903242
 10
100.0948377570944
 20
-151.2031737903242
 10
100.261924888129
 20
-151.4505316461652
 10
100.261924888129
 20
-151.7278618327278
 97
        0
 97
        0
 75
     2
 76
     1
 98
        0
  0
SPLINE
  5
AB
330
A5
100
AcDbEntity
  8
_U+30EC_U+30A4_U+30E4_U+30FC 1
370
     0
100
AcDbSpline
210
0.0
220
0.0
230
1.0
 70
    11
 71
     3
 72
    32
 73
    28
 74
     0
 42
0.0000000001
 43
0.0000000001
 12
1.0
 22
0.0
 32
0.0
 13
1.0
 23
0.0
 33
0.0
 40
0.0
 40
0.0
 40
0.0
 40
0.0
 40
1.0
 40
1.0
 40
1.0
 40
2.0
 40
2.0
 40
2.0
 40
3.0
 40
3.0
 40
3.0
 40
4.0
 40
4.0
 40
4.0
 40
5.0
 40
5.0
 40
5.0
 40
6.0
 40
6.0
 40
6.0
 40
7.0
 40
7.0
 40
7.0
 40
8.0
 40
8.0
 40
8.0
 40
9.0
 40
9.0
 40
9.0
 40
9.0
 10
100.261924888129
 20
-150.5847791507219
 30
0.0
 10
100.261924888129
 20
-150.7584119631784
 30
0.0
 10
100.1923339593269
 20
-151.0037027617282
 30
0.0
 10
99.86022675454883
 20
-151.0419433216145
 30
0.0
 10
99.86022675454883
 20
-151.0419433216145
 30
0.0
 10
99.86022675454883
 20
-150.828347401529
 30
0.0
 10
99.86022675454883
 20
-150.828347401529
 30
0.0
 10
99.91948239689513
 20
-150.8173230959762
 30
0.0
 10
100.0672769932123
 20
-150.7856282175119
 30
0.0
 10
100.0672769932123
 20
-150.5827120934307
 30
0.0
 10
100.0672769932123
 20
-150.2909125058301
 30
0.0
 10
99.73758135527395
 20
-150.2526719459438
 30
0.0
 10
99.53225366435305
 20
-150.2399250926483
 30
0.0
 10
99.61252438915938
 20
-150.3308756134589
 30
0.0
 10
99.66971297421452
 20
-150.3987439945184
 30
0.0
 10
99.66971297421452
 20
-150.5806450361396
 30
0.0
 10
99.66971297421452
 20
-150.7604790204696
 30
0.0
 10
99.56394854281736
 20
-151.0629584040745
 30
0.0
 10
99.15777178510639
 20
-151.0629584040745
 30
0.0
 10
98.83841143362373
 20
-151.0629584040745
 30
0.0
 10
98.61826983211627
 20
-150.8641763945756
 30
0.0
 10
98.61826983211627
 20
-150.5465385908356
 30
0.0
 10
98.61826983211627
 20
-150.0325303444363
 30
0.0
 10
99.17258569569297
 20
-150.0221950579806
 30
0.0
 10
99.38618161577845
 20
-150.0221950579806
 30
0.0
 10
99.61665850374168
 20
-150.0221950579806
 30
0.0
 10
100.261924888129
 20
-150.0411430831494
 30
0.0
 10
100.261924888129
 20
-150.5847791507219
 30
0.0
  0
SPLINE
  5
AC
330
A5
100
AcDbEntity
  8
_U+30EC_U+30A4_U+30E4_U+30FC 1
370
     0
100
AcDbSpline
210
0.0
220
0.0
230
1.0
 70
    11
 71
     3
 72
    17
 73
    13
 74
     0
 42
0.0000000001
 43
0.0000000001
 12
1.0
 22
0.0
 32
0.0
 13
1.0
 23
0.0
 33
0.0
 40
0.0
 40
0.0
 40
0.0
 40
0.0
 40
1.0
 40
1.0
 40
1.0
 40
2.0
 40
2.0
 40
2.0
 40
3.0
 40
3.0
 40
3.0
 40
4.0
 40
4.0
 40
4.0
 40
4.0
 10
98.81085066974174
 20
-150.5444715335445
 30
0.0
 10
98.81085066974174
 20
-150.662982818237
 30
0.0
 10
98.86803925479688
 20
-150.8386826879848
 30
0.0
 10
99.15363767052409
 20
-150.8386826879848
 30
0.0
 10
99.37998044390501
 20
-150.8386826879848
 30
0.0
 10
99.4750650792979
 20
-150.6991563208322
 30
0.0
 10
99.4750650792979
 20
-150.5637640682618
 30
0.0
 10
99.4750650792979
 20
-150.3012477922858
 30
0.0
 10
99.26560327379471
 20
-150.2633517419481
 30
0.0
 10
99.14915904639327
 20
-150.2633517419481
 30
0.0
 10
98.97380368619406
 20
-150.2633517419481
 30
0.0
 10
98.81085066974174
 20
-150.358436377341
 30
0.0
 10
98.81085066974174
 20
-150.5444715335445
 30
0.0
  0
HATCH
  5
AD
330
A5
100
AcDbEntity
  8
_U+30EC_U+30A4_U+30E4_U+30FC 1
 62
   179
420
  2234388
100
AcDbHatch
 10
0.0
 20
0.0
 30
0.0
210
0.0
220
0.0
230
1.0
  2
SOLID
 70
     1
 71
     0
 91
        2
 92
        1
 93
        1
 72
     4
 94
        3
 73
     0
 74
     1
 95
       32
 96
       28
 40
0.0
 40
0.0
 40
0.0
 40
0.0
 40
1.0
 40
1.0
 40
1.0
 40
2.0
 40
2.0
 40
2.0
 40
3.0
 40
3.0
 40
3.0
 40
4.0
 40
4.0
 40
4.0
 40
5.0
 40
5.0
 40
5.0
 40
6.0
 40
6.0
 40
6.0
 40
7.0
 40
7.0
 40
7.0
 40
8.0
 40
8.0
 40
8.0
 40
9.0
 40
9.0
 40
9.0
 40
9.0
 10
100.261924888129
 20
-150.5847791507219
 10
100.261924888129
 20
-150.7584119631784
 10
100.1923339593269
 20
-151.0037027617282
 10
99.86022675454883
 20
-151.0419433216145
 10
99.86022675454883
 20
-151.0419433216145
 10
99.86022675454883
 20
-150.828347401529
 10
99.86022675454883
 20
-150.828347401529
 10
99.91948239689513
 20
-150.8173230959762
 10
100.0672769932123
 20
-150.7856282175119
 10
100.0672769932123
 20
-150.5827120934307
 10
100.0672769932123
 20
-150.2909125058301
 10
99.73758135527395
 20
-150.2526719459438
 10
99.53225366435305
 20
-150.2399250926483
 10
99.61252438915938
 20
-150.3308756134589
 10
99.66971297421452
 20
-150.3987439945184
 10
99.66971297421452
 20
-150.5806450361396
 10
99.66971297421452
 20
-150.7604790204696
 10
99.56394854281736
 20
-151.0629584040745
 10
99.15777178510639
 20
-151.0629584040745
 10
98.83841143362373
 20
-151.0629584040745
 10
98.61826983211627
 20
-150.8641763945756
 10
98.61826983211627
 20
-150.5465385908356
 10
98.61826983211627
 20
-150.0325303444363
 10
99.17258569569297
 20
-150.0221950579806
 10
99.38618161577845
 20
-150.0221950579806
 10
99.61665850374168
 20
-150.0221950579806
 10
100.261924888129
 20
-150.0411430831494
 10
100.261924888129
 20
-150.5847791507219
 97
        0
 97
        0
 92
        1
 93
        1
 72
     4
 94
        3
 73
     0
 74
     1
 95
       17
 96
       13
 40
0.0
 40
0.0
 40
0.0
 40
0.0
 40
1.0
 40
1.0
 40
1.0
 40
2.0
 40
2.0
 40
2.0
 40
3.0
 40
3.0
 40
3.0
 40
4.0
 40
4.0
 40
4.0
 40
4.0
 10
98.81085066974174
 20
-150.5444715335445
 10
98.81085066974174
 20
-150.662982818237
 10
98.86803925479688
 20
-150.8386826879848
 10
99.15363767052409
 20
-150.8386826879848
 10
99.37998044390501
 20
-150.8386826879848
 10
99.4750650792979
 20
-150.6991563208322
 10
99.4750650792979
 20
-150.5637640682618
 10
99.4750650792979
 20
-150.3012477922858
 10
99.26560327379471
 20
-150.2633517419481
 10
99.14915904639327
 20
-150.2633517419481
 10
98.97380368619406
 20
-150.2633517419481
 10
98.81085066974174
 20
-150.358436377341
 10
98.81085066974174
 20
-150.5444715335445
 97
        0
 97
        0
 75
     2
 76
     1
 98
        0
  0
POLYLINE
  5
AE
330
A5
100
AcDbEntity
  8
_U+30EC_U+30A4_U+30E4_U+30FC 1
370
     0
100
AcDb2dPolyline
 66
     1
 10
0.0
 20
0.0
 30
0.0
  0
VERTEX
  5
AF
330
AE
100
AcDbEntity
  8
_U+30EC_U+30A4_U+30E4_U+30FC 1
370
     0
100
AcDbVertex
100
AcDb2dVertex
 10
100.2112819844958
 20
-149.8058430615069
 30
0.0
  0
VERTEX
  5
B0
330
AE
100
AcDbEntity
  8
_U+30EC_U+30A4_U+30E4_U+30FC 1
370
     0
100
AcDbVertex
100
AcDb2dVertex
 10
99.95944550452403
 20
-149.8058430615069
 30
0.0
  0
VERTEX
  5
B1
330
AE
100
AcDbEntity
  8
_U+30EC_U+30A4_U+30E4_U+30FC 1
370
     0
100
AcDbVertex
100
AcDb2dVertex
 10
99.95944550452403
 20
-149.5540065815351
 30
0.0
  0
VERTEX
  5
B2
330
AE
100
AcDbEntity
  8
_U+30EC_U+30A4_U+30E4_U+30FC 1
370
     0
100
AcDbVertex
100
AcDb2dVertex
 10
100.2112819844958
 20
-149.5540065815351
 30
0.0
  0
VERTEX
  5
B3
330
AE
100
AcDbEntity
  8
_U+30EC_U+30A4_U+30E4_U+30FC 1
370
     0
100
AcDbVertex
100
AcDb2dVertex
 10
100.2112819844958
 20
-149.8058430615069
 30
0.0
  0
SEQEND
  5
B4
330
AE
100
AcDbEntity
  8
_U+30EC_U+30A4_U+30E4_U+30FC 1
370
     0
  0
HATCH
  5
B5
330
A5
100
AcDbEntity
  8
_U+30EC_U+30A4_U+30E4_U+30FC 1
 62
   179
420
  2234388
100
AcDbHatch
 10
0.0
 20
0.0
 30
0.0
210
0.0
220
0.0
230
1.0
  2
SOLID
 70
     1
 71
     0
 91
        1
 92
        1
 93
        4
 72
     1
 10
100.2112819844958
 20
-149.8058430615069
 11
99.95944550452403
 21
-149.8058430615069
 72
     1
 10
99.95944550452403
 20
-149.8058430615069
 11
99.95944550452403
 21
-149.5540065815351
 72
     1
 10
99.95944550452403
 20
-149.5540065815351
 11
100.2112819844958
 21
-149.5540065815351
 72
     1
 10
100.2112819844958
 20
-149.5540065815351
 11
100.2112819844958
 21
-149.8058430615069
 97
        0
 75
     2
 76
     1
 98
        0
  0
SPLINE
  5
B6
330
A5
100
AcDbEntity
  8
_U+30EC_U+30A4_U+30E4_U+30FC 1
370
     0
100
AcDbSpline
210
0.0
220
0.0
230
1.0
 70
    11
 71
     3
 72
    26
 73
    22
 74
     0
 42
0.0000000001
 43
0.0000000001
 12
1.0
 22
0.0
 32
0.0
 13
1.0
 23
0.0
 33
0.0
 40
0.0
 40
0.0
 40
0.0
 40
0.0
 40
1.0
 40
1.0
 40
1.0
 40
2.0
 40
2.0
 40
2.0
 40
3.0
 40
3.0
 40
3.0
 40
4.0
 40
4.0
 40
4.0
 40
5.0
 40
5.0
 40
5.0
 40
6.0
 40
6.0
 40
6.0
 40
7.0
 40
7.0
 40
7.0
 40
7.0
 10
100.2112819844958
 20
-148.9063286303081
 30
0.0
 10
100.2112819844958
 20
-148.9063286303081
 30
0.0
 10
100.2112819844958
 20
-149.1430066901448
 30
0.0
 10
100.2112819844958
 20
-149.1430066901448
 30
0.0
 10
99.90225691946888
 20
-149.1178574931025
 30
0.0
 10
99.38411455848731
 20
-148.925276655477
 30
0.0
 10
98.87837454125264
 20
-148.5190998977661
 30
0.0
 10
98.87837454125264
 20
-148.5190998977661
 30
0.0
 10
98.87837454125264
 20
-149.3569471197788
 30
0.0
 10
98.87837454125264
 20
-149.3569471197788
 30
0.0
 10
98.87837454125264
 20
-149.3569471197788
 30
0.0
 10
98.66684567845829
 20
-149.3569471197788
 30
0.0
 10
98.66684567845829
 20
-149.3569471197788
 30
0.0
 10
98.66684567845829
 20
-149.3569471197788
 30
0.0
 10
98.66684567845829
 20
-148.2822495831551
 30
0.0
 10
98.66684567845829
 20
-148.2822495831551
 30
0.0
 10
98.66684567845829
 20
-148.2822495831551
 30
0.0
 10
98.87837454125264
 20
-148.2822495831551
 30
0.0
 10
98.87837454125264
 20
-148.2822495831551
 30
0.0
 10
99.16845158111067
 20
-148.6059163039943
 30
0.0
 10
99.76066349502511
 20
-148.8722221850042
 30
0.0
 10
100.2112819844958
 20
-148.9063286303081
 30
0.0
  0
HATCH
  5
B7
330
A5
100
AcDbEntity
  8
_U+30EC_U+30A4_U+30E4_U+30FC 1
 62
   179
420
  2234388
100
AcDbHatch
 10
0.0
 20
0.0
 30
0.0
210
0.0
220
0.0
230
1.0
  2
SOLID
 70
     1
 71
     0
 91
        1
 92
        1
 93
        1
 72
     4
 94
        3
 73
     0
 74
     1
 95
       26
 96
       22
 40
0.0
 40
0.0
 40
0.0
 40
0.0
 40
1.0
 40
1.0
 40
1.0
 40
2.0
 40
2.0
 40
2.0
 40
3.0
 40
3.0
 40
3.0
 40
4.0
 40
4.0
 40
4.0
 40
5.0
 40
5.0
 40
5.0
 40
6.0
 40
6.0
 40
6.0
 40
7.0
 40
7.0
 40
7.0
 40
7.0
 10
100.2112819844958
 20
-148.9063286303081
 10
100.2112819844958
 20
-148.9063286303081
 10
100.2112819844958
 20
-149.1430066901448
 10
100.2112819844958
 20
-149.1430066901448
 10
99.90225691946888
 20
-149.1178574931025
 10
99.38411455848731
 20
-148.925276655477
 10
98.87837454125264
 20
-148.5190998977661
 10
98.87837454125264
 20
-148.5190998977661
 10
98.87837454125264
 20
-149.3569471197788
 10
98.87837454125264
 20
-149.3569471197788
 10
98.87837454125264
 20
-149.3569471197788
 10
98.66684567845829
 20
-149.3569471197788
 10
98.66684567845829
 20
-149.3569471197788
 10
98.66684567845829
 20
-149.3569471197788
 10
98.66684567845829
 20
-148.2822495831551
 10
98.66684567845829
 20
-148.2822495831551
 10
98.66684567845829
 20
-148.2822495831551
 10
98.87837454125264
 20
-148.2822495831551
 10
98.87837454125264
 20
-148.2822495831551
 10
99.16845158111067
 20
-148.6059163039943
 10
99.76066349502511
 20
-148.8722221850042
 10
100.2112819844958
 20
-148.9063286303081
 97
        0
 97
        0
 75
     2
 76
     1
 98
        0
  0
ENDBLK
  5
A8
330
A5
100
AcDbEntity
  8
0
100
AcDbBlockEnd
  0
BLOCK
  5
CA
330
C8
100
AcDbEntity
  8
0
100
AcDbBlockBegin
  2
block 6
 70
     0
 10
0.0
 20
0.0
 30
0.0
  3
block 6
  1

  0
SPLINE
  5
CC
330
C8
100
AcDbEntity
  8
_U+30EC_U+30A4_U+30E4_U+30FC 1
370
     0
100
AcDbSpline
210
0.0
220
0.0
230
1.0
 70
    11
 71
     3
 72
    38
 73
    34
 74
     0
 42
0.0000000001
 43
0.0000000001
 12
1.0
 22
0.0
 32
0.0
 13
1.0
 23
0.0
 33
0.0
 40
0.0
 40
0.0
 40
0.0
 40
0.0
 40
1.0
 40
1.0
 40
1.0
 40
2.0
 40
2.0
 40
2.0
 40
3.0
 40
3.0
 40
3.0
 40
4.0
 40
4.0
 40
4.0
 40
5.0
 40
5.0
 40
5.0
 40
6.0
 40
6.0
 40
6.0
 40
7.0
 40
7.0
 40
7.0
 40
8.0
 40
8.0
 40
8.0
 40
9.0
 40
9.0
 40
9.0
 40
10.0
 40
10.0
 40
10.0
 40
11.0
 40
11.0
 40
11.0
 40
11.0
 10
90.47182479292024
 20
-139.973023782281
 30
0.0
 10
90.30887177646792
 20
-140.199366555662
 30
0.0
 10
90.17778589325417
 20
-140.2775702231772
 30
0.0
 10
90.09940997096473
 20
-140.3261460695192
 30
0.0
 10
90.09940997096473
 20
-140.3261460695192
 30
0.0
 10
89.93025578263897
 20
-140.1590589384845
 30
0.0
 10
89.93025578263897
 20
-140.1590589384845
 30
0.0
 10
90.28992375129906
 20
-139.9940388647411
 30
0.0
 10
90.5014526140934
 20
-139.623863354851
 30
0.0
 10
90.56070825643968
 20
-139.3065700606595
 30
0.0
 10
90.56070825643968
 20
-139.3065700606595
 30
0.0
 10
90.30043129252907
 20
-139.3065700606595
 30
0.0
 10
90.30043129252907
 20
-139.3065700606595
 30
0.0
 10
90.23704153560047
 20
-139.3065700606595
 30
0.0
 10
90.09940997096473
 20
-139.3255180858283
 30
0.0
 10
90.02964678738843
 20
-139.3361978818326
 30
0.0
 10
90.02964678738843
 20
-139.3361978818326
 30
0.0
 10
90.02964678738843
 20
-139.1162285350994
 30
0.0
 10
90.02964678738843
 20
-139.1162285350994
 30
0.0
 10
90.08252900308702
 20
-139.1288031336206
 30
0.0
 10
90.22222762501389
 20
-139.131042445686
 30
0.0
 10
90.28148326736019
 20
-139.131042445686
 30
0.0
 10
90.28148326736019
 20
-139.131042445686
 30
0.0
 10
90.50782604074111
 20
-139.131042445686
 30
0.0
 10
90.50782604074111
 20
-139.131042445686
 30
0.0
 10
90.52263995132768
 20
-139.131042445686
 30
0.0
 10
90.62409801336828
 20
-139.1288031336206
 30
0.0
 10
90.7277953874743
 20
-139.1224297069729
 30
0.0
 10
90.7277953874743
 20
-139.1224297069729
 30
0.0
 10
90.80823836705488
 20
-139.20717905591
 30
0.0
 10
90.80823836705488
 20
-139.20717905591
 30
0.0
 10
90.72986244476546
 20
-139.4715901344029
 30
0.0
 10
90.64321829331142
 20
-139.7339341556047
 30
0.0
 10
90.47182479292024
 20
-139.973023782281
 30
0.0
  0
SPLINE
  5
CD
330
C8
100
AcDbEntity
  8
_U+30EC_U+30A4_U+30E4_U+30FC 1
370
     0
100
AcDbSpline
210
0.0
220
0.0
230
1.0
 70
    11
 71
     3
 72
    77
 73
    73
 74
     0
 42
0.0000000001
 43
0.0000000001
 12
1.0
 22
0.0
 32
0.0
 13
1.0
 23
0.0
 33
0.0
 40
0.0
 40
0.0
 40
0.0
 40
0.0
 40
1.0
 40
1.0
 40
1.0
 40
2.0
 40
2.0
 40
2.0
 40
3.0
 40
3.0
 40
3.0
 40
4.0
 40
4.0
 40
4.0
 40
5.0
 40
5.0
 40
5.0
 40
6.0
 40
6.0
 40
6.0
 40
7.0
 40
7.0
 40
7.0
 40
8.0
 40
8.0
 40
8.0
 40
9.0
 40
9.0
 40
9.0
 40
10.0
 40
10.0
 40
10.0
 40
11.0
 40
11.0
 40
11.0
 40
12.0
 40
12.0
 40
12.0
 40
13.0
 40
13.0
 40
13.0
 40
14.0
 40
14.0
 40
14.0
 40
15.0
 40
15.0
 40
15.0
 40
16.0
 40
16.0
 40
16.0
 40
17.0
 40
17.0
 40
17.0
 40
18.0
 40
18.0
 40
18.0
 40
19.0
 40
19.0
 40
19.0
 40
20.0
 40
20.0
 40
20.0
 40
21.0
 40
21.0
 40
21.0
 40
22.0
 40
22.0
 40
22.0
 40
23.0
 40
23.0
 40
23.0
 40
24.0
 40
24.0
 40
24.0
 40
24.0
 10
91.68828800876196
 20
-140.3557738906923
 30
0.0
 10
91.37943519850931
 20
-140.1569918811934
 30
0.0
 10
91.21010875540928
 20
-139.9539035023379
 30
0.0
 10
91.01546086049267
 20
-139.5814886803824
 30
0.0
 10
91.01546086049267
 20
-139.5814886803824
 30
0.0
 10
91.01546086049267
 20
-139.793189797951
 30
0.0
 10
91.01546086049267
 20
-139.793189797951
 30
0.0
 10
91.01546086049267
 20
-139.8290187909976
 30
0.0
 10
91.01546086049267
 20
-139.852273185523
 30
0.0
 10
91.01770017255808
 20
-140.0427869658574
 30
0.0
 10
91.01770017255808
 20
-140.0872286976171
 30
0.0
 10
91.02390134443152
 20
-140.2796372804683
 30
0.0
 10
91.02390134443152
 20
-140.3177055855803
 30
0.0
 10
91.02390134443152
 20
-140.4722181180938
 30
0.0
 10
91.00495331926265
 20
-140.5547281549655
 30
0.0
 10
90.76172957800402
 20
-140.5547281549655
 30
0.0
 10
90.70867510753116
 20
-140.5547281549655
 30
0.0
 10
90.67060680241916
 20
-140.5504217856089
 30
0.0
 10
90.63891192395486
 20
-140.5483547283178
 30
0.0
 10
90.63891192395486
 20
-140.5483547283178
 30
0.0
 10
90.55226777250083
 20
-140.3177055855803
 30
0.0
 10
90.55226777250083
 20
-140.3177055855803
 30
0.0
 10
90.62203095607714
 20
-140.3409599801057
 30
0.0
 10
90.74054224076973
 20
-140.35163977611
 30
0.0
 10
90.74691566741744
 20
-140.35163977611
 30
0.0
 10
90.80823836705488
 20
-140.35163977611
 30
0.0
 10
90.81667885099375
 20
-140.3220119549369
 30
0.0
 10
90.81667885099375
 20
-140.2818765925337
 30
0.0
 10
90.81667885099375
 20
-140.2818765925337
 30
0.0
 10
90.81667885099375
 20
-139.1267360763294
 30
0.0
 10
90.81667885099375
 20
-139.1267360763294
 30
0.0
 10
90.81667885099375
 20
-138.9574096332294
 30
0.0
 10
90.81667885099375
 20
-138.9257147547651
 30
0.0
 10
90.80823836705488
 20
-138.6444227083944
 30
0.0
 10
90.80823836705488
 20
-138.6444227083944
 30
0.0
 10
91.01546086049267
 20
-138.6613036762722
 30
0.0
 10
91.01546086049267
 20
-138.6613036762722
 30
0.0
 10
91.03027477107923
 20
-138.6633707335633
 30
0.0
 10
91.08953041342554
 20
-138.6697441602111
 30
0.0
 10
91.08953041342554
 20
-138.6993719813842
 30
0.0
 10
91.08953041342554
 20
-138.7205593186185
 30
0.0
 10
91.05783553496124
 20
-138.735373229205
 30
0.0
 10
91.02390134443152
 20
-138.7501871397916
 30
0.0
 10
91.01546086049267
 20
-138.9660223719425
 30
0.0
 10
91.01546086049267
 20
-139.0314791861623
 30
0.0
 10
91.01546086049267
 20
-139.1224297069729
 30
0.0
 10
91.02820771378809
 20
-139.1648043814415
 30
0.0
 10
91.04939505102237
 20
-139.2368068770832
 30
0.0
 10
91.10641138130326
 20
-139.3635863909404
 30
0.0
 10
91.21854923934815
 20
-139.2896890927817
 30
0.0
 10
91.36875540250504
 20
-139.1668714387326
 30
0.0
 10
91.50001354049306
 20
-138.9913438237591
 30
0.0
 10
91.50001354049306
 20
-138.9913438237591
 30
0.0
 10
91.68604869669655
 20
-139.1267360763294
 30
0.0
 10
91.68604869669655
 20
-139.1267360763294
 30
0.0
 10
91.70516897663968
 20
-139.1394829296248
 30
0.0
 10
91.7115424032874
 20
-139.1499904708549
 30
0.0
 10
91.7115424032874
 20
-139.1606702668591
 30
0.0
 10
91.7115424032874
 20
-139.1944322026146
 30
0.0
 10
91.66503361423652
 20
-139.190125833258
 30
0.0
 10
91.63747285035453
 20
-139.1880587759669
 30
0.0
 10
91.60991208647252
 20
-139.2113131704923
 30
0.0
 10
91.58872474923824
 20
-139.22819413837
 30
0.0
 10
91.39631616638704
 20
-139.3911471548224
 30
0.0
 10
91.3455010079796
 20
-139.4335218292909
 30
0.0
 10
91.28417830834215
 20
-139.4779635610506
 30
0.0
 10
91.19322778753155
 20
-139.5329128340404
 30
0.0
 10
91.41750350362132
 20
-139.9179022545171
 30
0.0
 10
91.63953990764567
 20
-140.0512274497962
 30
0.0
 10
91.85950925437888
 20
-140.1845526450754
 30
0.0
 10
91.85950925437888
 20
-140.1845526450754
 30
0.0
 10
91.68828800876196
 20
-140.3557738906923
 30
0.0
 10
91.68828800876196
 20
-140.3557738906923
 30
0.0
  0
HATCH
  5
CE
330
C8
100
AcDbEntity
  8
_U+30EC_U+30A4_U+30E4_U+30FC 1
 62
   179
420
  2234388
100
AcDbHatch
 10
0.0
 20
0.0
 30
0.0
210
0.0
220
0.0
230
1.0
  2
SOLID
 70
     1
 71
     0
 91
        2
 92
        1
 93
        1
 72
     4
 94
        3
 73
     0
 74
     1
 95
       38
 96
       34
 40
0.0
 40
0.0
 40
0.0
 40
0.0
 40
1.0
 40
1.0
 40
1.0
 40
2.0
 40
2.0
 40
2.0
 40
3.0
 40
3.0
 40
3.0
 40
4.0
 40
4.0
 40
4.0
 40
5.0
 40
5.0
 40
5.0
 40
6.0
 40
6.0
 40
6.0
 40
7.0
 40
7.0
 40
7.0
 40
8.0
 40
8.0
 40
8.0
 40
9.0
 40
9.0
 40
9.0
 40
10.0
 40
10.0
 40
10.0
 40
11.0
 40
11.0
 40
11.0
 40
11.0
 10
90.47182479292024
 20
-139.973023782281
 10
90.30887177646792
 20
-140.199366555662
 10
90.17778589325417
 20
-140.2775702231772
 10
90.09940997096473
 20
-140.3261460695192
 10
90.09940997096473
 20
-140.3261460695192
 10
89.93025578263897
 20
-140.1590589384845
 10
89.93025578263897
 20
-140.1590589384845
 10
90.28992375129906
 20
-139.9940388647411
 10
90.5014526140934
 20
-139.623863354851
 10
90.56070825643968
 20
-139.3065700606595
 10
90.56070825643968
 20
-139.3065700606595
 10
90.30043129252907
 20
-139.3065700606595
 10
90.30043129252907
 20
-139.3065700606595
 10
90.23704153560047
 20
-139.3065700606595
 10
90.09940997096473
 20
-139.3255180858283
 10
90.02964678738843
 20
-139.3361978818326
 10
90.02964678738843
 20
-139.3361978818326
 10
90.02964678738843
 20
-139.1162285350994
 10
90.02964678738843
 20
-139.1162285350994
 10
90.08252900308702
 20
-139.1288031336206
 10
90.22222762501389
 20
-139.131042445686
 10
90.28148326736019
 20
-139.131042445686
 10
90.28148326736019
 20
-139.131042445686
 10
90.50782604074111
 20
-139.131042445686
 10
90.50782604074111
 20
-139.131042445686
 10
90.52263995132768
 20
-139.131042445686
 10
90.62409801336828
 20
-139.1288031336206
 10
90.7277953874743
 20
-139.1224297069729
 10
90.7277953874743
 20
-139.1224297069729
 10
90.80823836705488
 20
-139.20717905591
 10
90.80823836705488
 20
-139.20717905591
 10
90.72986244476546
 20
-139.4715901344029
 10
90.64321829331142
 20
-139.7339341556047
 10
90.47182479292024
 20
-139.973023782281
 97
        0
 97
        0
 92
        1
 93
        1
 72
     4
 94
        3
 73
     0
 74
     1
 95
       77
 96
       73
 40
0.0
 40
0.0
 40
0.0
 40
0.0
 40
1.0
 40
1.0
 40
1.0
 40
2.0
 40
2.0
 40
2.0
 40
3.0
 40
3.0
 40
3.0
 40
4.0
 40
4.0
 40
4.0
 40
5.0
 40
5.0
 40
5.0
 40
6.0
 40
6.0
 40
6.0
 40
7.0
 40
7.0
 40
7.0
 40
8.0
 40
8.0
 40
8.0
 40
9.0
 40
9.0
 40
9.0
 40
10.0
 40
10.0
 40
10.0
 40
11.0
 40
11.0
 40
11.0
 40
12.0
 40
12.0
 40
12.0
 40
13.0
 40
13.0
 40
13.0
 40
14.0
 40
14.0
 40
14.0
 40
15.0
 40
15.0
 40
15.0
 40
16.0
 40
16.0
 40
16.0
 40
17.0
 40
17.0
 40
17.0
 40
18.0
 40
18.0
 40
18.0
 40
19.0
 40
19.0
 40
19.0
 40
20.0
 40
20.0
 40
20.0
 40
21.0
 40
21.0
 40
21.0
 40
22.0
 40
22.0
 40
22.0
 40
23.0
 40
23.0
 40
23.0
 40
24.0
 40
24.0
 40
24.0
 40
24.0
 10
91.68828800876196
 20
-140.3557738906923
 10
91.37943519850931
 20
-140.1569918811934
 10
91.21010875540928
 20
-139.9539035023379
 10
91.01546086049267
 20
-139.5814886803824
 10
91.01546086049267
 20
-139.5814886803824
 10
91.01546086049267
 20
-139.793189797951
 10
91.01546086049267
 20
-139.793189797951
 10
91.01546086049267
 20
-139.8290187909976
 10
91.01546086049267
 20
-139.852273185523
 10
91.01770017255808
 20
-140.0427869658574
 10
91.01770017255808
 20
-140.0872286976171
 10
91.02390134443152
 20
-140.2796372804683
 10
91.02390134443152
 20
-140.3177055855803
 10
91.02390134443152
 20
-140.4722181180938
 10
91.00495331926265
 20
-140.5547281549655
 10
90.76172957800402
 20
-140.5547281549655
 10
90.70867510753116
 20
-140.5547281549655
 10
90.67060680241916
 20
-140.5504217856089
 10
90.63891192395486
 20
-140.5483547283178
 10
90.63891192395486
 20
-140.5483547283178
 10
90.55226777250083
 20
-140.3177055855803
 10
90.55226777250083
 20
-140.3177055855803
 10
90.62203095607714
 20
-140.3409599801057
 10
90.74054224076973
 20
-140.35163977611
 10
90.74691566741744
 20
-140.35163977611
 10
90.80823836705488
 20
-140.35163977611
 10
90.81667885099375
 20
-140.3220119549369
 10
90.81667885099375
 20
-140.2818765925337
 10
90.81667885099375
 20
-140.2818765925337
 10
90.81667885099375
 20
-139.1267360763294
 10
90.81667885099375
 20
-139.1267360763294
 10
90.81667885099375
 20
-138.9574096332294
 10
90.81667885099375
 20
-138.9257147547651
 10
90.80823836705488
 20
-138.6444227083944
 10
90.80823836705488
 20
-138.6444227083944
 10
91.01546086049267
 20
-138.6613036762722
 10
91.01546086049267
 20
-138.6613036762722
 10
91.03027477107923
 20
-138.6633707335633
 10
91.08953041342554
 20
-138.6697441602111
 10
91.08953041342554
 20
-138.6993719813842
 10
91.08953041342554
 20
-138.7205593186185
 10
91.05783553496124
 20
-138.735373229205
 10
91.02390134443152
 20
-138.7501871397916
 10
91.01546086049267
 20
-138.9660223719425
 10
91.01546086049267
 20
-139.0314791861623
 10
91.01546086049267
 20
-139.1224297069729
 10
91.02820771378809
 20
-139.1648043814415
 10
91.04939505102237
 20
-139.2368068770832
 10
91.10641138130326
 20
-139.3635863909404
 10
91.21854923934815
 20
-139.2896890927817
 10
91.36875540250504
 20
-139.1668714387326
 10
91.50001354049306
 20
-138.9913438237591
 10
91.50001354049306
 20
-138.9913438237591
 10
91.68604869669655
 20
-139.1267360763294
 10
91.68604869669655
 20
-139.1267360763294
 10
91.70516897663968
 20
-139.1394829296248
 10
91.7115424032874
 20
-139.1499904708549
 10
91.7115424032874
 20
-139.1606702668591
 10
91.7115424032874
 20
-139.1944322026146
 10
91.66503361423652
 20
-139.190125833258
 10
91.63747285035453
 20
-139.1880587759669
 10
91.60991208647252
 20
-139.2113131704923
 10
91.58872474923824
 20
-139.22819413837
 10
91.39631616638704
 20
-139.3911471548224
 10
91.3455010079796
 20
-139.4335218292909
 10
91.28417830834215
 20
-139.4779635610506
 10
91.19322778753155
 20
-139.5329128340404
 10
91.41750350362132
 20
-139.9179022545171
 10
91.63953990764567
 20
-140.0512274497962
 10
91.85950925437888
 20
-140.1845526450754
 10
91.85950925437888
 20
-140.1845526450754
 10
91.68828800876196
 20
-140.3557738906923
 10
91.68828800876196
 20
-140.3557738906923
 97
        0
 97
        0
 75
     2
 76
     1
 98
        0
  0
SPLINE
  5
CF
330
C8
100
AcDbEntity
  8
_U+30EC_U+30A4_U+30E4_U+30FC 1
370
     0
100
AcDbSpline
210
0.0
220
0.0
230
1.0
 70
    11
 71
     3
 72
    98
 73
    94
 74
     0
 42
0.0000000001
 43
0.0000000001
 12
1.0
 22
0.0
 32
0.0
 13
1.0
 23
0.0
 33
0.0
 40
0.0
 40
0.0
 40
0.0
 40
0.0
 40
1.0
 40
1.0
 40
1.0
 40
2.0
 40
2.0
 40
2.0
 40
3.0
 40
3.0
 40
3.0
 40
4.0
 40
4.0
 40
4.0
 40
5.0
 40
5.0
 40
5.0
 40
6.0
 40
6.0
 40
6.0
 40
7.0
 40
7.0
 40
7.0
 40
8.0
 40
8.0
 40
8.0
 40
9.0
 40
9.0
 40
9.0
 40
10.0
 40
10.0
 40
10.0
 40
11.0
 40
11.0
 40
11.0
 40
12.0
 40
12.0
 40
12.0
 40
13.0
 40
13.0
 40
13.0
 40
14.0
 40
14.0
 40
14.0
 40
15.0
 40
15.0
 40
15.0
 40
16.0
 40
16.0
 40
16.0
 40
17.0
 40
17.0
 40
17.0
 40
18.0
 40
18.0
 40
18.0
 40
19.0
 40
19.0
 40
19.0
 40
20.0
 40
20.0
 40
20.0
 40
21.0
 40
21.0
 40
21.0
 40
22.0
 40
22.0
 40
22.0
 40
23.0
 40
23.0
 40
23.0
 40
24.0
 40
24.0
 40
24.0
 40
25.0
 40
25.0
 40
25.0
 40
26.0
 40
26.0
 40
26.0
 40
27.0
 40
27.0
 40
27.0
 40
28.0
 40
28.0
 40
28.0
 40
29.0
 40
29.0
 40
29.0
 40
30.0
 40
30.0
 40
30.0
 40
31.0
 40
31.0
 40
31.0
 40
31.0
 10
92.83602156967294
 20
-139.661931659963
 30
0.0
 10
92.70476343168492
 20
-139.7316948435393
 30
0.0
 10
92.64137367475632
 20
-139.7592556074213
 30
0.0
 10
92.58642440176659
 20
-139.7845770592379
 30
0.0
 10
92.58642440176659
 20
-139.7845770592379
 30
0.0
 10
92.58642440176659
 20
-139.9347832223948
 30
0.0
 10
92.58642440176659
 20
-139.9347832223948
 30
0.0
 10
92.58642440176659
 20
-139.9983452340977
 30
0.0
 10
92.59055851634889
 20
-140.2839436498249
 30
0.0
 10
92.59055851634889
 20
-140.3431992921712
 30
0.0
 10
92.59055851634889
 20
-140.5145927925623
 30
0.0
 10
92.54611678458917
 20
-140.5736761801344
 30
0.0
 10
92.22675643310652
 20
-140.5588622695478
 30
0.0
 10
92.22675643310652
 20
-140.5588622695478
 30
0.0
 10
92.1294324856482
 20
-140.3557738906923
 30
0.0
 10
92.1294324856482
 20
-140.3557738906923
 30
0.0
 10
92.1611273641125
 20
-140.36214731734
 30
0.0
 10
92.24363740098423
 20
-140.3748941706355
 30
0.0
 10
92.30926646997824
 20
-140.3748941706355
 30
0.0
 10
92.38747013749341
 20
-140.3748941706355
 30
0.0
 10
92.38747013749341
 20
-140.3431992921712
 30
0.0
 10
92.38747013749341
 20
-140.2606892552994
 30
0.0
 10
92.38747013749341
 20
-140.2606892552994
 30
0.0
 10
92.38747013749341
 20
-139.8670870961096
 30
0.0
 10
92.38747013749341
 20
-139.8670870961096
 30
0.0
 10
92.30496010062168
 20
-139.8967149172828
 30
0.0
 10
92.25638425427965
 20
-139.9137681399347
 30
0.0
 10
92.18662107070335
 20
-139.9347832223948
 30
0.0
 10
92.18024764405564
 20
-139.9602769289856
 30
0.0
 10
92.17387421740793
 20
-139.9876654380934
 30
0.0
 10
92.15475393746479
 20
-139.9876654380934
 30
0.0
 10
92.13994002687821
 20
-139.9876654380934
 30
0.0
 10
92.1335666002305
 20
-139.9750908395722
 30
0.0
 10
92.1294324856482
 20
-139.9644110435679
 30
0.0
 10
92.1294324856482
 20
-139.9644110435679
 30
0.0
 10
92.06173635936304
 20
-139.738068270187
 30
0.0
 10
92.06173635936304
 20
-139.738068270187
 30
0.0
 10
92.23519691704537
 20
-139.6958658504927
 30
0.0
 10
92.3113335272694
 20
-139.6726114559673
 30
0.0
 10
92.38747013749341
 20
-139.6491848066676
 30
0.0
 10
92.38747013749341
 20
-139.6491848066676
 30
0.0
 10
92.38747013749341
 20
-139.2325005077266
 30
0.0
 10
92.38747013749341
 20
-139.2325005077266
 30
0.0
 10
92.38747013749341
 20
-139.2325005077266
 30
0.0
 10
92.34096134844255
 20
-139.2325005077266
 30
0.0
 10
92.34096134844255
 20
-139.2325005077266
 30
0.0
 10
92.25845131157081
 20
-139.2325005077266
 30
0.0
 10
92.1611273641125
 20
-139.2325005077266
 30
0.0
 10
92.08705781117963
 20
-139.245247361022
 30
0.0
 10
92.08705781117963
 20
-139.245247361022
 30
0.0
 10
92.08705781117963
 20
-139.0547335806877
 30
0.0
 10
92.08705781117963
 20
-139.0547335806877
 30
0.0
 10
92.1886881279945
 20
-139.0717868033397
 30
0.0
 10
92.33045380721254
 20
-139.0738538606309
 30
0.0
 10
92.34096134844255
 20
-139.0738538606309
 30
0.0
 10
92.34096134844255
 20
-139.0738538606309
 30
0.0
 10
92.38747013749341
 20
-139.0738538606309
 30
0.0
 10
92.38747013749341
 20
-139.0738538606309
 30
0.0
 10
92.38747013749341
 20
-138.8771389084231
 30
0.0
 10
92.38333602291111
 20
-138.7438137131439
 30
0.0
 10
92.37902965355455
 20
-138.6571695616899
 30
0.0
 10
92.37902965355455
 20
-138.6571695616899
 30
0.0
 10
92.60761173900087
 20
-138.6740505295676
 30
0.0
 10
92.60761173900087
 20
-138.6740505295676
 30
0.0
 10
92.61381291087433
 20
-138.6740505295676
 30
0.0
 10
92.63930661746518
 20
-138.6781846441499
 30
0.0
 10
92.63930661746518
 20
-138.697304924093
 30
0.0
 10
92.63930661746518
 20
-138.7162529492619
 30
0.0
 10
92.61811928023089
 20
-138.7269327452662
 30
0.0
 10
92.5927978284143
 20
-138.7396795985616
 30
0.0
 10
92.59055851634889
 20
-138.7818820182559
 30
0.0
 10
92.58418508970118
 20
-138.8454440299588
 30
0.0
 10
92.58418508970118
 20
-138.9172742708263
 30
0.0
 10
92.58418508970118
 20
-138.9172742708263
 30
0.0
 10
92.58418508970118
 20
-139.0717868033397
 30
0.0
 10
92.58418508970118
 20
-139.0717868033397
 30
0.0
 10
92.5969319429966
 20
-139.0738538606309
 30
0.0
 10
92.72819008098462
 20
-139.0717868033397
 30
0.0
 10
92.82327471637753
 20
-139.0547335806877
 30
0.0
 10
92.82327471637753
 20
-139.0547335806877
 30
0.0
 10
92.82327471637753
 20
-139.245247361022
 30
0.0
 10
92.82327471637753
 20
-139.245247361022
 30
0.0
 10
92.7471381061535
 20
-139.2325005077266
 30
0.0
 10
92.6456800441129
 20
-139.2325005077266
 30
0.0
 10
92.58642440176659
 20
-139.2325005077266
 30
0.0
 10
92.58642440176659
 20
-139.2325005077266
 30
0.0
 10
92.58642440176659
 20
-139.585795049739
 30
0.0
 10
92.58642440176659
 20
-139.585795049739
 30
0.0
 10
92.71957734227149
 20
-139.5392862606881
 30
0.0
 10
92.79157983791322
 20
-139.5117254968061
 30
0.0
 10
92.85083548025952
 20
-139.4884711022807
 30
0.0
 10
92.85083548025952
 20
-139.4884711022807
 30
0.0
 10
92.83602156967294
 20
-139.661931659963
 30
0.0
 10
92.83602156967294
 20
-139.661931659963
 30
0.0
  0
SPLINE
  5
D0
330
C8
100
AcDbEntity
  8
_U+30EC_U+30A4_U+30E4_U+30FC 1
370
     0
100
AcDbSpline
210
0.0
220
0.0
230
1.0
 70
    11
 71
     3
 72
    92
 73
    88
 74
     0
 42
0.0000000001
 43
0.0000000001
 12
1.0
 22
0.0
 32
0.0
 13
1.0
 23
0.0
 33
0.0
 40
0.0
 40
0.0
 40
0.0
 40
0.0
 40
1.0
 40
1.0
 40
1.0
 40
2.0
 40
2.0
 40
2.0
 40
3.0
 40
3.0
 40
3.0
 40
4.0
 40
4.0
 40
4.0
 40
5.0
 40
5.0
 40
5.0
 40
6.0
 40
6.0
 40
6.0
 40
7.0
 40
7.0
 40
7.0
 40
8.0
 40
8.0
 40
8.0
 40
9.0
 40
9.0
 40
9.0
 40
10.0
 40
10.0
 40
10.0
 40
11.0
 40
11.0
 40
11.0
 40
12.0
 40
12.0
 40
12.0
 40
13.0
 40
13.0
 40
13.0
 40
14.0
 40
14.0
 40
14.0
 40
15.0
 40
15.0
 40
15.0
 40
16.0
 40
16.0
 40
16.0
 40
17.0
 40
17.0
 40
17.0
 40
18.0
 40
18.0
 40
18.0
 40
19.0
 40
19.0
 40
19.0
 40
20.0
 40
20.0
 40
20.0
 40
21.0
 40
21.0
 40
21.0
 40
22.0
 40
22.0
 40
22.0
 40
23.0
 40
23.0
 40
23.0
 40
24.0
 40
24.0
 40
24.0
 40
25.0
 40
25.0
 40
25.0
 40
26.0
 40
26.0
 40
26.0
 40
27.0
 40
27.0
 40
27.0
 40
28.0
 40
28.0
 40
28.0
 40
29.0
 40
29.0
 40
29.0
 40
29.0
 10
93.88109128512347
 20
-140.5547281549655
 30
0.0
 10
93.82183564277719
 20
-140.5251003337924
 30
0.0
 10
93.66732311026372
 20
-140.4489637235683
 30
0.0
 10
93.51711694710684
 20
-140.2923841337637
 30
0.0
 10
93.4621676741171
 20
-140.3537068334012
 30
0.0
 10
93.32677542154678
 20
-140.4954725126192
 30
0.0
 10
93.16382240509446
 20
-140.5716091228432
 30
0.0
 10
93.16382240509446
 20
-140.5716091228432
 30
0.0
 10
92.97554793682556
 20
-140.4320827556906
 30
0.0
 10
92.97554793682556
 20
-140.4320827556906
 30
0.0
 10
93.05599091640615
 20
-140.4065890490998
 30
0.0
 10
93.21894393285847
 20
-140.35163977611
 30
0.0
 10
93.3965386051231
 20
-140.1485513972545
 30
0.0
 10
93.35640324271994
 20
-140.0913628121994
 30
0.0
 10
93.30145396973019
 20
-140.0047186607454
 30
0.0
 10
93.23151853137962
 20
-139.7868163713033
 30
0.0
 10
93.11731361604359
 20
-140.1802462757188
 30
0.0
 10
92.94178600107011
 20
-140.379200539992
 30
0.0
 10
92.7852064112655
 20
-140.5207939644358
 30
0.0
 10
92.7852064112655
 20
-140.5207939644358
 30
0.0
 10
92.59486488570545
 20
-140.4086561063909
 30
0.0
 10
92.59486488570545
 20
-140.4086561063909
 30
0.0
 10
93.06667071241041
 20
-140.0553615643785
 30
0.0
 10
93.10043264816586
 20
-139.4905381595718
 30
0.0
 10
93.11524655875245
 20
-139.2304334504354
 30
0.0
 10
93.04755043246729
 20
-139.2304334504354
 30
0.0
 10
92.93334551713126
 20
-139.2368068770832
 30
0.0
 10
92.88683672808038
 20
-139.2409409916655
 30
0.0
 10
92.88683672808038
 20
-139.2409409916655
 30
0.0
 10
92.88683672808038
 20
-139.0505994661054
 30
0.0
 10
92.88683672808038
 20
-139.0505994661054
 30
0.0
 10
92.94815942771783
 20
-139.0590399500443
 30
0.0
 10
92.9693467649521
 20
-139.0611070073354
 30
0.0
 10
93.12161998540016
 20
-139.0674804339831
 30
0.0
 10
93.1236870426913
 20
-138.9660223719425
 30
0.0
 10
93.1236870426913
 20
-138.8051364127814
 30
0.0
 10
93.09836559087472
 20
-138.6464897656856
 30
0.0
 10
93.09836559087472
 20
-138.6464897656856
 30
0.0
 10
93.34158933213335
 20
-138.6656100456287
 30
0.0
 10
93.34158933213335
 20
-138.6656100456287
 30
0.0
 10
93.35847030001108
 20
-138.6676771029199
 30
0.0
 10
93.37759057995422
 20
-138.6697441602111
 30
0.0
 10
93.37759057995422
 20
-138.6888644401542
 30
0.0
 10
93.37759057995422
 20
-138.7121188346796
 30
0.0
 10
93.35847030001108
 20
-138.7205593186185
 30
0.0
 10
93.32264130696448
 20
-138.735373229205
 30
0.0
 10
93.32040199489907
 20
-138.7903225021948
 30
0.0
 10
93.31833493760791
 20
-138.8051364127814
 30
0.0
 10
93.31626788031677
 20
-138.9300211241217
 30
0.0
 10
93.31626788031677
 20
-138.9300211241217
 30
0.0
 10
93.31402856825136
 20
-139.0695474912743
 30
0.0
 10
93.31402856825136
 20
-139.0695474912743
 30
0.0
 10
93.31402856825136
 20
-139.0695474912743
 30
0.0
 10
93.60600041062628
 20
-139.0695474912743
 30
0.0
 10
93.60600041062628
 20
-139.0695474912743
 30
0.0
 10
93.6716294796203
 20
-139.0695474912743
 30
0.0
 10
93.89366588364464
 20
-139.0590399500443
 30
0.0
 10
93.96997474864293
 20
-139.0505994661054
 30
0.0
 10
93.96997474864293
 20
-139.0505994661054
 30
0.0
 10
93.96997474864293
 20
-139.2409409916655
 30
0.0
 10
93.96997474864293
 20
-139.2409409916655
 30
0.0
 10
93.85783689059805
 20
-139.2304334504354
 30
0.0
 10
93.71813826867117
 20
-139.2304334504354
 30
0.0
 10
93.60600041062628
 20
-139.2304334504354
 30
0.0
 10
93.60600041062628
 20
-139.2304334504354
 30
0.0
 10
93.3078273963779
 20
-139.2304334504354
 30
0.0
 10
93.3078273963779
 20
-139.2304334504354
 30
0.0
 10
93.30558808431249
 20
-139.2853827234252
 30
0.0
 10
93.29921465766478
 20
-139.3742661869446
 30
0.0
 10
93.29077417372592
 20
-139.4504027971687
 30
0.0
 10
93.29077417372592
 20
-139.4504027971687
 30
0.0
 10
93.51711694710684
 20
-139.4504027971687
 30
0.0
 10
93.51711694710684
 20
-139.4504027971687
 30
0.0
 10
93.56379799093197
 20
-139.4504027971687
 30
0.0
 10
93.77102048436974
 20
-139.4460964278121
 30
0.0
 10
93.81339515883832
 20
-139.444029370521
 30
0.0
 10
93.81339515883832
 20
-139.444029370521
 30
0.0
 10
93.88109128512347
 20
-139.5137925540973
 30
0.0
 10
93.88109128512347
 20
-139.5137925540973
 30
0.0
 10
93.82390270006833
 20
-139.7845770592379
 30
0.0
 10
93.7372585486143
 20
-139.9814642662199
 30
0.0
 10
93.64200165844714
 20
-140.1294311173114
 30
0.0
 10
93.79220782160404
 20
-140.275503165886
 30
0.0
 10
93.94878741140865
 20
-140.3473334067534
 30
0.0
 10
94.0206176522761
 20
-140.379200539992
 30
0.0
 10
94.0206176522761
 20
-140.379200539992
 30
0.0
 10
93.88109128512347
 20
-140.5547281549655
 30
0.0
 10
93.88109128512347
 20
-140.5547281549655
 30
0.0
  0
SPLINE
  5
D1
330
C8
100
AcDbEntity
  8
_U+30EC_U+30A4_U+30E4_U+30FC 1
370
     0
100
AcDbSpline
210
0.0
220
0.0
230
1.0
 70
    11
 71
     3
 72
    14
 73
    10
 74
     0
 42
0.0000000001
 43
0.0000000001
 12
1.0
 22
0.0
 32
0.0
 13
1.0
 23
0.0
 33
0.0
 40
0.0
 40
0.0
 40
0.0
 40
0.0
 40
1.0
 40
1.0
 40
1.0
 40
2.0
 40
2.0
 40
2.0
 40
3.0
 40
3.0
 40
3.0
 40
3.0
 10
93.37965763724537
 20
-139.6302367814987
 30
0.0
 10
93.4346069102351
 20
-139.8376315297107
 30
0.0
 10
93.48335501135139
 20
-139.9179022545171
 30
0.0
 10
93.51711694710684
 20
-139.9750908395722
 30
0.0
 10
93.59118650003971
 20
-139.8460720136496
 30
0.0
 10
93.62718774786057
 20
-139.727560728957
 30
0.0
 10
93.65474851174257
 20
-139.6302367814987
 30
0.0
 10
93.65474851174257
 20
-139.6302367814987
 30
0.0
 10
93.37965763724537
 20
-139.6302367814987
 30
0.0
 10
93.37965763724537
 20
-139.6302367814987
 30
0.0
  0
HATCH
  5
D2
330
C8
100
AcDbEntity
  8
_U+30EC_U+30A4_U+30E4_U+30FC 1
 62
   179
420
  2234388
100
AcDbHatch
 10
0.0
 20
0.0
 30
0.0
210
0.0
220
0.0
230
1.0
  2
SOLID
 70
     1
 71
     0
 91
        3
 92
        1
 93
        1
 72
     4
 94
        3
 73
     0
 74
     1
 95
       98
 96
       94
 40
0.0
 40
0.0
 40
0.0
 40
0.0
 40
1.0
 40
1.0
 40
1.0
 40
2.0
 40
2.0
 40
2.0
 40
3.0
 40
3.0
 40
3.0
 40
4.0
 40
4.0
 40
4.0
 40
5.0
 40
5.0
 40
5.0
 40
6.0
 40
6.0
 40
6.0
 40
7.0
 40
7.0
 40
7.0
 40
8.0
 40
8.0
 40
8.0
 40
9.0
 40
9.0
 40
9.0
 40
10.0
 40
10.0
 40
10.0
 40
11.0
 40
11.0
 40
11.0
 40
12.0
 40
12.0
 40
12.0
 40
13.0
 40
13.0
 40
13.0
 40
14.0
 40
14.0
 40
14.0
 40
15.0
 40
15.0
 40
15.0
 40
16.0
 40
16.0
 40
16.0
 40
17.0
 40
17.0
 40
17.0
 40
18.0
 40
18.0
 40
18.0
 40
19.0
 40
19.0
 40
19.0
 40
20.0
 40
20.0
 40
20.0
 40
21.0
 40
21.0
 40
21.0
 40
22.0
 40
22.0
 40
22.0
 40
23.0
 40
23.0
 40
23.0
 40
24.0
 40
24.0
 40
24.0
 40
25.0
 40
25.0
 40
25.0
 40
26.0
 40
26.0
 40
26.0
 40
27.0
 40
27.0
 40
27.0
 40
28.0
 40
28.0
 40
28.0
 40
29.0
 40
29.0
 40
29.0
 40
30.0
 40
30.0
 40
30.0
 40
31.0
 40
31.0
 40
31.0
 40
31.0
 10
92.83602156967294
 20
-139.661931659963
 10
92.70476343168492
 20
-139.7316948435393
 10
92.64137367475632
 20
-139.7592556074213
 10
92.58642440176659
 20
-139.7845770592379
 10
92.58642440176659
 20
-139.7845770592379
 10
92.58642440176659
 20
-139.9347832223948
 10
92.58642440176659
 20
-139.9347832223948
 10
92.58642440176659
 20
-139.9983452340977
 10
92.59055851634889
 20
-140.2839436498249
 10
92.59055851634889
 20
-140.3431992921712
 10
92.59055851634889
 20
-140.5145927925623
 10
92.54611678458917
 20
-140.5736761801344
 10
92.22675643310652
 20
-140.5588622695478
 10
92.22675643310652
 20
-140.5588622695478
 10
92.1294324856482
 20
-140.3557738906923
 10
92.1294324856482
 20
-140.3557738906923
 10
92.1611273641125
 20
-140.36214731734
 10
92.24363740098423
 20
-140.3748941706355
 10
92.30926646997824
 20
-140.3748941706355
 10
92.38747013749341
 20
-140.3748941706355
 10
92.38747013749341
 20
-140.3431992921712
 10
92.38747013749341
 20
-140.2606892552994
 10
92.38747013749341
 20
-140.2606892552994
 10
92.38747013749341
 20
-139.8670870961096
 10
92.38747013749341
 20
-139.8670870961096
 10
92.30496010062168
 20
-139.8967149172828
 10
92.25638425427965
 20
-139.9137681399347
 10
92.18662107070335
 20
-139.9347832223948
 10
92.18024764405564
 20
-139.9602769289856
 10
92.17387421740793
 20
-139.9876654380934
 10
92.15475393746479
 20
-139.9876654380934
 10
92.13994002687821
 20
-139.9876654380934
 10
92.1335666002305
 20
-139.9750908395722
 10
92.1294324856482
 20
-139.9644110435679
 10
92.1294324856482
 20
-139.9644110435679
 10
92.06173635936304
 20
-139.738068270187
 10
92.06173635936304
 20
-139.738068270187
 10
92.23519691704537
 20
-139.6958658504927
 10
92.3113335272694
 20
-139.6726114559673
 10
92.38747013749341
 20
-139.6491848066676
 10
92.38747013749341
 20
-139.6491848066676
 10
92.38747013749341
 20
-139.2325005077266
 10
92.38747013749341
 20
-139.2325005077266
 10
92.38747013749341
 20
-139.2325005077266
 10
92.34096134844255
 20
-139.2325005077266
 10
92.34096134844255
 20
-139.2325005077266
 10
92.25845131157081
 20
-139.2325005077266
 10
92.1611273641125
 20
-139.2325005077266
 10
92.08705781117963
 20
-139.245247361022
 10
92.08705781117963
 20
-139.245247361022
 10
92.08705781117963
 20
-139.0547335806877
 10
92.08705781117963
 20
-139.0547335806877
 10
92.1886881279945
 20
-139.0717868033397
 10
92.33045380721254
 20
-139.0738538606309
 10
92.34096134844255
 20
-139.0738538606309
 10
92.34096134844255
 20
-139.0738538606309
 10
92.38747013749341
 20
-139.0738538606309
 10
92.38747013749341
 20
-139.0738538606309
 10
92.38747013749341
 20
-138.8771389084231
 10
92.38333602291111
 20
-138.7438137131439
 10
92.37902965355455
 20
-138.6571695616899
 10
92.37902965355455
 20
-138.6571695616899
 10
92.60761173900087
 20
-138.6740505295676
 10
92.60761173900087
 20
-138.6740505295676
 10
92.61381291087433
 20
-138.6740505295676
 10
92.63930661746518
 20
-138.6781846441499
 10
92.63930661746518
 20
-138.697304924093
 10
92.63930661746518
 20
-138.7162529492619
 10
92.61811928023089
 20
-138.7269327452662
 10
92.5927978284143
 20
-138.7396795985616
 10
92.59055851634889
 20
-138.7818820182559
 10
92.58418508970118
 20
-138.8454440299588
 10
92.58418508970118
 20
-138.9172742708263
 10
92.58418508970118
 20
-138.9172742708263
 10
92.58418508970118
 20
-139.0717868033397
 10
92.58418508970118
 20
-139.0717868033397
 10
92.5969319429966
 20
-139.0738538606309
 10
92.72819008098462
 20
-139.0717868033397
 10
92.82327471637753
 20
-139.0547335806877
 10
92.82327471637753
 20
-139.0547335806877
 10
92.82327471637753
 20
-139.245247361022
 10
92.82327471637753
 20
-139.245247361022
 10
92.7471381061535
 20
-139.2325005077266
 10
92.6456800441129
 20
-139.2325005077266
 10
92.58642440176659
 20
-139.2325005077266
 10
92.58642440176659
 20
-139.2325005077266
 10
92.58642440176659
 20
-139.585795049739
 10
92.58642440176659
 20
-139.585795049739
 10
92.71957734227149
 20
-139.5392862606881
 10
92.79157983791322
 20
-139.5117254968061
 10
92.85083548025952
 20
-139.4884711022807
 10
92.85083548025952
 20
-139.4884711022807
 10
92.83602156967294
 20
-139.661931659963
 10
92.83602156967294
 20
-139.661931659963
 97
        0
 97
        0
 92
        1
 93
        1
 72
     4
 94
        3
 73
     0
 74
     1
 95
       92
 96
       88
 40
0.0
 40
0.0
 40
0.0
 40
0.0
 40
1.0
 40
1.0
 40
1.0
 40
2.0
 40
2.0
 40
2.0
 40
3.0
 40
3.0
 40
3.0
 40
4.0
 40
4.0
 40
4.0
 40
5.0
 40
5.0
 40
5.0
 40
6.0
 40
6.0
 40
6.0
 40
7.0
 40
7.0
 40
7.0
 40
8.0
 40
8.0
 40
8.0
 40
9.0
 40
9.0
 40
9.0
 40
10.0
 40
10.0
 40
10.0
 40
11.0
 40
11.0
 40
11.0
 40
12.0
 40
12.0
 40
12.0
 40
13.0
 40
13.0
 40
13.0
 40
14.0
 40
14.0
 40
14.0
 40
15.0
 40
15.0
 40
15.0
 40
16.0
 40
16.0
 40
16.0
 40
17.0
 40
17.0
 40
17.0
 40
18.0
 40
18.0
 40
18.0
 40
19.0
 40
19.0
 40
19.0
 40
20.0
 40
20.0
 40
20.0
 40
21.0
 40
21.0
 40
21.0
 40
22.0
 40
22.0
 40
22.0
 40
23.0
 40
23.0
 40
23.0
 40
24.0
 40
24.0
 40
24.0
 40
25.0
 40
25.0
 40
25.0
 40
26.0
 40
26.0
 40
26.0
 40
27.0
 40
27.0
 40
27.0
 40
28.0
 40
28.0
 40
28.0
 40
29.0
 40
29.0
 40
29.0
 40
29.0
 10
93.88109128512347
 20
-140.5547281549655
 10
93.82183564277719
 20
-140.5251003337924
 10
93.66732311026372
 20
-140.4489637235683
 10
93.51711694710684
 20
-140.2923841337637
 10
93.4621676741171
 20
-140.3537068334012
 10
93.32677542154678
 20
-140.4954725126192
 10
93.16382240509446
 20
-140.5716091228432
 10
93.16382240509446
 20
-140.5716091228432
 10
92.97554793682556
 20
-140.4320827556906
 10
92.97554793682556
 20
-140.4320827556906
 10
93.05599091640615
 20
-140.4065890490998
 10
93.21894393285847
 20
-140.35163977611
 10
93.3965386051231
 20
-140.1485513972545
 10
93.35640324271994
 20
-140.0913628121994
 10
93.30145396973019
 20
-140.0047186607454
 10
93.23151853137962
 20
-139.7868163713033
 10
93.11731361604359
 20
-140.1802462757188
 10
92.94178600107011
 20
-140.379200539992
 10
92.7852064112655
 20
-140.5207939644358
 10
92.7852064112655
 20
-140.5207939644358
 10
92.59486488570545
 20
-140.4086561063909
 10
92.59486488570545
 20
-140.4086561063909
 10
93.06667071241041
 20
-140.0553615643785
 10
93.10043264816586
 20
-139.4905381595718
 10
93.11524655875245
 20
-139.2304334504354
 10
93.04755043246729
 20
-139.2304334504354
 10
92.93334551713126
 20
-139.2368068770832
 10
92.88683672808038
 20
-139.2409409916655
 10
92.88683672808038
 20
-139.2409409916655
 10
92.88683672808038
 20
-139.0505994661054
 10
92.88683672808038
 20
-139.0505994661054
 10
92.94815942771783
 20
-139.0590399500443
 10
92.9693467649521
 20
-139.0611070073354
 10
93.12161998540016
 20
-139.0674804339831
 10
93.1236870426913
 20
-138.9660223719425
 10
93.1236870426913
 20
-138.8051364127814
 10
93.09836559087472
 20
-138.6464897656856
 10
93.09836559087472
 20
-138.6464897656856
 10
93.34158933213335
 20
-138.6656100456287
 10
93.34158933213335
 20
-138.6656100456287
 10
93.35847030001108
 20
-138.6676771029199
 10
93.37759057995422
 20
-138.6697441602111
 10
93.37759057995422
 20
-138.6888644401542
 10
93.37759057995422
 20
-138.7121188346796
 10
93.35847030001108
 20
-138.7205593186185
 10
93.32264130696448
 20
-138.735373229205
 10
93.32040199489907
 20
-138.7903225021948
 10
93.31833493760791
 20
-138.8051364127814
 10
93.31626788031677
 20
-138.9300211241217
 10
93.31626788031677
 20
-138.9300211241217
 10
93.31402856825136
 20
-139.0695474912743
 10
93.31402856825136
 20
-139.0695474912743
 10
93.31402856825136
 20
-139.0695474912743
 10
93.60600041062628
 20
-139.0695474912743
 10
93.60600041062628
 20
-139.0695474912743
 10
93.6716294796203
 20
-139.0695474912743
 10
93.89366588364464
 20
-139.0590399500443
 10
93.96997474864293
 20
-139.0505994661054
 10
93.96997474864293
 20
-139.0505994661054
 10
93.96997474864293
 20
-139.2409409916655
 10
93.96997474864293
 20
-139.2409409916655
 10
93.85783689059805
 20
-139.2304334504354
 10
93.71813826867117
 20
-139.2304334504354
 10
93.60600041062628
 20
-139.2304334504354
 10
93.60600041062628
 20
-139.2304334504354
 10
93.3078273963779
 20
-139.2304334504354
 10
93.3078273963779
 20
-139.2304334504354
 10
93.30558808431249
 20
-139.2853827234252
 10
93.29921465766478
 20
-139.3742661869446
 10
93.29077417372592
 20
-139.4504027971687
 10
93.29077417372592
 20
-139.4504027971687
 10
93.51711694710684
 20
-139.4504027971687
 10
93.51711694710684
 20
-139.4504027971687
 10
93.56379799093197
 20
-139.4504027971687
 10
93.77102048436974
 20
-139.4460964278121
 10
93.81339515883832
 20
-139.444029370521
 10
93.81339515883832
 20
-139.444029370521
 10
93.88109128512347
 20
-139.5137925540973
 10
93.88109128512347
 20
-139.5137925540973
 10
93.82390270006833
 20
-139.7845770592379
 10
93.7372585486143
 20
-139.9814642662199
 10
93.64200165844714
 20
-140.1294311173114
 10
93.79220782160404
 20
-140.275503165886
 10
93.94878741140865
 20
-140.3473334067534
 10
94.0206176522761
 20
-140.379200539992
 10
94.0206176522761
 20
-140.379200539992
 10
93.88109128512347
 20
-140.5547281549655
 10
93.88109128512347
 20
-140.5547281549655
 97
        0
 97
        0
 92
        1
 93
        1
 72
     4
 94
        3
 73
     0
 74
     1
 95
       14
 96
       10
 40
0.0
 40
0.0
 40
0.0
 40
0.0
 40
1.0
 40
1.0
 40
1.0
 40
2.0
 40
2.0
 40
2.0
 40
3.0
 40
3.0
 40
3.0
 40
3.0
 10
93.37965763724537
 20
-139.6302367814987
 10
93.4346069102351
 20
-139.8376315297107
 10
93.48335501135139
 20
-139.9179022545171
 10
93.51711694710684
 20
-139.9750908395722
 10
93.59118650003971
 20
-139.8460720136496
 10
93.62718774786057
 20
-139.727560728957
 10
93.65474851174257
 20
-139.6302367814987
 10
93.65474851174257
 20
-139.6302367814987
 10
93.37965763724537
 20
-139.6302367814987
 10
93.37965763724537
 20
-139.6302367814987
 97
        0
 97
        0
 75
     2
 76
     1
 98
        0
  0
SPLINE
  5
D3
330
C8
100
AcDbEntity
  8
_U+30EC_U+30A4_U+30E4_U+30FC 1
370
     0
100
AcDbSpline
210
0.0
220
0.0
230
1.0
 70
    11
 71
     3
 72
   119
 73
   115
 74
     0
 42
0.0000000001
 43
0.0000000001
 12
1.0
 22
0.0
 32
0.0
 13
1.0
 23
0.0
 33
0.0
 40
0.0
 40
0.0
 40
0.0
 40
0.0
 40
1.0
 40
1.0
 40
1.0
 40
2.0
 40
2.0
 40
2.0
 40
3.0
 40
3.0
 40
3.0
 40
4.0
 40
4.0
 40
4.0
 40
5.0
 40
5.0
 40
5.0
 40
6.0
 40
6.0
 40
6.0
 40
7.0
 40
7.0
 40
7.0
 40
8.0
 40
8.0
 40
8.0
 40
9.0
 40
9.0
 40
9.0
 40
10.0
 40
10.0
 40
10.0
 40
11.0
 40
11.0
 40
11.0
 40
12.0
 40
12.0
 40
12.0
 40
13.0
 40
13.0
 40
13.0
 40
14.0
 40
14.0
 40
14.0
 40
15.0
 40
15.0
 40
15.0
 40
16.0
 40
16.0
 40
16.0
 40
17.0
 40
17.0
 40
17.0
 40
18.0
 40
18.0
 40
18.0
 40
19.0
 40
19.0
 40
19.0
 40
20.0
 40
20.0
 40
20.0
 40
21.0
 40
21.0
 40
21.0
 40
22.0
 40
22.0
 40
22.0
 40
23.0
 40
23.0
 40
23.0
 40
24.0
 40
24.0
 40
24.0
 40
25.0
 40
25.0
 40
25.0
 40
26.0
 40
26.0
 40
26.0
 40
27.0
 40
27.0
 40
27.0
 40
28.0
 40
28.0
 40
28.0
 40
29.0
 40
29.0
 40
29.0
 40
30.0
 40
30.0
 40
30.0
 40
31.0
 40
31.0
 40
31.0
 40
32.0
 40
32.0
 40
32.0
 40
33.0
 40
33.0
 40
33.0
 40
34.0
 40
34.0
 40
34.0
 40
35.0
 40
35.0
 40
35.0
 40
36.0
 40
36.0
 40
36.0
 40
37.0
 40
37.0
 40
37.0
 40
38.0
 40
38.0
 40
38.0
 40
38.0
 10
95.20211314894253
 20
-139.4672837650464
 30
0.0
 10
95.25930173399767
 20
-139.5646077125047
 30
0.0
 10
95.377640763916
 20
-139.755121492839
 30
0.0
 10
95.53008623913831
 20
-139.9199693118082
 30
0.0
 10
95.53008623913831
 20
-139.9199693118082
 30
0.0
 10
95.42208249567574
 20
-140.0660413603828
 30
0.0
 10
95.42208249567574
 20
-140.0660413603828
 30
0.0
 10
95.25499536464112
 20
-139.9899047501588
 30
0.0
 10
95.07309432301993
 20
-139.9306491078125
 30
0.0
 10
94.88895396933331
 20
-139.9306491078125
 30
0.0
 10
94.74098711824185
 20
-139.9306491078125
 30
0.0
 10
94.55271264997293
 20
-140.0047186607454
 30
0.0
 10
94.55271264997293
 20
-140.1421779706068
 30
0.0
 10
94.55271264997293
 20
-140.3199448976457
 30
0.0
 10
94.76630857005843
 20
-140.3304524388757
 30
0.0
 10
94.85725909086902
 20
-140.3304524388757
 30
0.0
 10
94.89326033868988
 20
-140.3304524388757
 30
0.0
 10
95.12804359600966
 20
-140.3304524388757
 30
0.0
 10
95.37126733726829
 20
-140.2648233698817
 30
0.0
 10
95.37126733726829
 20
-140.2648233698817
 30
0.0
 10
95.37126733726829
 20
-140.4806586020326
 30
0.0
 10
95.37126733726829
 20
-140.4806586020326
 30
0.0
 10
95.301504153692
 20
-140.4849649713892
 30
0.0
 10
94.99265134343935
 20
-140.5059800538492
 30
0.0
 10
94.92926158651075
 20
-140.5059800538492
 30
0.0
 10
94.82556421240473
 20
-140.5059800538492
 30
0.0
 10
94.61403534961039
 20
-140.4954725126192
 30
0.0
 10
94.50827091821321
 20
-140.4234700169775
 30
0.0
 10
94.40250648681605
 20
-140.3495727188189
 30
0.0
 10
94.35599769776518
 20
-140.237434860774
 30
0.0
 10
94.35599769776518
 20
-140.1378716012503
 30
0.0
 10
94.35599769776518
 20
-140.0405476537919
 30
0.0
 10
94.40250648681605
 20
-139.9454630183991
 30
0.0
 10
94.45538870251463
 20
-139.8989542293482
 30
0.0
 10
94.54203285396866
 20
-139.8205783070588
 30
0.0
 10
94.72186683829871
 20
-139.7635619767779
 30
0.0
 10
94.8996337653376
 20
-139.7635619767779
 30
0.0
 10
95.02021210732134
 20
-139.7635619767779
 30
0.0
 10
95.10909557084078
 20
-139.7868163713033
 30
0.0
 10
95.2105536328814
 20
-139.814204880411
 30
0.0
 10
95.14923093324394
 20
-139.7191202450181
 30
0.0
 10
95.06465383908106
 20
-139.5878621070301
 30
0.0
 10
95.0286525912602
 20
-139.5265394073927
 30
0.0
 10
94.73030732223756
 20
-139.6174899282033
 30
0.0
 10
94.54427216603408
 20
-139.661931659963
 30
0.0
 10
94.26280786488917
 20
-139.6662380293195
 30
0.0
 10
94.26280786488917
 20
-139.6662380293195
 30
0.0
 10
94.1909776240217
 20
-139.4800306183418
 30
0.0
 10
94.1909776240217
 20
-139.4800306183418
 30
0.0
 10
94.23524710100716
 20
-139.4843369876984
 30
0.0
 10
94.26074080759801
 20
-139.4864040449895
 30
0.0
 10
94.31569008058774
 20
-139.4864040449895
 30
0.0
 10
94.39820011745948
 20
-139.4864040449895
 30
0.0
 10
94.5611531339118
 20
-139.4779635610506
 30
0.0
 10
94.75993514341071
 20
-139.4314547719998
 30
0.0
 10
94.8403781229913
 20
-139.4123344920567
 30
0.0
 10
94.89119328139873
 20
-139.3932142121135
 30
0.0
 10
94.93976912774076
 20
-139.3742661869446
 30
0.0
 10
94.92288815986304
 20
-139.3425713084803
 30
0.0
 10
94.85088566422131
 20
-139.1964992599057
 30
0.0
 10
94.83607175363474
 20
-139.169110750798
 30
0.0
 10
94.70067950106441
 20
-139.20717905591
 30
0.0
 10
94.54633922332522
 20
-139.2493814756043
 30
0.0
 10
94.26918129153688
 20
-139.2726358701298
 30
0.0
 10
94.26918129153688
 20
-139.2726358701298
 30
0.0
 10
94.18873831195629
 20
-139.1014146245128
 30
0.0
 10
94.18873831195629
 20
-139.1014146245128
 30
0.0
 10
94.22904592913372
 20
-139.1055487390952
 30
0.0
 10
94.24162052765487
 20
-139.1055487390952
 30
0.0
 10
94.2755547181846
 20
-139.1055487390952
 30
0.0
 10
94.42989499592377
 20
-139.1055487390952
 30
0.0
 10
94.6245428908404
 20
-139.0781602299874
 30
0.0
 10
94.76837562734957
 20
-139.0230387022234
 30
0.0
 10
94.71979978100755
 20
-138.923647697474
 30
0.0
 10
94.67105167989126
 20
-138.8242566927245
 30
0.0
 10
94.6245428908404
 20
-138.724865687975
 30
0.0
 10
94.6245428908404
 20
-138.724865687975
 30
0.0
 10
94.83193763905244
 20
-138.7014390386753
 30
0.0
 10
94.83193763905244
 20
-138.7014390386753
 30
0.0
 10
94.86569957480789
 20
-138.697304924093
 30
0.0
 10
94.87000594416445
 20
-138.6952378668019
 30
0.0
 10
94.87637937081216
 20
-138.6952378668019
 30
0.0
 10
94.91014130656761
 20
-138.6952378668019
 30
0.0
 10
94.91651473321532
 20
-138.7078124653231
 30
0.0
 10
94.91651473321532
 20
-138.7289998025574
 30
0.0
 10
94.91651473321532
 20
-138.7438137131439
 30
0.0
 10
94.91220836385875
 20
-138.7501871397916
 30
0.0
 10
94.90807424927645
 20
-138.7544935091482
 30
0.0
 10
94.9037678799199
 20
-138.7586276237305
 30
0.0
 10
94.88275279745987
 20
-138.7818820182559
 30
0.0
 10
94.8784464281033
 20
-138.7861883876125
 30
0.0
 10
94.90600719198531
 20
-138.8750718511319
 30
0.0
 10
94.92082110257188
 20
-138.9109008441785
 30
0.0
 10
94.94614255438847
 20
-138.9680894292337
 30
0.0
 10
95.05190698578564
 20
-138.9320881814128
 30
0.0
 10
95.21262069017254
 20
-138.8750718511319
 30
0.0
 10
95.35438636939057
 20
-138.7670681076694
 30
0.0
 10
95.35438636939057
 20
-138.7670681076694
 30
0.0
 10
95.41157495444573
 20
-138.9448350347082
 30
0.0
 10
95.41157495444573
 20
-138.9448350347082
 30
0.0
 10
95.2486219379934
 20
-139.0294121288711
 30
0.0
 10
95.08360186424994
 20
-139.0843614018609
 30
0.0
 10
95.00333113944362
 20
-139.1119221657429
 30
0.0
 10
95.02021210732134
 20
-139.1436170442072
 30
0.0
 10
95.0920423481888
 20
-139.2896890927817
 30
0.0
 10
95.10685625877538
 20
-139.3170776018895
 30
0.0
 10
95.22743460075912
 20
-139.2748751821952
 30
0.0
 10
95.4263888650323
 20
-139.190125833258
 30
0.0
 10
95.57228865883263
 20
-139.0907348285086
 30
0.0
 10
95.57228865883263
 20
-139.0907348285086
 30
0.0
 10
95.6187974478835
 20
-139.2853827234252
 30
0.0
 10
95.6187974478835
 20
-139.2853827234252
 30
0.0
 10
95.45601668620544
 20
-139.3658257030058
 30
0.0
 10
95.36282685332944
 20
-139.4080281227001
 30
0.0
 10
95.20211314894253
 20
-139.4672837650464
 30
0.0
  0
HATCH
  5
D4
330
C8
100
AcDbEntity
  8
_U+30EC_U+30A4_U+30E4_U+30FC 1
 62
   179
420
  2234388
100
AcDbHatch
 10
0.0
 20
0.0
 30
0.0
210
0.0
220
0.0
230
1.0
  2
SOLID
 70
     1
 71
     0
 91
        1
 92
        1
 93
        1
 72
     4
 94
        3
 73
     0
 74
     1
 95
      119
 96
      115
 40
0.0
 40
0.0
 40
0.0
 40
0.0
 40
1.0
 40
1.0
 40
1.0
 40
2.0
 40
2.0
 40
2.0
 40
3.0
 40
3.0
 40
3.0
 40
4.0
 40
4.0
 40
4.0
 40
5.0
 40
5.0
 40
5.0
 40
6.0
 40
6.0
 40
6.0
 40
7.0
 40
7.0
 40
7.0
 40
8.0
 40
8.0
 40
8.0
 40
9.0
 40
9.0
 40
9.0
 40
10.0
 40
10.0
 40
10.0
 40
11.0
 40
11.0
 40
11.0
 40
12.0
 40
12.0
 40
12.0
 40
13.0
 40
13.0
 40
13.0
 40
14.0
 40
14.0
 40
14.0
 40
15.0
 40
15.0
 40
15.0
 40
16.0
 40
16.0
 40
16.0
 40
17.0
 40
17.0
 40
17.0
 40
18.0
 40
18.0
 40
18.0
 40
19.0
 40
19.0
 40
19.0
 40
20.0
 40
20.0
 40
20.0
 40
21.0
 40
21.0
 40
21.0
 40
22.0
 40
22.0
 40
22.0
 40
23.0
 40
23.0
 40
23.0
 40
24.0
 40
24.0
 40
24.0
 40
25.0
 40
25.0
 40
25.0
 40
26.0
 40
26.0
 40
26.0
 40
27.0
 40
27.0
 40
27.0
 40
28.0
 40
28.0
 40
28.0
 40
29.0
 40
29.0
 40
29.0
 40
30.0
 40
30.0
 40
30.0
 40
31.0
 40
31.0
 40
31.0
 40
32.0
 40
32.0
 40
32.0
 40
33.0
 40
33.0
 40
33.0
 40
34.0
 40
34.0
 40
34.0
 40
35.0
 40
35.0
 40
35.0
 40
36.0
 40
36.0
 40
36.0
 40
37.0
 40
37.0
 40
37.0
 40
38.0
 40
38.0
 40
38.0
 40
38.0
 10
95.20211314894253
 20
-139.4672837650464
 10
95.25930173399767
 20
-139.5646077125047
 10
95.377640763916
 20
-139.755121492839
 10
95.53008623913831
 20
-139.9199693118082
 10
95.53008623913831
 20
-139.9199693118082
 10
95.42208249567574
 20
-140.0660413603828
 10
95.42208249567574
 20
-140.0660413603828
 10
95.25499536464112
 20
-139.9899047501588
 10
95.07309432301993
 20
-139.9306491078125
 10
94.88895396933331
 20
-139.9306491078125
 10
94.74098711824185
 20
-139.9306491078125
 10
94.55271264997293
 20
-140.0047186607454
 10
94.55271264997293
 20
-140.1421779706068
 10
94.55271264997293
 20
-140.3199448976457
 10
94.76630857005843
 20
-140.3304524388757
 10
94.85725909086902
 20
-140.3304524388757
 10
94.89326033868988
 20
-140.3304524388757
 10
95.12804359600966
 20
-140.3304524388757
 10
95.37126733726829
 20
-140.2648233698817
 10
95.37126733726829
 20
-140.2648233698817
 10
95.37126733726829
 20
-140.4806586020326
 10
95.37126733726829
 20
-140.4806586020326
 10
95.301504153692
 20
-140.4849649713892
 10
94.99265134343935
 20
-140.5059800538492
 10
94.92926158651075
 20
-140.5059800538492
 10
94.82556421240473
 20
-140.5059800538492
 10
94.61403534961039
 20
-140.4954725126192
 10
94.50827091821321
 20
-140.4234700169775
 10
94.40250648681605
 20
-140.3495727188189
 10
94.35599769776518
 20
-140.237434860774
 10
94.35599769776518
 20
-140.1378716012503
 10
94.35599769776518
 20
-140.0405476537919
 10
94.40250648681605
 20
-139.9454630183991
 10
94.45538870251463
 20
-139.8989542293482
 10
94.54203285396866
 20
-139.8205783070588
 10
94.72186683829871
 20
-139.7635619767779
 10
94.8996337653376
 20
-139.7635619767779
 10
95.02021210732134
 20
-139.7635619767779
 10
95.10909557084078
 20
-139.7868163713033
 10
95.2105536328814
 20
-139.814204880411
 10
95.14923093324394
 20
-139.7191202450181
 10
95.06465383908106
 20
-139.5878621070301
 10
95.0286525912602
 20
-139.5265394073927
 10
94.73030732223756
 20
-139.6174899282033
 10
94.54427216603408
 20
-139.661931659963
 10
94.26280786488917
 20
-139.6662380293195
 10
94.26280786488917
 20
-139.6662380293195
 10
94.1909776240217
 20
-139.4800306183418
 10
94.1909776240217
 20
-139.4800306183418
 10
94.23524710100716
 20
-139.4843369876984
 10
94.26074080759801
 20
-139.4864040449895
 10
94.31569008058774
 20
-139.4864040449895
 10
94.39820011745948
 20
-139.4864040449895
 10
94.5611531339118
 20
-139.4779635610506
 10
94.75993514341071
 20
-139.4314547719998
 10
94.8403781229913
 20
-139.4123344920567
 10
94.89119328139873
 20
-139.3932142121135
 10
94.93976912774076
 20
-139.3742661869446
 10
94.92288815986304
 20
-139.3425713084803
 10
94.85088566422131
 20
-139.1964992599057
 10
94.83607175363474
 20
-139.169110750798
 10
94.70067950106441
 20
-139.20717905591
 10
94.54633922332522
 20
-139.2493814756043
 10
94.26918129153688
 20
-139.2726358701298
 10
94.26918129153688
 20
-139.2726358701298
 10
94.18873831195629
 20
-139.1014146245128
 10
94.18873831195629
 20
-139.1014146245128
 10
94.22904592913372
 20
-139.1055487390952
 10
94.24162052765487
 20
-139.1055487390952
 10
94.2755547181846
 20
-139.1055487390952
 10
94.42989499592377
 20
-139.1055487390952
 10
94.6245428908404
 20
-139.0781602299874
 10
94.76837562734957
 20
-139.0230387022234
 10
94.71979978100755
 20
-138.923647697474
 10
94.67105167989126
 20
-138.8242566927245
 10
94.6245428908404
 20
-138.724865687975
 10
94.6245428908404
 20
-138.724865687975
 10
94.83193763905244
 20
-138.7014390386753
 10
94.83193763905244
 20
-138.7014390386753
 10
94.86569957480789
 20
-138.697304924093
 10
94.87000594416445
 20
-138.6952378668019
 10
94.87637937081216
 20
-138.6952378668019
 10
94.91014130656761
 20
-138.6952378668019
 10
94.91651473321532
 20
-138.7078124653231
 10
94.91651473321532
 20
-138.7289998025574
 10
94.91651473321532
 20
-138.7438137131439
 10
94.91220836385875
 20
-138.7501871397916
 10
94.90807424927645
 20
-138.7544935091482
 10
94.9037678799199
 20
-138.7586276237305
 10
94.88275279745987
 20
-138.7818820182559
 10
94.8784464281033
 20
-138.7861883876125
 10
94.90600719198531
 20
-138.8750718511319
 10
94.92082110257188
 20
-138.9109008441785
 10
94.94614255438847
 20
-138.9680894292337
 10
95.05190698578564
 20
-138.9320881814128
 10
95.21262069017254
 20
-138.8750718511319
 10
95.35438636939057
 20
-138.7670681076694
 10
95.35438636939057
 20
-138.7670681076694
 10
95.41157495444573
 20
-138.9448350347082
 10
95.41157495444573
 20
-138.9448350347082
 10
95.2486219379934
 20
-139.0294121288711
 10
95.08360186424994
 20
-139.0843614018609
 10
95.00333113944362
 20
-139.1119221657429
 10
95.02021210732134
 20
-139.1436170442072
 10
95.0920423481888
 20
-139.2896890927817
 10
95.10685625877538
 20
-139.3170776018895
 10
95.22743460075912
 20
-139.2748751821952
 10
95.4263888650323
 20
-139.190125833258
 10
95.57228865883263
 20
-139.0907348285086
 10
95.57228865883263
 20
-139.0907348285086
 10
95.6187974478835
 20
-139.2853827234252
 10
95.6187974478835
 20
-139.2853827234252
 10
95.45601668620544
 20
-139.3658257030058
 10
95.36282685332944
 20
-139.4080281227001
 10
95.20211314894253
 20
-139.4672837650464
 97
        0
 97
        0
 75
     2
 76
     1
 98
        0
  0
SPLINE
  5
D5
330
C8
100
AcDbEntity
  8
_U+30EC_U+30A4_U+30E4_U+30FC 1
370
     0
100
AcDbSpline
210
0.0
220
0.0
230
1.0
 70
    11
 71
     3
 72
    26
 73
    22
 74
     0
 42
0.0000000001
 43
0.0000000001
 12
1.0
 22
0.0
 32
0.0
 13
1.0
 23
0.0
 33
0.0
 40
0.0
 40
0.0
 40
0.0
 40
0.0
 40
1.0
 40
1.0
 40
1.0
 40
2.0
 40
2.0
 40
2.0
 40
3.0
 40
3.0
 40
3.0
 40
4.0
 40
4.0
 40
4.0
 40
5.0
 40
5.0
 40
5.0
 40
6.0
 40
6.0
 40
6.0
 40
7.0
 40
7.0
 40
7.0
 40
7.0
 10
96.63544512558073
 20
-139.6302367814987
 30
0.0
 10
96.63337806828957
 20
-139.6323038387899
 30
0.0
 10
96.59944387775987
 20
-139.6386772654376
 30
0.0
 10
96.59737682046871
 20
-139.6386772654376
 30
0.0
 10
96.51486678359699
 20
-139.9687174129245
 30
0.0
 10
96.3393391686235
 20
-140.3728271133443
 30
0.0
 10
96.0261799890143
 20
-140.5588622695478
 30
0.0
 10
96.0261799890143
 20
-140.5588622695478
 30
0.0
 10
95.83997257803654
 20
-140.4065890490998
 30
0.0
 10
95.83997257803654
 20
-140.4065890490998
 30
0.0
 10
96.30540497809379
 20
-140.1781792184277
 30
0.0
 10
96.38584795767437
 20
-139.6450506920853
 30
0.0
 10
96.41340872155638
 20
-139.4609103383987
 30
0.0
 10
96.41340872155638
 20
-139.4609103383987
 30
0.0
 10
96.63131101099843
 20
-139.5604735979224
 30
0.0
 10
96.63131101099843
 20
-139.5604735979224
 30
0.0
 10
96.65232609345846
 20
-139.5709811391524
 30
0.0
 10
96.66507294675388
 20
-139.5794216230913
 30
0.0
 10
96.66507294675388
 20
-139.5985419030344
 30
0.0
 10
96.66507294675388
 20
-139.623863354851
 30
0.0
 10
96.64595266681074
 20
-139.6281697242075
 30
0.0
 10
96.63544512558073
 20
-139.6302367814987
 30
0.0
  0
SPLINE
  5
D6
330
C8
100
AcDbEntity
  8
_U+30EC_U+30A4_U+30E4_U+30FC 1
370
     0
100
AcDbSpline
210
0.0
220
0.0
230
1.0
 70
    11
 71
     3
 72
    68
 73
    64
 74
     0
 42
0.0000000001
 43
0.0000000001
 12
1.0
 22
0.0
 32
0.0
 13
1.0
 23
0.0
 33
0.0
 40
0.0
 40
0.0
 40
0.0
 40
0.0
 40
1.0
 40
1.0
 40
1.0
 40
2.0
 40
2.0
 40
2.0
 40
3.0
 40
3.0
 40
3.0
 40
4.0
 40
4.0
 40
4.0
 40
5.0
 40
5.0
 40
5.0
 40
6.0
 40
6.0
 40
6.0
 40
7.0
 40
7.0
 40
7.0
 40
8.0
 40
8.0
 40
8.0
 40
9.0
 40
9.0
 40
9.0
 40
10.0
 40
10.0
 40
10.0
 40
11.0
 40
11.0
 40
11.0
 40
12.0
 40
12.0
 40
12.0
 40
13.0
 40
13.0
 40
13.0
 40
14.0
 40
14.0
 40
14.0
 40
15.0
 40
15.0
 40
15.0
 40
16.0
 40
16.0
 40
16.0
 40
17.0
 40
17.0
 40
17.0
 40
18.0
 40
18.0
 40
18.0
 40
19.0
 40
19.0
 40
19.0
 40
20.0
 40
20.0
 40
20.0
 40
21.0
 40
21.0
 40
21.0
 40
21.0
 10
97.46691892094577
 20
-139.4166408614132
 30
0.0
 10
97.46898597823693
 20
-139.3932142121135
 30
0.0
 10
97.47535940488464
 20
-139.3277573978937
 30
0.0
 10
97.47535940488464
 20
-139.2790092967775
 30
0.0
 10
97.47535940488464
 20
-139.2493814756043
 30
0.0
 10
97.46898597823693
 20
-139.113989223034
 30
0.0
 10
97.47105303552807
 20
-139.0866007139263
 30
0.0
 10
97.47105303552807
 20
-139.0866007139263
 30
0.0
 10
96.11506345253373
 20
-139.0866007139263
 30
0.0
 10
96.11506345253373
 20
-139.0866007139263
 30
0.0
 10
96.11506345253373
 20
-139.1098551084517
 30
0.0
 10
96.11919756711603
 20
-139.3425713084803
 30
0.0
 10
96.11919756711603
 20
-139.348944735128
 30
0.0
 10
96.11919756711603
 20
-139.3763332442358
 30
0.0
 10
96.12143687918145
 20
-139.3954535241789
 30
0.0
 10
96.1235039364726
 20
-139.4250813453521
 30
0.0
 10
96.1235039364726
 20
-139.4250813453521
 30
0.0
 10
95.88872067915283
 20
-139.4250813453521
 30
0.0
 10
95.88872067915283
 20
-139.4250813453521
 30
0.0
 10
95.89285479373513
 20
-139.38701304024
 30
0.0
 10
95.89509410580054
 20
-139.3678927602969
 30
0.0
 10
95.89716116309168
 20
-139.3150105445983
 30
0.0
 10
95.89922822038284
 20
-139.2008056292623
 30
0.0
 10
95.89922822038284
 20
-139.113989223034
 30
0.0
 10
95.89922822038284
 20
-138.9765299131725
 30
0.0
 10
95.89922822038284
 20
-138.9553425759383
 30
0.0
 10
95.89922822038284
 20
-138.9363945507694
 30
0.0
 10
95.89716116309168
 20
-138.8940198763008
 30
0.0
 10
95.9732977733157
 20
-138.896086933592
 30
0.0
 10
96.38998207225667
 20
-138.9067667295962
 30
0.0
 10
96.42184920549523
 20
-138.9067667295962
 30
0.0
 10
96.42184920549523
 20
-138.9067667295962
 30
0.0
 10
96.6778198000493
 20
-138.9067667295962
 30
0.0
 10
96.6778198000493
 20
-138.9067667295962
 30
0.0
 10
96.67351343069274
 20
-138.7417466558528
 30
0.0
 10
96.67351343069274
 20
-138.7226263759096
 30
0.0
 10
96.66937931611044
 20
-138.6528631923333
 30
0.0
 10
96.66937931611044
 20
-138.6528631923333
 30
0.0
 10
96.90829668801251
 20
-138.6761175868588
 30
0.0
 10
96.90829668801251
 20
-138.6761175868588
 30
0.0
 10
96.93155108253795
 20
-138.6781846441499
 30
0.0
 10
96.95067136248109
 20
-138.6952378668019
 30
0.0
 10
96.95067136248109
 20
-138.7121188346796
 30
0.0
 10
96.95067136248109
 20
-138.735373229205
 30
0.0
 10
96.93792450918566
 20
-138.7396795985616
 30
0.0
 10
96.89572208949136
 20
-138.7606946810216
 30
0.0
 10
96.89141572013479
 20
-138.8030693554902
 30
0.0
 10
96.88934866284364
 20
-138.8623249978365
 30
0.0
 10
96.88934866284364
 20
-138.9067667295962
 30
0.0
 10
96.88934866284364
 20
-138.9067667295962
 30
0.0
 10
97.18752167709201
 20
-138.9067667295962
 30
0.0
 10
97.18752167709201
 20
-138.9067667295962
 30
0.0
 10
97.2087090143263
 20
-138.9067667295962
 30
0.0
 10
97.50912134064008
 20
-138.896086933592
 30
0.0
 10
97.68688826767898
 20
-138.8876464496531
 30
0.0
 10
97.68051484103127
 20
-138.9363945507694
 30
0.0
 10
97.68051484103127
 20
-138.9785969704637
 30
0.0
 10
97.68051484103127
 20
-139.02734507158
 30
0.0
 10
97.68051484103127
 20
-139.1394829296248
 30
0.0
 10
97.68482121038782
 20
-139.3065700606595
 30
0.0
 10
97.69532875161784
 20
-139.4166408614132
 30
0.0
 10
97.69532875161784
 20
-139.4166408614132
 30
0.0
 10
97.46691892094577
 20
-139.4166408614132
 30
0.0
 10
97.46691892094577
 20
-139.4166408614132
 30
0.0
  0
SPLINE
  5
D7
330
C8
100
AcDbEntity
  8
_U+30EC_U+30A4_U+30E4_U+30FC 1
370
     0
100
AcDbSpline
210
0.0
220
0.0
230
1.0
 70
    11
 71
     3
 72
    32
 73
    28
 74
     0
 42
0.0000000001
 43
0.0000000001
 12
1.0
 22
0.0
 32
0.0
 13
1.0
 23
0.0
 33
0.0
 40
0.0
 40
0.0
 40
0.0
 40
0.0
 40
1.0
 40
1.0
 40
1.0
 40
2.0
 40
2.0
 40
2.0
 40
3.0
 40
3.0
 40
3.0
 40
4.0
 40
4.0
 40
4.0
 40
5.0
 40
5.0
 40
5.0
 40
6.0
 40
6.0
 40
6.0
 40
7.0
 40
7.0
 40
7.0
 40
8.0
 40
8.0
 40
8.0
 40
9.0
 40
9.0
 40
9.0
 40
9.0
 10
97.52824162058322
 20
-140.5462876710266
 30
0.0
 10
96.96755233035881
 20
-140.2078070396008
 30
0.0
 10
96.92741696795565
 20
-139.7106797610793
 30
0.0
 10
96.91260305736908
 20
-139.5308457767492
 30
0.0
 10
96.85128035773162
 20
-139.5308457767492
 30
0.0
 10
96.73914249968675
 20
-139.5392862606881
 30
0.0
 10
96.67351343069274
 20
-139.5434203752704
 30
0.0
 10
96.67351343069274
 20
-139.5434203752704
 30
0.0
 10
96.67351343069274
 20
-139.3255180858283
 30
0.0
 10
96.67351343069274
 20
-139.3255180858283
 30
0.0
 10
96.72002221974361
 20
-139.3298244551849
 30
0.0
 10
96.78565128873763
 20
-139.3361978818326
 30
0.0
 10
96.90209551613907
 20
-139.3361978818326
 30
0.0
 10
97.02267385812281
 20
-139.3361978818326
 30
0.0
 10
97.06918264717368
 20
-139.3298244551849
 30
0.0
 10
97.12413192016342
 20
-139.321383971246
 30
0.0
 10
97.11999780558112
 20
-139.3784003015269
 30
0.0
 10
97.11775849351571
 20
-139.4166408614132
 30
0.0
 10
97.11775849351571
 20
-139.4715901344029
 30
0.0
 10
97.11775849351571
 20
-139.5878621070301
 30
0.0
 10
97.11775849351571
 20
-139.8290187909976
 30
0.0
 10
97.32084687237118
 20
-140.0872286976171
 30
0.0
 10
97.43091767312491
 20
-140.2267550647697
 30
0.0
 10
97.59163137751182
 20
-140.3261460695192
 30
0.0
 10
97.71220971949556
 20
-140.3960815078697
 30
0.0
 10
97.71220971949556
 20
-140.3960815078697
 30
0.0
 10
97.52824162058322
 20
-140.5462876710266
 30
0.0
 10
97.52824162058322
 20
-140.5462876710266
 30
0.0
  0
HATCH
  5
D8
330
C8
100
AcDbEntity
  8
_U+30EC_U+30A4_U+30E4_U+30FC 1
 62
   179
420
  2234388
100
AcDbHatch
 10
0.0
 20
0.0
 30
0.0
210
0.0
220
0.0
230
1.0
  2
SOLID
 70
     1
 71
     0
 91
        3
 92
        1
 93
        1
 72
     4
 94
        3
 73
     0
 74
     1
 95
       26
 96
       22
 40
0.0
 40
0.0
 40
0.0
 40
0.0
 40
1.0
 40
1.0
 40
1.0
 40
2.0
 40
2.0
 40
2.0
 40
3.0
 40
3.0
 40
3.0
 40
4.0
 40
4.0
 40
4.0
 40
5.0
 40
5.0
 40
5.0
 40
6.0
 40
6.0
 40
6.0
 40
7.0
 40
7.0
 40
7.0
 40
7.0
 10
96.63544512558073
 20
-139.6302367814987
 10
96.63337806828957
 20
-139.6323038387899
 10
96.59944387775987
 20
-139.6386772654376
 10
96.59737682046871
 20
-139.6386772654376
 10
96.51486678359699
 20
-139.9687174129245
 10
96.3393391686235
 20
-140.3728271133443
 10
96.0261799890143
 20
-140.5588622695478
 10
96.0261799890143
 20
-140.5588622695478
 10
95.83997257803654
 20
-140.4065890490998
 10
95.83997257803654
 20
-140.4065890490998
 10
96.30540497809379
 20
-140.1781792184277
 10
96.38584795767437
 20
-139.6450506920853
 10
96.41340872155638
 20
-139.4609103383987
 10
96.41340872155638
 20
-139.4609103383987
 10
96.63131101099843
 20
-139.5604735979224
 10
96.63131101099843
 20
-139.5604735979224
 10
96.65232609345846
 20
-139.5709811391524
 10
96.66507294675388
 20
-139.5794216230913
 10
96.66507294675388
 20
-139.5985419030344
 10
96.66507294675388
 20
-139.623863354851
 10
96.64595266681074
 20
-139.6281697242075
 10
96.63544512558073
 20
-139.6302367814987
 97
        0
 97
        0
 92
        1
 93
        1
 72
     4
 94
        3
 73
     0
 74
     1
 95
       68
 96
       64
 40
0.0
 40
0.0
 40
0.0
 40
0.0
 40
1.0
 40
1.0
 40
1.0
 40
2.0
 40
2.0
 40
2.0
 40
3.0
 40
3.0
 40
3.0
 40
4.0
 40
4.0
 40
4.0
 40
5.0
 40
5.0
 40
5.0
 40
6.0
 40
6.0
 40
6.0
 40
7.0
 40
7.0
 40
7.0
 40
8.0
 40
8.0
 40
8.0
 40
9.0
 40
9.0
 40
9.0
 40
10.0
 40
10.0
 40
10.0
 40
11.0
 40
11.0
 40
11.0
 40
12.0
 40
12.0
 40
12.0
 40
13.0
 40
13.0
 40
13.0
 40
14.0
 40
14.0
 40
14.0
 40
15.0
 40
15.0
 40
15.0
 40
16.0
 40
16.0
 40
16.0
 40
17.0
 40
17.0
 40
17.0
 40
18.0
 40
18.0
 40
18.0
 40
19.0
 40
19.0
 40
19.0
 40
20.0
 40
20.0
 40
20.0
 40
21.0
 40
21.0
 40
21.0
 40
21.0
 10
97.46691892094577
 20
-139.4166408614132
 10
97.46898597823693
 20
-139.3932142121135
 10
97.47535940488464
 20
-139.3277573978937
 10
97.47535940488464
 20
-139.2790092967775
 10
97.47535940488464
 20
-139.2493814756043
 10
97.46898597823693
 20
-139.113989223034
 10
97.47105303552807
 20
-139.0866007139263
 10
97.47105303552807
 20
-139.0866007139263
 10
96.11506345253373
 20
-139.0866007139263
 10
96.11506345253373
 20
-139.0866007139263
 10
96.11506345253373
 20
-139.1098551084517
 10
96.11919756711603
 20
-139.3425713084803
 10
96.11919756711603
 20
-139.348944735128
 10
96.11919756711603
 20
-139.3763332442358
 10
96.12143687918145
 20
-139.3954535241789
 10
96.1235039364726
 20
-139.4250813453521
 10
96.1235039364726
 20
-139.4250813453521
 10
95.88872067915283
 20
-139.4250813453521
 10
95.88872067915283
 20
-139.4250813453521
 10
95.89285479373513
 20
-139.38701304024
 10
95.89509410580054
 20
-139.3678927602969
 10
95.89716116309168
 20
-139.3150105445983
 10
95.89922822038284
 20
-139.2008056292623
 10
95.89922822038284
 20
-139.113989223034
 10
95.89922822038284
 20
-138.9765299131725
 10
95.89922822038284
 20
-138.9553425759383
 10
95.89922822038284
 20
-138.9363945507694
 10
95.89716116309168
 20
-138.8940198763008
 10
95.9732977733157
 20
-138.896086933592
 10
96.38998207225667
 20
-138.9067667295962
 10
96.42184920549523
 20
-138.9067667295962
 10
96.42184920549523
 20
-138.9067667295962
 10
96.6778198000493
 20
-138.9067667295962
 10
96.6778198000493
 20
-138.9067667295962
 10
96.67351343069274
 20
-138.7417466558528
 10
96.67351343069274
 20
-138.7226263759096
 10
96.66937931611044
 20
-138.6528631923333
 10
96.66937931611044
 20
-138.6528631923333
 10
96.90829668801251
 20
-138.6761175868588
 10
96.90829668801251
 20
-138.6761175868588
 10
96.93155108253795
 20
-138.6781846441499
 10
96.95067136248109
 20
-138.6952378668019
 10
96.95067136248109
 20
-138.7121188346796
 10
96.95067136248109
 20
-138.735373229205
 10
96.93792450918566
 20
-138.7396795985616
 10
96.89572208949136
 20
-138.7606946810216
 10
96.89141572013479
 20
-138.8030693554902
 10
96.88934866284364
 20
-138.8623249978365
 10
96.88934866284364
 20
-138.9067667295962
 10
96.88934866284364
 20
-138.9067667295962
 10
97.18752167709201
 20
-138.9067667295962
 10
97.18752167709201
 20
-138.9067667295962
 10
97.2087090143263
 20
-138.9067667295962
 10
97.50912134064008
 20
-138.896086933592
 10
97.68688826767898
 20
-138.8876464496531
 10
97.68051484103127
 20
-138.9363945507694
 10
97.68051484103127
 20
-138.9785969704637
 10
97.68051484103127
 20
-139.02734507158
 10
97.68051484103127
 20
-139.1394829296248
 10
97.68482121038782
 20
-139.3065700606595
 10
97.69532875161784
 20
-139.4166408614132
 10
97.69532875161784
 20
-139.4166408614132
 10
97.46691892094577
 20
-139.4166408614132
 10
97.46691892094577
 20
-139.4166408614132
 97
        0
 97
        0
 92
        1
 93
        1
 72
     4
 94
        3
 73
     0
 74
     1
 95
       32
 96
       28
 40
0.0
 40
0.0
 40
0.0
 40
0.0
 40
1.0
 40
1.0
 40
1.0
 40
2.0
 40
2.0
 40
2.0
 40
3.0
 40
3.0
 40
3.0
 40
4.0
 40
4.0
 40
4.0
 40
5.0
 40
5.0
 40
5.0
 40
6.0
 40
6.0
 40
6.0
 40
7.0
 40
7.0
 40
7.0
 40
8.0
 40
8.0
 40
8.0
 40
9.0
 40
9.0
 40
9.0
 40
9.0
 10
97.52824162058322
 20
-140.5462876710266
 10
96.96755233035881
 20
-140.2078070396008
 10
96.92741696795565
 20
-139.7106797610793
 10
96.91260305736908
 20
-139.5308457767492
 10
96.85128035773162
 20
-139.5308457767492
 10
96.73914249968675
 20
-139.5392862606881
 10
96.67351343069274
 20
-139.5434203752704
 10
96.67351343069274
 20
-139.5434203752704
 10
96.67351343069274
 20
-139.3255180858283
 10
96.67351343069274
 20
-139.3255180858283
 10
96.72002221974361
 20
-139.3298244551849
 10
96.78565128873763
 20
-139.3361978818326
 10
96.90209551613907
 20
-139.3361978818326
 10
97.02267385812281
 20
-139.3361978818326
 10
97.06918264717368
 20
-139.3298244551849
 10
97.12413192016342
 20
-139.321383971246
 10
97.11999780558112
 20
-139.3784003015269
 10
97.11775849351571
 20
-139.4166408614132
 10
97.11775849351571
 20
-139.4715901344029
 10
97.11775849351571
 20
-139.5878621070301
 10
97.11775849351571
 20
-139.8290187909976
 10
97.32084687237118
 20
-140.0872286976171
 10
97.43091767312491
 20
-140.2267550647697
 10
97.59163137751182
 20
-140.3261460695192
 10
97.71220971949556
 20
-140.3960815078697
 10
97.71220971949556
 20
-140.3960815078697
 10
97.52824162058322
 20
-140.5462876710266
 10
97.52824162058322
 20
-140.5462876710266
 97
        0
 97
        0
 75
     2
 76
     1
 98
        0
  0
ENDBLK
  5
CB
330
C8
100
AcDbEntity
  8
0
100
AcDbBlockEnd
  0
ENDSEC
  0
SECTION
  2
ENTITIES
  0
SPLINE
  5
41
330
1F
100
AcDbEntity
  8
_U+30EC_U+30A4_U+30E4_U+30FC 1
 62
   179
420
  2234388
370
    25
100
AcDbSpline
210
0.0
220
0.0
230
1.0
 70
    11
 71
     3
 72
    47
 73
    43
 74
     0
 42
0.0000000001
 43
0.0000000001
 12
1.0
 22
0.0
 32
0.0
 13
1.0
 23
0.0
 33
0.0
 40
0.0
 40
0.0
 40
0.0
 40
0.0
 40
1.0
 40
1.0
 40
1.0
 40
2.0
 40
2.0
 40
2.0
 40
3.0
 40
3.0
 40
3.0
 40
4.0
 40
4.0
 40
4.0
 40
5.0
 40
5.0
 40
5.0
 40
6.0
 40
6.0
 40
6.0
 40
7.0
 40
7.0
 40
7.0
 40
8.0
 40
8.0
 40
8.0
 40
9.0
 40
9.0
 40
9.0
 40
10.0
 40
10.0
 40
10.0
 40
11.0
 40
11.0
 40
11.0
 40
12.0
 40
12.0
 40
12.0
 40
13.0
 40
13.0
 40
13.0
 40
14.0
 40
14.0
 40
14.0
 40
14.0
 10
105.2002431818434
 20
-147.4394931000759
 30
0.0
 10
105.2002431818434
 20
-147.4394931000759
 30
0.0
 10
104.9652876697494
 20
-135.7498534816876
 30
0.0
 10
104.9652876697494
 20
-135.7498534816876
 30
0.0
 10
104.9652876697494
 20
-135.7498534816876
 30
0.0
 10
105.1416765585941
 20
-135.0446532017803
 30
0.0
 10
104.2011762570447
 20
-135.1621309578273
 30
0.0
 10
104.2011762570447
 20
-135.1621309578273
 30
0.0
 10
104.2011762570447
 20
-162.1425685053357
 30
0.0
 10
104.2011762570447
 20
-162.1425685053357
 30
0.0
 10
104.2011762570447
 20
-162.1425685053357
 30
0.0
 10
105.0238542929986
 20
-162.1425685053357
 30
0.0
 10
105.0238542929986
 20
-162.1425685053357
 30
0.0
 10
105.0238542929986
 20
-162.1425685053357
 30
0.0
 10
105.0238542929986
 20
-148.3800041675491
 30
0.0
 10
105.0238542929986
 20
-148.3800041675491
 30
0.0
 10
105.0238542929986
 20
-148.3800041675491
 30
0.0
 10
111.9552249204704
 20
-148.2621711360302
 30
0.0
 10
111.9552249204704
 20
-148.2621711360302
 30
0.0
 10
111.9552249204704
 20
-148.2621711360302
 30
0.0
 10
113.0735352127527
 20
-148.4392705758188
 30
0.0
 10
113.0735352127527
 20
-147.2631042112311
 30
0.0
 10
113.0735352127527
 20
-147.2631042112311
 30
0.0
 10
113.0735352127527
 20
-141.6775816669189
 30
0.0
 10
113.0735352127527
 20
-141.6775816669189
 30
0.0
 10
113.0735352127527
 20
-141.6775816669189
 30
0.0
 10
113.1313912850581
 20
-140.7370705994457
 30
0.0
 10
112.4843915870048
 20
-140.7370705994457
 30
0.0
 10
112.4843915870048
 20
-140.7370705994457
 30
0.0
 10
111.6617135510505
 20
-140.6188930583783
 30
0.0
 10
111.6031576937247
 20
-140.9720261115398
 30
0.0
 10
111.6031576937247
 20
-140.9720261115398
 30
0.0
 10
111.4271133144284
 20
-141.5011927780741
 30
0.0
 10
112.2494468408341
 20
-141.5011927780741
 30
0.0
 10
112.2494468408341
 20
-141.5011927780741
 30
0.0
 10
112.2494468408341
 20
-146.7339375446967
 30
0.0
 10
112.2494468408341
 20
-146.7339375446967
 30
0.0
 10
112.2494468408341
 20
-146.7339375446967
 30
0.0
 10
112.4251251787351
 20
-147.4980597233252
 30
0.0
 10
111.7209799593202
 20
-147.4980597233252
 30
0.0
 10
111.7209799593202
 20
-147.4980597233252
 30
0.0
 10
105.2002431818434
 20
-147.4394931000759
 30
0.0
 10
105.2002431818434
 20
-147.4394931000759
 30
0.0
  0
POLYLINE
  5
42
330
1F
100
AcDbEntity
  8
_U+30EC_U+30A4_U+30E4_U+30FC 1
 62
   179
420
  2234388
370
    25
100
AcDb2dPolyline
 66
     1
 10
0.0
 20
0.0
 30
0.0
  0
VERTEX
  5
43
330
42
100
AcDbEntity
  8
_U+30EC_U+30A4_U+30E4_U+30FC 1
 62
   179
420
  2234388
370
    25
100
AcDbVertex
100
AcDb2dVertex
 10
109.7824031979233
 20
-147.4980920210953
 30
0.0
  0
VERTEX
  5
44
330
42
100
AcDbEntity
  8
_U+30EC_U+30A4_U+30E4_U+30FC 1
 62
   179
420
  2234388
370
    25
100
AcDbVertex
100
AcDb2dVertex
 10
109.7824031979233
 20
-148.145091719149
 30
0.0
  0
SEQEND
  5
45
330
42
100
AcDbEntity
  8
_U+30EC_U+30A4_U+30E4_U+30FC 1
 62
   179
420
  2234388
370
    25
  0
POLYLINE
  5
46
330
1F
100
AcDbEntity
  8
_U+30EC_U+30A4_U+30E4_U+30FC 1
 62
   179
420
  2234388
370
    25
100
AcDb2dPolyline
 66
     1
 10
0.0
 20
0.0
 30
0.0
  0
VERTEX
  5
47
330
46
100
AcDbEntity
  8
_U+30EC_U+30A4_U+30E4_U+30FC 1
 62
   179
420
  2234388
370
    25
100
AcDbVertex
100
AcDb2dVertex
 10
107.7835264996112
 20
-147.4980920210953
 30
0.0
  0
VERTEX
  5
48
330
46
100
AcDbEntity
  8
_U+30EC_U+30A4_U+30E4_U+30FC 1
 62
   179
420
  2234388
370
    25
100
AcDbVertex
100
AcDb2dVertex
 10
107.7835264996112
 20
-148.2036475764745
 30
0.0
  0
SEQEND
  5
49
330
46
100
AcDbEntity
  8
_U+30EC_U+30A4_U+30E4_U+30FC 1
 62
   179
420
  2234388
370
    25
  0
POLYLINE
  5
4A
330
1F
100
AcDbEntity
  8
_U+30EC_U+30A4_U+30E4_U+30FC 1
 62
   179
420
  2234388
370
     9
100
AcDb2dPolyline
 66
     1
 10
0.0
 20
0.0
 30
0.0
  0
VERTEX
  5
4B
330
4A
100
AcDbEntity
  8
_U+30EC_U+30A4_U+30E4_U+30FC 1
 62
   179
420
  2234388
370
     9
100
AcDbVertex
100
AcDb2dVertex
 10
105.5466260010385
 20
-162.167965318616
 30
0.0
  0
VERTEX
  5
4C
330
4A
100
AcDbEntity
  8
_U+30EC_U+30A4_U+30E4_U+30FC 1
 62
   179
420
  2234388
370
     9
100
AcDbVertex
100
AcDb2dVertex
 10
117.8769134226792
 20
-162.167965318616
 30
0.0
  0
SEQEND
  5
4D
330
4A
100
AcDbEntity
  8
_U+30EC_U+30A4_U+30E4_U+30FC 1
 62
   179
420
  2234388
370
     9
  0
POLYLINE
  5
4E
330
1F
100
AcDbEntity
  8
_U+30EC_U+30A4_U+30E4_U+30FC 1
 62
   179
420
  2234388
370
     9
100
AcDb2dPolyline
 66
     1
 10
0.0
 20
0.0
 30
0.0
  0
VERTEX
  5
4F
330
4E
100
AcDbEntity
  8
_U+30EC_U+30A4_U+30E4_U+30FC 1
 62
   179
420
  2234388
370
     9
100
AcDbVertex
100
AcDb2dVertex
 10
117.8630253815043
 20
-162.27994168781
 30
0.0
  0
VERTEX
  5
50
330
4E
100
AcDbEntity
  8
_U+30EC_U+30A4_U+30E4_U+30FC 1
 62
   179
420
  2234388
370
     9
100
AcDbVertex
100
AcDb2dVertex
 10
117.8630253815043
 20
-148.2499733448277
 30
0.0
  0
SEQEND
  5
51
330
4E
100
AcDbEntity
  8
_U+30EC_U+30A4_U+30E4_U+30FC 1
 62
   179
420
  2234388
370
     9
  0
POLYLINE
  5
52
330
1F
100
AcDbEntity
  8
_U+30EC_U+30A4_U+30E4_U+30FC 1
 62
   179
420
  2234388
370
     9
100
AcDb2dPolyline
 66
     1
 10
0.0
 20
0.0
 30
0.0
  0
VERTEX
  5
53
330
52
100
AcDbEntity
  8
_U+30EC_U+30A4_U+30E4_U+30FC 1
 62
   179
420
  2234388
370
     9
100
AcDbVertex
100
AcDb2dVertex
 10
113.7855826199369
 20
-148.2918420208969
 30
0.0
  0
VERTEX
  5
54
330
52
100
AcDbEntity
  8
_U+30EC_U+30A4_U+30E4_U+30FC 1
 62
   179
420
  2234388
370
     9
100
AcDbVertex
100
AcDb2dVertex
 10
117.9938636484801
 20
-148.2918420208969
 30
0.0
  0
SEQEND
  5
55
330
52
100
AcDbEntity
  8
_U+30EC_U+30A4_U+30E4_U+30FC 1
 62
   179
420
  2234388
370
     9
  0
POLYLINE
  5
56
330
1F
100
AcDbEntity
  8
_U+30EC_U+30A4_U+30E4_U+30FC 1
 62
   179
420
  2234388
370
     9
100
AcDb2dPolyline
 66
     1
 10
0.0
 20
0.0
 30
0.0
  0
VERTEX
  5
57
330
56
100
AcDbEntity
  8
_U+30EC_U+30A4_U+30E4_U+30FC 1
 62
   179
420
  2234388
370
     9
100
AcDbVertex
100
AcDb2dVertex
 10
117.8630253815043
 20
-140.8318214912135
 30
0.0
  0
VERTEX
  5
58
330
56
100
AcDbEntity
  8
_U+30EC_U+30A4_U+30E4_U+30FC 1
 62
   179
420
  2234388
370
     9
100
AcDbVertex
100
AcDb2dVertex
 10
117.8630253815043
 20
-135.0773170133498
 30
0.0
  0
SEQEND
  5
59
330
56
100
AcDbEntity
  8
_U+30EC_U+30A4_U+30E4_U+30FC 1
 62
   179
420
  2234388
370
     9
  0
POLYLINE
  5
5A
330
1F
100
AcDbEntity
  8
_U+30EC_U+30A4_U+30E4_U+30FC 1
 62
   179
420
  2234388
370
     9
100
AcDb2dPolyline
 66
     1
 10
0.0
 20
0.0
 30
0.0
  0
VERTEX
  5
5B
330
5A
100
AcDbEntity
  8
_U+30EC_U+30A4_U+30E4_U+30FC 1
 62
   179
420
  2234388
370
     9
100
AcDbVertex
100
AcDb2dVertex
 10
117.9354154503881
 20
-140.8252650438681
 30
0.0
  0
VERTEX
  5
5C
330
5A
100
AcDbEntity
  8
_U+30EC_U+30A4_U+30E4_U+30FC 1
 62
   179
420
  2234388
370
     9
100
AcDbVertex
100
AcDb2dVertex
 10
113.8805811279426
 20
-140.8252650438681
 30
0.0
  0
SEQEND
  5
5D
330
5A
100
AcDbEntity
  8
_U+30EC_U+30A4_U+30E4_U+30FC 1
 62
   179
420
  2234388
370
     9
  0
POLYLINE
  5
5E
330
1F
100
AcDbEntity
  8
_U+30EC_U+30A4_U+30E4_U+30FC 1
 62
   179
420
  2234388
370
     9
100
AcDb2dPolyline
 66
     1
 10
0.0
 20
0.0
 30
0.0
  0
VERTEX
  5
5F
330
5E
100
AcDbEntity
  8
_U+30EC_U+30A4_U+30E4_U+30FC 1
 62
   179
420
  2234388
370
     9
100
AcDbVertex
100
AcDb2dVertex
 10
105.4881024414828
 20
-135.1253222657521
 30
0.0
  0
VERTEX
  5
60
330
5E
100
AcDbEntity
  8
_U+30EC_U+30A4_U+30E4_U+30FC 1
 62
   179
420
  2234388
370
     9
100
AcDbVertex
100
AcDb2dVertex
 10
117.9355123436986
 20
-135.1253222657521
 30
0.0
  0
SEQEND
  5
61
330
5E
100
AcDbEntity
  8
_U+30EC_U+30A4_U+30E4_U+30FC 1
 62
   179
420
  2234388
370
     9
  0
POLYLINE
  5
62
330
1F
100
AcDbEntity
  8
_U+30EC_U+30A4_U+30E4_U+30FC 1
 62
   179
420
  2234388
370
     9
100
AcDb2dPolyline
 66
     1
 10
0.0
 20
0.0
 30
0.0
  0
VERTEX
  5
63
330
62
100
AcDbEntity
  8
_U+30EC_U+30A4_U+30E4_U+30FC 1
 62
   179
420
  2234388
370
     9
100
AcDbVertex
100
AcDb2dVertex
 10
99.43832098276303
 20
-147.2335086878281
 30
0.0
  0
VERTEX
  5
64
330
62
100
AcDbEntity
  8
_U+30EC_U+30A4_U+30E4_U+30FC 1
 62
   179
420
  2234388
370
     9
100
AcDbVertex
100
AcDb2dVertex
 10
99.43832098276303
 20
-135.1067725797487
 30
0.0
  0
VERTEX
  5
65
330
62
100
AcDbEntity
  8
_U+30EC_U+30A4_U+30E4_U+30FC 1
 62
   179
420
  2234388
370
     9
100
AcDbVertex
100
AcDb2dVertex
 10
103.5545318344633
 20
-135.1067725797487
 30
0.0
  0
SEQEND
  5
66
330
62
100
AcDbEntity
  8
_U+30EC_U+30A4_U+30E4_U+30FC 1
 62
   179
420
  2234388
370
     9
  0
SPLINE
  5
67
330
1F
100
AcDbEntity
  8
_U+30EC_U+30A4_U+30E4_U+30FC 1
370
     0
100
AcDbSpline
210
0.0
220
0.0
230
1.0
 70
    11
 71
     3
 72
    17
 73
    13
 74
     0
 42
0.0000000001
 43
0.0000000001
 12
1.0
 22
0.0
 32
0.0
 13
1.0
 23
0.0
 33
0.0
 40
0.0
 40
0.0
 40
0.0
 40
0.0
 40
1.0
 40
1.0
 40
1.0
 40
2.0
 40
2.0
 40
2.0
 40
3.0
 40
3.0
 40
3.0
 40
4.0
 40
4.0
 40
4.0
 40
4.0
 10
99.68843491499217
 20
-135.1067725797487
 30
0.0
 10
99.68843491499217
 20
-135.2447163561628
 30
0.0
 10
99.57695377827417
 20
-135.3565420024293
 30
0.0
 10
99.4390207677838
 20
-135.3565420024293
 30
0.0
 10
99.30037720634895
 20
-135.3565420024293
 30
0.0
 10
99.18818551868712
 20
-135.2447163561628
 30
0.0
 10
99.18818551868712
 20
-135.1067725797487
 30
0.0
 10
99.18818551868712
 20
-134.9684842937861
 30
0.0
 10
99.30037720634895
 20
-134.8566586475196
 30
0.0
 10
99.4390207677838
 20
-134.8566586475196
 30
0.0
 10
99.57695377827417
 20
-134.8566586475196
 30
0.0
 10
99.68843491499217
 20
-134.9684842937861
 30
0.0
 10
99.68843491499217
 20
-135.1067725797487
 30
0.0
  0
HATCH
  5
68
330
1F
100
AcDbEntity
  8
_U+30EC_U+30A4_U+30E4_U+30FC 1
 62
   179
420
  2234388
100
AcDbHatch
 10
0.0
 20
0.0
 30
0.0
210
0.0
220
0.0
230
1.0
  2
SOLID
 70
     1
 71
     0
 91
        1
 92
        1
 93
        2
 72
     4
 94
        3
 73
     0
 74
     0
 95
       17
 96
       13
 40
0.0
 40
0.0
 40
0.0
 40
0.0
 40
0.3527777776895833
 40
0.3527777776895833
 40
0.3527777776895833
 40
0.7055555553791667
 40
0.7055555553791667
 40
0.7055555553791667
 40
1.05833333306875
 40
1.05833333306875
 40
1.05833333306875
 40
1.411111110758333
 40
1.411111110758333
 40
1.411111110758333
 40
1.411111110758333
 10
99.68843491499217
 20
-135.1067725797487
 10
99.68843491499217
 20
-135.2447163561628
 10
99.57695377827417
 20
-135.3565420024293
 10
99.4390207677838
 20
-135.3565420024293
 10
99.30037720634895
 20
-135.3565420024293
 10
99.18818551868712
 20
-135.2447163561628
 10
99.18818551868712
 20
-135.1067725797487
 10
99.18818551868712
 20
-134.9684842937861
 10
99.30037720634895
 20
-134.8566586475196
 10
99.4390207677838
 20
-134.8566586475196
 10
99.57695377827417
 20
-134.8566586475196
 10
99.68843491499217
 20
-134.9684842937861
 10
99.68843491499217
 20
-135.1067725797487
 97
        0
 72
     1
 10
99.68843491499217
 20
-135.1067725797487
 11
99.68843491499217
 21
-135.1067725797487
 97
        0
 75
     2
 76
     1
 98
        0
  0
SPLINE
  5
69
330
1F
100
AcDbEntity
  8
_U+30EC_U+30A4_U+30E4_U+30FC 1
370
     0
100
AcDbSpline
210
0.0
220
0.0
230
1.0
 70
    11
 71
     3
 72
    17
 73
    13
 74
     0
 42
0.0000000001
 43
0.0000000001
 12
1.0
 22
0.0
 32
0.0
 13
1.0
 23
0.0
 33
0.0
 40
0.0
 40
0.0
 40
0.0
 40
0.0
 40
1.0
 40
1.0
 40
1.0
 40
2.0
 40
2.0
 40
2.0
 40
3.0
 40
3.0
 40
3.0
 40
4.0
 40
4.0
 40
4.0
 40
4.0
 10
118.1717059369827
 20
-135.0774569703539
 30
0.0
 10
118.1717059369827
 20
-135.215400746768
 30
0.0
 10
118.0602248002647
 20
-135.3272263930345
 30
0.0
 10
117.922291789774
 20
-135.3272263930345
 30
0.0
 10
117.7843480133599
 20
-135.3272263930345
 30
0.0
 10
117.6721670916215
 20
-135.215400746768
 30
0.0
 10
117.6721670916215
 20
-135.0774569703539
 30
0.0
 10
117.6721670916215
 20
-134.9391686843913
 30
0.0
 10
117.7843480133599
 20
-134.8273430381248
 30
0.0
 10
117.922291789774
 20
-134.8273430381248
 30
0.0
 10
118.0602248002647
 20
-134.8273430381248
 30
0.0
 10
118.1717059369827
 20
-134.9391686843913
 30
0.0
 10
118.1717059369827
 20
-135.0774569703539
 30
0.0
  0
HATCH
  5
6A
330
1F
100
AcDbEntity
  8
_U+30EC_U+30A4_U+30E4_U+30FC 1
 62
   179
420
  2234388
100
AcDbHatch
 10
0.0
 20
0.0
 30
0.0
210
0.0
220
0.0
230
1.0
  2
SOLID
 70
     1
 71
     0
 91
        1
 92
        1
 93
        2
 72
     4
 94
        3
 73
     0
 74
     0
 95
       17
 96
       13
 40
0.0
 40
0.0
 40
0.0
 40
0.0
 40
0.3527777776895833
 40
0.3527777776895833
 40
0.3527777776895833
 40
0.7055555553791667
 40
0.7055555553791667
 40
0.7055555553791667
 40
1.05833333306875
 40
1.05833333306875
 40
1.05833333306875
 40
1.411111110758333
 40
1.411111110758333
 40
1.411111110758333
 40
1.411111110758333
 10
118.1717059369827
 20
-135.0774569703539
 10
118.1717059369827
 20
-135.215400746768
 10
118.0602248002647
 20
-135.3272263930345
 10
117.922291789774
 20
-135.3272263930345
 10
117.7843480133599
 20
-135.3272263930345
 10
117.6721670916215
 20
-135.215400746768
 10
117.6721670916215
 20
-135.0774569703539
 10
117.6721670916215
 20
-134.9391686843913
 10
117.7843480133599
 20
-134.8273430381248
 10
117.922291789774
 20
-134.8273430381248
 10
118.0602248002647
 20
-134.8273430381248
 10
118.1717059369827
 20
-134.9391686843913
 10
118.1717059369827
 20
-135.0774569703539
 97
        0
 72
     1
 10
118.1717059369827
 20
-135.0774569703539
 11
118.1717059369827
 21
-135.0774569703539
 97
        0
 75
     2
 76
     1
 98
        0
  0
SPLINE
  5
6B
330
1F
100
AcDbEntity
  8
_U+30EC_U+30A4_U+30E4_U+30FC 1
370
     0
100
AcDbSpline
210
0.0
220
0.0
230
1.0
 70
    11
 71
     3
 72
    17
 73
    13
 74
     0
 42
0.0000000001
 43
0.0000000001
 12
1.0
 22
0.0
 32
0.0
 13
1.0
 23
0.0
 33
0.0
 40
0.0
 40
0.0
 40
0.0
 40
0.0
 40
1.0
 40
1.0
 40
1.0
 40
2.0
 40
2.0
 40
2.0
 40
3.0
 40
3.0
 40
3.0
 40
4.0
 40
4.0
 40
4.0
 40
4.0
 10
118.1213967769746
 20
-140.8318214912135
 30
0.0
 10
118.1213967769746
 20
-140.9697652676276
 30
0.0
 10
118.0099156402566
 20
-141.0812356384222
 30
0.0
 10
117.871982629766
 20
-141.0812356384222
 30
0.0
 10
117.7340388533519
 20
-141.0812356384222
 30
0.0
 10
117.6218579316134
 20
-140.9697652676276
 30
0.0
 10
117.6218579316134
 20
-140.8318214912135
 30
0.0
 10
117.6218579316134
 20
-140.6931886957024
 30
0.0
 10
117.7340388533519
 20
-140.580652498492
 30
0.0
 10
117.871982629766
 20
-140.580652498492
 30
0.0
 10
118.0099156402566
 20
-140.580652498492
 30
0.0
 10
118.1213967769746
 20
-140.6931886957024
 30
0.0
 10
118.1213967769746
 20
-140.8318214912135
 30
0.0
  0
HATCH
  5
6C
330
1F
100
AcDbEntity
  8
_U+30EC_U+30A4_U+30E4_U+30FC 1
 62
   179
420
  2234388
100
AcDbHatch
 10
0.0
 20
0.0
 30
0.0
210
0.0
220
0.0
230
1.0
  2
SOLID
 70
     1
 71
     0
 91
        1
 92
        1
 93
        2
 72
     4
 94
        3
 73
     0
 74
     0
 95
       17
 96
       13
 40
0.0
 40
0.0
 40
0.0
 40
0.0
 40
0.3527777776895833
 40
0.3527777776895833
 40
0.3527777776895833
 40
0.7055555553791667
 40
0.7055555553791667
 40
0.7055555553791667
 40
1.05833333306875
 40
1.05833333306875
 40
1.05833333306875
 40
1.411111110758333
 40
1.411111110758333
 40
1.411111110758333
 40
1.411111110758333
 10
118.1213967769746
 20
-140.8318214912135
 10
118.1213967769746
 20
-140.9697652676276
 10
118.0099156402566
 20
-141.0812356384222
 10
117.871982629766
 20
-141.0812356384222
 10
117.7340388533519
 20
-141.0812356384222
 10
117.6218579316134
 20
-140.9697652676276
 10
117.6218579316134
 20
-140.8318214912135
 10
117.6218579316134
 20
-140.6931886957024
 10
117.7340388533519
 20
-140.580652498492
 10
117.871982629766
 20
-140.580652498492
 10
118.0099156402566
 20
-140.580652498492
 10
118.1213967769746
 20
-140.6931886957024
 10
118.1213967769746
 20
-140.8318214912135
 97
        0
 72
     1
 10
118.1213967769746
 20
-140.8318214912135
 11
118.1213967769746
 21
-140.8318214912135
 97
        0
 75
     2
 76
     1
 98
        0
  0
SPLINE
  5
6D
330
1F
100
AcDbEntity
  8
_U+30EC_U+30A4_U+30E4_U+30FC 1
370
     0
100
AcDbSpline
210
0.0
220
0.0
230
1.0
 70
    11
 71
     3
 72
    17
 73
    13
 74
     0
 42
0.0000000001
 43
0.0000000001
 12
1.0
 22
0.0
 32
0.0
 13
1.0
 23
0.0
 33
0.0
 40
0.0
 40
0.0
 40
0.0
 40
0.0
 40
1.0
 40
1.0
 40
1.0
 40
2.0
 40
2.0
 40
2.0
 40
3.0
 40
3.0
 40
3.0
 40
4.0
 40
4.0
 40
4.0
 40
4.0
 10
118.1937545480883
 20
-148.3004439936866
 30
0.0
 10
118.1937545480883
 20
-148.4383877701007
 30
0.0
 10
118.0822734113703
 20
-148.5505686918391
 30
0.0
 10
117.9443404008796
 20
-148.5505686918391
 30
0.0
 10
117.8063966244655
 20
-148.5505686918391
 30
0.0
 10
117.6942157027271
 20
-148.4383877701007
 30
0.0
 10
117.6942157027271
 20
-148.3004439936866
 30
0.0
 10
117.6942157027271
 20
-148.1625109831959
 30
0.0
 10
117.8063966244655
 20
-148.0510406124016
 30
0.0
 10
117.9443404008796
 20
-148.0510406124016
 30
0.0
 10
118.0822734113703
 20
-148.0510406124016
 30
0.0
 10
118.1937545480883
 20
-148.1625109831959
 30
0.0
 10
118.1937545480883
 20
-148.3004439936866
 30
0.0
  0
HATCH
  5
6E
330
1F
100
AcDbEntity
  8
_U+30EC_U+30A4_U+30E4_U+30FC 1
 62
   179
420
  2234388
100
AcDbHatch
 10
0.0
 20
0.0
 30
0.0
210
0.0
220
0.0
230
1.0
  2
SOLID
 70
     1
 71
     0
 91
        1
 92
        1
 93
        2
 72
     4
 94
        3
 73
     0
 74
     0
 95
       17
 96
       13
 40
0.0
 40
0.0
 40
0.0
 40
0.0
 40
0.3527777776895833
 40
0.3527777776895833
 40
0.3527777776895833
 40
0.7055555553791667
 40
0.7055555553791667
 40
0.7055555553791667
 40
1.05833333306875
 40
1.05833333306875
 40
1.05833333306875
 40
1.411111110758333
 40
1.411111110758333
 40
1.411111110758333
 40
1.411111110758333
 10
118.1937545480883
 20
-148.3004439936866
 10
118.1937545480883
 20
-148.4383877701007
 10
118.0822734113703
 20
-148.5505686918391
 10
117.9443404008796
 20
-148.5505686918391
 10
117.8063966244655
 20
-148.5505686918391
 10
117.6942157027271
 20
-148.4383877701007
 10
117.6942157027271
 20
-148.3004439936866
 10
117.6942157027271
 20
-148.1625109831959
 10
117.8063966244655
 20
-148.0510406124016
 10
117.9443404008796
 20
-148.0510406124016
 10
118.0822734113703
 20
-148.0510406124016
 10
118.1937545480883
 20
-148.1625109831959
 10
118.1937545480883
 20
-148.3004439936866
 97
        0
 72
     1
 10
118.1937545480883
 20
-148.3004439936866
 11
118.1937545480883
 21
-148.3004439936866
 97
        0
 75
     2
 76
     1
 98
        0
  0
SPLINE
  5
6F
330
1F
100
AcDbEntity
  8
_U+30EC_U+30A4_U+30E4_U+30FC 1
370
     0
100
AcDbSpline
210
0.0
220
0.0
230
1.0
 70
    11
 71
     3
 72
    17
 73
    13
 74
     0
 42
0.0000000001
 43
0.0000000001
 12
1.0
 22
0.0
 32
0.0
 13
1.0
 23
0.0
 33
0.0
 40
0.0
 40
0.0
 40
0.0
 40
0.0
 40
1.0
 40
1.0
 40
1.0
 40
2.0
 40
2.0
 40
2.0
 40
3.0
 40
3.0
 40
3.0
 40
4.0
 40
4.0
 40
4.0
 40
4.0
 10
118.1262306765774
 20
-162.167965318616
 30
0.0
 10
118.1262306765774
 20
-162.3059090950301
 30
0.0
 10
118.0147495398594
 20
-162.4180900167685
 30
0.0
 10
117.8768165293687
 20
-162.4180900167685
 30
0.0
 10
117.7388727529546
 20
-162.4180900167685
 30
0.0
 10
117.6266918312162
 20
-162.3059090950301
 30
0.0
 10
117.6266918312162
 20
-162.167965318616
 30
0.0
 10
117.6266918312162
 20
-162.0293325231049
 30
0.0
 10
117.7388727529546
 20
-161.9178513863869
 30
0.0
 10
117.8768165293687
 20
-161.9178513863869
 30
0.0
 10
118.0147495398594
 20
-161.9178513863869
 30
0.0
 10
118.1262306765774
 20
-162.0293325231049
 30
0.0
 10
118.1262306765774
 20
-162.167965318616
 30
0.0
  0
HATCH
  5
70
330
1F
100
AcDbEntity
  8
_U+30EC_U+30A4_U+30E4_U+30FC 1
 62
   179
420
  2234388
100
AcDbHatch
 10
0.0
 20
0.0
 30
0.0
210
0.0
220
0.0
230
1.0
  2
SOLID
 70
     1
 71
     0
 91
        1
 92
        1
 93
        2
 72
     4
 94
        3
 73
     0
 74
     0
 95
       17
 96
       13
 40
0.0
 40
0.0
 40
0.0
 40
0.0
 40
0.3527777776895833
 40
0.3527777776895833
 40
0.3527777776895833
 40
0.7055555553791667
 40
0.7055555553791667
 40
0.7055555553791667
 40
1.05833333306875
 40
1.05833333306875
 40
1.05833333306875
 40
1.411111110758333
 40
1.411111110758333
 40
1.411111110758333
 40
1.411111110758333
 10
118.1262306765774
 20
-162.167965318616
 10
118.1262306765774
 20
-162.3059090950301
 10
118.0147495398594
 20
-162.4180900167685
 10
117.8768165293687
 20
-162.4180900167685
 10
117.7388727529546
 20
-162.4180900167685
 10
117.6266918312162
 20
-162.3059090950301
 10
117.6266918312162
 20
-162.167965318616
 10
117.6266918312162
 20
-162.0293325231049
 10
117.7388727529546
 20
-161.9178513863869
 10
117.8768165293687
 20
-161.9178513863869
 10
118.0147495398594
 20
-161.9178513863869
 10
118.1262306765774
 20
-162.0293325231049
 10
118.1262306765774
 20
-162.167965318616
 97
        0
 72
     1
 10
118.1262306765774
 20
-162.167965318616
 11
118.1262306765774
 21
-162.167965318616
 97
        0
 75
     2
 76
     1
 98
        0
  0
POLYLINE
  5
71
330
1F
100
AcDbEntity
  8
_U+30EC_U+30A4_U+30E4_U+30FC 1
 62
   179
420
  2234388
370
     9
100
AcDb2dPolyline
 66
     1
 10
0.0
 20
0.0
 30
0.0
  0
VERTEX
  5
72
330
71
100
AcDbEntity
  8
_U+30EC_U+30A4_U+30E4_U+30FC 1
 62
   179
420
  2234388
370
     9
100
AcDbVertex
100
AcDb2dVertex
 10
99.43832098276303
 20
-152.8779531308615
 30
0.0
  0
VERTEX
  5
73
330
71
100
AcDbEntity
  8
_U+30EC_U+30A4_U+30E4_U+30FC 1
 62
   179
420
  2234388
370
     9
100
AcDbVertex
100
AcDb2dVertex
 10
99.43832098276303
 20
-162.2181022238498
 30
0.0
  0
VERTEX
  5
74
330
71
100
AcDbEntity
  8
_U+30EC_U+30A4_U+30E4_U+30FC 1
 62
   179
420
  2234388
370
     9
100
AcDbVertex
100
AcDb2dVertex
 10
103.4952654261932
 20
-162.2181022238498
 30
0.0
  0
SEQEND
  5
75
330
71
100
AcDbEntity
  8
_U+30EC_U+30A4_U+30E4_U+30FC 1
 62
   179
420
  2234388
370
     9
  0
SPLINE
  5
76
330
1F
100
AcDbEntity
  8
_U+30EC_U+30A4_U+30E4_U+30FC 1
370
     0
100
AcDbSpline
210
0.0
220
0.0
230
1.0
 70
    11
 71
     3
 72
    17
 73
    13
 74
     0
 42
0.0000000001
 43
0.0000000001
 12
1.0
 22
0.0
 32
0.0
 13
1.0
 23
0.0
 33
0.0
 40
0.0
 40
0.0
 40
0.0
 40
0.0
 40
1.0
 40
1.0
 40
1.0
 40
2.0
 40
2.0
 40
2.0
 40
3.0
 40
3.0
 40
3.0
 40
4.0
 40
4.0
 40
4.0
 40
4.0
 10
99.70290431603023
 20
-162.2179192031521
 30
0.0
 10
99.70290431603023
 20
-162.3558629795662
 30
0.0
 10
99.59142317931222
 20
-162.4680439013047
 30
0.0
 10
99.45349016882184
 20
-162.4680439013047
 30
0.0
 10
99.31554639240744
 20
-162.4680439013047
 30
0.0
 10
99.203365470669
 20
-162.3558629795662
 30
0.0
 10
99.203365470669
 20
-162.2179192031521
 30
0.0
 10
99.203365470669
 20
-162.079286407641
 30
0.0
 10
99.31554639240744
 20
-161.967805270923
 30
0.0
 10
99.45349016882184
 20
-161.967805270923
 30
0.0
 10
99.59142317931222
 20
-161.967805270923
 30
0.0
 10
99.70290431603023
 20
-162.079286407641
 30
0.0
 10
99.70290431603023
 20
-162.2179192031521
 30
0.0
  0
HATCH
  5
77
330
1F
100
AcDbEntity
  8
_U+30EC_U+30A4_U+30E4_U+30FC 1
 62
   179
420
  2234388
100
AcDbHatch
 10
0.0
 20
0.0
 30
0.0
210
0.0
220
0.0
230
1.0
  2
SOLID
 70
     1
 71
     0
 91
        1
 92
        1
 93
        2
 72
     4
 94
        3
 73
     0
 74
     0
 95
       17
 96
       13
 40
0.0
 40
0.0
 40
0.0
 40
0.0
 40
0.3527777776895833
 40
0.3527777776895833
 40
0.3527777776895833
 40
0.7055555553791667
 40
0.7055555553791667
 40
0.7055555553791667
 40
1.05833333306875
 40
1.05833333306875
 40
1.05833333306875
 40
1.411111110758333
 40
1.411111110758333
 40
1.411111110758333
 40
1.411111110758333
 10
99.70290431603023
 20
-162.2179192031521
 10
99.70290431603023
 20
-162.3558629795662
 10
99.59142317931222
 20
-162.4680439013047
 10
99.45349016882184
 20
-162.4680439013047
 10
99.31554639240744
 20
-162.4680439013047
 10
99.203365470669
 20
-162.3558629795662
 10
99.203365470669
 20
-162.2179192031521
 10
99.203365470669
 20
-162.079286407641
 10
99.31554639240744
 20
-161.967805270923
 10
99.45349016882184
 20
-161.967805270923
 10
99.59142317931222
 20
-161.967805270923
 10
99.70290431603023
 20
-162.079286407641
 10
99.70290431603023
 20
-162.2179192031521
 97
        0
 72
     1
 10
99.70290431603023
 20
-162.2179192031521
 11
99.70290431603023
 21
-162.2179192031521
 97
        0
 75
     2
 76
     1
 98
        0
  0
INSERT
  5
79
330
1F
100
AcDbEntity
  8
_U+30EC_U+30A4_U+30E4_U+30FC 1
100
AcDbBlockReference
  2
block 2
 10
0.0
 20
0.0
 30
0.0
  0
INSERT
  5
82
330
1F
100
AcDbEntity
  8
_U+30EC_U+30A4_U+30E4_U+30FC 1
100
AcDbBlockReference
  2
block 3
 10
0.0
 20
0.0
 30
0.0
  0
INSERT
  5
94
330
1F
100
AcDbEntity
  8
_U+30EC_U+30A4_U+30E4_U+30FC 1
100
AcDbBlockReference
  2
block 4
 10
0.0
 20
0.0
 30
0.0
  0
INSERT
  5
A6
330
1F
100
AcDbEntity
  8
_U+30EC_U+30A4_U+30E4_U+30FC 1
100
AcDbBlockReference
  2
block 5
 10
0.0
 20
0.0
 30
0.0
  0
POLYLINE
  5
B8
330
1F
100
AcDbEntity
  8
_U+30EC_U+30A4_U+30E4_U+30FC 1
 62
   179
420
  2234388
370
     9
100
AcDb2dPolyline
 66
     1
 10
0.0
 20
0.0
 30
0.0
  0
VERTEX
  5
B9
330
B8
100
AcDbEntity
  8
_U+30EC_U+30A4_U+30E4_U+30FC 1
 62
   179
420
  2234388
370
     9
100
AcDbVertex
100
AcDb2dVertex
 10
117.8630253815043
 20
-148.3190367433836
 30
0.0
  0
VERTEX
  5
BA
330
B8
100
AcDbEntity
  8
_U+30EC_U+30A4_U+30E4_U+30FC 1
 62
   179
420
  2234388
370
     9
100
AcDbVertex
100
AcDb2dVertex
 10
117.8630253815043
 20
-140.8316815342094
 30
0.0
  0
SEQEND
  5
BB
330
B8
100
AcDbEntity
  8
_U+30EC_U+30A4_U+30E4_U+30FC 1
 62
   179
420
  2234388
370
     9
  0
POLYLINE
  5
BC
330
1F
100
AcDbEntity
  8
_U+30EC_U+30A4_U+30E4_U+30FC 1
 62
   179
420
  2234388
370
     9
100
AcDb2dPolyline
 66
     1
 10
0.0
 20
0.0
 30
0.0
  0
VERTEX
  5
BD
330
BC
100
AcDbEntity
  8
_U+30EC_U+30A4_U+30E4_U+30FC 1
 62
   179
420
  2234388
370
     9
100
AcDbVertex
100
AcDb2dVertex
 10
108.8392867769894
 20
-150.4670645443602
 30
0.0
  0
VERTEX
  5
BE
330
BC
100
AcDbEntity
  8
_U+30EC_U+30A4_U+30E4_U+30FC 1
 62
   179
420
  2234388
370
     9
100
AcDbVertex
100
AcDb2dVertex
 10
108.8392867769894
 20
-145.1337768191853
 30
0.0
  0
VERTEX
  5
BF
330
BC
100
AcDbEntity
  8
_U+30EC_U+30A4_U+30E4_U+30FC 1
 62
   179
420
  2234388
370
     9
100
AcDbVertex
100
AcDb2dVertex
 10
107.7809534439207
 20
-144.7051531112033
 30
0.0
  0
SEQEND
  5
C0
330
BC
100
AcDbEntity
  8
_U+30EC_U+30A4_U+30E4_U+30FC 1
 62
   179
420
  2234388
370
     9
  0
SPLINE
  5
C1
330
1F
100
AcDbEntity
  8
_U+30EC_U+30A4_U+30E4_U+30FC 1
370
     0
100
AcDbSpline
210
0.0
220
0.0
230
1.0
 70
    11
 71
     3
 72
    20
 73
    16
 74
     0
 42
0.0000000001
 43
0.0000000001
 12
1.0
 22
0.0
 32
0.0
 13
1.0
 23
0.0
 33
0.0
 40
0.0
 40
0.0
 40
0.0
 40
0.0
 40
1.0
 40
1.0
 40
1.0
 40
2.0
 40
2.0
 40
2.0
 40
3.0
 40
3.0
 40
3.0
 40
4.0
 40
4.0
 40
4.0
 40
5.0
 40
5.0
 40
5.0
 40
5.0
 10
108.9476242640771
 20
-150.7171892425128
 30
0.0
 10
109.0005387775459
 20
-150.5422214555556
 30
0.0
 10
109.0492222831218
 20
-150.4286194319295
 30
0.0
 10
109.105668019463
 20
-150.2878657495103
 30
0.0
 10
109.105668019463
 20
-150.2878657495103
 30
0.0
 10
108.5719150695638
 20
-150.2878657495103
 30
0.0
 10
108.5719150695638
 20
-150.2878657495103
 30
0.0
 10
108.595546271408
 20
-150.3383148665224
 30
0.0
 10
108.676689036009
 20
-150.5422214555556
 30
0.0
 10
108.7296035494778
 20
-150.7171892425128
 30
0.0
 10
108.7860492858189
 20
-150.9045163095232
 30
0.0
 10
108.8248496737215
 20
-151.0742087940186
 30
0.0
 10
108.8386085238157
 20
-151.1842688288489
 30
0.0
 10
108.85236737391
 20
-151.0742087940186
 30
0.0
 10
108.891178527736
 20
-150.9045163095232
 30
0.0
 10
108.9476242640771
 20
-150.7171892425128
 30
0.0
  0
HATCH
  5
C2
330
1F
100
AcDbEntity
  8
_U+30EC_U+30A4_U+30E4_U+30FC 1
 62
   179
420
  2234388
100
AcDbHatch
 10
0.0
 20
0.0
 30
0.0
210
0.0
220
0.0
230
1.0
  2
SOLID
 70
     1
 71
     0
 91
        1
 92
        1
 93
        2
 72
     4
 94
        3
 73
     0
 74
     0
 95
       20
 96
       16
 40
0.0
 40
0.0
 40
0.0
 40
0.0
 40
0.3527777776895833
 40
0.3527777776895833
 40
0.3527777776895833
 40
0.7055555553791667
 40
0.7055555553791667
 40
0.7055555553791667
 40
1.05833333306875
 40
1.05833333306875
 40
1.05833333306875
 40
1.411111110758333
 40
1.411111110758333
 40
1.411111110758333
 40
1.763888888447917
 40
1.763888888447917
 40
1.763888888447917
 40
1.763888888447917
 10
108.9476242640771
 20
-150.7171892425128
 10
109.0005387775459
 20
-150.5422214555556
 10
109.0492222831218
 20
-150.4286194319295
 10
109.105668019463
 20
-150.2878657495103
 10
109.105668019463
 20
-150.2878657495103
 10
108.5719150695638
 20
-150.2878657495103
 10
108.5719150695638
 20
-150.2878657495103
 10
108.595546271408
 20
-150.3383148665224
 10
108.676689036009
 20
-150.5422214555556
 10
108.7296035494778
 20
-150.7171892425128
 10
108.7860492858189
 20
-150.9045163095232
 10
108.8248496737215
 20
-151.0742087940186
 10
108.8386085238157
 20
-151.1842688288489
 10
108.85236737391
 20
-151.0742087940186
 10
108.891178527736
 20
-150.9045163095232
 10
108.9476242640771
 20
-150.7171892425128
 97
        0
 72
     1
 10
108.9476242640771
 20
-150.7171892425128
 11
108.9476242640771
 21
-150.7171892425128
 97
        0
 75
     2
 76
     1
 98
        0
  0
POLYLINE
  5
C3
330
1F
100
AcDbEntity
  8
_U+30EC_U+30A4_U+30E4_U+30FC 1
 62
   179
420
  2234388
370
     9
100
AcDb2dPolyline
 66
     1
 10
0.0
 20
0.0
 30
0.0
  0
VERTEX
  5
C4
330
C3
100
AcDbEntity
  8
_U+30EC_U+30A4_U+30E4_U+30FC 1
 62
   179
420
  2234388
370
     9
100
AcDbVertex
100
AcDb2dVertex
 10
90.14191383651432
 20
-140.9423875244432
 30
0.0
  0
VERTEX
  5
C5
330
C3
100
AcDbEntity
  8
_U+30EC_U+30A4_U+30E4_U+30FC 1
 62
   179
420
  2234388
370
     9
100
AcDbVertex
100
AcDb2dVertex
 10
98.02049193580847
 20
-140.9423875244432
 30
0.0
  0
VERTEX
  5
C6
330
C3
100
AcDbEntity
  8
_U+30EC_U+30A4_U+30E4_U+30FC 1
 62
   179
420
  2234388
370
     9
100
AcDbVertex
100
AcDb2dVertex
 10
107.8982697111168
 20
-145.8812764120974
 30
0.0
  0
SEQEND
  5
C7
330
C3
100
AcDbEntity
  8
_U+30EC_U+30A4_U+30E4_U+30FC 1
 62
   179
420
  2234388
370
     9
  0
INSERT
  5
C9
330
1F
100
AcDbEntity
  8
_U+30EC_U+30A4_U+30E4_U+30FC 1
100
AcDbBlockReference
  2
block 6
 10
0.0
 20
0.0
 30
0.0
  0
ENDSEC
  0
SECTION
  2
OBJECTS
  0
DICTIONARY
  5
C
330
0
100
AcDbDictionary
281
     1
  3
ACAD_GROUP
350
D
  3
ACAD_LAYOUT
350
1A
  3
ACAD_MATERIAL
350
3B
  3
ACAD_MLEADERSTYLE
350
DA
  3
ACAD_MLINESTYLE
350
17
  3
ACAD_PLOTSETTINGS
350
19
  3
ACAD_PLOTSTYLENAME
350
E
  3
ACAD_TABLESTYLE
350
D9
  3
ACAD_VISUALSTYLE
350
2A
  0
SUN
  5
3F
330
29
100
AcDbSun
 90
        1
290
     0
 63
     7
421
 16777215
 40
1.0
291
     1
 91
  2455826
 92
 54000000
292
     0
 70
     2
 71
   256
280
     1
  0
DICTIONARY
  5
D
102
{ACAD_REACTORS
330
C
102
}
330
C
100
AcDbDictionary
281
     1
  0
DICTIONARY
  5
1A
102
{ACAD_REACTORS
330
C
102
}
330
C
100
AcDbDictionary
281
     1
  3
Layout1
350
1E
  3
Layout2
350
26
  3
Model
350
22
  0
DICTIONARY
  5
3B
102
{ACAD_REACTORS
330
C
102
}
330
C
100
AcDbDictionary
281
     1
  3
ByBlock
350
3D
  3
ByLayer
350
3C
  3
Global
350
3E
  0
DICTIONARY
  5
DA
102
{ACAD_REACTORS
330
C
102
}
330
C
100
AcDbDictionary
281
     1
  0
DICTIONARY
  5
17
102
{ACAD_REACTORS
330
C
102
}
330
C
100
AcDbDictionary
281
     1
  3
Standard
350
18
  0
DICTIONARY
  5
19
102
{ACAD_REACTORS
330
C
102
}
330
C
100
AcDbDictionary
281
     1
  0
ACDBDICTIONARYWDFLT
  5
E
102
{ACAD_REACTORS
330
C
102
}
330
C
100
AcDbDictionary
281
     1
  3
Normal
350
F
100
AcDbDictionaryWithDefault
340
F
  0
DICTIONARY
  5
D9
102
{ACAD_REACTORS
330
C
102
}
330
C
100
AcDbDictionary
281
     1
  0
DICTIONARY
  5
2A
102
{ACAD_REACTORS
330
C
102
}
330
C
100
AcDbDictionary
281
     1
  3
2dWireframe
350
2F
  3
3D Hidden
350
31
  3
3dWireframe
350
30
  3
Basic
350
32
  3
Brighten
350
36
  3
ColorChange
350
3A
  3
Conceptual
350
34
  3
Dim
350
35
  3
Facepattern
350
39
  3
Flat
350
2B
  3
FlatWithEdges
350
2C
  3
Gouraud
350
2D
  3
GouraudWithEdges
350
2E
  3
Linepattern
350
38
  3
Realistic
350
33
  3
Thicken
350
37
  0
LAYOUT
  5
1E
102
{ACAD_REACTORS
330
1A
102
}
330
1A
100
AcDbPlotSettings
  1

  2
none_device
  4

  6

 40
0.0
 41
0.0
 42
0.0
 43
0.0
 44
0.0
 45
0.0
 46
0.0
 47
0.0
 48
0.0
 49
0.0
140
0.0
141
0.0
142
1.0
143
1.0
 70
   688
 72
     0
 73
     0
 74
     5
  7

 75
    16
 76
     0
 77
     2
 78
   300
147
1.0
148
0.0
149
0.0
100
AcDbLayout
  1
Layout1
 70
     1
 71
     1
 10
0.0
 20
0.0
 11
12.0
 21
9.0
 12
0.0
 22
0.0
 32
0.0
 14
1.000000000000000E+20
 24
1.000000000000000E+20
 34
1.000000000000000E+20
 15
-1.000000000000000E+20
 25
-1.000000000000000E+20
 35
-1.000000000000000E+20
146
0.0
 13
0.0
 23
0.0
 33
0.0
 16
1.0
 26
0.0
 36
0.0
 17
0.0
 27
1.0
 37
0.0
 76
     0
330
1B
  0
LAYOUT
  5
26
102
{ACAD_REACTORS
330
1A
102
}
330
1A
100
AcDbPlotSettings
  1

  2
none_device
  4

  6

 40
0.0
 41
0.0
 42
0.0
 43
0.0
 44
0.0
 45
0.0
 46
0.0
 47
0.0
 48
0.0
 49
0.0
140
0.0
141
0.0
142
1.0
143
1.0
 70
   688
 72
     0
 73
     0
 74
     5
  7

 75
    16
 76
     0
 77
     2
 78
   300
147
1.0
148
0.0
149
0.0
100
AcDbLayout
  1
Layout2
 70
     1
 71
     2
 10
0.0
 20
0.0
 11
0.0
 21
0.0
 12
0.0
 22
0.0
 32
0.0
 14
0.0
 24
0.0
 34
0.0
 15
0.0
 25
0.0
 35
0.0
146
0.0
 13
0.0
 23
0.0
 33
0.0
 16
1.0
 26
0.0
 36
0.0
 17
0.0
 27
1.0
 37
0.0
 76
     0
330
23
  0
LAYOUT
  5
22
102
{ACAD_REACTORS
330
1A
102
}
330
1A
100
AcDbPlotSettings
  1

  2
none_device
  4

  6

 40
0.0
 41
0.0
 42
0.0
 43
0.0
 44
0.0
 45
0.0
 46
0.0
 47
0.0
 48
0.0
 49
0.0
140
0.0
141
0.0
142
1.0
143
1.0
 70
  1712
 72
     0
 73
     0
 74
     0
  7

 75
     0
 76
     0
 77
     2
 78
   300
147
1.0
148
0.0
149
0.0
100
AcDbLayout
  1
Model
 70
     1
 71
     0
 10
0.0
 20
0.0
 11
12.0
 21
9.0
 12
0.0
 22
0.0
 32
0.0
 14
1.000000000000000E+20
 24
1.000000000000000E+20
 34
1.000000000000000E+20
 15
-1.000000000000000E+20
 25
-1.000000000000000E+20
 35
-1.000000000000000E+20
146
0.0
 13
0.0
 23
0.0
 33
0.0
 16
1.0
 26
0.0
 36
0.0
 17
0.0
 27
1.0
 37
0.0
 76
     0
330
1F
331
29
  0
MATERIAL
  5
3D
102
{ACAD_REACTORS
330
3B
102
}
330
3B
100
AcDbMaterial
  1
ByBlock
 72
     1
 94
      127
  0
MATERIAL
  5
3C
102
{ACAD_REACTORS
330
3B
102
}
330
3B
100
AcDbMaterial
  1
ByLayer
 72
     1
 94
      127
  0
MATERIAL
  5
3E
102
{ACAD_REACTORS
330
3B
102
}
330
3B
100
AcDbMaterial
  1
Global
 72
     1
 94
      127
  0
MLINESTYLE
  5
18
102
{ACAD_REACTORS
330
17
102
}
330
17
100
AcDbMlineStyle
  2
Standard
 70
     0
  3

 62
   256
 51
90.0
 52
90.0
 71
     2
 49
0.5
 62
   256
  6
BYLAYER
 49
-0.5
 62
   256
  6
BYLAYER
  0
ACDBPLACEHOLDER
  5
F
102
{ACAD_REACTORS
330
E
102
}
330
E
  0
VISUALSTYLE
  5
2F
102
{ACAD_REACTORS
330
2A
102
}
330
2A
100
AcDbVisualStyle
  2
2dWireframe
 70
     4
177
     2
291
     0
 71
     0
176
     1
 72
     2
176
     1
 73
     0
176
     1
 90
        0
176
     1
 40
-0.6
176
     1
 41
-30.0
176
     1
 62
     5
 63
     7
421
 16777215
176
     1
 74
     1
176
     1
 91
        4
176
     1
 64
     7
176
     1
 65
   257
176
     1
 75
     1
176
     1
175
     1
176
     1
 42
1.0
176
     1
 92
        0
176
     1
 66
   257
176
     1
 43
1.0
176
     1
 76
     1
176
     1
 77
     6
176
     1
 78
     2
176
     1
 67
     7
176
     1
 79
     5
176
     1
170
     0
176
     1
171
     0
176
     1
290
     0
176
     1
 93
        1
176
     1
 44
0.0
176
     1
173
     0
176
     1
  0
VISUALSTYLE
  5
31
102
{ACAD_REACTORS
330
2A
102
}
330
2A
100
AcDbVisualStyle
  2
3D Hidden
 70
     6
177
     2
291
     0
 71
     1
176
     1
 72
     2
176
     1
 73
     2
176
     1
 90
        0
176
     1
 40
-0.6
176
     1
 41
-30.0
176
     1
 62
     5
 63
     7
421
 16777215
176
     1
 74
     2
176
     1
 91
        2
176
     1
 64
     7
176
     1
 65
   257
176
     1
 75
     2
176
     1
175
     1
176
     1
 42
40.0
176
     1
 92
        0
176
     1
 66
   257
176
     1
 43
1.0
176
     1
 76
     1
176
     1
 77
     6
176
     1
 78
     2
176
     1
 67
     7
176
     1
 79
     3
176
     1
170
     0
176
     1
171
     0
176
     1
290
     0
176
     1
 93
        1
176
     1
 44
0.0
176
     1
173
     0
176
     1
  0
VISUALSTYLE
  5
30
102
{ACAD_REACTORS
330
2A
102
}
330
2A
100
AcDbVisualStyle
  2
3dWireframe
 70
     5
177
     2
291
     0
 71
     0
176
     1
 72
     2
176
     1
 73
     0
176
     1
 90
        0
176
     1
 40
-0.6
176
     1
 41
-30.0
176
     1
 62
     5
 63
     7
421
 16777215
176
     1
 74
     1
176
     1
 91
        4
176
     1
 64
     7
176
     1
 65
   257
176
     1
 75
     1
176
     1
175
     1
176
     1
 42
1.0
176
     1
 92
        0
176
     1
 66
   257
176
     1
 43
1.0
176
     1
 76
     1
176
     1
 77
     6
176
     1
 78
     2
176
     1
 67
     7
176
     1
 79
     5
176
     1
170
     0
176
     1
171
     0
176
     1
290
     0
176
     1
 93
        1
176
     1
 44
0.0
176
     1
173
     0
176
     1
  0
VISUALSTYLE
  5
32
102
{ACAD_REACTORS
330
2A
102
}
330
2A
100
AcDbVisualStyle
  2
Basic
 70
     7
177
     2
291
     1
 71
     1
176
     1
 72
     0
176
     1
 73
     1
176
     1
 90
        0
176
     1
 40
-0.6
176
     1
 41
-30.0
176
     1
 62
     5
 63
     7
421
 16777215
176
     1
 74
     0
176
     1
 91
        4
176
     1
 64
     7
176
     1
 65
   257
176
     1
 75
     1
176
     1
175
     1
176
     1
 42
1.0
176
     1
 92
        8
176
     1
 66
     7
176
     1
 43
1.0
176
     1
 76
     1
176
     1
 77
     6
176
     1
 78
     2
176
     1
 67
     7
176
     1
 79
     5
176
     1
170
     0
176
     1
171
     0
176
     1
290
     0
176
     1
 93
        1
176
     1
 44
0.0
176
     1
173
     0
176
     1
  0
VISUALSTYLE
  5
36
102
{ACAD_REACTORS
330
2A
102
}
330
2A
100
AcDbVisualStyle
  2
Brighten
 70
    12
177
     2
291
     1
 71
     2
176
     1
 72
     2
176
     1
 73
     0
176
     1
 90
        0
176
     1
 40
-0.6
176
     1
 41
-30.0
176
     1
 62
     5
 63
     7
421
 16777215
176
     1
 74
     1
176
     1
 91
        4
176
     1
 64
     7
176
     1
 65
   257
176
     1
 75
     1
176
     1
175
     1
176
     1
 42
1.0
176
     1
 92
        8
176
     1
 66
     7
176
     1
 43
1.0
176
     1
 76
     1
176
     1
 77
     6
176
     1
 78
     2
176
     1
 67
     7
176
     1
 79
     5
176
     1
170
     0
176
     1
171
     0
176
     1
290
     0
176
     1
 93
        1
176
     1
 44
50.0
176
     1
173
     0
176
     1
  0
VISUALSTYLE
  5
3A
102
{ACAD_REACTORS
330
2A
102
}
330
2A
100
AcDbVisualStyle
  2
ColorChange
 70
    16
177
     2
291
     1
 71
     2
176
     1
 72
     2
176
     1
 73
     3
176
     1
 90
        0
176
     1
 40
-0.6
176
     1
 41
-30.0
176
     1
 62
     5
 63
     8
421
  8421504
176
     1
 74
     1
176
     1
 91
        4
176
     1
 64
     7
176
     1
 65
   257
176
     1
 75
     1
176
     1
175
     1
176
     1
 42
1.0
176
     1
 92
        8
176
     1
 66
     8
424
  8421504
176
     1
 43
1.0
176
     1
 76
     1
176
     1
 77
     6
176
     1
 78
     2
176
     1
 67
     7
176
     1
 79
     5
176
     1
170
     0
176
     1
171
     0
176
     1
290
     0
176
     1
 93
        1
176
     1
 44
0.0
176
     1
173
     0
176
     1
  0
VISUALSTYLE
  5
34
102
{ACAD_REACTORS
330
2A
102
}
330
2A
100
AcDbVisualStyle
  2
Conceptual
 70
     9
177
     2
291
     0
 71
     3
176
     1
 72
     2
176
     1
 73
     0
176
     1
 90
        0
176
     1
 40
-0.6
176
     1
 41
-30.0
176
     1
 62
     5
 63
     7
421
 16777215
176
     1
 74
     2
176
     1
 91
        2
176
     1
 64
     7
176
     1
 65
   257
176
     1
 75
     1
176
     1
175
     1
176
     1
 42
40.0
176
     1
 92
        8
176
     1
 66
     7
176
     1
 43
1.0
176
     1
 76
     1
176
     1
 77
     6
176
     1
 78
     2
176
     1
 67
     7
176
     1
 79
     3
176
     1
170
     0
176
     1
171
     0
176
     1
290
     0
176
     1
 93
        1
176
     1
 44
0.0
176
     1
173
     0
176
     1
  0
VISUALSTYLE
  5
35
102
{ACAD_REACTORS
330
2A
102
}
330
2A
100
AcDbVisualStyle
  2
Dim
 70
    11
177
     2
291
     1
 71
     2
176
     1
 72
     2
176
     1
 73
     0
176
     1
 90
        0
176
     1
 40
-0.6
176
     1
 41
-30.0
176
     1
 62
     5
 63
     7
421
 16777215
176
     1
 74
     1
176
     1
 91
        4
176
     1
 64
     7
176
     1
 65
   257
176
     1
 75
     1
176
     1
175
     1
176
     1
 42
1.0
176
     1
 92
        8
176
     1
 66
     7
176
     1
 43
1.0
176
     1
 76
     1
176
     1
 77
     6
176
     1
 78
     2
176
     1
 67
     7
176
     1
 79
     5
176
     1
170
     0
176
     1
171
     0
176
     1
290
     0
176
     1
 93
        1
176
     1
 44
-50.0
176
     1
173
     0
176
     1
  0
VISUALSTYLE
  5
39
102
{ACAD_REACTORS
330
2A
102
}
330
2A
100
AcDbVisualStyle
  2
Facepattern
 70
    15
177
     2
291
     1
 71
     2
176
     1
 72
     2
176
     1
 73
     0
176
     1
 90
        0
176
     1
 40
-0.6
176
     1
 41
-30.0
176
     1
 62
     5
 63
     7
421
 16777215
176
     1
 74
     1
176
     1
 91
        4
176
     1
 64
     7
176
     1
 65
   257
176
     1
 75
     1
176
     1
175
     1
176
     1
 42
1.0
176
     1
 92
        8
176
     1
 66
     7
176
     1
 43
1.0
176
     1
 76
     1
176
     1
 77
     6
176
     1
 78
     2
176
     1
 67
     7
176
     1
 79
     5
176
     1
170
     0
176
     1
171
     0
176
     1
290
     0
176
     1
 93
        1
176
     1
 44
0.0
176
     1
173
     0
176
     1
  0
VISUALSTYLE
  5
2B
102
{ACAD_REACTORS
330
2A
102
}
330
2A
100
AcDbVisualStyle
  2
Flat
 70
     0
177
     2
291
     1
 71
     2
176
     1
 72
     1
176
     1
 73
     1
176
     1
 90
        2
176
     1
 40
-0.6
176
     1
 41
30.0
176
     1
 62
     5
 63
     7
421
 16777215
176
     1
 74
     0
176
     1
 91
        4
176
     1
 64
     7
176
     1
 65
   257
176
     1
 75
     1
176
     1
175
     1
176
     1
 42
1.0
176
     1
 92
        8
176
     1
 66
     7
176
     1
 43
1.0
176
     1
 76
     1
176
     1
 77
     6
176
     1
 78
     2
176
     1
 67
     7
176
     1
 79
     5
176
     1
170
     0
176
     1
171
     0
176
     1
290
     0
176
     1
 93
       13
176
     1
 44
0.0
176
     1
173
     0
176
     1
  0
VISUALSTYLE
  5
2C
102
{ACAD_REACTORS
330
2A
102
}
330
2A
100
AcDbVisualStyle
  2
FlatWithEdges
 70
     1
177
     2
291
     1
 71
     2
176
     1
 72
     1
176
     1
 73
     1
176
     1
 90
        2
176
     1
 40
-0.6
176
     1
 41
30.0
176
     1
 62
     5
 63
     7
421
 16777215
176
     1
 74
     1
176
     1
 91
        4
176
     1
 64
     7
176
     1
 65
   257
176
     1
 75
     1
176
     1
175
     1
176
     1
 42
1.0
176
     1
 92
        0
176
     1
 66
   257
176
     1
 43
1.0
176
     1
 76
     1
176
     1
 77
     6
176
     1
 78
     2
176
     1
 67
     7
176
     1
 79
     5
176
     1
170
     0
176
     1
171
     0
176
     1
290
     0
176
     1
 93
       13
176
     1
 44
0.0
176
     1
173
     0
176
     1
  0
VISUALSTYLE
  5
2D
102
{ACAD_REACTORS
330
2A
102
}
330
2A
100
AcDbVisualStyle
  2
Gouraud
 70
     2
177
     2
291
     1
 71
     2
176
     1
 72
     2
176
     1
 73
     1
176
     1
 90
        2
176
     1
 40
-0.6
176
     1
 41
30.0
176
     1
 62
     5
 63
     7
421
 16777215
176
     1
 74
     0
176
     1
 91
        4
176
     1
 64
     7
176
     1
 65
   257
176
     1
 75
     1
176
     1
175
     1
176
     1
 42
1.0
176
     1
 92
        0
176
     1
 66
     7
176
     1
 43
1.0
176
     1
 76
     1
176
     1
 77
     6
176
     1
 78
     2
176
     1
 67
     7
176
     1
 79
     5
176
     1
170
     0
176
     1
171
     0
176
     1
290
     0
176
     1
 93
       13
176
     1
 44
0.0
176
     1
173
     0
176
     1
  0
VISUALSTYLE
  5
2E
102
{ACAD_REACTORS
330
2A
102
}
330
2A
100
AcDbVisualStyle
  2
GouraudWithEdges
 70
     3
177
     2
291
     1
 71
     2
176
     1
 72
     2
176
     1
 73
     1
176
     1
 90
        2
176
     1
 40
-0.6
176
     1
 41
30.0
176
     1
 62
     5
 63
     7
421
 16777215
176
     1
 74
     1
176
     1
 91
        4
176
     1
 64
     7
176
     1
 65
   257
176
     1
 75
     1
176
     1
175
     1
176
     1
 42
1.0
176
     1
 92
        0
176
     1
 66
   257
176
     1
 43
1.0
176
     1
 76
     1
176
     1
 77
     6
176
     1
 78
     2
176
     1
 67
     7
176
     1
 79
     5
176
     1
170
     0
176
     1
171
     0
176
     1
290
     0
176
     1
 93
       13
176
     1
 44
0.0
176
     1
173
     0
176
     1
  0
VISUALSTYLE
  5
38
102
{ACAD_REACTORS
330
2A
102
}
330
2A
100
AcDbVisualStyle
  2
Linepattern
 70
    14
177
     2
291
     1
 71
     2
176
     1
 72
     2
176
     1
 73
     0
176
     1
 90
        0
176
     1
 40
-0.6
176
     1
 41
-30.0
176
     1
 62
     5
 63
     7
421
 16777215
176
     1
 74
     1
176
     1
 91
        4
176
     1
 64
     7
176
     1
 65
   257
176
     1
 75
     7
176
     1
175
     7
176
     1
 42
1.0
176
     1
 92
        8
176
     1
 66
     7
176
     1
 43
1.0
176
     1
 76
     1
176
     1
 77
     6
176
     1
 78
     2
176
     1
 67
     7
176
     1
 79
     5
176
     1
170
     0
176
     1
171
     0
176
     1
290
     0
176
     1
 93
        1
176
     1
 44
0.0
176
     1
173
     0
176
     1
  0
VISUALSTYLE
  5
33
102
{ACAD_REACTORS
330
2A
102
}
330
2A
100
AcDbVisualStyle
  2
Realistic
 70
     8
177
     2
291
     0
 71
     2
176
     1
 72
     2
176
     1
 73
     0
176
     1
 90
        0
176
     1
 40
-0.6
176
     1
 41
-30.0
176
     1
 62
     5
 63
     7
421
 16777215
176
     1
 74
     1
176
     1
 91
        0
176
     1
 64
     7
176
     1
 65
   257
176
     1
 75
     1
176
     1
175
     1
176
     1
 42
1.0
176
     1
 92
        8
176
     1
 66
     8
424
  7895160
176
     1
 43
1.0
176
     1
 76
     1
176
     1
 77
     6
176
     1
 78
     2
176
     1
 67
     7
176
     1
 79
     5
176
     1
170
     0
176
     1
171
     0
176
     1
290
     0
176
     1
 93
       13
176
     1
 44
0.0
176
     1
173
     0
176
     1
  0
VISUALSTYLE
  5
37
102
{ACAD_REACTORS
330
2A
102
}
330
2A
100
AcDbVisualStyle
  2
Thicken
 70
    13
177
     2
291
     1
 71
     2
176
     1
 72
     2
176
     1
 73
     0
176
     1
 90
        0
176
     1
 40
-0.6
176
     1
 41
-30.0
176
     1
 62
     5
 63
     7
421
 16777215
176
     1
 74
     1
176
     1
 91
        4
176
     1
 64
     7
176
     1
 65
   257
176
     1
 75
     1
176
     1
175
     1
176
     1
 42
1.0
176
     1
 92
       12
176
     1
 66
     7
176
     1
 43
1.0
176
     1
 76
     1
176
     1
 77
     6
176
     1
 78
     2
176
     1
 67
     7
176
     1
 79
     5
176
     1
170
     0
176
     1
171
     0
176
     1
290
     0
176
     1
 93
        1
176
     1
 44
0.0
176
     1
173
     0
176
     1
  0
ENDSEC
  0
EOF
