  0
SECTION
  2
HEADER
  9
$ACADVER
  1
AC1024
  9
$ACADMAINTVER
 70
     6
  9
$DWGCODEPAGE
  3
UNDEFINED
  9
$INSBASE
 10
0.0
 20
0.0
 30
0.0
  9
$EXTMIN
 10
1.000000000000000E+20
 20
1.000000000000000E+20
 30
1.000000000000000E+20
  9
$EXTMAX
 10
-1.000000000000000E+20
 20
-1.000000000000000E+20
 30
-1.000000000000000E+20
  9
$LIMMIN
 10
0.0
 20
0.0
  9
$LIMMAX
 10
12.0
 20
9.0
  9
$ORTHOMODE
 70
     0
  9
$REGENMODE
 70
     1
  9
$FILLMODE
 70
     1
  9
$QTEXTMODE
 70
     0
  9
$MIRRTEXT
 70
     1
  9
$LTSCALE
 40
1.0
  9
$ATTMODE
 70
     1
  9
$TEXTSIZE
 40
0.2
  9
$TRACEWID
 40
0.05
  9
$TEXTSTYLE
  7
Standard
  9
$CLAYER
  8
0
  9
$CELTYPE
  6
ByLayer
  9
$CECOLOR
 62
   256
  9
$CELTSCALE
 40
1.0
  9
$DISPSILH
 70
     0
  9
$DIMSCALE
 40
1.0
  9
$DIMASZ
 40
0.18
  9
$DIMEXO
 40
0.0625
  9
$DIMDLI
 40
0.38
  9
$DIMRND
 40
0.0
  9
$DIMDLE
 40
0.0
  9
$DIMEXE
 40
0.18
  9
$DIMTP
 40
0.0
  9
$DIMTM
 40
0.0
  9
$DIMTXT
 40
0.18
  9
$DIMCEN
 40
0.09
  9
$DIMTSZ
 40
0.0
  9
$DIMTOL
 70
     0
  9
$DIMLIM
 70
     0
  9
$DIMTIH
 70
     1
  9
$DIMTOH
 70
     1
  9
$DIMSE1
 70
     0
  9
$DIMSE2
 70
     0
  9
$DIMTAD
 70
     0
  9
$DIMZIN
 70
     0
  9
$DIMBLK
  1

  9
$DIMASO
 70
     1
  9
$DIMSHO
 70
     1
  9
$DIMPOST
  1

  9
$DIMAPOST
  1

  9
$DIMALT
 70
     0
  9
$DIMALTD
 70
     2
  9
$DIMALTF
 40
25.4
  9
$DIMLFAC
 40
1.0
  9
$DIMTOFL
 70
     0
  9
$DIMTVP
 40
0.0
  9
$DIMTIX
 70
     0
  9
$DIMSOXD
 70
     0
  9
$DIMSAH
 70
     0
  9
$DIMBLK1
  1

  9
$DIMBLK2
  1

  9
$DIMSTYLE
  2
Standard
  9
$DIMCLRD
 70
     0
  9
$DIMCLRE
 70
     0
  9
$DIMCLRT
 70
     0
  9
$DIMTFAC
 40
1.0
  9
$DIMGAP
 40
0.09
  9
$DIMJUST
 70
     0
  9
$DIMSD1
 70
     0
  9
$DIMSD2
 70
     0
  9
$DIMTOLJ
 70
     1
  9
$DIMTZIN
 70
     0
  9
$DIMALTZ
 70
     0
  9
$DIMALTTZ
 70
     0
  9
$DIMUPT
 70
     0
  9
$DIMDEC
 70
     4
  9
$DIMTDEC
 70
     4
  9
$DIMALTU
 70
     2
  9
$DIMALTTD
 70
     2
  9
$DIMTXSTY
  7
Standard
  9
$DIMAUNIT
 70
     0
  9
$DIMADEC
 70
     0
  9
$DIMALTRND
 40
0.0
  9
$DIMAZIN
 70
     0
  9
$DIMDSEP
 70
    46
  9
$DIMATFIT
 70
     3
  9
$DIMFRAC
 70
     0
  9
$DIMLDRBLK
  1

  9
$DIMLUNIT
 70
     2
  9
$DIMLWD
 70
    -2
  9
$DIMLWE
 70
    -2
  9
$DIMTMOVE
 70
     0
  9
$DIMFXL
 40
1.0
  9
$DIMFXLON
 70
     0
  9
$DIMJOGANG
 40
0.7853981633974483
  9
$DIMTFILL
 70
     0
  9
$DIMTFILLCLR
 70
     0
  9
$DIMARCSYM
 70
     0
  9
$DIMLTYPE
  6

  9
$DIMLTEX1
  6

  9
$DIMLTEX2
  6

  9
$DIMTXTDIRECTION
 70
     0
  9
$LUNITS
 70
     2
  9
$LUPREC
 70
     4
  9
$SKETCHINC
 40
0.1
  9
$FILLETRAD
 40
0.5
  9
$AUNITS
 70
     0
  9
$AUPREC
 70
     0
  9
$MENU
  1
.
  9
$ELEVATION
 40
0.0
  9
$PELEVATION
 40
0.0
  9
$THICKNESS
 40
0.0
  9
$LIMCHECK
 70
     0
  9
$CHAMFERA
 40
0.5
  9
$CHAMFERB
 40
0.5
  9
$CHAMFERC
 40
1.0
  9
$CHAMFERD
 40
0.0
  9
$SKPOLY
 70
     0
  9
$TDCREATE
 40
2457917.636273136
  9
$TDUCREATE
 40
2457917.261273148
  9
$TDUPDATE
 40
2457917.636273136
  9
$TDUUPDATE
 40
2457917.261273148
  9
$TDINDWG
 40
0.0000000116
  9
$TDUSRTIMER
 40
0.0000000116
  9
$USRTIMER
 70
     1
  9
$ANGBASE
 50
0.0
  9
$ANGDIR
 70
     0
  9
$PDMODE
 70
     0
  9
$PDSIZE
 40
0.0
  9
$PLINEWID
 40
0.0
  9
$SPLFRAME
 70
     0
  9
$SPLINETYPE
 70
     6
  9
$SPLINESEGS
 70
     8
  9
$HANDSEED
  5
17A
  9
$SURFTAB1
 70
     6
  9
$SURFTAB2
 70
     6
  9
$SURFTYPE
 70
     6
  9
$SURFU
 70
     6
  9
$SURFV
 70
     6
  9
$UCSBASE
  2

  9
$UCSNAME
  2

  9
$UCSORG
 10
0.0
 20
0.0
 30
0.0
  9
$UCSXDIR
 10
1.0
 20
0.0
 30
0.0
  9
$UCSYDIR
 10
0.0
 20
1.0
 30
0.0
  9
$UCSORTHOREF
  2

  9
$UCSORTHOVIEW
 70
     0
  9
$UCSORGTOP
 10
0.0
 20
0.0
 30
0.0
  9
$UCSORGBOTTOM
 10
0.0
 20
0.0
 30
0.0
  9
$UCSORGLEFT
 10
0.0
 20
0.0
 30
0.0
  9
$UCSORGRIGHT
 10
0.0
 20
0.0
 30
0.0
  9
$UCSORGFRONT
 10
0.0
 20
0.0
 30
0.0
  9
$UCSORGBACK
 10
0.0
 20
0.0
 30
0.0
  9
$PUCSBASE
  2

  9
$PUCSNAME
  2

  9
$PUCSORG
 10
0.0
 20
0.0
 30
0.0
  9
$PUCSXDIR
 10
1.0
 20
0.0
 30
0.0
  9
$PUCSYDIR
 10
0.0
 20
1.0
 30
0.0
  9
$PUCSORTHOREF
  2

  9
$PUCSORTHOVIEW
 70
     0
  9
$PUCSORGTOP
 10
0.0
 20
0.0
 30
0.0
  9
$PUCSORGBOTTOM
 10
0.0
 20
0.0
 30
0.0
  9
$PUCSORGLEFT
 10
0.0
 20
0.0
 30
0.0
  9
$PUCSORGRIGHT
 10
0.0
 20
0.0
 30
0.0
  9
$PUCSORGFRONT
 10
0.0
 20
0.0
 30
0.0
  9
$PUCSORGBACK
 10
0.0
 20
0.0
 30
0.0
  9
$USERI1
 70
     0
  9
$USERI2
 70
     0
  9
$USERI3
 70
     0
  9
$USERI4
 70
     0
  9
$USERI5
 70
     0
  9
$USERR1
 40
0.0
  9
$USERR2
 40
0.0
  9
$USERR3
 40
0.0
  9
$USERR4
 40
0.0
  9
$USERR5
 40
0.0
  9
$WORLDVIEW
 70
     1
  9
$SHADEDGE
 70
     3
  9
$SHADEDIF
 70
    70
  9
$TILEMODE
 70
     1
  9
$MAXACTVP
 70
    64
  9
$PINSBASE
 10
0.0
 20
0.0
 30
0.0
  9
$PLIMCHECK
 70
     0
  9
$PEXTMIN
 10
1.000000000000000E+20
 20
1.000000000000000E+20
 30
1.000000000000000E+20
  9
$PEXTMAX
 10
-1.000000000000000E+20
 20
-1.000000000000000E+20
 30
-1.000000000000000E+20
  9
$PLIMMIN
 10
0.0
 20
0.0
  9
$PLIMMAX
 10
12.0
 20
9.0
  9
$UNITMODE
 70
     0
  9
$VISRETAIN
 70
     1
  9
$PLINEGEN
 70
     0
  9
$PSLTSCALE
 70
     1
  9
$TREEDEPTH
 70
  3020
  9
$CMLSTYLE
  2
Standard
  9
$CMLJUST
 70
     0
  9
$CMLSCALE
 40
1.0
  9
$PROXYGRAPHICS
 70
     1
  9
$MEASUREMENT
 70
     0
  9
$CELWEIGHT
370
    -1
  9
$ENDCAPS
280
     0
  9
$JOINSTYLE
280
     0
  9
$LWDISPLAY
290
     1
  9
$INSUNITS
 70
     1
  9
$HYPERLINKBASE
  1

  9
$STYLESHEET
  1

  9
$XEDIT
290
     1
  9
$CEPSNTYPE
380
     0
  9
$PSTYLEMODE
290
     1
  9
$FINGERPRINTGUID
  2
{BA29E94F-1FF4-A348-AE5D-C5AB8637D205}
  9
$VERSIONGUID
  2
{FAEB1C32-E019-11D5-929B-00C0DF256EC4}
  9
$EXTNAMES
290
     1
  9
$PSVPSCALE
 40
0.0
  9
$OLESTARTUP
290
     0
  9
$SORTENTS
280
   127
  9
$INDEXCTL
280
     0
  9
$HIDETEXT
280
     1
  9
$XCLIPFRAME
280
     2
  9
$HALOGAP
280
     0
  9
$OBSCOLOR
 70
   257
  9
$OBSLTYPE
280
     0
  9
$INTERSECTIONDISPLAY
280
     0
  9
$INTERSECTIONCOLOR
 70
   257
  9
$DIMASSOC
280
     2
  9
$PROJECTNAME
  1

  9
$CAMERADISPLAY
290
     0
  9
$LENSLENGTH
 40
50.0
  9
$CAMERAHEIGHT
 40
0.0
  9
$STEPSPERSEC
 40
2.0
  9
$STEPSIZE
 40
6.0
  9
$3DDWFPREC
 40
2.0
  9
$PSOLWIDTH
 40
0.25
  9
$PSOLHEIGHT
 40
4.0
  9
$LOFTANG1
 40
1.570796326794897
  9
$LOFTANG2
 40
1.570796326794897
  9
$LOFTMAG1
 40
0.0
  9
$LOFTMAG2
 40
0.0
  9
$LOFTPARAM
 70
     7
  9
$LOFTNORMALS
280
     1
  9
$LATITUDE
 40
37.795
  9
$LONGITUDE
 40
-122.394
  9
$NORTHDIRECTION
 40
0.0
  9
$TIMEZONE
 70
 -8000
  9
$LIGHTGLYPHDISPLAY
280
     1
  9
$TILEMODELIGHTSYNCH
280
     1
  9
$CMATERIAL
347
3C
  9
$SOLIDHIST
280
     1
  9
$SHOWHIST
280
     1
  9
$DWFFRAME
280
     2
  9
$DGNFRAME
280
     2
  9
$REALWORLDSCALE
290
     1
  9
$INTERFERECOLOR
 62
   256
  9
$CSHADOW
280
     0
  9
$SHADOWPLANELOCATION
 40
0.0
  0
ENDSEC
  0
SECTION
  2
CLASSES
  0
CLASS
  1
ACDBDICTIONARYWDFLT
  2
AcDbDictionaryWithDefault
  3
ObjectDBX Classes
 90
        0
 91
        4
280
     0
281
     0
  0
CLASS
  1
VISUALSTYLE
  2
AcDbVisualStyle
  3
ObjectDBX Classes
 90
     4095
 91
        4
280
     0
281
     0
  0
CLASS
  1
MATERIAL
  2
AcDbMaterial
  3
ObjectDBX Classes
 90
     1153
 91
        4
280
     0
281
     0
  0
CLASS
  1
SUN
  2
AcDbSun
  3
SCENEOE
 90
     1024
 91
        4
280
     0
281
     0
  0
ENDSEC
  0
SECTION
  2
TABLES
  0
TABLE
  2
VPORT
  5
8
330
0
100
AcDbSymbolTable
 70
     1
  0
VPORT
  5
29
330
8
100
AcDbSymbolTableRecord
100
AcDbViewportTableRecord
  2
*Active
 70
     0
 10
0.0
 20
0.0
 11
1.0
 21
1.0
 12
0.0
 22
0.0
 13
0.0
 23
0.0
 14
0.5
 24
0.5
 15
0.5
 25
0.5
 16
0.0
 26
0.0
 36
1.0
 17
91.00082462281999
 27
-128.4993055234307
 37
0.0
 40
256.9986110468615
 41
0.7081814508812795
 42
50.0
 43
0.0
 44
0.0
 50
0.0
 51
0.0
 71
     0
 72
   100
 73
     1
 74
     3
 75
     0
 76
     0
 77
     0
 78
     0
281
     0
 65
     1
110
0.0
120
0.0
130
0.0
111
1.0
121
0.0
131
0.0
112
0.0
122
1.0
132
0.0
 79
     0
146
0.0
 60
     3
 61
     5
292
     1
282
     1
141
0.0
142
0.0
 63
   250
361
3F
  0
ENDTAB
  0
TABLE
  2
LTYPE
  5
5
330
0
100
AcDbSymbolTable
 70
     1
  0
LTYPE
  5
14
330
5
100
AcDbSymbolTableRecord
100
AcDbLinetypeTableRecord
  2
ByBlock
 70
     0
  3

 72
    65
 73
     0
 40
0.0
  0
LTYPE
  5
15
330
5
100
AcDbSymbolTableRecord
100
AcDbLinetypeTableRecord
  2
ByLayer
 70
     0
  3

 72
    65
 73
     0
 40
0.0
  0
LTYPE
  5
16
330
5
100
AcDbSymbolTableRecord
100
AcDbLinetypeTableRecord
  2
Continuous
 70
     0
  3
Solid line
 72
    65
 73
     0
 40
0.0
  0
ENDTAB
  0
TABLE
  2
LAYER
  5
2
330
0
100
AcDbSymbolTable
 70
     2
  0
LAYER
  5
10
330
2
100
AcDbSymbolTableRecord
100
AcDbLayerTableRecord
  2
0
 70
     0
 62
     7
  6
Continuous
370
    -3
390
F
347
3E
  0
LAYER
  5
40
330
2
100
AcDbSymbolTableRecord
100
AcDbLayerTableRecord
  2
_U+30EC_U+30A4_U+30E4_U+30FC 1
 70
     0
 62
     7
  6
Continuous
370
    -3
390
F
347
3E
  0
ENDTAB
  0
TABLE
  2
STYLE
  5
3
330
0
100
AcDbSymbolTable
 70
     1
  0
STYLE
  5
11
330
3
100
AcDbSymbolTableRecord
100
AcDbTextStyleTableRecord
  2
Standard
 70
     0
 40
0.0
 41
1.0
 50
0.0
 71
     0
 42
0.2
  3
txt
  4

  0
ENDTAB
  0
TABLE
  2
VIEW
  5
6
330
0
100
AcDbSymbolTable
 70
     0
  0
ENDTAB
  0
TABLE
  2
UCS
  5
7
330
0
100
AcDbSymbolTable
 70
     0
  0
ENDTAB
  0
TABLE
  2
APPID
  5
9
330
0
100
AcDbSymbolTable
 70
     1
  0
APPID
  5
12
330
9
100
AcDbSymbolTableRecord
100
AcDbRegAppTableRecord
  2
ACAD
 70
     0
  0
ENDTAB
  0
TABLE
  2
DIMSTYLE
  5
A
330
0
100
AcDbSymbolTable
 70
     1
100
AcDbDimStyleTable
  0
DIMSTYLE
105
27
330
A
100
AcDbSymbolTableRecord
100
AcDbDimStyleTableRecord
  2
Standard
 70
     0
178
     0
340
11
  0
ENDTAB
  0
TABLE
  2
BLOCK_RECORD
  5
1
330
0
100
AcDbSymbolTable
 70
     8
  0
BLOCK_RECORD
  5
1F
330
1
100
AcDbSymbolTableRecord
100
AcDbBlockTableRecord
  2
*Model_Space
340
22
 70
     0
280
     1
281
     0
  0
BLOCK_RECORD
  5
1B
330
1
100
AcDbSymbolTableRecord
100
AcDbBlockTableRecord
  2
*Paper_Space
340
1E
 70
     0
280
     1
281
     0
  0
BLOCK_RECORD
  5
23
330
1
100
AcDbSymbolTableRecord
100
AcDbBlockTableRecord
  2
*Paper_Space0
340
26
 70
     0
280
     1
281
     0
  0
BLOCK_RECORD
  5
47
330
1
100
AcDbSymbolTableRecord
100
AcDbBlockTableRecord
  2
block 2
340
0
102
{BLKREFS
331
48
102
}
 70
     0
280
     1
281
     0
  0
BLOCK_RECORD
  5
59
330
1
100
AcDbSymbolTableRecord
100
AcDbBlockTableRecord
  2
block 3
340
0
102
{BLKREFS
331
5A
102
}
 70
     0
280
     1
281
     0
  0
BLOCK_RECORD
  5
F7
330
1
100
AcDbSymbolTableRecord
100
AcDbBlockTableRecord
  2
block 4
340
0
102
{BLKREFS
331
F8
102
}
 70
     0
280
     1
281
     0
  0
BLOCK_RECORD
  5
11D
330
1
100
AcDbSymbolTableRecord
100
AcDbBlockTableRecord
  2
block 5
340
0
102
{BLKREFS
331
11E
102
}
 70
     0
280
     1
281
     0
  0
BLOCK_RECORD
  5
132
330
1
100
AcDbSymbolTableRecord
100
AcDbBlockTableRecord
  2
block 6
340
0
102
{BLKREFS
331
133
102
}
 70
     0
280
     1
281
     0
  0
BLOCK_RECORD
  5
147
330
1
100
AcDbSymbolTableRecord
100
AcDbBlockTableRecord
  2
block 7
340
0
102
{BLKREFS
331
148
102
}
 70
     0
280
     1
281
     0
  0
BLOCK_RECORD
  5
16D
330
1
100
AcDbSymbolTableRecord
100
AcDbBlockTableRecord
  2
block 8
340
0
102
{BLKREFS
331
16E
102
}
 70
     0
280
     1
281
     0
  0
ENDTAB
  0
ENDSEC
  0
SECTION
  2
BLOCKS
  0
BLOCK
  5
20
330
1F
100
AcDbEntity
  8
0
100
AcDbBlockBegin
  2
*Model_Space
 70
     0
 10
0.0
 20
0.0
 30
0.0
  3
*Model_Space
  1

  0
ENDBLK
  5
21
330
1F
100
AcDbEntity
  8
0
100
AcDbBlockEnd
  0
BLOCK
  5
1C
330
1B
100
AcDbEntity
 67
     1
  8
0
100
AcDbBlockBegin
  2
*Paper_Space
 70
     0
 10
0.0
 20
0.0
 30
0.0
  3
*Paper_Space
  1

  0
ENDBLK
  5
1D
330
1B
100
AcDbEntity
 67
     1
  8
0
100
AcDbBlockEnd
  0
BLOCK
  5
24
330
23
100
AcDbEntity
  8
0
100
AcDbBlockBegin
  2
*Paper_Space0
 70
     0
 10
0.0
 20
0.0
 30
0.0
  3
*Paper_Space0
  1

  0
ENDBLK
  5
25
330
23
100
AcDbEntity
  8
0
100
AcDbBlockEnd
  0
BLOCK
  5
49
330
47
100
AcDbEntity
  8
0
100
AcDbBlockBegin
  2
block 2
 70
     0
 10
0.0
 20
0.0
 30
0.0
  3
block 2
  1

  0
SPLINE
  5
4B
330
47
100
AcDbEntity
  8
_U+30EC_U+30A4_U+30E4_U+30FC 1
370
     0
100
AcDbSpline
210
0.0
220
0.0
230
1.0
 70
    11
 71
     3
 72
    62
 73
    58
 74
     0
 42
0.0000000001
 43
0.0000000001
 12
1.0
 22
0.0
 32
0.0
 13
1.0
 23
0.0
 33
0.0
 40
0.0
 40
0.0
 40
0.0
 40
0.0
 40
1.0
 40
1.0
 40
1.0
 40
2.0
 40
2.0
 40
2.0
 40
3.0
 40
3.0
 40
3.0
 40
4.0
 40
4.0
 40
4.0
 40
5.0
 40
5.0
 40
5.0
 40
6.0
 40
6.0
 40
6.0
 40
7.0
 40
7.0
 40
7.0
 40
8.0
 40
8.0
 40
8.0
 40
9.0
 40
9.0
 40
9.0
 40
10.0
 40
10.0
 40
10.0
 40
11.0
 40
11.0
 40
11.0
 40
12.0
 40
12.0
 40
12.0
 40
13.0
 40
13.0
 40
13.0
 40
14.0
 40
14.0
 40
14.0
 40
15.0
 40
15.0
 40
15.0
 40
16.0
 40
16.0
 40
16.0
 40
17.0
 40
17.0
 40
17.0
 40
18.0
 40
18.0
 40
18.0
 40
19.0
 40
19.0
 40
19.0
 40
19.0
 10
72.68496905734959
 20
-124.0689127293994
 30
0.0
 10
72.68496905734959
 20
-124.1641696195666
 30
0.0
 10
72.66378172011531
 20
-124.3820719090087
 30
0.0
 10
72.47757430913755
 20
-124.506956620349
 30
0.0
 10
72.36543645109268
 20
-124.5808539185076
 30
0.0
 10
72.26604544634321
 20
-124.5851602878641
 30
0.0
 10
72.18146835218033
 20
-124.5894666572207
 30
0.0
 10
72.18146835218033
 20
-124.5894666572207
 30
0.0
 10
72.18146835218033
 20
-124.3693250557132
 30
0.0
 10
72.18146835218033
 20
-124.3693250557132
 30
0.0
 10
72.2555379051132
 20
-124.3672579984221
 30
0.0
 10
72.49032116243298
 20
-124.3567504571921
 30
0.0
 10
72.49032116243298
 20
-124.073219098756
 30
0.0
 10
72.49032116243298
 20
-123.9357597888945
 30
0.0
 10
72.42055797885666
 20
-123.7833143136722
 30
0.0
 10
72.19197589341034
 20
-123.7833143136722
 30
0.0
 10
72.07570392078316
 20
-123.7833143136722
 30
0.0
 10
72.02695581966688
 20
-123.8213826187842
 30
0.0
 10
71.99526094120257
 20
-123.8532497520228
 30
0.0
 10
71.9211913882697
 20
-123.9273193049557
 30
0.0
 10
71.90861678974855
 20
-124.0435912775829
 30
0.0
 10
71.90861678974855
 20
-124.0985405505726
 30
0.0
 10
71.90861678974855
 20
-124.1176608305157
 30
0.0
 10
71.91068384703969
 20
-124.1536620783366
 30
0.0
 10
71.91499021639626
 20
-124.1810505874443
 30
0.0
 10
71.91499021639626
 20
-124.1810505874443
 30
0.0
 10
71.72034232147963
 20
-124.1810505874443
 30
0.0
 10
71.72034232147963
 20
-124.1810505874443
 30
0.0
 10
71.72671574812735
 20
-124.1429822823323
 30
0.0
 10
71.7287828054185
 20
-124.100779862638
 30
0.0
 10
71.7287828054185
 20
-124.0944064359903
 30
0.0
 10
71.7287828054185
 20
-124.0287773669963
 30
0.0
 10
71.70759546818421
 20
-123.8299953574974
 30
0.0
 10
71.47057289879902
 20
-123.8299953574974
 30
0.0
 10
71.2929782265344
 20
-123.8299953574974
 30
0.0
 10
71.23802895354466
 20
-123.9610812407111
 30
0.0
 10
71.23802895354466
 20
-124.0711520414649
 30
0.0
 10
71.23802895354466
 20
-124.3355631199578
 30
0.0
 10
71.47057289879902
 20
-124.3440036038966
 30
0.0
 10
71.54257539444075
 20
-124.3481377184789
 30
0.0
 10
71.54257539444075
 20
-124.3481377184789
 30
0.0
 10
71.54257539444075
 20
-124.5512260973344
 30
0.0
 10
71.54257539444075
 20
-124.5512260973344
 30
0.0
 10
71.41769068310045
 20
-124.5427856133956
 30
0.0
 10
71.04114174656263
 20
-124.5153971042878
 30
0.0
 10
71.04114174656263
 20
-124.0584051881694
 30
0.0
 10
71.04114174656263
 20
-123.8341294720797
 30
0.0
 10
71.16809351519409
 20
-123.5929727881122
 30
0.0
 10
71.46437172692558
 20
-123.5929727881122
 30
0.0
 10
71.65040688312907
 20
-123.5929727881122
 30
0.0
 10
71.7329169200008
 20
-123.6882296782793
 30
0.0
 10
71.79441187441252
 20
-123.7876206830288
 30
0.0
 10
71.82180038352024
 20
-123.7262979833913
 30
0.0
 10
71.90224336310084
 20
-123.5443969417702
 30
0.0
 10
72.17940129488917
 20
-123.5443969417702
 30
0.0
 10
72.51788192631497
 20
-123.5443969417702
 30
0.0
 10
72.68496905734959
 20
-123.7919270523854
 30
0.0
 10
72.68496905734959
 20
-124.0689127293994
 30
0.0
  0
HATCH
  5
4C
330
47
100
AcDbEntity
  8
_U+30EC_U+30A4_U+30E4_U+30FC 1
 62
   179
420
  2234388
100
AcDbHatch
 10
0.0
 20
0.0
 30
0.0
210
0.0
220
0.0
230
1.0
  2
SOLID
 70
     1
 71
     0
 91
        1
 92
        1
 93
        1
 72
     4
 94
        3
 73
     0
 74
     1
 95
       62
 96
       58
 40
0.0
 40
0.0
 40
0.0
 40
0.0
 40
1.0
 40
1.0
 40
1.0
 40
2.0
 40
2.0
 40
2.0
 40
3.0
 40
3.0
 40
3.0
 40
4.0
 40
4.0
 40
4.0
 40
5.0
 40
5.0
 40
5.0
 40
6.0
 40
6.0
 40
6.0
 40
7.0
 40
7.0
 40
7.0
 40
8.0
 40
8.0
 40
8.0
 40
9.0
 40
9.0
 40
9.0
 40
10.0
 40
10.0
 40
10.0
 40
11.0
 40
11.0
 40
11.0
 40
12.0
 40
12.0
 40
12.0
 40
13.0
 40
13.0
 40
13.0
 40
14.0
 40
14.0
 40
14.0
 40
15.0
 40
15.0
 40
15.0
 40
16.0
 40
16.0
 40
16.0
 40
17.0
 40
17.0
 40
17.0
 40
18.0
 40
18.0
 40
18.0
 40
19.0
 40
19.0
 40
19.0
 40
19.0
 10
72.68496905734959
 20
-124.0689127293994
 10
72.68496905734959
 20
-124.1641696195666
 10
72.66378172011531
 20
-124.3820719090087
 10
72.47757430913755
 20
-124.506956620349
 10
72.36543645109268
 20
-124.5808539185076
 10
72.26604544634321
 20
-124.5851602878641
 10
72.18146835218033
 20
-124.5894666572207
 10
72.18146835218033
 20
-124.5894666572207
 10
72.18146835218033
 20
-124.3693250557132
 10
72.18146835218033
 20
-124.3693250557132
 10
72.2555379051132
 20
-124.3672579984221
 10
72.49032116243298
 20
-124.3567504571921
 10
72.49032116243298
 20
-124.073219098756
 10
72.49032116243298
 20
-123.9357597888945
 10
72.42055797885666
 20
-123.7833143136722
 10
72.19197589341034
 20
-123.7833143136722
 10
72.07570392078316
 20
-123.7833143136722
 10
72.02695581966688
 20
-123.8213826187842
 10
71.99526094120257
 20
-123.8532497520228
 10
71.9211913882697
 20
-123.9273193049557
 10
71.90861678974855
 20
-124.0435912775829
 10
71.90861678974855
 20
-124.0985405505726
 10
71.90861678974855
 20
-124.1176608305157
 10
71.91068384703969
 20
-124.1536620783366
 10
71.91499021639626
 20
-124.1810505874443
 10
71.91499021639626
 20
-124.1810505874443
 10
71.72034232147963
 20
-124.1810505874443
 10
71.72034232147963
 20
-124.1810505874443
 10
71.72671574812735
 20
-124.1429822823323
 10
71.7287828054185
 20
-124.100779862638
 10
71.7287828054185
 20
-124.0944064359903
 10
71.7287828054185
 20
-124.0287773669963
 10
71.70759546818421
 20
-123.8299953574974
 10
71.47057289879902
 20
-123.8299953574974
 10
71.2929782265344
 20
-123.8299953574974
 10
71.23802895354466
 20
-123.9610812407111
 10
71.23802895354466
 20
-124.0711520414649
 10
71.23802895354466
 20
-124.3355631199578
 10
71.47057289879902
 20
-124.3440036038966
 10
71.54257539444075
 20
-124.3481377184789
 10
71.54257539444075
 20
-124.3481377184789
 10
71.54257539444075
 20
-124.5512260973344
 10
71.54257539444075
 20
-124.5512260973344
 10
71.41769068310045
 20
-124.5427856133956
 10
71.04114174656263
 20
-124.5153971042878
 10
71.04114174656263
 20
-124.0584051881694
 10
71.04114174656263
 20
-123.8341294720797
 10
71.16809351519409
 20
-123.5929727881122
 10
71.46437172692558
 20
-123.5929727881122
 10
71.65040688312907
 20
-123.5929727881122
 10
71.7329169200008
 20
-123.6882296782793
 10
71.79441187441252
 20
-123.7876206830288
 10
71.82180038352024
 20
-123.7262979833913
 10
71.90224336310084
 20
-123.5443969417702
 10
72.17940129488917
 20
-123.5443969417702
 10
72.51788192631497
 20
-123.5443969417702
 10
72.68496905734959
 20
-123.7919270523854
 10
72.68496905734959
 20
-124.0689127293994
 97
        0
 97
        0
 75
     2
 76
     1
 98
        0
  0
SPLINE
  5
4D
330
47
100
AcDbEntity
  8
_U+30EC_U+30A4_U+30E4_U+30FC 1
370
     0
100
AcDbSpline
210
0.0
220
0.0
230
1.0
 70
    11
 71
     3
 72
    26
 73
    22
 74
     0
 42
0.0000000001
 43
0.0000000001
 12
1.0
 22
0.0
 32
0.0
 13
1.0
 23
0.0
 33
0.0
 40
0.0
 40
0.0
 40
0.0
 40
0.0
 40
1.0
 40
1.0
 40
1.0
 40
2.0
 40
2.0
 40
2.0
 40
3.0
 40
3.0
 40
3.0
 40
4.0
 40
4.0
 40
4.0
 40
5.0
 40
5.0
 40
5.0
 40
6.0
 40
6.0
 40
6.0
 40
7.0
 40
7.0
 40
7.0
 40
7.0
 10
72.63415389894216
 20
-122.9323757288155
 30
0.0
 10
72.63415389894216
 20
-122.9323757288155
 30
0.0
 10
71.52982854114532
 20
-122.9323757288155
 30
0.0
 10
71.52982854114532
 20
-122.9323757288155
 30
0.0
 10
71.52982854114532
 20
-122.9323757288155
 30
0.0
 10
71.52982854114532
 20
-123.2622436215282
 30
0.0
 10
71.52982854114532
 20
-123.2622436215282
 30
0.0
 10
71.52982854114532
 20
-123.2622436215282
 30
0.0
 10
71.38186169005384
 20
-123.2622436215282
 30
0.0
 10
71.38186169005384
 20
-123.2622436215282
 30
0.0
 10
71.36704777946727
 20
-122.9301364167501
 30
0.0
 10
71.20409476301495
 20
-122.8836276276992
 30
0.0
 10
71.08988984767892
 20
-122.8539998065261
 30
0.0
 10
71.08988984767892
 20
-122.8539998065261
 30
0.0
 10
71.08988984767892
 20
-122.7081000127258
 30
0.0
 10
71.08988984767892
 20
-122.7081000127258
 30
0.0
 10
71.08988984767892
 20
-122.7081000127258
 30
0.0
 10
72.63415389894216
 20
-122.7081000127258
 30
0.0
 10
72.63415389894216
 20
-122.7081000127258
 30
0.0
 10
72.63415389894216
 20
-122.7081000127258
 30
0.0
 10
72.63415389894216
 20
-122.9323757288155
 30
0.0
 10
72.63415389894216
 20
-122.9323757288155
 30
0.0
  0
HATCH
  5
4E
330
47
100
AcDbEntity
  8
_U+30EC_U+30A4_U+30E4_U+30FC 1
 62
   179
420
  2234388
100
AcDbHatch
 10
0.0
 20
0.0
 30
0.0
210
0.0
220
0.0
230
1.0
  2
SOLID
 70
     1
 71
     0
 91
        1
 92
        1
 93
        1
 72
     4
 94
        3
 73
     0
 74
     1
 95
       26
 96
       22
 40
0.0
 40
0.0
 40
0.0
 40
0.0
 40
1.0
 40
1.0
 40
1.0
 40
2.0
 40
2.0
 40
2.0
 40
3.0
 40
3.0
 40
3.0
 40
4.0
 40
4.0
 40
4.0
 40
5.0
 40
5.0
 40
5.0
 40
6.0
 40
6.0
 40
6.0
 40
7.0
 40
7.0
 40
7.0
 40
7.0
 10
72.63415389894216
 20
-122.9323757288155
 10
72.63415389894216
 20
-122.9323757288155
 10
71.52982854114532
 20
-122.9323757288155
 10
71.52982854114532
 20
-122.9323757288155
 10
71.52982854114532
 20
-122.9323757288155
 10
71.52982854114532
 20
-123.2622436215282
 10
71.52982854114532
 20
-123.2622436215282
 10
71.52982854114532
 20
-123.2622436215282
 10
71.38186169005384
 20
-123.2622436215282
 10
71.38186169005384
 20
-123.2622436215282
 10
71.36704777946727
 20
-122.9301364167501
 10
71.20409476301495
 20
-122.8836276276992
 10
71.08988984767892
 20
-122.8539998065261
 10
71.08988984767892
 20
-122.8539998065261
 10
71.08988984767892
 20
-122.7081000127258
 10
71.08988984767892
 20
-122.7081000127258
 10
71.08988984767892
 20
-122.7081000127258
 10
72.63415389894216
 20
-122.7081000127258
 10
72.63415389894216
 20
-122.7081000127258
 10
72.63415389894216
 20
-122.7081000127258
 10
72.63415389894216
 20
-122.9323757288155
 10
72.63415389894216
 20
-122.9323757288155
 97
        0
 97
        0
 75
     2
 76
     1
 98
        0
  0
POLYLINE
  5
4F
330
47
100
AcDbEntity
  8
_U+30EC_U+30A4_U+30E4_U+30FC 1
370
     0
100
AcDb2dPolyline
 66
     1
 10
0.0
 20
0.0
 30
0.0
  0
VERTEX
  5
50
330
4F
100
AcDbEntity
  8
_U+30EC_U+30A4_U+30E4_U+30FC 1
370
     0
100
AcDbVertex
100
AcDb2dVertex
 10
72.63415389894216
 20
-122.1467217034043
 30
0.0
  0
VERTEX
  5
51
330
4F
100
AcDbEntity
  8
_U+30EC_U+30A4_U+30E4_U+30FC 1
370
     0
100
AcDbVertex
100
AcDb2dVertex
 10
72.38248967374466
 20
-122.1467217034043
 30
0.0
  0
VERTEX
  5
52
330
4F
100
AcDbEntity
  8
_U+30EC_U+30A4_U+30E4_U+30FC 1
370
     0
100
AcDbVertex
100
AcDb2dVertex
 10
72.38248967374466
 20
-121.8950574782068
 30
0.0
  0
VERTEX
  5
53
330
4F
100
AcDbEntity
  8
_U+30EC_U+30A4_U+30E4_U+30FC 1
370
     0
100
AcDbVertex
100
AcDb2dVertex
 10
72.63415389894216
 20
-121.8950574782068
 30
0.0
  0
VERTEX
  5
54
330
4F
100
AcDbEntity
  8
_U+30EC_U+30A4_U+30E4_U+30FC 1
370
     0
100
AcDbVertex
100
AcDb2dVertex
 10
72.63415389894216
 20
-122.1467217034043
 30
0.0
  0
SEQEND
  5
55
330
4F
100
AcDbEntity
  8
_U+30EC_U+30A4_U+30E4_U+30FC 1
370
     0
  0
HATCH
  5
56
330
47
100
AcDbEntity
  8
_U+30EC_U+30A4_U+30E4_U+30FC 1
 62
   179
420
  2234388
100
AcDbHatch
 10
0.0
 20
0.0
 30
0.0
210
0.0
220
0.0
230
1.0
  2
SOLID
 70
     1
 71
     0
 91
        1
 92
        1
 93
        4
 72
     1
 10
72.63415389894216
 20
-122.1467217034043
 11
72.38248967374466
 21
-122.1467217034043
 72
     1
 10
72.38248967374466
 20
-122.1467217034043
 11
72.38248967374466
 21
-121.8950574782068
 72
     1
 10
72.38248967374466
 20
-121.8950574782068
 11
72.63415389894216
 21
-121.8950574782068
 72
     1
 10
72.63415389894216
 20
-121.8950574782068
 11
72.63415389894216
 21
-122.1467217034043
 97
        0
 75
     2
 76
     1
 98
        0
  0
SPLINE
  5
57
330
47
100
AcDbEntity
  8
_U+30EC_U+30A4_U+30E4_U+30FC 1
370
     0
100
AcDbSpline
210
0.0
220
0.0
230
1.0
 70
    11
 71
     3
 72
    53
 73
    49
 74
     0
 42
0.0000000001
 43
0.0000000001
 12
1.0
 22
0.0
 32
0.0
 13
1.0
 23
0.0
 33
0.0
 40
0.0
 40
0.0
 40
0.0
 40
0.0
 40
1.0
 40
1.0
 40
1.0
 40
2.0
 40
2.0
 40
2.0
 40
3.0
 40
3.0
 40
3.0
 40
4.0
 40
4.0
 40
4.0
 40
5.0
 40
5.0
 40
5.0
 40
6.0
 40
6.0
 40
6.0
 40
7.0
 40
7.0
 40
7.0
 40
8.0
 40
8.0
 40
8.0
 40
9.0
 40
9.0
 40
9.0
 40
10.0
 40
10.0
 40
10.0
 40
11.0
 40
11.0
 40
11.0
 40
12.0
 40
12.0
 40
12.0
 40
13.0
 40
13.0
 40
13.0
 40
14.0
 40
14.0
 40
14.0
 40
15.0
 40
15.0
 40
15.0
 40
16.0
 40
16.0
 40
16.0
 40
16.0
 10
72.68496905734959
 20
-121.1776163434035
 30
0.0
 10
72.68496905734959
 20
-121.2558200109187
 30
0.0
 10
72.66808808947187
 20
-121.3574503277336
 30
0.0
 10
72.60452607776901
 20
-121.4589083897742
 30
0.0
 10
72.49462753178955
 20
-121.6325412022308
 30
0.0
 10
72.36336939380152
 20
-121.6535562846908
 30
0.0
 10
72.2555379051132
 20
-121.6726765646339
 30
0.0
 10
72.2555379051132
 20
-121.6726765646339
 30
0.0
 10
72.2555379051132
 20
-121.4504679058353
 30
0.0
 10
72.2555379051132
 20
-121.4504679058353
 30
0.0
 10
72.45431991461211
 20
-121.3955186328456
 30
0.0
 10
72.48394773578526
 20
-121.2685668642141
 30
0.0
 10
72.48394773578526
 20
-121.1755492861124
 30
0.0
 10
72.48394773578526
 20
-121.0358506641855
 30
0.0
 10
72.38455673103581
 20
-120.8835774437375
 30
0.0
 10
72.15184053100718
 20
-120.8835774437375
 30
0.0
 10
71.89586993645312
 20
-120.8835774437375
 30
0.0
 10
71.82610675287681
 20
-121.0634114280675
 30
0.0
 10
71.82610675287681
 20
-121.1839897700512
 30
0.0
 10
71.82610675287681
 20
-121.2156846485155
 30
0.0
 10
71.82610675287681
 20
-121.3574503277336
 30
0.0
 10
71.95512557879941
 20
-121.446333791253
 30
0.0
 10
71.95512557879941
 20
-121.446333791253
 30
0.0
 10
71.93600529885627
 20
-121.6218614062265
 30
0.0
 10
71.93600529885627
 20
-121.6218614062265
 30
0.0
 10
71.93600529885627
 20
-121.6218614062265
 30
0.0
 10
71.08988984767892
 20
-121.5012830642427
 30
0.0
 10
71.08988984767892
 20
-121.5012830642427
 30
0.0
 10
71.08988984767892
 20
-121.5012830642427
 30
0.0
 10
71.08988984767892
 20
-120.7228637393505
 30
0.0
 10
71.08988984767892
 20
-120.7228637393505
 30
0.0
 10
71.08988984767892
 20
-120.7228637393505
 30
0.0
 10
71.28453774259553
 20
-120.7228637393505
 30
0.0
 10
71.28453774259553
 20
-120.7228637393505
 30
0.0
 10
71.28453774259553
 20
-120.7228637393505
 30
0.0
 10
71.28453774259553
 20
-121.3383300477904
 30
0.0
 10
71.28453774259553
 20
-121.3383300477904
 30
0.0
 10
71.28453774259553
 20
-121.3383300477904
 30
0.0
 10
71.70759546818421
 20
-121.4039591167844
 30
0.0
 10
71.70759546818421
 20
-121.4039591167844
 30
0.0
 10
71.67383353242877
 20
-121.342636417147
 30
0.0
 10
71.63352591525134
 20
-121.2601263802753
 30
0.0
 10
71.63352591525134
 20
-121.1416150955827
 30
0.0
 10
71.63352591525134
 20
-120.887883813094
 30
0.0
 10
71.8197333262291
 20
-120.6508612437088
 30
0.0
 10
72.13289250583831
 20
-120.6508612437088
 30
0.0
 10
72.45018580002981
 20
-120.6508612437088
 30
0.0
 10
72.68496905734959
 20
-120.8751369597986
 30
0.0
 10
72.68496905734959
 20
-121.1776163434035
 30
0.0
  0
HATCH
  5
58
330
47
100
AcDbEntity
  8
_U+30EC_U+30A4_U+30E4_U+30FC 1
 62
   179
420
  2234388
100
AcDbHatch
 10
0.0
 20
0.0
 30
0.0
210
0.0
220
0.0
230
1.0
  2
SOLID
 70
     1
 71
     0
 91
        1
 92
        1
 93
        1
 72
     4
 94
        3
 73
     0
 74
     1
 95
       53
 96
       49
 40
0.0
 40
0.0
 40
0.0
 40
0.0
 40
1.0
 40
1.0
 40
1.0
 40
2.0
 40
2.0
 40
2.0
 40
3.0
 40
3.0
 40
3.0
 40
4.0
 40
4.0
 40
4.0
 40
5.0
 40
5.0
 40
5.0
 40
6.0
 40
6.0
 40
6.0
 40
7.0
 40
7.0
 40
7.0
 40
8.0
 40
8.0
 40
8.0
 40
9.0
 40
9.0
 40
9.0
 40
10.0
 40
10.0
 40
10.0
 40
11.0
 40
11.0
 40
11.0
 40
12.0
 40
12.0
 40
12.0
 40
13.0
 40
13.0
 40
13.0
 40
14.0
 40
14.0
 40
14.0
 40
15.0
 40
15.0
 40
15.0
 40
16.0
 40
16.0
 40
16.0
 40
16.0
 10
72.68496905734959
 20
-121.1776163434035
 10
72.68496905734959
 20
-121.2558200109187
 10
72.66808808947187
 20
-121.3574503277336
 10
72.60452607776901
 20
-121.4589083897742
 10
72.49462753178955
 20
-121.6325412022308
 10
72.36336939380152
 20
-121.6535562846908
 10
72.2555379051132
 20
-121.6726765646339
 10
72.2555379051132
 20
-121.6726765646339
 10
72.2555379051132
 20
-121.4504679058353
 10
72.2555379051132
 20
-121.4504679058353
 10
72.45431991461211
 20
-121.3955186328456
 10
72.48394773578526
 20
-121.2685668642141
 10
72.48394773578526
 20
-121.1755492861124
 10
72.48394773578526
 20
-121.0358506641855
 10
72.38455673103581
 20
-120.8835774437375
 10
72.15184053100718
 20
-120.8835774437375
 10
71.89586993645312
 20
-120.8835774437375
 10
71.82610675287681
 20
-121.0634114280675
 10
71.82610675287681
 20
-121.1839897700512
 10
71.82610675287681
 20
-121.2156846485155
 10
71.82610675287681
 20
-121.3574503277336
 10
71.95512557879941
 20
-121.446333791253
 10
71.95512557879941
 20
-121.446333791253
 10
71.93600529885627
 20
-121.6218614062265
 10
71.93600529885627
 20
-121.6218614062265
 10
71.93600529885627
 20
-121.6218614062265
 10
71.08988984767892
 20
-121.5012830642427
 10
71.08988984767892
 20
-121.5012830642427
 10
71.08988984767892
 20
-121.5012830642427
 10
71.08988984767892
 20
-120.7228637393505
 10
71.08988984767892
 20
-120.7228637393505
 10
71.08988984767892
 20
-120.7228637393505
 10
71.28453774259553
 20
-120.7228637393505
 10
71.28453774259553
 20
-120.7228637393505
 10
71.28453774259553
 20
-120.7228637393505
 10
71.28453774259553
 20
-121.3383300477904
 10
71.28453774259553
 20
-121.3383300477904
 10
71.28453774259553
 20
-121.3383300477904
 10
71.70759546818421
 20
-121.4039591167844
 10
71.70759546818421
 20
-121.4039591167844
 10
71.67383353242877
 20
-121.342636417147
 10
71.63352591525134
 20
-121.2601263802753
 10
71.63352591525134
 20
-121.1416150955827
 10
71.63352591525134
 20
-120.887883813094
 10
71.8197333262291
 20
-120.6508612437088
 10
72.13289250583831
 20
-120.6508612437088
 10
72.45018580002981
 20
-120.6508612437088
 10
72.68496905734959
 20
-120.8751369597986
 10
72.68496905734959
 20
-121.1776163434035
 97
        0
 97
        0
 75
     2
 76
     1
 98
        0
  0
ENDBLK
  5
4A
330
47
100
AcDbEntity
  8
0
100
AcDbBlockEnd
  0
BLOCK
  5
5B
330
59
100
AcDbEntity
  8
0
100
AcDbBlockBegin
  2
block 3
 70
     0
 10
0.0
 20
0.0
 30
0.0
  3
block 3
  1

  0
SPLINE
  5
5D
330
59
100
AcDbEntity
  8
_U+30EC_U+30A4_U+30E4_U+30FC 1
370
     0
100
AcDbSpline
210
0.0
220
0.0
230
1.0
 70
    11
 71
     3
 72
    26
 73
    22
 74
     0
 42
0.0000000001
 43
0.0000000001
 12
1.0
 22
0.0
 32
0.0
 13
1.0
 23
0.0
 33
0.0
 40
0.0
 40
0.0
 40
0.0
 40
0.0
 40
1.0
 40
1.0
 40
1.0
 40
2.0
 40
2.0
 40
2.0
 40
3.0
 40
3.0
 40
3.0
 40
4.0
 40
4.0
 40
4.0
 40
5.0
 40
5.0
 40
5.0
 40
6.0
 40
6.0
 40
6.0
 40
7.0
 40
7.0
 40
7.0
 40
7.0
 10
72.63415389894216
 20
-146.6091389607436
 30
0.0
 10
72.63415389894216
 20
-146.6091389607436
 30
0.0
 10
71.52982854114532
 20
-146.6091389607436
 30
0.0
 10
71.52982854114532
 20
-146.6091389607436
 30
0.0
 10
71.52982854114532
 20
-146.6091389607436
 30
0.0
 10
71.52982854114532
 20
-146.9391791082305
 30
0.0
 10
71.52982854114532
 20
-146.9391791082305
 30
0.0
 10
71.52982854114532
 20
-146.9391791082305
 30
0.0
 10
71.38186169005384
 20
-146.9391791082305
 30
0.0
 10
71.38186169005384
 20
-146.9391791082305
 30
0.0
 10
71.36704777946727
 20
-146.6070719034524
 30
0.0
 10
71.20409476301495
 20
-146.5605631144015
 30
0.0
 10
71.08988984767892
 20
-146.5309352932284
 30
0.0
 10
71.08988984767892
 20
-146.5309352932284
 30
0.0
 10
71.08988984767892
 20
-146.3848632446538
 30
0.0
 10
71.08988984767892
 20
-146.3848632446538
 30
0.0
 10
71.08988984767892
 20
-146.3848632446538
 30
0.0
 10
72.63415389894216
 20
-146.3848632446538
 30
0.0
 10
72.63415389894216
 20
-146.3848632446538
 30
0.0
 10
72.63415389894216
 20
-146.3848632446538
 30
0.0
 10
72.63415389894216
 20
-146.6091389607436
 30
0.0
 10
72.63415389894216
 20
-146.6091389607436
 30
0.0
  0
HATCH
  5
5E
330
59
100
AcDbEntity
  8
_U+30EC_U+30A4_U+30E4_U+30FC 1
 62
   179
420
  2234388
100
AcDbHatch
 10
0.0
 20
0.0
 30
0.0
210
0.0
220
0.0
230
1.0
  2
SOLID
 70
     1
 71
     0
 91
        1
 92
        1
 93
        1
 72
     4
 94
        3
 73
     0
 74
     1
 95
       26
 96
       22
 40
0.0
 40
0.0
 40
0.0
 40
0.0
 40
1.0
 40
1.0
 40
1.0
 40
2.0
 40
2.0
 40
2.0
 40
3.0
 40
3.0
 40
3.0
 40
4.0
 40
4.0
 40
4.0
 40
5.0
 40
5.0
 40
5.0
 40
6.0
 40
6.0
 40
6.0
 40
7.0
 40
7.0
 40
7.0
 40
7.0
 10
72.63415389894216
 20
-146.6091389607436
 10
72.63415389894216
 20
-146.6091389607436
 10
71.52982854114532
 20
-146.6091389607436
 10
71.52982854114532
 20
-146.6091389607436
 10
71.52982854114532
 20
-146.6091389607436
 10
71.52982854114532
 20
-146.9391791082305
 10
71.52982854114532
 20
-146.9391791082305
 10
71.52982854114532
 20
-146.9391791082305
 10
71.38186169005384
 20
-146.9391791082305
 10
71.38186169005384
 20
-146.9391791082305
 10
71.36704777946727
 20
-146.6070719034524
 10
71.20409476301495
 20
-146.5605631144015
 10
71.08988984767892
 20
-146.5309352932284
 10
71.08988984767892
 20
-146.5309352932284
 10
71.08988984767892
 20
-146.3848632446538
 10
71.08988984767892
 20
-146.3848632446538
 10
71.08988984767892
 20
-146.3848632446538
 10
72.63415389894216
 20
-146.3848632446538
 10
72.63415389894216
 20
-146.3848632446538
 10
72.63415389894216
 20
-146.3848632446538
 10
72.63415389894216
 20
-146.6091389607436
 10
72.63415389894216
 20
-146.6091389607436
 97
        0
 97
        0
 75
     2
 76
     1
 98
        0
  0
SPLINE
  5
5F
330
59
100
AcDbEntity
  8
_U+30EC_U+30A4_U+30E4_U+30FC 1
370
     0
100
AcDbSpline
210
0.0
220
0.0
230
1.0
 70
    11
 71
     3
 72
    62
 73
    58
 74
     0
 42
0.0000000001
 43
0.0000000001
 12
1.0
 22
0.0
 32
0.0
 13
1.0
 23
0.0
 33
0.0
 40
0.0
 40
0.0
 40
0.0
 40
0.0
 40
1.0
 40
1.0
 40
1.0
 40
2.0
 40
2.0
 40
2.0
 40
3.0
 40
3.0
 40
3.0
 40
4.0
 40
4.0
 40
4.0
 40
5.0
 40
5.0
 40
5.0
 40
6.0
 40
6.0
 40
6.0
 40
7.0
 40
7.0
 40
7.0
 40
8.0
 40
8.0
 40
8.0
 40
9.0
 40
9.0
 40
9.0
 40
10.0
 40
10.0
 40
10.0
 40
11.0
 40
11.0
 40
11.0
 40
12.0
 40
12.0
 40
12.0
 40
13.0
 40
13.0
 40
13.0
 40
14.0
 40
14.0
 40
14.0
 40
15.0
 40
15.0
 40
15.0
 40
16.0
 40
16.0
 40
16.0
 40
17.0
 40
17.0
 40
17.0
 40
18.0
 40
18.0
 40
18.0
 40
19.0
 40
19.0
 40
19.0
 40
19.0
 10
72.68496905734959
 20
-145.3919867258048
 30
0.0
 10
72.68496905734959
 20
-145.4870713611977
 30
0.0
 10
72.66378172011531
 20
-145.705145905414
 30
0.0
 10
72.47757430913755
 20
-145.82985836198
 30
0.0
 10
72.36543645109268
 20
-145.9039279149129
 30
0.0
 10
72.26604544634321
 20
-145.9080620294952
 30
0.0
 10
72.18146835218033
 20
-145.912540653626
 30
0.0
 10
72.18146835218033
 20
-145.912540653626
 30
0.0
 10
72.18146835218033
 20
-145.6923990521186
 30
0.0
 10
72.18146835218033
 20
-145.6923990521186
 30
0.0
 10
72.2555379051132
 20
-145.6903319948274
 30
0.0
 10
72.49032116243298
 20
-145.6796521988232
 30
0.0
 10
72.49032116243298
 20
-145.3961208403871
 30
0.0
 10
72.49032116243298
 20
-145.2586615305256
 30
0.0
 10
72.42055797885666
 20
-145.1063883100776
 30
0.0
 10
72.19197589341034
 20
-145.1063883100776
 30
0.0
 10
72.07570392078316
 20
-145.1063883100776
 30
0.0
 10
72.02695581966688
 20
-145.1446288699638
 30
0.0
 10
71.99526094120257
 20
-145.1763237484282
 30
0.0
 10
71.9211913882697
 20
-145.250393301361
 30
0.0
 10
71.90861678974855
 20
-145.3664930192139
 30
0.0
 10
71.90861678974855
 20
-145.4216145469779
 30
0.0
 10
71.90861678974855
 20
-145.4405625721468
 30
0.0
 10
71.91068384703969
 20
-145.4767360747419
 30
0.0
 10
71.91499021639626
 20
-145.5042968386239
 30
0.0
 10
71.91499021639626
 20
-145.5042968386239
 30
0.0
 10
71.72034232147963
 20
-145.5042968386239
 30
0.0
 10
71.72034232147963
 20
-145.5042968386239
 30
0.0
 10
71.72671574812735
 20
-145.4660562787377
 30
0.0
 10
71.7287828054185
 20
-145.4236816042691
 30
0.0
 10
71.7287828054185
 20
-145.4174804323956
 30
0.0
 10
71.7287828054185
 20
-145.3516791086274
 30
0.0
 10
71.70759546818421
 20
-145.1528970991284
 30
0.0
 10
71.47057289879902
 20
-145.1528970991284
 30
0.0
 10
71.2929782265344
 20
-145.1528970991284
 30
0.0
 10
71.23802895354466
 20
-145.2841552371165
 30
0.0
 10
71.23802895354466
 20
-145.3940537830959
 30
0.0
 10
71.23802895354466
 20
-145.6586371163631
 30
0.0
 10
71.47057289879902
 20
-145.6669053455277
 30
0.0
 10
71.54257539444075
 20
-145.6713839696586
 30
0.0
 10
71.54257539444075
 20
-145.6713839696586
 30
0.0
 10
71.54257539444075
 20
-145.8743000937398
 30
0.0
 10
71.54257539444075
 20
-145.8743000937398
 30
0.0
 10
71.41769068310045
 20
-145.8660318645752
 30
0.0
 10
71.04114174656263
 20
-145.8384711006932
 30
0.0
 10
71.04114174656263
 20
-145.3813069298005
 30
0.0
 10
71.04114174656263
 20
-145.1570312137108
 30
0.0
 10
71.16809351519409
 20
-144.9158745297433
 30
0.0
 10
71.46437172692558
 20
-144.9158745297433
 30
0.0
 10
71.65040688312907
 20
-144.9158745297433
 30
0.0
 10
71.7329169200008
 20
-145.0113036746847
 30
0.0
 10
71.79441187441252
 20
-145.1105224246599
 30
0.0
 10
71.82180038352024
 20
-145.0491997250224
 30
0.0
 10
71.90224336310084
 20
-144.8672986834012
 30
0.0
 10
72.17940129488917
 20
-144.8672986834012
 30
0.0
 10
72.51788192631497
 20
-144.8672986834012
 30
0.0
 10
72.68496905734959
 20
-145.1150010487907
 30
0.0
 10
72.68496905734959
 20
-145.3919867258048
 30
0.0
  0
HATCH
  5
60
330
59
100
AcDbEntity
  8
_U+30EC_U+30A4_U+30E4_U+30FC 1
 62
   179
420
  2234388
100
AcDbHatch
 10
0.0
 20
0.0
 30
0.0
210
0.0
220
0.0
230
1.0
  2
SOLID
 70
     1
 71
     0
 91
        1
 92
        1
 93
        1
 72
     4
 94
        3
 73
     0
 74
     1
 95
       62
 96
       58
 40
0.0
 40
0.0
 40
0.0
 40
0.0
 40
1.0
 40
1.0
 40
1.0
 40
2.0
 40
2.0
 40
2.0
 40
3.0
 40
3.0
 40
3.0
 40
4.0
 40
4.0
 40
4.0
 40
5.0
 40
5.0
 40
5.0
 40
6.0
 40
6.0
 40
6.0
 40
7.0
 40
7.0
 40
7.0
 40
8.0
 40
8.0
 40
8.0
 40
9.0
 40
9.0
 40
9.0
 40
10.0
 40
10.0
 40
10.0
 40
11.0
 40
11.0
 40
11.0
 40
12.0
 40
12.0
 40
12.0
 40
13.0
 40
13.0
 40
13.0
 40
14.0
 40
14.0
 40
14.0
 40
15.0
 40
15.0
 40
15.0
 40
16.0
 40
16.0
 40
16.0
 40
17.0
 40
17.0
 40
17.0
 40
18.0
 40
18.0
 40
18.0
 40
19.0
 40
19.0
 40
19.0
 40
19.0
 10
72.68496905734959
 20
-145.3919867258048
 10
72.68496905734959
 20
-145.4870713611977
 10
72.66378172011531
 20
-145.705145905414
 10
72.47757430913755
 20
-145.82985836198
 10
72.36543645109268
 20
-145.9039279149129
 10
72.26604544634321
 20
-145.9080620294952
 10
72.18146835218033
 20
-145.912540653626
 10
72.18146835218033
 20
-145.912540653626
 10
72.18146835218033
 20
-145.6923990521186
 10
72.18146835218033
 20
-145.6923990521186
 10
72.2555379051132
 20
-145.6903319948274
 10
72.49032116243298
 20
-145.6796521988232
 10
72.49032116243298
 20
-145.3961208403871
 10
72.49032116243298
 20
-145.2586615305256
 10
72.42055797885666
 20
-145.1063883100776
 10
72.19197589341034
 20
-145.1063883100776
 10
72.07570392078316
 20
-145.1063883100776
 10
72.02695581966688
 20
-145.1446288699638
 10
71.99526094120257
 20
-145.1763237484282
 10
71.9211913882697
 20
-145.250393301361
 10
71.90861678974855
 20
-145.3664930192139
 10
71.90861678974855
 20
-145.4216145469779
 10
71.90861678974855
 20
-145.4405625721468
 10
71.91068384703969
 20
-145.4767360747419
 10
71.91499021639626
 20
-145.5042968386239
 10
71.91499021639626
 20
-145.5042968386239
 10
71.72034232147963
 20
-145.5042968386239
 10
71.72034232147963
 20
-145.5042968386239
 10
71.72671574812735
 20
-145.4660562787377
 10
71.7287828054185
 20
-145.4236816042691
 10
71.7287828054185
 20
-145.4174804323956
 10
71.7287828054185
 20
-145.3516791086274
 10
71.70759546818421
 20
-145.1528970991284
 10
71.47057289879902
 20
-145.1528970991284
 10
71.2929782265344
 20
-145.1528970991284
 10
71.23802895354466
 20
-145.2841552371165
 10
71.23802895354466
 20
-145.3940537830959
 10
71.23802895354466
 20
-145.6586371163631
 10
71.47057289879902
 20
-145.6669053455277
 10
71.54257539444075
 20
-145.6713839696586
 10
71.54257539444075
 20
-145.6713839696586
 10
71.54257539444075
 20
-145.8743000937398
 10
71.54257539444075
 20
-145.8743000937398
 10
71.41769068310045
 20
-145.8660318645752
 10
71.04114174656263
 20
-145.8384711006932
 10
71.04114174656263
 20
-145.3813069298005
 10
71.04114174656263
 20
-145.1570312137108
 10
71.16809351519409
 20
-144.9158745297433
 10
71.46437172692558
 20
-144.9158745297433
 10
71.65040688312907
 20
-144.9158745297433
 10
71.7329169200008
 20
-145.0113036746847
 10
71.79441187441252
 20
-145.1105224246599
 10
71.82180038352024
 20
-145.0491997250224
 10
71.90224336310084
 20
-144.8672986834012
 10
72.17940129488917
 20
-144.8672986834012
 10
72.51788192631497
 20
-144.8672986834012
 10
72.68496905734959
 20
-145.1150010487907
 10
72.68496905734959
 20
-145.3919867258048
 97
        0
 97
        0
 75
     2
 76
     1
 98
        0
  0
POLYLINE
  5
61
330
59
100
AcDbEntity
  8
_U+30EC_U+30A4_U+30E4_U+30FC 1
370
     0
100
AcDb2dPolyline
 66
     1
 10
0.0
 20
0.0
 30
0.0
  0
VERTEX
  5
62
330
61
100
AcDbEntity
  8
_U+30EC_U+30A4_U+30E4_U+30FC 1
370
     0
100
AcDbVertex
100
AcDb2dVertex
 10
72.63415389894216
 20
-144.6468125723453
 30
0.0
  0
VERTEX
  5
63
330
61
100
AcDbEntity
  8
_U+30EC_U+30A4_U+30E4_U+30FC 1
370
     0
100
AcDbVertex
100
AcDb2dVertex
 10
72.38248967374466
 20
-144.6468125723453
 30
0.0
  0
VERTEX
  5
64
330
61
100
AcDbEntity
  8
_U+30EC_U+30A4_U+30E4_U+30FC 1
370
     0
100
AcDbVertex
100
AcDb2dVertex
 10
72.38248967374466
 20
-144.3949760923735
 30
0.0
  0
VERTEX
  5
65
330
61
100
AcDbEntity
  8
_U+30EC_U+30A4_U+30E4_U+30FC 1
370
     0
100
AcDbVertex
100
AcDb2dVertex
 10
72.63415389894216
 20
-144.3949760923735
 30
0.0
  0
VERTEX
  5
66
330
61
100
AcDbEntity
  8
_U+30EC_U+30A4_U+30E4_U+30FC 1
370
     0
100
AcDbVertex
100
AcDb2dVertex
 10
72.63415389894216
 20
-144.6468125723453
 30
0.0
  0
SEQEND
  5
67
330
61
100
AcDbEntity
  8
_U+30EC_U+30A4_U+30E4_U+30FC 1
370
     0
  0
HATCH
  5
68
330
59
100
AcDbEntity
  8
_U+30EC_U+30A4_U+30E4_U+30FC 1
 62
   179
420
  2234388
100
AcDbHatch
 10
0.0
 20
0.0
 30
0.0
210
0.0
220
0.0
230
1.0
  2
SOLID
 70
     1
 71
     0
 91
        1
 92
        1
 93
        4
 72
     1
 10
72.63415389894216
 20
-144.6468125723453
 11
72.38248967374466
 21
-144.6468125723453
 72
     1
 10
72.38248967374466
 20
-144.6468125723453
 11
72.38248967374466
 21
-144.3949760923735
 72
     1
 10
72.38248967374466
 20
-144.3949760923735
 11
72.63415389894216
 21
-144.3949760923735
 72
     1
 10
72.63415389894216
 20
-144.3949760923735
 11
72.63415389894216
 21
-144.6468125723453
 97
        0
 75
     2
 76
     1
 98
        0
  0
SPLINE
  5
69
330
59
100
AcDbEntity
  8
_U+30EC_U+30A4_U+30E4_U+30FC 1
370
     0
100
AcDbSpline
210
0.0
220
0.0
230
1.0
 70
    11
 71
     3
 72
    53
 73
    49
 74
     0
 42
0.0000000001
 43
0.0000000001
 12
1.0
 22
0.0
 32
0.0
 13
1.0
 23
0.0
 33
0.0
 40
0.0
 40
0.0
 40
0.0
 40
0.0
 40
1.0
 40
1.0
 40
1.0
 40
2.0
 40
2.0
 40
2.0
 40
3.0
 40
3.0
 40
3.0
 40
4.0
 40
4.0
 40
4.0
 40
5.0
 40
5.0
 40
5.0
 40
6.0
 40
6.0
 40
6.0
 40
7.0
 40
7.0
 40
7.0
 40
8.0
 40
8.0
 40
8.0
 40
9.0
 40
9.0
 40
9.0
 40
10.0
 40
10.0
 40
10.0
 40
11.0
 40
11.0
 40
11.0
 40
12.0
 40
12.0
 40
12.0
 40
13.0
 40
13.0
 40
13.0
 40
14.0
 40
14.0
 40
14.0
 40
15.0
 40
15.0
 40
15.0
 40
16.0
 40
16.0
 40
16.0
 40
16.0
 10
72.68496905734959
 20
-143.6777072123445
 30
0.0
 10
72.68496905734959
 20
-143.7559108798596
 30
0.0
 10
72.66808808947187
 20
-143.857196687126
 30
0.0
 10
72.60452607776901
 20
-143.9588270039409
 30
0.0
 10
72.49462753178955
 20
-144.1324598163974
 30
0.0
 10
72.36336939380152
 20
-144.1534748988575
 30
0.0
 10
72.2555379051132
 20
-144.1724229240263
 30
0.0
 10
72.2555379051132
 20
-144.1724229240263
 30
0.0
 10
72.2555379051132
 20
-143.9505587747763
 30
0.0
 10
72.2555379051132
 20
-143.9505587747763
 30
0.0
 10
72.45431991461211
 20
-143.8954372470123
 30
0.0
 10
72.48394773578526
 20
-143.7686577331551
 30
0.0
 10
72.48394773578526
 20
-143.6752956455048
 30
0.0
 10
72.48394773578526
 20
-143.5357692783522
 30
0.0
 10
72.38455673103581
 20
-143.3834960579041
 30
0.0
 10
72.15184053100718
 20
-143.3834960579041
 30
0.0
 10
71.89586993645312
 20
-143.3834960579041
 30
0.0
 10
71.82610675287681
 20
-143.5633300422342
 30
0.0
 10
71.82610675287681
 20
-143.6839083842179
 30
0.0
 10
71.82610675287681
 20
-143.7156032626822
 30
0.0
 10
71.82610675287681
 20
-143.857196687126
 30
0.0
 10
71.95512557879941
 20
-143.9460801506454
 30
0.0
 10
71.95512557879941
 20
-143.9460801506454
 30
0.0
 10
71.93600529885627
 20
-144.1217800203932
 30
0.0
 10
71.93600529885627
 20
-144.1217800203932
 30
0.0
 10
71.93600529885627
 20
-144.1217800203932
 30
0.0
 10
71.08988984767892
 20
-144.0012016784094
 30
0.0
 10
71.08988984767892
 20
-144.0012016784094
 30
0.0
 10
71.08988984767892
 20
-144.0012016784094
 30
0.0
 10
71.08988984767892
 20
-143.222610098743
 30
0.0
 10
71.08988984767892
 20
-143.222610098743
 30
0.0
 10
71.08988984767892
 20
-143.222610098743
 30
0.0
 10
71.28453774259553
 20
-143.222610098743
 30
0.0
 10
71.28453774259553
 20
-143.222610098743
 30
0.0
 10
71.28453774259553
 20
-143.222610098743
 30
0.0
 10
71.28453774259553
 20
-143.8382486619571
 30
0.0
 10
71.28453774259553
 20
-143.8382486619571
 30
0.0
 10
71.28453774259553
 20
-143.8382486619571
 30
0.0
 10
71.70759546818421
 20
-143.9040499857254
 30
0.0
 10
71.70759546818421
 20
-143.9040499857254
 30
0.0
 10
71.67383353242877
 20
-143.8423827765394
 30
0.0
 10
71.63352591525134
 20
-143.7600449944419
 30
0.0
 10
71.63352591525134
 20
-143.6415337097494
 30
0.0
 10
71.63352591525134
 20
-143.3876301724864
 30
0.0
 10
71.8197333262291
 20
-143.1509521126498
 30
0.0
 10
72.13289250583831
 20
-143.1509521126498
 30
0.0
 10
72.45018580002981
 20
-143.1509521126498
 30
0.0
 10
72.68496905734959
 20
-143.374883319191
 30
0.0
 10
72.68496905734959
 20
-143.6777072123445
 30
0.0
  0
HATCH
  5
6A
330
59
100
AcDbEntity
  8
_U+30EC_U+30A4_U+30E4_U+30FC 1
 62
   179
420
  2234388
100
AcDbHatch
 10
0.0
 20
0.0
 30
0.0
210
0.0
220
0.0
230
1.0
  2
SOLID
 70
     1
 71
     0
 91
        1
 92
        1
 93
        1
 72
     4
 94
        3
 73
     0
 74
     1
 95
       53
 96
       49
 40
0.0
 40
0.0
 40
0.0
 40
0.0
 40
1.0
 40
1.0
 40
1.0
 40
2.0
 40
2.0
 40
2.0
 40
3.0
 40
3.0
 40
3.0
 40
4.0
 40
4.0
 40
4.0
 40
5.0
 40
5.0
 40
5.0
 40
6.0
 40
6.0
 40
6.0
 40
7.0
 40
7.0
 40
7.0
 40
8.0
 40
8.0
 40
8.0
 40
9.0
 40
9.0
 40
9.0
 40
10.0
 40
10.0
 40
10.0
 40
11.0
 40
11.0
 40
11.0
 40
12.0
 40
12.0
 40
12.0
 40
13.0
 40
13.0
 40
13.0
 40
14.0
 40
14.0
 40
14.0
 40
15.0
 40
15.0
 40
15.0
 40
16.0
 40
16.0
 40
16.0
 40
16.0
 10
72.68496905734959
 20
-143.6777072123445
 10
72.68496905734959
 20
-143.7559108798596
 10
72.66808808947187
 20
-143.857196687126
 10
72.60452607776901
 20
-143.9588270039409
 10
72.49462753178955
 20
-144.1324598163974
 10
72.36336939380152
 20
-144.1534748988575
 10
72.2555379051132
 20
-144.1724229240263
 10
72.2555379051132
 20
-144.1724229240263
 10
72.2555379051132
 20
-143.9505587747763
 10
72.2555379051132
 20
-143.9505587747763
 10
72.45431991461211
 20
-143.8954372470123
 10
72.48394773578526
 20
-143.7686577331551
 10
72.48394773578526
 20
-143.6752956455048
 10
72.48394773578526
 20
-143.5357692783522
 10
72.38455673103581
 20
-143.3834960579041
 10
72.15184053100718
 20
-143.3834960579041
 10
71.89586993645312
 20
-143.3834960579041
 10
71.82610675287681
 20
-143.5633300422342
 10
71.82610675287681
 20
-143.6839083842179
 10
71.82610675287681
 20
-143.7156032626822
 10
71.82610675287681
 20
-143.857196687126
 10
71.95512557879941
 20
-143.9460801506454
 10
71.95512557879941
 20
-143.9460801506454
 10
71.93600529885627
 20
-144.1217800203932
 10
71.93600529885627
 20
-144.1217800203932
 10
71.93600529885627
 20
-144.1217800203932
 10
71.08988984767892
 20
-144.0012016784094
 10
71.08988984767892
 20
-144.0012016784094
 10
71.08988984767892
 20
-144.0012016784094
 10
71.08988984767892
 20
-143.222610098743
 10
71.08988984767892
 20
-143.222610098743
 10
71.08988984767892
 20
-143.222610098743
 10
71.28453774259553
 20
-143.222610098743
 10
71.28453774259553
 20
-143.222610098743
 10
71.28453774259553
 20
-143.222610098743
 10
71.28453774259553
 20
-143.8382486619571
 10
71.28453774259553
 20
-143.8382486619571
 10
71.28453774259553
 20
-143.8382486619571
 10
71.70759546818421
 20
-143.9040499857254
 10
71.70759546818421
 20
-143.9040499857254
 10
71.67383353242877
 20
-143.8423827765394
 10
71.63352591525134
 20
-143.7600449944419
 10
71.63352591525134
 20
-143.6415337097494
 10
71.63352591525134
 20
-143.3876301724864
 10
71.8197333262291
 20
-143.1509521126498
 10
72.13289250583831
 20
-143.1509521126498
 10
72.45018580002981
 20
-143.1509521126498
 10
72.68496905734959
 20
-143.374883319191
 10
72.68496905734959
 20
-143.6777072123445
 97
        0
 97
        0
 75
     2
 76
     1
 98
        0
  0
ENDBLK
  5
5C
330
59
100
AcDbEntity
  8
0
100
AcDbBlockEnd
  0
BLOCK
  5
F9
330
F7
100
AcDbEntity
  8
0
100
AcDbBlockBegin
  2
block 4
 70
     0
 10
0.0
 20
0.0
 30
0.0
  3
block 4
  1

  0
SPLINE
  5
FB
330
F7
100
AcDbEntity
  8
_U+30EC_U+30A4_U+30E4_U+30FC 1
370
     0
100
AcDbSpline
210
0.0
220
0.0
230
1.0
 70
    11
 71
     3
 72
    26
 73
    22
 74
     0
 42
0.0000000001
 43
0.0000000001
 12
1.0
 22
0.0
 32
0.0
 13
1.0
 23
0.0
 33
0.0
 40
0.0
 40
0.0
 40
0.0
 40
0.0
 40
1.0
 40
1.0
 40
1.0
 40
2.0
 40
2.0
 40
2.0
 40
3.0
 40
3.0
 40
3.0
 40
4.0
 40
4.0
 40
4.0
 40
5.0
 40
5.0
 40
5.0
 40
6.0
 40
6.0
 40
6.0
 40
7.0
 40
7.0
 40
7.0
 40
7.0
 10
100.2891411424624
 20
-102.7649590129372
 30
0.0
 10
100.2891411424624
 20
-102.7649590129372
 30
0.0
 10
100.2891411424624
 20
-101.6606336551404
 30
0.0
 10
100.2891411424624
 20
-101.6606336551404
 30
0.0
 10
100.2891411424624
 20
-101.6606336551404
 30
0.0
 10
99.9591009949755
 20
-101.6606336551404
 30
0.0
 10
99.9591009949755
 20
-101.6606336551404
 30
0.0
 10
99.9591009949755
 20
-101.6606336551404
 30
0.0
 10
99.9591009949755
 20
-101.5126668040489
 30
0.0
 10
99.9591009949755
 20
-101.5126668040489
 30
0.0
 10
100.2912081997536
 20
-101.4978528934624
 30
0.0
 10
100.3377169888045
 20
-101.33489987701
 30
0.0
 10
100.3673448099776
 20
-101.220694961674
 30
0.0
 10
100.3673448099776
 20
-101.220694961674
 30
0.0
 10
100.5134168585522
 20
-101.220694961674
 30
0.0
 10
100.5134168585522
 20
-101.220694961674
 30
0.0
 10
100.5134168585522
 20
-101.220694961674
 30
0.0
 10
100.5134168585522
 20
-102.7649590129372
 30
0.0
 10
100.5134168585522
 20
-102.7649590129372
 30
0.0
 10
100.5134168585522
 20
-102.7649590129372
 30
0.0
 10
100.2891411424624
 20
-102.7649590129372
 30
0.0
 10
100.2891411424624
 20
-102.7649590129372
 30
0.0
  0
HATCH
  5
FC
330
F7
100
AcDbEntity
  8
_U+30EC_U+30A4_U+30E4_U+30FC 1
 62
   179
420
  2234388
100
AcDbHatch
 10
0.0
 20
0.0
 30
0.0
210
0.0
220
0.0
230
1.0
  2
SOLID
 70
     1
 71
     0
 91
        1
 92
        1
 93
        1
 72
     4
 94
        3
 73
     0
 74
     1
 95
       26
 96
       22
 40
0.0
 40
0.0
 40
0.0
 40
0.0
 40
1.0
 40
1.0
 40
1.0
 40
2.0
 40
2.0
 40
2.0
 40
3.0
 40
3.0
 40
3.0
 40
4.0
 40
4.0
 40
4.0
 40
5.0
 40
5.0
 40
5.0
 40
6.0
 40
6.0
 40
6.0
 40
7.0
 40
7.0
 40
7.0
 40
7.0
 10
100.2891411424624
 20
-102.7649590129372
 10
100.2891411424624
 20
-102.7649590129372
 10
100.2891411424624
 20
-101.6606336551404
 10
100.2891411424624
 20
-101.6606336551404
 10
100.2891411424624
 20
-101.6606336551404
 10
99.9591009949755
 20
-101.6606336551404
 10
99.9591009949755
 20
-101.6606336551404
 10
99.9591009949755
 20
-101.6606336551404
 10
99.9591009949755
 20
-101.5126668040489
 10
99.9591009949755
 20
-101.5126668040489
 10
100.2912081997536
 20
-101.4978528934624
 10
100.3377169888045
 20
-101.33489987701
 10
100.3673448099776
 20
-101.220694961674
 10
100.3673448099776
 20
-101.220694961674
 10
100.5134168585522
 20
-101.220694961674
 10
100.5134168585522
 20
-101.220694961674
 10
100.5134168585522
 20
-101.220694961674
 10
100.5134168585522
 20
-102.7649590129372
 10
100.5134168585522
 20
-102.7649590129372
 10
100.5134168585522
 20
-102.7649590129372
 10
100.2891411424624
 20
-102.7649590129372
 10
100.2891411424624
 20
-102.7649590129372
 97
        0
 97
        0
 75
     2
 76
     1
 98
        0
  0
SPLINE
  5
FD
330
F7
100
AcDbEntity
  8
_U+30EC_U+30A4_U+30E4_U+30FC 1
370
     0
100
AcDbSpline
210
0.0
220
0.0
230
1.0
 70
    11
 71
     3
 72
    29
 73
    25
 74
     0
 42
0.0000000001
 43
0.0000000001
 12
1.0
 22
0.0
 32
0.0
 13
1.0
 23
0.0
 33
0.0
 40
0.0
 40
0.0
 40
0.0
 40
0.0
 40
1.0
 40
1.0
 40
1.0
 40
2.0
 40
2.0
 40
2.0
 40
3.0
 40
3.0
 40
3.0
 40
4.0
 40
4.0
 40
4.0
 40
5.0
 40
5.0
 40
5.0
 40
6.0
 40
6.0
 40
6.0
 40
7.0
 40
7.0
 40
7.0
 40
8.0
 40
8.0
 40
8.0
 40
8.0
 10
101.9124701351122
 20
-102.5873643406726
 30
0.0
 10
101.8046386464238
 20
-102.7966538914015
 30
0.0
 10
101.6310058339673
 20
-102.8157741713447
 30
0.0
 10
101.5145616065658
 20
-102.8157741713447
 30
0.0
 10
101.3540201569532
 20
-102.8157741713447
 30
0.0
 10
101.2120822229609
 20
-102.7692653822938
 30
0.0
 10
101.116997587568
 20
-102.5873643406726
 30
0.0
 10
101.013300213462
 20
-102.392716445756
 30
0.0
 10
100.9943521882931
 20
-102.1556938763708
 30
0.0
 10
100.9943521882931
 20
-101.9929131146928
 30
0.0
 10
100.9943521882931
 20
-101.8489081234093
 30
0.0
 10
101.0112331561708
 20
-101.5972438982118
 30
0.0
 10
101.116997587568
 20
-101.3984618887129
 30
0.0
 10
101.2248290762563
 20
-101.1952012550831
 30
0.0
 10
101.3857150354175
 20
-101.1719468605577
 30
0.0
 10
101.5145616065658
 20
-101.1719468605577
 30
0.0
 10
101.6733805084358
 20
-101.1719468605577
 30
0.0
 10
101.8173854997193
 20
-101.2163885923174
 30
0.0
 10
101.9124701351122
 20
-101.3984618887129
 30
0.0
 10
102.0120333946359
 20
-101.5908704715641
 30
0.0
 10
102.0351155343871
 20
-101.8192803022362
 30
0.0
 10
102.0351155343871
 20
-101.9929131146928
 30
0.0
 10
102.0351155343871
 20
-102.1641343603097
 30
0.0
 10
102.014100451927
 20
-102.3947835030471
 30
0.0
 10
101.9124701351122
 20
-102.5873643406726
 30
0.0
  0
SPLINE
  5
FE
330
F7
100
AcDbEntity
  8
_U+30EC_U+30A4_U+30E4_U+30FC 1
370
     0
100
AcDbSpline
210
0.0
220
0.0
230
1.0
 70
    11
 71
     3
 72
    17
 73
    13
 74
     0
 42
0.0000000001
 43
0.0000000001
 12
1.0
 22
0.0
 32
0.0
 13
1.0
 23
0.0
 33
0.0
 40
0.0
 40
0.0
 40
0.0
 40
0.0
 40
1.0
 40
1.0
 40
1.0
 40
2.0
 40
2.0
 40
2.0
 40
3.0
 40
3.0
 40
3.0
 40
4.0
 40
4.0
 40
4.0
 40
4.0
 10
101.5145616065658
 20
-101.3645276981832
 30
0.0
 10
101.2651366934337
 20
-101.3645276981832
 30
0.0
 10
101.2186279043828
 20
-101.6480590566192
 30
0.0
 10
101.2186279043828
 20
-101.9929131146928
 30
0.0
 10
101.2186279043828
 20
-102.3122734661754
 30
0.0
 10
101.2544568974294
 20
-102.6211262764281
 30
0.0
 10
101.5145616065658
 20
-102.6211262764281
 30
0.0
 10
101.7622639719553
 20
-102.6211262764281
 30
0.0
 10
101.8108398182973
 20
-102.3398342300574
 30
0.0
 10
101.8108398182973
 20
-101.9929131146928
 30
0.0
 10
101.8108398182973
 20
-101.6733805084358
 30
0.0
 10
101.7729437679595
 20
-101.3645276981832
 30
0.0
 10
101.5145616065658
 20
-101.3645276981832
 30
0.0
  0
HATCH
  5
FF
330
F7
100
AcDbEntity
  8
_U+30EC_U+30A4_U+30E4_U+30FC 1
 62
   179
420
  2234388
100
AcDbHatch
 10
0.0
 20
0.0
 30
0.0
210
0.0
220
0.0
230
1.0
  2
SOLID
 70
     1
 71
     0
 91
        2
 92
        1
 93
        1
 72
     4
 94
        3
 73
     0
 74
     1
 95
       29
 96
       25
 40
0.0
 40
0.0
 40
0.0
 40
0.0
 40
1.0
 40
1.0
 40
1.0
 40
2.0
 40
2.0
 40
2.0
 40
3.0
 40
3.0
 40
3.0
 40
4.0
 40
4.0
 40
4.0
 40
5.0
 40
5.0
 40
5.0
 40
6.0
 40
6.0
 40
6.0
 40
7.0
 40
7.0
 40
7.0
 40
8.0
 40
8.0
 40
8.0
 40
8.0
 10
101.9124701351122
 20
-102.5873643406726
 10
101.8046386464238
 20
-102.7966538914015
 10
101.6310058339673
 20
-102.8157741713447
 10
101.5145616065658
 20
-102.8157741713447
 10
101.3540201569532
 20
-102.8157741713447
 10
101.2120822229609
 20
-102.7692653822938
 10
101.116997587568
 20
-102.5873643406726
 10
101.013300213462
 20
-102.392716445756
 10
100.9943521882931
 20
-102.1556938763708
 10
100.9943521882931
 20
-101.9929131146928
 10
100.9943521882931
 20
-101.8489081234093
 10
101.0112331561708
 20
-101.5972438982118
 10
101.116997587568
 20
-101.3984618887129
 10
101.2248290762563
 20
-101.1952012550831
 10
101.3857150354175
 20
-101.1719468605577
 10
101.5145616065658
 20
-101.1719468605577
 10
101.6733805084358
 20
-101.1719468605577
 10
101.8173854997193
 20
-101.2163885923174
 10
101.9124701351122
 20
-101.3984618887129
 10
102.0120333946359
 20
-101.5908704715641
 10
102.0351155343871
 20
-101.8192803022362
 10
102.0351155343871
 20
-101.9929131146928
 10
102.0351155343871
 20
-102.1641343603097
 10
102.014100451927
 20
-102.3947835030471
 10
101.9124701351122
 20
-102.5873643406726
 97
        0
 97
        0
 92
        1
 93
        1
 72
     4
 94
        3
 73
     0
 74
     1
 95
       17
 96
       13
 40
0.0
 40
0.0
 40
0.0
 40
0.0
 40
1.0
 40
1.0
 40
1.0
 40
2.0
 40
2.0
 40
2.0
 40
3.0
 40
3.0
 40
3.0
 40
4.0
 40
4.0
 40
4.0
 40
4.0
 10
101.5145616065658
 20
-101.3645276981832
 10
101.2651366934337
 20
-101.3645276981832
 10
101.2186279043828
 20
-101.6480590566192
 10
101.2186279043828
 20
-101.9929131146928
 10
101.2186279043828
 20
-102.3122734661754
 10
101.2544568974294
 20
-102.6211262764281
 10
101.5145616065658
 20
-102.6211262764281
 10
101.7622639719553
 20
-102.6211262764281
 10
101.8108398182973
 20
-102.3398342300574
 10
101.8108398182973
 20
-101.9929131146928
 10
101.8108398182973
 20
-101.6733805084358
 10
101.7729437679595
 20
-101.3645276981832
 10
101.5145616065658
 20
-101.3645276981832
 97
        0
 97
        0
 75
     2
 76
     1
 98
        0
  0
POLYLINE
  5
100
330
F7
100
AcDbEntity
  8
_U+30EC_U+30A4_U+30E4_U+30FC 1
370
     0
100
AcDb2dPolyline
 66
     1
 10
0.0
 20
0.0
 30
0.0
  0
VERTEX
  5
101
330
100
100
AcDbEntity
  8
_U+30EC_U+30A4_U+30E4_U+30FC 1
370
     0
100
AcDbVertex
100
AcDb2dVertex
 10
102.2514675308608
 20
-102.7649590129372
 30
0.0
  0
VERTEX
  5
102
330
100
100
AcDbEntity
  8
_U+30EC_U+30A4_U+30E4_U+30FC 1
370
     0
100
AcDbVertex
100
AcDb2dVertex
 10
102.2514675308608
 20
-102.5132947877397
 30
0.0
  0
VERTEX
  5
103
330
100
100
AcDbEntity
  8
_U+30EC_U+30A4_U+30E4_U+30FC 1
370
     0
100
AcDbVertex
100
AcDb2dVertex
 10
102.5033040108325
 20
-102.5132947877397
 30
0.0
  0
VERTEX
  5
104
330
100
100
AcDbEntity
  8
_U+30EC_U+30A4_U+30E4_U+30FC 1
370
     0
100
AcDbVertex
100
AcDb2dVertex
 10
102.5033040108325
 20
-102.7649590129372
 30
0.0
  0
VERTEX
  5
105
330
100
100
AcDbEntity
  8
_U+30EC_U+30A4_U+30E4_U+30FC 1
370
     0
100
AcDbVertex
100
AcDb2dVertex
 10
102.2514675308608
 20
-102.7649590129372
 30
0.0
  0
SEQEND
  5
106
330
100
100
AcDbEntity
  8
_U+30EC_U+30A4_U+30E4_U+30FC 1
370
     0
  0
HATCH
  5
107
330
F7
100
AcDbEntity
  8
_U+30EC_U+30A4_U+30E4_U+30FC 1
 62
   179
420
  2234388
100
AcDbHatch
 10
0.0
 20
0.0
 30
0.0
210
0.0
220
0.0
230
1.0
  2
SOLID
 70
     1
 71
     0
 91
        1
 92
        1
 93
        4
 72
     1
 10
102.2514675308608
 20
-102.7649590129372
 11
102.2514675308608
 21
-102.5132947877397
 72
     1
 10
102.2514675308608
 20
-102.5132947877397
 11
102.5033040108325
 21
-102.5132947877397
 72
     1
 10
102.5033040108325
 20
-102.5132947877397
 11
102.5033040108325
 21
-102.7649590129372
 72
     1
 10
102.5033040108325
 20
-102.7649590129372
 11
102.2514675308608
 21
-102.7649590129372
 97
        0
 75
     2
 76
     1
 98
        0
  0
SPLINE
  5
108
330
F7
100
AcDbEntity
  8
_U+30EC_U+30A4_U+30E4_U+30FC 1
370
     0
100
AcDbSpline
210
0.0
220
0.0
230
1.0
 70
    11
 71
     3
 72
    53
 73
    49
 74
     0
 42
0.0000000001
 43
0.0000000001
 12
1.0
 22
0.0
 32
0.0
 13
1.0
 23
0.0
 33
0.0
 40
0.0
 40
0.0
 40
0.0
 40
0.0
 40
1.0
 40
1.0
 40
1.0
 40
2.0
 40
2.0
 40
2.0
 40
3.0
 40
3.0
 40
3.0
 40
4.0
 40
4.0
 40
4.0
 40
5.0
 40
5.0
 40
5.0
 40
6.0
 40
6.0
 40
6.0
 40
7.0
 40
7.0
 40
7.0
 40
8.0
 40
8.0
 40
8.0
 40
9.0
 40
9.0
 40
9.0
 40
10.0
 40
10.0
 40
10.0
 40
11.0
 40
11.0
 40
11.0
 40
12.0
 40
12.0
 40
12.0
 40
13.0
 40
13.0
 40
13.0
 40
14.0
 40
14.0
 40
14.0
 40
15.0
 40
15.0
 40
15.0
 40
16.0
 40
16.0
 40
16.0
 40
16.0
 10
103.2205728908615
 20
-102.8157741713447
 30
0.0
 10
103.1423692233463
 20
-102.8157741713447
 30
0.0
 10
103.04108341608
 20
-102.7988932034669
 30
0.0
 10
102.9394530992651
 20
-102.7353311917641
 30
0.0
 10
102.7658202868085
 20
-102.6254326457846
 30
0.0
 10
102.7448052043485
 20
-102.4941745077966
 30
0.0
 10
102.7258571791797
 20
-102.3863430191083
 30
0.0
 10
102.7258571791797
 20
-102.3863430191083
 30
0.0
 10
102.9477213284297
 20
-102.3863430191083
 30
0.0
 10
102.9477213284297
 20
-102.3863430191083
 30
0.0
 10
103.0028428561937
 20
-102.5851250286072
 30
0.0
 10
103.1296223700509
 20
-102.6147528497803
 30
0.0
 10
103.2229844577012
 20
-102.6147528497803
 30
0.0
 10
103.3625108248538
 20
-102.6147528497803
 30
0.0
 10
103.5147840453019
 20
-102.5153618450309
 30
0.0
 10
103.5147840453019
 20
-102.2826456450023
 30
0.0
 10
103.5147840453019
 20
-102.0266750504482
 30
0.0
 10
103.3349500609718
 20
-101.9569118668719
 30
0.0
 10
103.2143717189881
 20
-101.9569118668719
 30
0.0
 10
103.1826768405238
 20
-101.9569118668719
 30
0.0
 10
103.04108341608
 20
-101.9569118668719
 30
0.0
 10
102.9521999525606
 20
-102.0859306927945
 30
0.0
 10
102.9521999525606
 20
-102.0859306927945
 30
0.0
 10
102.7765000828128
 20
-102.0668104128514
 30
0.0
 10
102.7765000828128
 20
-102.0668104128514
 30
0.0
 10
102.7765000828128
 20
-102.0668104128514
 30
0.0
 10
102.8970784247966
 20
-101.220694961674
 30
0.0
 10
102.8970784247966
 20
-101.220694961674
 30
0.0
 10
102.8970784247966
 20
-101.220694961674
 30
0.0
 10
103.675670004463
 20
-101.220694961674
 30
0.0
 10
103.675670004463
 20
-101.220694961674
 30
0.0
 10
103.675670004463
 20
-101.220694961674
 30
0.0
 10
103.675670004463
 20
-101.4153428565906
 30
0.0
 10
103.675670004463
 20
-101.4153428565906
 30
0.0
 10
103.675670004463
 20
-101.4153428565906
 30
0.0
 10
103.0600314412489
 20
-101.4153428565906
 30
0.0
 10
103.0600314412489
 20
-101.4153428565906
 30
0.0
 10
103.0600314412489
 20
-101.4153428565906
 30
0.0
 10
102.9942301174806
 20
-101.8384005821793
 30
0.0
 10
102.9942301174806
 20
-101.8384005821793
 30
0.0
 10
103.0558973266666
 20
-101.8046386464238
 30
0.0
 10
103.1382351087641
 20
-101.7643310292464
 30
0.0
 10
103.2567463934567
 20
-101.7643310292464
 30
0.0
 10
103.5106499307196
 20
-101.7643310292464
 30
0.0
 10
103.7473279905562
 20
-101.9505384402242
 30
0.0
 10
103.7473279905562
 20
-102.2636976198334
 30
0.0
 10
103.7473279905562
 20
-102.5809909140249
 30
0.0
 10
103.523396784015
 20
-102.8157741713447
 30
0.0
 10
103.2205728908615
 20
-102.8157741713447
 30
0.0
  0
HATCH
  5
109
330
F7
100
AcDbEntity
  8
_U+30EC_U+30A4_U+30E4_U+30FC 1
 62
   179
420
  2234388
100
AcDbHatch
 10
0.0
 20
0.0
 30
0.0
210
0.0
220
0.0
230
1.0
  2
SOLID
 70
     1
 71
     0
 91
        1
 92
        1
 93
        1
 72
     4
 94
        3
 73
     0
 74
     1
 95
       53
 96
       49
 40
0.0
 40
0.0
 40
0.0
 40
0.0
 40
1.0
 40
1.0
 40
1.0
 40
2.0
 40
2.0
 40
2.0
 40
3.0
 40
3.0
 40
3.0
 40
4.0
 40
4.0
 40
4.0
 40
5.0
 40
5.0
 40
5.0
 40
6.0
 40
6.0
 40
6.0
 40
7.0
 40
7.0
 40
7.0
 40
8.0
 40
8.0
 40
8.0
 40
9.0
 40
9.0
 40
9.0
 40
10.0
 40
10.0
 40
10.0
 40
11.0
 40
11.0
 40
11.0
 40
12.0
 40
12.0
 40
12.0
 40
13.0
 40
13.0
 40
13.0
 40
14.0
 40
14.0
 40
14.0
 40
15.0
 40
15.0
 40
15.0
 40
16.0
 40
16.0
 40
16.0
 40
16.0
 10
103.2205728908615
 20
-102.8157741713447
 10
103.1423692233463
 20
-102.8157741713447
 10
103.04108341608
 20
-102.7988932034669
 10
102.9394530992651
 20
-102.7353311917641
 10
102.7658202868085
 20
-102.6254326457846
 10
102.7448052043485
 20
-102.4941745077966
 10
102.7258571791797
 20
-102.3863430191083
 10
102.7258571791797
 20
-102.3863430191083
 10
102.9477213284297
 20
-102.3863430191083
 10
102.9477213284297
 20
-102.3863430191083
 10
103.0028428561937
 20
-102.5851250286072
 10
103.1296223700509
 20
-102.6147528497803
 10
103.2229844577012
 20
-102.6147528497803
 10
103.3625108248538
 20
-102.6147528497803
 10
103.5147840453019
 20
-102.5153618450309
 10
103.5147840453019
 20
-102.2826456450023
 10
103.5147840453019
 20
-102.0266750504482
 10
103.3349500609718
 20
-101.9569118668719
 10
103.2143717189881
 20
-101.9569118668719
 10
103.1826768405238
 20
-101.9569118668719
 10
103.04108341608
 20
-101.9569118668719
 10
102.9521999525606
 20
-102.0859306927945
 10
102.9521999525606
 20
-102.0859306927945
 10
102.7765000828128
 20
-102.0668104128514
 10
102.7765000828128
 20
-102.0668104128514
 10
102.7765000828128
 20
-102.0668104128514
 10
102.8970784247966
 20
-101.220694961674
 10
102.8970784247966
 20
-101.220694961674
 10
102.8970784247966
 20
-101.220694961674
 10
103.675670004463
 20
-101.220694961674
 10
103.675670004463
 20
-101.220694961674
 10
103.675670004463
 20
-101.220694961674
 10
103.675670004463
 20
-101.4153428565906
 10
103.675670004463
 20
-101.4153428565906
 10
103.675670004463
 20
-101.4153428565906
 10
103.0600314412489
 20
-101.4153428565906
 10
103.0600314412489
 20
-101.4153428565906
 10
103.0600314412489
 20
-101.4153428565906
 10
102.9942301174806
 20
-101.8384005821793
 10
102.9942301174806
 20
-101.8384005821793
 10
103.0558973266666
 20
-101.8046386464238
 10
103.1382351087641
 20
-101.7643310292464
 10
103.2567463934567
 20
-101.7643310292464
 10
103.5106499307196
 20
-101.7643310292464
 10
103.7473279905562
 20
-101.9505384402242
 10
103.7473279905562
 20
-102.2636976198334
 10
103.7473279905562
 20
-102.5809909140249
 10
103.523396784015
 20
-102.8157741713447
 10
103.2205728908615
 20
-102.8157741713447
 97
        0
 97
        0
 75
     2
 76
     1
 98
        0
  0
ENDBLK
  5
FA
330
F7
100
AcDbEntity
  8
0
100
AcDbBlockEnd
  0
BLOCK
  5
11F
330
11D
100
AcDbEntity
  8
0
100
AcDbBlockBegin
  2
block 5
 70
     0
 10
0.0
 20
0.0
 30
0.0
  3
block 5
  1

  0
SPLINE
  5
121
330
11D
100
AcDbEntity
  8
_U+30EC_U+30A4_U+30E4_U+30FC 1
370
     0
100
AcDbSpline
210
0.0
220
0.0
230
1.0
 70
    11
 71
     3
 72
    44
 73
    40
 74
     0
 42
0.0000000001
 43
0.0000000001
 12
1.0
 22
0.0
 32
0.0
 13
1.0
 23
0.0
 33
0.0
 40
0.0
 40
0.0
 40
0.0
 40
0.0
 40
1.0
 40
1.0
 40
1.0
 40
2.0
 40
2.0
 40
2.0
 40
3.0
 40
3.0
 40
3.0
 40
4.0
 40
4.0
 40
4.0
 40
5.0
 40
5.0
 40
5.0
 40
6.0
 40
6.0
 40
6.0
 40
7.0
 40
7.0
 40
7.0
 40
8.0
 40
8.0
 40
8.0
 40
9.0
 40
9.0
 40
9.0
 40
10.0
 40
10.0
 40
10.0
 40
11.0
 40
11.0
 40
11.0
 40
12.0
 40
12.0
 40
12.0
 40
13.0
 40
13.0
 40
13.0
 40
13.0
 10
110.0849256452218
 20
-151.164933230438
 30
0.0
 10
110.2434000375433
 20
-151.3830077746543
 30
0.0
 10
110.3174695904762
 20
-151.476025352756
 30
0.0
 10
110.4614745817596
 20
-151.524601199098
 30
0.0
 10
110.4614745817596
 20
-151.524601199098
 30
0.0
 10
110.4614745817596
 20
-150.7460096194316
 30
0.0
 10
110.4614745817596
 20
-150.7460096194316
 30
0.0
 10
110.4614745817596
 20
-150.7460096194316
 30
0.0
 10
110.6668022726805
 20
-150.7460096194316
 30
0.0
 10
110.6668022726805
 20
-150.7460096194316
 30
0.0
 10
110.6668022726805
 20
-150.7460096194316
 30
0.0
 10
110.6668022726805
 20
-151.7743706217786
 30
0.0
 10
110.6668022726805
 20
-151.7743706217786
 30
0.0
 10
110.3092013613116
 20
-151.7423312337658
 30
0.0
 10
110.2309976937964
 20
-151.6768744195461
 30
0.0
 10
109.9326524247738
 20
-151.2917127442951
 30
0.0
 10
109.7338704152749
 20
-151.0357421497411
 30
0.0
 10
109.6660020342155
 20
-150.9702853355213
 30
0.0
 10
109.528542724354
 20
-150.9702853355213
 30
0.0
 10
109.4100314396614
 20
-150.9702853355213
 30
0.0
 10
109.2787733016734
 20
-151.042287831163
 30
0.0
 10
109.2787733016734
 20
-151.2390027833708
 30
0.0
 10
109.2787733016734
 20
-151.4991074925072
 30
0.0
 10
109.5095946991851
 20
-151.5077202312203
 30
0.0
 10
109.625694417038
 20
-151.5118543458026
 30
0.0
 10
109.625694417038
 20
-151.5118543458026
 30
0.0
 10
109.625694417038
 20
-151.7361300618924
 30
0.0
 10
109.625694417038
 20
-151.7361300618924
 30
0.0
 10
109.4989149031808
 20
-151.7275173231792
 30
0.0
 10
109.3869492999102
 20
-151.7171820367235
 30
0.0
 10
109.2684380152176
 20
-151.6365668023686
 30
0.0
 10
109.1075520560564
 20
-151.5266682563892
 30
0.0
 10
109.073790120301
 20
-151.3406331001857
 30
0.0
 10
109.073790120301
 20
-151.2241888727842
 30
0.0
 10
109.073790120301
 20
-150.9472031957702
 30
0.0
 10
109.2577582192133
 20
-150.7398084475581
 30
0.0
 10
109.5306097816451
 20
-150.7398084475581
 30
0.0
 10
109.7590196123172
 20
-150.7398084475581
 30
0.0
 10
109.8585828718409
 20
-150.8562526749596
 30
0.0
 10
110.0849256452218
 20
-151.164933230438
 30
0.0
  0
HATCH
  5
122
330
11D
100
AcDbEntity
  8
_U+30EC_U+30A4_U+30E4_U+30FC 1
 62
   179
420
  2234388
100
AcDbHatch
 10
0.0
 20
0.0
 30
0.0
210
0.0
220
0.0
230
1.0
  2
SOLID
 70
     1
 71
     0
 91
        1
 92
        1
 93
        1
 72
     4
 94
        3
 73
     0
 74
     1
 95
       44
 96
       40
 40
0.0
 40
0.0
 40
0.0
 40
0.0
 40
1.0
 40
1.0
 40
1.0
 40
2.0
 40
2.0
 40
2.0
 40
3.0
 40
3.0
 40
3.0
 40
4.0
 40
4.0
 40
4.0
 40
5.0
 40
5.0
 40
5.0
 40
6.0
 40
6.0
 40
6.0
 40
7.0
 40
7.0
 40
7.0
 40
8.0
 40
8.0
 40
8.0
 40
9.0
 40
9.0
 40
9.0
 40
10.0
 40
10.0
 40
10.0
 40
11.0
 40
11.0
 40
11.0
 40
12.0
 40
12.0
 40
12.0
 40
13.0
 40
13.0
 40
13.0
 40
13.0
 10
110.0849256452218
 20
-151.164933230438
 10
110.2434000375433
 20
-151.3830077746543
 10
110.3174695904762
 20
-151.476025352756
 10
110.4614745817596
 20
-151.524601199098
 10
110.4614745817596
 20
-151.524601199098
 10
110.4614745817596
 20
-150.7460096194316
 10
110.4614745817596
 20
-150.7460096194316
 10
110.4614745817596
 20
-150.7460096194316
 10
110.6668022726805
 20
-150.7460096194316
 10
110.6668022726805
 20
-150.7460096194316
 10
110.6668022726805
 20
-150.7460096194316
 10
110.6668022726805
 20
-151.7743706217786
 10
110.6668022726805
 20
-151.7743706217786
 10
110.3092013613116
 20
-151.7423312337658
 10
110.2309976937964
 20
-151.6768744195461
 10
109.9326524247738
 20
-151.2917127442951
 10
109.7338704152749
 20
-151.0357421497411
 10
109.6660020342155
 20
-150.9702853355213
 10
109.528542724354
 20
-150.9702853355213
 10
109.4100314396614
 20
-150.9702853355213
 10
109.2787733016734
 20
-151.042287831163
 10
109.2787733016734
 20
-151.2390027833708
 10
109.2787733016734
 20
-151.4991074925072
 10
109.5095946991851
 20
-151.5077202312203
 10
109.625694417038
 20
-151.5118543458026
 10
109.625694417038
 20
-151.5118543458026
 10
109.625694417038
 20
-151.7361300618924
 10
109.625694417038
 20
-151.7361300618924
 10
109.4989149031808
 20
-151.7275173231792
 10
109.3869492999102
 20
-151.7171820367235
 10
109.2684380152176
 20
-151.6365668023686
 10
109.1075520560564
 20
-151.5266682563892
 10
109.073790120301
 20
-151.3406331001857
 10
109.073790120301
 20
-151.2241888727842
 10
109.073790120301
 20
-150.9472031957702
 10
109.2577582192133
 20
-150.7398084475581
 10
109.5306097816451
 20
-150.7398084475581
 10
109.7590196123172
 20
-150.7398084475581
 10
109.8585828718409
 20
-150.8562526749596
 10
110.0849256452218
 20
-151.164933230438
 97
        0
 97
        0
 75
     2
 76
     1
 98
        0
  0
ENDBLK
  5
120
330
11D
100
AcDbEntity
  8
0
100
AcDbBlockEnd
  0
BLOCK
  5
134
330
132
100
AcDbEntity
  8
0
100
AcDbBlockBegin
  2
block 6
 70
     0
 10
0.0
 20
0.0
 30
0.0
  3
block 6
  1

  0
SPLINE
  5
136
330
132
100
AcDbEntity
  8
_U+30EC_U+30A4_U+30E4_U+30FC 1
370
     0
100
AcDbSpline
210
0.0
220
0.0
230
1.0
 70
    11
 71
     3
 72
    26
 73
    22
 74
     0
 42
0.0000000001
 43
0.0000000001
 12
1.0
 22
0.0
 32
0.0
 13
1.0
 23
0.0
 33
0.0
 40
0.0
 40
0.0
 40
0.0
 40
0.0
 40
1.0
 40
1.0
 40
1.0
 40
2.0
 40
2.0
 40
2.0
 40
3.0
 40
3.0
 40
3.0
 40
4.0
 40
4.0
 40
4.0
 40
5.0
 40
5.0
 40
5.0
 40
6.0
 40
6.0
 40
6.0
 40
7.0
 40
7.0
 40
7.0
 40
7.0
 10
110.6661132535835
 20
-147.9510036522484
 30
0.0
 10
110.6661132535835
 20
-147.9510036522484
 30
0.0
 10
109.5616156410124
 20
-147.9510036522484
 30
0.0
 10
109.5616156410124
 20
-147.9510036522484
 30
0.0
 10
109.5616156410124
 20
-147.9510036522484
 30
0.0
 10
109.5616156410124
 20
-148.2810437997353
 30
0.0
 10
109.5616156410124
 20
-148.2810437997353
 30
0.0
 10
109.5616156410124
 20
-148.2810437997353
 30
0.0
 10
109.4134765351466
 20
-148.2810437997353
 30
0.0
 10
109.4134765351466
 20
-148.2810437997353
 30
0.0
 10
109.3986626245601
 20
-147.9489365949572
 30
0.0
 10
109.2360541176563
 20
-147.9024278059063
 30
0.0
 10
109.121676947546
 20
-147.8727999847332
 30
0.0
 10
109.121676947546
 20
-147.8727999847332
 30
0.0
 10
109.121676947546
 20
-147.7270724457071
 30
0.0
 10
109.121676947546
 20
-147.7270724457071
 30
0.0
 10
109.121676947546
 20
-147.7270724457071
 30
0.0
 10
110.6661132535835
 20
-147.7270724457071
 30
0.0
 10
110.6661132535835
 20
-147.7270724457071
 30
0.0
 10
110.6661132535835
 20
-147.7270724457071
 30
0.0
 10
110.6661132535835
 20
-147.9510036522484
 30
0.0
 10
110.6661132535835
 20
-147.9510036522484
 30
0.0
  0
HATCH
  5
137
330
132
100
AcDbEntity
  8
_U+30EC_U+30A4_U+30E4_U+30FC 1
 62
   179
420
  2234388
100
AcDbHatch
 10
0.0
 20
0.0
 30
0.0
210
0.0
220
0.0
230
1.0
  2
SOLID
 70
     1
 71
     0
 91
        1
 92
        1
 93
        1
 72
     4
 94
        3
 73
     0
 74
     1
 95
       26
 96
       22
 40
0.0
 40
0.0
 40
0.0
 40
0.0
 40
1.0
 40
1.0
 40
1.0
 40
2.0
 40
2.0
 40
2.0
 40
3.0
 40
3.0
 40
3.0
 40
4.0
 40
4.0
 40
4.0
 40
5.0
 40
5.0
 40
5.0
 40
6.0
 40
6.0
 40
6.0
 40
7.0
 40
7.0
 40
7.0
 40
7.0
 10
110.6661132535835
 20
-147.9510036522484
 10
110.6661132535835
 20
-147.9510036522484
 10
109.5616156410124
 20
-147.9510036522484
 10
109.5616156410124
 20
-147.9510036522484
 10
109.5616156410124
 20
-147.9510036522484
 10
109.5616156410124
 20
-148.2810437997353
 10
109.5616156410124
 20
-148.2810437997353
 10
109.5616156410124
 20
-148.2810437997353
 10
109.4134765351466
 20
-148.2810437997353
 10
109.4134765351466
 20
-148.2810437997353
 10
109.3986626245601
 20
-147.9489365949572
 10
109.2360541176563
 20
-147.9024278059063
 10
109.121676947546
 20
-147.8727999847332
 10
109.121676947546
 20
-147.8727999847332
 10
109.121676947546
 20
-147.7270724457071
 10
109.121676947546
 20
-147.7270724457071
 10
109.121676947546
 20
-147.7270724457071
 10
110.6661132535835
 20
-147.7270724457071
 10
110.6661132535835
 20
-147.7270724457071
 10
110.6661132535835
 20
-147.7270724457071
 10
110.6661132535835
 20
-147.9510036522484
 10
110.6661132535835
 20
-147.9510036522484
 97
        0
 97
        0
 75
     2
 76
     1
 98
        0
  0
ENDBLK
  5
135
330
132
100
AcDbEntity
  8
0
100
AcDbBlockEnd
  0
BLOCK
  5
149
330
147
100
AcDbEntity
  8
0
100
AcDbBlockBegin
  2
block 7
 70
     0
 10
0.0
 20
0.0
 30
0.0
  3
block 7
  1

  0
SPLINE
  5
14B
330
147
100
AcDbEntity
  8
_U+30EC_U+30A4_U+30E4_U+30FC 1
370
     0
100
AcDbSpline
210
0.0
220
0.0
230
1.0
 70
    11
 71
     3
 72
    26
 73
    22
 74
     0
 42
0.0000000001
 43
0.0000000001
 12
1.0
 22
0.0
 32
0.0
 13
1.0
 23
0.0
 33
0.0
 40
0.0
 40
0.0
 40
0.0
 40
0.0
 40
1.0
 40
1.0
 40
1.0
 40
2.0
 40
2.0
 40
2.0
 40
3.0
 40
3.0
 40
3.0
 40
4.0
 40
4.0
 40
4.0
 40
5.0
 40
5.0
 40
5.0
 40
6.0
 40
6.0
 40
6.0
 40
7.0
 40
7.0
 40
7.0
 40
7.0
 10
76.66629365487857
 20
-146.7751925631326
 30
0.0
 10
76.66629365487857
 20
-146.7751925631326
 30
0.0
 10
75.56196829708173
 20
-146.7751925631326
 30
0.0
 10
75.56196829708173
 20
-146.7751925631326
 30
0.0
 10
75.56196829708173
 20
-146.7751925631326
 30
0.0
 10
75.56196829708173
 20
-147.1052327106195
 30
0.0
 10
75.56196829708173
 20
-147.1052327106195
 30
0.0
 10
75.56196829708173
 20
-147.1052327106195
 30
0.0
 10
75.41400144599025
 20
-147.1052327106195
 30
0.0
 10
75.41400144599025
 20
-147.1052327106195
 30
0.0
 10
75.39918753540368
 20
-146.7731255058414
 30
0.0
 10
75.23623451895136
 20
-146.7266167167906
 30
0.0
 10
75.12202960361533
 20
-146.6969888956174
 30
0.0
 10
75.12202960361533
 20
-146.6969888956174
 30
0.0
 10
75.12202960361533
 20
-146.5509168470428
 30
0.0
 10
75.12202960361533
 20
-146.5509168470428
 30
0.0
 10
75.12202960361533
 20
-146.5509168470428
 30
0.0
 10
76.66629365487857
 20
-146.5509168470428
 30
0.0
 10
76.66629365487857
 20
-146.5509168470428
 30
0.0
 10
76.66629365487857
 20
-146.5509168470428
 30
0.0
 10
76.66629365487857
 20
-146.7751925631326
 30
0.0
 10
76.66629365487857
 20
-146.7751925631326
 30
0.0
  0
HATCH
  5
14C
330
147
100
AcDbEntity
  8
_U+30EC_U+30A4_U+30E4_U+30FC 1
 62
   179
420
  2234388
100
AcDbHatch
 10
0.0
 20
0.0
 30
0.0
210
0.0
220
0.0
230
1.0
  2
SOLID
 70
     1
 71
     0
 91
        1
 92
        1
 93
        1
 72
     4
 94
        3
 73
     0
 74
     1
 95
       26
 96
       22
 40
0.0
 40
0.0
 40
0.0
 40
0.0
 40
1.0
 40
1.0
 40
1.0
 40
2.0
 40
2.0
 40
2.0
 40
3.0
 40
3.0
 40
3.0
 40
4.0
 40
4.0
 40
4.0
 40
5.0
 40
5.0
 40
5.0
 40
6.0
 40
6.0
 40
6.0
 40
7.0
 40
7.0
 40
7.0
 40
7.0
 10
76.66629365487857
 20
-146.7751925631326
 10
76.66629365487857
 20
-146.7751925631326
 10
75.56196829708173
 20
-146.7751925631326
 10
75.56196829708173
 20
-146.7751925631326
 10
75.56196829708173
 20
-146.7751925631326
 10
75.56196829708173
 20
-147.1052327106195
 10
75.56196829708173
 20
-147.1052327106195
 10
75.56196829708173
 20
-147.1052327106195
 10
75.41400144599025
 20
-147.1052327106195
 10
75.41400144599025
 20
-147.1052327106195
 10
75.39918753540368
 20
-146.7731255058414
 10
75.23623451895136
 20
-146.7266167167906
 10
75.12202960361533
 20
-146.6969888956174
 10
75.12202960361533
 20
-146.6969888956174
 10
75.12202960361533
 20
-146.5509168470428
 10
75.12202960361533
 20
-146.5509168470428
 10
75.12202960361533
 20
-146.5509168470428
 10
76.66629365487857
 20
-146.5509168470428
 10
76.66629365487857
 20
-146.5509168470428
 10
76.66629365487857
 20
-146.5509168470428
 10
76.66629365487857
 20
-146.7751925631326
 10
76.66629365487857
 20
-146.7751925631326
 97
        0
 97
        0
 75
     2
 76
     1
 98
        0
  0
SPLINE
  5
14D
330
147
100
AcDbEntity
  8
_U+30EC_U+30A4_U+30E4_U+30FC 1
370
     0
100
AcDbSpline
210
0.0
220
0.0
230
1.0
 70
    11
 71
     3
 72
    44
 73
    40
 74
     0
 42
0.0000000001
 43
0.0000000001
 12
1.0
 22
0.0
 32
0.0
 13
1.0
 23
0.0
 33
0.0
 40
0.0
 40
0.0
 40
0.0
 40
0.0
 40
1.0
 40
1.0
 40
1.0
 40
2.0
 40
2.0
 40
2.0
 40
3.0
 40
3.0
 40
3.0
 40
4.0
 40
4.0
 40
4.0
 40
5.0
 40
5.0
 40
5.0
 40
6.0
 40
6.0
 40
6.0
 40
7.0
 40
7.0
 40
7.0
 40
8.0
 40
8.0
 40
8.0
 40
9.0
 40
9.0
 40
9.0
 40
10.0
 40
10.0
 40
10.0
 40
11.0
 40
11.0
 40
11.0
 40
12.0
 40
12.0
 40
12.0
 40
13.0
 40
13.0
 40
13.0
 40
13.0
 10
76.08458928219413
 20
-145.4567545209275
 30
0.0
 10
76.2432359292899
 20
-145.6744845555953
 30
0.0
 10
76.31730548222276
 20
-145.767502133697
 30
0.0
 10
76.46113821873195
 20
-145.816077980039
 30
0.0
 10
76.46113821873195
 20
-145.816077980039
 30
0.0
 10
76.46113821873195
 20
-145.0378309099211
 30
0.0
 10
76.46113821873195
 20
-145.0378309099211
 30
0.0
 10
76.46113821873195
 20
-145.0378309099211
 30
0.0
 10
76.66629365487857
 20
-145.0378309099211
 30
0.0
 10
76.66629365487857
 20
-145.0378309099211
 30
0.0
 10
76.66629365487857
 20
-145.0378309099211
 30
0.0
 10
76.66629365487857
 20
-146.0658474027197
 30
0.0
 10
76.66629365487857
 20
-146.0658474027197
 30
0.0
 10
76.3088649982839
 20
-146.0341525242553
 30
0.0
 10
76.23048907599447
 20
-145.9686957100356
 30
0.0
 10
75.93231606174609
 20
-145.5835340347847
 30
0.0
 10
75.73336179747291
 20
-145.3275634402306
 30
0.0
 10
75.66566567118775
 20
-145.2621066260109
 30
0.0
 10
75.52820636132628
 20
-145.2621066260109
 30
0.0
 10
75.4096950766337
 20
-145.2621066260109
 30
0.0
 10
75.27860919341994
 20
-145.3337646121041
 30
0.0
 10
75.27860919341994
 20
-145.5304795643118
 30
0.0
 10
75.27860919341994
 20
-145.7909287829967
 30
0.0
 10
75.50908608138315
 20
-145.7991970121613
 30
0.0
 10
75.62553030878459
 20
-145.8036756362922
 30
0.0
 10
75.62553030878459
 20
-145.8036756362922
 30
0.0
 10
75.62553030878459
 20
-146.0276068428334
 30
0.0
 10
75.62553030878459
 20
-146.0276068428334
 30
0.0
 10
75.49857854015313
 20
-146.0193386136688
 30
0.0
 10
75.38644068210826
 20
-146.0086588176645
 30
0.0
 10
75.26792939741566
 20
-145.9283880928582
 30
0.0
 10
75.10721569302875
 20
-145.8184895468787
 30
0.0
 10
75.07328150249904
 20
-145.6321098811267
 30
0.0
 10
75.07328150249904
 20
-145.5156656537253
 30
0.0
 10
75.07328150249904
 20
-145.2386799767112
 30
0.0
 10
75.25742185618564
 20
-145.0312852284991
 30
0.0
 10
75.53027341861744
 20
-145.0312852284991
 30
0.0
 10
75.75885550406376
 20
-145.0312852284991
 30
0.0
 10
75.85824650881322
 20
-145.1477294559006
 30
0.0
 10
76.08458928219413
 20
-145.4567545209275
 30
0.0
  0
HATCH
  5
14E
330
147
100
AcDbEntity
  8
_U+30EC_U+30A4_U+30E4_U+30FC 1
 62
   179
420
  2234388
100
AcDbHatch
 10
0.0
 20
0.0
 30
0.0
210
0.0
220
0.0
230
1.0
  2
SOLID
 70
     1
 71
     0
 91
        1
 92
        1
 93
        1
 72
     4
 94
        3
 73
     0
 74
     1
 95
       44
 96
       40
 40
0.0
 40
0.0
 40
0.0
 40
0.0
 40
1.0
 40
1.0
 40
1.0
 40
2.0
 40
2.0
 40
2.0
 40
3.0
 40
3.0
 40
3.0
 40
4.0
 40
4.0
 40
4.0
 40
5.0
 40
5.0
 40
5.0
 40
6.0
 40
6.0
 40
6.0
 40
7.0
 40
7.0
 40
7.0
 40
8.0
 40
8.0
 40
8.0
 40
9.0
 40
9.0
 40
9.0
 40
10.0
 40
10.0
 40
10.0
 40
11.0
 40
11.0
 40
11.0
 40
12.0
 40
12.0
 40
12.0
 40
13.0
 40
13.0
 40
13.0
 40
13.0
 10
76.08458928219413
 20
-145.4567545209275
 10
76.2432359292899
 20
-145.6744845555953
 10
76.31730548222276
 20
-145.767502133697
 10
76.46113821873195
 20
-145.816077980039
 10
76.46113821873195
 20
-145.816077980039
 10
76.46113821873195
 20
-145.0378309099211
 10
76.46113821873195
 20
-145.0378309099211
 10
76.46113821873195
 20
-145.0378309099211
 10
76.66629365487857
 20
-145.0378309099211
 10
76.66629365487857
 20
-145.0378309099211
 10
76.66629365487857
 20
-145.0378309099211
 10
76.66629365487857
 20
-146.0658474027197
 10
76.66629365487857
 20
-146.0658474027197
 10
76.3088649982839
 20
-146.0341525242553
 10
76.23048907599447
 20
-145.9686957100356
 10
75.93231606174609
 20
-145.5835340347847
 10
75.73336179747291
 20
-145.3275634402306
 10
75.66566567118775
 20
-145.2621066260109
 10
75.52820636132628
 20
-145.2621066260109
 10
75.4096950766337
 20
-145.2621066260109
 10
75.27860919341994
 20
-145.3337646121041
 10
75.27860919341994
 20
-145.5304795643118
 10
75.27860919341994
 20
-145.7909287829967
 10
75.50908608138315
 20
-145.7991970121613
 10
75.62553030878459
 20
-145.8036756362922
 10
75.62553030878459
 20
-145.8036756362922
 10
75.62553030878459
 20
-146.0276068428334
 10
75.62553030878459
 20
-146.0276068428334
 10
75.49857854015313
 20
-146.0193386136688
 10
75.38644068210826
 20
-146.0086588176645
 10
75.26792939741566
 20
-145.9283880928582
 10
75.10721569302875
 20
-145.8184895468787
 10
75.07328150249904
 20
-145.6321098811267
 10
75.07328150249904
 20
-145.5156656537253
 10
75.07328150249904
 20
-145.2386799767112
 10
75.25742185618564
 20
-145.0312852284991
 10
75.53027341861744
 20
-145.0312852284991
 10
75.75885550406376
 20
-145.0312852284991
 10
75.85824650881322
 20
-145.1477294559006
 10
76.08458928219413
 20
-145.4567545209275
 97
        0
 97
        0
 75
     2
 76
     1
 98
        0
  0
ENDBLK
  5
14A
330
147
100
AcDbEntity
  8
0
100
AcDbBlockEnd
  0
BLOCK
  5
16F
330
16D
100
AcDbEntity
  8
0
100
AcDbBlockBegin
  2
block 8
 70
     0
 10
0.0
 20
0.0
 30
0.0
  3
block 8
  1

  0
SPLINE
  5
171
330
16D
100
AcDbEntity
  8
_U+30EC_U+30A4_U+30E4_U+30FC 1
370
     0
100
AcDbSpline
210
0.0
220
0.0
230
1.0
 70
    11
 71
     3
 72
    44
 73
    40
 74
     0
 42
0.0000000001
 43
0.0000000001
 12
1.0
 22
0.0
 32
0.0
 13
1.0
 23
0.0
 33
0.0
 40
0.0
 40
0.0
 40
0.0
 40
0.0
 40
1.0
 40
1.0
 40
1.0
 40
2.0
 40
2.0
 40
2.0
 40
3.0
 40
3.0
 40
3.0
 40
4.0
 40
4.0
 40
4.0
 40
5.0
 40
5.0
 40
5.0
 40
6.0
 40
6.0
 40
6.0
 40
7.0
 40
7.0
 40
7.0
 40
8.0
 40
8.0
 40
8.0
 40
9.0
 40
9.0
 40
9.0
 40
10.0
 40
10.0
 40
10.0
 40
11.0
 40
11.0
 40
11.0
 40
12.0
 40
12.0
 40
12.0
 40
13.0
 40
13.0
 40
13.0
 40
13.0
 10
94.04352753725301
 20
-155.1832926044333
 30
0.0
 10
93.82579750258522
 20
-155.3417669967548
 30
0.0
 10
93.73277992448348
 20
-155.4158365496877
 30
0.0
 10
93.68385956859292
 20
-155.5598415409711
 30
0.0
 10
93.68385956859292
 20
-155.5598415409711
 30
0.0
 10
94.46245114825939
 20
-155.5598415409711
 30
0.0
 10
94.46245114825939
 20
-155.5598415409711
 30
0.0
 10
94.46245114825939
 20
-155.5598415409711
 30
0.0
 10
94.46245114825939
 20
-155.7651692318921
 30
0.0
 10
94.46245114825939
 20
-155.7651692318921
 30
0.0
 10
94.46245114825939
 20
-155.7651692318921
 30
0.0
 10
93.43443465546083
 20
-155.7651692318921
 30
0.0
 10
93.43443465546083
 20
-155.7651692318921
 30
0.0
 10
93.46612953392514
 20
-155.4075683205231
 30
0.0
 10
93.53158634814488
 20
-155.329364653008
 30
0.0
 10
93.91674802339581
 20
-155.0310193839853
 30
0.0
 10
94.17271861794988
 20
-154.8322373744864
 30
0.0
 10
94.23817543216963
 20
-154.764368993427
 30
0.0
 10
94.23817543216963
 20
-154.6269096835655
 30
0.0
 10
94.23817543216963
 20
-154.5083983988729
 30
0.0
 10
94.1661729365279
 20
-154.3771402608849
 30
0.0
 10
93.96945798432014
 20
-154.3771402608849
 30
0.0
 10
93.70935327518377
 20
-154.3771402608849
 30
0.0
 10
93.70074053647065
 20
-154.6079616583966
 30
0.0
 10
93.69660642188835
 20
-154.7240613762496
 30
0.0
 10
93.69660642188835
 20
-154.7240613762496
 30
0.0
 10
93.47233070579858
 20
-154.7240613762496
 30
0.0
 10
93.47233070579858
 20
-154.7240613762496
 30
0.0
 10
93.48094344451171
 20
-154.5972818623924
 30
0.0
 10
93.49162324051599
 20
-154.4853162591217
 30
0.0
 10
93.5718939653223
 20
-154.3668049744291
 30
0.0
 10
93.68179251130178
 20
-154.205919015268
 30
0.0
 10
93.8681721770538
 20
-154.1721570795125
 30
0.0
 10
93.98427189490671
 20
-154.1721570795125
 30
0.0
 10
94.26160208146932
 20
-154.1721570795125
 30
0.0
 10
94.46865232013285
 20
-154.3561251784249
 30
0.0
 10
94.46865232013285
 20
-154.6289767408566
 30
0.0
 10
94.46865232013285
 20
-154.8573865715287
 30
0.0
 10
94.35255260227993
 20
-154.9569498310524
 30
0.0
 10
94.04352753725301
 20
-155.1832926044333
 30
0.0
  0
HATCH
  5
172
330
16D
100
AcDbEntity
  8
_U+30EC_U+30A4_U+30E4_U+30FC 1
 62
   179
420
  2234388
100
AcDbHatch
 10
0.0
 20
0.0
 30
0.0
210
0.0
220
0.0
230
1.0
  2
SOLID
 70
     1
 71
     0
 91
        1
 92
        1
 93
        1
 72
     4
 94
        3
 73
     0
 74
     1
 95
       44
 96
       40
 40
0.0
 40
0.0
 40
0.0
 40
0.0
 40
1.0
 40
1.0
 40
1.0
 40
2.0
 40
2.0
 40
2.0
 40
3.0
 40
3.0
 40
3.0
 40
4.0
 40
4.0
 40
4.0
 40
5.0
 40
5.0
 40
5.0
 40
6.0
 40
6.0
 40
6.0
 40
7.0
 40
7.0
 40
7.0
 40
8.0
 40
8.0
 40
8.0
 40
9.0
 40
9.0
 40
9.0
 40
10.0
 40
10.0
 40
10.0
 40
11.0
 40
11.0
 40
11.0
 40
12.0
 40
12.0
 40
12.0
 40
13.0
 40
13.0
 40
13.0
 40
13.0
 10
94.04352753725301
 20
-155.1832926044333
 10
93.82579750258522
 20
-155.3417669967548
 10
93.73277992448348
 20
-155.4158365496877
 10
93.68385956859292
 20
-155.5598415409711
 10
93.68385956859292
 20
-155.5598415409711
 10
94.46245114825939
 20
-155.5598415409711
 10
94.46245114825939
 20
-155.5598415409711
 10
94.46245114825939
 20
-155.5598415409711
 10
94.46245114825939
 20
-155.7651692318921
 10
94.46245114825939
 20
-155.7651692318921
 10
94.46245114825939
 20
-155.7651692318921
 10
93.43443465546083
 20
-155.7651692318921
 10
93.43443465546083
 20
-155.7651692318921
 10
93.46612953392514
 20
-155.4075683205231
 10
93.53158634814488
 20
-155.329364653008
 10
93.91674802339581
 20
-155.0310193839853
 10
94.17271861794988
 20
-154.8322373744864
 10
94.23817543216963
 20
-154.764368993427
 10
94.23817543216963
 20
-154.6269096835655
 10
94.23817543216963
 20
-154.5083983988729
 10
94.1661729365279
 20
-154.3771402608849
 10
93.96945798432014
 20
-154.3771402608849
 10
93.70935327518377
 20
-154.3771402608849
 10
93.70074053647065
 20
-154.6079616583966
 10
93.69660642188835
 20
-154.7240613762496
 10
93.69660642188835
 20
-154.7240613762496
 10
93.47233070579858
 20
-154.7240613762496
 10
93.47233070579858
 20
-154.7240613762496
 10
93.48094344451171
 20
-154.5972818623924
 10
93.49162324051599
 20
-154.4853162591217
 10
93.5718939653223
 20
-154.3668049744291
 10
93.68179251130178
 20
-154.205919015268
 10
93.8681721770538
 20
-154.1721570795125
 10
93.98427189490671
 20
-154.1721570795125
 10
94.26160208146932
 20
-154.1721570795125
 10
94.46865232013285
 20
-154.3561251784249
 10
94.46865232013285
 20
-154.6289767408566
 10
94.46865232013285
 20
-154.8573865715287
 10
94.35255260227993
 20
-154.9569498310524
 10
94.04352753725301
 20
-155.1832926044333
 97
        0
 97
        0
 75
     2
 76
     1
 98
        0
  0
SPLINE
  5
173
330
16D
100
AcDbEntity
  8
_U+30EC_U+30A4_U+30E4_U+30FC 1
370
     0
100
AcDbSpline
210
0.0
220
0.0
230
1.0
 70
    11
 71
     3
 72
    53
 73
    49
 74
     0
 42
0.0000000001
 43
0.0000000001
 12
1.0
 22
0.0
 32
0.0
 13
1.0
 23
0.0
 33
0.0
 40
0.0
 40
0.0
 40
0.0
 40
0.0
 40
1.0
 40
1.0
 40
1.0
 40
2.0
 40
2.0
 40
2.0
 40
3.0
 40
3.0
 40
3.0
 40
4.0
 40
4.0
 40
4.0
 40
5.0
 40
5.0
 40
5.0
 40
6.0
 40
6.0
 40
6.0
 40
7.0
 40
7.0
 40
7.0
 40
8.0
 40
8.0
 40
8.0
 40
9.0
 40
9.0
 40
9.0
 40
10.0
 40
10.0
 40
10.0
 40
11.0
 40
11.0
 40
11.0
 40
12.0
 40
12.0
 40
12.0
 40
13.0
 40
13.0
 40
13.0
 40
14.0
 40
14.0
 40
14.0
 40
15.0
 40
15.0
 40
15.0
 40
16.0
 40
16.0
 40
16.0
 40
16.0
 10
95.10840655174374
 20
-155.8158121355252
 30
0.0
 10
95.03020288422856
 20
-155.8158121355252
 30
0.0
 10
94.9285725674137
 20
-155.7989311676475
 30
0.0
 10
94.82694225059882
 20
-155.7355414107189
 30
0.0
 10
94.65365394769076
 20
-155.6252983551909
 30
0.0
 10
94.6322943556822
 20
-155.4943847267514
 30
0.0
 10
94.61334633051334
 20
-155.3862087285146
 30
0.0
 10
94.61334633051334
 20
-155.3862087285146
 30
0.0
 10
94.83555498931194
 20
-155.3862087285146
 30
0.0
 10
94.83555498931194
 20
-155.3862087285146
 30
0.0
 10
94.89033200752742
 20
-155.585335247562
 30
0.0
 10
95.01745603093315
 20
-155.6149630687352
 30
0.0
 10
95.11047360903488
 20
-155.6149630687352
 30
0.0
 10
95.24999997618751
 20
-155.6149630687352
 30
0.0
 10
95.40227319663555
 20
-155.5153998092114
 30
0.0
 10
95.40227319663555
 20
-155.2828558639571
 30
0.0
 10
95.40227319663555
 20
-155.026885269403
 30
0.0
 10
95.2224392123055
 20
-154.9569498310524
 30
0.0
 10
95.10186087032176
 20
-154.9569498310524
 30
0.0
 10
95.07016599185746
 20
-154.9569498310524
 30
0.0
 10
94.9285725674137
 20
-154.9569498310524
 30
0.0
 10
94.83968910389424
 20
-155.0857964022008
 30
0.0
 10
94.83968910389424
 20
-155.0857964022008
 30
0.0
 10
94.66398923414651
 20
-155.0668483770319
 30
0.0
 10
94.66398923414651
 20
-155.0668483770319
 30
0.0
 10
94.66398923414651
 20
-155.0668483770319
 30
0.0
 10
94.78456757613026
 20
-154.2207329258545
 30
0.0
 10
94.78456757613026
 20
-154.2207329258545
 30
0.0
 10
94.78456757613026
 20
-154.2207329258545
 30
0.0
 10
95.56315915579671
 20
-154.2207329258545
 30
0.0
 10
95.56315915579671
 20
-154.2207329258545
 30
0.0
 10
95.56315915579671
 20
-154.2207329258545
 30
0.0
 10
95.56315915579671
 20
-154.4153808207712
 30
0.0
 10
95.56315915579671
 20
-154.4153808207712
 30
0.0
 10
95.56315915579671
 20
-154.4153808207712
 30
0.0
 10
94.94752059258256
 20
-154.4153808207712
 30
0.0
 10
94.94752059258256
 20
-154.4153808207712
 30
0.0
 10
94.94752059258256
 20
-154.4153808207712
 30
0.0
 10
94.88206377836282
 20
-154.8384385463598
 30
0.0
 10
94.88206377836282
 20
-154.8384385463598
 30
0.0
 10
94.94338647800026
 20
-154.8046766106044
 30
0.0
 10
95.02572426009775
 20
-154.764368993427
 30
0.0
 10
95.14423554479033
 20
-154.764368993427
 30
0.0
 10
95.39813908205325
 20
-154.764368993427
 30
0.0
 10
95.63516165143844
 20
-154.9504041496305
 30
0.0
 10
95.63516165143844
 20
-155.2635633292397
 30
0.0
 10
95.63516165143844
 20
-155.5808566234312
 30
0.0
 10
95.41088593534867
 20
-155.8158121355252
 30
0.0
 10
95.10840655174374
 20
-155.8158121355252
 30
0.0
  0
HATCH
  5
174
330
16D
100
AcDbEntity
  8
_U+30EC_U+30A4_U+30E4_U+30FC 1
 62
   179
420
  2234388
100
AcDbHatch
 10
0.0
 20
0.0
 30
0.0
210
0.0
220
0.0
230
1.0
  2
SOLID
 70
     1
 71
     0
 91
        1
 92
        1
 93
        1
 72
     4
 94
        3
 73
     0
 74
     1
 95
       53
 96
       49
 40
0.0
 40
0.0
 40
0.0
 40
0.0
 40
1.0
 40
1.0
 40
1.0
 40
2.0
 40
2.0
 40
2.0
 40
3.0
 40
3.0
 40
3.0
 40
4.0
 40
4.0
 40
4.0
 40
5.0
 40
5.0
 40
5.0
 40
6.0
 40
6.0
 40
6.0
 40
7.0
 40
7.0
 40
7.0
 40
8.0
 40
8.0
 40
8.0
 40
9.0
 40
9.0
 40
9.0
 40
10.0
 40
10.0
 40
10.0
 40
11.0
 40
11.0
 40
11.0
 40
12.0
 40
12.0
 40
12.0
 40
13.0
 40
13.0
 40
13.0
 40
14.0
 40
14.0
 40
14.0
 40
15.0
 40
15.0
 40
15.0
 40
16.0
 40
16.0
 40
16.0
 40
16.0
 10
95.10840655174374
 20
-155.8158121355252
 10
95.03020288422856
 20
-155.8158121355252
 10
94.9285725674137
 20
-155.7989311676475
 10
94.82694225059882
 20
-155.7355414107189
 10
94.65365394769076
 20
-155.6252983551909
 10
94.6322943556822
 20
-155.4943847267514
 10
94.61334633051334
 20
-155.3862087285146
 10
94.61334633051334
 20
-155.3862087285146
 10
94.83555498931194
 20
-155.3862087285146
 10
94.83555498931194
 20
-155.3862087285146
 10
94.89033200752742
 20
-155.585335247562
 10
95.01745603093315
 20
-155.6149630687352
 10
95.11047360903488
 20
-155.6149630687352
 10
95.24999997618751
 20
-155.6149630687352
 10
95.40227319663555
 20
-155.5153998092114
 10
95.40227319663555
 20
-155.2828558639571
 10
95.40227319663555
 20
-155.026885269403
 10
95.2224392123055
 20
-154.9569498310524
 10
95.10186087032176
 20
-154.9569498310524
 10
95.07016599185746
 20
-154.9569498310524
 10
94.9285725674137
 20
-154.9569498310524
 10
94.83968910389424
 20
-155.0857964022008
 10
94.83968910389424
 20
-155.0857964022008
 10
94.66398923414651
 20
-155.0668483770319
 10
94.66398923414651
 20
-155.0668483770319
 10
94.66398923414651
 20
-155.0668483770319
 10
94.78456757613026
 20
-154.2207329258545
 10
94.78456757613026
 20
-154.2207329258545
 10
94.78456757613026
 20
-154.2207329258545
 10
95.56315915579671
 20
-154.2207329258545
 10
95.56315915579671
 20
-154.2207329258545
 10
95.56315915579671
 20
-154.2207329258545
 10
95.56315915579671
 20
-154.4153808207712
 10
95.56315915579671
 20
-154.4153808207712
 10
95.56315915579671
 20
-154.4153808207712
 10
94.94752059258256
 20
-154.4153808207712
 10
94.94752059258256
 20
-154.4153808207712
 10
94.94752059258256
 20
-154.4153808207712
 10
94.88206377836282
 20
-154.8384385463598
 10
94.88206377836282
 20
-154.8384385463598
 10
94.94338647800026
 20
-154.8046766106044
 10
95.02572426009775
 20
-154.764368993427
 10
95.14423554479033
 20
-154.764368993427
 10
95.39813908205325
 20
-154.764368993427
 10
95.63516165143844
 20
-154.9504041496305
 10
95.63516165143844
 20
-155.2635633292397
 10
95.63516165143844
 20
-155.5808566234312
 10
95.41088593534867
 20
-155.8158121355252
 10
95.10840655174374
 20
-155.8158121355252
 97
        0
 97
        0
 75
     2
 76
     1
 98
        0
  0
ENDBLK
  5
170
330
16D
100
AcDbEntity
  8
0
100
AcDbBlockEnd
  0
ENDSEC
  0
SECTION
  2
ENTITIES
  0
SPLINE
  5
41
330
1F
100
AcDbEntity
  8
_U+30EC_U+30A4_U+30E4_U+30FC 1
 62
   179
420
  2234388
370
     9
100
AcDbSpline
210
0.0
220
0.0
230
1.0
 70
    11
 71
     3
 72
    17
 73
    13
 74
     0
 42
0.0000000001
 43
0.0000000001
 12
1.0
 22
0.0
 32
0.0
 13
1.0
 23
0.0
 33
0.0
 40
0.0
 40
0.0
 40
0.0
 40
0.0
 40
1.0
 40
1.0
 40
1.0
 40
2.0
 40
2.0
 40
2.0
 40
3.0
 40
3.0
 40
3.0
 40
4.0
 40
4.0
 40
4.0
 40
4.0
 10
73.10250341277754
 20
-138.0804677432577
 30
0.0
 10
73.10250341277754
 20
-138.0246582988272
 30
0.0
 10
73.05773591391966
 20
-137.9798555210605
 30
0.0
 10
73.00259674865971
 20
-137.9798555210605
 30
0.0
 10
72.94749286117663
 20
-137.9798555210605
 30
0.0
 10
72.90269008454187
 20
-138.0246582988272
 30
0.0
 10
72.90269008454187
 20
-138.0804677432577
 30
0.0
 10
72.90269008454187
 20
-138.1355716321326
 30
0.0
 10
72.94749286117663
 20
-138.1803744098993
 30
0.0
 10
73.00259674865971
 20
-138.1803744098993
 30
0.0
 10
73.05773591391966
 20
-138.1803744098993
 30
0.0
 10
73.10250341277754
 20
-138.1355716321326
 30
0.0
 10
73.10250341277754
 20
-138.0804677432577
 30
0.0
  0
POLYLINE
  5
42
330
1F
100
AcDbEntity
  8
_U+30EC_U+30A4_U+30E4_U+30FC 1
 62
   179
420
  2234388
370
     9
100
AcDb2dPolyline
 66
     1
 10
0.0
 20
0.0
 30
0.0
  0
VERTEX
  5
43
330
42
100
AcDbEntity
  8
_U+30EC_U+30A4_U+30E4_U+30FC 1
 62
   179
420
  2234388
370
     9
100
AcDbVertex
100
AcDb2dVertex
 10
74.46263810029984
 20
-138.0804677432577
 30
0.0
  0
VERTEX
  5
44
330
42
100
AcDbEntity
  8
_U+30EC_U+30A4_U+30E4_U+30FC 1
 62
   179
420
  2234388
370
     9
100
AcDbVertex
100
AcDb2dVertex
 10
72.0025070519519
 20
-138.0804677432577
 30
0.0
  0
SEQEND
  5
45
330
42
100
AcDbEntity
  8
_U+30EC_U+30A4_U+30E4_U+30FC 1
 62
   179
420
  2234388
370
     9
  0
SPLINE
  5
46
330
1F
100
AcDbEntity
  8
_U+30EC_U+30A4_U+30E4_U+30FC 1
 62
   179
420
  2234388
370
     9
100
AcDbSpline
210
0.0
220
0.0
230
1.0
 70
    11
 71
     3
 72
    17
 73
    13
 74
     0
 42
0.0000000001
 43
0.0000000001
 12
1.0
 22
0.0
 32
0.0
 13
1.0
 23
0.0
 33
0.0
 40
0.0
 40
0.0
 40
0.0
 40
0.0
 40
1.0
 40
1.0
 40
1.0
 40
2.0
 40
2.0
 40
2.0
 40
3.0
 40
3.0
 40
3.0
 40
4.0
 40
4.0
 40
4.0
 40
4.0
 10
73.03773341442997
 20
-138.0804677432577
 30
0.0
 10
73.03773341442997
 20
-138.0997646876975
 30
0.0
 10
73.02189369261184
 20
-138.1156044099154
 30
0.0
 10
73.00259674865971
 20
-138.1156044099154
 30
0.0
 10
72.98298230471566
 20
-138.1156044099154
 30
0.0
 10
72.96746008288945
 20
-138.0997646876975
 30
0.0
 10
72.96746008288945
 20
-138.0804677432577
 30
0.0
 10
72.96746008288945
 20
-138.060465243263
 30
0.0
 10
72.98298230471566
 20
-138.0446255210445
 30
0.0
 10
73.00259674865971
 20
-138.0446255210445
 30
0.0
 10
73.02189369261184
 20
-138.0446255210445
 30
0.0
 10
73.03773341442997
 20
-138.060465243263
 30
0.0
 10
73.03773341442997
 20
-138.0804677432577
 30
0.0
  0
INSERT
  5
48
330
1F
100
AcDbEntity
  8
_U+30EC_U+30A4_U+30E4_U+30FC 1
100
AcDbBlockReference
  2
block 2
 10
0.0
 20
0.0
 30
0.0
  0
INSERT
  5
5A
330
1F
100
AcDbEntity
  8
_U+30EC_U+30A4_U+30E4_U+30FC 1
100
AcDbBlockReference
  2
block 3
 10
0.0
 20
0.0
 30
0.0
  0
SPLINE
  5
6B
330
1F
100
AcDbEntity
  8
_U+30EC_U+30A4_U+30E4_U+30FC 1
 62
   179
420
  2234388
370
     9
100
AcDbSpline
210
0.0
220
0.0
230
1.0
 70
    11
 71
     3
 72
    17
 73
    13
 74
     0
 42
0.0000000001
 43
0.0000000001
 12
1.0
 22
0.0
 32
0.0
 13
1.0
 23
0.0
 33
0.0
 40
0.0
 40
0.0
 40
0.0
 40
0.0
 40
1.0
 40
1.0
 40
1.0
 40
2.0
 40
2.0
 40
2.0
 40
3.0
 40
3.0
 40
3.0
 40
4.0
 40
4.0
 40
4.0
 40
4.0
 10
82.07424179500053
 20
-156.1379274609655
 30
0.0
 10
82.07424179500053
 20
-156.1572244054053
 30
0.0
 10
82.05836679540555
 20
-156.1730641276232
 30
0.0
 10
82.0387523514615
 20
-156.1730641276232
 30
0.0
 10
82.01910262974059
 20
-156.1730641276232
 30
0.0
 10
82.00326290792248
 20
-156.1572244054053
 30
0.0
 10
82.00326290792248
 20
-156.1379274609655
 30
0.0
 10
82.00326290792248
 20
-156.1186305165257
 30
0.0
 10
82.01910262974059
 20
-156.1027907943077
 30
0.0
 10
82.0387523514615
 20
-156.1027907943077
 30
0.0
 10
82.05836679540555
 20
-156.1027907943077
 30
0.0
 10
82.07424179500053
 20
-156.1186305165257
 30
0.0
 10
82.07424179500053
 20
-156.1379274609655
 30
0.0
  0
POLYLINE
  5
6C
330
1F
100
AcDbEntity
  8
_U+30EC_U+30A4_U+30E4_U+30FC 1
 62
   179
420
  2234388
370
    25
100
AcDb2dPolyline
 66
     1
 10
0.0
 20
0.0
 30
0.0
  0
VERTEX
  5
6D
330
6C
100
AcDbEntity
  8
_U+30EC_U+30A4_U+30E4_U+30FC 1
 62
   179
420
  2234388
370
    25
100
AcDbVertex
100
AcDb2dVertex
 10
96.53880059264557
 20
-107.1376585843266
 30
0.0
  0
VERTEX
  5
6E
330
6C
100
AcDbEntity
  8
_U+30EC_U+30A4_U+30E4_U+30FC 1
 62
   179
420
  2234388
370
    25
100
AcDbVertex
100
AcDb2dVertex
 10
100.5385596572699
 20
-107.1376585843266
 30
0.0
  0
SEQEND
  5
6F
330
6C
100
AcDbEntity
  8
_U+30EC_U+30A4_U+30E4_U+30FC 1
 62
   179
420
  2234388
370
    25
  0
POLYLINE
  5
70
330
1F
100
AcDbEntity
  8
_U+30EC_U+30A4_U+30E4_U+30FC 1
 62
   179
420
  2234388
370
    25
100
AcDb2dPolyline
 66
     1
 10
0.0
 20
0.0
 30
0.0
  0
VERTEX
  5
71
330
70
100
AcDbEntity
  8
_U+30EC_U+30A4_U+30E4_U+30FC 1
 62
   179
420
  2234388
370
    25
100
AcDbVertex
100
AcDb2dVertex
 10
82.0387523514615
 20
-152.1381682952986
 30
0.0
  0
VERTEX
  5
72
330
70
100
AcDbEntity
  8
_U+30EC_U+30A4_U+30E4_U+30FC 1
 62
   179
420
  2234388
370
    25
100
AcDbVertex
100
AcDb2dVertex
 10
107.0387749732401
 20
-152.1381682952986
 30
0.0
  0
SEQEND
  5
73
330
70
100
AcDbEntity
  8
_U+30EC_U+30A4_U+30E4_U+30FC 1
 62
   179
420
  2234388
370
    25
  0
POLYLINE
  5
74
330
1F
100
AcDbEntity
  8
_U+30EC_U+30A4_U+30E4_U+30FC 1
 62
   179
420
  2234388
370
    25
100
AcDb2dPolyline
 66
     1
 10
0.0
 20
0.0
 30
0.0
  0
VERTEX
  5
75
330
74
100
AcDbEntity
  8
_U+30EC_U+30A4_U+30E4_U+30FC 1
 62
   179
420
  2234388
370
    25
100
AcDbVertex
100
AcDb2dVertex
 10
82.0387523514615
 20
-142.6379685754519
 30
0.0
  0
VERTEX
  5
76
330
74
100
AcDbEntity
  8
_U+30EC_U+30A4_U+30E4_U+30FC 1
 62
   179
420
  2234388
370
    25
100
AcDbVertex
100
AcDb2dVertex
 10
82.0387523514615
 20
-152.1381682952986
 30
0.0
  0
SEQEND
  5
77
330
74
100
AcDbEntity
  8
_U+30EC_U+30A4_U+30E4_U+30FC 1
 62
   179
420
  2234388
370
    25
  0
POLYLINE
  5
78
330
1F
100
AcDbEntity
  8
_U+30EC_U+30A4_U+30E4_U+30FC 1
 62
   179
420
  2234388
370
    25
100
AcDb2dPolyline
 66
     1
 10
0.0
 20
0.0
 30
0.0
  0
VERTEX
  5
79
330
78
100
AcDbEntity
  8
_U+30EC_U+30A4_U+30E4_U+30FC 1
 62
   179
420
  2234388
370
    25
100
AcDbVertex
100
AcDb2dVertex
 10
96.53880059264557
 20
-107.1376585843266
 30
0.0
  0
VERTEX
  5
7A
330
78
100
AcDbEntity
  8
_U+30EC_U+30A4_U+30E4_U+30FC 1
 62
   179
420
  2234388
370
    25
100
AcDbVertex
100
AcDb2dVertex
 10
96.53880059264557
 20
-109.1378733060488
 30
0.0
  0
SEQEND
  5
7B
330
78
100
AcDbEntity
  8
_U+30EC_U+30A4_U+30E4_U+30FC 1
 62
   179
420
  2234388
370
    25
  0
POLYLINE
  5
7C
330
1F
100
AcDbEntity
  8
_U+30EC_U+30A4_U+30E4_U+30FC 1
 62
   179
420
  2234388
370
    25
100
AcDb2dPolyline
 66
     1
 10
0.0
 20
0.0
 30
0.0
  0
VERTEX
  5
7D
330
7C
100
AcDbEntity
  8
_U+30EC_U+30A4_U+30E4_U+30FC 1
 62
   179
420
  2234388
370
    25
100
AcDbVertex
100
AcDb2dVertex
 10
100.5385596572699
 20
-107.1376585843266
 30
0.0
  0
VERTEX
  5
7E
330
7C
100
AcDbEntity
  8
_U+30EC_U+30A4_U+30E4_U+30FC 1
 62
   179
420
  2234388
370
    25
100
AcDbVertex
100
AcDb2dVertex
 10
100.5385596572699
 20
-140.1382205205212
 30
0.0
  0
SEQEND
  5
7F
330
7C
100
AcDbEntity
  8
_U+30EC_U+30A4_U+30E4_U+30FC 1
 62
   179
420
  2234388
370
    25
  0
POLYLINE
  5
80
330
1F
100
AcDbEntity
  8
_U+30EC_U+30A4_U+30E4_U+30FC 1
 62
   179
420
  2234388
370
    25
100
AcDb2dPolyline
 66
     1
 10
0.0
 20
0.0
 30
0.0
  0
VERTEX
  5
81
330
80
100
AcDbEntity
  8
_U+30EC_U+30A4_U+30E4_U+30FC 1
 62
   179
420
  2234388
370
    25
100
AcDbVertex
100
AcDb2dVertex
 10
98.53901526383807
 20
-108.637634417285
 30
0.0
  0
VERTEX
  5
82
330
80
100
AcDbEntity
  8
_U+30EC_U+30A4_U+30E4_U+30FC 1
 62
   179
420
  2234388
370
    25
100
AcDbVertex
100
AcDb2dVertex
 10
98.53901526383807
 20
-116.6833313597181
 30
0.0
  0
SEQEND
  5
83
330
80
100
AcDbEntity
  8
_U+30EC_U+30A4_U+30E4_U+30FC 1
 62
   179
420
  2234388
370
    25
  0
POLYLINE
  5
84
330
1F
100
AcDbEntity
  8
_U+30EC_U+30A4_U+30E4_U+30FC 1
 62
   179
420
  2234388
370
    25
100
AcDb2dPolyline
 66
     1
 10
0.0
 20
0.0
 30
0.0
  0
VERTEX
  5
85
330
84
100
AcDbEntity
  8
_U+30EC_U+30A4_U+30E4_U+30FC 1
 62
   179
420
  2234388
370
    25
100
AcDbVertex
100
AcDb2dVertex
 10
85.0387392193699
 20
-140.1382205205212
 30
0.0
  0
VERTEX
  5
86
330
84
100
AcDbEntity
  8
_U+30EC_U+30A4_U+30E4_U+30FC 1
 62
   179
420
  2234388
370
    25
100
AcDbVertex
100
AcDb2dVertex
 10
100.5385596572699
 20
-140.1382205205212
 30
0.0
  0
SEQEND
  5
87
330
84
100
AcDbEntity
  8
_U+30EC_U+30A4_U+30E4_U+30FC 1
 62
   179
420
  2234388
370
    25
  0
POLYLINE
  5
88
330
1F
100
AcDbEntity
  8
_U+30EC_U+30A4_U+30E4_U+30FC 1
 62
   179
420
  2234388
370
    25
100
AcDb2dPolyline
 66
     1
 10
0.0
 20
0.0
 30
0.0
  0
VERTEX
  5
89
330
88
100
AcDbEntity
  8
_U+30EC_U+30A4_U+30E4_U+30FC 1
 62
   179
420
  2234388
370
    25
100
AcDbVertex
100
AcDb2dVertex
 10
83.03884204816931
 20
-138.1380057987988
 30
0.0
  0
VERTEX
  5
8A
330
88
100
AcDbEntity
  8
_U+30EC_U+30A4_U+30E4_U+30FC 1
 62
   179
420
  2234388
370
    25
100
AcDbVertex
100
AcDb2dVertex
 10
98.53901526383807
 20
-138.1380057987988
 30
0.0
  0
SEQEND
  5
8B
330
88
100
AcDbEntity
  8
_U+30EC_U+30A4_U+30E4_U+30FC 1
 62
   179
420
  2234388
370
    25
  0
POLYLINE
  5
8C
330
1F
100
AcDbEntity
  8
_U+30EC_U+30A4_U+30E4_U+30FC 1
 62
   179
420
  2234388
370
    25
100
AcDb2dPolyline
 66
     1
 10
0.0
 20
0.0
 30
0.0
  0
VERTEX
  5
8D
330
8C
100
AcDbEntity
  8
_U+30EC_U+30A4_U+30E4_U+30FC 1
 62
   179
420
  2234388
370
    25
100
AcDbVertex
100
AcDb2dVertex
 10
84.03861424488522
 20
-144.1379796861875
 30
0.0
  0
VERTEX
  5
8E
330
8C
100
AcDbEntity
  8
_U+30EC_U+30A4_U+30E4_U+30FC 1
 62
   179
420
  2234388
370
    25
100
AcDbVertex
100
AcDb2dVertex
 10
84.03861424488522
 20
-150.1379535735768
 30
0.0
  0
SEQEND
  5
8F
330
8C
100
AcDbEntity
  8
_U+30EC_U+30A4_U+30E4_U+30FC 1
 62
   179
420
  2234388
370
    25
  0
POLYLINE
  5
90
330
1F
100
AcDbEntity
  8
_U+30EC_U+30A4_U+30E4_U+30FC 1
 62
   179
420
  2234388
370
    25
100
AcDb2dPolyline
 66
     1
 10
0.0
 20
0.0
 30
0.0
  0
VERTEX
  5
91
330
90
100
AcDbEntity
  8
_U+30EC_U+30A4_U+30E4_U+30FC 1
 62
   179
420
  2234388
370
    25
100
AcDbVertex
100
AcDb2dVertex
 10
84.03861424488522
 20
-150.1379535735768
 30
0.0
  0
VERTEX
  5
92
330
90
100
AcDbEntity
  8
_U+30EC_U+30A4_U+30E4_U+30FC 1
 62
   179
420
  2234388
370
    25
100
AcDbVertex
100
AcDb2dVertex
 10
102.0385707301125
 20
-150.1379535735768
 30
0.0
  0
SEQEND
  5
93
330
90
100
AcDbEntity
  8
_U+30EC_U+30A4_U+30E4_U+30FC 1
 62
   179
420
  2234388
370
    25
  0
POLYLINE
  5
94
330
1F
100
AcDbEntity
  8
_U+30EC_U+30A4_U+30E4_U+30FC 1
 62
   179
420
  2234388
370
    25
100
AcDb2dPolyline
 66
     1
 10
0.0
 20
0.0
 30
0.0
  0
VERTEX
  5
95
330
94
100
AcDbEntity
  8
_U+30EC_U+30A4_U+30E4_U+30FC 1
 62
   179
420
  2234388
370
    25
100
AcDbVertex
100
AcDb2dVertex
 10
102.0385707301125
 20
-149.1381813516043
 30
0.0
  0
VERTEX
  5
96
330
94
100
AcDbEntity
  8
_U+30EC_U+30A4_U+30E4_U+30FC 1
 62
   179
420
  2234388
370
    25
100
AcDbVertex
100
AcDb2dVertex
 10
104.038785401305
 20
-149.1381813516043
 30
0.0
  0
SEQEND
  5
97
330
94
100
AcDbEntity
  8
_U+30EC_U+30A4_U+30E4_U+30FC 1
 62
   179
420
  2234388
370
    25
  0
POLYLINE
  5
98
330
1F
100
AcDbEntity
  8
_U+30EC_U+30A4_U+30E4_U+30FC 1
 62
   179
420
  2234388
370
    25
100
AcDb2dPolyline
 66
     1
 10
0.0
 20
0.0
 30
0.0
  0
VERTEX
  5
99
330
98
100
AcDbEntity
  8
_U+30EC_U+30A4_U+30E4_U+30FC 1
 62
   179
420
  2234388
370
    25
100
AcDbVertex
100
AcDb2dVertex
 10
104.038785401305
 20
-150.1379535735768
 30
0.0
  0
VERTEX
  5
9A
330
98
100
AcDbEntity
  8
_U+30EC_U+30A4_U+30E4_U+30FC 1
 62
   179
420
  2234388
370
    25
100
AcDbVertex
100
AcDb2dVertex
 10
107.0387749732401
 20
-152.1381682952986
 30
0.0
  0
SEQEND
  5
9B
330
98
100
AcDbEntity
  8
_U+30EC_U+30A4_U+30E4_U+30FC 1
 62
   179
420
  2234388
370
    25
  0
POLYLINE
  5
9C
330
1F
100
AcDbEntity
  8
_U+30EC_U+30A4_U+30E4_U+30FC 1
 62
   179
420
  2234388
370
    25
100
AcDb2dPolyline
 66
     1
 10
0.0
 20
0.0
 30
0.0
  0
VERTEX
  5
9D
330
9C
100
AcDbEntity
  8
_U+30EC_U+30A4_U+30E4_U+30FC 1
 62
   179
420
  2234388
370
    25
100
AcDbVertex
100
AcDb2dVertex
 10
85.0387392193699
 20
-140.1382205205212
 30
0.0
  0
VERTEX
  5
9E
330
9C
100
AcDbEntity
  8
_U+30EC_U+30A4_U+30E4_U+30FC 1
 62
   179
420
  2234388
370
    25
100
AcDbVertex
100
AcDb2dVertex
 10
85.0387392193699
 20
-144.1379796861875
 30
0.0
  0
SEQEND
  5
9F
330
9C
100
AcDbEntity
  8
_U+30EC_U+30A4_U+30E4_U+30FC 1
 62
   179
420
  2234388
370
    25
  0
POLYLINE
  5
A0
330
1F
100
AcDbEntity
  8
_U+30EC_U+30A4_U+30E4_U+30FC 1
 62
   179
420
  2234388
370
    25
100
AcDb2dPolyline
 66
     1
 10
0.0
 20
0.0
 30
0.0
  0
VERTEX
  5
A1
330
A0
100
AcDbEntity
  8
_U+30EC_U+30A4_U+30E4_U+30FC 1
 62
   179
420
  2234388
370
    25
100
AcDbVertex
100
AcDb2dVertex
 10
83.03884204816931
 20
-140.1382205205212
 30
0.0
  0
VERTEX
  5
A2
330
A0
100
AcDbEntity
  8
_U+30EC_U+30A4_U+30E4_U+30FC 1
 62
   179
420
  2234388
370
    25
100
AcDbVertex
100
AcDb2dVertex
 10
83.03884204816931
 20
-142.6379685754519
 30
0.0
  0
SEQEND
  5
A3
330
A0
100
AcDbEntity
  8
_U+30EC_U+30A4_U+30E4_U+30FC 1
 62
   179
420
  2234388
370
    25
  0
POLYLINE
  5
A4
330
1F
100
AcDbEntity
  8
_U+30EC_U+30A4_U+30E4_U+30FC 1
 62
   179
420
  2234388
370
    25
100
AcDb2dPolyline
 66
     1
 10
0.0
 20
0.0
 30
0.0
  0
VERTEX
  5
A5
330
A4
100
AcDbEntity
  8
_U+30EC_U+30A4_U+30E4_U+30FC 1
 62
   179
420
  2234388
370
    25
100
AcDbVertex
100
AcDb2dVertex
 10
84.03861424488522
 20
-144.1379796861875
 30
0.0
  0
VERTEX
  5
A6
330
A4
100
AcDbEntity
  8
_U+30EC_U+30A4_U+30E4_U+30FC 1
 62
   179
420
  2234388
370
    25
100
AcDbVertex
100
AcDb2dVertex
 10
85.0387392193699
 20
-144.1379796861875
 30
0.0
  0
SEQEND
  5
A7
330
A4
100
AcDbEntity
  8
_U+30EC_U+30A4_U+30E4_U+30FC 1
 62
   179
420
  2234388
370
    25
  0
POLYLINE
  5
A8
330
1F
100
AcDbEntity
  8
_U+30EC_U+30A4_U+30E4_U+30FC 1
 62
   179
420
  2234388
370
    25
100
AcDb2dPolyline
 66
     1
 10
0.0
 20
0.0
 30
0.0
  0
VERTEX
  5
A9
330
A8
100
AcDbEntity
  8
_U+30EC_U+30A4_U+30E4_U+30FC 1
 62
   179
420
  2234388
370
    25
100
AcDbVertex
100
AcDb2dVertex
 10
82.0387523514615
 20
-142.6379685754519
 30
0.0
  0
VERTEX
  5
AA
330
A8
100
AcDbEntity
  8
_U+30EC_U+30A4_U+30E4_U+30FC 1
 62
   179
420
  2234388
370
    25
100
AcDbVertex
100
AcDb2dVertex
 10
83.03884204816931
 20
-142.6379685754519
 30
0.0
  0
SEQEND
  5
AB
330
A8
100
AcDbEntity
  8
_U+30EC_U+30A4_U+30E4_U+30FC 1
 62
   179
420
  2234388
370
    25
  0
POLYLINE
  5
AC
330
1F
100
AcDbEntity
  8
_U+30EC_U+30A4_U+30E4_U+30FC 1
 62
   179
420
  2234388
370
    25
100
AcDb2dPolyline
 66
     1
 10
0.0
 20
0.0
 30
0.0
  0
VERTEX
  5
AD
330
AC
100
AcDbEntity
  8
_U+30EC_U+30A4_U+30E4_U+30FC 1
 62
   179
420
  2234388
370
    25
100
AcDbVertex
100
AcDb2dVertex
 10
81.03862737697682
 20
-140.1382205205212
 30
0.0
  0
VERTEX
  5
AE
330
AC
100
AcDbEntity
  8
_U+30EC_U+30A4_U+30E4_U+30FC 1
 62
   179
420
  2234388
370
    25
100
AcDbVertex
100
AcDb2dVertex
 10
83.03884204816931
 20
-140.1382205205212
 30
0.0
  0
SEQEND
  5
AF
330
AC
100
AcDbEntity
  8
_U+30EC_U+30A4_U+30E4_U+30FC 1
 62
   179
420
  2234388
370
    25
  0
POLYLINE
  5
B0
330
1F
100
AcDbEntity
  8
_U+30EC_U+30A4_U+30E4_U+30FC 1
 62
   179
420
  2234388
370
    25
100
AcDb2dPolyline
 66
     1
 10
0.0
 20
0.0
 30
0.0
  0
VERTEX
  5
B1
330
B0
100
AcDbEntity
  8
_U+30EC_U+30A4_U+30E4_U+30FC 1
 62
   179
420
  2234388
370
    25
100
AcDbVertex
100
AcDb2dVertex
 10
81.03862737697682
 20
-140.1382205205212
 30
0.0
  0
VERTEX
  5
B2
330
B0
100
AcDbEntity
  8
_U+30EC_U+30A4_U+30E4_U+30FC 1
 62
   179
420
  2234388
370
    25
100
AcDbVertex
100
AcDb2dVertex
 10
83.03884204816931
 20
-138.1380057987988
 30
0.0
  0
SEQEND
  5
B3
330
B0
100
AcDbEntity
  8
_U+30EC_U+30A4_U+30E4_U+30FC 1
 62
   179
420
  2234388
370
    25
  0
POLYLINE
  5
B4
330
1F
100
AcDbEntity
  8
_U+30EC_U+30A4_U+30E4_U+30FC 1
 62
   179
420
  2234388
370
    25
100
AcDb2dPolyline
 66
     1
 10
0.0
 20
0.0
 30
0.0
  0
VERTEX
  5
B5
330
B4
100
AcDbEntity
  8
_U+30EC_U+30A4_U+30E4_U+30FC 1
 62
   179
420
  2234388
370
    25
100
AcDbVertex
100
AcDb2dVertex
 10
97.53857278936147
 20
-126.9104296904947
 30
0.0
  0
VERTEX
  5
B6
330
B4
100
AcDbEntity
  8
_U+30EC_U+30A4_U+30E4_U+30FC 1
 62
   179
420
  2234388
370
    25
100
AcDbVertex
100
AcDb2dVertex
 10
97.53857278936147
 20
-129.9104166341891
 30
0.0
  0
SEQEND
  5
B7
330
B4
100
AcDbEntity
  8
_U+30EC_U+30A4_U+30E4_U+30FC 1
 62
   179
420
  2234388
370
    25
  0
POLYLINE
  5
B8
330
1F
100
AcDbEntity
  8
_U+30EC_U+30A4_U+30E4_U+30FC 1
 62
   179
420
  2234388
370
    25
100
AcDb2dPolyline
 66
     1
 10
0.0
 20
0.0
 30
0.0
  0
VERTEX
  5
B9
330
B8
100
AcDbEntity
  8
_U+30EC_U+30A4_U+30E4_U+30FC 1
 62
   179
420
  2234388
370
    25
100
AcDbVertex
100
AcDb2dVertex
 10
98.53901526383807
 20
-127.6835069125236
 30
0.0
  0
VERTEX
  5
BA
330
B8
100
AcDbEntity
  8
_U+30EC_U+30A4_U+30E4_U+30FC 1
 62
   179
420
  2234388
370
    25
100
AcDbVertex
100
AcDb2dVertex
 10
97.53857278936147
 20
-126.9104296904947
 30
0.0
  0
SEQEND
  5
BB
330
B8
100
AcDbEntity
  8
_U+30EC_U+30A4_U+30E4_U+30FC 1
 62
   179
420
  2234388
370
    25
  0
POLYLINE
  5
BC
330
1F
100
AcDbEntity
  8
_U+30EC_U+30A4_U+30E4_U+30FC 1
 62
   179
420
  2234388
370
    25
100
AcDb2dPolyline
 66
     1
 10
0.0
 20
0.0
 30
0.0
  0
VERTEX
  5
BD
330
BC
100
AcDbEntity
  8
_U+30EC_U+30A4_U+30E4_U+30FC 1
 62
   179
420
  2234388
370
    25
100
AcDbVertex
100
AcDb2dVertex
 10
97.53857278936147
 20
-129.9104166341891
 30
0.0
  0
VERTEX
  5
BE
330
BC
100
AcDbEntity
  8
_U+30EC_U+30A4_U+30E4_U+30FC 1
 62
   179
420
  2234388
370
    25
100
AcDbVertex
100
AcDb2dVertex
 10
98.53901526383807
 20
-129.1380096899376
 30
0.0
  0
SEQEND
  5
BF
330
BC
100
AcDbEntity
  8
_U+30EC_U+30A4_U+30E4_U+30FC 1
 62
   179
420
  2234388
370
    25
  0
POLYLINE
  5
C0
330
1F
100
AcDbEntity
  8
_U+30EC_U+30A4_U+30E4_U+30FC 1
 62
   179
420
  2234388
370
    25
100
AcDb2dPolyline
 66
     1
 10
0.0
 20
0.0
 30
0.0
  0
VERTEX
  5
C1
330
C0
100
AcDbEntity
  8
_U+30EC_U+30A4_U+30E4_U+30FC 1
 62
   179
420
  2234388
370
    25
100
AcDbVertex
100
AcDb2dVertex
 10
97.53857278936147
 20
-115.9109244154666
 30
0.0
  0
VERTEX
  5
C2
330
C0
100
AcDbEntity
  8
_U+30EC_U+30A4_U+30E4_U+30FC 1
 62
   179
420
  2234388
370
    25
100
AcDbVertex
100
AcDb2dVertex
 10
97.53857278936147
 20
-118.9109113591613
 30
0.0
  0
SEQEND
  5
C3
330
C0
100
AcDbEntity
  8
_U+30EC_U+30A4_U+30E4_U+30FC 1
 62
   179
420
  2234388
370
    25
  0
POLYLINE
  5
C4
330
1F
100
AcDbEntity
  8
_U+30EC_U+30A4_U+30E4_U+30FC 1
 62
   179
420
  2234388
370
    25
100
AcDb2dPolyline
 66
     1
 10
0.0
 20
0.0
 30
0.0
  0
VERTEX
  5
C5
330
C4
100
AcDbEntity
  8
_U+30EC_U+30A4_U+30E4_U+30FC 1
 62
   179
420
  2234388
370
    25
100
AcDbVertex
100
AcDb2dVertex
 10
98.53901526383807
 20
-116.6833313597181
 30
0.0
  0
VERTEX
  5
C6
330
C4
100
AcDbEntity
  8
_U+30EC_U+30A4_U+30E4_U+30FC 1
 62
   179
420
  2234388
370
    25
100
AcDbVertex
100
AcDb2dVertex
 10
97.53857278936147
 20
-115.9109244154666
 30
0.0
  0
SEQEND
  5
C7
330
C4
100
AcDbEntity
  8
_U+30EC_U+30A4_U+30E4_U+30FC 1
 62
   179
420
  2234388
370
    25
  0
POLYLINE
  5
C8
330
1F
100
AcDbEntity
  8
_U+30EC_U+30A4_U+30E4_U+30FC 1
 62
   179
420
  2234388
370
    25
100
AcDb2dPolyline
 66
     1
 10
0.0
 20
0.0
 30
0.0
  0
VERTEX
  5
C9
330
C8
100
AcDbEntity
  8
_U+30EC_U+30A4_U+30E4_U+30FC 1
 62
   179
420
  2234388
370
    25
100
AcDbVertex
100
AcDb2dVertex
 10
97.53857278936147
 20
-118.9109113591613
 30
0.0
  0
VERTEX
  5
CA
330
C8
100
AcDbEntity
  8
_U+30EC_U+30A4_U+30E4_U+30FC 1
 62
   179
420
  2234388
370
    25
100
AcDbVertex
100
AcDb2dVertex
 10
98.53901526383807
 20
-118.1378341371321
 30
0.0
  0
SEQEND
  5
CB
330
C8
100
AcDbEntity
  8
_U+30EC_U+30A4_U+30E4_U+30FC 1
 62
   179
420
  2234388
370
    25
  0
POLYLINE
  5
CC
330
1F
100
AcDbEntity
  8
_U+30EC_U+30A4_U+30E4_U+30FC 1
 62
   179
420
  2234388
370
    25
100
AcDb2dPolyline
 66
     1
 10
0.0
 20
0.0
 30
0.0
  0
VERTEX
  5
CD
330
CC
100
AcDbEntity
  8
_U+30EC_U+30A4_U+30E4_U+30FC 1
 62
   179
420
  2234388
370
    25
100
AcDbVertex
100
AcDb2dVertex
 10
98.53901526383807
 20
-118.1378341371321
 30
0.0
  0
VERTEX
  5
CE
330
CC
100
AcDbEntity
  8
_U+30EC_U+30A4_U+30E4_U+30FC 1
 62
   179
420
  2234388
370
    25
100
AcDbVertex
100
AcDb2dVertex
 10
98.53901526383807
 20
-127.6835069125236
 30
0.0
  0
SEQEND
  5
CF
330
CC
100
AcDbEntity
  8
_U+30EC_U+30A4_U+30E4_U+30FC 1
 62
   179
420
  2234388
370
    25
  0
POLYLINE
  5
D0
330
1F
100
AcDbEntity
  8
_U+30EC_U+30A4_U+30E4_U+30FC 1
 62
   179
420
  2234388
370
    25
100
AcDb2dPolyline
 66
     1
 10
0.0
 20
0.0
 30
0.0
  0
VERTEX
  5
D1
330
D0
100
AcDbEntity
  8
_U+30EC_U+30A4_U+30E4_U+30FC 1
 62
   179
420
  2234388
370
    25
100
AcDbVertex
100
AcDb2dVertex
 10
98.53901526383807
 20
-129.1380096899376
 30
0.0
  0
VERTEX
  5
D2
330
D0
100
AcDbEntity
  8
_U+30EC_U+30A4_U+30E4_U+30FC 1
 62
   179
420
  2234388
370
    25
100
AcDbVertex
100
AcDb2dVertex
 10
98.53901526383807
 20
-138.1380057987988
 30
0.0
  0
SEQEND
  5
D3
330
D0
100
AcDbEntity
  8
_U+30EC_U+30A4_U+30E4_U+30FC 1
 62
   179
420
  2234388
370
    25
  0
POLYLINE
  5
D4
330
1F
100
AcDbEntity
  8
_U+30EC_U+30A4_U+30E4_U+30FC 1
 62
   179
420
  2234388
370
    25
100
AcDb2dPolyline
 66
     1
 10
0.0
 20
0.0
 30
0.0
  0
VERTEX
  5
D5
330
D4
100
AcDbEntity
  8
_U+30EC_U+30A4_U+30E4_U+30FC 1
 62
   179
420
  2234388
370
    25
100
AcDbVertex
100
AcDb2dVertex
 10
104.038785401305
 20
-149.1381813516043
 30
0.0
  0
VERTEX
  5
D6
330
D4
100
AcDbEntity
  8
_U+30EC_U+30A4_U+30E4_U+30FC 1
 62
   179
420
  2234388
370
    25
100
AcDbVertex
100
AcDb2dVertex
 10
104.038785401305
 20
-150.1379535735768
 30
0.0
  0
SEQEND
  5
D7
330
D4
100
AcDbEntity
  8
_U+30EC_U+30A4_U+30E4_U+30FC 1
 62
   179
420
  2234388
370
    25
  0
POLYLINE
  5
D8
330
1F
100
AcDbEntity
  8
_U+30EC_U+30A4_U+30E4_U+30FC 1
 62
   179
420
  2234388
370
    25
100
AcDb2dPolyline
 66
     1
 10
0.0
 20
0.0
 30
0.0
  0
VERTEX
  5
D9
330
D8
100
AcDbEntity
  8
_U+30EC_U+30A4_U+30E4_U+30FC 1
 62
   179
420
  2234388
370
    25
100
AcDbVertex
100
AcDb2dVertex
 10
102.0385707301125
 20
-149.1381813516043
 30
0.0
  0
VERTEX
  5
DA
330
D8
100
AcDbEntity
  8
_U+30EC_U+30A4_U+30E4_U+30FC 1
 62
   179
420
  2234388
370
    25
100
AcDbVertex
100
AcDb2dVertex
 10
102.0385707301125
 20
-150.1379535735768
 30
0.0
  0
SEQEND
  5
DB
330
D8
100
AcDbEntity
  8
_U+30EC_U+30A4_U+30E4_U+30FC 1
 62
   179
420
  2234388
370
    25
  0
POLYLINE
  5
DC
330
1F
100
AcDbEntity
  8
_U+30EC_U+30A4_U+30E4_U+30FC 1
 62
   179
420
  2234388
370
    25
100
AcDb2dPolyline
 66
     1
 10
0.0
 20
0.0
 30
0.0
  0
VERTEX
  5
DD
330
DC
100
AcDbEntity
  8
_U+30EC_U+30A4_U+30E4_U+30FC 1
 62
   179
420
  2234388
370
    25
100
AcDbVertex
100
AcDb2dVertex
 10
98.53901526383807
 20
-108.637634417285
 30
0.0
  0
VERTEX
  5
DE
330
DC
100
AcDbEntity
  8
_U+30EC_U+30A4_U+30E4_U+30FC 1
 62
   179
420
  2234388
370
    25
100
AcDbVertex
100
AcDb2dVertex
 10
96.53880059264557
 20
-109.1378733060488
 30
0.0
  0
SEQEND
  5
DF
330
DC
100
AcDbEntity
  8
_U+30EC_U+30A4_U+30E4_U+30FC 1
 62
   179
420
  2234388
370
    25
  0
SPLINE
  5
E0
330
1F
100
AcDbEntity
  8
_U+30EC_U+30A4_U+30E4_U+30FC 1
 62
   179
420
  2234388
370
     9
100
AcDbSpline
210
0.0
220
0.0
230
1.0
 70
    11
 71
     3
 72
    17
 73
    13
 74
     0
 42
0.0000000001
 43
0.0000000001
 12
1.0
 22
0.0
 32
0.0
 13
1.0
 23
0.0
 33
0.0
 40
0.0
 40
0.0
 40
0.0
 40
0.0
 40
1.0
 40
1.0
 40
1.0
 40
2.0
 40
2.0
 40
2.0
 40
3.0
 40
3.0
 40
3.0
 40
4.0
 40
4.0
 40
4.0
 40
4.0
 10
111.1387907757243
 20
-150.1379535735768
 30
0.0
 10
111.1387907757243
 20
-150.0828144069237
 30
0.0
 10
111.0939879990896
 20
-150.0380469069351
 30
0.0
 10
111.0388841116065
 20
-150.0380469069351
 30
0.0
 10
110.9833921685778
 20
-150.0380469069351
 30
0.0
 10
110.9386246697199
 20
-150.0828144069237
 30
0.0
 10
110.9386246697199
 20
-150.1379535735768
 30
0.0
 10
110.9386246697199
 20
-150.1930574624517
 30
0.0
 10
110.9833921685778
 20
-150.2378602402184
 30
0.0
 10
111.0388841116065
 20
-150.2378602402184
 30
0.0
 10
111.0939879990896
 20
-150.2378602402184
 30
0.0
 10
111.1387907757243
 20
-150.1930574624517
 30
0.0
 10
111.1387907757243
 20
-150.1379535735768
 30
0.0
  0
SPLINE
  5
E1
330
1F
100
AcDbEntity
  8
_U+30EC_U+30A4_U+30E4_U+30FC 1
 62
   179
420
  2234388
370
     9
100
AcDbSpline
210
0.0
220
0.0
230
1.0
 70
    11
 71
     3
 72
    17
 73
    13
 74
     0
 42
0.0000000001
 43
0.0000000001
 12
1.0
 22
0.0
 32
0.0
 13
1.0
 23
0.0
 33
0.0
 40
0.0
 40
0.0
 40
0.0
 40
0.0
 40
1.0
 40
1.0
 40
1.0
 40
2.0
 40
2.0
 40
2.0
 40
3.0
 40
3.0
 40
3.0
 40
4.0
 40
4.0
 40
4.0
 40
4.0
 10
111.1387907757243
 20
-149.1381813516043
 30
0.0
 10
111.1387907757243
 20
-149.0823719071738
 30
0.0
 10
111.0939879990896
 20
-149.0376044071853
 30
0.0
 10
111.0388841116065
 20
-149.0376044071853
 30
0.0
 10
110.9833921685778
 20
-149.0376044071853
 30
0.0
 10
110.9386246697199
 20
-149.0823719071738
 30
0.0
 10
110.9386246697199
 20
-149.1381813516043
 30
0.0
 10
110.9386246697199
 20
-149.1933205182573
 30
0.0
 10
110.9833921685778
 20
-149.2380880182459
 30
0.0
 10
111.0388841116065
 20
-149.2380880182459
 30
0.0
 10
111.0939879990896
 20
-149.2380880182459
 30
0.0
 10
111.1387907757243
 20
-149.1933205182573
 30
0.0
 10
111.1387907757243
 20
-149.1381813516043
 30
0.0
  0
SPLINE
  5
E2
330
1F
100
AcDbEntity
  8
_U+30EC_U+30A4_U+30E4_U+30FC 1
 62
   179
420
  2234388
370
     9
100
AcDbSpline
210
0.0
220
0.0
230
1.0
 70
    11
 71
     3
 72
    17
 73
    13
 74
     0
 42
0.0000000001
 43
0.0000000001
 12
1.0
 22
0.0
 32
0.0
 13
1.0
 23
0.0
 33
0.0
 40
0.0
 40
0.0
 40
0.0
 40
0.0
 40
1.0
 40
1.0
 40
1.0
 40
2.0
 40
2.0
 40
2.0
 40
3.0
 40
3.0
 40
3.0
 40
4.0
 40
4.0
 40
4.0
 40
4.0
 10
111.1387907757243
 20
-152.1381682952986
 30
0.0
 10
111.1387907757243
 20
-152.0823588508682
 30
0.0
 10
111.0939879990896
 20
-152.038261628657
 30
0.0
 10
111.0388841116065
 20
-152.038261628657
 30
0.0
 10
110.9833921685778
 20
-152.038261628657
 30
0.0
 10
110.9386246697199
 20
-152.0823588508682
 30
0.0
 10
110.9386246697199
 20
-152.1381682952986
 30
0.0
 10
110.9386246697199
 20
-152.1933074619517
 30
0.0
 10
110.9833921685778
 20
-152.2380749619402
 30
0.0
 10
111.0388841116065
 20
-152.2380749619402
 30
0.0
 10
111.0939879990896
 20
-152.2380749619402
 30
0.0
 10
111.1387907757243
 20
-152.1933074619517
 30
0.0
 10
111.1387907757243
 20
-152.1381682952986
 30
0.0
  0
SPLINE
  5
E3
330
1F
100
AcDbEntity
  8
_U+30EC_U+30A4_U+30E4_U+30FC 1
 62
   179
420
  2234388
370
     5
100
AcDbSpline
210
0.0
220
0.0
230
1.0
 70
    11
 71
     3
 72
    17
 73
    13
 74
     0
 42
0.0000000001
 43
0.0000000001
 12
1.0
 22
0.0
 32
0.0
 13
1.0
 23
0.0
 33
0.0
 40
0.0
 40
0.0
 40
0.0
 40
0.0
 40
1.0
 40
1.0
 40
1.0
 40
2.0
 40
2.0
 40
2.0
 40
3.0
 40
3.0
 40
3.0
 40
4.0
 40
4.0
 40
4.0
 40
4.0
 10
107.1386789333312
 20
-103.1378994186601
 30
0.0
 10
107.1386789333312
 20
-103.082760252007
 30
0.0
 10
107.0938761566965
 20
-103.0379927520184
 30
0.0
 10
107.0387749732401
 20
-103.0379927520184
 30
0.0
 10
106.9836331039535
 20
-103.0379927520184
 30
0.0
 10
106.9388656050956
 20
-103.082760252007
 30
0.0
 10
106.9388656050956
 20
-103.1378994186601
 30
0.0
 10
106.9388656050956
 20
-103.193003307535
 30
0.0
 10
106.9836331039535
 20
-103.2378060853017
 30
0.0
 10
107.0387749732401
 20
-103.2378060853017
 30
0.0
 10
107.0938761566965
 20
-103.2378060853017
 30
0.0
 10
107.1386789333312
 20
-103.193003307535
 30
0.0
 10
107.1386789333312
 20
-103.1378994186601
 30
0.0
  0
SPLINE
  5
E4
330
1F
100
AcDbEntity
  8
_U+30EC_U+30A4_U+30E4_U+30FC 1
 62
   179
420
  2234388
370
     9
100
AcDbSpline
210
0.0
220
0.0
230
1.0
 70
    11
 71
     3
 72
    17
 73
    13
 74
     0
 42
0.0000000001
 43
0.0000000001
 12
1.0
 22
0.0
 32
0.0
 13
1.0
 23
0.0
 33
0.0
 40
0.0
 40
0.0
 40
0.0
 40
0.0
 40
1.0
 40
1.0
 40
1.0
 40
2.0
 40
2.0
 40
2.0
 40
3.0
 40
3.0
 40
3.0
 40
4.0
 40
4.0
 40
4.0
 40
4.0
 10
96.6387072567634
 20
-103.1378994186601
 30
0.0
 10
96.6387072567634
 20
-103.082760252007
 30
0.0
 10
96.59393975790552
 20
-103.0379927520184
 30
0.0
 10
96.53880059264557
 20
-103.0379927520184
 30
0.0
 10
96.4836967051625
 20
-103.0379927520184
 30
0.0
 10
96.43889392852773
 20
-103.082760252007
 30
0.0
 10
96.43889392852773
 20
-103.1378994186601
 30
0.0
 10
96.43889392852773
 20
-103.193003307535
 30
0.0
 10
96.4836967051625
 20
-103.2378060853017
 30
0.0
 10
96.53880059264557
 20
-103.2378060853017
 30
0.0
 10
96.59393975790552
 20
-103.2378060853017
 30
0.0
 10
96.6387072567634
 20
-103.193003307535
 30
0.0
 10
96.6387072567634
 20
-103.1378994186601
 30
0.0
  0
SPLINE
  5
E5
330
1F
100
AcDbEntity
  8
_U+30EC_U+30A4_U+30E4_U+30FC 1
 62
   179
420
  2234388
370
     9
100
AcDbSpline
210
0.0
220
0.0
230
1.0
 70
    11
 71
     3
 72
    17
 73
    13
 74
     0
 42
0.0000000001
 43
0.0000000001
 12
1.0
 22
0.0
 32
0.0
 13
1.0
 23
0.0
 33
0.0
 40
0.0
 40
0.0
 40
0.0
 40
0.0
 40
1.0
 40
1.0
 40
1.0
 40
2.0
 40
2.0
 40
2.0
 40
3.0
 40
3.0
 40
3.0
 40
4.0
 40
4.0
 40
4.0
 40
4.0
 10
73.13901591184603
 20
-107.1376585843266
 30
0.0
 10
73.13901591184603
 20
-107.0825194176739
 30
0.0
 10
73.09424841298815
 20
-107.037751917685
 30
0.0
 10
73.0387917477363
 20
-107.037751917685
 30
0.0
 10
72.98329980470757
 20
-107.037751917685
 30
0.0
 10
72.93888508361846
 20
-107.0825194176739
 30
0.0
 10
72.93888508361846
 20
-107.1376585843266
 30
0.0
 10
72.93888508361846
 20
-107.1934680287571
 30
0.0
 10
72.98329980470757
 20
-107.238235528746
 30
0.0
 10
73.0387917477363
 20
-107.238235528746
 30
0.0
 10
73.09424841298815
 20
-107.238235528746
 30
0.0
 10
73.13901591184603
 20
-107.1934680287571
 30
0.0
 10
73.13901591184603
 20
-107.1376585843266
 30
0.0
  0
SPLINE
  5
E6
330
1F
100
AcDbEntity
  8
_U+30EC_U+30A4_U+30E4_U+30FC 1
 62
   179
420
  2234388
370
     5
100
AcDbSpline
210
0.0
220
0.0
230
1.0
 70
    11
 71
     3
 72
    17
 73
    13
 74
     0
 42
0.0000000001
 43
0.0000000001
 12
1.0
 22
0.0
 32
0.0
 13
1.0
 23
0.0
 33
0.0
 40
0.0
 40
0.0
 40
0.0
 40
0.0
 40
1.0
 40
1.0
 40
1.0
 40
2.0
 40
2.0
 40
2.0
 40
3.0
 40
3.0
 40
3.0
 40
4.0
 40
4.0
 40
4.0
 40
4.0
 10
73.13901591184603
 20
-152.1381682952986
 30
0.0
 10
73.13901591184603
 20
-152.0823588508682
 30
0.0
 10
73.09424841298815
 20
-152.038261628657
 30
0.0
 10
73.0387917477363
 20
-152.038261628657
 30
0.0
 10
72.98329980470757
 20
-152.038261628657
 30
0.0
 10
72.93888508361846
 20
-152.0823588508682
 30
0.0
 10
72.93888508361846
 20
-152.1381682952986
 30
0.0
 10
72.93888508361846
 20
-152.1933074619517
 30
0.0
 10
72.98329980470757
 20
-152.2380749619402
 30
0.0
 10
73.0387917477363
 20
-152.2380749619402
 30
0.0
 10
73.09424841298815
 20
-152.2380749619402
 30
0.0
 10
73.13901591184603
 20
-152.1933074619517
 30
0.0
 10
73.13901591184603
 20
-152.1381682952986
 30
0.0
  0
SPLINE
  5
E7
330
1F
100
AcDbEntity
  8
_U+30EC_U+30A4_U+30E4_U+30FC 1
 62
   179
420
  2234388
370
     5
100
AcDbSpline
210
0.0
220
0.0
230
1.0
 70
    11
 71
     3
 72
    17
 73
    13
 74
     0
 42
0.0000000001
 43
0.0000000001
 12
1.0
 22
0.0
 32
0.0
 13
1.0
 23
0.0
 33
0.0
 40
0.0
 40
0.0
 40
0.0
 40
0.0
 40
1.0
 40
1.0
 40
1.0
 40
2.0
 40
2.0
 40
2.0
 40
3.0
 40
3.0
 40
3.0
 40
4.0
 40
4.0
 40
4.0
 40
4.0
 10
77.13877497647034
 20
-152.1381682952986
 30
0.0
 10
77.13877497647034
 20
-152.0823588508682
 30
0.0
 10
77.09400747761245
 20
-152.038261628657
 30
0.0
 10
77.0388683123525
 20
-152.038261628657
 30
0.0
 10
76.98376442486943
 20
-152.038261628657
 30
0.0
 10
76.93896164823467
 20
-152.0823588508682
 30
0.0
 10
76.93896164823467
 20
-152.1381682952986
 30
0.0
 10
76.93896164823467
 20
-152.1933074619517
 30
0.0
 10
76.98376442486943
 20
-152.2380749619402
 30
0.0
 10
77.0388683123525
 20
-152.2380749619402
 30
0.0
 10
77.09400747761245
 20
-152.2380749619402
 30
0.0
 10
77.13877497647034
 20
-152.1933074619517
 30
0.0
 10
77.13877497647034
 20
-152.1381682952986
 30
0.0
  0
SPLINE
  5
E8
330
1F
100
AcDbEntity
  8
_U+30EC_U+30A4_U+30E4_U+30FC 1
 62
   179
420
  2234388
370
     9
100
AcDbSpline
210
0.0
220
0.0
230
1.0
 70
    11
 71
     3
 72
    17
 73
    13
 74
     0
 42
0.0000000001
 43
0.0000000001
 12
1.0
 22
0.0
 32
0.0
 13
1.0
 23
0.0
 33
0.0
 40
0.0
 40
0.0
 40
0.0
 40
0.0
 40
1.0
 40
1.0
 40
1.0
 40
2.0
 40
2.0
 40
2.0
 40
3.0
 40
3.0
 40
3.0
 40
4.0
 40
4.0
 40
4.0
 40
4.0
 10
77.13877497647034
 20
-140.1382205205212
 30
0.0
 10
77.13877497647034
 20
-140.0824110760908
 30
0.0
 10
77.09400747761245
 20
-140.037608298324
 30
0.0
 10
77.0388683123525
 20
-140.037608298324
 30
0.0
 10
76.98376442486943
 20
-140.037608298324
 30
0.0
 10
76.93896164823467
 20
-140.0824110760908
 30
0.0
 10
76.93896164823467
 20
-140.1382205205212
 30
0.0
 10
76.93896164823467
 20
-140.1933244093961
 30
0.0
 10
76.98376442486943
 20
-140.2381271871629
 30
0.0
 10
77.0388683123525
 20
-140.2381271871629
 30
0.0
 10
77.09400747761245
 20
-140.2381271871629
 30
0.0
 10
77.13877497647034
 20
-140.1933244093961
 30
0.0
 10
77.13877497647034
 20
-140.1382205205212
 30
0.0
  0
SPLINE
  5
E9
330
1F
100
AcDbEntity
  8
_U+30EC_U+30A4_U+30E4_U+30FC 1
 62
   179
420
  2234388
370
     9
100
AcDbSpline
210
0.0
220
0.0
230
1.0
 70
    11
 71
     3
 72
    17
 73
    13
 74
     0
 42
0.0000000001
 43
0.0000000001
 12
1.0
 22
0.0
 32
0.0
 13
1.0
 23
0.0
 33
0.0
 40
0.0
 40
0.0
 40
0.0
 40
0.0
 40
1.0
 40
1.0
 40
1.0
 40
2.0
 40
2.0
 40
2.0
 40
3.0
 40
3.0
 40
3.0
 40
4.0
 40
4.0
 40
4.0
 40
4.0
 10
82.13901386835416
 20
-156.1379274609655
 30
0.0
 10
82.13901386835416
 20
-156.0828235720905
 30
0.0
 10
82.09421109058744
 20
-156.0380207943238
 30
0.0
 10
82.0387523514615
 20
-156.0380207943238
 30
0.0
 10
81.98361318620155
 20
-156.0380207943238
 30
0.0
 10
81.93884568734367
 20
-156.0828235720905
 30
0.0
 10
81.93884568734367
 20
-156.1379274609655
 30
0.0
 10
81.93884568734367
 20
-156.1930666276185
 30
0.0
 10
81.98361318620155
 20
-156.2378341276071
 30
0.0
 10
82.0387523514615
 20
-156.2378341276071
 30
0.0
 10
82.09421109058744
 20
-156.2378341276071
 30
0.0
 10
82.13901386835416
 20
-156.1930666276185
 30
0.0
 10
82.13901386835416
 20
-156.1379274609655
 30
0.0
  0
SPLINE
  5
EA
330
1F
100
AcDbEntity
  8
_U+30EC_U+30A4_U+30E4_U+30FC 1
 62
   179
420
  2234388
370
     9
100
AcDbSpline
210
0.0
220
0.0
230
1.0
 70
    11
 71
     3
 72
    17
 73
    13
 74
     0
 42
0.0000000001
 43
0.0000000001
 12
1.0
 22
0.0
 32
0.0
 13
1.0
 23
0.0
 33
0.0
 40
0.0
 40
0.0
 40
0.0
 40
0.0
 40
1.0
 40
1.0
 40
1.0
 40
2.0
 40
2.0
 40
2.0
 40
3.0
 40
3.0
 40
3.0
 40
4.0
 40
4.0
 40
4.0
 40
4.0
 10
107.1386789333312
 20
-156.1379274609655
 30
0.0
 10
107.1386789333312
 20
-156.0828235720905
 30
0.0
 10
107.0938761566965
 20
-156.0380207943238
 30
0.0
 10
107.0387749732401
 20
-156.0380207943238
 30
0.0
 10
106.9836331039535
 20
-156.0380207943238
 30
0.0
 10
106.9388656050956
 20
-156.0828235720905
 30
0.0
 10
106.9388656050956
 20
-156.1379274609655
 30
0.0
 10
106.9388656050956
 20
-156.1930666276185
 30
0.0
 10
106.9836331039535
 20
-156.2378341276071
 30
0.0
 10
107.0387749732401
 20
-156.2378341276071
 30
0.0
 10
107.0938761566965
 20
-156.2378341276071
 30
0.0
 10
107.1386789333312
 20
-156.1930666276185
 30
0.0
 10
107.1386789333312
 20
-156.1379274609655
 30
0.0
  0
POLYLINE
  5
EB
330
1F
100
AcDbEntity
  8
_U+30EC_U+30A4_U+30E4_U+30FC 1
 62
   179
420
  2234388
370
     9
100
AcDb2dPolyline
 66
     1
 10
0.0
 20
0.0
 30
0.0
  0
VERTEX
  5
EC
330
EB
100
AcDbEntity
  8
_U+30EC_U+30A4_U+30E4_U+30FC 1
 62
   179
420
  2234388
370
     9
100
AcDbVertex
100
AcDb2dVertex
 10
96.53880059264557
 20
-103.1378994186601
 30
0.0
  0
VERTEX
  5
ED
330
EB
100
AcDbEntity
  8
_U+30EC_U+30A4_U+30E4_U+30FC 1
 62
   179
420
  2234388
370
     9
100
AcDbVertex
100
AcDb2dVertex
 10
107.0387749732401
 20
-103.1378994186601
 30
0.0
  0
SEQEND
  5
EE
330
EB
100
AcDbEntity
  8
_U+30EC_U+30A4_U+30E4_U+30FC 1
 62
   179
420
  2234388
370
     9
  0
POLYLINE
  5
EF
330
1F
100
AcDbEntity
  8
_U+30EC_U+30A4_U+30E4_U+30FC 1
 62
   179
420
  2234388
370
     9
100
AcDb2dPolyline
 66
     1
 10
0.0
 20
0.0
 30
0.0
  0
VERTEX
  5
F0
330
EF
100
AcDbEntity
  8
_U+30EC_U+30A4_U+30E4_U+30FC 1
 62
   179
420
  2234388
370
     9
100
AcDbVertex
100
AcDb2dVertex
 10
96.53880059264557
 20
-104.5979055294059
 30
0.0
  0
VERTEX
  5
F1
330
EF
100
AcDbEntity
  8
_U+30EC_U+30A4_U+30E4_U+30FC 1
 62
   179
420
  2234388
370
     9
100
AcDbVertex
100
AcDb2dVertex
 10
96.53880059264557
 20
-102.1381271966878
 30
0.0
  0
SEQEND
  5
F2
330
EF
100
AcDbEntity
  8
_U+30EC_U+30A4_U+30E4_U+30FC 1
 62
   179
420
  2234388
370
     9
  0
POLYLINE
  5
F3
330
1F
100
AcDbEntity
  8
_U+30EC_U+30A4_U+30E4_U+30FC 1
 62
   179
420
  2234388
370
     9
100
AcDb2dPolyline
 66
     1
 10
0.0
 20
0.0
 30
0.0
  0
VERTEX
  5
F4
330
F3
100
AcDbEntity
  8
_U+30EC_U+30A4_U+30E4_U+30FC 1
 62
   179
420
  2234388
370
     9
100
AcDbVertex
100
AcDb2dVertex
 10
107.0387749732401
 20
-149.5977449626005
 30
0.0
  0
VERTEX
  5
F5
330
F3
100
AcDbEntity
  8
_U+30EC_U+30A4_U+30E4_U+30FC 1
 62
   179
420
  2234388
370
     9
100
AcDbVertex
100
AcDb2dVertex
 10
107.0387749732401
 20
-102.1381271966878
 30
0.0
  0
SEQEND
  5
F6
330
F3
100
AcDbEntity
  8
_U+30EC_U+30A4_U+30E4_U+30FC 1
 62
   179
420
  2234388
370
     9
  0
INSERT
  5
F8
330
1F
100
AcDbEntity
  8
_U+30EC_U+30A4_U+30E4_U+30FC 1
100
AcDbBlockReference
  2
block 4
 10
0.0
 20
0.0
 30
0.0
  0
SPLINE
  5
10A
330
1F
100
AcDbEntity
  8
_U+30EC_U+30A4_U+30E4_U+30FC 1
 62
   179
420
  2234388
370
    25
100
AcDbSpline
210
0.0
220
0.0
230
1.0
 70
    11
 71
     3
 72
    17
 73
    13
 74
     0
 42
0.0000000001
 43
0.0000000001
 12
1.0
 22
0.0
 32
0.0
 13
1.0
 23
0.0
 33
0.0
 40
0.0
 40
0.0
 40
0.0
 40
0.0
 40
1.0
 40
1.0
 40
1.0
 40
2.0
 40
2.0
 40
2.0
 40
3.0
 40
3.0
 40
3.0
 40
4.0
 40
4.0
 40
4.0
 40
4.0
 10
96.57393725841582
 20
-107.1376585843266
 30
0.0
 10
96.57393725841582
 20
-107.1576258065438
 30
0.0
 10
96.55809997586067
 20
-107.1734655287624
 30
0.0
 10
96.53880059264557
 20
-107.1734655287624
 30
0.0
 10
96.51950364869343
 20
-107.1734655287624
 30
0.0
 10
96.5036639268753
 20
-107.1576258065438
 30
0.0
 10
96.5036639268753
 20
-107.1376585843266
 30
0.0
 10
96.5036639268753
 20
-107.1183616398871
 30
0.0
 10
96.51950364869343
 20
-107.1025219176689
 30
0.0
 10
96.53880059264557
 20
-107.1025219176689
 30
0.0
 10
96.55809997586067
 20
-107.1025219176689
 30
0.0
 10
96.57393725841582
 20
-107.1183616398871
 30
0.0
 10
96.57393725841582
 20
-107.1376585843266
 30
0.0
  0
SPLINE
  5
10B
330
1F
100
AcDbEntity
  8
_U+30EC_U+30A4_U+30E4_U+30FC 1
 62
   179
420
  2234388
370
     5
100
AcDbSpline
210
0.0
220
0.0
230
1.0
 70
    11
 71
     3
 72
    17
 73
    13
 74
     0
 42
0.0000000001
 43
0.0000000001
 12
1.0
 22
0.0
 32
0.0
 13
1.0
 23
0.0
 33
0.0
 40
0.0
 40
0.0
 40
0.0
 40
0.0
 40
1.0
 40
1.0
 40
1.0
 40
2.0
 40
2.0
 40
2.0
 40
3.0
 40
3.0
 40
3.0
 40
4.0
 40
4.0
 40
4.0
 40
4.0
 10
107.0739089349837
 20
-152.1381682952986
 30
0.0
 10
107.0739089349837
 20
-152.1574652397384
 30
0.0
 10
107.0580692131656
 20
-152.1733049619569
 30
0.0
 10
107.0387749732401
 20
-152.1733049619569
 30
0.0
 10
107.0194753252613
 20
-152.1733049619569
 30
0.0
 10
107.0036356034432
 20
-152.1574652397384
 30
0.0
 10
107.0036356034432
 20
-152.1381682952986
 30
0.0
 10
107.0036356034432
 20
-152.1182010730814
 30
0.0
 10
107.0194753252613
 20
-152.1023613508635
 30
0.0
 10
107.0387749732401
 20
-152.1023613508635
 30
0.0
 10
107.0580692131656
 20
-152.1023613508635
 30
0.0
 10
107.0739089349837
 20
-152.1182010730814
 30
0.0
 10
107.0739089349837
 20
-152.1381682952986
 30
0.0
  0
SPLINE
  5
10C
330
1F
100
AcDbEntity
  8
_U+30EC_U+30A4_U+30E4_U+30FC 1
 62
   179
420
  2234388
370
     5
100
AcDbSpline
210
0.0
220
0.0
230
1.0
 70
    11
 71
     3
 72
    17
 73
    13
 74
     0
 42
0.0000000001
 43
0.0000000001
 12
1.0
 22
0.0
 32
0.0
 13
1.0
 23
0.0
 33
0.0
 40
0.0
 40
0.0
 40
0.0
 40
0.0
 40
1.0
 40
1.0
 40
1.0
 40
2.0
 40
2.0
 40
2.0
 40
3.0
 40
3.0
 40
3.0
 40
4.0
 40
4.0
 40
4.0
 40
4.0
 10
107.0739089349837
 20
-103.1378994186601
 30
0.0
 10
107.0739089349837
 20
-103.1571963630996
 30
0.0
 10
107.0580692131656
 20
-103.1730360853178
 30
0.0
 10
107.0387749732401
 20
-103.1730360853178
 30
0.0
 10
107.0194753252613
 20
-103.1730360853178
 30
0.0
 10
107.0036356034432
 20
-103.1571963630996
 30
0.0
 10
107.0036356034432
 20
-103.1378994186601
 30
0.0
 10
107.0036356034432
 20
-103.1186024742202
 30
0.0
 10
107.0194753252613
 20
-103.102762752002
 30
0.0
 10
107.0387749732401
 20
-103.102762752002
 30
0.0
 10
107.0580692131656
 20
-103.102762752002
 30
0.0
 10
107.0739089349837
 20
-103.1186024742202
 30
0.0
 10
107.0739089349837
 20
-103.1378994186601
 30
0.0
  0
POLYLINE
  5
10D
330
1F
100
AcDbEntity
  8
_U+30EC_U+30A4_U+30E4_U+30FC 1
 62
   179
420
  2234388
370
     9
100
AcDb2dPolyline
 66
     1
 10
0.0
 20
0.0
 30
0.0
  0
VERTEX
  5
10E
330
10D
100
AcDbEntity
  8
_U+30EC_U+30A4_U+30E4_U+30FC 1
 62
   179
420
  2234388
370
     9
100
AcDbVertex
100
AcDb2dVertex
 10
111.0388841116065
 20
-152.1381682952986
 30
0.0
  0
VERTEX
  5
10F
330
10D
100
AcDbEntity
  8
_U+30EC_U+30A4_U+30E4_U+30FC 1
 62
   179
420
  2234388
370
     9
100
AcDbVertex
100
AcDb2dVertex
 10
111.0388841116065
 20
-153.3074502394508
 30
0.0
  0
SEQEND
  5
110
330
10D
100
AcDbEntity
  8
_U+30EC_U+30A4_U+30E4_U+30FC 1
 62
   179
420
  2234388
370
     9
  0
POLYLINE
  5
111
330
1F
100
AcDbEntity
  8
_U+30EC_U+30A4_U+30E4_U+30FC 1
 62
   179
420
  2234388
370
     9
100
AcDb2dPolyline
 66
     1
 10
0.0
 20
0.0
 30
0.0
  0
VERTEX
  5
112
330
111
100
AcDbEntity
  8
_U+30EC_U+30A4_U+30E4_U+30FC 1
 62
   179
420
  2234388
370
     9
100
AcDbVertex
100
AcDb2dVertex
 10
111.0388841116065
 20
-152.1381682952986
 30
0.0
  0
VERTEX
  5
113
330
111
100
AcDbEntity
  8
_U+30EC_U+30A4_U+30E4_U+30FC 1
 62
   179
420
  2234388
370
     9
100
AcDbVertex
100
AcDb2dVertex
 10
111.0388841116065
 20
-150.1379535735768
 30
0.0
  0
SEQEND
  5
114
330
111
100
AcDbEntity
  8
_U+30EC_U+30A4_U+30E4_U+30FC 1
 62
   179
420
  2234388
370
     9
  0
POLYLINE
  5
115
330
1F
100
AcDbEntity
  8
_U+30EC_U+30A4_U+30E4_U+30FC 1
 62
   179
420
  2234388
370
     9
100
AcDb2dPolyline
 66
     1
 10
0.0
 20
0.0
 30
0.0
  0
VERTEX
  5
116
330
115
100
AcDbEntity
  8
_U+30EC_U+30A4_U+30E4_U+30FC 1
 62
   179
420
  2234388
370
     9
100
AcDbVertex
100
AcDb2dVertex
 10
109.5788427599664
 20
-152.1381682952986
 30
0.0
  0
VERTEX
  5
117
330
115
100
AcDbEntity
  8
_U+30EC_U+30A4_U+30E4_U+30FC 1
 62
   179
420
  2234388
370
     9
100
AcDbVertex
100
AcDb2dVertex
 10
112.0389738083143
 20
-152.1381682952986
 30
0.0
  0
SEQEND
  5
118
330
115
100
AcDbEntity
  8
_U+30EC_U+30A4_U+30E4_U+30FC 1
 62
   179
420
  2234388
370
     9
  0
POLYLINE
  5
119
330
1F
100
AcDbEntity
  8
_U+30EC_U+30A4_U+30E4_U+30FC 1
 62
   179
420
  2234388
370
     9
100
AcDb2dPolyline
 66
     1
 10
0.0
 20
0.0
 30
0.0
  0
VERTEX
  5
11A
330
119
100
AcDbEntity
  8
_U+30EC_U+30A4_U+30E4_U+30FC 1
 62
   179
420
  2234388
370
     9
100
AcDbVertex
100
AcDb2dVertex
 10
106.578855892058
 20
-150.1379535735768
 30
0.0
  0
VERTEX
  5
11B
330
119
100
AcDbEntity
  8
_U+30EC_U+30A4_U+30E4_U+30FC 1
 62
   179
420
  2234388
370
     9
100
AcDbVertex
100
AcDb2dVertex
 10
112.0389738083143
 20
-150.1379535735768
 30
0.0
  0
SEQEND
  5
11C
330
119
100
AcDbEntity
  8
_U+30EC_U+30A4_U+30E4_U+30FC 1
 62
   179
420
  2234388
370
     9
  0
INSERT
  5
11E
330
1F
100
AcDbEntity
  8
_U+30EC_U+30A4_U+30E4_U+30FC 1
100
AcDbBlockReference
  2
block 5
 10
0.0
 20
0.0
 30
0.0
  0
SPLINE
  5
123
330
1F
100
AcDbEntity
  8
_U+30EC_U+30A4_U+30E4_U+30FC 1
 62
   179
420
  2234388
370
     5
100
AcDbSpline
210
0.0
220
0.0
230
1.0
 70
    11
 71
     3
 72
    17
 73
    13
 74
     0
 42
0.0000000001
 43
0.0000000001
 12
1.0
 22
0.0
 32
0.0
 13
1.0
 23
0.0
 33
0.0
 40
0.0
 40
0.0
 40
0.0
 40
0.0
 40
1.0
 40
1.0
 40
1.0
 40
2.0
 40
2.0
 40
2.0
 40
3.0
 40
3.0
 40
3.0
 40
4.0
 40
4.0
 40
4.0
 40
4.0
 10
107.0739089349837
 20
-152.1381682952986
 30
0.0
 10
107.0739089349837
 20
-152.1574652397384
 30
0.0
 10
107.0580692131656
 20
-152.1733049619569
 30
0.0
 10
107.0387749732401
 20
-152.1733049619569
 30
0.0
 10
107.0194753252613
 20
-152.1733049619569
 30
0.0
 10
107.0036356034432
 20
-152.1574652397384
 30
0.0
 10
107.0036356034432
 20
-152.1381682952986
 30
0.0
 10
107.0036356034432
 20
-152.1182010730814
 30
0.0
 10
107.0194753252613
 20
-152.1023613508635
 30
0.0
 10
107.0387749732401
 20
-152.1023613508635
 30
0.0
 10
107.0580692131656
 20
-152.1023613508635
 30
0.0
 10
107.0739089349837
 20
-152.1182010730814
 30
0.0
 10
107.0739089349837
 20
-152.1381682952986
 30
0.0
  0
SPLINE
  5
124
330
1F
100
AcDbEntity
  8
_U+30EC_U+30A4_U+30E4_U+30FC 1
 62
   179
420
  2234388
370
    25
100
AcDbSpline
210
0.0
220
0.0
230
1.0
 70
    11
 71
     3
 72
    17
 73
    13
 74
     0
 42
0.0000000001
 43
0.0000000001
 12
1.0
 22
0.0
 32
0.0
 13
1.0
 23
0.0
 33
0.0
 40
0.0
 40
0.0
 40
0.0
 40
0.0
 40
1.0
 40
1.0
 40
1.0
 40
2.0
 40
2.0
 40
2.0
 40
3.0
 40
3.0
 40
3.0
 40
4.0
 40
4.0
 40
4.0
 40
4.0
 10
104.0739220670753
 20
-150.1379535735768
 30
0.0
 10
104.0739220670753
 20
-150.157250518016
 30
0.0
 10
104.0580823452571
 20
-150.1730902402345
 30
0.0
 10
104.038785401305
 20
-150.1730902402345
 30
0.0
 10
104.0194884573529
 20
-150.1730902402345
 30
0.0
 10
104.0036487355348
 20
-150.157250518016
 30
0.0
 10
104.0036487355348
 20
-150.1379535735768
 30
0.0
 10
104.0036487355348
 20
-150.118656629137
 30
0.0
 10
104.0194884573529
 20
-150.1028169069191
 30
0.0
 10
104.038785401305
 20
-150.1028169069191
 30
0.0
 10
104.0580823452571
 20
-150.1028169069191
 30
0.0
 10
104.0739220670753
 20
-150.118656629137
 30
0.0
 10
104.0739220670753
 20
-150.1379535735768
 30
0.0
  0
SPLINE
  5
125
330
1F
100
AcDbEntity
  8
_U+30EC_U+30A4_U+30E4_U+30FC 1
 62
   179
420
  2234388
370
     9
100
AcDbSpline
210
0.0
220
0.0
230
1.0
 70
    11
 71
     3
 72
    17
 73
    13
 74
     0
 42
0.0000000001
 43
0.0000000001
 12
1.0
 22
0.0
 32
0.0
 13
1.0
 23
0.0
 33
0.0
 40
0.0
 40
0.0
 40
0.0
 40
0.0
 40
1.0
 40
1.0
 40
1.0
 40
2.0
 40
2.0
 40
2.0
 40
3.0
 40
3.0
 40
3.0
 40
4.0
 40
4.0
 40
4.0
 40
4.0
 10
111.0740207773768
 20
-150.1379535735768
 30
0.0
 10
111.0740207773768
 20
-150.157250518016
 30
0.0
 10
111.0584985555505
 20
-150.1730902402345
 30
0.0
 10
111.0388841116065
 20
-150.1730902402345
 30
0.0
 10
111.0192343898856
 20
-150.1730902402345
 30
0.0
 10
111.0033946680675
 20
-150.157250518016
 30
0.0
 10
111.0033946680675
 20
-150.1379535735768
 30
0.0
 10
111.0033946680675
 20
-150.118656629137
 30
0.0
 10
111.0192343898856
 20
-150.1028169069191
 30
0.0
 10
111.0388841116065
 20
-150.1028169069191
 30
0.0
 10
111.0584985555505
 20
-150.1028169069191
 30
0.0
 10
111.0740207773768
 20
-150.118656629137
 30
0.0
 10
111.0740207773768
 20
-150.1379535735768
 30
0.0
  0
POLYLINE
  5
126
330
1F
100
AcDbEntity
  8
_U+30EC_U+30A4_U+30E4_U+30FC 1
 62
   179
420
  2234388
370
     9
100
AcDb2dPolyline
 66
     1
 10
0.0
 20
0.0
 30
0.0
  0
VERTEX
  5
127
330
126
100
AcDbEntity
  8
_U+30EC_U+30A4_U+30E4_U+30FC 1
 62
   179
420
  2234388
370
     9
100
AcDbVertex
100
AcDb2dVertex
 10
111.0388841116065
 20
-149.1381813516043
 30
0.0
  0
VERTEX
  5
128
330
126
100
AcDbEntity
  8
_U+30EC_U+30A4_U+30E4_U+30FC 1
 62
   179
420
  2234388
370
     9
100
AcDbVertex
100
AcDb2dVertex
 10
111.0388841116065
 20
-147.2571702409633
 30
0.0
  0
SEQEND
  5
129
330
126
100
AcDbEntity
  8
_U+30EC_U+30A4_U+30E4_U+30FC 1
 62
   179
420
  2234388
370
     9
  0
POLYLINE
  5
12A
330
1F
100
AcDbEntity
  8
_U+30EC_U+30A4_U+30E4_U+30FC 1
 62
   179
420
  2234388
370
     9
100
AcDb2dPolyline
 66
     1
 10
0.0
 20
0.0
 30
0.0
  0
VERTEX
  5
12B
330
12A
100
AcDbEntity
  8
_U+30EC_U+30A4_U+30E4_U+30FC 1
 62
   179
420
  2234388
370
     9
100
AcDbVertex
100
AcDb2dVertex
 10
111.0388841116065
 20
-149.1381813516043
 30
0.0
  0
VERTEX
  5
12C
330
12A
100
AcDbEntity
  8
_U+30EC_U+30A4_U+30E4_U+30FC 1
 62
   179
420
  2234388
370
     9
100
AcDbVertex
100
AcDb2dVertex
 10
111.0388841116065
 20
-150.1379535735768
 30
0.0
  0
SEQEND
  5
12D
330
12A
100
AcDbEntity
  8
_U+30EC_U+30A4_U+30E4_U+30FC 1
 62
   179
420
  2234388
370
     9
  0
POLYLINE
  5
12E
330
1F
100
AcDbEntity
  8
_U+30EC_U+30A4_U+30E4_U+30FC 1
 62
   179
420
  2234388
370
     9
100
AcDb2dPolyline
 66
     1
 10
0.0
 20
0.0
 30
0.0
  0
VERTEX
  5
12F
330
12E
100
AcDbEntity
  8
_U+30EC_U+30A4_U+30E4_U+30FC 1
 62
   179
420
  2234388
370
     9
100
AcDbVertex
100
AcDb2dVertex
 10
106.578855892058
 20
-149.1381813516043
 30
0.0
  0
VERTEX
  5
130
330
12E
100
AcDbEntity
  8
_U+30EC_U+30A4_U+30E4_U+30FC 1
 62
   179
420
  2234388
370
     9
100
AcDbVertex
100
AcDb2dVertex
 10
112.0389738083143
 20
-149.1381813516043
 30
0.0
  0
SEQEND
  5
131
330
12E
100
AcDbEntity
  8
_U+30EC_U+30A4_U+30E4_U+30FC 1
 62
   179
420
  2234388
370
     9
  0
INSERT
  5
133
330
1F
100
AcDbEntity
  8
_U+30EC_U+30A4_U+30E4_U+30FC 1
100
AcDbBlockReference
  2
block 6
 10
0.0
 20
0.0
 30
0.0
  0
SPLINE
  5
138
330
1F
100
AcDbEntity
  8
_U+30EC_U+30A4_U+30E4_U+30FC 1
 62
   179
420
  2234388
370
    25
100
AcDbSpline
210
0.0
220
0.0
230
1.0
 70
    11
 71
     3
 72
    17
 73
    13
 74
     0
 42
0.0000000001
 43
0.0000000001
 12
1.0
 22
0.0
 32
0.0
 13
1.0
 23
0.0
 33
0.0
 40
0.0
 40
0.0
 40
0.0
 40
0.0
 40
1.0
 40
1.0
 40
1.0
 40
2.0
 40
2.0
 40
2.0
 40
3.0
 40
3.0
 40
3.0
 40
4.0
 40
4.0
 40
4.0
 40
4.0
 10
104.0739220670753
 20
-149.1381813516043
 30
0.0
 10
104.0739220670753
 20
-149.1574782960441
 30
0.0
 10
104.0580823452571
 20
-149.173318018262
 30
0.0
 10
104.038785401305
 20
-149.173318018262
 30
0.0
 10
104.0194884573529
 20
-149.173318018262
 30
0.0
 10
104.0036487355348
 20
-149.1574782960441
 30
0.0
 10
104.0036487355348
 20
-149.1381813516043
 30
0.0
 10
104.0036487355348
 20
-149.118214129387
 30
0.0
 10
104.0194884573529
 20
-149.102339129391
 30
0.0
 10
104.038785401305
 20
-149.102339129391
 30
0.0
 10
104.0580823452571
 20
-149.102339129391
 30
0.0
 10
104.0739220670753
 20
-149.118214129387
 30
0.0
 10
104.0739220670753
 20
-149.1381813516043
 30
0.0
  0
SPLINE
  5
139
330
1F
100
AcDbEntity
  8
_U+30EC_U+30A4_U+30E4_U+30FC 1
 62
   179
420
  2234388
370
    25
100
AcDbSpline
210
0.0
220
0.0
230
1.0
 70
    11
 71
     3
 72
    17
 73
    13
 74
     0
 42
0.0000000001
 43
0.0000000001
 12
1.0
 22
0.0
 32
0.0
 13
1.0
 23
0.0
 33
0.0
 40
0.0
 40
0.0
 40
0.0
 40
0.0
 40
1.0
 40
1.0
 40
1.0
 40
2.0
 40
2.0
 40
2.0
 40
3.0
 40
3.0
 40
3.0
 40
4.0
 40
4.0
 40
4.0
 40
4.0
 10
104.0739220670753
 20
-150.1379535735768
 30
0.0
 10
104.0739220670753
 20
-150.157250518016
 30
0.0
 10
104.0580823452571
 20
-150.1730902402345
 30
0.0
 10
104.038785401305
 20
-150.1730902402345
 30
0.0
 10
104.0194884573529
 20
-150.1730902402345
 30
0.0
 10
104.0036487355348
 20
-150.157250518016
 30
0.0
 10
104.0036487355348
 20
-150.1379535735768
 30
0.0
 10
104.0036487355348
 20
-150.118656629137
 30
0.0
 10
104.0194884573529
 20
-150.1028169069191
 30
0.0
 10
104.038785401305
 20
-150.1028169069191
 30
0.0
 10
104.0580823452571
 20
-150.1028169069191
 30
0.0
 10
104.0739220670753
 20
-150.118656629137
 30
0.0
 10
104.0739220670753
 20
-150.1379535735768
 30
0.0
  0
SPLINE
  5
13A
330
1F
100
AcDbEntity
  8
_U+30EC_U+30A4_U+30E4_U+30FC 1
 62
   179
420
  2234388
370
     9
100
AcDbSpline
210
0.0
220
0.0
230
1.0
 70
    11
 71
     3
 72
    17
 73
    13
 74
     0
 42
0.0000000001
 43
0.0000000001
 12
1.0
 22
0.0
 32
0.0
 13
1.0
 23
0.0
 33
0.0
 40
0.0
 40
0.0
 40
0.0
 40
0.0
 40
1.0
 40
1.0
 40
1.0
 40
2.0
 40
2.0
 40
2.0
 40
3.0
 40
3.0
 40
3.0
 40
4.0
 40
4.0
 40
4.0
 40
4.0
 10
111.0740207773768
 20
-150.1379535735768
 30
0.0
 10
111.0740207773768
 20
-150.157250518016
 30
0.0
 10
111.0584985555505
 20
-150.1730902402345
 30
0.0
 10
111.0388841116065
 20
-150.1730902402345
 30
0.0
 10
111.0192343898856
 20
-150.1730902402345
 30
0.0
 10
111.0033946680675
 20
-150.157250518016
 30
0.0
 10
111.0033946680675
 20
-150.1379535735768
 30
0.0
 10
111.0033946680675
 20
-150.118656629137
 30
0.0
 10
111.0192343898856
 20
-150.1028169069191
 30
0.0
 10
111.0388841116065
 20
-150.1028169069191
 30
0.0
 10
111.0584985555505
 20
-150.1028169069191
 30
0.0
 10
111.0740207773768
 20
-150.118656629137
 30
0.0
 10
111.0740207773768
 20
-150.1379535735768
 30
0.0
  0
POLYLINE
  5
13B
330
1F
100
AcDbEntity
  8
_U+30EC_U+30A4_U+30E4_U+30FC 1
 62
   179
420
  2234388
370
     9
100
AcDb2dPolyline
 66
     1
 10
0.0
 20
0.0
 30
0.0
  0
VERTEX
  5
13C
330
13B
100
AcDbEntity
  8
_U+30EC_U+30A4_U+30E4_U+30FC 1
 62
   179
420
  2234388
370
     9
100
AcDbVertex
100
AcDb2dVertex
 10
77.0388683123525
 20
-152.1381682952986
 30
0.0
  0
VERTEX
  5
13D
330
13B
100
AcDbEntity
  8
_U+30EC_U+30A4_U+30E4_U+30FC 1
 62
   179
420
  2234388
370
     9
100
AcDbVertex
100
AcDb2dVertex
 10
77.0388683123525
 20
-140.1382205205212
 30
0.0
  0
SEQEND
  5
13E
330
13B
100
AcDbEntity
  8
_U+30EC_U+30A4_U+30E4_U+30FC 1
 62
   179
420
  2234388
370
     9
  0
POLYLINE
  5
13F
330
1F
100
AcDbEntity
  8
_U+30EC_U+30A4_U+30E4_U+30FC 1
 62
   179
420
  2234388
370
     9
100
AcDb2dPolyline
 66
     1
 10
0.0
 20
0.0
 30
0.0
  0
VERTEX
  5
140
330
13F
100
AcDbEntity
  8
_U+30EC_U+30A4_U+30E4_U+30FC 1
 62
   179
420
  2234388
370
     9
100
AcDbVertex
100
AcDb2dVertex
 10
79.49868186070854
 20
-152.1381682952986
 30
0.0
  0
VERTEX
  5
141
330
13F
100
AcDbEntity
  8
_U+30EC_U+30A4_U+30E4_U+30FC 1
 62
   179
420
  2234388
370
     9
100
AcDbVertex
100
AcDb2dVertex
 10
76.03878053654574
 20
-152.1381682952986
 30
0.0
  0
SEQEND
  5
142
330
13F
100
AcDbEntity
  8
_U+30EC_U+30A4_U+30E4_U+30FC 1
 62
   179
420
  2234388
370
     9
  0
POLYLINE
  5
143
330
1F
100
AcDbEntity
  8
_U+30EC_U+30A4_U+30E4_U+30FC 1
 62
   179
420
  2234388
370
     9
100
AcDb2dPolyline
 66
     1
 10
0.0
 20
0.0
 30
0.0
  0
VERTEX
  5
144
330
143
100
AcDbEntity
  8
_U+30EC_U+30A4_U+30E4_U+30FC 1
 62
   179
420
  2234388
370
     9
100
AcDbVertex
100
AcDb2dVertex
 10
78.49890966399263
 20
-140.1382205205212
 30
0.0
  0
VERTEX
  5
145
330
143
100
AcDbEntity
  8
_U+30EC_U+30A4_U+30E4_U+30FC 1
 62
   179
420
  2234388
370
     9
100
AcDbVertex
100
AcDb2dVertex
 10
76.03878053654574
 20
-140.1382205205212
 30
0.0
  0
SEQEND
  5
146
330
143
100
AcDbEntity
  8
_U+30EC_U+30A4_U+30E4_U+30FC 1
 62
   179
420
  2234388
370
     9
  0
INSERT
  5
148
330
1F
100
AcDbEntity
  8
_U+30EC_U+30A4_U+30E4_U+30FC 1
100
AcDbBlockReference
  2
block 7
 10
0.0
 20
0.0
 30
0.0
  0
SPLINE
  5
14F
330
1F
100
AcDbEntity
  8
_U+30EC_U+30A4_U+30E4_U+30FC 1
 62
   179
420
  2234388
370
    25
100
AcDbSpline
210
0.0
220
0.0
230
1.0
 70
    11
 71
     3
 72
    17
 73
    13
 74
     0
 42
0.0000000001
 43
0.0000000001
 12
1.0
 22
0.0
 32
0.0
 13
1.0
 23
0.0
 33
0.0
 40
0.0
 40
0.0
 40
0.0
 40
0.0
 40
1.0
 40
1.0
 40
1.0
 40
2.0
 40
2.0
 40
2.0
 40
3.0
 40
3.0
 40
3.0
 40
4.0
 40
4.0
 40
4.0
 40
4.0
 10
82.07424179500053
 20
-152.1381682952986
 30
0.0
 10
82.07424179500053
 20
-152.1574652397384
 30
0.0
 10
82.05836679540555
 20
-152.1733049619569
 30
0.0
 10
82.0387523514615
 20
-152.1733049619569
 30
0.0
 10
82.01910262974059
 20
-152.1733049619569
 30
0.0
 10
82.00326290792248
 20
-152.1574652397384
 30
0.0
 10
82.00326290792248
 20
-152.1381682952986
 30
0.0
 10
82.00326290792248
 20
-152.1182010730814
 30
0.0
 10
82.01910262974059
 20
-152.1023613508635
 30
0.0
 10
82.0387523514615
 20
-152.1023613508635
 30
0.0
 10
82.05836679540555
 20
-152.1023613508635
 30
0.0
 10
82.07424179500053
 20
-152.1182010730814
 30
0.0
 10
82.07424179500053
 20
-152.1381682952986
 30
0.0
  0
SPLINE
  5
150
330
1F
100
AcDbEntity
  8
_U+30EC_U+30A4_U+30E4_U+30FC 1
 62
   179
420
  2234388
370
    25
100
AcDbSpline
210
0.0
220
0.0
230
1.0
 70
    11
 71
     3
 72
    17
 73
    13
 74
     0
 42
0.0000000001
 43
0.0000000001
 12
1.0
 22
0.0
 32
0.0
 13
1.0
 23
0.0
 33
0.0
 40
0.0
 40
0.0
 40
0.0
 40
0.0
 40
1.0
 40
1.0
 40
1.0
 40
2.0
 40
2.0
 40
2.0
 40
3.0
 40
3.0
 40
3.0
 40
4.0
 40
4.0
 40
4.0
 40
4.0
 10
81.07411682051585
 20
-140.1382205205212
 30
0.0
 10
81.07411682051585
 20
-140.1575174649604
 30
0.0
 10
81.05827709869773
 20
-140.1733571871789
 30
0.0
 10
81.03862737697682
 20
-140.1733571871789
 30
0.0
 10
81.01933043302468
 20
-140.1733571871789
 30
0.0
 10
81.00349071120657
 20
-140.1575174649604
 30
0.0
 10
81.00349071120657
 20
-140.1382205205212
 30
0.0
 10
81.00349071120657
 20
-140.1182180205259
 30
0.0
 10
81.01933043302468
 20
-140.102378298308
 30
0.0
 10
81.03862737697682
 20
-140.102378298308
 30
0.0
 10
81.05827709869773
 20
-140.102378298308
 30
0.0
 10
81.07411682051585
 20
-140.1182180205259
 30
0.0
 10
81.07411682051585
 20
-140.1382205205212
 30
0.0
  0
SPLINE
  5
151
330
1F
100
AcDbEntity
  8
_U+30EC_U+30A4_U+30E4_U+30FC 1
 62
   179
420
  2234388
370
     9
100
AcDbSpline
210
0.0
220
0.0
230
1.0
 70
    11
 71
     3
 72
    17
 73
    13
 74
     0
 42
0.0000000001
 43
0.0000000001
 12
1.0
 22
0.0
 32
0.0
 13
1.0
 23
0.0
 33
0.0
 40
0.0
 40
0.0
 40
0.0
 40
0.0
 40
1.0
 40
1.0
 40
1.0
 40
2.0
 40
2.0
 40
2.0
 40
3.0
 40
3.0
 40
3.0
 40
4.0
 40
4.0
 40
4.0
 40
4.0
 10
77.07400497812276
 20
-140.1382205205212
 30
0.0
 10
77.07400497812276
 20
-140.1575174649604
 30
0.0
 10
77.05816525630465
 20
-140.1733571871789
 30
0.0
 10
77.0388683123525
 20
-140.1733571871789
 30
0.0
 10
77.01925386840847
 20
-140.1733571871789
 30
0.0
 10
77.00373164658225
 20
-140.1575174649604
 30
0.0
 10
77.00373164658225
 20
-140.1382205205212
 30
0.0
 10
77.00373164658225
 20
-140.1182180205259
 30
0.0
 10
77.01925386840847
 20
-140.102378298308
 30
0.0
 10
77.0388683123525
 20
-140.102378298308
 30
0.0
 10
77.05816525630465
 20
-140.102378298308
 30
0.0
 10
77.07400497812276
 20
-140.1182180205259
 30
0.0
 10
77.07400497812276
 20
-140.1382205205212
 30
0.0
  0
POLYLINE
  5
152
330
1F
100
AcDbEntity
  8
_U+30EC_U+30A4_U+30E4_U+30FC 1
 62
   179
420
  2234388
370
     9
100
AcDb2dPolyline
 66
     1
 10
0.0
 20
0.0
 30
0.0
  0
VERTEX
  5
153
330
152
100
AcDbEntity
  8
_U+30EC_U+30A4_U+30E4_U+30FC 1
 62
   179
420
  2234388
370
     9
100
AcDbVertex
100
AcDb2dVertex
 10
73.0387917477363
 20
-152.1381682952986
 30
0.0
  0
VERTEX
  5
154
330
152
100
AcDbEntity
  8
_U+30EC_U+30A4_U+30E4_U+30FC 1
 62
   179
420
  2234388
370
     9
100
AcDbVertex
100
AcDb2dVertex
 10
73.0387917477363
 20
-107.1376585843266
 30
0.0
  0
SEQEND
  5
155
330
152
100
AcDbEntity
  8
_U+30EC_U+30A4_U+30E4_U+30FC 1
 62
   179
420
  2234388
370
     9
  0
POLYLINE
  5
156
330
1F
100
AcDbEntity
  8
_U+30EC_U+30A4_U+30E4_U+30FC 1
 62
   179
420
  2234388
370
     9
100
AcDb2dPolyline
 66
     1
 10
0.0
 20
0.0
 30
0.0
  0
VERTEX
  5
157
330
156
100
AcDbEntity
  8
_U+30EC_U+30A4_U+30E4_U+30FC 1
 62
   179
420
  2234388
370
     9
100
AcDbVertex
100
AcDb2dVertex
 10
79.49868186070854
 20
-152.1381682952986
 30
0.0
  0
VERTEX
  5
158
330
156
100
AcDbEntity
  8
_U+30EC_U+30A4_U+30E4_U+30FC 1
 62
   179
420
  2234388
370
     9
100
AcDbVertex
100
AcDb2dVertex
 10
72.0386667732516
 20
-152.1381682952986
 30
0.0
  0
SEQEND
  5
159
330
156
100
AcDbEntity
  8
_U+30EC_U+30A4_U+30E4_U+30FC 1
 62
   179
420
  2234388
370
     9
  0
POLYLINE
  5
15A
330
1F
100
AcDbEntity
  8
_U+30EC_U+30A4_U+30E4_U+30FC 1
 62
   179
420
  2234388
370
     9
100
AcDb2dPolyline
 66
     1
 10
0.0
 20
0.0
 30
0.0
  0
VERTEX
  5
15B
330
15A
100
AcDbEntity
  8
_U+30EC_U+30A4_U+30E4_U+30FC 1
 62
   179
420
  2234388
370
     9
100
AcDbVertex
100
AcDb2dVertex
 10
93.9987301018926
 20
-107.1376585843266
 30
0.0
  0
VERTEX
  5
15C
330
15A
100
AcDbEntity
  8
_U+30EC_U+30A4_U+30E4_U+30FC 1
 62
   179
420
  2234388
370
     9
100
AcDbVertex
100
AcDb2dVertex
 10
72.0386667732516
 20
-107.1376585843266
 30
0.0
  0
SEQEND
  5
15D
330
15A
100
AcDbEntity
  8
_U+30EC_U+30A4_U+30E4_U+30FC 1
 62
   179
420
  2234388
370
     9
  0
SPLINE
  5
15E
330
1F
100
AcDbEntity
  8
_U+30EC_U+30A4_U+30E4_U+30FC 1
 62
   179
420
  2234388
370
    25
100
AcDbSpline
210
0.0
220
0.0
230
1.0
 70
    11
 71
     3
 72
    17
 73
    13
 74
     0
 42
0.0000000001
 43
0.0000000001
 12
1.0
 22
0.0
 32
0.0
 13
1.0
 23
0.0
 33
0.0
 40
0.0
 40
0.0
 40
0.0
 40
0.0
 40
1.0
 40
1.0
 40
1.0
 40
2.0
 40
2.0
 40
2.0
 40
3.0
 40
3.0
 40
3.0
 40
4.0
 40
4.0
 40
4.0
 40
4.0
 10
82.07424179500053
 20
-152.1381682952986
 30
0.0
 10
82.07424179500053
 20
-152.1574652397384
 30
0.0
 10
82.05836679540555
 20
-152.1733049619569
 30
0.0
 10
82.0387523514615
 20
-152.1733049619569
 30
0.0
 10
82.01910262974059
 20
-152.1733049619569
 30
0.0
 10
82.00326290792248
 20
-152.1574652397384
 30
0.0
 10
82.00326290792248
 20
-152.1381682952986
 30
0.0
 10
82.00326290792248
 20
-152.1182010730814
 30
0.0
 10
82.01910262974059
 20
-152.1023613508635
 30
0.0
 10
82.0387523514615
 20
-152.1023613508635
 30
0.0
 10
82.05836679540555
 20
-152.1023613508635
 30
0.0
 10
82.07424179500053
 20
-152.1182010730814
 30
0.0
 10
82.07424179500053
 20
-152.1381682952986
 30
0.0
  0
SPLINE
  5
15F
330
1F
100
AcDbEntity
  8
_U+30EC_U+30A4_U+30E4_U+30FC 1
 62
   179
420
  2234388
370
    25
100
AcDbSpline
210
0.0
220
0.0
230
1.0
 70
    11
 71
     3
 72
    17
 73
    13
 74
     0
 42
0.0000000001
 43
0.0000000001
 12
1.0
 22
0.0
 32
0.0
 13
1.0
 23
0.0
 33
0.0
 40
0.0
 40
0.0
 40
0.0
 40
0.0
 40
1.0
 40
1.0
 40
1.0
 40
2.0
 40
2.0
 40
2.0
 40
3.0
 40
3.0
 40
3.0
 40
4.0
 40
4.0
 40
4.0
 40
4.0
 10
96.57393725841582
 20
-107.1376585843266
 30
0.0
 10
96.57393725841582
 20
-107.1576258065438
 30
0.0
 10
96.55809997586067
 20
-107.1734655287624
 30
0.0
 10
96.53880059264557
 20
-107.1734655287624
 30
0.0
 10
96.51950364869343
 20
-107.1734655287624
 30
0.0
 10
96.5036639268753
 20
-107.1576258065438
 30
0.0
 10
96.5036639268753
 20
-107.1376585843266
 30
0.0
 10
96.5036639268753
 20
-107.1183616398871
 30
0.0
 10
96.51950364869343
 20
-107.1025219176689
 30
0.0
 10
96.53880059264557
 20
-107.1025219176689
 30
0.0
 10
96.55809997586067
 20
-107.1025219176689
 30
0.0
 10
96.57393725841582
 20
-107.1183616398871
 30
0.0
 10
96.57393725841582
 20
-107.1376585843266
 30
0.0
  0
SPLINE
  5
160
330
1F
100
AcDbEntity
  8
_U+30EC_U+30A4_U+30E4_U+30FC 1
 62
   179
420
  2234388
370
     9
100
AcDbSpline
210
0.0
220
0.0
230
1.0
 70
    11
 71
     3
 72
    17
 73
    13
 74
     0
 42
0.0000000001
 43
0.0000000001
 12
1.0
 22
0.0
 32
0.0
 13
1.0
 23
0.0
 33
0.0
 40
0.0
 40
0.0
 40
0.0
 40
0.0
 40
1.0
 40
1.0
 40
1.0
 40
2.0
 40
2.0
 40
2.0
 40
3.0
 40
3.0
 40
3.0
 40
4.0
 40
4.0
 40
4.0
 40
4.0
 10
73.07424591349844
 20
-107.1376585843266
 30
0.0
 10
73.07424591349844
 20
-107.1576258065438
 30
0.0
 10
73.05840619168033
 20
-107.1734655287624
 30
0.0
 10
73.0387917477363
 20
-107.1734655287624
 30
0.0
 10
73.01914202601537
 20
-107.1734655287624
 30
0.0
 10
73.00330230419726
 20
-107.1576258065438
 30
0.0
 10
73.00330230419726
 20
-107.1376585843266
 30
0.0
 10
73.00330230419726
 20
-107.1183616398871
 30
0.0
 10
73.01914202601537
 20
-107.1025219176689
 30
0.0
 10
73.0387917477363
 20
-107.1025219176689
 30
0.0
 10
73.05840619168033
 20
-107.1025219176689
 30
0.0
 10
73.07424591349844
 20
-107.1183616398871
 30
0.0
 10
73.07424591349844
 20
-107.1376585843266
 30
0.0
  0
POLYLINE
  5
161
330
1F
100
AcDbEntity
  8
_U+30EC_U+30A4_U+30E4_U+30FC 1
 62
   179
420
  2234388
370
     9
100
AcDb2dPolyline
 66
     1
 10
0.0
 20
0.0
 30
0.0
  0
VERTEX
  5
162
330
161
100
AcDbEntity
  8
_U+30EC_U+30A4_U+30E4_U+30FC 1
 62
   179
420
  2234388
370
     9
100
AcDbVertex
100
AcDb2dVertex
 10
82.0387523514615
 20
-156.1379274609655
 30
0.0
  0
VERTEX
  5
163
330
161
100
AcDbEntity
  8
_U+30EC_U+30A4_U+30E4_U+30FC 1
 62
   179
420
  2234388
370
     9
100
AcDbVertex
100
AcDb2dVertex
 10
107.0387749732401
 20
-156.1379274609655
 30
0.0
  0
SEQEND
  5
164
330
161
100
AcDbEntity
  8
_U+30EC_U+30A4_U+30E4_U+30FC 1
 62
   179
420
  2234388
370
     9
  0
POLYLINE
  5
165
330
1F
100
AcDbEntity
  8
_U+30EC_U+30A4_U+30E4_U+30FC 1
 62
   179
420
  2234388
370
     9
100
AcDb2dPolyline
 66
     1
 10
0.0
 20
0.0
 30
0.0
  0
VERTEX
  5
166
330
165
100
AcDbEntity
  8
_U+30EC_U+30A4_U+30E4_U+30FC 1
 62
   179
420
  2234388
370
     9
100
AcDbVertex
100
AcDb2dVertex
 10
82.0387523514615
 20
-154.6778860724418
 30
0.0
  0
VERTEX
  5
167
330
165
100
AcDbEntity
  8
_U+30EC_U+30A4_U+30E4_U+30FC 1
 62
   179
420
  2234388
370
     9
100
AcDbVertex
100
AcDb2dVertex
 10
82.0387523514615
 20
-157.137699682938
 30
0.0
  0
SEQEND
  5
168
330
165
100
AcDbEntity
  8
_U+30EC_U+30A4_U+30E4_U+30FC 1
 62
   179
420
  2234388
370
     9
  0
POLYLINE
  5
169
330
1F
100
AcDbEntity
  8
_U+30EC_U+30A4_U+30E4_U+30FC 1
 62
   179
420
  2234388
370
     9
100
AcDb2dPolyline
 66
     1
 10
0.0
 20
0.0
 30
0.0
  0
VERTEX
  5
16A
330
169
100
AcDbEntity
  8
_U+30EC_U+30A4_U+30E4_U+30FC 1
 62
   179
420
  2234388
370
     9
100
AcDbVertex
100
AcDb2dVertex
 10
107.0387749732401
 20
-154.6778860724418
 30
0.0
  0
VERTEX
  5
16B
330
169
100
AcDbEntity
  8
_U+30EC_U+30A4_U+30E4_U+30FC 1
 62
   179
420
  2234388
370
     9
100
AcDbVertex
100
AcDb2dVertex
 10
107.0387749732401
 20
-157.137699682938
 30
0.0
  0
SEQEND
  5
16C
330
169
100
AcDbEntity
  8
_U+30EC_U+30A4_U+30E4_U+30FC 1
 62
   179
420
  2234388
370
     9
  0
INSERT
  5
16E
330
1F
100
AcDbEntity
  8
_U+30EC_U+30A4_U+30E4_U+30FC 1
100
AcDbBlockReference
  2
block 8
 10
0.0
 20
0.0
 30
0.0
  0
SPLINE
  5
175
330
1F
100
AcDbEntity
  8
_U+30EC_U+30A4_U+30E4_U+30FC 1
 62
   179
420
  2234388
370
    25
100
AcDbSpline
210
0.0
220
0.0
230
1.0
 70
    11
 71
     3
 72
    17
 73
    13
 74
     0
 42
0.0000000001
 43
0.0000000001
 12
1.0
 22
0.0
 32
0.0
 13
1.0
 23
0.0
 33
0.0
 40
0.0
 40
0.0
 40
0.0
 40
0.0
 40
1.0
 40
1.0
 40
1.0
 40
2.0
 40
2.0
 40
2.0
 40
3.0
 40
3.0
 40
3.0
 40
4.0
 40
4.0
 40
4.0
 40
4.0
 10
82.07424179500053
 20
-152.1381682952986
 30
0.0
 10
82.07424179500053
 20
-152.1574652397384
 30
0.0
 10
82.05836679540555
 20
-152.1733049619569
 30
0.0
 10
82.0387523514615
 20
-152.1733049619569
 30
0.0
 10
82.01910262974059
 20
-152.1733049619569
 30
0.0
 10
82.00326290792248
 20
-152.1574652397384
 30
0.0
 10
82.00326290792248
 20
-152.1381682952986
 30
0.0
 10
82.00326290792248
 20
-152.1182010730814
 30
0.0
 10
82.01910262974059
 20
-152.1023613508635
 30
0.0
 10
82.0387523514615
 20
-152.1023613508635
 30
0.0
 10
82.05836679540555
 20
-152.1023613508635
 30
0.0
 10
82.07424179500053
 20
-152.1182010730814
 30
0.0
 10
82.07424179500053
 20
-152.1381682952986
 30
0.0
  0
SPLINE
  5
176
330
1F
100
AcDbEntity
  8
_U+30EC_U+30A4_U+30E4_U+30FC 1
 62
   179
420
  2234388
370
     5
100
AcDbSpline
210
0.0
220
0.0
230
1.0
 70
    11
 71
     3
 72
    17
 73
    13
 74
     0
 42
0.0000000001
 43
0.0000000001
 12
1.0
 22
0.0
 32
0.0
 13
1.0
 23
0.0
 33
0.0
 40
0.0
 40
0.0
 40
0.0
 40
0.0
 40
1.0
 40
1.0
 40
1.0
 40
2.0
 40
2.0
 40
2.0
 40
3.0
 40
3.0
 40
3.0
 40
4.0
 40
4.0
 40
4.0
 40
4.0
 10
107.0739089349837
 20
-152.1381682952986
 30
0.0
 10
107.0739089349837
 20
-152.1574652397384
 30
0.0
 10
107.0580692131656
 20
-152.1733049619569
 30
0.0
 10
107.0387749732401
 20
-152.1733049619569
 30
0.0
 10
107.0194753252613
 20
-152.1733049619569
 30
0.0
 10
107.0036356034432
 20
-152.1574652397384
 30
0.0
 10
107.0036356034432
 20
-152.1381682952986
 30
0.0
 10
107.0036356034432
 20
-152.1182010730814
 30
0.0
 10
107.0194753252613
 20
-152.1023613508635
 30
0.0
 10
107.0387749732401
 20
-152.1023613508635
 30
0.0
 10
107.0580692131656
 20
-152.1023613508635
 30
0.0
 10
107.0739089349837
 20
-152.1182010730814
 30
0.0
 10
107.0739089349837
 20
-152.1381682952986
 30
0.0
  0
SPLINE
  5
177
330
1F
100
AcDbEntity
  8
_U+30EC_U+30A4_U+30E4_U+30FC 1
 62
   179
420
  2234388
370
     9
100
AcDbSpline
210
0.0
220
0.0
230
1.0
 70
    11
 71
     3
 72
    17
 73
    13
 74
     0
 42
0.0000000001
 43
0.0000000001
 12
1.0
 22
0.0
 32
0.0
 13
1.0
 23
0.0
 33
0.0
 40
0.0
 40
0.0
 40
0.0
 40
0.0
 40
1.0
 40
1.0
 40
1.0
 40
2.0
 40
2.0
 40
2.0
 40
3.0
 40
3.0
 40
3.0
 40
4.0
 40
4.0
 40
4.0
 40
4.0
 10
107.0739089349837
 20
-156.1379274609655
 30
0.0
 10
107.0739089349837
 20
-156.1572244054053
 30
0.0
 10
107.0580692131656
 20
-156.1730641276232
 30
0.0
 10
107.0387749732401
 20
-156.1730641276232
 30
0.0
 10
107.0194753252613
 20
-156.1730641276232
 30
0.0
 10
107.0036356034432
 20
-156.1572244054053
 30
0.0
 10
107.0036356034432
 20
-156.1379274609655
 30
0.0
 10
107.0036356034432
 20
-156.1186305165257
 30
0.0
 10
107.0194753252613
 20
-156.1027907943077
 30
0.0
 10
107.0387749732401
 20
-156.1027907943077
 30
0.0
 10
107.0580692131656
 20
-156.1027907943077
 30
0.0
 10
107.0739089349837
 20
-156.1186305165257
 30
0.0
 10
107.0739089349837
 20
-156.1379274609655
 30
0.0
  0
ENDSEC
  0
SECTION
  2
OBJECTS
  0
DICTIONARY
  5
C
330
0
100
AcDbDictionary
281
     1
  3
ACAD_GROUP
350
D
  3
ACAD_LAYOUT
350
1A
  3
ACAD_MATERIAL
350
3B
  3
ACAD_MLEADERSTYLE
350
179
  3
ACAD_MLINESTYLE
350
17
  3
ACAD_PLOTSETTINGS
350
19
  3
ACAD_PLOTSTYLENAME
350
E
  3
ACAD_TABLESTYLE
350
178
  3
ACAD_VISUALSTYLE
350
2A
  0
SUN
  5
3F
330
29
100
AcDbSun
 90
        1
290
     0
 63
     7
421
 16777215
 40
1.0
291
     1
 91
  2455826
 92
 54000000
292
     0
 70
     2
 71
   256
280
     1
  0
DICTIONARY
  5
D
102
{ACAD_REACTORS
330
C
102
}
330
C
100
AcDbDictionary
281
     1
  0
DICTIONARY
  5
1A
102
{ACAD_REACTORS
330
C
102
}
330
C
100
AcDbDictionary
281
     1
  3
Layout1
350
1E
  3
Layout2
350
26
  3
Model
350
22
  0
DICTIONARY
  5
3B
102
{ACAD_REACTORS
330
C
102
}
330
C
100
AcDbDictionary
281
     1
  3
ByBlock
350
3D
  3
ByLayer
350
3C
  3
Global
350
3E
  0
DICTIONARY
  5
179
102
{ACAD_REACTORS
330
C
102
}
330
C
100
AcDbDictionary
281
     1
  0
DICTIONARY
  5
17
102
{ACAD_REACTORS
330
C
102
}
330
C
100
AcDbDictionary
281
     1
  3
Standard
350
18
  0
DICTIONARY
  5
19
102
{ACAD_REACTORS
330
C
102
}
330
C
100
AcDbDictionary
281
     1
  0
ACDBDICTIONARYWDFLT
  5
E
102
{ACAD_REACTORS
330
C
102
}
330
C
100
AcDbDictionary
281
     1
  3
Normal
350
F
100
AcDbDictionaryWithDefault
340
F
  0
DICTIONARY
  5
178
102
{ACAD_REACTORS
330
C
102
}
330
C
100
AcDbDictionary
281
     1
  0
DICTIONARY
  5
2A
102
{ACAD_REACTORS
330
C
102
}
330
C
100
AcDbDictionary
281
     1
  3
2dWireframe
350
2F
  3
3D Hidden
350
31
  3
3dWireframe
350
30
  3
Basic
350
32
  3
Brighten
350
36
  3
ColorChange
350
3A
  3
Conceptual
350
34
  3
Dim
350
35
  3
Facepattern
350
39
  3
Flat
350
2B
  3
FlatWithEdges
350
2C
  3
Gouraud
350
2D
  3
GouraudWithEdges
350
2E
  3
Linepattern
350
38
  3
Realistic
350
33
  3
Thicken
350
37
  0
LAYOUT
  5
1E
102
{ACAD_REACTORS
330
1A
102
}
330
1A
100
AcDbPlotSettings
  1

  2
none_device
  4

  6

 40
0.0
 41
0.0
 42
0.0
 43
0.0
 44
0.0
 45
0.0
 46
0.0
 47
0.0
 48
0.0
 49
0.0
140
0.0
141
0.0
142
1.0
143
1.0
 70
   688
 72
     0
 73
     0
 74
     5
  7

 75
    16
 76
     0
 77
     2
 78
   300
147
1.0
148
0.0
149
0.0
100
AcDbLayout
  1
Layout1
 70
     1
 71
     1
 10
0.0
 20
0.0
 11
12.0
 21
9.0
 12
0.0
 22
0.0
 32
0.0
 14
1.000000000000000E+20
 24
1.000000000000000E+20
 34
1.000000000000000E+20
 15
-1.000000000000000E+20
 25
-1.000000000000000E+20
 35
-1.000000000000000E+20
146
0.0
 13
0.0
 23
0.0
 33
0.0
 16
1.0
 26
0.0
 36
0.0
 17
0.0
 27
1.0
 37
0.0
 76
     0
330
1B
  0
LAYOUT
  5
26
102
{ACAD_REACTORS
330
1A
102
}
330
1A
100
AcDbPlotSettings
  1

  2
none_device
  4

  6

 40
0.0
 41
0.0
 42
0.0
 43
0.0
 44
0.0
 45
0.0
 46
0.0
 47
0.0
 48
0.0
 49
0.0
140
0.0
141
0.0
142
1.0
143
1.0
 70
   688
 72
     0
 73
     0
 74
     5
  7

 75
    16
 76
     0
 77
     2
 78
   300
147
1.0
148
0.0
149
0.0
100
AcDbLayout
  1
Layout2
 70
     1
 71
     2
 10
0.0
 20
0.0
 11
0.0
 21
0.0
 12
0.0
 22
0.0
 32
0.0
 14
0.0
 24
0.0
 34
0.0
 15
0.0
 25
0.0
 35
0.0
146
0.0
 13
0.0
 23
0.0
 33
0.0
 16
1.0
 26
0.0
 36
0.0
 17
0.0
 27
1.0
 37
0.0
 76
     0
330
23
  0
LAYOUT
  5
22
102
{ACAD_REACTORS
330
1A
102
}
330
1A
100
AcDbPlotSettings
  1

  2
none_device
  4

  6

 40
0.0
 41
0.0
 42
0.0
 43
0.0
 44
0.0
 45
0.0
 46
0.0
 47
0.0
 48
0.0
 49
0.0
140
0.0
141
0.0
142
1.0
143
1.0
 70
  1712
 72
     0
 73
     0
 74
     0
  7

 75
     0
 76
     0
 77
     2
 78
   300
147
1.0
148
0.0
149
0.0
100
AcDbLayout
  1
Model
 70
     1
 71
     0
 10
0.0
 20
0.0
 11
12.0
 21
9.0
 12
0.0
 22
0.0
 32
0.0
 14
1.000000000000000E+20
 24
1.000000000000000E+20
 34
1.000000000000000E+20
 15
-1.000000000000000E+20
 25
-1.000000000000000E+20
 35
-1.000000000000000E+20
146
0.0
 13
0.0
 23
0.0
 33
0.0
 16
1.0
 26
0.0
 36
0.0
 17
0.0
 27
1.0
 37
0.0
 76
     0
330
1F
331
29
  0
MATERIAL
  5
3D
102
{ACAD_REACTORS
330
3B
102
}
330
3B
100
AcDbMaterial
  1
ByBlock
 72
     1
 94
      127
  0
MATERIAL
  5
3C
102
{ACAD_REACTORS
330
3B
102
}
330
3B
100
AcDbMaterial
  1
ByLayer
 72
     1
 94
      127
  0
MATERIAL
  5
3E
102
{ACAD_REACTORS
330
3B
102
}
330
3B
100
AcDbMaterial
  1
Global
 72
     1
 94
      127
  0
MLINESTYLE
  5
18
102
{ACAD_REACTORS
330
17
102
}
330
17
100
AcDbMlineStyle
  2
Standard
 70
     0
  3

 62
   256
 51
90.0
 52
90.0
 71
     2
 49
0.5
 62
   256
  6
BYLAYER
 49
-0.5
 62
   256
  6
BYLAYER
  0
ACDBPLACEHOLDER
  5
F
102
{ACAD_REACTORS
330
E
102
}
330
E
  0
VISUALSTYLE
  5
2F
102
{ACAD_REACTORS
330
2A
102
}
330
2A
100
AcDbVisualStyle
  2
2dWireframe
 70
     4
177
     2
291
     0
 71
     0
176
     1
 72
     2
176
     1
 73
     0
176
     1
 90
        0
176
     1
 40
-0.6
176
     1
 41
-30.0
176
     1
 62
     5
 63
     7
421
 16777215
176
     1
 74
     1
176
     1
 91
        4
176
     1
 64
     7
176
     1
 65
   257
176
     1
 75
     1
176
     1
175
     1
176
     1
 42
1.0
176
     1
 92
        0
176
     1
 66
   257
176
     1
 43
1.0
176
     1
 76
     1
176
     1
 77
     6
176
     1
 78
     2
176
     1
 67
     7
176
     1
 79
     5
176
     1
170
     0
176
     1
171
     0
176
     1
290
     0
176
     1
 93
        1
176
     1
 44
0.0
176
     1
173
     0
176
     1
  0
VISUALSTYLE
  5
31
102
{ACAD_REACTORS
330
2A
102
}
330
2A
100
AcDbVisualStyle
  2
3D Hidden
 70
     6
177
     2
291
     0
 71
     1
176
     1
 72
     2
176
     1
 73
     2
176
     1
 90
        0
176
     1
 40
-0.6
176
     1
 41
-30.0
176
     1
 62
     5
 63
     7
421
 16777215
176
     1
 74
     2
176
     1
 91
        2
176
     1
 64
     7
176
     1
 65
   257
176
     1
 75
     2
176
     1
175
     1
176
     1
 42
40.0
176
     1
 92
        0
176
     1
 66
   257
176
     1
 43
1.0
176
     1
 76
     1
176
     1
 77
     6
176
     1
 78
     2
176
     1
 67
     7
176
     1
 79
     3
176
     1
170
     0
176
     1
171
     0
176
     1
290
     0
176
     1
 93
        1
176
     1
 44
0.0
176
     1
173
     0
176
     1
  0
VISUALSTYLE
  5
30
102
{ACAD_REACTORS
330
2A
102
}
330
2A
100
AcDbVisualStyle
  2
3dWireframe
 70
     5
177
     2
291
     0
 71
     0
176
     1
 72
     2
176
     1
 73
     0
176
     1
 90
        0
176
     1
 40
-0.6
176
     1
 41
-30.0
176
     1
 62
     5
 63
     7
421
 16777215
176
     1
 74
     1
176
     1
 91
        4
176
     1
 64
     7
176
     1
 65
   257
176
     1
 75
     1
176
     1
175
     1
176
     1
 42
1.0
176
     1
 92
        0
176
     1
 66
   257
176
     1
 43
1.0
176
     1
 76
     1
176
     1
 77
     6
176
     1
 78
     2
176
     1
 67
     7
176
     1
 79
     5
176
     1
170
     0
176
     1
171
     0
176
     1
290
     0
176
     1
 93
        1
176
     1
 44
0.0
176
     1
173
     0
176
     1
  0
VISUALSTYLE
  5
32
102
{ACAD_REACTORS
330
2A
102
}
330
2A
100
AcDbVisualStyle
  2
Basic
 70
     7
177
     2
291
     1
 71
     1
176
     1
 72
     0
176
     1
 73
     1
176
     1
 90
        0
176
     1
 40
-0.6
176
     1
 41
-30.0
176
     1
 62
     5
 63
     7
421
 16777215
176
     1
 74
     0
176
     1
 91
        4
176
     1
 64
     7
176
     1
 65
   257
176
     1
 75
     1
176
     1
175
     1
176
     1
 42
1.0
176
     1
 92
        8
176
     1
 66
     7
176
     1
 43
1.0
176
     1
 76
     1
176
     1
 77
     6
176
     1
 78
     2
176
     1
 67
     7
176
     1
 79
     5
176
     1
170
     0
176
     1
171
     0
176
     1
290
     0
176
     1
 93
        1
176
     1
 44
0.0
176
     1
173
     0
176
     1
  0
VISUALSTYLE
  5
36
102
{ACAD_REACTORS
330
2A
102
}
330
2A
100
AcDbVisualStyle
  2
Brighten
 70
    12
177
     2
291
     1
 71
     2
176
     1
 72
     2
176
     1
 73
     0
176
     1
 90
        0
176
     1
 40
-0.6
176
     1
 41
-30.0
176
     1
 62
     5
 63
     7
421
 16777215
176
     1
 74
     1
176
     1
 91
        4
176
     1
 64
     7
176
     1
 65
   257
176
     1
 75
     1
176
     1
175
     1
176
     1
 42
1.0
176
     1
 92
        8
176
     1
 66
     7
176
     1
 43
1.0
176
     1
 76
     1
176
     1
 77
     6
176
     1
 78
     2
176
     1
 67
     7
176
     1
 79
     5
176
     1
170
     0
176
     1
171
     0
176
     1
290
     0
176
     1
 93
        1
176
     1
 44
50.0
176
     1
173
     0
176
     1
  0
VISUALSTYLE
  5
3A
102
{ACAD_REACTORS
330
2A
102
}
330
2A
100
AcDbVisualStyle
  2
ColorChange
 70
    16
177
     2
291
     1
 71
     2
176
     1
 72
     2
176
     1
 73
     3
176
     1
 90
        0
176
     1
 40
-0.6
176
     1
 41
-30.0
176
     1
 62
     5
 63
     8
421
  8421504
176
     1
 74
     1
176
     1
 91
        4
176
     1
 64
     7
176
     1
 65
   257
176
     1
 75
     1
176
     1
175
     1
176
     1
 42
1.0
176
     1
 92
        8
176
     1
 66
     8
424
  8421504
176
     1
 43
1.0
176
     1
 76
     1
176
     1
 77
     6
176
     1
 78
     2
176
     1
 67
     7
176
     1
 79
     5
176
     1
170
     0
176
     1
171
     0
176
     1
290
     0
176
     1
 93
        1
176
     1
 44
0.0
176
     1
173
     0
176
     1
  0
VISUALSTYLE
  5
34
102
{ACAD_REACTORS
330
2A
102
}
330
2A
100
AcDbVisualStyle
  2
Conceptual
 70
     9
177
     2
291
     0
 71
     3
176
     1
 72
     2
176
     1
 73
     0
176
     1
 90
        0
176
     1
 40
-0.6
176
     1
 41
-30.0
176
     1
 62
     5
 63
     7
421
 16777215
176
     1
 74
     2
176
     1
 91
        2
176
     1
 64
     7
176
     1
 65
   257
176
     1
 75
     1
176
     1
175
     1
176
     1
 42
40.0
176
     1
 92
        8
176
     1
 66
     7
176
     1
 43
1.0
176
     1
 76
     1
176
     1
 77
     6
176
     1
 78
     2
176
     1
 67
     7
176
     1
 79
     3
176
     1
170
     0
176
     1
171
     0
176
     1
290
     0
176
     1
 93
        1
176
     1
 44
0.0
176
     1
173
     0
176
     1
  0
VISUALSTYLE
  5
35
102
{ACAD_REACTORS
330
2A
102
}
330
2A
100
AcDbVisualStyle
  2
Dim
 70
    11
177
     2
291
     1
 71
     2
176
     1
 72
     2
176
     1
 73
     0
176
     1
 90
        0
176
     1
 40
-0.6
176
     1
 41
-30.0
176
     1
 62
     5
 63
     7
421
 16777215
176
     1
 74
     1
176
     1
 91
        4
176
     1
 64
     7
176
     1
 65
   257
176
     1
 75
     1
176
     1
175
     1
176
     1
 42
1.0
176
     1
 92
        8
176
     1
 66
     7
176
     1
 43
1.0
176
     1
 76
     1
176
     1
 77
     6
176
     1
 78
     2
176
     1
 67
     7
176
     1
 79
     5
176
     1
170
     0
176
     1
171
     0
176
     1
290
     0
176
     1
 93
        1
176
     1
 44
-50.0
176
     1
173
     0
176
     1
  0
VISUALSTYLE
  5
39
102
{ACAD_REACTORS
330
2A
102
}
330
2A
100
AcDbVisualStyle
  2
Facepattern
 70
    15
177
     2
291
     1
 71
     2
176
     1
 72
     2
176
     1
 73
     0
176
     1
 90
        0
176
     1
 40
-0.6
176
     1
 41
-30.0
176
     1
 62
     5
 63
     7
421
 16777215
176
     1
 74
     1
176
     1
 91
        4
176
     1
 64
     7
176
     1
 65
   257
176
     1
 75
     1
176
     1
175
     1
176
     1
 42
1.0
176
     1
 92
        8
176
     1
 66
     7
176
     1
 43
1.0
176
     1
 76
     1
176
     1
 77
     6
176
     1
 78
     2
176
     1
 67
     7
176
     1
 79
     5
176
     1
170
     0
176
     1
171
     0
176
     1
290
     0
176
     1
 93
        1
176
     1
 44
0.0
176
     1
173
     0
176
     1
  0
VISUALSTYLE
  5
2B
102
{ACAD_REACTORS
330
2A
102
}
330
2A
100
AcDbVisualStyle
  2
Flat
 70
     0
177
     2
291
     1
 71
     2
176
     1
 72
     1
176
     1
 73
     1
176
     1
 90
        2
176
     1
 40
-0.6
176
     1
 41
30.0
176
     1
 62
     5
 63
     7
421
 16777215
176
     1
 74
     0
176
     1
 91
        4
176
     1
 64
     7
176
     1
 65
   257
176
     1
 75
     1
176
     1
175
     1
176
     1
 42
1.0
176
     1
 92
        8
176
     1
 66
     7
176
     1
 43
1.0
176
     1
 76
     1
176
     1
 77
     6
176
     1
 78
     2
176
     1
 67
     7
176
     1
 79
     5
176
     1
170
     0
176
     1
171
     0
176
     1
290
     0
176
     1
 93
       13
176
     1
 44
0.0
176
     1
173
     0
176
     1
  0
VISUALSTYLE
  5
2C
102
{ACAD_REACTORS
330
2A
102
}
330
2A
100
AcDbVisualStyle
  2
FlatWithEdges
 70
     1
177
     2
291
     1
 71
     2
176
     1
 72
     1
176
     1
 73
     1
176
     1
 90
        2
176
     1
 40
-0.6
176
     1
 41
30.0
176
     1
 62
     5
 63
     7
421
 16777215
176
     1
 74
     1
176
     1
 91
        4
176
     1
 64
     7
176
     1
 65
   257
176
     1
 75
     1
176
     1
175
     1
176
     1
 42
1.0
176
     1
 92
        0
176
     1
 66
   257
176
     1
 43
1.0
176
     1
 76
     1
176
     1
 77
     6
176
     1
 78
     2
176
     1
 67
     7
176
     1
 79
     5
176
     1
170
     0
176
     1
171
     0
176
     1
290
     0
176
     1
 93
       13
176
     1
 44
0.0
176
     1
173
     0
176
     1
  0
VISUALSTYLE
  5
2D
102
{ACAD_REACTORS
330
2A
102
}
330
2A
100
AcDbVisualStyle
  2
Gouraud
 70
     2
177
     2
291
     1
 71
     2
176
     1
 72
     2
176
     1
 73
     1
176
     1
 90
        2
176
     1
 40
-0.6
176
     1
 41
30.0
176
     1
 62
     5
 63
     7
421
 16777215
176
     1
 74
     0
176
     1
 91
        4
176
     1
 64
     7
176
     1
 65
   257
176
     1
 75
     1
176
     1
175
     1
176
     1
 42
1.0
176
     1
 92
        0
176
     1
 66
     7
176
     1
 43
1.0
176
     1
 76
     1
176
     1
 77
     6
176
     1
 78
     2
176
     1
 67
     7
176
     1
 79
     5
176
     1
170
     0
176
     1
171
     0
176
     1
290
     0
176
     1
 93
       13
176
     1
 44
0.0
176
     1
173
     0
176
     1
  0
VISUALSTYLE
  5
2E
102
{ACAD_REACTORS
330
2A
102
}
330
2A
100
AcDbVisualStyle
  2
GouraudWithEdges
 70
     3
177
     2
291
     1
 71
     2
176
     1
 72
     2
176
     1
 73
     1
176
     1
 90
        2
176
     1
 40
-0.6
176
     1
 41
30.0
176
     1
 62
     5
 63
     7
421
 16777215
176
     1
 74
     1
176
     1
 91
        4
176
     1
 64
     7
176
     1
 65
   257
176
     1
 75
     1
176
     1
175
     1
176
     1
 42
1.0
176
     1
 92
        0
176
     1
 66
   257
176
     1
 43
1.0
176
     1
 76
     1
176
     1
 77
     6
176
     1
 78
     2
176
     1
 67
     7
176
     1
 79
     5
176
     1
170
     0
176
     1
171
     0
176
     1
290
     0
176
     1
 93
       13
176
     1
 44
0.0
176
     1
173
     0
176
     1
  0
VISUALSTYLE
  5
38
102
{ACAD_REACTORS
330
2A
102
}
330
2A
100
AcDbVisualStyle
  2
Linepattern
 70
    14
177
     2
291
     1
 71
     2
176
     1
 72
     2
176
     1
 73
     0
176
     1
 90
        0
176
     1
 40
-0.6
176
     1
 41
-30.0
176
     1
 62
     5
 63
     7
421
 16777215
176
     1
 74
     1
176
     1
 91
        4
176
     1
 64
     7
176
     1
 65
   257
176
     1
 75
     7
176
     1
175
     7
176
     1
 42
1.0
176
     1
 92
        8
176
     1
 66
     7
176
     1
 43
1.0
176
     1
 76
     1
176
     1
 77
     6
176
     1
 78
     2
176
     1
 67
     7
176
     1
 79
     5
176
     1
170
     0
176
     1
171
     0
176
     1
290
     0
176
     1
 93
        1
176
     1
 44
0.0
176
     1
173
     0
176
     1
  0
VISUALSTYLE
  5
33
102
{ACAD_REACTORS
330
2A
102
}
330
2A
100
AcDbVisualStyle
  2
Realistic
 70
     8
177
     2
291
     0
 71
     2
176
     1
 72
     2
176
     1
 73
     0
176
     1
 90
        0
176
     1
 40
-0.6
176
     1
 41
-30.0
176
     1
 62
     5
 63
     7
421
 16777215
176
     1
 74
     1
176
     1
 91
        0
176
     1
 64
     7
176
     1
 65
   257
176
     1
 75
     1
176
     1
175
     1
176
     1
 42
1.0
176
     1
 92
        8
176
     1
 66
     8
424
  7895160
176
     1
 43
1.0
176
     1
 76
     1
176
     1
 77
     6
176
     1
 78
     2
176
     1
 67
     7
176
     1
 79
     5
176
     1
170
     0
176
     1
171
     0
176
     1
290
     0
176
     1
 93
       13
176
     1
 44
0.0
176
     1
173
     0
176
     1
  0
VISUALSTYLE
  5
37
102
{ACAD_REACTORS
330
2A
102
}
330
2A
100
AcDbVisualStyle
  2
Thicken
 70
    13
177
     2
291
     1
 71
     2
176
     1
 72
     2
176
     1
 73
     0
176
     1
 90
        0
176
     1
 40
-0.6
176
     1
 41
-30.0
176
     1
 62
     5
 63
     7
421
 16777215
176
     1
 74
     1
176
     1
 91
        4
176
     1
 64
     7
176
     1
 65
   257
176
     1
 75
     1
176
     1
175
     1
176
     1
 42
1.0
176
     1
 92
       12
176
     1
 66
     7
176
     1
 43
1.0
176
     1
 76
     1
176
     1
 77
     6
176
     1
 78
     2
176
     1
 67
     7
176
     1
 79
     5
176
     1
170
     0
176
     1
171
     0
176
     1
290
     0
176
     1
 93
        1
176
     1
 44
0.0
176
     1
173
     0
176
     1
  0
ENDSEC
  0
EOF
