  0
SECTION
  2
HEADER
  9
$ACADVER
  1
AC1024
  9
$ACADMAINTVER
 70
     6
  9
$DWGCODEPAGE
  3
UNDEFINED
  9
$INSBASE
 10
0.0
 20
0.0
 30
0.0
  9
$EXTMIN
 10
1.000000000000000E+20
 20
1.000000000000000E+20
 30
1.000000000000000E+20
  9
$EXTMAX
 10
-1.000000000000000E+20
 20
-1.000000000000000E+20
 30
-1.000000000000000E+20
  9
$LIMMIN
 10
0.0
 20
0.0
  9
$LIMMAX
 10
12.0
 20
9.0
  9
$ORTHOMODE
 70
     0
  9
$REGENMODE
 70
     1
  9
$FILLMODE
 70
     1
  9
$QTEXTMODE
 70
     0
  9
$MIRRTEXT
 70
     1
  9
$LTSCALE
 40
1.0
  9
$ATTMODE
 70
     1
  9
$TEXTSIZE
 40
0.2
  9
$TRACEWID
 40
0.05
  9
$TEXTSTYLE
  7
Standard
  9
$CLAYER
  8
0
  9
$CELTYPE
  6
ByLayer
  9
$CECOLOR
 62
   256
  9
$CELTSCALE
 40
1.0
  9
$DISPSILH
 70
     0
  9
$DIMSCALE
 40
1.0
  9
$DIMASZ
 40
0.18
  9
$DIMEXO
 40
0.0625
  9
$DIMDLI
 40
0.38
  9
$DIMRND
 40
0.0
  9
$DIMDLE
 40
0.0
  9
$DIMEXE
 40
0.18
  9
$DIMTP
 40
0.0
  9
$DIMTM
 40
0.0
  9
$DIMTXT
 40
0.18
  9
$DIMCEN
 40
0.09
  9
$DIMTSZ
 40
0.0
  9
$DIMTOL
 70
     0
  9
$DIMLIM
 70
     0
  9
$DIMTIH
 70
     1
  9
$DIMTOH
 70
     1
  9
$DIMSE1
 70
     0
  9
$DIMSE2
 70
     0
  9
$DIMTAD
 70
     0
  9
$DIMZIN
 70
     0
  9
$DIMBLK
  1

  9
$DIMASO
 70
     1
  9
$DIMSHO
 70
     1
  9
$DIMPOST
  1

  9
$DIMAPOST
  1

  9
$DIMALT
 70
     0
  9
$DIMALTD
 70
     2
  9
$DIMALTF
 40
25.4
  9
$DIMLFAC
 40
1.0
  9
$DIMTOFL
 70
     0
  9
$DIMTVP
 40
0.0
  9
$DIMTIX
 70
     0
  9
$DIMSOXD
 70
     0
  9
$DIMSAH
 70
     0
  9
$DIMBLK1
  1

  9
$DIMBLK2
  1

  9
$DIMSTYLE
  2
Standard
  9
$DIMCLRD
 70
     0
  9
$DIMCLRE
 70
     0
  9
$DIMCLRT
 70
     0
  9
$DIMTFAC
 40
1.0
  9
$DIMGAP
 40
0.09
  9
$DIMJUST
 70
     0
  9
$DIMSD1
 70
     0
  9
$DIMSD2
 70
     0
  9
$DIMTOLJ
 70
     1
  9
$DIMTZIN
 70
     0
  9
$DIMALTZ
 70
     0
  9
$DIMALTTZ
 70
     0
  9
$DIMUPT
 70
     0
  9
$DIMDEC
 70
     4
  9
$DIMTDEC
 70
     4
  9
$DIMALTU
 70
     2
  9
$DIMALTTD
 70
     2
  9
$DIMTXSTY
  7
Standard
  9
$DIMAUNIT
 70
     0
  9
$DIMADEC
 70
     0
  9
$DIMALTRND
 40
0.0
  9
$DIMAZIN
 70
     0
  9
$DIMDSEP
 70
    46
  9
$DIMATFIT
 70
     3
  9
$DIMFRAC
 70
     0
  9
$DIMLDRBLK
  1

  9
$DIMLUNIT
 70
     2
  9
$DIMLWD
 70
    -2
  9
$DIMLWE
 70
    -2
  9
$DIMTMOVE
 70
     0
  9
$DIMFXL
 40
1.0
  9
$DIMFXLON
 70
     0
  9
$DIMJOGANG
 40
0.7853981633974483
  9
$DIMTFILL
 70
     0
  9
$DIMTFILLCLR
 70
     0
  9
$DIMARCSYM
 70
     0
  9
$DIMLTYPE
  6

  9
$DIMLTEX1
  6

  9
$DIMLTEX2
  6

  9
$DIMTXTDIRECTION
 70
     0
  9
$LUNITS
 70
     2
  9
$LUPREC
 70
     4
  9
$SKETCHINC
 40
0.1
  9
$FILLETRAD
 40
0.5
  9
$AUNITS
 70
     0
  9
$AUPREC
 70
     0
  9
$MENU
  1
.
  9
$ELEVATION
 40
0.0
  9
$PELEVATION
 40
0.0
  9
$THICKNESS
 40
0.0
  9
$LIMCHECK
 70
     0
  9
$CHAMFERA
 40
0.5
  9
$CHAMFERB
 40
0.5
  9
$CHAMFERC
 40
1.0
  9
$CHAMFERD
 40
0.0
  9
$SKPOLY
 70
     0
  9
$TDCREATE
 40
2457917.636238426
  9
$TDUCREATE
 40
2457917.261238426
  9
$TDUPDATE
 40
2457917.636238426
  9
$TDUUPDATE
 40
2457917.261238426
  9
$TDINDWG
 40
0.0000000116
  9
$TDUSRTIMER
 40
0.0000000116
  9
$USRTIMER
 70
     1
  9
$ANGBASE
 50
0.0
  9
$ANGDIR
 70
     0
  9
$PDMODE
 70
     0
  9
$PDSIZE
 40
0.0
  9
$PLINEWID
 40
0.0
  9
$SPLFRAME
 70
     0
  9
$SPLINETYPE
 70
     6
  9
$SPLINESEGS
 70
     8
  9
$HANDSEED
  5
145
  9
$SURFTAB1
 70
     6
  9
$SURFTAB2
 70
     6
  9
$SURFTYPE
 70
     6
  9
$SURFU
 70
     6
  9
$SURFV
 70
     6
  9
$UCSBASE
  2

  9
$UCSNAME
  2

  9
$UCSORG
 10
0.0
 20
0.0
 30
0.0
  9
$UCSXDIR
 10
1.0
 20
0.0
 30
0.0
  9
$UCSYDIR
 10
0.0
 20
1.0
 30
0.0
  9
$UCSORTHOREF
  2

  9
$UCSORTHOVIEW
 70
     0
  9
$UCSORGTOP
 10
0.0
 20
0.0
 30
0.0
  9
$UCSORGBOTTOM
 10
0.0
 20
0.0
 30
0.0
  9
$UCSORGLEFT
 10
0.0
 20
0.0
 30
0.0
  9
$UCSORGRIGHT
 10
0.0
 20
0.0
 30
0.0
  9
$UCSORGFRONT
 10
0.0
 20
0.0
 30
0.0
  9
$UCSORGBACK
 10
0.0
 20
0.0
 30
0.0
  9
$PUCSBASE
  2

  9
$PUCSNAME
  2

  9
$PUCSORG
 10
0.0
 20
0.0
 30
0.0
  9
$PUCSXDIR
 10
1.0
 20
0.0
 30
0.0
  9
$PUCSYDIR
 10
0.0
 20
1.0
 30
0.0
  9
$PUCSORTHOREF
  2

  9
$PUCSORTHOVIEW
 70
     0
  9
$PUCSORGTOP
 10
0.0
 20
0.0
 30
0.0
  9
$PUCSORGBOTTOM
 10
0.0
 20
0.0
 30
0.0
  9
$PUCSORGLEFT
 10
0.0
 20
0.0
 30
0.0
  9
$PUCSORGRIGHT
 10
0.0
 20
0.0
 30
0.0
  9
$PUCSORGFRONT
 10
0.0
 20
0.0
 30
0.0
  9
$PUCSORGBACK
 10
0.0
 20
0.0
 30
0.0
  9
$USERI1
 70
     0
  9
$USERI2
 70
     0
  9
$USERI3
 70
     0
  9
$USERI4
 70
     0
  9
$USERI5
 70
     0
  9
$USERR1
 40
0.0
  9
$USERR2
 40
0.0
  9
$USERR3
 40
0.0
  9
$USERR4
 40
0.0
  9
$USERR5
 40
0.0
  9
$WORLDVIEW
 70
     1
  9
$SHADEDGE
 70
     3
  9
$SHADEDIF
 70
    70
  9
$TILEMODE
 70
     1
  9
$MAXACTVP
 70
    64
  9
$PINSBASE
 10
0.0
 20
0.0
 30
0.0
  9
$PLIMCHECK
 70
     0
  9
$PEXTMIN
 10
1.000000000000000E+20
 20
1.000000000000000E+20
 30
1.000000000000000E+20
  9
$PEXTMAX
 10
-1.000000000000000E+20
 20
-1.000000000000000E+20
 30
-1.000000000000000E+20
  9
$PLIMMIN
 10
0.0
 20
0.0
  9
$PLIMMAX
 10
12.0
 20
9.0
  9
$UNITMODE
 70
     0
  9
$VISRETAIN
 70
     1
  9
$PLINEGEN
 70
     0
  9
$PSLTSCALE
 70
     1
  9
$TREEDEPTH
 70
  3020
  9
$CMLSTYLE
  2
Standard
  9
$CMLJUST
 70
     0
  9
$CMLSCALE
 40
1.0
  9
$PROXYGRAPHICS
 70
     1
  9
$MEASUREMENT
 70
     0
  9
$CELWEIGHT
370
    -1
  9
$ENDCAPS
280
     0
  9
$JOINSTYLE
280
     0
  9
$LWDISPLAY
290
     1
  9
$INSUNITS
 70
     1
  9
$HYPERLINKBASE
  1

  9
$STYLESHEET
  1

  9
$XEDIT
290
     1
  9
$CEPSNTYPE
380
     0
  9
$PSTYLEMODE
290
     1
  9
$FINGERPRINTGUID
  2
{176453F5-CEFC-0D2C-C474-DEB64CE67283}
  9
$VERSIONGUID
  2
{FAEB1C32-E019-11D5-929B-00C0DF256EC4}
  9
$EXTNAMES
290
     1
  9
$PSVPSCALE
 40
0.0
  9
$OLESTARTUP
290
     0
  9
$SORTENTS
280
   127
  9
$INDEXCTL
280
     0
  9
$HIDETEXT
280
     1
  9
$XCLIPFRAME
280
     2
  9
$HALOGAP
280
     0
  9
$OBSCOLOR
 70
   257
  9
$OBSLTYPE
280
     0
  9
$INTERSECTIONDISPLAY
280
     0
  9
$INTERSECTIONCOLOR
 70
   257
  9
$DIMASSOC
280
     2
  9
$PROJECTNAME
  1

  9
$CAMERADISPLAY
290
     0
  9
$LENSLENGTH
 40
50.0
  9
$CAMERAHEIGHT
 40
0.0
  9
$STEPSPERSEC
 40
2.0
  9
$STEPSIZE
 40
6.0
  9
$3DDWFPREC
 40
2.0
  9
$PSOLWIDTH
 40
0.25
  9
$PSOLHEIGHT
 40
4.0
  9
$LOFTANG1
 40
1.570796326794897
  9
$LOFTANG2
 40
1.570796326794897
  9
$LOFTMAG1
 40
0.0
  9
$LOFTMAG2
 40
0.0
  9
$LOFTPARAM
 70
     7
  9
$LOFTNORMALS
280
     1
  9
$LATITUDE
 40
37.795
  9
$LONGITUDE
 40
-122.394
  9
$NORTHDIRECTION
 40
0.0
  9
$TIMEZONE
 70
 -8000
  9
$LIGHTGLYPHDISPLAY
280
     1
  9
$TILEMODELIGHTSYNCH
280
     1
  9
$CMATERIAL
347
3C
  9
$SOLIDHIST
280
     1
  9
$SHOWHIST
280
     1
  9
$DWFFRAME
280
     2
  9
$DGNFRAME
280
     2
  9
$REALWORLDSCALE
290
     1
  9
$INTERFERECOLOR
 62
   256
  9
$CSHADOW
280
     0
  9
$SHADOWPLANELOCATION
 40
0.0
  0
ENDSEC
  0
SECTION
  2
CLASSES
  0
CLASS
  1
ACDBDICTIONARYWDFLT
  2
AcDbDictionaryWithDefault
  3
ObjectDBX Classes
 90
        0
 91
        4
280
     0
281
     0
  0
CLASS
  1
VISUALSTYLE
  2
AcDbVisualStyle
  3
ObjectDBX Classes
 90
     4095
 91
        4
280
     0
281
     0
  0
CLASS
  1
MATERIAL
  2
AcDbMaterial
  3
ObjectDBX Classes
 90
     1153
 91
        4
280
     0
281
     0
  0
CLASS
  1
SUN
  2
AcDbSun
  3
SCENEOE
 90
     1024
 91
        4
280
     0
281
     0
  0
ENDSEC
  0
SECTION
  2
TABLES
  0
TABLE
  2
VPORT
  5
8
330
0
100
AcDbSymbolTable
 70
     1
  0
VPORT
  5
29
330
8
100
AcDbSymbolTableRecord
100
AcDbViewportTableRecord
  2
*Active
 70
     0
 10
0.0
 20
0.0
 11
1.0
 21
1.0
 12
0.0
 22
0.0
 13
0.0
 23
0.0
 14
0.5
 24
0.5
 15
0.5
 25
0.5
 16
0.0
 26
0.0
 36
1.0
 17
91.00082462281999
 27
-128.4993055234307
 37
0.0
 40
256.9986110468615
 41
0.7081814508812795
 42
50.0
 43
0.0
 44
0.0
 50
0.0
 51
0.0
 71
     0
 72
   100
 73
     1
 74
     3
 75
     0
 76
     0
 77
     0
 78
     0
281
     0
 65
     1
110
0.0
120
0.0
130
0.0
111
1.0
121
0.0
131
0.0
112
0.0
122
1.0
132
0.0
 79
     0
146
0.0
 60
     3
 61
     5
292
     1
282
     1
141
0.0
142
0.0
 63
   250
361
3F
  0
ENDTAB
  0
TABLE
  2
LTYPE
  5
5
330
0
100
AcDbSymbolTable
 70
     1
  0
LTYPE
  5
14
330
5
100
AcDbSymbolTableRecord
100
AcDbLinetypeTableRecord
  2
ByBlock
 70
     0
  3

 72
    65
 73
     0
 40
0.0
  0
LTYPE
  5
15
330
5
100
AcDbSymbolTableRecord
100
AcDbLinetypeTableRecord
  2
ByLayer
 70
     0
  3

 72
    65
 73
     0
 40
0.0
  0
LTYPE
  5
16
330
5
100
AcDbSymbolTableRecord
100
AcDbLinetypeTableRecord
  2
Continuous
 70
     0
  3
Solid line
 72
    65
 73
     0
 40
0.0
  0
ENDTAB
  0
TABLE
  2
LAYER
  5
2
330
0
100
AcDbSymbolTable
 70
     2
  0
LAYER
  5
10
330
2
100
AcDbSymbolTableRecord
100
AcDbLayerTableRecord
  2
0
 70
     0
 62
     7
  6
Continuous
370
    -3
390
F
347
3E
  0
LAYER
  5
40
330
2
100
AcDbSymbolTableRecord
100
AcDbLayerTableRecord
  2
_U+30EC_U+30A4_U+30E4_U+30FC 1
 70
     0
 62
     7
  6
Continuous
370
    -3
390
F
347
3E
  0
ENDTAB
  0
TABLE
  2
STYLE
  5
3
330
0
100
AcDbSymbolTable
 70
     1
  0
STYLE
  5
11
330
3
100
AcDbSymbolTableRecord
100
AcDbTextStyleTableRecord
  2
Standard
 70
     0
 40
0.0
 41
1.0
 50
0.0
 71
     0
 42
0.2
  3
txt
  4

  0
ENDTAB
  0
TABLE
  2
VIEW
  5
6
330
0
100
AcDbSymbolTable
 70
     0
  0
ENDTAB
  0
TABLE
  2
UCS
  5
7
330
0
100
AcDbSymbolTable
 70
     0
  0
ENDTAB
  0
TABLE
  2
APPID
  5
9
330
0
100
AcDbSymbolTable
 70
     1
  0
APPID
  5
12
330
9
100
AcDbSymbolTableRecord
100
AcDbRegAppTableRecord
  2
ACAD
 70
     0
  0
ENDTAB
  0
TABLE
  2
DIMSTYLE
  5
A
330
0
100
AcDbSymbolTable
 70
     1
100
AcDbDimStyleTable
  0
DIMSTYLE
105
27
330
A
100
AcDbSymbolTableRecord
100
AcDbDimStyleTableRecord
  2
Standard
 70
     0
178
     0
340
11
  0
ENDTAB
  0
TABLE
  2
BLOCK_RECORD
  5
1
330
0
100
AcDbSymbolTable
 70
     5
  0
BLOCK_RECORD
  5
1F
330
1
100
AcDbSymbolTableRecord
100
AcDbBlockTableRecord
  2
*Model_Space
340
22
 70
     0
280
     1
281
     0
  0
BLOCK_RECORD
  5
1B
330
1
100
AcDbSymbolTableRecord
100
AcDbBlockTableRecord
  2
*Paper_Space
340
1E
 70
     0
280
     1
281
     0
  0
BLOCK_RECORD
  5
23
330
1
100
AcDbSymbolTableRecord
100
AcDbBlockTableRecord
  2
*Paper_Space0
340
26
 70
     0
280
     1
281
     0
  0
BLOCK_RECORD
  5
CB
330
1
100
AcDbSymbolTableRecord
100
AcDbBlockTableRecord
  2
block 2
340
0
102
{BLKREFS
331
CC
102
}
 70
     0
280
     1
281
     0
  0
BLOCK_RECORD
  5
EC
330
1
100
AcDbSymbolTableRecord
100
AcDbBlockTableRecord
  2
block 3
340
0
102
{BLKREFS
331
ED
102
}
 70
     0
280
     1
281
     0
  0
BLOCK_RECORD
  5
116
330
1
100
AcDbSymbolTableRecord
100
AcDbBlockTableRecord
  2
block 4
340
0
102
{BLKREFS
331
117
102
}
 70
     0
280
     1
281
     0
  0
BLOCK_RECORD
  5
12F
330
1
100
AcDbSymbolTableRecord
100
AcDbBlockTableRecord
  2
block 5
340
0
102
{BLKREFS
331
130
102
}
 70
     0
280
     1
281
     0
  0
ENDTAB
  0
ENDSEC
  0
SECTION
  2
BLOCKS
  0
BLOCK
  5
20
330
1F
100
AcDbEntity
  8
0
100
AcDbBlockBegin
  2
*Model_Space
 70
     0
 10
0.0
 20
0.0
 30
0.0
  3
*Model_Space
  1

  0
ENDBLK
  5
21
330
1F
100
AcDbEntity
  8
0
100
AcDbBlockEnd
  0
BLOCK
  5
1C
330
1B
100
AcDbEntity
 67
     1
  8
0
100
AcDbBlockBegin
  2
*Paper_Space
 70
     0
 10
0.0
 20
0.0
 30
0.0
  3
*Paper_Space
  1

  0
ENDBLK
  5
1D
330
1B
100
AcDbEntity
 67
     1
  8
0
100
AcDbBlockEnd
  0
BLOCK
  5
24
330
23
100
AcDbEntity
  8
0
100
AcDbBlockBegin
  2
*Paper_Space0
 70
     0
 10
0.0
 20
0.0
 30
0.0
  3
*Paper_Space0
  1

  0
ENDBLK
  5
25
330
23
100
AcDbEntity
  8
0
100
AcDbBlockEnd
  0
BLOCK
  5
CD
330
CB
100
AcDbEntity
  8
0
100
AcDbBlockBegin
  2
block 2
 70
     0
 10
0.0
 20
0.0
 30
0.0
  3
block 2
  1

  0
SPLINE
  5
CF
330
CB
100
AcDbEntity
  8
_U+30EC_U+30A4_U+30E4_U+30FC 1
370
     0
100
AcDbSpline
210
0.0
220
0.0
230
1.0
 70
    11
 71
     3
 72
    29
 73
    25
 74
     0
 42
0.0000000001
 43
0.0000000001
 12
1.0
 22
0.0
 32
0.0
 13
1.0
 23
0.0
 33
0.0
 40
0.0
 40
0.0
 40
0.0
 40
0.0
 40
1.0
 40
1.0
 40
1.0
 40
2.0
 40
2.0
 40
2.0
 40
3.0
 40
3.0
 40
3.0
 40
4.0
 40
4.0
 40
4.0
 40
5.0
 40
5.0
 40
5.0
 40
6.0
 40
6.0
 40
6.0
 40
7.0
 40
7.0
 40
7.0
 40
8.0
 40
8.0
 40
8.0
 40
8.0
 10
97.18993324393169
 20
-143.1065103808901
 30
0.0
 10
97.18993324393169
 20
-143.3728162618999
 30
0.0
 10
97.05247393407022
 20
-143.6267197991628
 30
0.0
 10
96.70348576141441
 20
-143.6267197991628
 30
0.0
 10
96.44751516686034
 20
-143.6267197991628
 30
0.0
 10
96.35208602191892
 20
-143.485126374719
 30
0.0
 10
96.29076332228148
 20
-143.3793619433218
 30
0.0
 10
96.23150767993518
 20
-143.5040743998879
 30
0.0
 10
96.11747501937342
 20
-143.5802110101119
 30
0.0
 10
95.95658906021225
 20
-143.5802110101119
 30
0.0
 10
95.68167044048931
 20
-143.5802110101119
 30
0.0
 10
95.54627818791899
 20
-143.381429000613
 30
0.0
 10
95.54627818791899
 20
-143.1065103808901
 30
0.0
 10
95.54627818791899
 20
-142.822979022454
 30
0.0
 10
95.68993866965391
 20
-142.6324652421197
 30
0.0
 10
95.95658906021225
 20
-142.6324652421197
 30
0.0
 10
96.11747501937342
 20
-142.6324652421197
 30
0.0
 10
96.23150767993518
 20
-142.7106689096348
 30
0.0
 10
96.29076332228148
 20
-142.8357258757494
 30
0.0
 10
96.34175073546318
 20
-142.74684241223
 30
0.0
 10
96.43683537085607
 20
-142.5880235103599
 30
0.0
 10
96.69900713728359
 20
-142.5880235103599
 30
0.0
 10
97.07348901653025
 20
-142.5880235103599
 30
0.0
 10
97.18993324393169
 20
-142.8674207542137
 30
0.0
 10
97.18993324393169
 20
-143.1065103808901
 30
0.0
  0
SPLINE
  5
D0
330
CB
100
AcDbEntity
  8
_U+30EC_U+30A4_U+30E4_U+30FC 1
370
     0
100
AcDbSpline
210
0.0
220
0.0
230
1.0
 70
    11
 71
     3
 72
    17
 73
    13
 74
     0
 42
0.0000000001
 43
0.0000000001
 12
1.0
 22
0.0
 32
0.0
 13
1.0
 23
0.0
 33
0.0
 40
0.0
 40
0.0
 40
0.0
 40
0.0
 40
1.0
 40
1.0
 40
1.0
 40
2.0
 40
2.0
 40
2.0
 40
3.0
 40
3.0
 40
3.0
 40
4.0
 40
4.0
 40
4.0
 40
4.0
 10
95.73851451599593
 20
-143.1065103808901
 30
0.0
 10
95.73851451599593
 20
-143.2715304546335
 30
0.0
 10
95.83394366093735
 20
-143.3559352940221
 30
0.0
 10
95.96933591350766
 20
-143.3559352940221
 30
0.0
 10
96.09198131278256
 20
-143.3559352940221
 30
0.0
 10
96.21049259747515
 20
-143.2839327983804
 30
0.0
 10
96.21049259747515
 20
-143.1065103808901
 30
0.0
 10
96.21049259747515
 20
-142.9287434538512
 30
0.0
 10
96.09198131278256
 20
-142.8567409582094
 30
0.0
 10
95.96933591350766
 20
-142.8567409582094
 30
0.0
 10
95.83394366093735
 20
-142.8567409582094
 30
0.0
 10
95.73851451599593
 20
-142.9435573644377
 30
0.0
 10
95.73851451599593
 20
-143.1065103808901
 30
0.0
  0
SPLINE
  5
D1
330
CB
100
AcDbEntity
  8
_U+30EC_U+30A4_U+30E4_U+30FC 1
370
     0
100
AcDbSpline
210
0.0
220
0.0
230
1.0
 70
    11
 71
     3
 72
    17
 73
    13
 74
     0
 42
0.0000000001
 43
0.0000000001
 12
1.0
 22
0.0
 32
0.0
 13
1.0
 23
0.0
 33
0.0
 40
0.0
 40
0.0
 40
0.0
 40
0.0
 40
1.0
 40
1.0
 40
1.0
 40
2.0
 40
2.0
 40
2.0
 40
3.0
 40
3.0
 40
3.0
 40
4.0
 40
4.0
 40
4.0
 40
4.0
 10
96.3985948109698
 20
-143.1065103808901
 30
0.0
 10
96.3985948109698
 20
-143.250170862625
 30
0.0
 10
96.48541121719809
 20
-143.402444083073
 30
0.0
 10
96.68867185082783
 20
-143.402444083073
 30
0.0
 10
96.8936550322002
 20
-143.402444083073
 30
0.0
 10
96.99528534901508
 20
-143.2756645692158
 30
0.0
 10
96.99528534901508
 20
-143.1065103808901
 30
0.0
 10
96.99528534901508
 20
-142.920130715138
 30
0.0
 10
96.87263994974018
 20
-142.8102321691586
 30
0.0
 10
96.69487302270129
 20
-142.8102321691586
 30
0.0
 10
96.47266436390267
 20
-142.8102321691586
 30
0.0
 10
96.3985948109698
 20
-142.9731851856109
 30
0.0
 10
96.3985948109698
 20
-143.1065103808901
 30
0.0
  0
HATCH
  5
D2
330
CB
100
AcDbEntity
  8
_U+30EC_U+30A4_U+30E4_U+30FC 1
 62
   179
420
  2234388
100
AcDbHatch
 10
0.0
 20
0.0
 30
0.0
210
0.0
220
0.0
230
1.0
  2
SOLID
 70
     1
 71
     0
 91
        3
 92
        1
 93
        1
 72
     4
 94
        3
 73
     0
 74
     1
 95
       29
 96
       25
 40
0.0
 40
0.0
 40
0.0
 40
0.0
 40
1.0
 40
1.0
 40
1.0
 40
2.0
 40
2.0
 40
2.0
 40
3.0
 40
3.0
 40
3.0
 40
4.0
 40
4.0
 40
4.0
 40
5.0
 40
5.0
 40
5.0
 40
6.0
 40
6.0
 40
6.0
 40
7.0
 40
7.0
 40
7.0
 40
8.0
 40
8.0
 40
8.0
 40
8.0
 10
97.18993324393169
 20
-143.1065103808901
 10
97.18993324393169
 20
-143.3728162618999
 10
97.05247393407022
 20
-143.6267197991628
 10
96.70348576141441
 20
-143.6267197991628
 10
96.44751516686034
 20
-143.6267197991628
 10
96.35208602191892
 20
-143.485126374719
 10
96.29076332228148
 20
-143.3793619433218
 10
96.23150767993518
 20
-143.5040743998879
 10
96.11747501937342
 20
-143.5802110101119
 10
95.95658906021225
 20
-143.5802110101119
 10
95.68167044048931
 20
-143.5802110101119
 10
95.54627818791899
 20
-143.381429000613
 10
95.54627818791899
 20
-143.1065103808901
 10
95.54627818791899
 20
-142.822979022454
 10
95.68993866965391
 20
-142.6324652421197
 10
95.95658906021225
 20
-142.6324652421197
 10
96.11747501937342
 20
-142.6324652421197
 10
96.23150767993518
 20
-142.7106689096348
 10
96.29076332228148
 20
-142.8357258757494
 10
96.34175073546318
 20
-142.74684241223
 10
96.43683537085607
 20
-142.5880235103599
 10
96.69900713728359
 20
-142.5880235103599
 10
97.07348901653025
 20
-142.5880235103599
 10
97.18993324393169
 20
-142.8674207542137
 10
97.18993324393169
 20
-143.1065103808901
 97
        0
 97
        0
 92
        1
 93
        1
 72
     4
 94
        3
 73
     0
 74
     1
 95
       17
 96
       13
 40
0.0
 40
0.0
 40
0.0
 40
0.0
 40
1.0
 40
1.0
 40
1.0
 40
2.0
 40
2.0
 40
2.0
 40
3.0
 40
3.0
 40
3.0
 40
4.0
 40
4.0
 40
4.0
 40
4.0
 10
95.73851451599593
 20
-143.1065103808901
 10
95.73851451599593
 20
-143.2715304546335
 10
95.83394366093735
 20
-143.3559352940221
 10
95.96933591350766
 20
-143.3559352940221
 10
96.09198131278256
 20
-143.3559352940221
 10
96.21049259747515
 20
-143.2839327983804
 10
96.21049259747515
 20
-143.1065103808901
 10
96.21049259747515
 20
-142.9287434538512
 10
96.09198131278256
 20
-142.8567409582094
 10
95.96933591350766
 20
-142.8567409582094
 10
95.83394366093735
 20
-142.8567409582094
 10
95.73851451599593
 20
-142.9435573644377
 10
95.73851451599593
 20
-143.1065103808901
 97
        0
 97
        0
 92
        1
 93
        1
 72
     4
 94
        3
 73
     0
 74
     1
 95
       17
 96
       13
 40
0.0
 40
0.0
 40
0.0
 40
0.0
 40
1.0
 40
1.0
 40
1.0
 40
2.0
 40
2.0
 40
2.0
 40
3.0
 40
3.0
 40
3.0
 40
4.0
 40
4.0
 40
4.0
 40
4.0
 10
96.3985948109698
 20
-143.1065103808901
 10
96.3985948109698
 20
-143.250170862625
 10
96.48541121719809
 20
-143.402444083073
 10
96.68867185082783
 20
-143.402444083073
 10
96.8936550322002
 20
-143.402444083073
 10
96.99528534901508
 20
-143.2756645692158
 10
96.99528534901508
 20
-143.1065103808901
 10
96.99528534901508
 20
-142.920130715138
 10
96.87263994974018
 20
-142.8102321691586
 10
96.69487302270129
 20
-142.8102321691586
 10
96.47266436390267
 20
-142.8102321691586
 10
96.3985948109698
 20
-142.9731851856109
 10
96.3985948109698
 20
-143.1065103808901
 97
        0
 97
        0
 75
     2
 76
     1
 98
        0
  0
POLYLINE
  5
D3
330
CB
100
AcDbEntity
  8
_U+30EC_U+30A4_U+30E4_U+30FC 1
370
     0
100
AcDb2dPolyline
 66
     1
 10
0.0
 20
0.0
 30
0.0
  0
VERTEX
  5
D4
330
D3
100
AcDbEntity
  8
_U+30EC_U+30A4_U+30E4_U+30FC 1
370
     0
100
AcDbVertex
100
AcDb2dVertex
 10
97.13929034029852
 20
-142.3696044565951
 30
0.0
  0
VERTEX
  5
D5
330
D3
100
AcDbEntity
  8
_U+30EC_U+30A4_U+30E4_U+30FC 1
370
     0
100
AcDbVertex
100
AcDb2dVertex
 10
96.88745386032676
 20
-142.3696044565951
 30
0.0
  0
VERTEX
  5
D6
330
D3
100
AcDbEntity
  8
_U+30EC_U+30A4_U+30E4_U+30FC 1
370
     0
100
AcDbVertex
100
AcDb2dVertex
 10
96.88745386032676
 20
-142.1177679766234
 30
0.0
  0
VERTEX
  5
D7
330
D3
100
AcDbEntity
  8
_U+30EC_U+30A4_U+30E4_U+30FC 1
370
     0
100
AcDbVertex
100
AcDb2dVertex
 10
97.13929034029852
 20
-142.1177679766234
 30
0.0
  0
VERTEX
  5
D8
330
D3
100
AcDbEntity
  8
_U+30EC_U+30A4_U+30E4_U+30FC 1
370
     0
100
AcDbVertex
100
AcDb2dVertex
 10
97.13929034029852
 20
-142.3696044565951
 30
0.0
  0
SEQEND
  5
D9
330
D3
100
AcDbEntity
  8
_U+30EC_U+30A4_U+30E4_U+30FC 1
370
     0
  0
HATCH
  5
DA
330
CB
100
AcDbEntity
  8
_U+30EC_U+30A4_U+30E4_U+30FC 1
 62
   179
420
  2234388
100
AcDbHatch
 10
0.0
 20
0.0
 30
0.0
210
0.0
220
0.0
230
1.0
  2
SOLID
 70
     1
 71
     0
 91
        1
 92
        1
 93
        4
 72
     1
 10
97.13929034029852
 20
-142.3696044565951
 11
96.88745386032676
 21
-142.3696044565951
 72
     1
 10
96.88745386032676
 20
-142.3696044565951
 11
96.88745386032676
 21
-142.1177679766234
 72
     1
 10
96.88745386032676
 20
-142.1177679766234
 11
97.13929034029852
 21
-142.1177679766234
 72
     1
 10
97.13929034029852
 20
-142.1177679766234
 11
97.13929034029852
 21
-142.3696044565951
 97
        0
 75
     2
 76
     1
 98
        0
  0
SPLINE
  5
DB
330
CB
100
AcDbEntity
  8
_U+30EC_U+30A4_U+30E4_U+30FC 1
370
     0
100
AcDbSpline
210
0.0
220
0.0
230
1.0
 70
    11
 71
     3
 72
    53
 73
    49
 74
     0
 42
0.0000000001
 43
0.0000000001
 12
1.0
 22
0.0
 32
0.0
 13
1.0
 23
0.0
 33
0.0
 40
0.0
 40
0.0
 40
0.0
 40
0.0
 40
1.0
 40
1.0
 40
1.0
 40
2.0
 40
2.0
 40
2.0
 40
3.0
 40
3.0
 40
3.0
 40
4.0
 40
4.0
 40
4.0
 40
5.0
 40
5.0
 40
5.0
 40
6.0
 40
6.0
 40
6.0
 40
7.0
 40
7.0
 40
7.0
 40
8.0
 40
8.0
 40
8.0
 40
9.0
 40
9.0
 40
9.0
 40
10.0
 40
10.0
 40
10.0
 40
11.0
 40
11.0
 40
11.0
 40
12.0
 40
12.0
 40
12.0
 40
13.0
 40
13.0
 40
13.0
 40
14.0
 40
14.0
 40
14.0
 40
15.0
 40
15.0
 40
15.0
 40
16.0
 40
16.0
 40
16.0
 40
16.0
 10
97.18993324393169
 20
-141.4004990965943
 30
0.0
 10
97.18993324393169
 20
-141.4787027641095
 30
0.0
 10
97.17305227605397
 20
-141.5803330809244
 30
0.0
 10
97.10966251912537
 20
-141.6816188881907
 30
0.0
 10
96.99941946359738
 20
-141.8552517006473
 30
0.0
 10
96.86850583515788
 20
-141.8762667831073
 30
0.0
 10
96.76032983692103
 20
-141.8952148082762
 30
0.0
 10
96.76032983692103
 20
-141.8952148082762
 30
0.0
 10
96.76032983692103
 20
-141.6733506590261
 30
0.0
 10
96.76032983692103
 20
-141.6733506590261
 30
0.0
 10
96.95945635596847
 20
-141.6182291312621
 30
0.0
 10
96.98908417714162
 20
-141.4914496174049
 30
0.0
 10
96.98908417714162
 20
-141.3980875297547
 30
0.0
 10
96.98908417714162
 20
-141.258561162602
 30
0.0
 10
96.8895209176179
 20
-141.106287942154
 30
0.0
 10
96.65697697236354
 20
-141.106287942154
 30
0.0
 10
96.40100637780948
 20
-141.106287942154
 30
0.0
 10
96.3310709394589
 20
-141.286121926484
 30
0.0
 10
96.3310709394589
 20
-141.4067002684678
 30
0.0
 10
96.3310709394589
 20
-141.4383951469321
 30
0.0
 10
96.3310709394589
 20
-141.5803330809244
 30
0.0
 10
96.45991751060724
 20
-141.6688720348953
 30
0.0
 10
96.45991751060724
 20
-141.6688720348953
 30
0.0
 10
96.44096948543837
 20
-141.844571904643
 30
0.0
 10
96.44096948543837
 20
-141.844571904643
 30
0.0
 10
96.44096948543837
 20
-141.844571904643
 30
0.0
 10
95.59485403426102
 20
-141.7239935626593
 30
0.0
 10
95.59485403426102
 20
-141.7239935626593
 30
0.0
 10
95.59485403426102
 20
-141.7239935626593
 30
0.0
 10
95.59485403426102
 20
-140.9454019829928
 30
0.0
 10
95.59485403426102
 20
-140.9454019829928
 30
0.0
 10
95.59485403426102
 20
-140.9454019829928
 30
0.0
 10
95.78950192917763
 20
-140.9454019829928
 30
0.0
 10
95.78950192917763
 20
-140.9454019829928
 30
0.0
 10
95.78950192917763
 20
-140.9454019829928
 30
0.0
 10
95.78950192917763
 20
-141.561040546207
 30
0.0
 10
95.78950192917763
 20
-141.561040546207
 30
0.0
 10
95.78950192917763
 20
-141.561040546207
 30
0.0
 10
96.21255965476631
 20
-141.6268418699752
 30
0.0
 10
96.21255965476631
 20
-141.6268418699752
 30
0.0
 10
96.17879771901086
 20
-141.5655191703378
 30
0.0
 10
96.13849010183344
 20
-141.4828368786918
 30
0.0
 10
96.13849010183344
 20
-141.3643255939992
 30
0.0
 10
96.13849010183344
 20
-141.1104220567363
 30
0.0
 10
96.32452525803693
 20
-140.8737439968996
 30
0.0
 10
96.63768443764614
 20
-140.8737439968996
 30
0.0
 10
96.95497773183764
 20
-140.8737439968996
 30
0.0
 10
97.18993324393169
 20
-141.0976752034409
 30
0.0
 10
97.18993324393169
 20
-141.4004990965943
 30
0.0
  0
HATCH
  5
DC
330
CB
100
AcDbEntity
  8
_U+30EC_U+30A4_U+30E4_U+30FC 1
 62
   179
420
  2234388
100
AcDbHatch
 10
0.0
 20
0.0
 30
0.0
210
0.0
220
0.0
230
1.0
  2
SOLID
 70
     1
 71
     0
 91
        1
 92
        1
 93
        1
 72
     4
 94
        3
 73
     0
 74
     1
 95
       53
 96
       49
 40
0.0
 40
0.0
 40
0.0
 40
0.0
 40
1.0
 40
1.0
 40
1.0
 40
2.0
 40
2.0
 40
2.0
 40
3.0
 40
3.0
 40
3.0
 40
4.0
 40
4.0
 40
4.0
 40
5.0
 40
5.0
 40
5.0
 40
6.0
 40
6.0
 40
6.0
 40
7.0
 40
7.0
 40
7.0
 40
8.0
 40
8.0
 40
8.0
 40
9.0
 40
9.0
 40
9.0
 40
10.0
 40
10.0
 40
10.0
 40
11.0
 40
11.0
 40
11.0
 40
12.0
 40
12.0
 40
12.0
 40
13.0
 40
13.0
 40
13.0
 40
14.0
 40
14.0
 40
14.0
 40
15.0
 40
15.0
 40
15.0
 40
16.0
 40
16.0
 40
16.0
 40
16.0
 10
97.18993324393169
 20
-141.4004990965943
 10
97.18993324393169
 20
-141.4787027641095
 10
97.17305227605397
 20
-141.5803330809244
 10
97.10966251912537
 20
-141.6816188881907
 10
96.99941946359738
 20
-141.8552517006473
 10
96.86850583515788
 20
-141.8762667831073
 10
96.76032983692103
 20
-141.8952148082762
 10
96.76032983692103
 20
-141.8952148082762
 10
96.76032983692103
 20
-141.6733506590261
 10
96.76032983692103
 20
-141.6733506590261
 10
96.95945635596847
 20
-141.6182291312621
 10
96.98908417714162
 20
-141.4914496174049
 10
96.98908417714162
 20
-141.3980875297547
 10
96.98908417714162
 20
-141.258561162602
 10
96.8895209176179
 20
-141.106287942154
 10
96.65697697236354
 20
-141.106287942154
 10
96.40100637780948
 20
-141.106287942154
 10
96.3310709394589
 20
-141.286121926484
 10
96.3310709394589
 20
-141.4067002684678
 10
96.3310709394589
 20
-141.4383951469321
 10
96.3310709394589
 20
-141.5803330809244
 10
96.45991751060724
 20
-141.6688720348953
 10
96.45991751060724
 20
-141.6688720348953
 10
96.44096948543837
 20
-141.844571904643
 10
96.44096948543837
 20
-141.844571904643
 10
96.44096948543837
 20
-141.844571904643
 10
95.59485403426102
 20
-141.7239935626593
 10
95.59485403426102
 20
-141.7239935626593
 10
95.59485403426102
 20
-141.7239935626593
 10
95.59485403426102
 20
-140.9454019829928
 10
95.59485403426102
 20
-140.9454019829928
 10
95.59485403426102
 20
-140.9454019829928
 10
95.78950192917763
 20
-140.9454019829928
 10
95.78950192917763
 20
-140.9454019829928
 10
95.78950192917763
 20
-140.9454019829928
 10
95.78950192917763
 20
-141.561040546207
 10
95.78950192917763
 20
-141.561040546207
 10
95.78950192917763
 20
-141.561040546207
 10
96.21255965476631
 20
-141.6268418699752
 10
96.21255965476631
 20
-141.6268418699752
 10
96.17879771901086
 20
-141.5655191703378
 10
96.13849010183344
 20
-141.4828368786918
 10
96.13849010183344
 20
-141.3643255939992
 10
96.13849010183344
 20
-141.1104220567363
 10
96.32452525803693
 20
-140.8737439968996
 10
96.63768443764614
 20
-140.8737439968996
 10
96.95497773183764
 20
-140.8737439968996
 10
97.18993324393169
 20
-141.0976752034409
 10
97.18993324393169
 20
-141.4004990965943
 97
        0
 97
        0
 75
     2
 76
     1
 98
        0
  0
ENDBLK
  5
CE
330
CB
100
AcDbEntity
  8
0
100
AcDbBlockEnd
  0
BLOCK
  5
EE
330
EC
100
AcDbEntity
  8
0
100
AcDbBlockBegin
  2
block 3
 70
     0
 10
0.0
 20
0.0
 30
0.0
  3
block 3
  1

  0
POLYLINE
  5
F0
330
EC
100
AcDbEntity
  8
_U+30EC_U+30A4_U+30E4_U+30FC 1
370
     0
100
AcDb2dPolyline
 66
     1
 10
0.0
 20
0.0
 30
0.0
  0
VERTEX
  5
F1
330
F0
100
AcDbEntity
  8
_U+30EC_U+30A4_U+30E4_U+30FC 1
370
     0
100
AcDbVertex
100
AcDb2dVertex
 10
100.792814102406
 20
-124.2499524971493
 30
0.0
  0
VERTEX
  5
F2
330
F0
100
AcDbEntity
  8
_U+30EC_U+30A4_U+30E4_U+30FC 1
370
     0
100
AcDbVertex
100
AcDb2dVertex
 10
101.1397352177706
 20
-124.2499524971493
 30
0.0
  0
VERTEX
  5
F3
330
F0
100
AcDbEntity
  8
_U+30EC_U+30A4_U+30E4_U+30FC 1
370
     0
100
AcDbVertex
100
AcDb2dVertex
 10
101.1397352177706
 20
-124.4678547865914
 30
0.0
  0
VERTEX
  5
F4
330
F0
100
AcDbEntity
  8
_U+30EC_U+30A4_U+30E4_U+30FC 1
370
     0
100
AcDbVertex
100
AcDb2dVertex
 10
100.792814102406
 20
-124.4678547865914
 30
0.0
  0
VERTEX
  5
F5
330
F0
100
AcDbEntity
  8
_U+30EC_U+30A4_U+30E4_U+30FC 1
370
     0
100
AcDbVertex
100
AcDb2dVertex
 10
100.792814102406
 20
-125.1238009669829
 30
0.0
  0
VERTEX
  5
F6
330
F0
100
AcDbEntity
  8
_U+30EC_U+30A4_U+30E4_U+30FC 1
370
     0
100
AcDbVertex
100
AcDb2dVertex
 10
100.5685383863162
 20
-125.1238009669829
 30
0.0
  0
VERTEX
  5
F7
330
F0
100
AcDbEntity
  8
_U+30EC_U+30A4_U+30E4_U+30FC 1
370
     0
100
AcDbVertex
100
AcDb2dVertex
 10
99.59529891173312
 20
-124.4446003920659
 30
0.0
  0
VERTEX
  5
F8
330
F0
100
AcDbEntity
  8
_U+30EC_U+30A4_U+30E4_U+30FC 1
370
     0
100
AcDbVertex
100
AcDb2dVertex
 10
99.59529891173312
 20
-124.2499524971493
 30
0.0
  0
VERTEX
  5
F9
330
F0
100
AcDbEntity
  8
_U+30EC_U+30A4_U+30E4_U+30FC 1
370
     0
100
AcDbVertex
100
AcDb2dVertex
 10
100.5936875833585
 20
-124.2499524971493
 30
0.0
  0
VERTEX
  5
FA
330
F0
100
AcDbEntity
  8
_U+30EC_U+30A4_U+30E4_U+30FC 1
370
     0
100
AcDbVertex
100
AcDb2dVertex
 10
100.5936875833585
 20
-124.0427300037115
 30
0.0
  0
VERTEX
  5
FB
330
F0
100
AcDbEntity
  8
_U+30EC_U+30A4_U+30E4_U+30FC 1
370
     0
100
AcDbVertex
100
AcDb2dVertex
 10
100.792814102406
 20
-124.0427300037115
 30
0.0
  0
VERTEX
  5
FC
330
F0
100
AcDbEntity
  8
_U+30EC_U+30A4_U+30E4_U+30FC 1
370
     0
100
AcDbVertex
100
AcDb2dVertex
 10
100.792814102406
 20
-124.2499524971493
 30
0.0
  0
SEQEND
  5
FD
330
F0
100
AcDbEntity
  8
_U+30EC_U+30A4_U+30E4_U+30FC 1
370
     0
  0
POLYLINE
  5
FE
330
EC
100
AcDbEntity
  8
_U+30EC_U+30A4_U+30E4_U+30FC 1
370
     0
100
AcDb2dPolyline
 66
     1
 10
0.0
 20
0.0
 30
0.0
  0
VERTEX
  5
FF
330
FE
100
AcDbEntity
  8
_U+30EC_U+30A4_U+30E4_U+30FC 1
370
     0
100
AcDbVertex
100
AcDb2dVertex
 10
99.93808591251549
 20
-124.4678547865914
 30
0.0
  0
VERTEX
  5
100
330
FE
100
AcDbEntity
  8
_U+30EC_U+30A4_U+30E4_U+30FC 1
370
     0
100
AcDbVertex
100
AcDb2dVertex
 10
100.5936875833585
 20
-124.9248467027098
 30
0.0
  0
VERTEX
  5
101
330
FE
100
AcDbEntity
  8
_U+30EC_U+30A4_U+30E4_U+30FC 1
370
     0
100
AcDbVertex
100
AcDb2dVertex
 10
100.5936875833585
 20
-124.4678547865914
 30
0.0
  0
VERTEX
  5
102
330
FE
100
AcDbEntity
  8
_U+30EC_U+30A4_U+30E4_U+30FC 1
370
     0
100
AcDbVertex
100
AcDb2dVertex
 10
99.93808591251549
 20
-124.4678547865914
 30
0.0
  0
SEQEND
  5
103
330
FE
100
AcDbEntity
  8
_U+30EC_U+30A4_U+30E4_U+30FC 1
370
     0
  0
HATCH
  5
104
330
EC
100
AcDbEntity
  8
_U+30EC_U+30A4_U+30E4_U+30FC 1
 62
   179
420
  2234388
100
AcDbHatch
 10
0.0
 20
0.0
 30
0.0
210
0.0
220
0.0
230
1.0
  2
SOLID
 70
     1
 71
     0
 91
        2
 92
        1
 93
       11
 72
     1
 10
100.792814102406
 20
-124.2499524971493
 11
101.1397352177706
 21
-124.2499524971493
 72
     1
 10
101.1397352177706
 20
-124.2499524971493
 11
101.1397352177706
 21
-124.4678547865914
 72
     1
 10
101.1397352177706
 20
-124.4678547865914
 11
100.792814102406
 21
-124.4678547865914
 72
     1
 10
100.792814102406
 20
-124.4678547865914
 11
100.792814102406
 21
-125.1238009669829
 72
     1
 10
100.792814102406
 20
-125.1238009669829
 11
100.5685383863162
 21
-125.1238009669829
 72
     1
 10
100.5685383863162
 20
-125.1238009669829
 11
99.59529891173312
 21
-124.4446003920659
 72
     1
 10
99.59529891173312
 20
-124.4446003920659
 11
99.59529891173312
 21
-124.2499524971493
 72
     1
 10
99.59529891173312
 20
-124.2499524971493
 11
100.5936875833585
 21
-124.2499524971493
 72
     1
 10
100.5936875833585
 20
-124.2499524971493
 11
100.5936875833585
 21
-124.0427300037115
 72
     1
 10
100.5936875833585
 20
-124.0427300037115
 11
100.792814102406
 21
-124.0427300037115
 72
     1
 10
100.792814102406
 20
-124.0427300037115
 11
100.792814102406
 21
-124.2499524971493
 97
        0
 92
        1
 93
        3
 72
     1
 10
99.93808591251549
 20
-124.4678547865914
 11
100.5936875833585
 21
-124.9248467027098
 72
     1
 10
100.5936875833585
 20
-124.9248467027098
 11
100.5936875833585
 21
-124.4678547865914
 72
     1
 10
100.5936875833585
 20
-124.4678547865914
 11
99.93808591251549
 21
-124.4678547865914
 97
        0
 75
     2
 76
     1
 98
        0
  0
SPLINE
  5
105
330
EC
100
AcDbEntity
  8
_U+30EC_U+30A4_U+30E4_U+30FC 1
370
     0
100
AcDbSpline
210
0.0
220
0.0
230
1.0
 70
    11
 71
     3
 72
    53
 73
    49
 74
     0
 42
0.0000000001
 43
0.0000000001
 12
1.0
 22
0.0
 32
0.0
 13
1.0
 23
0.0
 33
0.0
 40
0.0
 40
0.0
 40
0.0
 40
0.0
 40
1.0
 40
1.0
 40
1.0
 40
2.0
 40
2.0
 40
2.0
 40
3.0
 40
3.0
 40
3.0
 40
4.0
 40
4.0
 40
4.0
 40
5.0
 40
5.0
 40
5.0
 40
6.0
 40
6.0
 40
6.0
 40
7.0
 40
7.0
 40
7.0
 40
8.0
 40
8.0
 40
8.0
 40
9.0
 40
9.0
 40
9.0
 40
10.0
 40
10.0
 40
10.0
 40
11.0
 40
11.0
 40
11.0
 40
12.0
 40
12.0
 40
12.0
 40
13.0
 40
13.0
 40
13.0
 40
14.0
 40
14.0
 40
14.0
 40
15.0
 40
15.0
 40
15.0
 40
16.0
 40
16.0
 40
16.0
 40
16.0
 10
101.1903781214038
 20
-123.4243353641092
 30
0.0
 10
101.1903781214038
 20
-123.5025390316244
 30
0.0
 10
101.1734971535261
 20
-123.6041693484392
 30
0.0
 10
101.1101073965975
 20
-123.7056274104798
 30
0.0
 10
100.9998643410695
 20
-123.8790879681622
 30
0.0
 10
100.86895071263
 20
-123.9002753053965
 30
0.0
 10
100.7607747143932
 20
-123.9193955853396
 30
0.0
 10
100.7607747143932
 20
-123.9193955853396
 30
0.0
 10
100.7607747143932
 20
-123.697186926541
 30
0.0
 10
100.7607747143932
 20
-123.697186926541
 30
0.0
 10
100.9599012334406
 20
-123.6422376535512
 30
0.0
 10
100.9895290546137
 20
-123.5152858849198
 30
0.0
 10
100.9895290546137
 20
-123.4222683068181
 30
0.0
 10
100.9895290546137
 20
-123.2825696848912
 30
0.0
 10
100.88996579509
 20
-123.1302964644431
 30
0.0
 10
100.6574218498356
 20
-123.1302964644431
 30
0.0
 10
100.4014512552816
 20
-123.1302964644431
 30
0.0
 10
100.331515816931
 20
-123.3101304487732
 30
0.0
 10
100.331515816931
 20
-123.4307087907569
 30
0.0
 10
100.331515816931
 20
-123.4624036692212
 30
0.0
 10
100.331515816931
 20
-123.6041693484392
 30
0.0
 10
100.4603623880794
 20
-123.6930528119587
 30
0.0
 10
100.4603623880794
 20
-123.6930528119587
 30
0.0
 10
100.4414143629105
 20
-123.8685804269322
 30
0.0
 10
100.4414143629105
 20
-123.8685804269322
 30
0.0
 10
100.4414143629105
 20
-123.8685804269322
 30
0.0
 10
99.59529891173312
 20
-123.7480020849484
 30
0.0
 10
99.59529891173312
 20
-123.7480020849484
 30
0.0
 10
99.59529891173312
 20
-123.7480020849484
 30
0.0
 10
99.59529891173312
 20
-122.969410505282
 30
0.0
 10
99.59529891173312
 20
-122.969410505282
 30
0.0
 10
99.59529891173312
 20
-122.969410505282
 30
0.0
 10
99.78994680664974
 20
-122.969410505282
 30
0.0
 10
99.78994680664974
 20
-122.969410505282
 30
0.0
 10
99.78994680664974
 20
-122.969410505282
 30
0.0
 10
99.78994680664974
 20
-123.5850490684961
 30
0.0
 10
99.78994680664974
 20
-123.5850490684961
 30
0.0
 10
99.78994680664974
 20
-123.5850490684961
 30
0.0
 10
100.2130045322384
 20
-123.6506781374901
 30
0.0
 10
100.2130045322384
 20
-123.6506781374901
 30
0.0
 10
100.179242596483
 20
-123.5893554378527
 30
0.0
 10
100.1389349793055
 20
-123.5068454009809
 30
0.0
 10
100.1389349793055
 20
-123.3883341162883
 30
0.0
 10
100.1389349793055
 20
-123.1344305790254
 30
0.0
 10
100.324970135509
 20
-122.8975802644145
 30
0.0
 10
100.6381293151182
 20
-122.8975802644145
 30
0.0
 10
100.9554226093098
 20
-122.8975802644145
 30
0.0
 10
101.1903781214038
 20
-123.1218559805043
 30
0.0
 10
101.1903781214038
 20
-123.4243353641092
 30
0.0
  0
HATCH
  5
106
330
EC
100
AcDbEntity
  8
_U+30EC_U+30A4_U+30E4_U+30FC 1
 62
   179
420
  2234388
100
AcDbHatch
 10
0.0
 20
0.0
 30
0.0
210
0.0
220
0.0
230
1.0
  2
SOLID
 70
     1
 71
     0
 91
        1
 92
        1
 93
        1
 72
     4
 94
        3
 73
     0
 74
     1
 95
       53
 96
       49
 40
0.0
 40
0.0
 40
0.0
 40
0.0
 40
1.0
 40
1.0
 40
1.0
 40
2.0
 40
2.0
 40
2.0
 40
3.0
 40
3.0
 40
3.0
 40
4.0
 40
4.0
 40
4.0
 40
5.0
 40
5.0
 40
5.0
 40
6.0
 40
6.0
 40
6.0
 40
7.0
 40
7.0
 40
7.0
 40
8.0
 40
8.0
 40
8.0
 40
9.0
 40
9.0
 40
9.0
 40
10.0
 40
10.0
 40
10.0
 40
11.0
 40
11.0
 40
11.0
 40
12.0
 40
12.0
 40
12.0
 40
13.0
 40
13.0
 40
13.0
 40
14.0
 40
14.0
 40
14.0
 40
15.0
 40
15.0
 40
15.0
 40
16.0
 40
16.0
 40
16.0
 40
16.0
 10
101.1903781214038
 20
-123.4243353641092
 10
101.1903781214038
 20
-123.5025390316244
 10
101.1734971535261
 20
-123.6041693484392
 10
101.1101073965975
 20
-123.7056274104798
 10
100.9998643410695
 20
-123.8790879681622
 10
100.86895071263
 20
-123.9002753053965
 10
100.7607747143932
 20
-123.9193955853396
 10
100.7607747143932
 20
-123.9193955853396
 10
100.7607747143932
 20
-123.697186926541
 10
100.7607747143932
 20
-123.697186926541
 10
100.9599012334406
 20
-123.6422376535512
 10
100.9895290546137
 20
-123.5152858849198
 10
100.9895290546137
 20
-123.4222683068181
 10
100.9895290546137
 20
-123.2825696848912
 10
100.88996579509
 20
-123.1302964644431
 10
100.6574218498356
 20
-123.1302964644431
 10
100.4014512552816
 20
-123.1302964644431
 10
100.331515816931
 20
-123.3101304487732
 10
100.331515816931
 20
-123.4307087907569
 10
100.331515816931
 20
-123.4624036692212
 10
100.331515816931
 20
-123.6041693484392
 10
100.4603623880794
 20
-123.6930528119587
 10
100.4603623880794
 20
-123.6930528119587
 10
100.4414143629105
 20
-123.8685804269322
 10
100.4414143629105
 20
-123.8685804269322
 10
100.4414143629105
 20
-123.8685804269322
 10
99.59529891173312
 20
-123.7480020849484
 10
99.59529891173312
 20
-123.7480020849484
 10
99.59529891173312
 20
-123.7480020849484
 10
99.59529891173312
 20
-122.969410505282
 10
99.59529891173312
 20
-122.969410505282
 10
99.59529891173312
 20
-122.969410505282
 10
99.78994680664974
 20
-122.969410505282
 10
99.78994680664974
 20
-122.969410505282
 10
99.78994680664974
 20
-122.969410505282
 10
99.78994680664974
 20
-123.5850490684961
 10
99.78994680664974
 20
-123.5850490684961
 10
99.78994680664974
 20
-123.5850490684961
 10
100.2130045322384
 20
-123.6506781374901
 10
100.2130045322384
 20
-123.6506781374901
 10
100.179242596483
 20
-123.5893554378527
 10
100.1389349793055
 20
-123.5068454009809
 10
100.1389349793055
 20
-123.3883341162883
 10
100.1389349793055
 20
-123.1344305790254
 10
100.324970135509
 20
-122.8975802644145
 10
100.6381293151182
 20
-122.8975802644145
 10
100.9554226093098
 20
-122.8975802644145
 10
101.1903781214038
 20
-123.1218559805043
 10
101.1903781214038
 20
-123.4243353641092
 97
        0
 97
        0
 75
     2
 76
     1
 98
        0
  0
ENDBLK
  5
EF
330
EC
100
AcDbEntity
  8
0
100
AcDbBlockEnd
  0
BLOCK
  5
118
330
116
100
AcDbEntity
  8
0
100
AcDbBlockBegin
  2
block 4
 70
     0
 10
0.0
 20
0.0
 30
0.0
  3
block 4
  1

  0
SPLINE
  5
11A
330
116
100
AcDbEntity
  8
_U+30EC_U+30A4_U+30E4_U+30FC 1
370
     0
100
AcDbSpline
210
0.0
220
0.0
230
1.0
 70
    11
 71
     3
 72
    26
 73
    22
 74
     0
 42
0.0000000001
 43
0.0000000001
 12
1.0
 22
0.0
 32
0.0
 13
1.0
 23
0.0
 33
0.0
 40
0.0
 40
0.0
 40
0.0
 40
0.0
 40
1.0
 40
1.0
 40
1.0
 40
2.0
 40
2.0
 40
2.0
 40
3.0
 40
3.0
 40
3.0
 40
4.0
 40
4.0
 40
4.0
 40
5.0
 40
5.0
 40
5.0
 40
6.0
 40
6.0
 40
6.0
 40
7.0
 40
7.0
 40
7.0
 40
7.0
 10
85.37428925817032
 20
-150.1210692984072
 30
0.0
 10
85.37428925817032
 20
-150.1210692984072
 30
0.0
 10
85.37428925817032
 20
-149.0165716858361
 30
0.0
 10
85.37428925817032
 20
-149.0165716858361
 30
0.0
 10
85.37428925817032
 20
-149.0165716858361
 30
0.0
 10
85.04424911068338
 20
-149.0165716858361
 30
0.0
 10
85.04424911068338
 20
-149.0165716858361
 30
0.0
 10
85.04424911068338
 20
-149.0165716858361
 30
0.0
 10
85.04424911068338
 20
-148.8684325799704
 30
0.0
 10
85.04424911068338
 20
-148.8684325799704
 30
0.0
 10
85.37635631546146
 20
-148.8536186693838
 30
0.0
 10
85.42303735928661
 20
-148.69101016248
 30
0.0
 10
85.45249292568549
 20
-148.5766329923697
 30
0.0
 10
85.45249292568549
 20
-148.5766329923697
 30
0.0
 10
85.59856497426009
 20
-148.5766329923697
 30
0.0
 10
85.59856497426009
 20
-148.5766329923697
 30
0.0
 10
85.59856497426009
 20
-148.5766329923697
 30
0.0
 10
85.59856497426009
 20
-150.1210692984072
 30
0.0
 10
85.59856497426009
 20
-150.1210692984072
 30
0.0
 10
85.59856497426009
 20
-150.1210692984072
 30
0.0
 10
85.37428925817032
 20
-150.1210692984072
 30
0.0
 10
85.37428925817032
 20
-150.1210692984072
 30
0.0
  0
HATCH
  5
11B
330
116
100
AcDbEntity
  8
_U+30EC_U+30A4_U+30E4_U+30FC 1
 62
   179
420
  2234388
100
AcDbHatch
 10
0.0
 20
0.0
 30
0.0
210
0.0
220
0.0
230
1.0
  2
SOLID
 70
     1
 71
     0
 91
        1
 92
        1
 93
        1
 72
     4
 94
        3
 73
     0
 74
     1
 95
       26
 96
       22
 40
0.0
 40
0.0
 40
0.0
 40
0.0
 40
1.0
 40
1.0
 40
1.0
 40
2.0
 40
2.0
 40
2.0
 40
3.0
 40
3.0
 40
3.0
 40
4.0
 40
4.0
 40
4.0
 40
5.0
 40
5.0
 40
5.0
 40
6.0
 40
6.0
 40
6.0
 40
7.0
 40
7.0
 40
7.0
 40
7.0
 10
85.37428925817032
 20
-150.1210692984072
 10
85.37428925817032
 20
-150.1210692984072
 10
85.37428925817032
 20
-149.0165716858361
 10
85.37428925817032
 20
-149.0165716858361
 10
85.37428925817032
 20
-149.0165716858361
 10
85.04424911068338
 20
-149.0165716858361
 10
85.04424911068338
 20
-149.0165716858361
 10
85.04424911068338
 20
-149.0165716858361
 10
85.04424911068338
 20
-148.8684325799704
 10
85.04424911068338
 20
-148.8684325799704
 10
85.37635631546146
 20
-148.8536186693838
 10
85.42303735928661
 20
-148.69101016248
 10
85.45249292568549
 20
-148.5766329923697
 10
85.45249292568549
 20
-148.5766329923697
 10
85.59856497426009
 20
-148.5766329923697
 10
85.59856497426009
 20
-148.5766329923697
 10
85.59856497426009
 20
-148.5766329923697
 10
85.59856497426009
 20
-150.1210692984072
 10
85.59856497426009
 20
-150.1210692984072
 10
85.59856497426009
 20
-150.1210692984072
 10
85.37428925817032
 20
-150.1210692984072
 10
85.37428925817032
 20
-150.1210692984072
 97
        0
 97
        0
 75
     2
 76
     1
 98
        0
  0
SPLINE
  5
11C
330
116
100
AcDbEntity
  8
_U+30EC_U+30A4_U+30E4_U+30FC 1
370
     0
100
AcDbSpline
210
0.0
220
0.0
230
1.0
 70
    11
 71
     3
 72
    53
 73
    49
 74
     0
 42
0.0000000001
 43
0.0000000001
 12
1.0
 22
0.0
 32
0.0
 13
1.0
 23
0.0
 33
0.0
 40
0.0
 40
0.0
 40
0.0
 40
0.0
 40
1.0
 40
1.0
 40
1.0
 40
2.0
 40
2.0
 40
2.0
 40
3.0
 40
3.0
 40
3.0
 40
4.0
 40
4.0
 40
4.0
 40
5.0
 40
5.0
 40
5.0
 40
6.0
 40
6.0
 40
6.0
 40
7.0
 40
7.0
 40
7.0
 40
8.0
 40
8.0
 40
8.0
 40
9.0
 40
9.0
 40
9.0
 40
10.0
 40
10.0
 40
10.0
 40
11.0
 40
11.0
 40
11.0
 40
12.0
 40
12.0
 40
12.0
 40
13.0
 40
13.0
 40
13.0
 40
14.0
 40
14.0
 40
14.0
 40
15.0
 40
15.0
 40
15.0
 40
16.0
 40
16.0
 40
16.0
 40
16.0
 10
86.58076169710482
 20
-150.1717122020404
 30
0.0
 10
86.50255802958964
 20
-150.1717122020404
 30
0.0
 10
86.40092771277477
 20
-150.1548312341627
 30
0.0
 10
86.29946965073417
 20
-150.0914414772341
 30
0.0
 10
86.12600909305183
 20
-149.9811984217061
 30
0.0
 10
86.10482175581755
 20
-149.8502847932666
 30
0.0
 10
86.08570147587442
 20
-149.7421087950298
 30
0.0
 10
86.08570147587442
 20
-149.7421087950298
 30
0.0
 10
86.30791013467302
 20
-149.7421087950298
 30
0.0
 10
86.30791013467302
 20
-149.7421087950298
 30
0.0
 10
86.36285940766277
 20
-149.9412353140772
 30
0.0
 10
86.48981117629421
 20
-149.9708631352503
 30
0.0
 10
86.58282875439596
 20
-149.9708631352503
 30
0.0
 10
86.72252737632284
 20
-149.9708631352503
 30
0.0
 10
86.87480059677088
 20
-149.8712998757266
 30
0.0
 10
86.87480059677088
 20
-149.6387559304723
 30
0.0
 10
86.87480059677088
 20
-149.3827853359182
 30
0.0
 10
86.69496661244085
 20
-149.3128498975676
 30
0.0
 10
86.5743882704571
 20
-149.3128498975676
 30
0.0
 10
86.5426933919928
 20
-149.3128498975676
 30
0.0
 10
86.40092771277477
 20
-149.3128498975676
 30
0.0
 10
86.31204424925532
 20
-149.441696468716
 30
0.0
 10
86.31204424925532
 20
-149.441696468716
 30
0.0
 10
86.13651663428185
 20
-149.4227484435471
 30
0.0
 10
86.13651663428185
 20
-149.4227484435471
 30
0.0
 10
86.13651663428185
 20
-149.4227484435471
 30
0.0
 10
86.25709497626559
 20
-148.5766329923697
 30
0.0
 10
86.25709497626559
 20
-148.5766329923697
 30
0.0
 10
86.25709497626559
 20
-148.5766329923697
 30
0.0
 10
87.03568655593206
 20
-148.5766329923697
 30
0.0
 10
87.03568655593206
 20
-148.5766329923697
 30
0.0
 10
87.03568655593206
 20
-148.5766329923697
 30
0.0
 10
87.03568655593206
 20
-148.7712808872864
 30
0.0
 10
87.03568655593206
 20
-148.7712808872864
 30
0.0
 10
87.03568655593206
 20
-148.7712808872864
 30
0.0
 10
86.42004799271791
 20
-148.7712808872864
 30
0.0
 10
86.42004799271791
 20
-148.7712808872864
 30
0.0
 10
86.42004799271791
 20
-148.7712808872864
 30
0.0
 10
86.3544189237239
 20
-149.194338612875
 30
0.0
 10
86.3544189237239
 20
-149.194338612875
 30
0.0
 10
86.41574162336134
 20
-149.1605766771196
 30
0.0
 10
86.49825166023308
 20
-149.1202690599422
 30
0.0
 10
86.61676294492567
 20
-149.1202690599422
 30
0.0
 10
86.87066648218858
 20
-149.1202690599422
 30
0.0
 10
87.10751679679952
 20
-149.3063042161457
 30
0.0
 10
87.10751679679952
 20
-149.6194633957549
 30
0.0
 10
87.10751679679952
 20
-149.9367566899464
 30
0.0
 10
86.88324108070975
 20
-150.1717122020404
 30
0.0
 10
86.58076169710482
 20
-150.1717122020404
 30
0.0
  0
HATCH
  5
11D
330
116
100
AcDbEntity
  8
_U+30EC_U+30A4_U+30E4_U+30FC 1
 62
   179
420
  2234388
100
AcDbHatch
 10
0.0
 20
0.0
 30
0.0
210
0.0
220
0.0
230
1.0
  2
SOLID
 70
     1
 71
     0
 91
        1
 92
        1
 93
        1
 72
     4
 94
        3
 73
     0
 74
     1
 95
       53
 96
       49
 40
0.0
 40
0.0
 40
0.0
 40
0.0
 40
1.0
 40
1.0
 40
1.0
 40
2.0
 40
2.0
 40
2.0
 40
3.0
 40
3.0
 40
3.0
 40
4.0
 40
4.0
 40
4.0
 40
5.0
 40
5.0
 40
5.0
 40
6.0
 40
6.0
 40
6.0
 40
7.0
 40
7.0
 40
7.0
 40
8.0
 40
8.0
 40
8.0
 40
9.0
 40
9.0
 40
9.0
 40
10.0
 40
10.0
 40
10.0
 40
11.0
 40
11.0
 40
11.0
 40
12.0
 40
12.0
 40
12.0
 40
13.0
 40
13.0
 40
13.0
 40
14.0
 40
14.0
 40
14.0
 40
15.0
 40
15.0
 40
15.0
 40
16.0
 40
16.0
 40
16.0
 40
16.0
 10
86.58076169710482
 20
-150.1717122020404
 10
86.50255802958964
 20
-150.1717122020404
 10
86.40092771277477
 20
-150.1548312341627
 10
86.29946965073417
 20
-150.0914414772341
 10
86.12600909305183
 20
-149.9811984217061
 10
86.10482175581755
 20
-149.8502847932666
 10
86.08570147587442
 20
-149.7421087950298
 10
86.08570147587442
 20
-149.7421087950298
 10
86.30791013467302
 20
-149.7421087950298
 10
86.30791013467302
 20
-149.7421087950298
 10
86.36285940766277
 20
-149.9412353140772
 10
86.48981117629421
 20
-149.9708631352503
 10
86.58282875439596
 20
-149.9708631352503
 10
86.72252737632284
 20
-149.9708631352503
 10
86.87480059677088
 20
-149.8712998757266
 10
86.87480059677088
 20
-149.6387559304723
 10
86.87480059677088
 20
-149.3827853359182
 10
86.69496661244085
 20
-149.3128498975676
 10
86.5743882704571
 20
-149.3128498975676
 10
86.5426933919928
 20
-149.3128498975676
 10
86.40092771277477
 20
-149.3128498975676
 10
86.31204424925532
 20
-149.441696468716
 10
86.31204424925532
 20
-149.441696468716
 10
86.13651663428185
 20
-149.4227484435471
 10
86.13651663428185
 20
-149.4227484435471
 10
86.13651663428185
 20
-149.4227484435471
 10
86.25709497626559
 20
-148.5766329923697
 10
86.25709497626559
 20
-148.5766329923697
 10
86.25709497626559
 20
-148.5766329923697
 10
87.03568655593206
 20
-148.5766329923697
 10
87.03568655593206
 20
-148.5766329923697
 10
87.03568655593206
 20
-148.5766329923697
 10
87.03568655593206
 20
-148.7712808872864
 10
87.03568655593206
 20
-148.7712808872864
 10
87.03568655593206
 20
-148.7712808872864
 10
86.42004799271791
 20
-148.7712808872864
 10
86.42004799271791
 20
-148.7712808872864
 10
86.42004799271791
 20
-148.7712808872864
 10
86.3544189237239
 20
-149.194338612875
 10
86.3544189237239
 20
-149.194338612875
 10
86.41574162336134
 20
-149.1605766771196
 10
86.49825166023308
 20
-149.1202690599422
 10
86.61676294492567
 20
-149.1202690599422
 10
86.87066648218858
 20
-149.1202690599422
 10
87.10751679679952
 20
-149.3063042161457
 10
87.10751679679952
 20
-149.6194633957549
 10
87.10751679679952
 20
-149.9367566899464
 10
86.88324108070975
 20
-150.1717122020404
 10
86.58076169710482
 20
-150.1717122020404
 97
        0
 97
        0
 75
     2
 76
     1
 98
        0
  0
ENDBLK
  5
119
330
116
100
AcDbEntity
  8
0
100
AcDbBlockEnd
  0
BLOCK
  5
131
330
12F
100
AcDbEntity
  8
0
100
AcDbBlockBegin
  2
block 5
 70
     0
 10
0.0
 20
0.0
 30
0.0
  3
block 5
  1

  0
SPLINE
  5
133
330
12F
100
AcDbEntity
  8
_U+30EC_U+30A4_U+30E4_U+30FC 1
370
     0
100
AcDbSpline
210
0.0
220
0.0
230
1.0
 70
    11
 71
     3
 72
    26
 73
    22
 74
     0
 42
0.0000000001
 43
0.0000000001
 12
1.0
 22
0.0
 32
0.0
 13
1.0
 23
0.0
 33
0.0
 40
0.0
 40
0.0
 40
0.0
 40
0.0
 40
1.0
 40
1.0
 40
1.0
 40
2.0
 40
2.0
 40
2.0
 40
3.0
 40
3.0
 40
3.0
 40
4.0
 40
4.0
 40
4.0
 40
5.0
 40
5.0
 40
5.0
 40
6.0
 40
6.0
 40
6.0
 40
7.0
 40
7.0
 40
7.0
 40
7.0
 10
85.01117619402498
 20
-152.7376193194545
 30
0.0
 10
85.01117619402498
 20
-152.7376193194545
 30
0.0
 10
85.01117619402498
 20
-151.6331217068834
 30
0.0
 10
85.01117619402498
 20
-151.6331217068834
 30
0.0
 10
85.01117619402498
 20
-151.6331217068834
 30
0.0
 10
84.68113604653806
 20
-151.6331217068834
 30
0.0
 10
84.68113604653806
 20
-151.6331217068834
 30
0.0
 10
84.68113604653806
 20
-151.6331217068834
 30
0.0
 10
84.68113604653806
 20
-151.4849826010177
 30
0.0
 10
84.68113604653806
 20
-151.4849826010177
 30
0.0
 10
85.01324325131614
 20
-151.4701686904311
 30
0.0
 10
85.05975204036702
 20
-151.3075601835273
 30
0.0
 10
85.08937986154015
 20
-151.193183013417
 30
0.0
 10
85.08937986154015
 20
-151.193183013417
 30
0.0
 10
85.23545191011475
 20
-151.193183013417
 30
0.0
 10
85.23545191011475
 20
-151.193183013417
 30
0.0
 10
85.23545191011475
 20
-151.193183013417
 30
0.0
 10
85.23545191011475
 20
-152.7376193194545
 30
0.0
 10
85.23545191011475
 20
-152.7376193194545
 30
0.0
 10
85.23545191011475
 20
-152.7376193194545
 30
0.0
 10
85.01117619402498
 20
-152.7376193194545
 30
0.0
 10
85.01117619402498
 20
-152.7376193194545
 30
0.0
  0
HATCH
  5
134
330
12F
100
AcDbEntity
  8
_U+30EC_U+30A4_U+30E4_U+30FC 1
 62
   179
420
  2234388
100
AcDbHatch
 10
0.0
 20
0.0
 30
0.0
210
0.0
220
0.0
230
1.0
  2
SOLID
 70
     1
 71
     0
 91
        1
 92
        1
 93
        1
 72
     4
 94
        3
 73
     0
 74
     1
 95
       26
 96
       22
 40
0.0
 40
0.0
 40
0.0
 40
0.0
 40
1.0
 40
1.0
 40
1.0
 40
2.0
 40
2.0
 40
2.0
 40
3.0
 40
3.0
 40
3.0
 40
4.0
 40
4.0
 40
4.0
 40
5.0
 40
5.0
 40
5.0
 40
6.0
 40
6.0
 40
6.0
 40
7.0
 40
7.0
 40
7.0
 40
7.0
 10
85.01117619402498
 20
-152.7376193194545
 10
85.01117619402498
 20
-152.7376193194545
 10
85.01117619402498
 20
-151.6331217068834
 10
85.01117619402498
 20
-151.6331217068834
 10
85.01117619402498
 20
-151.6331217068834
 10
84.68113604653806
 20
-151.6331217068834
 10
84.68113604653806
 20
-151.6331217068834
 10
84.68113604653806
 20
-151.6331217068834
 10
84.68113604653806
 20
-151.4849826010177
 10
84.68113604653806
 20
-151.4849826010177
 10
85.01324325131614
 20
-151.4701686904311
 10
85.05975204036702
 20
-151.3075601835273
 10
85.08937986154015
 20
-151.193183013417
 10
85.08937986154015
 20
-151.193183013417
 10
85.23545191011475
 20
-151.193183013417
 10
85.23545191011475
 20
-151.193183013417
 10
85.23545191011475
 20
-151.193183013417
 10
85.23545191011475
 20
-152.7376193194545
 10
85.23545191011475
 20
-152.7376193194545
 10
85.23545191011475
 20
-152.7376193194545
 10
85.01117619402498
 20
-152.7376193194545
 10
85.01117619402498
 20
-152.7376193194545
 97
        0
 97
        0
 75
     2
 76
     1
 98
        0
  0
SPLINE
  5
135
330
12F
100
AcDbEntity
  8
_U+30EC_U+30A4_U+30E4_U+30FC 1
370
     0
100
AcDbSpline
210
0.0
220
0.0
230
1.0
 70
    11
 71
     3
 72
    32
 73
    28
 74
     0
 42
0.0000000001
 43
0.0000000001
 12
1.0
 22
0.0
 32
0.0
 13
1.0
 23
0.0
 33
0.0
 40
0.0
 40
0.0
 40
0.0
 40
0.0
 40
1.0
 40
1.0
 40
1.0
 40
2.0
 40
2.0
 40
2.0
 40
3.0
 40
3.0
 40
3.0
 40
4.0
 40
4.0
 40
4.0
 40
5.0
 40
5.0
 40
5.0
 40
6.0
 40
6.0
 40
6.0
 40
7.0
 40
7.0
 40
7.0
 40
8.0
 40
8.0
 40
8.0
 40
9.0
 40
9.0
 40
9.0
 40
9.0
 10
86.24090302748492
 20
-152.7882622230877
 30
0.0
 10
85.72465546902023
 20
-152.7882622230877
 30
0.0
 10
85.71621498508136
 20
-152.233946359511
 30
0.0
 10
85.71621498508136
 20
-152.0203504394255
 30
0.0
 10
85.71621498508136
 20
-151.7898735514623
 30
0.0
 10
85.7353352650245
 20
-151.1425401097838
 30
0.0
 10
86.27897133259692
 20
-151.1425401097838
 30
0.0
 10
86.45243189027926
 20
-151.1425401097838
 30
0.0
 10
86.6978949436033
 20
-151.2121310385859
 30
0.0
 10
86.73596324871532
 20
-151.5442382433639
 30
0.0
 10
86.73596324871532
 20
-151.5442382433639
 30
0.0
 10
86.52219507385557
 20
-151.5442382433639
 30
0.0
 10
86.52219507385557
 20
-151.5442382433639
 30
0.0
 10
86.51168753262556
 20
-151.4870496583088
 30
0.0
 10
86.47999265416125
 20
-151.3392550619916
 30
0.0
 10
86.27690427530578
 20
-151.3392550619916
 30
0.0
 10
85.98493243293085
 20
-151.3392550619916
 30
0.0
 10
85.9447970705277
 20
-151.6668836426389
 30
0.0
 10
85.93205021723227
 20
-151.8722113335597
 30
0.0
 10
86.02506779533401
 20
-151.7940076660446
 30
0.0
 10
86.09276392161918
 20
-151.7347520236983
 30
0.0
 10
86.27466496324037
 20
-151.7347520236983
 30
0.0
 10
86.4544989475704
 20
-151.7347520236983
 30
0.0
 10
86.7571505859496
 20
-151.8425835123866
 30
0.0
 10
86.7571505859496
 20
-152.2487602700975
 30
0.0
 10
86.7571505859496
 20
-152.5681206215802
 30
0.0
 10
86.55819632167643
 20
-152.7882622230877
 30
0.0
 10
86.24090302748492
 20
-152.7882622230877
 30
0.0
  0
SPLINE
  5
136
330
12F
100
AcDbEntity
  8
_U+30EC_U+30A4_U+30E4_U+30FC 1
370
     0
100
AcDbSpline
210
0.0
220
0.0
230
1.0
 70
    11
 71
     3
 72
    17
 73
    13
 74
     0
 42
0.0000000001
 43
0.0000000001
 12
1.0
 22
0.0
 32
0.0
 13
1.0
 23
0.0
 33
0.0
 40
0.0
 40
0.0
 40
0.0
 40
0.0
 40
1.0
 40
1.0
 40
1.0
 40
2.0
 40
2.0
 40
2.0
 40
3.0
 40
3.0
 40
3.0
 40
4.0
 40
4.0
 40
4.0
 40
4.0
 10
86.25778399536264
 20
-151.9293999186149
 30
0.0
 10
85.99543997416086
 20
-151.9293999186149
 30
0.0
 10
85.95737166904885
 20
-152.1409287814092
 30
0.0
 10
85.95737166904885
 20
-152.2573730088107
 30
0.0
 10
85.95737166904885
 20
-152.4327283690099
 30
0.0
 10
86.05262855921602
 20
-152.5956813854622
 30
0.0
 10
86.23659665812835
 20
-152.5956813854622
 30
0.0
 10
86.3571750001121
 20
-152.5956813854622
 30
0.0
 10
86.53287486985984
 20
-152.5364257431159
 30
0.0
 10
86.53287486985984
 20
-152.2508273273887
 30
0.0
 10
86.53287486985984
 20
-152.0265516112989
 30
0.0
 10
86.39317624793296
 20
-151.9293999186149
 30
0.0
 10
86.25778399536264
 20
-151.9293999186149
 30
0.0
  0
HATCH
  5
137
330
12F
100
AcDbEntity
  8
_U+30EC_U+30A4_U+30E4_U+30FC 1
 62
   179
420
  2234388
100
AcDbHatch
 10
0.0
 20
0.0
 30
0.0
210
0.0
220
0.0
230
1.0
  2
SOLID
 70
     1
 71
     0
 91
        2
 92
        1
 93
        1
 72
     4
 94
        3
 73
     0
 74
     1
 95
       32
 96
       28
 40
0.0
 40
0.0
 40
0.0
 40
0.0
 40
1.0
 40
1.0
 40
1.0
 40
2.0
 40
2.0
 40
2.0
 40
3.0
 40
3.0
 40
3.0
 40
4.0
 40
4.0
 40
4.0
 40
5.0
 40
5.0
 40
5.0
 40
6.0
 40
6.0
 40
6.0
 40
7.0
 40
7.0
 40
7.0
 40
8.0
 40
8.0
 40
8.0
 40
9.0
 40
9.0
 40
9.0
 40
9.0
 10
86.24090302748492
 20
-152.7882622230877
 10
85.72465546902023
 20
-152.7882622230877
 10
85.71621498508136
 20
-152.233946359511
 10
85.71621498508136
 20
-152.0203504394255
 10
85.71621498508136
 20
-151.7898735514623
 10
85.7353352650245
 20
-151.1425401097838
 10
86.27897133259692
 20
-151.1425401097838
 10
86.45243189027926
 20
-151.1425401097838
 10
86.6978949436033
 20
-151.2121310385859
 10
86.73596324871532
 20
-151.5442382433639
 10
86.73596324871532
 20
-151.5442382433639
 10
86.52219507385557
 20
-151.5442382433639
 10
86.52219507385557
 20
-151.5442382433639
 10
86.51168753262556
 20
-151.4870496583088
 10
86.47999265416125
 20
-151.3392550619916
 10
86.27690427530578
 20
-151.3392550619916
 10
85.98493243293085
 20
-151.3392550619916
 10
85.9447970705277
 20
-151.6668836426389
 10
85.93205021723227
 20
-151.8722113335597
 10
86.02506779533401
 20
-151.7940076660446
 10
86.09276392161918
 20
-151.7347520236983
 10
86.27466496324037
 20
-151.7347520236983
 10
86.4544989475704
 20
-151.7347520236983
 10
86.7571505859496
 20
-151.8425835123866
 10
86.7571505859496
 20
-152.2487602700975
 10
86.7571505859496
 20
-152.5681206215802
 10
86.55819632167643
 20
-152.7882622230877
 10
86.24090302748492
 20
-152.7882622230877
 97
        0
 97
        0
 92
        1
 93
        1
 72
     4
 94
        3
 73
     0
 74
     1
 95
       17
 96
       13
 40
0.0
 40
0.0
 40
0.0
 40
0.0
 40
1.0
 40
1.0
 40
1.0
 40
2.0
 40
2.0
 40
2.0
 40
3.0
 40
3.0
 40
3.0
 40
4.0
 40
4.0
 40
4.0
 40
4.0
 10
86.25778399536264
 20
-151.9293999186149
 10
85.99543997416086
 20
-151.9293999186149
 10
85.95737166904885
 20
-152.1409287814092
 10
85.95737166904885
 20
-152.2573730088107
 10
85.95737166904885
 20
-152.4327283690099
 10
86.05262855921602
 20
-152.5956813854622
 10
86.23659665812835
 20
-152.5956813854622
 10
86.3571750001121
 20
-152.5956813854622
 10
86.53287486985984
 20
-152.5364257431159
 10
86.53287486985984
 20
-152.2508273273887
 10
86.53287486985984
 20
-152.0265516112989
 10
86.39317624793296
 20
-151.9293999186149
 10
86.25778399536264
 20
-151.9293999186149
 97
        0
 97
        0
 75
     2
 76
     1
 98
        0
  0
POLYLINE
  5
138
330
12F
100
AcDbEntity
  8
_U+30EC_U+30A4_U+30E4_U+30FC 1
370
     0
100
AcDb2dPolyline
 66
     1
 10
0.0
 20
0.0
 30
0.0
  0
VERTEX
  5
139
330
138
100
AcDbEntity
  8
_U+30EC_U+30A4_U+30E4_U+30FC 1
370
     0
100
AcDbVertex
100
AcDb2dVertex
 10
86.9735025824233
 20
-152.7376193194545
 30
0.0
  0
VERTEX
  5
13A
330
138
100
AcDbEntity
  8
_U+30EC_U+30A4_U+30E4_U+30FC 1
370
     0
100
AcDbVertex
100
AcDb2dVertex
 10
86.9735025824233
 20
-152.4857828394827
 30
0.0
  0
VERTEX
  5
13B
330
138
100
AcDbEntity
  8
_U+30EC_U+30A4_U+30E4_U+30FC 1
370
     0
100
AcDbVertex
100
AcDb2dVertex
 10
87.22533906239507
 20
-152.4857828394827
 30
0.0
  0
VERTEX
  5
13C
330
138
100
AcDbEntity
  8
_U+30EC_U+30A4_U+30E4_U+30FC 1
370
     0
100
AcDbVertex
100
AcDb2dVertex
 10
87.22533906239507
 20
-152.7376193194545
 30
0.0
  0
VERTEX
  5
13D
330
138
100
AcDbEntity
  8
_U+30EC_U+30A4_U+30E4_U+30FC 1
370
     0
100
AcDbVertex
100
AcDb2dVertex
 10
86.9735025824233
 20
-152.7376193194545
 30
0.0
  0
SEQEND
  5
13E
330
138
100
AcDbEntity
  8
_U+30EC_U+30A4_U+30E4_U+30FC 1
370
     0
  0
HATCH
  5
13F
330
12F
100
AcDbEntity
  8
_U+30EC_U+30A4_U+30E4_U+30FC 1
 62
   179
420
  2234388
100
AcDbHatch
 10
0.0
 20
0.0
 30
0.0
210
0.0
220
0.0
230
1.0
  2
SOLID
 70
     1
 71
     0
 91
        1
 92
        1
 93
        4
 72
     1
 10
86.9735025824233
 20
-152.7376193194545
 11
86.9735025824233
 21
-152.4857828394827
 72
     1
 10
86.9735025824233
 20
-152.4857828394827
 11
87.22533906239507
 21
-152.4857828394827
 72
     1
 10
87.22533906239507
 20
-152.4857828394827
 11
87.22533906239507
 21
-152.7376193194545
 72
     1
 10
87.22533906239507
 20
-152.7376193194545
 11
86.9735025824233
 21
-152.7376193194545
 97
        0
 75
     2
 76
     1
 98
        0
  0
SPLINE
  5
140
330
12F
100
AcDbEntity
  8
_U+30EC_U+30A4_U+30E4_U+30FC 1
370
     0
100
AcDbSpline
210
0.0
220
0.0
230
1.0
 70
    11
 71
     3
 72
    53
 73
    49
 74
     0
 42
0.0000000001
 43
0.0000000001
 12
1.0
 22
0.0
 32
0.0
 13
1.0
 23
0.0
 33
0.0
 40
0.0
 40
0.0
 40
0.0
 40
0.0
 40
1.0
 40
1.0
 40
1.0
 40
2.0
 40
2.0
 40
2.0
 40
3.0
 40
3.0
 40
3.0
 40
4.0
 40
4.0
 40
4.0
 40
5.0
 40
5.0
 40
5.0
 40
6.0
 40
6.0
 40
6.0
 40
7.0
 40
7.0
 40
7.0
 40
8.0
 40
8.0
 40
8.0
 40
9.0
 40
9.0
 40
9.0
 40
10.0
 40
10.0
 40
10.0
 40
11.0
 40
11.0
 40
11.0
 40
12.0
 40
12.0
 40
12.0
 40
13.0
 40
13.0
 40
13.0
 40
14.0
 40
14.0
 40
14.0
 40
15.0
 40
15.0
 40
15.0
 40
16.0
 40
16.0
 40
16.0
 40
16.0
 10
87.94260794242408
 20
-152.7882622230877
 30
0.0
 10
87.8644042749089
 20
-152.7882622230877
 30
0.0
 10
87.7629462128683
 20
-152.7713812552099
 30
0.0
 10
87.66131589605342
 20
-152.7079914982813
 30
0.0
 10
87.48785533837109
 20
-152.5977484427534
 30
0.0
 10
87.46666800113681
 20
-152.4668348143138
 30
0.0
 10
87.44771997596793
 20
-152.358658816077
 30
0.0
 10
87.44771997596793
 20
-152.358658816077
 30
0.0
 10
87.6697563799923
 20
-152.358658816077
 30
0.0
 10
87.6697563799923
 20
-152.358658816077
 30
0.0
 10
87.72470565298202
 20
-152.5577853351244
 30
0.0
 10
87.85165742161348
 20
-152.5874131562976
 30
0.0
 10
87.94484725448949
 20
-152.5874131562976
 30
0.0
 10
88.0843736216421
 20
-152.5874131562976
 30
0.0
 10
88.23681909686441
 20
-152.4878498967739
 30
0.0
 10
88.23681909686441
 20
-152.2553059515195
 30
0.0
 10
88.23681909686441
 20
-151.9993353569654
 30
0.0
 10
88.05698511253436
 20
-151.9293999186149
 30
0.0
 10
87.93640677055062
 20
-151.9293999186149
 30
0.0
 10
87.90453963731207
 20
-151.9293999186149
 30
0.0
 10
87.7629462128683
 20
-151.9293999186149
 30
0.0
 10
87.67406274934885
 20
-152.0582464897632
 30
0.0
 10
87.67406274934885
 20
-152.0582464897632
 30
0.0
 10
87.4983628796011
 20
-152.0392984645943
 30
0.0
 10
87.4983628796011
 20
-152.0392984645943
 30
0.0
 10
87.4983628796011
 20
-152.0392984645943
 30
0.0
 10
87.61894122158485
 20
-151.193183013417
 30
0.0
 10
87.61894122158485
 20
-151.193183013417
 30
0.0
 10
87.61894122158485
 20
-151.193183013417
 30
0.0
 10
88.39753280125132
 20
-151.193183013417
 30
0.0
 10
88.39753280125132
 20
-151.193183013417
 30
0.0
 10
88.39753280125132
 20
-151.193183013417
 30
0.0
 10
88.39753280125132
 20
-151.3878309083336
 30
0.0
 10
88.39753280125132
 20
-151.3878309083336
 30
0.0
 10
88.39753280125132
 20
-151.3878309083336
 30
0.0
 10
87.78189423803717
 20
-151.3878309083336
 30
0.0
 10
87.78189423803717
 20
-151.3878309083336
 30
0.0
 10
87.78189423803717
 20
-151.3878309083336
 30
0.0
 10
87.71626516904315
 20
-151.8108886339223
 30
0.0
 10
87.71626516904315
 20
-151.8108886339223
 30
0.0
 10
87.77758786868061
 20
-151.7771266981668
 30
0.0
 10
87.86009790555234
 20
-151.7368190809894
 30
0.0
 10
87.97860919024494
 20
-151.7368190809894
 30
0.0
 10
88.23251272750785
 20
-151.7368190809894
 30
0.0
 10
88.46936304211877
 20
-151.9228542371929
 30
0.0
 10
88.46936304211877
 20
-152.2360134168021
 30
0.0
 10
88.46936304211877
 20
-152.5533067109936
 30
0.0
 10
88.24525958080328
 20
-152.7882622230877
 30
0.0
 10
87.94260794242408
 20
-152.7882622230877
 30
0.0
  0
HATCH
  5
141
330
12F
100
AcDbEntity
  8
_U+30EC_U+30A4_U+30E4_U+30FC 1
 62
   179
420
  2234388
100
AcDbHatch
 10
0.0
 20
0.0
 30
0.0
210
0.0
220
0.0
230
1.0
  2
SOLID
 70
     1
 71
     0
 91
        1
 92
        1
 93
        1
 72
     4
 94
        3
 73
     0
 74
     1
 95
       53
 96
       49
 40
0.0
 40
0.0
 40
0.0
 40
0.0
 40
1.0
 40
1.0
 40
1.0
 40
2.0
 40
2.0
 40
2.0
 40
3.0
 40
3.0
 40
3.0
 40
4.0
 40
4.0
 40
4.0
 40
5.0
 40
5.0
 40
5.0
 40
6.0
 40
6.0
 40
6.0
 40
7.0
 40
7.0
 40
7.0
 40
8.0
 40
8.0
 40
8.0
 40
9.0
 40
9.0
 40
9.0
 40
10.0
 40
10.0
 40
10.0
 40
11.0
 40
11.0
 40
11.0
 40
12.0
 40
12.0
 40
12.0
 40
13.0
 40
13.0
 40
13.0
 40
14.0
 40
14.0
 40
14.0
 40
15.0
 40
15.0
 40
15.0
 40
16.0
 40
16.0
 40
16.0
 40
16.0
 10
87.94260794242408
 20
-152.7882622230877
 10
87.8644042749089
 20
-152.7882622230877
 10
87.7629462128683
 20
-152.7713812552099
 10
87.66131589605342
 20
-152.7079914982813
 10
87.48785533837109
 20
-152.5977484427534
 10
87.46666800113681
 20
-152.4668348143138
 10
87.44771997596793
 20
-152.358658816077
 10
87.44771997596793
 20
-152.358658816077
 10
87.6697563799923
 20
-152.358658816077
 10
87.6697563799923
 20
-152.358658816077
 10
87.72470565298202
 20
-152.5577853351244
 10
87.85165742161348
 20
-152.5874131562976
 10
87.94484725448949
 20
-152.5874131562976
 10
88.0843736216421
 20
-152.5874131562976
 10
88.23681909686441
 20
-152.4878498967739
 10
88.23681909686441
 20
-152.2553059515195
 10
88.23681909686441
 20
-151.9993353569654
 10
88.05698511253436
 20
-151.9293999186149
 10
87.93640677055062
 20
-151.9293999186149
 10
87.90453963731207
 20
-151.9293999186149
 10
87.7629462128683
 20
-151.9293999186149
 10
87.67406274934885
 20
-152.0582464897632
 10
87.67406274934885
 20
-152.0582464897632
 10
87.4983628796011
 20
-152.0392984645943
 10
87.4983628796011
 20
-152.0392984645943
 10
87.4983628796011
 20
-152.0392984645943
 10
87.61894122158485
 20
-151.193183013417
 10
87.61894122158485
 20
-151.193183013417
 10
87.61894122158485
 20
-151.193183013417
 10
88.39753280125132
 20
-151.193183013417
 10
88.39753280125132
 20
-151.193183013417
 10
88.39753280125132
 20
-151.193183013417
 10
88.39753280125132
 20
-151.3878309083336
 10
88.39753280125132
 20
-151.3878309083336
 10
88.39753280125132
 20
-151.3878309083336
 10
87.78189423803717
 20
-151.3878309083336
 10
87.78189423803717
 20
-151.3878309083336
 10
87.78189423803717
 20
-151.3878309083336
 10
87.71626516904315
 20
-151.8108886339223
 10
87.71626516904315
 20
-151.8108886339223
 10
87.77758786868061
 20
-151.7771266981668
 10
87.86009790555234
 20
-151.7368190809894
 10
87.97860919024494
 20
-151.7368190809894
 10
88.23251272750785
 20
-151.7368190809894
 10
88.46936304211877
 20
-151.9228542371929
 10
88.46936304211877
 20
-152.2360134168021
 10
88.46936304211877
 20
-152.5533067109936
 10
88.24525958080328
 20
-152.7882622230877
 10
87.94260794242408
 20
-152.7882622230877
 97
        0
 97
        0
 75
     2
 76
     1
 98
        0
  0
ENDBLK
  5
132
330
12F
100
AcDbEntity
  8
0
100
AcDbBlockEnd
  0
ENDSEC
  0
SECTION
  2
ENTITIES
  0
POLYLINE
  5
41
330
1F
100
AcDbEntity
  8
_U+30EC_U+30A4_U+30E4_U+30FC 1
 62
   179
420
  2234388
370
    25
100
AcDb2dPolyline
 66
     1
 10
0.0
 20
0.0
 30
0.0
  0
VERTEX
  5
42
330
41
100
AcDbEntity
  8
_U+30EC_U+30A4_U+30E4_U+30FC 1
 62
   179
420
  2234388
370
    25
100
AcDbVertex
100
AcDb2dVertex
 10
78.5118213303299
 20
-146.4937238522652
 30
0.0
  0
VERTEX
  5
43
330
41
100
AcDbEntity
  8
_U+30EC_U+30A4_U+30E4_U+30FC 1
 62
   179
420
  2234388
370
    25
100
AcDbVertex
100
AcDb2dVertex
 10
93.51228483652508
 20
-146.4937238522652
 30
0.0
  0
SEQEND
  5
44
330
41
100
AcDbEntity
  8
_U+30EC_U+30A4_U+30E4_U+30FC 1
 62
   179
420
  2234388
370
    25
  0
POLYLINE
  5
45
330
1F
100
AcDbEntity
  8
_U+30EC_U+30A4_U+30E4_U+30FC 1
 62
   179
420
  2234388
370
    25
100
AcDb2dPolyline
 66
     1
 10
0.0
 20
0.0
 30
0.0
  0
VERTEX
  5
46
330
45
100
AcDbEntity
  8
_U+30EC_U+30A4_U+30E4_U+30FC 1
 62
   179
420
  2234388
370
    25
100
AcDbVertex
100
AcDb2dVertex
 10
93.51228483652508
 20
-102.4936566410432
 30
0.0
  0
VERTEX
  5
47
330
45
100
AcDbEntity
  8
_U+30EC_U+30A4_U+30E4_U+30FC 1
 62
   179
420
  2234388
370
    25
100
AcDbVertex
100
AcDb2dVertex
 10
93.51228483652508
 20
-111.4936174721266
 30
0.0
  0
SEQEND
  5
48
330
45
100
AcDbEntity
  8
_U+30EC_U+30A4_U+30E4_U+30FC 1
 62
   179
420
  2234388
370
    25
  0
POLYLINE
  5
49
330
1F
100
AcDbEntity
  8
_U+30EC_U+30A4_U+30E4_U+30FC 1
 62
   179
420
  2234388
370
    25
100
AcDb2dPolyline
 66
     1
 10
0.0
 20
0.0
 30
0.0
  0
VERTEX
  5
4A
330
49
100
AcDbEntity
  8
_U+30EC_U+30A4_U+30E4_U+30FC 1
 62
   179
420
  2234388
370
    25
100
AcDbVertex
100
AcDb2dVertex
 10
92.5118423620485
 20
-134.9936621884738
 30
0.0
  0
VERTEX
  5
4B
330
49
100
AcDbEntity
  8
_U+30EC_U+30A4_U+30E4_U+30FC 1
 62
   179
420
  2234388
370
    25
100
AcDbVertex
100
AcDb2dVertex
 10
92.5118423620485
 20
-138.7663735764193
 30
0.0
  0
SEQEND
  5
4C
330
49
100
AcDbEntity
  8
_U+30EC_U+30A4_U+30E4_U+30FC 1
 62
   179
420
  2234388
370
    25
  0
POLYLINE
  5
4D
330
1F
100
AcDbEntity
  8
_U+30EC_U+30A4_U+30E4_U+30FC 1
 62
   179
420
  2234388
370
    25
100
AcDb2dPolyline
 66
     1
 10
0.0
 20
0.0
 30
0.0
  0
VERTEX
  5
4E
330
4D
100
AcDbEntity
  8
_U+30EC_U+30A4_U+30E4_U+30FC 1
 62
   179
420
  2234388
370
    25
100
AcDbVertex
100
AcDb2dVertex
 10
84.51179720109417
 20
-145.4936341302931
 30
0.0
  0
VERTEX
  5
4F
330
4D
100
AcDbEntity
  8
_U+30EC_U+30A4_U+30E4_U+30FC 1
 62
   179
420
  2234388
370
    25
100
AcDbVertex
100
AcDb2dVertex
 10
92.5118423620485
 20
-145.4936341302931
 30
0.0
  0
SEQEND
  5
50
330
4D
100
AcDbEntity
  8
_U+30EC_U+30A4_U+30E4_U+30FC 1
 62
   179
420
  2234388
370
    25
  0
POLYLINE
  5
51
330
1F
100
AcDbEntity
  8
_U+30EC_U+30A4_U+30E4_U+30FC 1
 62
   179
420
  2234388
370
    25
100
AcDb2dPolyline
 66
     1
 10
0.0
 20
0.0
 30
0.0
  0
VERTEX
  5
52
330
51
100
AcDbEntity
  8
_U+30EC_U+30A4_U+30E4_U+30FC 1
 62
   179
420
  2234388
370
    25
100
AcDbVertex
100
AcDb2dVertex
 10
93.51228483652508
 20
-137.9936491321682
 30
0.0
  0
VERTEX
  5
53
330
51
100
AcDbEntity
  8
_U+30EC_U+30A4_U+30E4_U+30FC 1
 62
   179
420
  2234388
370
    25
100
AcDbVertex
100
AcDb2dVertex
 10
92.5118423620485
 20
-138.7663735764193
 30
0.0
  0
SEQEND
  5
54
330
51
100
AcDbEntity
  8
_U+30EC_U+30A4_U+30E4_U+30FC 1
 62
   179
420
  2234388
370
    25
  0
POLYLINE
  5
55
330
1F
100
AcDbEntity
  8
_U+30EC_U+30A4_U+30E4_U+30FC 1
 62
   179
420
  2234388
370
    25
100
AcDb2dPolyline
 66
     1
 10
0.0
 20
0.0
 30
0.0
  0
VERTEX
  5
56
330
55
100
AcDbEntity
  8
_U+30EC_U+30A4_U+30E4_U+30FC 1
 62
   179
420
  2234388
370
    25
100
AcDbVertex
100
AcDb2dVertex
 10
92.5118423620485
 20
-140.2773913538192
 30
0.0
  0
VERTEX
  5
57
330
55
100
AcDbEntity
  8
_U+30EC_U+30A4_U+30E4_U+30FC 1
 62
   179
420
  2234388
370
    25
100
AcDbVertex
100
AcDb2dVertex
 10
91.51207016533259
 20
-141.0501157980709
 30
0.0
  0
SEQEND
  5
58
330
55
100
AcDbEntity
  8
_U+30EC_U+30A4_U+30E4_U+30FC 1
 62
   179
420
  2234388
370
    25
  0
POLYLINE
  5
59
330
1F
100
AcDbEntity
  8
_U+30EC_U+30A4_U+30E4_U+30FC 1
 62
   179
420
  2234388
370
    25
100
AcDb2dPolyline
 66
     1
 10
0.0
 20
0.0
 30
0.0
  0
VERTEX
  5
5A
330
59
100
AcDbEntity
  8
_U+30EC_U+30A4_U+30E4_U+30FC 1
 62
   179
420
  2234388
370
    25
100
AcDbVertex
100
AcDb2dVertex
 10
91.51207016533259
 20
-132.693692189049
 30
0.0
  0
VERTEX
  5
5B
330
59
100
AcDbEntity
  8
_U+30EC_U+30A4_U+30E4_U+30FC 1
 62
   179
420
  2234388
370
    25
100
AcDbVertex
100
AcDb2dVertex
 10
91.51207016533259
 20
-141.0501157980709
 30
0.0
  0
SEQEND
  5
5C
330
59
100
AcDbEntity
  8
_U+30EC_U+30A4_U+30E4_U+30FC 1
 62
   179
420
  2234388
370
    25
  0
POLYLINE
  5
5D
330
1F
100
AcDbEntity
  8
_U+30EC_U+30A4_U+30E4_U+30FC 1
 62
   179
420
  2234388
370
    25
100
AcDb2dPolyline
 66
     1
 10
0.0
 20
0.0
 30
0.0
  0
VERTEX
  5
5E
330
5D
100
AcDbEntity
  8
_U+30EC_U+30A4_U+30E4_U+30FC 1
 62
   179
420
  2234388
370
    25
100
AcDbVertex
100
AcDb2dVertex
 10
92.5118423620485
 20
-140.2773913538192
 30
0.0
  0
VERTEX
  5
5F
330
5D
100
AcDbEntity
  8
_U+30EC_U+30A4_U+30E4_U+30FC 1
 62
   179
420
  2234388
370
    25
100
AcDbVertex
100
AcDb2dVertex
 10
92.5118423620485
 20
-145.4936341302931
 30
0.0
  0
SEQEND
  5
60
330
5D
100
AcDbEntity
  8
_U+30EC_U+30A4_U+30E4_U+30FC 1
 62
   179
420
  2234388
370
    25
  0
POLYLINE
  5
61
330
1F
100
AcDbEntity
  8
_U+30EC_U+30A4_U+30E4_U+30FC 1
 62
   179
420
  2234388
370
    25
100
AcDb2dPolyline
 66
     1
 10
0.0
 20
0.0
 30
0.0
  0
VERTEX
  5
62
330
61
100
AcDbEntity
  8
_U+30EC_U+30A4_U+30E4_U+30FC 1
 62
   179
420
  2234388
370
    25
100
AcDbVertex
100
AcDb2dVertex
 10
93.51228483652508
 20
-137.9936491321682
 30
0.0
  0
VERTEX
  5
63
330
61
100
AcDbEntity
  8
_U+30EC_U+30A4_U+30E4_U+30FC 1
 62
   179
420
  2234388
370
    25
100
AcDbVertex
100
AcDb2dVertex
 10
93.51228483652508
 20
-146.4937238522652
 30
0.0
  0
SEQEND
  5
64
330
61
100
AcDbEntity
  8
_U+30EC_U+30A4_U+30E4_U+30FC 1
 62
   179
420
  2234388
370
    25
  0
POLYLINE
  5
65
330
1F
100
AcDbEntity
  8
_U+30EC_U+30A4_U+30E4_U+30FC 1
 62
   179
420
  2234388
370
    25
100
AcDb2dPolyline
 66
     1
 10
0.0
 20
0.0
 30
0.0
  0
VERTEX
  5
66
330
65
100
AcDbEntity
  8
_U+30EC_U+30A4_U+30E4_U+30FC 1
 62
   179
420
  2234388
370
    25
100
AcDbVertex
100
AcDb2dVertex
 10
92.5118423620485
 20
-134.9936621884738
 30
0.0
  0
VERTEX
  5
67
330
65
100
AcDbEntity
  8
_U+30EC_U+30A4_U+30E4_U+30FC 1
 62
   179
420
  2234388
370
    25
100
AcDbVertex
100
AcDb2dVertex
 10
93.51228483652508
 20
-134.9936621884738
 30
0.0
  0
SEQEND
  5
68
330
65
100
AcDbEntity
  8
_U+30EC_U+30A4_U+30E4_U+30FC 1
 62
   179
420
  2234388
370
    25
  0
POLYLINE
  5
69
330
1F
100
AcDbEntity
  8
_U+30EC_U+30A4_U+30E4_U+30FC 1
 62
   179
420
  2234388
370
    25
100
AcDb2dPolyline
 66
     1
 10
0.0
 20
0.0
 30
0.0
  0
VERTEX
  5
6A
330
69
100
AcDbEntity
  8
_U+30EC_U+30A4_U+30E4_U+30FC 1
 62
   179
420
  2234388
370
    25
100
AcDbVertex
100
AcDb2dVertex
 10
92.5118423620485
 20
-133.4664519110776
 30
0.0
  0
VERTEX
  5
6B
330
69
100
AcDbEntity
  8
_U+30EC_U+30A4_U+30E4_U+30FC 1
 62
   179
420
  2234388
370
    25
100
AcDbVertex
100
AcDb2dVertex
 10
91.51207016533259
 20
-132.693692189049
 30
0.0
  0
SEQEND
  5
6C
330
69
100
AcDbEntity
  8
_U+30EC_U+30A4_U+30E4_U+30FC 1
 62
   179
420
  2234388
370
    25
  0
POLYLINE
  5
6D
330
1F
100
AcDbEntity
  8
_U+30EC_U+30A4_U+30E4_U+30FC 1
 62
   179
420
  2234388
370
    25
100
AcDb2dPolyline
 66
     1
 10
0.0
 20
0.0
 30
0.0
  0
VERTEX
  5
6E
330
6D
100
AcDbEntity
  8
_U+30EC_U+30A4_U+30E4_U+30FC 1
 62
   179
420
  2234388
370
    25
100
AcDbVertex
100
AcDb2dVertex
 10
92.5118423620485
 20
-101.4935316412932
 30
0.0
  0
VERTEX
  5
6F
330
6D
100
AcDbEntity
  8
_U+30EC_U+30A4_U+30E4_U+30FC 1
 62
   179
420
  2234388
370
    25
100
AcDbVertex
100
AcDb2dVertex
 10
92.5118423620485
 20
-133.4664519110776
 30
0.0
  0
SEQEND
  5
70
330
6D
100
AcDbEntity
  8
_U+30EC_U+30A4_U+30E4_U+30FC 1
 62
   179
420
  2234388
370
    25
  0
POLYLINE
  5
71
330
1F
100
AcDbEntity
  8
_U+30EC_U+30A4_U+30E4_U+30FC 1
 62
   179
420
  2234388
370
    25
100
AcDb2dPolyline
 66
     1
 10
0.0
 20
0.0
 30
0.0
  0
VERTEX
  5
72
330
71
100
AcDbEntity
  8
_U+30EC_U+30A4_U+30E4_U+30FC 1
 62
   179
420
  2234388
370
    25
100
AcDbVertex
100
AcDb2dVertex
 10
94.51205703324099
 20
-135.7663866327249
 30
0.0
  0
VERTEX
  5
73
330
71
100
AcDbEntity
  8
_U+30EC_U+30A4_U+30E4_U+30FC 1
 62
   179
420
  2234388
370
    25
100
AcDbVertex
100
AcDb2dVertex
 10
93.51228483652508
 20
-134.9936621884738
 30
0.0
  0
SEQEND
  5
74
330
71
100
AcDbEntity
  8
_U+30EC_U+30A4_U+30E4_U+30FC 1
 62
   179
420
  2234388
370
    25
  0
POLYLINE
  5
75
330
1F
100
AcDbEntity
  8
_U+30EC_U+30A4_U+30E4_U+30FC 1
 62
   179
420
  2234388
370
    25
100
AcDb2dPolyline
 66
     1
 10
0.0
 20
0.0
 30
0.0
  0
VERTEX
  5
76
330
75
100
AcDbEntity
  8
_U+30EC_U+30A4_U+30E4_U+30FC 1
 62
   179
420
  2234388
370
    25
100
AcDbVertex
100
AcDb2dVertex
 10
94.51205703324099
 20
-132.693692189049
 30
0.0
  0
VERTEX
  5
77
330
75
100
AcDbEntity
  8
_U+30EC_U+30A4_U+30E4_U+30FC 1
 62
   179
420
  2234388
370
    25
100
AcDbVertex
100
AcDb2dVertex
 10
94.51205703324099
 20
-135.7663866327249
 30
0.0
  0
SEQEND
  5
78
330
75
100
AcDbEntity
  8
_U+30EC_U+30A4_U+30E4_U+30FC 1
 62
   179
420
  2234388
370
    25
  0
POLYLINE
  5
79
330
1F
100
AcDbEntity
  8
_U+30EC_U+30A4_U+30E4_U+30FC 1
 62
   179
420
  2234388
370
    25
100
AcDb2dPolyline
 66
     1
 10
0.0
 20
0.0
 30
0.0
  0
VERTEX
  5
7A
330
79
100
AcDbEntity
  8
_U+30EC_U+30A4_U+30E4_U+30FC 1
 62
   179
420
  2234388
370
    25
100
AcDbVertex
100
AcDb2dVertex
 10
93.51228483652508
 20
-133.4664519110776
 30
0.0
  0
VERTEX
  5
7B
330
79
100
AcDbEntity
  8
_U+30EC_U+30A4_U+30E4_U+30FC 1
 62
   179
420
  2234388
370
    25
100
AcDbVertex
100
AcDb2dVertex
 10
94.51205703324099
 20
-132.693692189049
 30
0.0
  0
SEQEND
  5
7C
330
79
100
AcDbEntity
  8
_U+30EC_U+30A4_U+30E4_U+30FC 1
 62
   179
420
  2234388
370
    25
  0
POLYLINE
  5
7D
330
1F
100
AcDbEntity
  8
_U+30EC_U+30A4_U+30E4_U+30FC 1
 62
   179
420
  2234388
370
    25
100
AcDb2dPolyline
 66
     1
 10
0.0
 20
0.0
 30
0.0
  0
VERTEX
  5
7E
330
7D
100
AcDbEntity
  8
_U+30EC_U+30A4_U+30E4_U+30FC 1
 62
   179
420
  2234388
370
    25
100
AcDbVertex
100
AcDb2dVertex
 10
92.5118423620485
 20
-101.4935316412932
 30
0.0
  0
VERTEX
  5
7F
330
7D
100
AcDbEntity
  8
_U+30EC_U+30A4_U+30E4_U+30FC 1
 62
   179
420
  2234388
370
    25
100
AcDbVertex
100
AcDb2dVertex
 10
96.51227170443349
 20
-101.4935316412932
 30
0.0
  0
SEQEND
  5
80
330
7D
100
AcDbEntity
  8
_U+30EC_U+30A4_U+30E4_U+30FC 1
 62
   179
420
  2234388
370
    25
  0
POLYLINE
  5
81
330
1F
100
AcDbEntity
  8
_U+30EC_U+30A4_U+30E4_U+30FC 1
 62
   179
420
  2234388
370
    25
100
AcDb2dPolyline
 66
     1
 10
0.0
 20
0.0
 30
0.0
  0
VERTEX
  5
82
330
81
100
AcDbEntity
  8
_U+30EC_U+30A4_U+30E4_U+30FC 1
 62
   179
420
  2234388
370
    25
100
AcDbVertex
100
AcDb2dVertex
 10
96.51227170443349
 20
-101.4935316412932
 30
0.0
  0
VERTEX
  5
83
330
81
100
AcDbEntity
  8
_U+30EC_U+30A4_U+30E4_U+30FC 1
 62
   179
420
  2234388
370
    25
100
AcDbVertex
100
AcDb2dVertex
 10
96.51227170443349
 20
-102.4936566410432
 30
0.0
  0
SEQEND
  5
84
330
81
100
AcDbEntity
  8
_U+30EC_U+30A4_U+30E4_U+30FC 1
 62
   179
420
  2234388
370
    25
  0
POLYLINE
  5
85
330
1F
100
AcDbEntity
  8
_U+30EC_U+30A4_U+30E4_U+30FC 1
 62
   179
420
  2234388
370
    25
100
AcDb2dPolyline
 66
     1
 10
0.0
 20
0.0
 30
0.0
  0
VERTEX
  5
86
330
85
100
AcDbEntity
  8
_U+30EC_U+30A4_U+30E4_U+30FC 1
 62
   179
420
  2234388
370
    25
100
AcDbVertex
100
AcDb2dVertex
 10
93.51228483652508
 20
-102.4936566410432
 30
0.0
  0
VERTEX
  5
87
330
85
100
AcDbEntity
  8
_U+30EC_U+30A4_U+30E4_U+30FC 1
 62
   179
420
  2234388
370
    25
100
AcDbVertex
100
AcDb2dVertex
 10
96.51227170443349
 20
-102.4936566410432
 30
0.0
  0
SEQEND
  5
88
330
85
100
AcDbEntity
  8
_U+30EC_U+30A4_U+30E4_U+30FC 1
 62
   179
420
  2234388
370
    25
  0
POLYLINE
  5
89
330
1F
100
AcDbEntity
  8
_U+30EC_U+30A4_U+30E4_U+30FC 1
 62
   179
420
  2234388
370
    25
100
AcDb2dPolyline
 66
     1
 10
0.0
 20
0.0
 30
0.0
  0
VERTEX
  5
8A
330
89
100
AcDbEntity
  8
_U+30EC_U+30A4_U+30E4_U+30FC 1
 62
   179
420
  2234388
370
    25
100
AcDbVertex
100
AcDb2dVertex
 10
93.51228483652508
 20
-111.4936174721266
 30
0.0
  0
VERTEX
  5
8B
330
89
100
AcDbEntity
  8
_U+30EC_U+30A4_U+30E4_U+30FC 1
 62
   179
420
  2234388
370
    25
100
AcDbVertex
100
AcDb2dVertex
 10
94.51205703324099
 20
-110.7208930278755
 30
0.0
  0
SEQEND
  5
8C
330
89
100
AcDbEntity
  8
_U+30EC_U+30A4_U+30E4_U+30FC 1
 62
   179
420
  2234388
370
    25
  0
POLYLINE
  5
8D
330
1F
100
AcDbEntity
  8
_U+30EC_U+30A4_U+30E4_U+30FC 1
 62
   179
420
  2234388
370
    25
100
AcDb2dPolyline
 66
     1
 10
0.0
 20
0.0
 30
0.0
  0
VERTEX
  5
8E
330
8D
100
AcDbEntity
  8
_U+30EC_U+30A4_U+30E4_U+30FC 1
 62
   179
420
  2234388
370
    25
100
AcDbVertex
100
AcDb2dVertex
 10
94.51205703324099
 20
-110.7208930278755
 30
0.0
  0
VERTEX
  5
8F
330
8D
100
AcDbEntity
  8
_U+30EC_U+30A4_U+30E4_U+30FC 1
 62
   179
420
  2234388
370
    25
100
AcDbVertex
100
AcDb2dVertex
 10
94.51205703324099
 20
-113.7208799715698
 30
0.0
  0
SEQEND
  5
90
330
8D
100
AcDbEntity
  8
_U+30EC_U+30A4_U+30E4_U+30FC 1
 62
   179
420
  2234388
370
    25
  0
POLYLINE
  5
91
330
1F
100
AcDbEntity
  8
_U+30EC_U+30A4_U+30E4_U+30FC 1
 62
   179
420
  2234388
370
    25
100
AcDb2dPolyline
 66
     1
 10
0.0
 20
0.0
 30
0.0
  0
VERTEX
  5
92
330
91
100
AcDbEntity
  8
_U+30EC_U+30A4_U+30E4_U+30FC 1
 62
   179
420
  2234388
370
    25
100
AcDbVertex
100
AcDb2dVertex
 10
93.51228483652508
 20
-122.4934755249321
 30
0.0
  0
VERTEX
  5
93
330
91
100
AcDbEntity
  8
_U+30EC_U+30A4_U+30E4_U+30FC 1
 62
   179
420
  2234388
370
    25
100
AcDbVertex
100
AcDb2dVertex
 10
94.51205703324099
 20
-121.720751080681
 30
0.0
  0
SEQEND
  5
94
330
91
100
AcDbEntity
  8
_U+30EC_U+30A4_U+30E4_U+30FC 1
 62
   179
420
  2234388
370
    25
  0
POLYLINE
  5
95
330
1F
100
AcDbEntity
  8
_U+30EC_U+30A4_U+30E4_U+30FC 1
 62
   179
420
  2234388
370
    25
100
AcDb2dPolyline
 66
     1
 10
0.0
 20
0.0
 30
0.0
  0
VERTEX
  5
96
330
95
100
AcDbEntity
  8
_U+30EC_U+30A4_U+30E4_U+30FC 1
 62
   179
420
  2234388
370
    25
100
AcDbVertex
100
AcDb2dVertex
 10
94.51205703324099
 20
-121.720751080681
 30
0.0
  0
VERTEX
  5
97
330
95
100
AcDbEntity
  8
_U+30EC_U+30A4_U+30E4_U+30FC 1
 62
   179
420
  2234388
370
    25
100
AcDbVertex
100
AcDb2dVertex
 10
94.51205703324099
 20
-124.7207380243754
 30
0.0
  0
SEQEND
  5
98
330
95
100
AcDbEntity
  8
_U+30EC_U+30A4_U+30E4_U+30FC 1
 62
   179
420
  2234388
370
    25
  0
POLYLINE
  5
99
330
1F
100
AcDbEntity
  8
_U+30EC_U+30A4_U+30E4_U+30FC 1
 62
   179
420
  2234388
370
    25
100
AcDb2dPolyline
 66
     1
 10
0.0
 20
0.0
 30
0.0
  0
VERTEX
  5
9A
330
99
100
AcDbEntity
  8
_U+30EC_U+30A4_U+30E4_U+30FC 1
 62
   179
420
  2234388
370
    25
100
AcDbVertex
100
AcDb2dVertex
 10
94.51205703324099
 20
-124.7207380243754
 30
0.0
  0
VERTEX
  5
9B
330
99
100
AcDbEntity
  8
_U+30EC_U+30A4_U+30E4_U+30FC 1
 62
   179
420
  2234388
370
    25
100
AcDbVertex
100
AcDb2dVertex
 10
93.51228483652508
 20
-123.9479783023464
 30
0.0
  0
SEQEND
  5
9C
330
99
100
AcDbEntity
  8
_U+30EC_U+30A4_U+30E4_U+30FC 1
 62
   179
420
  2234388
370
    25
  0
POLYLINE
  5
9D
330
1F
100
AcDbEntity
  8
_U+30EC_U+30A4_U+30E4_U+30FC 1
 62
   179
420
  2234388
370
    25
100
AcDb2dPolyline
 66
     1
 10
0.0
 20
0.0
 30
0.0
  0
VERTEX
  5
9E
330
9D
100
AcDbEntity
  8
_U+30EC_U+30A4_U+30E4_U+30FC 1
 62
   179
420
  2234388
370
    25
100
AcDbVertex
100
AcDb2dVertex
 10
94.51205703324099
 20
-113.7208799715698
 30
0.0
  0
VERTEX
  5
9F
330
9D
100
AcDbEntity
  8
_U+30EC_U+30A4_U+30E4_U+30FC 1
 62
   179
420
  2234388
370
    25
100
AcDbVertex
100
AcDb2dVertex
 10
93.51228483652508
 20
-112.9481555273184
 30
0.0
  0
SEQEND
  5
A0
330
9D
100
AcDbEntity
  8
_U+30EC_U+30A4_U+30E4_U+30FC 1
 62
   179
420
  2234388
370
    25
  0
POLYLINE
  5
A1
330
1F
100
AcDbEntity
  8
_U+30EC_U+30A4_U+30E4_U+30FC 1
 62
   179
420
  2234388
370
    25
100
AcDb2dPolyline
 66
     1
 10
0.0
 20
0.0
 30
0.0
  0
VERTEX
  5
A2
330
A1
100
AcDbEntity
  8
_U+30EC_U+30A4_U+30E4_U+30FC 1
 62
   179
420
  2234388
370
    25
100
AcDbVertex
100
AcDb2dVertex
 10
93.51228483652508
 20
-112.9481555273184
 30
0.0
  0
VERTEX
  5
A3
330
A1
100
AcDbEntity
  8
_U+30EC_U+30A4_U+30E4_U+30FC 1
 62
   179
420
  2234388
370
    25
100
AcDbVertex
100
AcDb2dVertex
 10
93.51228483652508
 20
-122.4934755249321
 30
0.0
  0
SEQEND
  5
A4
330
A1
100
AcDbEntity
  8
_U+30EC_U+30A4_U+30E4_U+30FC 1
 62
   179
420
  2234388
370
    25
  0
POLYLINE
  5
A5
330
1F
100
AcDbEntity
  8
_U+30EC_U+30A4_U+30E4_U+30FC 1
 62
   179
420
  2234388
370
    25
100
AcDb2dPolyline
 66
     1
 10
0.0
 20
0.0
 30
0.0
  0
VERTEX
  5
A6
330
A5
100
AcDbEntity
  8
_U+30EC_U+30A4_U+30E4_U+30FC 1
 62
   179
420
  2234388
370
    25
100
AcDbVertex
100
AcDb2dVertex
 10
93.51228483652508
 20
-123.9479783023464
 30
0.0
  0
VERTEX
  5
A7
330
A5
100
AcDbEntity
  8
_U+30EC_U+30A4_U+30E4_U+30FC 1
 62
   179
420
  2234388
370
    25
100
AcDbVertex
100
AcDb2dVertex
 10
93.51228483652508
 20
-133.4664519110776
 30
0.0
  0
SEQEND
  5
A8
330
A5
100
AcDbEntity
  8
_U+30EC_U+30A4_U+30E4_U+30FC 1
 62
   179
420
  2234388
370
    25
  0
POLYLINE
  5
A9
330
1F
100
AcDbEntity
  8
_U+30EC_U+30A4_U+30E4_U+30FC 1
 62
   179
420
  2234388
370
    25
100
AcDb2dPolyline
 66
     1
 10
0.0
 20
0.0
 30
0.0
  0
VERTEX
  5
AA
330
A9
100
AcDbEntity
  8
_U+30EC_U+30A4_U+30E4_U+30FC 1
 62
   179
420
  2234388
370
    25
100
AcDbVertex
100
AcDb2dVertex
 10
79.80616296397515
 20
-145.4936341302931
 30
0.0
  0
VERTEX
  5
AB
330
A9
100
AcDbEntity
  8
_U+30EC_U+30A4_U+30E4_U+30FC 1
 62
   179
420
  2234388
370
    25
100
AcDbVertex
100
AcDb2dVertex
 10
78.5118213303299
 20
-146.4937238522652
 30
0.0
  0
SEQEND
  5
AC
330
A9
100
AcDbEntity
  8
_U+30EC_U+30A4_U+30E4_U+30FC 1
 62
   179
420
  2234388
370
    25
  0
POLYLINE
  5
AD
330
1F
100
AcDbEntity
  8
_U+30EC_U+30A4_U+30E4_U+30FC 1
 62
   179
420
  2234388
370
    25
100
AcDb2dPolyline
 66
     1
 10
0.0
 20
0.0
 30
0.0
  0
VERTEX
  5
AE
330
AD
100
AcDbEntity
  8
_U+30EC_U+30A4_U+30E4_U+30FC 1
 62
   179
420
  2234388
370
    25
100
AcDbVertex
100
AcDb2dVertex
 10
79.30592408784842
 20
-144.4935091305435
 30
0.0
  0
VERTEX
  5
AF
330
AD
100
AcDbEntity
  8
_U+30EC_U+30A4_U+30E4_U+30FC 1
 62
   179
420
  2234388
370
    25
100
AcDbVertex
100
AcDb2dVertex
 10
85.01168331208044
 20
-144.4935091305435
 30
0.0
  0
SEQEND
  5
B0
330
AD
100
AcDbEntity
  8
_U+30EC_U+30A4_U+30E4_U+30FC 1
 62
   179
420
  2234388
370
    25
  0
POLYLINE
  5
B1
330
1F
100
AcDbEntity
  8
_U+30EC_U+30A4_U+30E4_U+30FC 1
 62
   179
420
  2234388
370
    25
100
AcDb2dPolyline
 66
     1
 10
0.0
 20
0.0
 30
0.0
  0
VERTEX
  5
B2
330
B1
100
AcDbEntity
  8
_U+30EC_U+30A4_U+30E4_U+30FC 1
 62
   179
420
  2234388
370
    25
100
AcDbVertex
100
AcDb2dVertex
 10
85.01168331208044
 20
-144.4935091305435
 30
0.0
  0
VERTEX
  5
B3
330
B1
100
AcDbEntity
  8
_U+30EC_U+30A4_U+30E4_U+30FC 1
 62
   179
420
  2234388
370
    25
100
AcDbVertex
100
AcDb2dVertex
 10
84.51179720109417
 20
-145.4936341302931
 30
0.0
  0
SEQEND
  5
B4
330
B1
100
AcDbEntity
  8
_U+30EC_U+30A4_U+30E4_U+30FC 1
 62
   179
420
  2234388
370
    25
  0
POLYLINE
  5
B5
330
1F
100
AcDbEntity
  8
_U+30EC_U+30A4_U+30E4_U+30FC 1
 62
   179
420
  2234388
370
    25
100
AcDb2dPolyline
 66
     1
 10
0.0
 20
0.0
 30
0.0
  0
VERTEX
  5
B6
330
B5
100
AcDbEntity
  8
_U+30EC_U+30A4_U+30E4_U+30FC 1
 62
   179
420
  2234388
370
    25
100
AcDbVertex
100
AcDb2dVertex
 10
79.30592408784842
 20
-144.4935091305435
 30
0.0
  0
VERTEX
  5
B7
330
B5
100
AcDbEntity
  8
_U+30EC_U+30A4_U+30E4_U+30FC 1
 62
   179
420
  2234388
370
    25
100
AcDbVertex
100
AcDb2dVertex
 10
79.80616296397515
 20
-145.4936341302931
 30
0.0
  0
SEQEND
  5
B8
330
B5
100
AcDbEntity
  8
_U+30EC_U+30A4_U+30E4_U+30FC 1
 62
   179
420
  2234388
370
    25
  0
SPLINE
  5
B9
330
1F
100
AcDbEntity
  8
_U+30EC_U+30A4_U+30E4_U+30FC 1
 62
   179
420
  2234388
370
     9
100
AcDbSpline
210
0.0
220
0.0
230
1.0
 70
    11
 71
     3
 72
    17
 73
    13
 74
     0
 42
0.0000000001
 43
0.0000000001
 12
1.0
 22
0.0
 32
0.0
 13
1.0
 23
0.0
 33
0.0
 40
0.0
 40
0.0
 40
0.0
 40
0.0
 40
1.0
 40
1.0
 40
1.0
 40
2.0
 40
2.0
 40
2.0
 40
3.0
 40
3.0
 40
3.0
 40
4.0
 40
4.0
 40
4.0
 40
4.0
 10
93.61219150064292
 20
-150.4934830179321
 30
0.0
 10
93.61219150064292
 20
-150.4383791290572
 30
0.0
 10
93.56742400178503
 20
-150.3935763512905
 30
0.0
 10
93.51228483652508
 20
-150.3935763512905
 30
0.0
 10
93.4564777544134
 20
-150.3935763512905
 30
0.0
 10
93.41170789464657
 20
-150.4383791290572
 30
0.0
 10
93.41170789464657
 20
-150.4934830179321
 30
0.0
 10
93.41170789464657
 20
-150.5489396845848
 30
0.0
 10
93.4564777544134
 20
-150.5937424623515
 30
0.0
 10
93.51228483652508
 20
-150.5937424623515
 30
0.0
 10
93.56742400178503
 20
-150.5937424623515
 30
0.0
 10
93.61219150064292
 20
-150.5489396845848
 30
0.0
 10
93.61219150064292
 20
-150.4934830179321
 30
0.0
  0
SPLINE
  5
BA
330
1F
100
AcDbEntity
  8
_U+30EC_U+30A4_U+30E4_U+30FC 1
 62
   179
420
  2234388
370
     9
100
AcDbSpline
210
0.0
220
0.0
230
1.0
 70
    11
 71
     3
 72
    17
 73
    13
 74
     0
 42
0.0000000001
 43
0.0000000001
 12
1.0
 22
0.0
 32
0.0
 13
1.0
 23
0.0
 33
0.0
 40
0.0
 40
0.0
 40
0.0
 40
0.0
 40
1.0
 40
1.0
 40
1.0
 40
2.0
 40
2.0
 40
2.0
 40
3.0
 40
3.0
 40
3.0
 40
4.0
 40
4.0
 40
4.0
 40
4.0
 10
78.61208077221652
 20
-150.4934830179321
 30
0.0
 10
78.61208077221652
 20
-150.4383791290572
 30
0.0
 10
78.56727799558175
 20
-150.3935763512905
 30
0.0
 10
78.5118213303299
 20
-150.3935763512905
 30
0.0
 10
78.45671942483024
 20
-150.3935763512905
 30
0.0
 10
78.41191664706385
 20
-150.4383791290572
 30
0.0
 10
78.41191664706385
 20
-150.4934830179321
 30
0.0
 10
78.41191664706385
 20
-150.5489396845848
 30
0.0
 10
78.45671942483024
 20
-150.5937424623515
 30
0.0
 10
78.5118213303299
 20
-150.5937424623515
 30
0.0
 10
78.56727799558175
 20
-150.5937424623515
 30
0.0
 10
78.61208077221652
 20
-150.5489396845848
 30
0.0
 10
78.61208077221652
 20
-150.4934830179321
 30
0.0
  0
SPLINE
  5
BB
330
1F
100
AcDbEntity
  8
_U+30EC_U+30A4_U+30E4_U+30FC 1
 62
   179
420
  2234388
370
     5
100
AcDbSpline
210
0.0
220
0.0
230
1.0
 70
    11
 71
     3
 72
    17
 73
    13
 74
     0
 42
0.0000000001
 43
0.0000000001
 12
1.0
 22
0.0
 32
0.0
 13
1.0
 23
0.0
 33
0.0
 40
0.0
 40
0.0
 40
0.0
 40
0.0
 40
1.0
 40
1.0
 40
1.0
 40
2.0
 40
2.0
 40
2.0
 40
3.0
 40
3.0
 40
3.0
 40
4.0
 40
4.0
 40
4.0
 40
4.0
 10
97.61195056526722
 20
-146.4937238522652
 30
0.0
 10
97.61195056526722
 20
-146.4382671856126
 30
0.0
 10
97.56718306640934
 20
-146.3934644078459
 30
0.0
 10
97.5120439011494
 20
-146.3934644078459
 30
0.0
 10
97.45694001366633
 20
-146.3934644078459
 30
0.0
 10
97.41213723703156
 20
-146.4382671856126
 30
0.0
 10
97.41213723703156
 20
-146.4937238522652
 30
0.0
 10
97.41213723703156
 20
-146.5488630189183
 30
0.0
 10
97.45694001366633
 20
-146.5936305189069
 30
0.0
 10
97.5120439011494
 20
-146.5936305189069
 30
0.0
 10
97.56718306640934
 20
-146.5936305189069
 30
0.0
 10
97.61195056526722
 20
-146.5488630189183
 30
0.0
 10
97.61195056526722
 20
-146.4937238522652
 30
0.0
  0
SPLINE
  5
BC
330
1F
100
AcDbEntity
  8
_U+30EC_U+30A4_U+30E4_U+30FC 1
 62
   179
420
  2234388
370
     9
100
AcDbSpline
210
0.0
220
0.0
230
1.0
 70
    11
 71
     3
 72
    17
 73
    13
 74
     0
 42
0.0000000001
 43
0.0000000001
 12
1.0
 22
0.0
 32
0.0
 13
1.0
 23
0.0
 33
0.0
 40
0.0
 40
0.0
 40
0.0
 40
0.0
 40
1.0
 40
1.0
 40
1.0
 40
2.0
 40
2.0
 40
2.0
 40
3.0
 40
3.0
 40
3.0
 40
4.0
 40
4.0
 40
4.0
 40
4.0
 10
97.61195056526722
 20
-137.9936491321682
 30
0.0
 10
97.61195056526722
 20
-137.9381924655155
 30
0.0
 10
97.56718306640934
 20
-137.8937424655265
 30
0.0
 10
97.5120439011494
 20
-137.8937424655265
 30
0.0
 10
97.45694001366633
 20
-137.8937424655265
 30
0.0
 10
97.41213723703156
 20
-137.9381924655155
 30
0.0
 10
97.41213723703156
 20
-137.9936491321682
 30
0.0
 10
97.41213723703156
 20
-138.0487530210431
 30
0.0
 10
97.45694001366633
 20
-138.0935557988098
 30
0.0
 10
97.5120439011494
 20
-138.0935557988098
 30
0.0
 10
97.56718306640934
 20
-138.0935557988098
 30
0.0
 10
97.61195056526722
 20
-138.0487530210431
 30
0.0
 10
97.61195056526722
 20
-137.9936491321682
 30
0.0
  0
SPLINE
  5
BD
330
1F
100
AcDbEntity
  8
_U+30EC_U+30A4_U+30E4_U+30FC 1
 62
   179
420
  2234388
370
     9
100
AcDbSpline
210
0.0
220
0.0
230
1.0
 70
    11
 71
     3
 72
    17
 73
    13
 74
     0
 42
0.0000000001
 43
0.0000000001
 12
1.0
 22
0.0
 32
0.0
 13
1.0
 23
0.0
 33
0.0
 40
0.0
 40
0.0
 40
0.0
 40
0.0
 40
1.0
 40
1.0
 40
1.0
 40
2.0
 40
2.0
 40
2.0
 40
3.0
 40
3.0
 40
3.0
 40
4.0
 40
4.0
 40
4.0
 40
4.0
 10
101.6117096298915
 20
-146.4937238522652
 30
0.0
 10
101.6117096298915
 20
-146.4382671856126
 30
0.0
 10
101.5669421310337
 20
-146.3934644078459
 30
0.0
 10
101.5118055301776
 20
-146.3934644078459
 30
0.0
 10
101.4566990782906
 20
-146.3934644078459
 30
0.0
 10
101.4118963016559
 20
-146.4382671856126
 30
0.0
 10
101.4118963016559
 20
-146.4937238522652
 30
0.0
 10
101.4118963016559
 20
-146.5488630189183
 30
0.0
 10
101.4566990782906
 20
-146.5936305189069
 30
0.0
 10
101.5118055301776
 20
-146.5936305189069
 30
0.0
 10
101.5669421310337
 20
-146.5936305189069
 30
0.0
 10
101.6117096298915
 20
-146.5488630189183
 30
0.0
 10
101.6117096298915
 20
-146.4937238522652
 30
0.0
  0
SPLINE
  5
BE
330
1F
100
AcDbEntity
  8
_U+30EC_U+30A4_U+30E4_U+30FC 1
 62
   179
420
  2234388
370
     9
100
AcDbSpline
210
0.0
220
0.0
230
1.0
 70
    11
 71
     3
 72
    17
 73
    13
 74
     0
 42
0.0000000001
 43
0.0000000001
 12
1.0
 22
0.0
 32
0.0
 13
1.0
 23
0.0
 33
0.0
 40
0.0
 40
0.0
 40
0.0
 40
0.0
 40
1.0
 40
1.0
 40
1.0
 40
2.0
 40
2.0
 40
2.0
 40
3.0
 40
3.0
 40
3.0
 40
4.0
 40
4.0
 40
4.0
 40
4.0
 10
101.6117096298915
 20
-101.4935316412932
 30
0.0
 10
101.6117096298915
 20
-101.4384277524183
 30
0.0
 10
101.5669421310337
 20
-101.3936249746516
 30
0.0
 10
101.5118055301776
 20
-101.3936249746516
 30
0.0
 10
101.4566990782906
 20
-101.3936249746516
 30
0.0
 10
101.4118963016559
 20
-101.4384277524183
 30
0.0
 10
101.4118963016559
 20
-101.4935316412932
 30
0.0
 10
101.4118963016559
 20
-101.5486708079463
 30
0.0
 10
101.4566990782906
 20
-101.5934383079349
 30
0.0
 10
101.5118055301776
 20
-101.5934383079349
 30
0.0
 10
101.5669421310337
 20
-101.5934383079349
 30
0.0
 10
101.6117096298915
 20
-101.5486708079463
 30
0.0
 10
101.6117096298915
 20
-101.4935316412932
 30
0.0
  0
POLYLINE
  5
BF
330
1F
100
AcDbEntity
  8
_U+30EC_U+30A4_U+30E4_U+30FC 1
 62
   179
420
  2234388
370
     9
100
AcDb2dPolyline
 66
     1
 10
0.0
 20
0.0
 30
0.0
  0
VERTEX
  5
C0
330
BF
100
AcDbEntity
  8
_U+30EC_U+30A4_U+30E4_U+30FC 1
 62
   179
420
  2234388
370
     9
100
AcDbVertex
100
AcDb2dVertex
 10
97.5120439011494
 20
-137.9936491321682
 30
0.0
  0
VERTEX
  5
C1
330
BF
100
AcDbEntity
  8
_U+30EC_U+30A4_U+30E4_U+30FC 1
 62
   179
420
  2234388
370
     9
100
AcDbVertex
100
AcDb2dVertex
 10
97.5120439011494
 20
-146.4937238522652
 30
0.0
  0
SEQEND
  5
C2
330
BF
100
AcDbEntity
  8
_U+30EC_U+30A4_U+30E4_U+30FC 1
 62
   179
420
  2234388
370
     9
  0
POLYLINE
  5
C3
330
1F
100
AcDbEntity
  8
_U+30EC_U+30A4_U+30E4_U+30FC 1
 62
   179
420
  2234388
370
     9
100
AcDb2dPolyline
 66
     1
 10
0.0
 20
0.0
 30
0.0
  0
VERTEX
  5
C4
330
C3
100
AcDbEntity
  8
_U+30EC_U+30A4_U+30E4_U+30FC 1
 62
   179
420
  2234388
370
     9
100
AcDbVertex
100
AcDb2dVertex
 10
96.05200254950927
 20
-137.9936491321682
 30
0.0
  0
VERTEX
  5
C5
330
C3
100
AcDbEntity
  8
_U+30EC_U+30A4_U+30E4_U+30FC 1
 62
   179
420
  2234388
370
     9
100
AcDbVertex
100
AcDb2dVertex
 10
98.5118160978653
 20
-137.9936491321682
 30
0.0
  0
SEQEND
  5
C6
330
C3
100
AcDbEntity
  8
_U+30EC_U+30A4_U+30E4_U+30FC 1
 62
   179
420
  2234388
370
     9
  0
POLYLINE
  5
C7
330
1F
100
AcDbEntity
  8
_U+30EC_U+30A4_U+30E4_U+30FC 1
 62
   179
420
  2234388
370
     5
100
AcDb2dPolyline
 66
     1
 10
0.0
 20
0.0
 30
0.0
  0
VERTEX
  5
C8
330
C7
100
AcDbEntity
  8
_U+30EC_U+30A4_U+30E4_U+30FC 1
 62
   179
420
  2234388
370
     5
100
AcDbVertex
100
AcDb2dVertex
 10
96.05200254950927
 20
-146.4937238522652
 30
0.0
  0
VERTEX
  5
C9
330
C7
100
AcDbEntity
  8
_U+30EC_U+30A4_U+30E4_U+30FC 1
 62
   179
420
  2234388
370
     5
100
AcDbVertex
100
AcDb2dVertex
 10
98.5118160978653
 20
-146.4937238522652
 30
0.0
  0
SEQEND
  5
CA
330
C7
100
AcDbEntity
  8
_U+30EC_U+30A4_U+30E4_U+30FC 1
 62
   179
420
  2234388
370
     5
  0
INSERT
  5
CC
330
1F
100
AcDbEntity
  8
_U+30EC_U+30A4_U+30E4_U+30FC 1
100
AcDbBlockReference
  2
block 2
 10
0.0
 20
0.0
 30
0.0
  0
SPLINE
  5
DD
330
1F
100
AcDbEntity
  8
_U+30EC_U+30A4_U+30E4_U+30FC 1
 62
   179
420
  2234388
370
    25
100
AcDbSpline
210
0.0
220
0.0
230
1.0
 70
    11
 71
     3
 72
    17
 73
    13
 74
     0
 42
0.0000000001
 43
0.0000000001
 12
1.0
 22
0.0
 32
0.0
 13
1.0
 23
0.0
 33
0.0
 40
0.0
 40
0.0
 40
0.0
 40
0.0
 40
1.0
 40
1.0
 40
1.0
 40
2.0
 40
2.0
 40
2.0
 40
3.0
 40
3.0
 40
3.0
 40
4.0
 40
4.0
 40
4.0
 40
4.0
 10
93.54742150229534
 20
-137.9936491321682
 30
0.0
 10
93.54742150229534
 20
-138.012946076608
 30
0.0
 10
93.53158178047723
 20
-138.0287857988259
 30
0.0
 10
93.51228483652508
 20
-138.0287857988259
 30
0.0
 10
93.49231761481226
 20
-138.0287857988259
 30
0.0
 10
93.47647789299415
 20
-138.012946076608
 30
0.0
 10
93.47647789299415
 20
-137.9936491321682
 30
0.0
 10
93.47647789299415
 20
-137.9739994099512
 30
0.0
 10
93.49231761481226
 20
-137.9581596877327
 30
0.0
 10
93.51228483652508
 20
-137.9581596877327
 30
0.0
 10
93.53158178047723
 20
-137.9581596877327
 30
0.0
 10
93.54742150229534
 20
-137.9739994099512
 30
0.0
 10
93.54742150229534
 20
-137.9936491321682
 30
0.0
  0
SPLINE
  5
DE
330
1F
100
AcDbEntity
  8
_U+30EC_U+30A4_U+30E4_U+30FC 1
 62
   179
420
  2234388
370
    25
100
AcDbSpline
210
0.0
220
0.0
230
1.0
 70
    11
 71
     3
 72
    17
 73
    13
 74
     0
 42
0.0000000001
 43
0.0000000001
 12
1.0
 22
0.0
 32
0.0
 13
1.0
 23
0.0
 33
0.0
 40
0.0
 40
0.0
 40
0.0
 40
0.0
 40
1.0
 40
1.0
 40
1.0
 40
2.0
 40
2.0
 40
2.0
 40
3.0
 40
3.0
 40
3.0
 40
4.0
 40
4.0
 40
4.0
 40
4.0
 10
93.54742150229534
 20
-146.4937238522652
 30
0.0
 10
93.54742150229534
 20
-146.5130207967051
 30
0.0
 10
93.53158178047723
 20
-146.5288605189236
 30
0.0
 10
93.51228483652508
 20
-146.5288605189236
 30
0.0
 10
93.49231761481226
 20
-146.5288605189236
 30
0.0
 10
93.47647789299415
 20
-146.5130207967051
 30
0.0
 10
93.47647789299415
 20
-146.4937238522652
 30
0.0
 10
93.47647789299415
 20
-146.4740741300483
 30
0.0
 10
93.49231761481226
 20
-146.4582344078298
 30
0.0
 10
93.51228483652508
 20
-146.4582344078298
 30
0.0
 10
93.53158178047723
 20
-146.4582344078298
 30
0.0
 10
93.54742150229534
 20
-146.4740741300483
 30
0.0
 10
93.54742150229534
 20
-146.4937238522652
 30
0.0
  0
SPLINE
  5
DF
330
1F
100
AcDbEntity
  8
_U+30EC_U+30A4_U+30E4_U+30FC 1
 62
   179
420
  2234388
370
     5
100
AcDbSpline
210
0.0
220
0.0
230
1.0
 70
    11
 71
     3
 72
    17
 73
    13
 74
     0
 42
0.0000000001
 43
0.0000000001
 12
1.0
 22
0.0
 32
0.0
 13
1.0
 23
0.0
 33
0.0
 40
0.0
 40
0.0
 40
0.0
 40
0.0
 40
1.0
 40
1.0
 40
1.0
 40
2.0
 40
2.0
 40
2.0
 40
3.0
 40
3.0
 40
3.0
 40
4.0
 40
4.0
 40
4.0
 40
4.0
 10
97.54718056691965
 20
-146.4937238522652
 30
0.0
 10
97.54718056691965
 20
-146.5130207967051
 30
0.0
 10
97.53134084510152
 20
-146.5288605189236
 30
0.0
 10
97.5120439011494
 20
-146.5288605189236
 30
0.0
 10
97.49274695719726
 20
-146.5288605189236
 30
0.0
 10
97.47690723537914
 20
-146.5130207967051
 30
0.0
 10
97.47690723537914
 20
-146.4937238522652
 30
0.0
 10
97.47690723537914
 20
-146.4740741300483
 30
0.0
 10
97.49274695719726
 20
-146.4582344078298
 30
0.0
 10
97.5120439011494
 20
-146.4582344078298
 30
0.0
 10
97.53134084510152
 20
-146.4582344078298
 30
0.0
 10
97.54718056691965
 20
-146.4740741300483
 30
0.0
 10
97.54718056691965
 20
-146.4937238522652
 30
0.0
  0
POLYLINE
  5
E0
330
1F
100
AcDbEntity
  8
_U+30EC_U+30A4_U+30E4_U+30FC 1
 62
   179
420
  2234388
370
     9
100
AcDb2dPolyline
 66
     1
 10
0.0
 20
0.0
 30
0.0
  0
VERTEX
  5
E1
330
E0
100
AcDbEntity
  8
_U+30EC_U+30A4_U+30E4_U+30FC 1
 62
   179
420
  2234388
370
     9
100
AcDbVertex
100
AcDb2dVertex
 10
101.5118055301776
 20
-146.4937238522652
 30
0.0
  0
VERTEX
  5
E2
330
E0
100
AcDbEntity
  8
_U+30EC_U+30A4_U+30E4_U+30FC 1
 62
   179
420
  2234388
370
     9
100
AcDbVertex
100
AcDb2dVertex
 10
101.5118055301776
 20
-101.4935316412932
 30
0.0
  0
SEQEND
  5
E3
330
E0
100
AcDbEntity
  8
_U+30EC_U+30A4_U+30E4_U+30FC 1
 62
   179
420
  2234388
370
     9
  0
POLYLINE
  5
E4
330
1F
100
AcDbEntity
  8
_U+30EC_U+30A4_U+30E4_U+30FC 1
 62
   179
420
  2234388
370
     9
100
AcDb2dPolyline
 66
     1
 10
0.0
 20
0.0
 30
0.0
  0
VERTEX
  5
E5
330
E4
100
AcDbEntity
  8
_U+30EC_U+30A4_U+30E4_U+30FC 1
 62
   179
420
  2234388
370
     9
100
AcDbVertex
100
AcDb2dVertex
 10
96.05200254950927
 20
-146.4937238522652
 30
0.0
  0
VERTEX
  5
E6
330
E4
100
AcDbEntity
  8
_U+30EC_U+30A4_U+30E4_U+30FC 1
 62
   179
420
  2234388
370
     9
100
AcDbVertex
100
AcDb2dVertex
 10
102.5122454402503
 20
-146.4937238522652
 30
0.0
  0
SEQEND
  5
E7
330
E4
100
AcDbEntity
  8
_U+30EC_U+30A4_U+30E4_U+30FC 1
 62
   179
420
  2234388
370
     9
  0
POLYLINE
  5
E8
330
1F
100
AcDbEntity
  8
_U+30EC_U+30A4_U+30E4_U+30FC 1
 62
   179
420
  2234388
370
     9
100
AcDb2dPolyline
 66
     1
 10
0.0
 20
0.0
 30
0.0
  0
VERTEX
  5
E9
330
E8
100
AcDbEntity
  8
_U+30EC_U+30A4_U+30E4_U+30FC 1
 62
   179
420
  2234388
370
     9
100
AcDbVertex
100
AcDb2dVertex
 10
99.05198941741767
 20
-101.4935316412932
 30
0.0
  0
VERTEX
  5
EA
330
E8
100
AcDbEntity
  8
_U+30EC_U+30A4_U+30E4_U+30FC 1
 62
   179
420
  2234388
370
     9
100
AcDbVertex
100
AcDb2dVertex
 10
102.5122454402503
 20
-101.4935316412932
 30
0.0
  0
SEQEND
  5
EB
330
E8
100
AcDbEntity
  8
_U+30EC_U+30A4_U+30E4_U+30FC 1
 62
   179
420
  2234388
370
     9
  0
INSERT
  5
ED
330
1F
100
AcDbEntity
  8
_U+30EC_U+30A4_U+30E4_U+30FC 1
100
AcDbBlockReference
  2
block 3
 10
0.0
 20
0.0
 30
0.0
  0
SPLINE
  5
107
330
1F
100
AcDbEntity
  8
_U+30EC_U+30A4_U+30E4_U+30FC 1
 62
   179
420
  2234388
370
    25
100
AcDbSpline
210
0.0
220
0.0
230
1.0
 70
    11
 71
     3
 72
    17
 73
    13
 74
     0
 42
0.0000000001
 43
0.0000000001
 12
1.0
 22
0.0
 32
0.0
 13
1.0
 23
0.0
 33
0.0
 40
0.0
 40
0.0
 40
0.0
 40
0.0
 40
1.0
 40
1.0
 40
1.0
 40
2.0
 40
2.0
 40
2.0
 40
3.0
 40
3.0
 40
3.0
 40
4.0
 40
4.0
 40
4.0
 40
4.0
 10
93.54742150229534
 20
-146.4937238522652
 30
0.0
 10
93.54742150229534
 20
-146.5130207967051
 30
0.0
 10
93.53158178047723
 20
-146.5288605189236
 30
0.0
 10
93.51228483652508
 20
-146.5288605189236
 30
0.0
 10
93.49231761481226
 20
-146.5288605189236
 30
0.0
 10
93.47647789299415
 20
-146.5130207967051
 30
0.0
 10
93.47647789299415
 20
-146.4937238522652
 30
0.0
 10
93.47647789299415
 20
-146.4740741300483
 30
0.0
 10
93.49231761481226
 20
-146.4582344078298
 30
0.0
 10
93.51228483652508
 20
-146.4582344078298
 30
0.0
 10
93.53158178047723
 20
-146.4582344078298
 30
0.0
 10
93.54742150229534
 20
-146.4740741300483
 30
0.0
 10
93.54742150229534
 20
-146.4937238522652
 30
0.0
  0
SPLINE
  5
108
330
1F
100
AcDbEntity
  8
_U+30EC_U+30A4_U+30E4_U+30FC 1
 62
   179
420
  2234388
370
    25
100
AcDbSpline
210
0.0
220
0.0
230
1.0
 70
    11
 71
     3
 72
    17
 73
    13
 74
     0
 42
0.0000000001
 43
0.0000000001
 12
1.0
 22
0.0
 32
0.0
 13
1.0
 23
0.0
 33
0.0
 40
0.0
 40
0.0
 40
0.0
 40
0.0
 40
1.0
 40
1.0
 40
1.0
 40
2.0
 40
2.0
 40
2.0
 40
3.0
 40
3.0
 40
3.0
 40
4.0
 40
4.0
 40
4.0
 40
4.0
 10
96.54740837020374
 20
-101.4935316412932
 30
0.0
 10
96.54740837020374
 20
-101.5131813635105
 30
0.0
 10
96.53156864838563
 20
-101.5287035857288
 30
0.0
 10
96.51227170443349
 20
-101.5287035857288
 30
0.0
 10
96.49230448272067
 20
-101.5287035857288
 30
0.0
 10
96.47646476090256
 20
-101.5131813635105
 30
0.0
 10
96.47646476090256
 20
-101.4935316412932
 30
0.0
 10
96.47646476090256
 20
-101.4742699746316
 30
0.0
 10
96.49230448272067
 20
-101.4583949746355
 30
0.0
 10
96.51227170443349
 20
-101.4583949746355
 30
0.0
 10
96.53156864838563
 20
-101.4583949746355
 30
0.0
 10
96.54740837020374
 20
-101.4742699746316
 30
0.0
 10
96.54740837020374
 20
-101.4935316412932
 30
0.0
  0
SPLINE
  5
109
330
1F
100
AcDbEntity
  8
_U+30EC_U+30A4_U+30E4_U+30FC 1
 62
   179
420
  2234388
370
     9
100
AcDbSpline
210
0.0
220
0.0
230
1.0
 70
    11
 71
     3
 72
    17
 73
    13
 74
     0
 42
0.0000000001
 43
0.0000000001
 12
1.0
 22
0.0
 32
0.0
 13
1.0
 23
0.0
 33
0.0
 40
0.0
 40
0.0
 40
0.0
 40
0.0
 40
1.0
 40
1.0
 40
1.0
 40
2.0
 40
2.0
 40
2.0
 40
3.0
 40
3.0
 40
3.0
 40
4.0
 40
4.0
 40
4.0
 40
4.0
 10
101.546939631544
 20
-101.4935316412932
 30
0.0
 10
101.546939631544
 20
-101.5131813635105
 30
0.0
 10
101.5317701874865
 20
-101.5287035857288
 30
0.0
 10
101.5118055301776
 20
-101.5287035857288
 30
0.0
 10
101.4925060218216
 20
-101.5287035857288
 30
0.0
 10
101.4766663000034
 20
-101.5131813635105
 30
0.0
 10
101.4766663000034
 20
-101.4935316412932
 30
0.0
 10
101.4766663000034
 20
-101.4742699746316
 30
0.0
 10
101.4925060218216
 20
-101.4583949746355
 30
0.0
 10
101.5118055301776
 20
-101.4583949746355
 30
0.0
 10
101.5317701874865
 20
-101.4583949746355
 30
0.0
 10
101.546939631544
 20
-101.4742699746316
 30
0.0
 10
101.546939631544
 20
-101.4935316412932
 30
0.0
  0
POLYLINE
  5
10A
330
1F
100
AcDbEntity
  8
_U+30EC_U+30A4_U+30E4_U+30FC 1
 62
   179
420
  2234388
370
     9
100
AcDb2dPolyline
 66
     1
 10
0.0
 20
0.0
 30
0.0
  0
VERTEX
  5
10B
330
10A
100
AcDbEntity
  8
_U+30EC_U+30A4_U+30E4_U+30FC 1
 62
   179
420
  2234388
370
     9
100
AcDbVertex
100
AcDb2dVertex
 10
78.5118213303299
 20
-150.4934830179321
 30
0.0
  0
VERTEX
  5
10C
330
10A
100
AcDbEntity
  8
_U+30EC_U+30A4_U+30E4_U+30FC 1
 62
   179
420
  2234388
370
     9
100
AcDbVertex
100
AcDb2dVertex
 10
93.51228483652508
 20
-150.4934830179321
 30
0.0
  0
SEQEND
  5
10D
330
10A
100
AcDbEntity
  8
_U+30EC_U+30A4_U+30E4_U+30FC 1
 62
   179
420
  2234388
370
     9
  0
POLYLINE
  5
10E
330
1F
100
AcDbEntity
  8
_U+30EC_U+30A4_U+30E4_U+30FC 1
 62
   179
420
  2234388
370
     9
100
AcDb2dPolyline
 66
     1
 10
0.0
 20
0.0
 30
0.0
  0
VERTEX
  5
10F
330
10E
100
AcDbEntity
  8
_U+30EC_U+30A4_U+30E4_U+30FC 1
 62
   179
420
  2234388
370
     9
100
AcDbVertex
100
AcDb2dVertex
 10
78.5118213303299
 20
-149.0334416294084
 30
0.0
  0
VERTEX
  5
110
330
10E
100
AcDbEntity
  8
_U+30EC_U+30A4_U+30E4_U+30FC 1
 62
   179
420
  2234388
370
     9
100
AcDbVertex
100
AcDb2dVertex
 10
78.5118213303299
 20
-151.4936080176824
 30
0.0
  0
SEQEND
  5
111
330
10E
100
AcDbEntity
  8
_U+30EC_U+30A4_U+30E4_U+30FC 1
 62
   179
420
  2234388
370
     9
  0
POLYLINE
  5
112
330
1F
100
AcDbEntity
  8
_U+30EC_U+30A4_U+30E4_U+30FC 1
 62
   179
420
  2234388
370
     9
100
AcDb2dPolyline
 66
     1
 10
0.0
 20
0.0
 30
0.0
  0
VERTEX
  5
113
330
112
100
AcDbEntity
  8
_U+30EC_U+30A4_U+30E4_U+30FC 1
 62
   179
420
  2234388
370
     9
100
AcDbVertex
100
AcDb2dVertex
 10
93.51228483652508
 20
-149.0334416294084
 30
0.0
  0
VERTEX
  5
114
330
112
100
AcDbEntity
  8
_U+30EC_U+30A4_U+30E4_U+30FC 1
 62
   179
420
  2234388
370
     9
100
AcDbVertex
100
AcDb2dVertex
 10
93.51228483652508
 20
-151.4936080176824
 30
0.0
  0
SEQEND
  5
115
330
112
100
AcDbEntity
  8
_U+30EC_U+30A4_U+30E4_U+30FC 1
 62
   179
420
  2234388
370
     9
  0
INSERT
  5
117
330
1F
100
AcDbEntity
  8
_U+30EC_U+30A4_U+30E4_U+30FC 1
100
AcDbBlockReference
  2
block 4
 10
0.0
 20
0.0
 30
0.0
  0
SPLINE
  5
11E
330
1F
100
AcDbEntity
  8
_U+30EC_U+30A4_U+30E4_U+30FC 1
 62
   179
420
  2234388
370
    25
100
AcDbSpline
210
0.0
220
0.0
230
1.0
 70
    11
 71
     3
 72
    17
 73
    13
 74
     0
 42
0.0000000001
 43
0.0000000001
 12
1.0
 22
0.0
 32
0.0
 13
1.0
 23
0.0
 33
0.0
 40
0.0
 40
0.0
 40
0.0
 40
0.0
 40
1.0
 40
1.0
 40
1.0
 40
2.0
 40
2.0
 40
2.0
 40
3.0
 40
3.0
 40
3.0
 40
4.0
 40
4.0
 40
4.0
 40
4.0
 10
78.54731077386893
 20
-146.4937238522652
 30
0.0
 10
78.54731077386893
 20
-146.5130207967051
 30
0.0
 10
78.53147105205082
 20
-146.5288605189236
 30
0.0
 10
78.5118213303299
 20
-146.5288605189236
 30
0.0
 10
78.49220688638586
 20
-146.5288605189236
 30
0.0
 10
78.47633188679086
 20
-146.5130207967051
 30
0.0
 10
78.47633188679086
 20
-146.4937238522652
 30
0.0
 10
78.47633188679086
 20
-146.4740741300483
 30
0.0
 10
78.49220688638586
 20
-146.4582344078298
 30
0.0
 10
78.5118213303299
 20
-146.4582344078298
 30
0.0
 10
78.53147105205082
 20
-146.4582344078298
 30
0.0
 10
78.54731077386893
 20
-146.4740741300483
 30
0.0
 10
78.54731077386893
 20
-146.4937238522652
 30
0.0
  0
SPLINE
  5
11F
330
1F
100
AcDbEntity
  8
_U+30EC_U+30A4_U+30E4_U+30FC 1
 62
   179
420
  2234388
370
    25
100
AcDbSpline
210
0.0
220
0.0
230
1.0
 70
    11
 71
     3
 72
    17
 73
    13
 74
     0
 42
0.0000000001
 43
0.0000000001
 12
1.0
 22
0.0
 32
0.0
 13
1.0
 23
0.0
 33
0.0
 40
0.0
 40
0.0
 40
0.0
 40
0.0
 40
1.0
 40
1.0
 40
1.0
 40
2.0
 40
2.0
 40
2.0
 40
3.0
 40
3.0
 40
3.0
 40
4.0
 40
4.0
 40
4.0
 40
4.0
 10
93.54742150229534
 20
-146.4937238522652
 30
0.0
 10
93.54742150229534
 20
-146.5130207967051
 30
0.0
 10
93.53158178047723
 20
-146.5288605189236
 30
0.0
 10
93.51228483652508
 20
-146.5288605189236
 30
0.0
 10
93.49231761481226
 20
-146.5288605189236
 30
0.0
 10
93.47647789299415
 20
-146.5130207967051
 30
0.0
 10
93.47647789299415
 20
-146.4937238522652
 30
0.0
 10
93.47647789299415
 20
-146.4740741300483
 30
0.0
 10
93.49231761481226
 20
-146.4582344078298
 30
0.0
 10
93.51228483652508
 20
-146.4582344078298
 30
0.0
 10
93.53158178047723
 20
-146.4582344078298
 30
0.0
 10
93.54742150229534
 20
-146.4740741300483
 30
0.0
 10
93.54742150229534
 20
-146.4937238522652
 30
0.0
  0
SPLINE
  5
120
330
1F
100
AcDbEntity
  8
_U+30EC_U+30A4_U+30E4_U+30FC 1
 62
   179
420
  2234388
370
     9
100
AcDbSpline
210
0.0
220
0.0
230
1.0
 70
    11
 71
     3
 72
    17
 73
    13
 74
     0
 42
0.0000000001
 43
0.0000000001
 12
1.0
 22
0.0
 32
0.0
 13
1.0
 23
0.0
 33
0.0
 40
0.0
 40
0.0
 40
0.0
 40
0.0
 40
1.0
 40
1.0
 40
1.0
 40
2.0
 40
2.0
 40
2.0
 40
3.0
 40
3.0
 40
3.0
 40
4.0
 40
4.0
 40
4.0
 40
4.0
 10
93.54742150229534
 20
-150.4934830179321
 30
0.0
 10
93.54742150229534
 20
-150.5131327401497
 30
0.0
 10
93.53158178047723
 20
-150.5289724623676
 30
0.0
 10
93.51228483652508
 20
-150.5289724623676
 30
0.0
 10
93.49231761481226
 20
-150.5289724623676
 30
0.0
 10
93.47647789299415
 20
-150.5131327401497
 30
0.0
 10
93.47647789299415
 20
-150.4934830179321
 30
0.0
 10
93.47647789299415
 20
-150.4741860734923
 30
0.0
 10
93.49231761481226
 20
-150.4583463512744
 30
0.0
 10
93.51228483652508
 20
-150.4583463512744
 30
0.0
 10
93.53158178047723
 20
-150.4583463512744
 30
0.0
 10
93.54742150229534
 20
-150.4741860734923
 30
0.0
 10
93.54742150229534
 20
-150.4934830179321
 30
0.0
  0
SPLINE
  5
121
330
1F
100
AcDbEntity
  8
_U+30EC_U+30A4_U+30E4_U+30FC 1
 62
   179
420
  2234388
370
     9
100
AcDbSpline
210
0.0
220
0.0
230
1.0
 70
    11
 71
     3
 72
    17
 73
    13
 74
     0
 42
0.0000000001
 43
0.0000000001
 12
1.0
 22
0.0
 32
0.0
 13
1.0
 23
0.0
 33
0.0
 40
0.0
 40
0.0
 40
0.0
 40
0.0
 40
1.0
 40
1.0
 40
1.0
 40
2.0
 40
2.0
 40
2.0
 40
3.0
 40
3.0
 40
3.0
 40
4.0
 40
4.0
 40
4.0
 40
4.0
 10
94.60988230852304
 20
-153.1100357950556
 30
0.0
 10
94.60988230852304
 20
-153.0548966284032
 30
0.0
 10
94.56511480966515
 20
-153.010129128414
 30
0.0
 10
94.5099756444052
 20
-153.010129128414
 30
0.0
 10
94.45487175692213
 20
-153.010129128414
 30
0.0
 10
94.41006898028736
 20
-153.0548966284032
 30
0.0
 10
94.41006898028736
 20
-153.1100357950556
 30
0.0
 10
94.41006898028736
 20
-153.1654924617089
 30
0.0
 10
94.45487175692213
 20
-153.210295239475
 30
0.0
 10
94.5099756444052
 20
-153.210295239475
 30
0.0
 10
94.56511480966515
 20
-153.210295239475
 30
0.0
 10
94.60988230852304
 20
-153.1654924617089
 30
0.0
 10
94.60988230852304
 20
-153.1100357950556
 30
0.0
  0
SPLINE
  5
122
330
1F
100
AcDbEntity
  8
_U+30EC_U+30A4_U+30E4_U+30FC 1
 62
   179
420
  2234388
370
     9
100
AcDbSpline
210
0.0
220
0.0
230
1.0
 70
    11
 71
     3
 72
    17
 73
    13
 74
     0
 42
0.0000000001
 43
0.0000000001
 12
1.0
 22
0.0
 32
0.0
 13
1.0
 23
0.0
 33
0.0
 40
0.0
 40
0.0
 40
0.0
 40
0.0
 40
1.0
 40
1.0
 40
1.0
 40
2.0
 40
2.0
 40
2.0
 40
3.0
 40
3.0
 40
3.0
 40
4.0
 40
4.0
 40
4.0
 40
4.0
 10
78.61208077221652
 20
-153.1100357950556
 30
0.0
 10
78.61208077221652
 20
-153.0548966284032
 30
0.0
 10
78.56727799558175
 20
-153.010129128414
 30
0.0
 10
78.5118213303299
 20
-153.010129128414
 30
0.0
 10
78.45671942483024
 20
-153.010129128414
 30
0.0
 10
78.41191664706385
 20
-153.0548966284032
 30
0.0
 10
78.41191664706385
 20
-153.1100357950556
 30
0.0
 10
78.41191664706385
 20
-153.1654924617089
 30
0.0
 10
78.45671942483024
 20
-153.210295239475
 30
0.0
 10
78.5118213303299
 20
-153.210295239475
 30
0.0
 10
78.56727799558175
 20
-153.210295239475
 30
0.0
 10
78.61208077221652
 20
-153.1654924617089
 30
0.0
 10
78.61208077221652
 20
-153.1100357950556
 30
0.0
  0
POLYLINE
  5
123
330
1F
100
AcDbEntity
  8
_U+30EC_U+30A4_U+30E4_U+30FC 1
 62
   179
420
  2234388
370
     9
100
AcDb2dPolyline
 66
     1
 10
0.0
 20
0.0
 30
0.0
  0
VERTEX
  5
124
330
123
100
AcDbEntity
  8
_U+30EC_U+30A4_U+30E4_U+30FC 1
 62
   179
420
  2234388
370
     9
100
AcDbVertex
100
AcDb2dVertex
 10
78.5118213303299
 20
-153.1100357950556
 30
0.0
  0
VERTEX
  5
125
330
123
100
AcDbEntity
  8
_U+30EC_U+30A4_U+30E4_U+30FC 1
 62
   179
420
  2234388
370
     9
100
AcDbVertex
100
AcDb2dVertex
 10
94.5099756444052
 20
-153.1100357950556
 30
0.0
  0
SEQEND
  5
126
330
123
100
AcDbEntity
  8
_U+30EC_U+30A4_U+30E4_U+30FC 1
 62
   179
420
  2234388
370
     9
  0
POLYLINE
  5
127
330
1F
100
AcDbEntity
  8
_U+30EC_U+30A4_U+30E4_U+30FC 1
 62
   179
420
  2234388
370
     9
100
AcDb2dPolyline
 66
     1
 10
0.0
 20
0.0
 30
0.0
  0
VERTEX
  5
128
330
127
100
AcDbEntity
  8
_U+30EC_U+30A4_U+30E4_U+30FC 1
 62
   179
420
  2234388
370
     9
100
AcDbVertex
100
AcDb2dVertex
 10
78.5118213303299
 20
-151.076060240009
 30
0.0
  0
VERTEX
  5
129
330
127
100
AcDbEntity
  8
_U+30EC_U+30A4_U+30E4_U+30FC 1
 62
   179
420
  2234388
370
     9
100
AcDbVertex
100
AcDb2dVertex
 10
78.5118213303299
 20
-154.1101607948059
 30
0.0
  0
SEQEND
  5
12A
330
127
100
AcDbEntity
  8
_U+30EC_U+30A4_U+30E4_U+30FC 1
 62
   179
420
  2234388
370
     9
  0
POLYLINE
  5
12B
330
1F
100
AcDbEntity
  8
_U+30EC_U+30A4_U+30E4_U+30FC 1
 62
   179
420
  2234388
370
     9
100
AcDb2dPolyline
 66
     1
 10
0.0
 20
0.0
 30
0.0
  0
VERTEX
  5
12C
330
12B
100
AcDbEntity
  8
_U+30EC_U+30A4_U+30E4_U+30FC 1
 62
   179
420
  2234388
370
     9
100
AcDbVertex
100
AcDb2dVertex
 10
94.5099756444052
 20
-137.6487735766988
 30
0.0
  0
VERTEX
  5
12D
330
12B
100
AcDbEntity
  8
_U+30EC_U+30A4_U+30E4_U+30FC 1
 62
   179
420
  2234388
370
     9
100
AcDbVertex
100
AcDb2dVertex
 10
94.5099756444052
 20
-154.1101607948059
 30
0.0
  0
SEQEND
  5
12E
330
12B
100
AcDbEntity
  8
_U+30EC_U+30A4_U+30E4_U+30FC 1
 62
   179
420
  2234388
370
     9
  0
INSERT
  5
130
330
1F
100
AcDbEntity
  8
_U+30EC_U+30A4_U+30E4_U+30FC 1
100
AcDbBlockReference
  2
block 5
 10
0.0
 20
0.0
 30
0.0
  0
SPLINE
  5
142
330
1F
100
AcDbEntity
  8
_U+30EC_U+30A4_U+30E4_U+30FC 1
 62
   179
420
  2234388
370
     9
100
AcDbSpline
210
0.0
220
0.0
230
1.0
 70
    11
 71
     3
 72
    17
 73
    13
 74
     0
 42
0.0000000001
 43
0.0000000001
 12
1.0
 22
0.0
 32
0.0
 13
1.0
 23
0.0
 33
0.0
 40
0.0
 40
0.0
 40
0.0
 40
0.0
 40
1.0
 40
1.0
 40
1.0
 40
2.0
 40
2.0
 40
2.0
 40
3.0
 40
3.0
 40
3.0
 40
4.0
 40
4.0
 40
4.0
 40
4.0
 10
94.54514997636386
 20
-153.1100357950556
 30
0.0
 10
94.54514997636386
 20
-153.1296855172732
 30
0.0
 10
94.5292749763678
 20
-153.1455252394917
 30
0.0
 10
94.5099756444052
 20
-153.1455252394917
 30
0.0
 10
94.49000842269238
 20
-153.1455252394917
 30
0.0
 10
94.47483897863495
 20
-153.1296855172732
 30
0.0
 10
94.47483897863495
 20
-153.1100357950556
 30
0.0
 10
94.47483897863495
 20
-153.0907388506164
 30
0.0
 10
94.49000842269238
 20
-153.0748991283979
 30
0.0
 10
94.5099756444052
 20
-153.0748991283979
 30
0.0
 10
94.5292749763678
 20
-153.0748991283979
 30
0.0
 10
94.54514997636386
 20
-153.0907388506164
 30
0.0
 10
94.54514997636386
 20
-153.1100357950556
 30
0.0
  0
ENDSEC
  0
SECTION
  2
OBJECTS
  0
DICTIONARY
  5
C
330
0
100
AcDbDictionary
281
     1
  3
ACAD_GROUP
350
D
  3
ACAD_LAYOUT
350
1A
  3
ACAD_MATERIAL
350
3B
  3
ACAD_MLEADERSTYLE
350
144
  3
ACAD_MLINESTYLE
350
17
  3
ACAD_PLOTSETTINGS
350
19
  3
ACAD_PLOTSTYLENAME
350
E
  3
ACAD_TABLESTYLE
350
143
  3
ACAD_VISUALSTYLE
350
2A
  0
SUN
  5
3F
330
29
100
AcDbSun
 90
        1
290
     0
 63
     7
421
 16777215
 40
1.0
291
     1
 91
  2455826
 92
 54000000
292
     0
 70
     2
 71
   256
280
     1
  0
DICTIONARY
  5
D
102
{ACAD_REACTORS
330
C
102
}
330
C
100
AcDbDictionary
281
     1
  0
DICTIONARY
  5
1A
102
{ACAD_REACTORS
330
C
102
}
330
C
100
AcDbDictionary
281
     1
  3
Layout1
350
1E
  3
Layout2
350
26
  3
Model
350
22
  0
DICTIONARY
  5
3B
102
{ACAD_REACTORS
330
C
102
}
330
C
100
AcDbDictionary
281
     1
  3
ByBlock
350
3D
  3
ByLayer
350
3C
  3
Global
350
3E
  0
DICTIONARY
  5
144
102
{ACAD_REACTORS
330
C
102
}
330
C
100
AcDbDictionary
281
     1
  0
DICTIONARY
  5
17
102
{ACAD_REACTORS
330
C
102
}
330
C
100
AcDbDictionary
281
     1
  3
Standard
350
18
  0
DICTIONARY
  5
19
102
{ACAD_REACTORS
330
C
102
}
330
C
100
AcDbDictionary
281
     1
  0
ACDBDICTIONARYWDFLT
  5
E
102
{ACAD_REACTORS
330
C
102
}
330
C
100
AcDbDictionary
281
     1
  3
Normal
350
F
100
AcDbDictionaryWithDefault
340
F
  0
DICTIONARY
  5
143
102
{ACAD_REACTORS
330
C
102
}
330
C
100
AcDbDictionary
281
     1
  0
DICTIONARY
  5
2A
102
{ACAD_REACTORS
330
C
102
}
330
C
100
AcDbDictionary
281
     1
  3
2dWireframe
350
2F
  3
3D Hidden
350
31
  3
3dWireframe
350
30
  3
Basic
350
32
  3
Brighten
350
36
  3
ColorChange
350
3A
  3
Conceptual
350
34
  3
Dim
350
35
  3
Facepattern
350
39
  3
Flat
350
2B
  3
FlatWithEdges
350
2C
  3
Gouraud
350
2D
  3
GouraudWithEdges
350
2E
  3
Linepattern
350
38
  3
Realistic
350
33
  3
Thicken
350
37
  0
LAYOUT
  5
1E
102
{ACAD_REACTORS
330
1A
102
}
330
1A
100
AcDbPlotSettings
  1

  2
none_device
  4

  6

 40
0.0
 41
0.0
 42
0.0
 43
0.0
 44
0.0
 45
0.0
 46
0.0
 47
0.0
 48
0.0
 49
0.0
140
0.0
141
0.0
142
1.0
143
1.0
 70
   688
 72
     0
 73
     0
 74
     5
  7

 75
    16
 76
     0
 77
     2
 78
   300
147
1.0
148
0.0
149
0.0
100
AcDbLayout
  1
Layout1
 70
     1
 71
     1
 10
0.0
 20
0.0
 11
12.0
 21
9.0
 12
0.0
 22
0.0
 32
0.0
 14
1.000000000000000E+20
 24
1.000000000000000E+20
 34
1.000000000000000E+20
 15
-1.000000000000000E+20
 25
-1.000000000000000E+20
 35
-1.000000000000000E+20
146
0.0
 13
0.0
 23
0.0
 33
0.0
 16
1.0
 26
0.0
 36
0.0
 17
0.0
 27
1.0
 37
0.0
 76
     0
330
1B
  0
LAYOUT
  5
26
102
{ACAD_REACTORS
330
1A
102
}
330
1A
100
AcDbPlotSettings
  1

  2
none_device
  4

  6

 40
0.0
 41
0.0
 42
0.0
 43
0.0
 44
0.0
 45
0.0
 46
0.0
 47
0.0
 48
0.0
 49
0.0
140
0.0
141
0.0
142
1.0
143
1.0
 70
   688
 72
     0
 73
     0
 74
     5
  7

 75
    16
 76
     0
 77
     2
 78
   300
147
1.0
148
0.0
149
0.0
100
AcDbLayout
  1
Layout2
 70
     1
 71
     2
 10
0.0
 20
0.0
 11
0.0
 21
0.0
 12
0.0
 22
0.0
 32
0.0
 14
0.0
 24
0.0
 34
0.0
 15
0.0
 25
0.0
 35
0.0
146
0.0
 13
0.0
 23
0.0
 33
0.0
 16
1.0
 26
0.0
 36
0.0
 17
0.0
 27
1.0
 37
0.0
 76
     0
330
23
  0
LAYOUT
  5
22
102
{ACAD_REACTORS
330
1A
102
}
330
1A
100
AcDbPlotSettings
  1

  2
none_device
  4

  6

 40
0.0
 41
0.0
 42
0.0
 43
0.0
 44
0.0
 45
0.0
 46
0.0
 47
0.0
 48
0.0
 49
0.0
140
0.0
141
0.0
142
1.0
143
1.0
 70
  1712
 72
     0
 73
     0
 74
     0
  7

 75
     0
 76
     0
 77
     2
 78
   300
147
1.0
148
0.0
149
0.0
100
AcDbLayout
  1
Model
 70
     1
 71
     0
 10
0.0
 20
0.0
 11
12.0
 21
9.0
 12
0.0
 22
0.0
 32
0.0
 14
1.000000000000000E+20
 24
1.000000000000000E+20
 34
1.000000000000000E+20
 15
-1.000000000000000E+20
 25
-1.000000000000000E+20
 35
-1.000000000000000E+20
146
0.0
 13
0.0
 23
0.0
 33
0.0
 16
1.0
 26
0.0
 36
0.0
 17
0.0
 27
1.0
 37
0.0
 76
     0
330
1F
331
29
  0
MATERIAL
  5
3D
102
{ACAD_REACTORS
330
3B
102
}
330
3B
100
AcDbMaterial
  1
ByBlock
 72
     1
 94
      127
  0
MATERIAL
  5
3C
102
{ACAD_REACTORS
330
3B
102
}
330
3B
100
AcDbMaterial
  1
ByLayer
 72
     1
 94
      127
  0
MATERIAL
  5
3E
102
{ACAD_REACTORS
330
3B
102
}
330
3B
100
AcDbMaterial
  1
Global
 72
     1
 94
      127
  0
MLINESTYLE
  5
18
102
{ACAD_REACTORS
330
17
102
}
330
17
100
AcDbMlineStyle
  2
Standard
 70
     0
  3

 62
   256
 51
90.0
 52
90.0
 71
     2
 49
0.5
 62
   256
  6
BYLAYER
 49
-0.5
 62
   256
  6
BYLAYER
  0
ACDBPLACEHOLDER
  5
F
102
{ACAD_REACTORS
330
E
102
}
330
E
  0
VISUALSTYLE
  5
2F
102
{ACAD_REACTORS
330
2A
102
}
330
2A
100
AcDbVisualStyle
  2
2dWireframe
 70
     4
177
     2
291
     0
 71
     0
176
     1
 72
     2
176
     1
 73
     0
176
     1
 90
        0
176
     1
 40
-0.6
176
     1
 41
-30.0
176
     1
 62
     5
 63
     7
421
 16777215
176
     1
 74
     1
176
     1
 91
        4
176
     1
 64
     7
176
     1
 65
   257
176
     1
 75
     1
176
     1
175
     1
176
     1
 42
1.0
176
     1
 92
        0
176
     1
 66
   257
176
     1
 43
1.0
176
     1
 76
     1
176
     1
 77
     6
176
     1
 78
     2
176
     1
 67
     7
176
     1
 79
     5
176
     1
170
     0
176
     1
171
     0
176
     1
290
     0
176
     1
 93
        1
176
     1
 44
0.0
176
     1
173
     0
176
     1
  0
VISUALSTYLE
  5
31
102
{ACAD_REACTORS
330
2A
102
}
330
2A
100
AcDbVisualStyle
  2
3D Hidden
 70
     6
177
     2
291
     0
 71
     1
176
     1
 72
     2
176
     1
 73
     2
176
     1
 90
        0
176
     1
 40
-0.6
176
     1
 41
-30.0
176
     1
 62
     5
 63
     7
421
 16777215
176
     1
 74
     2
176
     1
 91
        2
176
     1
 64
     7
176
     1
 65
   257
176
     1
 75
     2
176
     1
175
     1
176
     1
 42
40.0
176
     1
 92
        0
176
     1
 66
   257
176
     1
 43
1.0
176
     1
 76
     1
176
     1
 77
     6
176
     1
 78
     2
176
     1
 67
     7
176
     1
 79
     3
176
     1
170
     0
176
     1
171
     0
176
     1
290
     0
176
     1
 93
        1
176
     1
 44
0.0
176
     1
173
     0
176
     1
  0
VISUALSTYLE
  5
30
102
{ACAD_REACTORS
330
2A
102
}
330
2A
100
AcDbVisualStyle
  2
3dWireframe
 70
     5
177
     2
291
     0
 71
     0
176
     1
 72
     2
176
     1
 73
     0
176
     1
 90
        0
176
     1
 40
-0.6
176
     1
 41
-30.0
176
     1
 62
     5
 63
     7
421
 16777215
176
     1
 74
     1
176
     1
 91
        4
176
     1
 64
     7
176
     1
 65
   257
176
     1
 75
     1
176
     1
175
     1
176
     1
 42
1.0
176
     1
 92
        0
176
     1
 66
   257
176
     1
 43
1.0
176
     1
 76
     1
176
     1
 77
     6
176
     1
 78
     2
176
     1
 67
     7
176
     1
 79
     5
176
     1
170
     0
176
     1
171
     0
176
     1
290
     0
176
     1
 93
        1
176
     1
 44
0.0
176
     1
173
     0
176
     1
  0
VISUALSTYLE
  5
32
102
{ACAD_REACTORS
330
2A
102
}
330
2A
100
AcDbVisualStyle
  2
Basic
 70
     7
177
     2
291
     1
 71
     1
176
     1
 72
     0
176
     1
 73
     1
176
     1
 90
        0
176
     1
 40
-0.6
176
     1
 41
-30.0
176
     1
 62
     5
 63
     7
421
 16777215
176
     1
 74
     0
176
     1
 91
        4
176
     1
 64
     7
176
     1
 65
   257
176
     1
 75
     1
176
     1
175
     1
176
     1
 42
1.0
176
     1
 92
        8
176
     1
 66
     7
176
     1
 43
1.0
176
     1
 76
     1
176
     1
 77
     6
176
     1
 78
     2
176
     1
 67
     7
176
     1
 79
     5
176
     1
170
     0
176
     1
171
     0
176
     1
290
     0
176
     1
 93
        1
176
     1
 44
0.0
176
     1
173
     0
176
     1
  0
VISUALSTYLE
  5
36
102
{ACAD_REACTORS
330
2A
102
}
330
2A
100
AcDbVisualStyle
  2
Brighten
 70
    12
177
     2
291
     1
 71
     2
176
     1
 72
     2
176
     1
 73
     0
176
     1
 90
        0
176
     1
 40
-0.6
176
     1
 41
-30.0
176
     1
 62
     5
 63
     7
421
 16777215
176
     1
 74
     1
176
     1
 91
        4
176
     1
 64
     7
176
     1
 65
   257
176
     1
 75
     1
176
     1
175
     1
176
     1
 42
1.0
176
     1
 92
        8
176
     1
 66
     7
176
     1
 43
1.0
176
     1
 76
     1
176
     1
 77
     6
176
     1
 78
     2
176
     1
 67
     7
176
     1
 79
     5
176
     1
170
     0
176
     1
171
     0
176
     1
290
     0
176
     1
 93
        1
176
     1
 44
50.0
176
     1
173
     0
176
     1
  0
VISUALSTYLE
  5
3A
102
{ACAD_REACTORS
330
2A
102
}
330
2A
100
AcDbVisualStyle
  2
ColorChange
 70
    16
177
     2
291
     1
 71
     2
176
     1
 72
     2
176
     1
 73
     3
176
     1
 90
        0
176
     1
 40
-0.6
176
     1
 41
-30.0
176
     1
 62
     5
 63
     8
421
  8421504
176
     1
 74
     1
176
     1
 91
        4
176
     1
 64
     7
176
     1
 65
   257
176
     1
 75
     1
176
     1
175
     1
176
     1
 42
1.0
176
     1
 92
        8
176
     1
 66
     8
424
  8421504
176
     1
 43
1.0
176
     1
 76
     1
176
     1
 77
     6
176
     1
 78
     2
176
     1
 67
     7
176
     1
 79
     5
176
     1
170
     0
176
     1
171
     0
176
     1
290
     0
176
     1
 93
        1
176
     1
 44
0.0
176
     1
173
     0
176
     1
  0
VISUALSTYLE
  5
34
102
{ACAD_REACTORS
330
2A
102
}
330
2A
100
AcDbVisualStyle
  2
Conceptual
 70
     9
177
     2
291
     0
 71
     3
176
     1
 72
     2
176
     1
 73
     0
176
     1
 90
        0
176
     1
 40
-0.6
176
     1
 41
-30.0
176
     1
 62
     5
 63
     7
421
 16777215
176
     1
 74
     2
176
     1
 91
        2
176
     1
 64
     7
176
     1
 65
   257
176
     1
 75
     1
176
     1
175
     1
176
     1
 42
40.0
176
     1
 92
        8
176
     1
 66
     7
176
     1
 43
1.0
176
     1
 76
     1
176
     1
 77
     6
176
     1
 78
     2
176
     1
 67
     7
176
     1
 79
     3
176
     1
170
     0
176
     1
171
     0
176
     1
290
     0
176
     1
 93
        1
176
     1
 44
0.0
176
     1
173
     0
176
     1
  0
VISUALSTYLE
  5
35
102
{ACAD_REACTORS
330
2A
102
}
330
2A
100
AcDbVisualStyle
  2
Dim
 70
    11
177
     2
291
     1
 71
     2
176
     1
 72
     2
176
     1
 73
     0
176
     1
 90
        0
176
     1
 40
-0.6
176
     1
 41
-30.0
176
     1
 62
     5
 63
     7
421
 16777215
176
     1
 74
     1
176
     1
 91
        4
176
     1
 64
     7
176
     1
 65
   257
176
     1
 75
     1
176
     1
175
     1
176
     1
 42
1.0
176
     1
 92
        8
176
     1
 66
     7
176
     1
 43
1.0
176
     1
 76
     1
176
     1
 77
     6
176
     1
 78
     2
176
     1
 67
     7
176
     1
 79
     5
176
     1
170
     0
176
     1
171
     0
176
     1
290
     0
176
     1
 93
        1
176
     1
 44
-50.0
176
     1
173
     0
176
     1
  0
VISUALSTYLE
  5
39
102
{ACAD_REACTORS
330
2A
102
}
330
2A
100
AcDbVisualStyle
  2
Facepattern
 70
    15
177
     2
291
     1
 71
     2
176
     1
 72
     2
176
     1
 73
     0
176
     1
 90
        0
176
     1
 40
-0.6
176
     1
 41
-30.0
176
     1
 62
     5
 63
     7
421
 16777215
176
     1
 74
     1
176
     1
 91
        4
176
     1
 64
     7
176
     1
 65
   257
176
     1
 75
     1
176
     1
175
     1
176
     1
 42
1.0
176
     1
 92
        8
176
     1
 66
     7
176
     1
 43
1.0
176
     1
 76
     1
176
     1
 77
     6
176
     1
 78
     2
176
     1
 67
     7
176
     1
 79
     5
176
     1
170
     0
176
     1
171
     0
176
     1
290
     0
176
     1
 93
        1
176
     1
 44
0.0
176
     1
173
     0
176
     1
  0
VISUALSTYLE
  5
2B
102
{ACAD_REACTORS
330
2A
102
}
330
2A
100
AcDbVisualStyle
  2
Flat
 70
     0
177
     2
291
     1
 71
     2
176
     1
 72
     1
176
     1
 73
     1
176
     1
 90
        2
176
     1
 40
-0.6
176
     1
 41
30.0
176
     1
 62
     5
 63
     7
421
 16777215
176
     1
 74
     0
176
     1
 91
        4
176
     1
 64
     7
176
     1
 65
   257
176
     1
 75
     1
176
     1
175
     1
176
     1
 42
1.0
176
     1
 92
        8
176
     1
 66
     7
176
     1
 43
1.0
176
     1
 76
     1
176
     1
 77
     6
176
     1
 78
     2
176
     1
 67
     7
176
     1
 79
     5
176
     1
170
     0
176
     1
171
     0
176
     1
290
     0
176
     1
 93
       13
176
     1
 44
0.0
176
     1
173
     0
176
     1
  0
VISUALSTYLE
  5
2C
102
{ACAD_REACTORS
330
2A
102
}
330
2A
100
AcDbVisualStyle
  2
FlatWithEdges
 70
     1
177
     2
291
     1
 71
     2
176
     1
 72
     1
176
     1
 73
     1
176
     1
 90
        2
176
     1
 40
-0.6
176
     1
 41
30.0
176
     1
 62
     5
 63
     7
421
 16777215
176
     1
 74
     1
176
     1
 91
        4
176
     1
 64
     7
176
     1
 65
   257
176
     1
 75
     1
176
     1
175
     1
176
     1
 42
1.0
176
     1
 92
        0
176
     1
 66
   257
176
     1
 43
1.0
176
     1
 76
     1
176
     1
 77
     6
176
     1
 78
     2
176
     1
 67
     7
176
     1
 79
     5
176
     1
170
     0
176
     1
171
     0
176
     1
290
     0
176
     1
 93
       13
176
     1
 44
0.0
176
     1
173
     0
176
     1
  0
VISUALSTYLE
  5
2D
102
{ACAD_REACTORS
330
2A
102
}
330
2A
100
AcDbVisualStyle
  2
Gouraud
 70
     2
177
     2
291
     1
 71
     2
176
     1
 72
     2
176
     1
 73
     1
176
     1
 90
        2
176
     1
 40
-0.6
176
     1
 41
30.0
176
     1
 62
     5
 63
     7
421
 16777215
176
     1
 74
     0
176
     1
 91
        4
176
     1
 64
     7
176
     1
 65
   257
176
     1
 75
     1
176
     1
175
     1
176
     1
 42
1.0
176
     1
 92
        0
176
     1
 66
     7
176
     1
 43
1.0
176
     1
 76
     1
176
     1
 77
     6
176
     1
 78
     2
176
     1
 67
     7
176
     1
 79
     5
176
     1
170
     0
176
     1
171
     0
176
     1
290
     0
176
     1
 93
       13
176
     1
 44
0.0
176
     1
173
     0
176
     1
  0
VISUALSTYLE
  5
2E
102
{ACAD_REACTORS
330
2A
102
}
330
2A
100
AcDbVisualStyle
  2
GouraudWithEdges
 70
     3
177
     2
291
     1
 71
     2
176
     1
 72
     2
176
     1
 73
     1
176
     1
 90
        2
176
     1
 40
-0.6
176
     1
 41
30.0
176
     1
 62
     5
 63
     7
421
 16777215
176
     1
 74
     1
176
     1
 91
        4
176
     1
 64
     7
176
     1
 65
   257
176
     1
 75
     1
176
     1
175
     1
176
     1
 42
1.0
176
     1
 92
        0
176
     1
 66
   257
176
     1
 43
1.0
176
     1
 76
     1
176
     1
 77
     6
176
     1
 78
     2
176
     1
 67
     7
176
     1
 79
     5
176
     1
170
     0
176
     1
171
     0
176
     1
290
     0
176
     1
 93
       13
176
     1
 44
0.0
176
     1
173
     0
176
     1
  0
VISUALSTYLE
  5
38
102
{ACAD_REACTORS
330
2A
102
}
330
2A
100
AcDbVisualStyle
  2
Linepattern
 70
    14
177
     2
291
     1
 71
     2
176
     1
 72
     2
176
     1
 73
     0
176
     1
 90
        0
176
     1
 40
-0.6
176
     1
 41
-30.0
176
     1
 62
     5
 63
     7
421
 16777215
176
     1
 74
     1
176
     1
 91
        4
176
     1
 64
     7
176
     1
 65
   257
176
     1
 75
     7
176
     1
175
     7
176
     1
 42
1.0
176
     1
 92
        8
176
     1
 66
     7
176
     1
 43
1.0
176
     1
 76
     1
176
     1
 77
     6
176
     1
 78
     2
176
     1
 67
     7
176
     1
 79
     5
176
     1
170
     0
176
     1
171
     0
176
     1
290
     0
176
     1
 93
        1
176
     1
 44
0.0
176
     1
173
     0
176
     1
  0
VISUALSTYLE
  5
33
102
{ACAD_REACTORS
330
2A
102
}
330
2A
100
AcDbVisualStyle
  2
Realistic
 70
     8
177
     2
291
     0
 71
     2
176
     1
 72
     2
176
     1
 73
     0
176
     1
 90
        0
176
     1
 40
-0.6
176
     1
 41
-30.0
176
     1
 62
     5
 63
     7
421
 16777215
176
     1
 74
     1
176
     1
 91
        0
176
     1
 64
     7
176
     1
 65
   257
176
     1
 75
     1
176
     1
175
     1
176
     1
 42
1.0
176
     1
 92
        8
176
     1
 66
     8
424
  7895160
176
     1
 43
1.0
176
     1
 76
     1
176
     1
 77
     6
176
     1
 78
     2
176
     1
 67
     7
176
     1
 79
     5
176
     1
170
     0
176
     1
171
     0
176
     1
290
     0
176
     1
 93
       13
176
     1
 44
0.0
176
     1
173
     0
176
     1
  0
VISUALSTYLE
  5
37
102
{ACAD_REACTORS
330
2A
102
}
330
2A
100
AcDbVisualStyle
  2
Thicken
 70
    13
177
     2
291
     1
 71
     2
176
     1
 72
     2
176
     1
 73
     0
176
     1
 90
        0
176
     1
 40
-0.6
176
     1
 41
-30.0
176
     1
 62
     5
 63
     7
421
 16777215
176
     1
 74
     1
176
     1
 91
        4
176
     1
 64
     7
176
     1
 65
   257
176
     1
 75
     1
176
     1
175
     1
176
     1
 42
1.0
176
     1
 92
       12
176
     1
 66
     7
176
     1
 43
1.0
176
     1
 76
     1
176
     1
 77
     6
176
     1
 78
     2
176
     1
 67
     7
176
     1
 79
     5
176
     1
170
     0
176
     1
171
     0
176
     1
290
     0
176
     1
 93
        1
176
     1
 44
0.0
176
     1
173
     0
176
     1
  0
ENDSEC
  0
EOF
