  0
SECTION
  2
HEADER
  9
$ACADVER
  1
AC1024
  9
$ACADMAINTVER
 70
     6
  9
$DWGCODEPAGE
  3
UNDEFINED
  9
$INSBASE
 10
0.0
 20
0.0
 30
0.0
  9
$EXTMIN
 10
1.000000000000000E+20
 20
1.000000000000000E+20
 30
1.000000000000000E+20
  9
$EXTMAX
 10
-1.000000000000000E+20
 20
-1.000000000000000E+20
 30
-1.000000000000000E+20
  9
$LIMMIN
 10
0.0
 20
0.0
  9
$LIMMAX
 10
12.0
 20
9.0
  9
$ORTHOMODE
 70
     0
  9
$REGENMODE
 70
     1
  9
$FILLMODE
 70
     1
  9
$QTEXTMODE
 70
     0
  9
$MIRRTEXT
 70
     1
  9
$LTSCALE
 40
1.0
  9
$ATTMODE
 70
     1
  9
$TEXTSIZE
 40
0.2
  9
$TRACEWID
 40
0.05
  9
$TEXTSTYLE
  7
Standard
  9
$CLAYER
  8
0
  9
$CELTYPE
  6
ByLayer
  9
$CECOLOR
 62
   256
  9
$CELTSCALE
 40
1.0
  9
$DISPSILH
 70
     0
  9
$DIMSCALE
 40
1.0
  9
$DIMASZ
 40
0.18
  9
$DIMEXO
 40
0.0625
  9
$DIMDLI
 40
0.38
  9
$DIMRND
 40
0.0
  9
$DIMDLE
 40
0.0
  9
$DIMEXE
 40
0.18
  9
$DIMTP
 40
0.0
  9
$DIMTM
 40
0.0
  9
$DIMTXT
 40
0.18
  9
$DIMCEN
 40
0.09
  9
$DIMTSZ
 40
0.0
  9
$DIMTOL
 70
     0
  9
$DIMLIM
 70
     0
  9
$DIMTIH
 70
     1
  9
$DIMTOH
 70
     1
  9
$DIMSE1
 70
     0
  9
$DIMSE2
 70
     0
  9
$DIMTAD
 70
     0
  9
$DIMZIN
 70
     0
  9
$DIMBLK
  1

  9
$DIMASO
 70
     1
  9
$DIMSHO
 70
     1
  9
$DIMPOST
  1

  9
$DIMAPOST
  1

  9
$DIMALT
 70
     0
  9
$DIMALTD
 70
     2
  9
$DIMALTF
 40
25.4
  9
$DIMLFAC
 40
1.0
  9
$DIMTOFL
 70
     0
  9
$DIMTVP
 40
0.0
  9
$DIMTIX
 70
     0
  9
$DIMSOXD
 70
     0
  9
$DIMSAH
 70
     0
  9
$DIMBLK1
  1

  9
$DIMBLK2
  1

  9
$DIMSTYLE
  2
Standard
  9
$DIMCLRD
 70
     0
  9
$DIMCLRE
 70
     0
  9
$DIMCLRT
 70
     0
  9
$DIMTFAC
 40
1.0
  9
$DIMGAP
 40
0.09
  9
$DIMJUST
 70
     0
  9
$DIMSD1
 70
     0
  9
$DIMSD2
 70
     0
  9
$DIMTOLJ
 70
     1
  9
$DIMTZIN
 70
     0
  9
$DIMALTZ
 70
     0
  9
$DIMALTTZ
 70
     0
  9
$DIMUPT
 70
     0
  9
$DIMDEC
 70
     4
  9
$DIMTDEC
 70
     4
  9
$DIMALTU
 70
     2
  9
$DIMALTTD
 70
     2
  9
$DIMTXSTY
  7
Standard
  9
$DIMAUNIT
 70
     0
  9
$DIMADEC
 70
     0
  9
$DIMALTRND
 40
0.0
  9
$DIMAZIN
 70
     0
  9
$DIMDSEP
 70
    46
  9
$DIMATFIT
 70
     3
  9
$DIMFRAC
 70
     0
  9
$DIMLDRBLK
  1

  9
$DIMLUNIT
 70
     2
  9
$DIMLWD
 70
    -2
  9
$DIMLWE
 70
    -2
  9
$DIMTMOVE
 70
     0
  9
$DIMFXL
 40
1.0
  9
$DIMFXLON
 70
     0
  9
$DIMJOGANG
 40
0.7853981633974483
  9
$DIMTFILL
 70
     0
  9
$DIMTFILLCLR
 70
     0
  9
$DIMARCSYM
 70
     0
  9
$DIMLTYPE
  6

  9
$DIMLTEX1
  6

  9
$DIMLTEX2
  6

  9
$DIMTXTDIRECTION
 70
     0
  9
$LUNITS
 70
     2
  9
$LUPREC
 70
     4
  9
$SKETCHINC
 40
0.1
  9
$FILLETRAD
 40
0.5
  9
$AUNITS
 70
     0
  9
$AUPREC
 70
     0
  9
$MENU
  1
.
  9
$ELEVATION
 40
0.0
  9
$PELEVATION
 40
0.0
  9
$THICKNESS
 40
0.0
  9
$LIMCHECK
 70
     0
  9
$CHAMFERA
 40
0.5
  9
$CHAMFERB
 40
0.5
  9
$CHAMFERC
 40
1.0
  9
$CHAMFERD
 40
0.0
  9
$SKPOLY
 70
     0
  9
$TDCREATE
 40
2457917.636215278
  9
$TDUCREATE
 40
2457917.261215278
  9
$TDUPDATE
 40
2457917.636215278
  9
$TDUUPDATE
 40
2457917.261215278
  9
$TDINDWG
 40
0.0000000116
  9
$TDUSRTIMER
 40
0.0000000116
  9
$USRTIMER
 70
     1
  9
$ANGBASE
 50
0.0
  9
$ANGDIR
 70
     0
  9
$PDMODE
 70
     0
  9
$PDSIZE
 40
0.0
  9
$PLINEWID
 40
0.0
  9
$SPLFRAME
 70
     0
  9
$SPLINETYPE
 70
     6
  9
$SPLINESEGS
 70
     8
  9
$HANDSEED
  5
145
  9
$SURFTAB1
 70
     6
  9
$SURFTAB2
 70
     6
  9
$SURFTYPE
 70
     6
  9
$SURFU
 70
     6
  9
$SURFV
 70
     6
  9
$UCSBASE
  2

  9
$UCSNAME
  2

  9
$UCSORG
 10
0.0
 20
0.0
 30
0.0
  9
$UCSXDIR
 10
1.0
 20
0.0
 30
0.0
  9
$UCSYDIR
 10
0.0
 20
1.0
 30
0.0
  9
$UCSORTHOREF
  2

  9
$UCSORTHOVIEW
 70
     0
  9
$UCSORGTOP
 10
0.0
 20
0.0
 30
0.0
  9
$UCSORGBOTTOM
 10
0.0
 20
0.0
 30
0.0
  9
$UCSORGLEFT
 10
0.0
 20
0.0
 30
0.0
  9
$UCSORGRIGHT
 10
0.0
 20
0.0
 30
0.0
  9
$UCSORGFRONT
 10
0.0
 20
0.0
 30
0.0
  9
$UCSORGBACK
 10
0.0
 20
0.0
 30
0.0
  9
$PUCSBASE
  2

  9
$PUCSNAME
  2

  9
$PUCSORG
 10
0.0
 20
0.0
 30
0.0
  9
$PUCSXDIR
 10
1.0
 20
0.0
 30
0.0
  9
$PUCSYDIR
 10
0.0
 20
1.0
 30
0.0
  9
$PUCSORTHOREF
  2

  9
$PUCSORTHOVIEW
 70
     0
  9
$PUCSORGTOP
 10
0.0
 20
0.0
 30
0.0
  9
$PUCSORGBOTTOM
 10
0.0
 20
0.0
 30
0.0
  9
$PUCSORGLEFT
 10
0.0
 20
0.0
 30
0.0
  9
$PUCSORGRIGHT
 10
0.0
 20
0.0
 30
0.0
  9
$PUCSORGFRONT
 10
0.0
 20
0.0
 30
0.0
  9
$PUCSORGBACK
 10
0.0
 20
0.0
 30
0.0
  9
$USERI1
 70
     0
  9
$USERI2
 70
     0
  9
$USERI3
 70
     0
  9
$USERI4
 70
     0
  9
$USERI5
 70
     0
  9
$USERR1
 40
0.0
  9
$USERR2
 40
0.0
  9
$USERR3
 40
0.0
  9
$USERR4
 40
0.0
  9
$USERR5
 40
0.0
  9
$WORLDVIEW
 70
     1
  9
$SHADEDGE
 70
     3
  9
$SHADEDIF
 70
    70
  9
$TILEMODE
 70
     1
  9
$MAXACTVP
 70
    64
  9
$PINSBASE
 10
0.0
 20
0.0
 30
0.0
  9
$PLIMCHECK
 70
     0
  9
$PEXTMIN
 10
1.000000000000000E+20
 20
1.000000000000000E+20
 30
1.000000000000000E+20
  9
$PEXTMAX
 10
-1.000000000000000E+20
 20
-1.000000000000000E+20
 30
-1.000000000000000E+20
  9
$PLIMMIN
 10
0.0
 20
0.0
  9
$PLIMMAX
 10
12.0
 20
9.0
  9
$UNITMODE
 70
     0
  9
$VISRETAIN
 70
     1
  9
$PLINEGEN
 70
     0
  9
$PSLTSCALE
 70
     1
  9
$TREEDEPTH
 70
  3020
  9
$CMLSTYLE
  2
Standard
  9
$CMLJUST
 70
     0
  9
$CMLSCALE
 40
1.0
  9
$PROXYGRAPHICS
 70
     1
  9
$MEASUREMENT
 70
     0
  9
$CELWEIGHT
370
    -1
  9
$ENDCAPS
280
     0
  9
$JOINSTYLE
280
     0
  9
$LWDISPLAY
290
     1
  9
$INSUNITS
 70
     1
  9
$HYPERLINKBASE
  1

  9
$STYLESHEET
  1

  9
$XEDIT
290
     1
  9
$CEPSNTYPE
380
     0
  9
$PSTYLEMODE
290
     1
  9
$FINGERPRINTGUID
  2
{48F03342-1123-EAF2-1FAE-5BF4FC584BFD}
  9
$VERSIONGUID
  2
{FAEB1C32-E019-11D5-929B-00C0DF256EC4}
  9
$EXTNAMES
290
     1
  9
$PSVPSCALE
 40
0.0
  9
$OLESTARTUP
290
     0
  9
$SORTENTS
280
   127
  9
$INDEXCTL
280
     0
  9
$HIDETEXT
280
     1
  9
$XCLIPFRAME
280
     2
  9
$HALOGAP
280
     0
  9
$OBSCOLOR
 70
   257
  9
$OBSLTYPE
280
     0
  9
$INTERSECTIONDISPLAY
280
     0
  9
$INTERSECTIONCOLOR
 70
   257
  9
$DIMASSOC
280
     2
  9
$PROJECTNAME
  1

  9
$CAMERADISPLAY
290
     0
  9
$LENSLENGTH
 40
50.0
  9
$CAMERAHEIGHT
 40
0.0
  9
$STEPSPERSEC
 40
2.0
  9
$STEPSIZE
 40
6.0
  9
$3DDWFPREC
 40
2.0
  9
$PSOLWIDTH
 40
0.25
  9
$PSOLHEIGHT
 40
4.0
  9
$LOFTANG1
 40
1.570796326794897
  9
$LOFTANG2
 40
1.570796326794897
  9
$LOFTMAG1
 40
0.0
  9
$LOFTMAG2
 40
0.0
  9
$LOFTPARAM
 70
     7
  9
$LOFTNORMALS
280
     1
  9
$LATITUDE
 40
37.795
  9
$LONGITUDE
 40
-122.394
  9
$NORTHDIRECTION
 40
0.0
  9
$TIMEZONE
 70
 -8000
  9
$LIGHTGLYPHDISPLAY
280
     1
  9
$TILEMODELIGHTSYNCH
280
     1
  9
$CMATERIAL
347
3C
  9
$SOLIDHIST
280
     1
  9
$SHOWHIST
280
     1
  9
$DWFFRAME
280
     2
  9
$DGNFRAME
280
     2
  9
$REALWORLDSCALE
290
     1
  9
$INTERFERECOLOR
 62
   256
  9
$CSHADOW
280
     0
  9
$SHADOWPLANELOCATION
 40
0.0
  0
ENDSEC
  0
SECTION
  2
CLASSES
  0
CLASS
  1
ACDBDICTIONARYWDFLT
  2
AcDbDictionaryWithDefault
  3
ObjectDBX Classes
 90
        0
 91
        4
280
     0
281
     0
  0
CLASS
  1
VISUALSTYLE
  2
AcDbVisualStyle
  3
ObjectDBX Classes
 90
     4095
 91
        4
280
     0
281
     0
  0
CLASS
  1
MATERIAL
  2
AcDbMaterial
  3
ObjectDBX Classes
 90
     1153
 91
        4
280
     0
281
     0
  0
CLASS
  1
SUN
  2
AcDbSun
  3
SCENEOE
 90
     1024
 91
        4
280
     0
281
     0
  0
ENDSEC
  0
SECTION
  2
TABLES
  0
TABLE
  2
VPORT
  5
8
330
0
100
AcDbSymbolTable
 70
     1
  0
VPORT
  5
29
330
8
100
AcDbSymbolTableRecord
100
AcDbViewportTableRecord
  2
*Active
 70
     0
 10
0.0
 20
0.0
 11
1.0
 21
1.0
 12
0.0
 22
0.0
 13
0.0
 23
0.0
 14
0.5
 24
0.5
 15
0.5
 25
0.5
 16
0.0
 26
0.0
 36
1.0
 17
91.00082462281999
 27
-128.4993055234307
 37
0.0
 40
256.9986110468615
 41
0.7081814508812795
 42
50.0
 43
0.0
 44
0.0
 50
0.0
 51
0.0
 71
     0
 72
   100
 73
     1
 74
     3
 75
     0
 76
     0
 77
     0
 78
     0
281
     0
 65
     1
110
0.0
120
0.0
130
0.0
111
1.0
121
0.0
131
0.0
112
0.0
122
1.0
132
0.0
 79
     0
146
0.0
 60
     3
 61
     5
292
     1
282
     1
141
0.0
142
0.0
 63
   250
361
3F
  0
ENDTAB
  0
TABLE
  2
LTYPE
  5
5
330
0
100
AcDbSymbolTable
 70
     1
  0
LTYPE
  5
14
330
5
100
AcDbSymbolTableRecord
100
AcDbLinetypeTableRecord
  2
ByBlock
 70
     0
  3

 72
    65
 73
     0
 40
0.0
  0
LTYPE
  5
15
330
5
100
AcDbSymbolTableRecord
100
AcDbLinetypeTableRecord
  2
ByLayer
 70
     0
  3

 72
    65
 73
     0
 40
0.0
  0
LTYPE
  5
16
330
5
100
AcDbSymbolTableRecord
100
AcDbLinetypeTableRecord
  2
Continuous
 70
     0
  3
Solid line
 72
    65
 73
     0
 40
0.0
  0
ENDTAB
  0
TABLE
  2
LAYER
  5
2
330
0
100
AcDbSymbolTable
 70
     2
  0
LAYER
  5
10
330
2
100
AcDbSymbolTableRecord
100
AcDbLayerTableRecord
  2
0
 70
     0
 62
     7
  6
Continuous
370
    -3
390
F
347
3E
  0
LAYER
  5
40
330
2
100
AcDbSymbolTableRecord
100
AcDbLayerTableRecord
  2
_U+30EC_U+30A4_U+30E4_U+30FC 1
 70
     0
 62
     7
  6
Continuous
370
    -3
390
F
347
3E
  0
ENDTAB
  0
TABLE
  2
STYLE
  5
3
330
0
100
AcDbSymbolTable
 70
     1
  0
STYLE
  5
11
330
3
100
AcDbSymbolTableRecord
100
AcDbTextStyleTableRecord
  2
Standard
 70
     0
 40
0.0
 41
1.0
 50
0.0
 71
     0
 42
0.2
  3
txt
  4

  0
ENDTAB
  0
TABLE
  2
VIEW
  5
6
330
0
100
AcDbSymbolTable
 70
     0
  0
ENDTAB
  0
TABLE
  2
UCS
  5
7
330
0
100
AcDbSymbolTable
 70
     0
  0
ENDTAB
  0
TABLE
  2
APPID
  5
9
330
0
100
AcDbSymbolTable
 70
     1
  0
APPID
  5
12
330
9
100
AcDbSymbolTableRecord
100
AcDbRegAppTableRecord
  2
ACAD
 70
     0
  0
ENDTAB
  0
TABLE
  2
DIMSTYLE
  5
A
330
0
100
AcDbSymbolTable
 70
     1
100
AcDbDimStyleTable
  0
DIMSTYLE
105
27
330
A
100
AcDbSymbolTableRecord
100
AcDbDimStyleTableRecord
  2
Standard
 70
     0
178
     0
340
11
  0
ENDTAB
  0
TABLE
  2
BLOCK_RECORD
  5
1
330
0
100
AcDbSymbolTable
 70
     5
  0
BLOCK_RECORD
  5
1F
330
1
100
AcDbSymbolTableRecord
100
AcDbBlockTableRecord
  2
*Model_Space
340
22
 70
     0
280
     1
281
     0
  0
BLOCK_RECORD
  5
1B
330
1
100
AcDbSymbolTableRecord
100
AcDbBlockTableRecord
  2
*Paper_Space
340
1E
 70
     0
280
     1
281
     0
  0
BLOCK_RECORD
  5
23
330
1
100
AcDbSymbolTableRecord
100
AcDbBlockTableRecord
  2
*Paper_Space0
340
26
 70
     0
280
     1
281
     0
  0
BLOCK_RECORD
  5
CB
330
1
100
AcDbSymbolTableRecord
100
AcDbBlockTableRecord
  2
block 2
340
0
102
{BLKREFS
331
CC
102
}
 70
     0
280
     1
281
     0
  0
BLOCK_RECORD
  5
EC
330
1
100
AcDbSymbolTableRecord
100
AcDbBlockTableRecord
  2
block 3
340
0
102
{BLKREFS
331
ED
102
}
 70
     0
280
     1
281
     0
  0
BLOCK_RECORD
  5
116
330
1
100
AcDbSymbolTableRecord
100
AcDbBlockTableRecord
  2
block 4
340
0
102
{BLKREFS
331
117
102
}
 70
     0
280
     1
281
     0
  0
BLOCK_RECORD
  5
130
330
1
100
AcDbSymbolTableRecord
100
AcDbBlockTableRecord
  2
block 5
340
0
102
{BLKREFS
331
131
102
}
 70
     0
280
     1
281
     0
  0
ENDTAB
  0
ENDSEC
  0
SECTION
  2
BLOCKS
  0
BLOCK
  5
20
330
1F
100
AcDbEntity
  8
0
100
AcDbBlockBegin
  2
*Model_Space
 70
     0
 10
0.0
 20
0.0
 30
0.0
  3
*Model_Space
  1

  0
ENDBLK
  5
21
330
1F
100
AcDbEntity
  8
0
100
AcDbBlockEnd
  0
BLOCK
  5
1C
330
1B
100
AcDbEntity
 67
     1
  8
0
100
AcDbBlockBegin
  2
*Paper_Space
 70
     0
 10
0.0
 20
0.0
 30
0.0
  3
*Paper_Space
  1

  0
ENDBLK
  5
1D
330
1B
100
AcDbEntity
 67
     1
  8
0
100
AcDbBlockEnd
  0
BLOCK
  5
24
330
23
100
AcDbEntity
  8
0
100
AcDbBlockBegin
  2
*Paper_Space0
 70
     0
 10
0.0
 20
0.0
 30
0.0
  3
*Paper_Space0
  1

  0
ENDBLK
  5
25
330
23
100
AcDbEntity
  8
0
100
AcDbBlockEnd
  0
BLOCK
  5
CD
330
CB
100
AcDbEntity
  8
0
100
AcDbBlockBegin
  2
block 2
 70
     0
 10
0.0
 20
0.0
 30
0.0
  3
block 2
  1

  0
SPLINE
  5
CF
330
CB
100
AcDbEntity
  8
_U+30EC_U+30A4_U+30E4_U+30FC 1
370
     0
100
AcDbSpline
210
0.0
220
0.0
230
1.0
 70
    11
 71
     3
 72
    29
 73
    25
 74
     0
 42
0.0000000001
 43
0.0000000001
 12
1.0
 22
0.0
 32
0.0
 13
1.0
 23
0.0
 33
0.0
 40
0.0
 40
0.0
 40
0.0
 40
0.0
 40
1.0
 40
1.0
 40
1.0
 40
2.0
 40
2.0
 40
2.0
 40
3.0
 40
3.0
 40
3.0
 40
4.0
 40
4.0
 40
4.0
 40
5.0
 40
5.0
 40
5.0
 40
6.0
 40
6.0
 40
6.0
 40
7.0
 40
7.0
 40
7.0
 40
8.0
 40
8.0
 40
8.0
 40
8.0
 10
94.58027341385494
 20
-143.1065103808901
 30
0.0
 10
94.58027341385494
 20
-143.3728162618999
 30
0.0
 10
94.44281410399347
 20
-143.6267197991628
 30
0.0
 10
94.09382593133766
 20
-143.6267197991628
 30
0.0
 10
93.83785533678359
 20
-143.6267197991628
 30
0.0
 10
93.74242619184217
 20
-143.485126374719
 30
0.0
 10
93.68110349220473
 20
-143.3793619433218
 30
0.0
 10
93.62184784985843
 20
-143.5040743998879
 30
0.0
 10
93.50781518929666
 20
-143.5802110101119
 30
0.0
 10
93.3469292301355
 20
-143.5802110101119
 30
0.0
 10
93.07201061041256
 20
-143.5802110101119
 30
0.0
 10
92.93661835784224
 20
-143.381429000613
 30
0.0
 10
92.93661835784224
 20
-143.1065103808901
 30
0.0
 10
92.93661835784224
 20
-142.822979022454
 30
0.0
 10
93.08027883957716
 20
-142.6324652421197
 30
0.0
 10
93.3469292301355
 20
-142.6324652421197
 30
0.0
 10
93.50781518929666
 20
-142.6324652421197
 30
0.0
 10
93.62184784985843
 20
-142.7106689096348
 30
0.0
 10
93.68110349220473
 20
-142.8357258757494
 30
0.0
 10
93.73209090538643
 20
-142.74684241223
 30
0.0
 10
93.82717554077932
 20
-142.5880235103599
 30
0.0
 10
94.08934730720684
 20
-142.5880235103599
 30
0.0
 10
94.4638291864535
 20
-142.5880235103599
 30
0.0
 10
94.58027341385494
 20
-142.8674207542137
 30
0.0
 10
94.58027341385494
 20
-143.1065103808901
 30
0.0
  0
SPLINE
  5
D0
330
CB
100
AcDbEntity
  8
_U+30EC_U+30A4_U+30E4_U+30FC 1
370
     0
100
AcDbSpline
210
0.0
220
0.0
230
1.0
 70
    11
 71
     3
 72
    17
 73
    13
 74
     0
 42
0.0000000001
 43
0.0000000001
 12
1.0
 22
0.0
 32
0.0
 13
1.0
 23
0.0
 33
0.0
 40
0.0
 40
0.0
 40
0.0
 40
0.0
 40
1.0
 40
1.0
 40
1.0
 40
2.0
 40
2.0
 40
2.0
 40
3.0
 40
3.0
 40
3.0
 40
4.0
 40
4.0
 40
4.0
 40
4.0
 10
93.1291991954677
 20
-143.1065103808901
 30
0.0
 10
93.1291991954677
 20
-143.2715304546335
 30
0.0
 10
93.2242838308606
 20
-143.3559352940221
 30
0.0
 10
93.35967608343091
 20
-143.3559352940221
 30
0.0
 10
93.48232148270581
 20
-143.3559352940221
 30
0.0
 10
93.6008327673984
 20
-143.2839327983804
 30
0.0
 10
93.6008327673984
 20
-143.1065103808901
 30
0.0
 10
93.6008327673984
 20
-142.9287434538512
 30
0.0
 10
93.48232148270581
 20
-142.8567409582094
 30
0.0
 10
93.35967608343091
 20
-142.8567409582094
 30
0.0
 10
93.2242838308606
 20
-142.8567409582094
 30
0.0
 10
93.1291991954677
 20
-142.9435573644377
 30
0.0
 10
93.1291991954677
 20
-143.1065103808901
 30
0.0
  0
SPLINE
  5
D1
330
CB
100
AcDbEntity
  8
_U+30EC_U+30A4_U+30E4_U+30FC 1
370
     0
100
AcDbSpline
210
0.0
220
0.0
230
1.0
 70
    11
 71
     3
 72
    17
 73
    13
 74
     0
 42
0.0000000001
 43
0.0000000001
 12
1.0
 22
0.0
 32
0.0
 13
1.0
 23
0.0
 33
0.0
 40
0.0
 40
0.0
 40
0.0
 40
0.0
 40
1.0
 40
1.0
 40
1.0
 40
2.0
 40
2.0
 40
2.0
 40
3.0
 40
3.0
 40
3.0
 40
4.0
 40
4.0
 40
4.0
 40
4.0
 10
93.78893498089305
 20
-143.1065103808901
 30
0.0
 10
93.78893498089305
 20
-143.250170862625
 30
0.0
 10
93.87575138712134
 20
-143.402444083073
 30
0.0
 10
94.07901202075108
 20
-143.402444083073
 30
0.0
 10
94.28399520212345
 20
-143.402444083073
 30
0.0
 10
94.38562551893833
 20
-143.2756645692158
 30
0.0
 10
94.38562551893833
 20
-143.1065103808901
 30
0.0
 10
94.38562551893833
 20
-142.920130715138
 30
0.0
 10
94.26298011966342
 20
-142.8102321691586
 30
0.0
 10
94.08521319262454
 20
-142.8102321691586
 30
0.0
 10
93.86300453382592
 20
-142.8102321691586
 30
0.0
 10
93.78893498089305
 20
-142.9731851856109
 30
0.0
 10
93.78893498089305
 20
-143.1065103808901
 30
0.0
  0
HATCH
  5
D2
330
CB
100
AcDbEntity
  8
_U+30EC_U+30A4_U+30E4_U+30FC 1
 62
   179
420
  2234388
100
AcDbHatch
 10
0.0
 20
0.0
 30
0.0
210
0.0
220
0.0
230
1.0
  2
SOLID
 70
     1
 71
     0
 91
        3
 92
        1
 93
        1
 72
     4
 94
        3
 73
     0
 74
     1
 95
       29
 96
       25
 40
0.0
 40
0.0
 40
0.0
 40
0.0
 40
1.0
 40
1.0
 40
1.0
 40
2.0
 40
2.0
 40
2.0
 40
3.0
 40
3.0
 40
3.0
 40
4.0
 40
4.0
 40
4.0
 40
5.0
 40
5.0
 40
5.0
 40
6.0
 40
6.0
 40
6.0
 40
7.0
 40
7.0
 40
7.0
 40
8.0
 40
8.0
 40
8.0
 40
8.0
 10
94.58027341385494
 20
-143.1065103808901
 10
94.58027341385494
 20
-143.3728162618999
 10
94.44281410399347
 20
-143.6267197991628
 10
94.09382593133766
 20
-143.6267197991628
 10
93.83785533678359
 20
-143.6267197991628
 10
93.74242619184217
 20
-143.485126374719
 10
93.68110349220473
 20
-143.3793619433218
 10
93.62184784985843
 20
-143.5040743998879
 10
93.50781518929666
 20
-143.5802110101119
 10
93.3469292301355
 20
-143.5802110101119
 10
93.07201061041256
 20
-143.5802110101119
 10
92.93661835784224
 20
-143.381429000613
 10
92.93661835784224
 20
-143.1065103808901
 10
92.93661835784224
 20
-142.822979022454
 10
93.08027883957716
 20
-142.6324652421197
 10
93.3469292301355
 20
-142.6324652421197
 10
93.50781518929666
 20
-142.6324652421197
 10
93.62184784985843
 20
-142.7106689096348
 10
93.68110349220473
 20
-142.8357258757494
 10
93.73209090538643
 20
-142.74684241223
 10
93.82717554077932
 20
-142.5880235103599
 10
94.08934730720684
 20
-142.5880235103599
 10
94.4638291864535
 20
-142.5880235103599
 10
94.58027341385494
 20
-142.8674207542137
 10
94.58027341385494
 20
-143.1065103808901
 97
        0
 97
        0
 92
        1
 93
        1
 72
     4
 94
        3
 73
     0
 74
     1
 95
       17
 96
       13
 40
0.0
 40
0.0
 40
0.0
 40
0.0
 40
1.0
 40
1.0
 40
1.0
 40
2.0
 40
2.0
 40
2.0
 40
3.0
 40
3.0
 40
3.0
 40
4.0
 40
4.0
 40
4.0
 40
4.0
 10
93.1291991954677
 20
-143.1065103808901
 10
93.1291991954677
 20
-143.2715304546335
 10
93.2242838308606
 20
-143.3559352940221
 10
93.35967608343091
 20
-143.3559352940221
 10
93.48232148270581
 20
-143.3559352940221
 10
93.6008327673984
 20
-143.2839327983804
 10
93.6008327673984
 20
-143.1065103808901
 10
93.6008327673984
 20
-142.9287434538512
 10
93.48232148270581
 20
-142.8567409582094
 10
93.35967608343091
 20
-142.8567409582094
 10
93.2242838308606
 20
-142.8567409582094
 10
93.1291991954677
 20
-142.9435573644377
 10
93.1291991954677
 20
-143.1065103808901
 97
        0
 97
        0
 92
        1
 93
        1
 72
     4
 94
        3
 73
     0
 74
     1
 95
       17
 96
       13
 40
0.0
 40
0.0
 40
0.0
 40
0.0
 40
1.0
 40
1.0
 40
1.0
 40
2.0
 40
2.0
 40
2.0
 40
3.0
 40
3.0
 40
3.0
 40
4.0
 40
4.0
 40
4.0
 40
4.0
 10
93.78893498089305
 20
-143.1065103808901
 10
93.78893498089305
 20
-143.250170862625
 10
93.87575138712134
 20
-143.402444083073
 10
94.07901202075108
 20
-143.402444083073
 10
94.28399520212345
 20
-143.402444083073
 10
94.38562551893833
 20
-143.2756645692158
 10
94.38562551893833
 20
-143.1065103808901
 10
94.38562551893833
 20
-142.920130715138
 10
94.26298011966342
 20
-142.8102321691586
 10
94.08521319262454
 20
-142.8102321691586
 10
93.86300453382592
 20
-142.8102321691586
 10
93.78893498089305
 20
-142.9731851856109
 10
93.78893498089305
 20
-143.1065103808901
 97
        0
 97
        0
 75
     2
 76
     1
 98
        0
  0
POLYLINE
  5
D3
330
CB
100
AcDbEntity
  8
_U+30EC_U+30A4_U+30E4_U+30FC 1
370
     0
100
AcDb2dPolyline
 66
     1
 10
0.0
 20
0.0
 30
0.0
  0
VERTEX
  5
D4
330
D3
100
AcDbEntity
  8
_U+30EC_U+30A4_U+30E4_U+30FC 1
370
     0
100
AcDbVertex
100
AcDb2dVertex
 10
94.52963051022176
 20
-142.3696044565951
 30
0.0
  0
VERTEX
  5
D5
330
D3
100
AcDbEntity
  8
_U+30EC_U+30A4_U+30E4_U+30FC 1
370
     0
100
AcDbVertex
100
AcDb2dVertex
 10
94.27779403025
 20
-142.3696044565951
 30
0.0
  0
VERTEX
  5
D6
330
D3
100
AcDbEntity
  8
_U+30EC_U+30A4_U+30E4_U+30FC 1
370
     0
100
AcDbVertex
100
AcDb2dVertex
 10
94.27779403025
 20
-142.1177679766234
 30
0.0
  0
VERTEX
  5
D7
330
D3
100
AcDbEntity
  8
_U+30EC_U+30A4_U+30E4_U+30FC 1
370
     0
100
AcDbVertex
100
AcDb2dVertex
 10
94.52963051022176
 20
-142.1177679766234
 30
0.0
  0
VERTEX
  5
D8
330
D3
100
AcDbEntity
  8
_U+30EC_U+30A4_U+30E4_U+30FC 1
370
     0
100
AcDbVertex
100
AcDb2dVertex
 10
94.52963051022176
 20
-142.3696044565951
 30
0.0
  0
SEQEND
  5
D9
330
D3
100
AcDbEntity
  8
_U+30EC_U+30A4_U+30E4_U+30FC 1
370
     0
  0
HATCH
  5
DA
330
CB
100
AcDbEntity
  8
_U+30EC_U+30A4_U+30E4_U+30FC 1
 62
   179
420
  2234388
100
AcDbHatch
 10
0.0
 20
0.0
 30
0.0
210
0.0
220
0.0
230
1.0
  2
SOLID
 70
     1
 71
     0
 91
        1
 92
        1
 93
        4
 72
     1
 10
94.52963051022176
 20
-142.3696044565951
 11
94.27779403025
 21
-142.3696044565951
 72
     1
 10
94.27779403025
 20
-142.3696044565951
 11
94.27779403025
 21
-142.1177679766234
 72
     1
 10
94.27779403025
 20
-142.1177679766234
 11
94.52963051022176
 21
-142.1177679766234
 72
     1
 10
94.52963051022176
 20
-142.1177679766234
 11
94.52963051022176
 21
-142.3696044565951
 97
        0
 75
     2
 76
     1
 98
        0
  0
SPLINE
  5
DB
330
CB
100
AcDbEntity
  8
_U+30EC_U+30A4_U+30E4_U+30FC 1
370
     0
100
AcDbSpline
210
0.0
220
0.0
230
1.0
 70
    11
 71
     3
 72
    53
 73
    49
 74
     0
 42
0.0000000001
 43
0.0000000001
 12
1.0
 22
0.0
 32
0.0
 13
1.0
 23
0.0
 33
0.0
 40
0.0
 40
0.0
 40
0.0
 40
0.0
 40
1.0
 40
1.0
 40
1.0
 40
2.0
 40
2.0
 40
2.0
 40
3.0
 40
3.0
 40
3.0
 40
4.0
 40
4.0
 40
4.0
 40
5.0
 40
5.0
 40
5.0
 40
6.0
 40
6.0
 40
6.0
 40
7.0
 40
7.0
 40
7.0
 40
8.0
 40
8.0
 40
8.0
 40
9.0
 40
9.0
 40
9.0
 40
10.0
 40
10.0
 40
10.0
 40
11.0
 40
11.0
 40
11.0
 40
12.0
 40
12.0
 40
12.0
 40
13.0
 40
13.0
 40
13.0
 40
14.0
 40
14.0
 40
14.0
 40
15.0
 40
15.0
 40
15.0
 40
16.0
 40
16.0
 40
16.0
 40
16.0
 10
94.58027341385494
 20
-141.4004990965943
 30
0.0
 10
94.58027341385494
 20
-141.4787027641095
 30
0.0
 10
94.56339244597721
 20
-141.5803330809244
 30
0.0
 10
94.50000268904861
 20
-141.6816188881907
 30
0.0
 10
94.38975963352063
 20
-141.8552517006473
 30
0.0
 10
94.25884600508112
 20
-141.8762667831073
 30
0.0
 10
94.15067000684428
 20
-141.8952148082762
 30
0.0
 10
94.15067000684428
 20
-141.8952148082762
 30
0.0
 10
94.15067000684428
 20
-141.6733506590261
 30
0.0
 10
94.15067000684428
 20
-141.6733506590261
 30
0.0
 10
94.34979652589172
 20
-141.6182291312621
 30
0.0
 10
94.37942434706487
 20
-141.4914496174049
 30
0.0
 10
94.37942434706487
 20
-141.3980875297547
 30
0.0
 10
94.37942434706487
 20
-141.258561162602
 30
0.0
 10
94.27986108754115
 20
-141.106287942154
 30
0.0
 10
94.04731714228679
 20
-141.106287942154
 30
0.0
 10
93.79134654773273
 20
-141.106287942154
 30
0.0
 10
93.72141110938215
 20
-141.286121926484
 30
0.0
 10
93.72141110938215
 20
-141.4067002684678
 30
0.0
 10
93.72141110938215
 20
-141.4383951469321
 30
0.0
 10
93.72141110938215
 20
-141.5803330809244
 30
0.0
 10
93.85025768053049
 20
-141.6688720348953
 30
0.0
 10
93.85025768053049
 20
-141.6688720348953
 30
0.0
 10
93.83130965536162
 20
-141.844571904643
 30
0.0
 10
93.83130965536162
 20
-141.844571904643
 30
0.0
 10
93.83130965536162
 20
-141.844571904643
 30
0.0
 10
92.98519420418427
 20
-141.7239935626593
 30
0.0
 10
92.98519420418427
 20
-141.7239935626593
 30
0.0
 10
92.98519420418427
 20
-141.7239935626593
 30
0.0
 10
92.98519420418427
 20
-140.9454019829928
 30
0.0
 10
92.98519420418427
 20
-140.9454019829928
 30
0.0
 10
92.98519420418427
 20
-140.9454019829928
 30
0.0
 10
93.17984209910088
 20
-140.9454019829928
 30
0.0
 10
93.17984209910088
 20
-140.9454019829928
 30
0.0
 10
93.17984209910088
 20
-140.9454019829928
 30
0.0
 10
93.17984209910088
 20
-141.561040546207
 30
0.0
 10
93.17984209910088
 20
-141.561040546207
 30
0.0
 10
93.17984209910088
 20
-141.561040546207
 30
0.0
 10
93.60289982468956
 20
-141.6268418699752
 30
0.0
 10
93.60289982468956
 20
-141.6268418699752
 30
0.0
 10
93.56913788893411
 20
-141.5655191703378
 30
0.0
 10
93.52883027175669
 20
-141.4828368786918
 30
0.0
 10
93.52883027175669
 20
-141.3643255939992
 30
0.0
 10
93.52883027175669
 20
-141.1104220567363
 30
0.0
 10
93.71486542796018
 20
-140.8737439968996
 30
0.0
 10
94.02802460756939
 20
-140.8737439968996
 30
0.0
 10
94.3453179017609
 20
-140.8737439968996
 30
0.0
 10
94.58027341385494
 20
-141.0976752034409
 30
0.0
 10
94.58027341385494
 20
-141.4004990965943
 30
0.0
  0
HATCH
  5
DC
330
CB
100
AcDbEntity
  8
_U+30EC_U+30A4_U+30E4_U+30FC 1
 62
   179
420
  2234388
100
AcDbHatch
 10
0.0
 20
0.0
 30
0.0
210
0.0
220
0.0
230
1.0
  2
SOLID
 70
     1
 71
     0
 91
        1
 92
        1
 93
        1
 72
     4
 94
        3
 73
     0
 74
     1
 95
       53
 96
       49
 40
0.0
 40
0.0
 40
0.0
 40
0.0
 40
1.0
 40
1.0
 40
1.0
 40
2.0
 40
2.0
 40
2.0
 40
3.0
 40
3.0
 40
3.0
 40
4.0
 40
4.0
 40
4.0
 40
5.0
 40
5.0
 40
5.0
 40
6.0
 40
6.0
 40
6.0
 40
7.0
 40
7.0
 40
7.0
 40
8.0
 40
8.0
 40
8.0
 40
9.0
 40
9.0
 40
9.0
 40
10.0
 40
10.0
 40
10.0
 40
11.0
 40
11.0
 40
11.0
 40
12.0
 40
12.0
 40
12.0
 40
13.0
 40
13.0
 40
13.0
 40
14.0
 40
14.0
 40
14.0
 40
15.0
 40
15.0
 40
15.0
 40
16.0
 40
16.0
 40
16.0
 40
16.0
 10
94.58027341385494
 20
-141.4004990965943
 10
94.58027341385494
 20
-141.4787027641095
 10
94.56339244597721
 20
-141.5803330809244
 10
94.50000268904861
 20
-141.6816188881907
 10
94.38975963352063
 20
-141.8552517006473
 10
94.25884600508112
 20
-141.8762667831073
 10
94.15067000684428
 20
-141.8952148082762
 10
94.15067000684428
 20
-141.8952148082762
 10
94.15067000684428
 20
-141.6733506590261
 10
94.15067000684428
 20
-141.6733506590261
 10
94.34979652589172
 20
-141.6182291312621
 10
94.37942434706487
 20
-141.4914496174049
 10
94.37942434706487
 20
-141.3980875297547
 10
94.37942434706487
 20
-141.258561162602
 10
94.27986108754115
 20
-141.106287942154
 10
94.04731714228679
 20
-141.106287942154
 10
93.79134654773273
 20
-141.106287942154
 10
93.72141110938215
 20
-141.286121926484
 10
93.72141110938215
 20
-141.4067002684678
 10
93.72141110938215
 20
-141.4383951469321
 10
93.72141110938215
 20
-141.5803330809244
 10
93.85025768053049
 20
-141.6688720348953
 10
93.85025768053049
 20
-141.6688720348953
 10
93.83130965536162
 20
-141.844571904643
 10
93.83130965536162
 20
-141.844571904643
 10
93.83130965536162
 20
-141.844571904643
 10
92.98519420418427
 20
-141.7239935626593
 10
92.98519420418427
 20
-141.7239935626593
 10
92.98519420418427
 20
-141.7239935626593
 10
92.98519420418427
 20
-140.9454019829928
 10
92.98519420418427
 20
-140.9454019829928
 10
92.98519420418427
 20
-140.9454019829928
 10
93.17984209910088
 20
-140.9454019829928
 10
93.17984209910088
 20
-140.9454019829928
 10
93.17984209910088
 20
-140.9454019829928
 10
93.17984209910088
 20
-141.561040546207
 10
93.17984209910088
 20
-141.561040546207
 10
93.17984209910088
 20
-141.561040546207
 10
93.60289982468956
 20
-141.6268418699752
 10
93.60289982468956
 20
-141.6268418699752
 10
93.56913788893411
 20
-141.5655191703378
 10
93.52883027175669
 20
-141.4828368786918
 10
93.52883027175669
 20
-141.3643255939992
 10
93.52883027175669
 20
-141.1104220567363
 10
93.71486542796018
 20
-140.8737439968996
 10
94.02802460756939
 20
-140.8737439968996
 10
94.3453179017609
 20
-140.8737439968996
 10
94.58027341385494
 20
-141.0976752034409
 10
94.58027341385494
 20
-141.4004990965943
 97
        0
 97
        0
 75
     2
 76
     1
 98
        0
  0
ENDBLK
  5
CE
330
CB
100
AcDbEntity
  8
0
100
AcDbBlockEnd
  0
BLOCK
  5
EE
330
EC
100
AcDbEntity
  8
0
100
AcDbBlockBegin
  2
block 3
 70
     0
 10
0.0
 20
0.0
 30
0.0
  3
block 3
  1

  0
POLYLINE
  5
F0
330
EC
100
AcDbEntity
  8
_U+30EC_U+30A4_U+30E4_U+30FC 1
370
     0
100
AcDb2dPolyline
 66
     1
 10
0.0
 20
0.0
 30
0.0
  0
VERTEX
  5
F1
330
F0
100
AcDbEntity
  8
_U+30EC_U+30A4_U+30E4_U+30FC 1
370
     0
100
AcDbVertex
100
AcDb2dVertex
 10
98.18280976278069
 20
-124.2499524971493
 30
0.0
  0
VERTEX
  5
F2
330
F0
100
AcDbEntity
  8
_U+30EC_U+30A4_U+30E4_U+30FC 1
370
     0
100
AcDbVertex
100
AcDb2dVertex
 10
98.52973087814534
 20
-124.2499524971493
 30
0.0
  0
VERTEX
  5
F3
330
F0
100
AcDbEntity
  8
_U+30EC_U+30A4_U+30E4_U+30FC 1
370
     0
100
AcDbVertex
100
AcDb2dVertex
 10
98.52973087814534
 20
-124.4678547865914
 30
0.0
  0
VERTEX
  5
F4
330
F0
100
AcDbEntity
  8
_U+30EC_U+30A4_U+30E4_U+30FC 1
370
     0
100
AcDbVertex
100
AcDb2dVertex
 10
98.18280976278069
 20
-124.4678547865914
 30
0.0
  0
VERTEX
  5
F5
330
F0
100
AcDbEntity
  8
_U+30EC_U+30A4_U+30E4_U+30FC 1
370
     0
100
AcDbVertex
100
AcDb2dVertex
 10
98.18280976278069
 20
-125.1238009669829
 30
0.0
  0
VERTEX
  5
F6
330
F0
100
AcDbEntity
  8
_U+30EC_U+30A4_U+30E4_U+30FC 1
370
     0
100
AcDbVertex
100
AcDb2dVertex
 10
97.95853404669093
 20
-125.1238009669829
 30
0.0
  0
VERTEX
  5
F7
330
F0
100
AcDbEntity
  8
_U+30EC_U+30A4_U+30E4_U+30FC 1
370
     0
100
AcDbVertex
100
AcDb2dVertex
 10
96.98529457210785
 20
-124.4446003920659
 30
0.0
  0
VERTEX
  5
F8
330
F0
100
AcDbEntity
  8
_U+30EC_U+30A4_U+30E4_U+30FC 1
370
     0
100
AcDbVertex
100
AcDb2dVertex
 10
96.98529457210785
 20
-124.2499524971493
 30
0.0
  0
VERTEX
  5
F9
330
F0
100
AcDbEntity
  8
_U+30EC_U+30A4_U+30E4_U+30FC 1
370
     0
100
AcDbVertex
100
AcDb2dVertex
 10
97.98368324373325
 20
-124.2499524971493
 30
0.0
  0
VERTEX
  5
FA
330
F0
100
AcDbEntity
  8
_U+30EC_U+30A4_U+30E4_U+30FC 1
370
     0
100
AcDbVertex
100
AcDb2dVertex
 10
97.98368324373325
 20
-124.0427300037115
 30
0.0
  0
VERTEX
  5
FB
330
F0
100
AcDbEntity
  8
_U+30EC_U+30A4_U+30E4_U+30FC 1
370
     0
100
AcDbVertex
100
AcDb2dVertex
 10
98.18280976278069
 20
-124.0427300037115
 30
0.0
  0
VERTEX
  5
FC
330
F0
100
AcDbEntity
  8
_U+30EC_U+30A4_U+30E4_U+30FC 1
370
     0
100
AcDbVertex
100
AcDb2dVertex
 10
98.18280976278069
 20
-124.2499524971493
 30
0.0
  0
SEQEND
  5
FD
330
F0
100
AcDbEntity
  8
_U+30EC_U+30A4_U+30E4_U+30FC 1
370
     0
  0
POLYLINE
  5
FE
330
EC
100
AcDbEntity
  8
_U+30EC_U+30A4_U+30E4_U+30FC 1
370
     0
100
AcDb2dPolyline
 66
     1
 10
0.0
 20
0.0
 30
0.0
  0
VERTEX
  5
FF
330
FE
100
AcDbEntity
  8
_U+30EC_U+30A4_U+30E4_U+30FC 1
370
     0
100
AcDbVertex
100
AcDb2dVertex
 10
97.32808157289021
 20
-124.4678547865914
 30
0.0
  0
VERTEX
  5
100
330
FE
100
AcDbEntity
  8
_U+30EC_U+30A4_U+30E4_U+30FC 1
370
     0
100
AcDbVertex
100
AcDb2dVertex
 10
97.98368324373325
 20
-124.9248467027098
 30
0.0
  0
VERTEX
  5
101
330
FE
100
AcDbEntity
  8
_U+30EC_U+30A4_U+30E4_U+30FC 1
370
     0
100
AcDbVertex
100
AcDb2dVertex
 10
97.98368324373325
 20
-124.4678547865914
 30
0.0
  0
VERTEX
  5
102
330
FE
100
AcDbEntity
  8
_U+30EC_U+30A4_U+30E4_U+30FC 1
370
     0
100
AcDbVertex
100
AcDb2dVertex
 10
97.32808157289021
 20
-124.4678547865914
 30
0.0
  0
SEQEND
  5
103
330
FE
100
AcDbEntity
  8
_U+30EC_U+30A4_U+30E4_U+30FC 1
370
     0
  0
HATCH
  5
104
330
EC
100
AcDbEntity
  8
_U+30EC_U+30A4_U+30E4_U+30FC 1
 62
   179
420
  2234388
100
AcDbHatch
 10
0.0
 20
0.0
 30
0.0
210
0.0
220
0.0
230
1.0
  2
SOLID
 70
     1
 71
     0
 91
        2
 92
        1
 93
       11
 72
     1
 10
98.18280976278069
 20
-124.2499524971493
 11
98.52973087814534
 21
-124.2499524971493
 72
     1
 10
98.52973087814534
 20
-124.2499524971493
 11
98.52973087814534
 21
-124.4678547865914
 72
     1
 10
98.52973087814534
 20
-124.4678547865914
 11
98.18280976278069
 21
-124.4678547865914
 72
     1
 10
98.18280976278069
 20
-124.4678547865914
 11
98.18280976278069
 21
-125.1238009669829
 72
     1
 10
98.18280976278069
 20
-125.1238009669829
 11
97.95853404669093
 21
-125.1238009669829
 72
     1
 10
97.95853404669093
 20
-125.1238009669829
 11
96.98529457210785
 21
-124.4446003920659
 72
     1
 10
96.98529457210785
 20
-124.4446003920659
 11
96.98529457210785
 21
-124.2499524971493
 72
     1
 10
96.98529457210785
 20
-124.2499524971493
 11
97.98368324373325
 21
-124.2499524971493
 72
     1
 10
97.98368324373325
 20
-124.2499524971493
 11
97.98368324373325
 21
-124.0427300037115
 72
     1
 10
97.98368324373325
 20
-124.0427300037115
 11
98.18280976278069
 21
-124.0427300037115
 72
     1
 10
98.18280976278069
 20
-124.0427300037115
 11
98.18280976278069
 21
-124.2499524971493
 97
        0
 92
        1
 93
        3
 72
     1
 10
97.32808157289021
 20
-124.4678547865914
 11
97.98368324373325
 21
-124.9248467027098
 72
     1
 10
97.98368324373325
 20
-124.9248467027098
 11
97.98368324373325
 21
-124.4678547865914
 72
     1
 10
97.98368324373325
 20
-124.4678547865914
 11
97.32808157289021
 21
-124.4678547865914
 97
        0
 75
     2
 76
     1
 98
        0
  0
SPLINE
  5
105
330
EC
100
AcDbEntity
  8
_U+30EC_U+30A4_U+30E4_U+30FC 1
370
     0
100
AcDbSpline
210
0.0
220
0.0
230
1.0
 70
    11
 71
     3
 72
    53
 73
    49
 74
     0
 42
0.0000000001
 43
0.0000000001
 12
1.0
 22
0.0
 32
0.0
 13
1.0
 23
0.0
 33
0.0
 40
0.0
 40
0.0
 40
0.0
 40
0.0
 40
1.0
 40
1.0
 40
1.0
 40
2.0
 40
2.0
 40
2.0
 40
3.0
 40
3.0
 40
3.0
 40
4.0
 40
4.0
 40
4.0
 40
5.0
 40
5.0
 40
5.0
 40
6.0
 40
6.0
 40
6.0
 40
7.0
 40
7.0
 40
7.0
 40
8.0
 40
8.0
 40
8.0
 40
9.0
 40
9.0
 40
9.0
 40
10.0
 40
10.0
 40
10.0
 40
11.0
 40
11.0
 40
11.0
 40
12.0
 40
12.0
 40
12.0
 40
13.0
 40
13.0
 40
13.0
 40
14.0
 40
14.0
 40
14.0
 40
15.0
 40
15.0
 40
15.0
 40
16.0
 40
16.0
 40
16.0
 40
16.0
 10
98.58037378177852
 20
-123.4243353641092
 30
0.0
 10
98.58037378177852
 20
-123.5025390316244
 30
0.0
 10
98.5634928139008
 20
-123.6041693484392
 30
0.0
 10
98.50010305697221
 20
-123.7056274104798
 30
0.0
 10
98.3898600014442
 20
-123.8790879681622
 30
0.0
 10
98.25894637300472
 20
-123.9002753053965
 30
0.0
 10
98.15077037476787
 20
-123.9193955853396
 30
0.0
 10
98.15077037476787
 20
-123.9193955853396
 30
0.0
 10
98.15077037476787
 20
-123.697186926541
 30
0.0
 10
98.15077037476787
 20
-123.697186926541
 30
0.0
 10
98.34989689381531
 20
-123.6422376535512
 30
0.0
 10
98.37952471498846
 20
-123.5152858849198
 30
0.0
 10
98.37952471498846
 20
-123.4222683068181
 30
0.0
 10
98.37952471498846
 20
-123.2825696848912
 30
0.0
 10
98.27996145546474
 20
-123.1302964644431
 30
0.0
 10
98.04741751021037
 20
-123.1302964644431
 30
0.0
 10
97.79144691565631
 20
-123.1302964644431
 30
0.0
 10
97.72151147730574
 20
-123.3101304487732
 30
0.0
 10
97.72151147730574
 20
-123.4307087907569
 30
0.0
 10
97.72151147730574
 20
-123.4624036692212
 30
0.0
 10
97.72151147730574
 20
-123.6041693484392
 30
0.0
 10
97.85035804845408
 20
-123.6930528119587
 30
0.0
 10
97.85035804845408
 20
-123.6930528119587
 30
0.0
 10
97.8314100232852
 20
-123.8685804269322
 30
0.0
 10
97.8314100232852
 20
-123.8685804269322
 30
0.0
 10
97.8314100232852
 20
-123.8685804269322
 30
0.0
 10
96.98529457210785
 20
-123.7480020849484
 30
0.0
 10
96.98529457210785
 20
-123.7480020849484
 30
0.0
 10
96.98529457210785
 20
-123.7480020849484
 30
0.0
 10
96.98529457210785
 20
-122.969410505282
 30
0.0
 10
96.98529457210785
 20
-122.969410505282
 30
0.0
 10
96.98529457210785
 20
-122.969410505282
 30
0.0
 10
97.17994246702446
 20
-122.969410505282
 30
0.0
 10
97.17994246702446
 20
-122.969410505282
 30
0.0
 10
97.17994246702446
 20
-122.969410505282
 30
0.0
 10
97.17994246702446
 20
-123.5850490684961
 30
0.0
 10
97.17994246702446
 20
-123.5850490684961
 30
0.0
 10
97.17994246702446
 20
-123.5850490684961
 30
0.0
 10
97.60300019261314
 20
-123.6506781374901
 30
0.0
 10
97.60300019261314
 20
-123.6506781374901
 30
0.0
 10
97.5692382568577
 20
-123.5893554378527
 30
0.0
 10
97.52893063968027
 20
-123.5068454009809
 30
0.0
 10
97.52893063968027
 20
-123.3883341162883
 30
0.0
 10
97.52893063968027
 20
-123.1344305790254
 30
0.0
 10
97.71496579588376
 20
-122.8975802644145
 30
0.0
 10
98.02812497549297
 20
-122.8975802644145
 30
0.0
 10
98.34541826968449
 20
-122.8975802644145
 30
0.0
 10
98.58037378177852
 20
-123.1218559805043
 30
0.0
 10
98.58037378177852
 20
-123.4243353641092
 30
0.0
  0
HATCH
  5
106
330
EC
100
AcDbEntity
  8
_U+30EC_U+30A4_U+30E4_U+30FC 1
 62
   179
420
  2234388
100
AcDbHatch
 10
0.0
 20
0.0
 30
0.0
210
0.0
220
0.0
230
1.0
  2
SOLID
 70
     1
 71
     0
 91
        1
 92
        1
 93
        1
 72
     4
 94
        3
 73
     0
 74
     1
 95
       53
 96
       49
 40
0.0
 40
0.0
 40
0.0
 40
0.0
 40
1.0
 40
1.0
 40
1.0
 40
2.0
 40
2.0
 40
2.0
 40
3.0
 40
3.0
 40
3.0
 40
4.0
 40
4.0
 40
4.0
 40
5.0
 40
5.0
 40
5.0
 40
6.0
 40
6.0
 40
6.0
 40
7.0
 40
7.0
 40
7.0
 40
8.0
 40
8.0
 40
8.0
 40
9.0
 40
9.0
 40
9.0
 40
10.0
 40
10.0
 40
10.0
 40
11.0
 40
11.0
 40
11.0
 40
12.0
 40
12.0
 40
12.0
 40
13.0
 40
13.0
 40
13.0
 40
14.0
 40
14.0
 40
14.0
 40
15.0
 40
15.0
 40
15.0
 40
16.0
 40
16.0
 40
16.0
 40
16.0
 10
98.58037378177852
 20
-123.4243353641092
 10
98.58037378177852
 20
-123.5025390316244
 10
98.5634928139008
 20
-123.6041693484392
 10
98.50010305697221
 20
-123.7056274104798
 10
98.3898600014442
 20
-123.8790879681622
 10
98.25894637300472
 20
-123.9002753053965
 10
98.15077037476787
 20
-123.9193955853396
 10
98.15077037476787
 20
-123.9193955853396
 10
98.15077037476787
 20
-123.697186926541
 10
98.15077037476787
 20
-123.697186926541
 10
98.34989689381531
 20
-123.6422376535512
 10
98.37952471498846
 20
-123.5152858849198
 10
98.37952471498846
 20
-123.4222683068181
 10
98.37952471498846
 20
-123.2825696848912
 10
98.27996145546474
 20
-123.1302964644431
 10
98.04741751021037
 20
-123.1302964644431
 10
97.79144691565631
 20
-123.1302964644431
 10
97.72151147730574
 20
-123.3101304487732
 10
97.72151147730574
 20
-123.4307087907569
 10
97.72151147730574
 20
-123.4624036692212
 10
97.72151147730574
 20
-123.6041693484392
 10
97.85035804845408
 20
-123.6930528119587
 10
97.85035804845408
 20
-123.6930528119587
 10
97.8314100232852
 20
-123.8685804269322
 10
97.8314100232852
 20
-123.8685804269322
 10
97.8314100232852
 20
-123.8685804269322
 10
96.98529457210785
 20
-123.7480020849484
 10
96.98529457210785
 20
-123.7480020849484
 10
96.98529457210785
 20
-123.7480020849484
 10
96.98529457210785
 20
-122.969410505282
 10
96.98529457210785
 20
-122.969410505282
 10
96.98529457210785
 20
-122.969410505282
 10
97.17994246702446
 20
-122.969410505282
 10
97.17994246702446
 20
-122.969410505282
 10
97.17994246702446
 20
-122.969410505282
 10
97.17994246702446
 20
-123.5850490684961
 10
97.17994246702446
 20
-123.5850490684961
 10
97.17994246702446
 20
-123.5850490684961
 10
97.60300019261314
 20
-123.6506781374901
 10
97.60300019261314
 20
-123.6506781374901
 10
97.5692382568577
 20
-123.5893554378527
 10
97.52893063968027
 20
-123.5068454009809
 10
97.52893063968027
 20
-123.3883341162883
 10
97.52893063968027
 20
-123.1344305790254
 10
97.71496579588376
 20
-122.8975802644145
 10
98.02812497549297
 20
-122.8975802644145
 10
98.34541826968449
 20
-122.8975802644145
 10
98.58037378177852
 20
-123.1218559805043
 10
98.58037378177852
 20
-123.4243353641092
 97
        0
 97
        0
 75
     2
 76
     1
 98
        0
  0
ENDBLK
  5
EF
330
EC
100
AcDbEntity
  8
0
100
AcDbBlockEnd
  0
BLOCK
  5
118
330
116
100
AcDbEntity
  8
0
100
AcDbBlockBegin
  2
block 4
 70
     0
 10
0.0
 20
0.0
 30
0.0
  3
block 4
  1

  0
SPLINE
  5
11A
330
116
100
AcDbEntity
  8
_U+30EC_U+30A4_U+30E4_U+30FC 1
370
     0
100
AcDbSpline
210
0.0
220
0.0
230
1.0
 70
    11
 71
     3
 72
    26
 73
    22
 74
     0
 42
0.0000000001
 43
0.0000000001
 12
1.0
 22
0.0
 32
0.0
 13
1.0
 23
0.0
 33
0.0
 40
0.0
 40
0.0
 40
0.0
 40
0.0
 40
1.0
 40
1.0
 40
1.0
 40
2.0
 40
2.0
 40
2.0
 40
3.0
 40
3.0
 40
3.0
 40
4.0
 40
4.0
 40
4.0
 40
5.0
 40
5.0
 40
5.0
 40
6.0
 40
6.0
 40
6.0
 40
7.0
 40
7.0
 40
7.0
 40
7.0
 10
85.26456296696512
 20
-150.1210692984072
 30
0.0
 10
85.26456296696512
 20
-150.1210692984072
 30
0.0
 10
85.26456296696512
 20
-149.0165716858361
 30
0.0
 10
85.26456296696512
 20
-149.0165716858361
 30
0.0
 10
85.26456296696512
 20
-149.0165716858361
 30
0.0
 10
84.93452281947818
 20
-149.0165716858361
 30
0.0
 10
84.93452281947818
 20
-149.0165716858361
 30
0.0
 10
84.93452281947818
 20
-149.0165716858361
 30
0.0
 10
84.93452281947818
 20
-148.8684325799704
 30
0.0
 10
84.93452281947818
 20
-148.8684325799704
 30
0.0
 10
85.26663002425626
 20
-148.8536186693838
 30
0.0
 10
85.31313881330713
 20
-148.69101016248
 30
0.0
 10
85.34276663448028
 20
-148.5766329923697
 30
0.0
 10
85.34276663448028
 20
-148.5766329923697
 30
0.0
 10
85.48866642828061
 20
-148.5766329923697
 30
0.0
 10
85.48866642828061
 20
-148.5766329923697
 30
0.0
 10
85.48866642828061
 20
-148.5766329923697
 30
0.0
 10
85.48866642828061
 20
-150.1210692984072
 30
0.0
 10
85.48866642828061
 20
-150.1210692984072
 30
0.0
 10
85.48866642828061
 20
-150.1210692984072
 30
0.0
 10
85.26456296696512
 20
-150.1210692984072
 30
0.0
 10
85.26456296696512
 20
-150.1210692984072
 30
0.0
  0
HATCH
  5
11B
330
116
100
AcDbEntity
  8
_U+30EC_U+30A4_U+30E4_U+30FC 1
 62
   179
420
  2234388
100
AcDbHatch
 10
0.0
 20
0.0
 30
0.0
210
0.0
220
0.0
230
1.0
  2
SOLID
 70
     1
 71
     0
 91
        1
 92
        1
 93
        1
 72
     4
 94
        3
 73
     0
 74
     1
 95
       26
 96
       22
 40
0.0
 40
0.0
 40
0.0
 40
0.0
 40
1.0
 40
1.0
 40
1.0
 40
2.0
 40
2.0
 40
2.0
 40
3.0
 40
3.0
 40
3.0
 40
4.0
 40
4.0
 40
4.0
 40
5.0
 40
5.0
 40
5.0
 40
6.0
 40
6.0
 40
6.0
 40
7.0
 40
7.0
 40
7.0
 40
7.0
 10
85.26456296696512
 20
-150.1210692984072
 10
85.26456296696512
 20
-150.1210692984072
 10
85.26456296696512
 20
-149.0165716858361
 10
85.26456296696512
 20
-149.0165716858361
 10
85.26456296696512
 20
-149.0165716858361
 10
84.93452281947818
 20
-149.0165716858361
 10
84.93452281947818
 20
-149.0165716858361
 10
84.93452281947818
 20
-149.0165716858361
 10
84.93452281947818
 20
-148.8684325799704
 10
84.93452281947818
 20
-148.8684325799704
 10
85.26663002425626
 20
-148.8536186693838
 10
85.31313881330713
 20
-148.69101016248
 10
85.34276663448028
 20
-148.5766329923697
 10
85.34276663448028
 20
-148.5766329923697
 10
85.48866642828061
 20
-148.5766329923697
 10
85.48866642828061
 20
-148.5766329923697
 10
85.48866642828061
 20
-148.5766329923697
 10
85.48866642828061
 20
-150.1210692984072
 10
85.48866642828061
 20
-150.1210692984072
 10
85.48866642828061
 20
-150.1210692984072
 10
85.26456296696512
 20
-150.1210692984072
 10
85.26456296696512
 20
-150.1210692984072
 97
        0
 97
        0
 75
     2
 76
     1
 98
        0
  0
SPLINE
  5
11C
330
116
100
AcDbEntity
  8
_U+30EC_U+30A4_U+30E4_U+30FC 1
370
     0
100
AcDbSpline
210
0.0
220
0.0
230
1.0
 70
    11
 71
     3
 72
    29
 73
    25
 74
     0
 42
0.0000000001
 43
0.0000000001
 12
1.0
 22
0.0
 32
0.0
 13
1.0
 23
0.0
 33
0.0
 40
0.0
 40
0.0
 40
0.0
 40
0.0
 40
1.0
 40
1.0
 40
1.0
 40
2.0
 40
2.0
 40
2.0
 40
3.0
 40
3.0
 40
3.0
 40
4.0
 40
4.0
 40
4.0
 40
5.0
 40
5.0
 40
5.0
 40
6.0
 40
6.0
 40
6.0
 40
7.0
 40
7.0
 40
7.0
 40
8.0
 40
8.0
 40
8.0
 40
8.0
 10
86.88771970484058
 20
-149.9433023713684
 30
0.0
 10
86.77988821615226
 20
-150.1527641768715
 30
0.0
 10
86.60642765846993
 20
-150.1717122020404
 30
0.0
 10
86.48998343106848
 20
-150.1717122020404
 30
0.0
 10
86.32926972668157
 20
-150.1717122020404
 30
0.0
 10
86.18750404746355
 20
-150.1252034129895
 30
0.0
 10
86.09224715729638
 20
-149.9433023713684
 30
0.0
 10
85.98872203796464
 20
-149.7486544764517
 30
0.0
 10
85.9696017580215
 20
-149.5116319070665
 30
0.0
 10
85.9696017580215
 20
-149.3486788906142
 30
0.0
 10
85.9696017580215
 20
-149.2050184088793
 30
0.0
 10
85.98648272589922
 20
-148.9531819289076
 30
0.0
 10
86.09224715729638
 20
-148.7543999194086
 30
0.0
 10
86.20025090075897
 20
-148.5511392857789
 30
0.0
 10
86.36096460514587
 20
-148.5280571460277
 30
0.0
 10
86.48998343106848
 20
-148.5280571460277
 30
0.0
 10
86.64863007816423
 20
-148.5280571460277
 30
0.0
 10
86.79246281467341
 20
-148.5724988777874
 30
0.0
 10
86.88771970484058
 20
-148.7543999194086
 30
0.0
 10
86.98711070959003
 20
-148.9469807570341
 30
0.0
 10
87.01036510411546
 20
-149.1753905877061
 30
0.0
 10
87.01036510411546
 20
-149.3486788906142
 30
0.0
 10
87.01036510411546
 20
-149.5202446457797
 30
0.0
 10
86.98935002165544
 20
-149.7507215337429
 30
0.0
 10
86.88771970484058
 20
-149.9433023713684
 30
0.0
  0
SPLINE
  5
11D
330
116
100
AcDbEntity
  8
_U+30EC_U+30A4_U+30E4_U+30FC 1
370
     0
100
AcDbSpline
210
0.0
220
0.0
230
1.0
 70
    11
 71
     3
 72
    17
 73
    13
 74
     0
 42
0.0000000001
 43
0.0000000001
 12
1.0
 22
0.0
 32
0.0
 13
1.0
 23
0.0
 33
0.0
 40
0.0
 40
0.0
 40
0.0
 40
0.0
 40
1.0
 40
1.0
 40
1.0
 40
2.0
 40
2.0
 40
2.0
 40
3.0
 40
3.0
 40
3.0
 40
4.0
 40
4.0
 40
4.0
 40
4.0
 10
86.48998343106848
 20
-148.7206379836532
 30
0.0
 10
86.24038626316214
 20
-148.7206379836532
 30
0.0
 10
86.19387747411126
 20
-149.0038248325407
 30
0.0
 10
86.19387747411126
 20
-149.3486788906142
 30
0.0
 10
86.19387747411126
 20
-149.6680392420969
 30
0.0
 10
86.22987872193212
 20
-149.9770643071238
 30
0.0
 10
86.48998343106848
 20
-149.9770643071238
 30
0.0
 10
86.73751354168368
 20
-149.9770643071238
 30
0.0
 10
86.78626164279997
 20
-149.6956000059789
 30
0.0
 10
86.78626164279997
 20
-149.3486788906142
 30
0.0
 10
86.78626164279997
 20
-149.0293185391316
 30
0.0
 10
86.74819333768795
 20
-148.7206379836532
 30
0.0
 10
86.48998343106848
 20
-148.7206379836532
 30
0.0
  0
HATCH
  5
11E
330
116
100
AcDbEntity
  8
_U+30EC_U+30A4_U+30E4_U+30FC 1
 62
   179
420
  2234388
100
AcDbHatch
 10
0.0
 20
0.0
 30
0.0
210
0.0
220
0.0
230
1.0
  2
SOLID
 70
     1
 71
     0
 91
        2
 92
        1
 93
        1
 72
     4
 94
        3
 73
     0
 74
     1
 95
       29
 96
       25
 40
0.0
 40
0.0
 40
0.0
 40
0.0
 40
1.0
 40
1.0
 40
1.0
 40
2.0
 40
2.0
 40
2.0
 40
3.0
 40
3.0
 40
3.0
 40
4.0
 40
4.0
 40
4.0
 40
5.0
 40
5.0
 40
5.0
 40
6.0
 40
6.0
 40
6.0
 40
7.0
 40
7.0
 40
7.0
 40
8.0
 40
8.0
 40
8.0
 40
8.0
 10
86.88771970484058
 20
-149.9433023713684
 10
86.77988821615226
 20
-150.1527641768715
 10
86.60642765846993
 20
-150.1717122020404
 10
86.48998343106848
 20
-150.1717122020404
 10
86.32926972668157
 20
-150.1717122020404
 10
86.18750404746355
 20
-150.1252034129895
 10
86.09224715729638
 20
-149.9433023713684
 10
85.98872203796464
 20
-149.7486544764517
 10
85.9696017580215
 20
-149.5116319070665
 10
85.9696017580215
 20
-149.3486788906142
 10
85.9696017580215
 20
-149.2050184088793
 10
85.98648272589922
 20
-148.9531819289076
 10
86.09224715729638
 20
-148.7543999194086
 10
86.20025090075897
 20
-148.5511392857789
 10
86.36096460514587
 20
-148.5280571460277
 10
86.48998343106848
 20
-148.5280571460277
 10
86.64863007816423
 20
-148.5280571460277
 10
86.79246281467341
 20
-148.5724988777874
 10
86.88771970484058
 20
-148.7543999194086
 10
86.98711070959003
 20
-148.9469807570341
 10
87.01036510411546
 20
-149.1753905877061
 10
87.01036510411546
 20
-149.3486788906142
 10
87.01036510411546
 20
-149.5202446457797
 10
86.98935002165544
 20
-149.7507215337429
 10
86.88771970484058
 20
-149.9433023713684
 97
        0
 97
        0
 92
        1
 93
        1
 72
     4
 94
        3
 73
     0
 74
     1
 95
       17
 96
       13
 40
0.0
 40
0.0
 40
0.0
 40
0.0
 40
1.0
 40
1.0
 40
1.0
 40
2.0
 40
2.0
 40
2.0
 40
3.0
 40
3.0
 40
3.0
 40
4.0
 40
4.0
 40
4.0
 40
4.0
 10
86.48998343106848
 20
-148.7206379836532
 10
86.24038626316214
 20
-148.7206379836532
 10
86.19387747411126
 20
-149.0038248325407
 10
86.19387747411126
 20
-149.3486788906142
 10
86.19387747411126
 20
-149.6680392420969
 10
86.22987872193212
 20
-149.9770643071238
 10
86.48998343106848
 20
-149.9770643071238
 10
86.73751354168368
 20
-149.9770643071238
 10
86.78626164279997
 20
-149.6956000059789
 10
86.78626164279997
 20
-149.3486788906142
 10
86.78626164279997
 20
-149.0293185391316
 10
86.74819333768795
 20
-148.7206379836532
 10
86.48998343106848
 20
-148.7206379836532
 97
        0
 97
        0
 75
     2
 76
     1
 98
        0
  0
ENDBLK
  5
119
330
116
100
AcDbEntity
  8
0
100
AcDbBlockEnd
  0
BLOCK
  5
132
330
130
100
AcDbEntity
  8
0
100
AcDbBlockBegin
  2
block 5
 70
     0
 10
0.0
 20
0.0
 30
0.0
  3
block 5
  1

  0
SPLINE
  5
134
330
130
100
AcDbEntity
  8
_U+30EC_U+30A4_U+30E4_U+30FC 1
370
     0
100
AcDbSpline
210
0.0
220
0.0
230
1.0
 70
    11
 71
     3
 72
    26
 73
    22
 74
     0
 42
0.0000000001
 43
0.0000000001
 12
1.0
 22
0.0
 32
0.0
 13
1.0
 23
0.0
 33
0.0
 40
0.0
 40
0.0
 40
0.0
 40
0.0
 40
1.0
 40
1.0
 40
1.0
 40
2.0
 40
2.0
 40
2.0
 40
3.0
 40
3.0
 40
3.0
 40
4.0
 40
4.0
 40
4.0
 40
5.0
 40
5.0
 40
5.0
 40
6.0
 40
6.0
 40
6.0
 40
7.0
 40
7.0
 40
7.0
 40
7.0
 10
84.90231117669109
 20
-152.8147894583241
 30
0.0
 10
84.90231117669109
 20
-152.8147894583241
 30
0.0
 10
84.90231117669109
 20
-151.710291845753
 30
0.0
 10
84.90231117669109
 20
-151.710291845753
 30
0.0
 10
84.90231117669109
 20
-151.710291845753
 30
0.0
 10
84.57227102920416
 20
-151.710291845753
 30
0.0
 10
84.57227102920416
 20
-151.710291845753
 30
0.0
 10
84.57227102920416
 20
-151.710291845753
 30
0.0
 10
84.57227102920416
 20
-151.5621527398872
 30
0.0
 10
84.57227102920416
 20
-151.5621527398872
 30
0.0
 10
84.9045504887565
 20
-151.5473388293007
 30
0.0
 10
84.95105927780737
 20
-151.3847303223969
 30
0.0
 10
84.98068709898052
 20
-151.2703531522866
 30
0.0
 10
84.98068709898052
 20
-151.2703531522866
 30
0.0
 10
85.12658689278086
 20
-151.2703531522866
 30
0.0
 10
85.12658689278086
 20
-151.2703531522866
 30
0.0
 10
85.12658689278086
 20
-151.2703531522866
 30
0.0
 10
85.12658689278086
 20
-152.8147894583241
 30
0.0
 10
85.12658689278086
 20
-152.8147894583241
 30
0.0
 10
85.12658689278086
 20
-152.8147894583241
 30
0.0
 10
84.90231117669109
 20
-152.8147894583241
 30
0.0
 10
84.90231117669109
 20
-152.8147894583241
 30
0.0
  0
HATCH
  5
135
330
130
100
AcDbEntity
  8
_U+30EC_U+30A4_U+30E4_U+30FC 1
 62
   179
420
  2234388
100
AcDbHatch
 10
0.0
 20
0.0
 30
0.0
210
0.0
220
0.0
230
1.0
  2
SOLID
 70
     1
 71
     0
 91
        1
 92
        1
 93
        1
 72
     4
 94
        3
 73
     0
 74
     1
 95
       26
 96
       22
 40
0.0
 40
0.0
 40
0.0
 40
0.0
 40
1.0
 40
1.0
 40
1.0
 40
2.0
 40
2.0
 40
2.0
 40
3.0
 40
3.0
 40
3.0
 40
4.0
 40
4.0
 40
4.0
 40
5.0
 40
5.0
 40
5.0
 40
6.0
 40
6.0
 40
6.0
 40
7.0
 40
7.0
 40
7.0
 40
7.0
 10
84.90231117669109
 20
-152.8147894583241
 10
84.90231117669109
 20
-152.8147894583241
 10
84.90231117669109
 20
-151.710291845753
 10
84.90231117669109
 20
-151.710291845753
 10
84.90231117669109
 20
-151.710291845753
 10
84.57227102920416
 20
-151.710291845753
 10
84.57227102920416
 20
-151.710291845753
 10
84.57227102920416
 20
-151.710291845753
 10
84.57227102920416
 20
-151.5621527398872
 10
84.57227102920416
 20
-151.5621527398872
 10
84.9045504887565
 20
-151.5473388293007
 10
84.95105927780737
 20
-151.3847303223969
 10
84.98068709898052
 20
-151.2703531522866
 10
84.98068709898052
 20
-151.2703531522866
 10
85.12658689278086
 20
-151.2703531522866
 10
85.12658689278086
 20
-151.2703531522866
 10
85.12658689278086
 20
-151.2703531522866
 10
85.12658689278086
 20
-152.8147894583241
 10
85.12658689278086
 20
-152.8147894583241
 10
85.12658689278086
 20
-152.8147894583241
 10
84.90231117669109
 20
-152.8147894583241
 10
84.90231117669109
 20
-152.8147894583241
 97
        0
 97
        0
 75
     2
 76
     1
 98
        0
  0
SPLINE
  5
136
330
130
100
AcDbEntity
  8
_U+30EC_U+30A4_U+30E4_U+30FC 1
370
     0
100
AcDbSpline
210
0.0
220
0.0
230
1.0
 70
    11
 71
     3
 72
    26
 73
    22
 74
     0
 42
0.0000000001
 43
0.0000000001
 12
1.0
 22
0.0
 32
0.0
 13
1.0
 23
0.0
 33
0.0
 40
0.0
 40
0.0
 40
0.0
 40
0.0
 40
1.0
 40
1.0
 40
1.0
 40
2.0
 40
2.0
 40
2.0
 40
3.0
 40
3.0
 40
3.0
 40
4.0
 40
4.0
 40
4.0
 40
5.0
 40
5.0
 40
5.0
 40
6.0
 40
6.0
 40
6.0
 40
7.0
 40
7.0
 40
7.0
 40
7.0
 10
86.07915579445243
 20
-152.8147894583241
 30
0.0
 10
86.07915579445243
 20
-152.8147894583241
 30
0.0
 10
86.07915579445243
 20
-151.710291845753
 30
0.0
 10
86.07915579445243
 20
-151.710291845753
 30
0.0
 10
86.07915579445243
 20
-151.710291845753
 30
0.0
 10
85.74928790173976
 20
-151.710291845753
 30
0.0
 10
85.74928790173976
 20
-151.710291845753
 30
0.0
 10
85.74928790173976
 20
-151.710291845753
 30
0.0
 10
85.74928790173976
 20
-151.5621527398872
 30
0.0
 10
85.74928790173976
 20
-151.5621527398872
 30
0.0
 10
86.08139510651785
 20
-151.5473388293007
 30
0.0
 10
86.12790389556872
 20
-151.3847303223969
 30
0.0
 10
86.15753171674187
 20
-151.2703531522866
 30
0.0
 10
86.15753171674187
 20
-151.2703531522866
 30
0.0
 10
86.3034315105422
 20
-151.2703531522866
 30
0.0
 10
86.3034315105422
 20
-151.2703531522866
 30
0.0
 10
86.3034315105422
 20
-151.2703531522866
 30
0.0
 10
86.3034315105422
 20
-152.8147894583241
 30
0.0
 10
86.3034315105422
 20
-152.8147894583241
 30
0.0
 10
86.3034315105422
 20
-152.8147894583241
 30
0.0
 10
86.07915579445243
 20
-152.8147894583241
 30
0.0
 10
86.07915579445243
 20
-152.8147894583241
 30
0.0
  0
HATCH
  5
137
330
130
100
AcDbEntity
  8
_U+30EC_U+30A4_U+30E4_U+30FC 1
 62
   179
420
  2234388
100
AcDbHatch
 10
0.0
 20
0.0
 30
0.0
210
0.0
220
0.0
230
1.0
  2
SOLID
 70
     1
 71
     0
 91
        1
 92
        1
 93
        1
 72
     4
 94
        3
 73
     0
 74
     1
 95
       26
 96
       22
 40
0.0
 40
0.0
 40
0.0
 40
0.0
 40
1.0
 40
1.0
 40
1.0
 40
2.0
 40
2.0
 40
2.0
 40
3.0
 40
3.0
 40
3.0
 40
4.0
 40
4.0
 40
4.0
 40
5.0
 40
5.0
 40
5.0
 40
6.0
 40
6.0
 40
6.0
 40
7.0
 40
7.0
 40
7.0
 40
7.0
 10
86.07915579445243
 20
-152.8147894583241
 10
86.07915579445243
 20
-152.8147894583241
 10
86.07915579445243
 20
-151.710291845753
 10
86.07915579445243
 20
-151.710291845753
 10
86.07915579445243
 20
-151.710291845753
 10
85.74928790173976
 20
-151.710291845753
 10
85.74928790173976
 20
-151.710291845753
 10
85.74928790173976
 20
-151.710291845753
 10
85.74928790173976
 20
-151.5621527398872
 10
85.74928790173976
 20
-151.5621527398872
 10
86.08139510651785
 20
-151.5473388293007
 10
86.12790389556872
 20
-151.3847303223969
 10
86.15753171674187
 20
-151.2703531522866
 10
86.15753171674187
 20
-151.2703531522866
 10
86.3034315105422
 20
-151.2703531522866
 10
86.3034315105422
 20
-151.2703531522866
 10
86.3034315105422
 20
-151.2703531522866
 10
86.3034315105422
 20
-152.8147894583241
 10
86.3034315105422
 20
-152.8147894583241
 10
86.3034315105422
 20
-152.8147894583241
 10
86.07915579445243
 20
-152.8147894583241
 10
86.07915579445243
 20
-152.8147894583241
 97
        0
 97
        0
 75
     2
 76
     1
 98
        0
  0
POLYLINE
  5
138
330
130
100
AcDbEntity
  8
_U+30EC_U+30A4_U+30E4_U+30FC 1
370
     0
100
AcDb2dPolyline
 66
     1
 10
0.0
 20
0.0
 30
0.0
  0
VERTEX
  5
139
330
138
100
AcDbEntity
  8
_U+30EC_U+30A4_U+30E4_U+30FC 1
370
     0
100
AcDbVertex
100
AcDb2dVertex
 10
86.86480981986367
 20
-152.8147894583241
 30
0.0
  0
VERTEX
  5
13A
330
138
100
AcDbEntity
  8
_U+30EC_U+30A4_U+30E4_U+30FC 1
370
     0
100
AcDbVertex
100
AcDb2dVertex
 10
86.86480981986367
 20
-152.5629529783523
 30
0.0
  0
VERTEX
  5
13B
330
138
100
AcDbEntity
  8
_U+30EC_U+30A4_U+30E4_U+30FC 1
370
     0
100
AcDbVertex
100
AcDb2dVertex
 10
87.11647404506117
 20
-152.5629529783523
 30
0.0
  0
VERTEX
  5
13C
330
138
100
AcDbEntity
  8
_U+30EC_U+30A4_U+30E4_U+30FC 1
370
     0
100
AcDbVertex
100
AcDb2dVertex
 10
87.11647404506117
 20
-152.8147894583241
 30
0.0
  0
VERTEX
  5
13D
330
138
100
AcDbEntity
  8
_U+30EC_U+30A4_U+30E4_U+30FC 1
370
     0
100
AcDbVertex
100
AcDb2dVertex
 10
86.86480981986367
 20
-152.8147894583241
 30
0.0
  0
SEQEND
  5
13E
330
138
100
AcDbEntity
  8
_U+30EC_U+30A4_U+30E4_U+30FC 1
370
     0
  0
HATCH
  5
13F
330
130
100
AcDbEntity
  8
_U+30EC_U+30A4_U+30E4_U+30FC 1
 62
   179
420
  2234388
100
AcDbHatch
 10
0.0
 20
0.0
 30
0.0
210
0.0
220
0.0
230
1.0
  2
SOLID
 70
     1
 71
     0
 91
        1
 92
        1
 93
        4
 72
     1
 10
86.86480981986367
 20
-152.8147894583241
 11
86.86480981986367
 21
-152.5629529783523
 72
     1
 10
86.86480981986367
 20
-152.5629529783523
 11
87.11647404506117
 21
-152.5629529783523
 72
     1
 10
87.11647404506117
 20
-152.5629529783523
 11
87.11647404506117
 21
-152.8147894583241
 72
     1
 10
87.11647404506117
 20
-152.8147894583241
 11
86.86480981986367
 21
-152.8147894583241
 97
        0
 75
     2
 76
     1
 98
        0
  0
SPLINE
  5
140
330
130
100
AcDbEntity
  8
_U+30EC_U+30A4_U+30E4_U+30FC 1
370
     0
100
AcDbSpline
210
0.0
220
0.0
230
1.0
 70
    11
 71
     3
 72
    53
 73
    49
 74
     0
 42
0.0000000001
 43
0.0000000001
 12
1.0
 22
0.0
 32
0.0
 13
1.0
 23
0.0
 33
0.0
 40
0.0
 40
0.0
 40
0.0
 40
0.0
 40
1.0
 40
1.0
 40
1.0
 40
2.0
 40
2.0
 40
2.0
 40
3.0
 40
3.0
 40
3.0
 40
4.0
 40
4.0
 40
4.0
 40
5.0
 40
5.0
 40
5.0
 40
6.0
 40
6.0
 40
6.0
 40
7.0
 40
7.0
 40
7.0
 40
8.0
 40
8.0
 40
8.0
 40
9.0
 40
9.0
 40
9.0
 40
10.0
 40
10.0
 40
10.0
 40
11.0
 40
11.0
 40
11.0
 40
12.0
 40
12.0
 40
12.0
 40
13.0
 40
13.0
 40
13.0
 40
14.0
 40
14.0
 40
14.0
 40
15.0
 40
15.0
 40
15.0
 40
16.0
 40
16.0
 40
16.0
 40
16.0
 10
87.83391517986445
 20
-152.8654323619573
 30
0.0
 10
87.75571151234927
 20
-152.8654323619573
 30
0.0
 10
87.6540811955344
 20
-152.8485513940795
 30
0.0
 10
87.5526231334938
 20
-152.7851616371509
 30
0.0
 10
87.37899032103721
 20
-152.6749185816229
 30
0.0
 10
87.35797523857718
 20
-152.5440049531834
 30
0.0
 10
87.33885495863404
 20
-152.4358289549466
 30
0.0
 10
87.33885495863404
 20
-152.4358289549466
 30
0.0
 10
87.56106361743265
 20
-152.4358289549466
 30
0.0
 10
87.56106361743265
 20
-152.4358289549466
 30
0.0
 10
87.6160128904224
 20
-152.634955473994
 30
0.0
 10
87.74296465905384
 20
-152.6645832951672
 30
0.0
 10
87.83598223715559
 20
-152.6645832951672
 30
0.0
 10
87.97568085908247
 20
-152.6645832951672
 30
0.0
 10
88.12795407953051
 20
-152.5650200356435
 30
0.0
 10
88.12795407953051
 20
-152.3324760903891
 30
0.0
 10
88.12795407953051
 20
-152.0765054958351
 30
0.0
 10
87.94812009520048
 20
-152.0065700574845
 30
0.0
 10
87.82754175321674
 20
-152.0065700574845
 30
0.0
 10
87.79584687475243
 20
-152.0065700574845
 30
0.0
 10
87.6540811955344
 20
-152.0065700574845
 30
0.0
 10
87.56519773201495
 20
-152.1354166286328
 30
0.0
 10
87.56519773201495
 20
-152.1354166286328
 30
0.0
 10
87.38967011704148
 20
-152.1164686034639
 30
0.0
 10
87.38967011704148
 20
-152.1164686034639
 30
0.0
 10
87.38967011704148
 20
-152.1164686034639
 30
0.0
 10
87.51024845902522
 20
-151.2703531522866
 30
0.0
 10
87.51024845902522
 20
-151.2703531522866
 30
0.0
 10
87.51024845902522
 20
-151.2703531522866
 30
0.0
 10
88.28866778391742
 20
-151.2703531522866
 30
0.0
 10
88.28866778391742
 20
-151.2703531522866
 30
0.0
 10
88.28866778391742
 20
-151.2703531522866
 30
0.0
 10
88.28866778391742
 20
-151.4650010472032
 30
0.0
 10
88.28866778391742
 20
-151.4650010472032
 30
0.0
 10
88.28866778391742
 20
-151.4650010472032
 30
0.0
 10
87.67320147547754
 20
-151.4650010472032
 30
0.0
 10
87.67320147547754
 20
-151.4650010472032
 30
0.0
 10
87.67320147547754
 20
-151.4650010472032
 30
0.0
 10
87.60757240648353
 20
-151.8880587727919
 30
0.0
 10
87.60757240648353
 20
-151.8880587727919
 30
0.0
 10
87.66889510612097
 20
-151.8542968370364
 30
0.0
 10
87.75140514299271
 20
-151.813989219859
 30
0.0
 10
87.8699164276853
 20
-151.813989219859
 30
0.0
 10
88.12364771017396
 20
-151.813989219859
 30
0.0
 10
88.36067027955914
 20
-152.0000243760625
 30
0.0
 10
88.36067027955914
 20
-152.3131835556717
 30
0.0
 10
88.36067027955914
 20
-152.6304768498632
 30
0.0
 10
88.13639456346938
 20
-152.8654323619573
 30
0.0
 10
87.83391517986445
 20
-152.8654323619573
 30
0.0
  0
HATCH
  5
141
330
130
100
AcDbEntity
  8
_U+30EC_U+30A4_U+30E4_U+30FC 1
 62
   179
420
  2234388
100
AcDbHatch
 10
0.0
 20
0.0
 30
0.0
210
0.0
220
0.0
230
1.0
  2
SOLID
 70
     1
 71
     0
 91
        1
 92
        1
 93
        1
 72
     4
 94
        3
 73
     0
 74
     1
 95
       53
 96
       49
 40
0.0
 40
0.0
 40
0.0
 40
0.0
 40
1.0
 40
1.0
 40
1.0
 40
2.0
 40
2.0
 40
2.0
 40
3.0
 40
3.0
 40
3.0
 40
4.0
 40
4.0
 40
4.0
 40
5.0
 40
5.0
 40
5.0
 40
6.0
 40
6.0
 40
6.0
 40
7.0
 40
7.0
 40
7.0
 40
8.0
 40
8.0
 40
8.0
 40
9.0
 40
9.0
 40
9.0
 40
10.0
 40
10.0
 40
10.0
 40
11.0
 40
11.0
 40
11.0
 40
12.0
 40
12.0
 40
12.0
 40
13.0
 40
13.0
 40
13.0
 40
14.0
 40
14.0
 40
14.0
 40
15.0
 40
15.0
 40
15.0
 40
16.0
 40
16.0
 40
16.0
 40
16.0
 10
87.83391517986445
 20
-152.8654323619573
 10
87.75571151234927
 20
-152.8654323619573
 10
87.6540811955344
 20
-152.8485513940795
 10
87.5526231334938
 20
-152.7851616371509
 10
87.37899032103721
 20
-152.6749185816229
 10
87.35797523857718
 20
-152.5440049531834
 10
87.33885495863404
 20
-152.4358289549466
 10
87.33885495863404
 20
-152.4358289549466
 10
87.56106361743265
 20
-152.4358289549466
 10
87.56106361743265
 20
-152.4358289549466
 10
87.6160128904224
 20
-152.634955473994
 10
87.74296465905384
 20
-152.6645832951672
 10
87.83598223715559
 20
-152.6645832951672
 10
87.97568085908247
 20
-152.6645832951672
 10
88.12795407953051
 20
-152.5650200356435
 10
88.12795407953051
 20
-152.3324760903891
 10
88.12795407953051
 20
-152.0765054958351
 10
87.94812009520048
 20
-152.0065700574845
 10
87.82754175321674
 20
-152.0065700574845
 10
87.79584687475243
 20
-152.0065700574845
 10
87.6540811955344
 20
-152.0065700574845
 10
87.56519773201495
 20
-152.1354166286328
 10
87.56519773201495
 20
-152.1354166286328
 10
87.38967011704148
 20
-152.1164686034639
 10
87.38967011704148
 20
-152.1164686034639
 10
87.38967011704148
 20
-152.1164686034639
 10
87.51024845902522
 20
-151.2703531522866
 10
87.51024845902522
 20
-151.2703531522866
 10
87.51024845902522
 20
-151.2703531522866
 10
88.28866778391742
 20
-151.2703531522866
 10
88.28866778391742
 20
-151.2703531522866
 10
88.28866778391742
 20
-151.2703531522866
 10
88.28866778391742
 20
-151.4650010472032
 10
88.28866778391742
 20
-151.4650010472032
 10
88.28866778391742
 20
-151.4650010472032
 10
87.67320147547754
 20
-151.4650010472032
 10
87.67320147547754
 20
-151.4650010472032
 10
87.67320147547754
 20
-151.4650010472032
 10
87.60757240648353
 20
-151.8880587727919
 10
87.60757240648353
 20
-151.8880587727919
 10
87.66889510612097
 20
-151.8542968370364
 10
87.75140514299271
 20
-151.813989219859
 10
87.8699164276853
 20
-151.813989219859
 10
88.12364771017396
 20
-151.813989219859
 10
88.36067027955914
 20
-152.0000243760625
 10
88.36067027955914
 20
-152.3131835556717
 10
88.36067027955914
 20
-152.6304768498632
 10
88.13639456346938
 20
-152.8654323619573
 10
87.83391517986445
 20
-152.8654323619573
 97
        0
 97
        0
 75
     2
 76
     1
 98
        0
  0
ENDBLK
  5
133
330
130
100
AcDbEntity
  8
0
100
AcDbBlockEnd
  0
ENDSEC
  0
SECTION
  2
ENTITIES
  0
POLYLINE
  5
41
330
1F
100
AcDbEntity
  8
_U+30EC_U+30A4_U+30E4_U+30FC 1
 62
   179
420
  2234388
370
    25
100
AcDb2dPolyline
 66
     1
 10
0.0
 20
0.0
 30
0.0
  0
VERTEX
  5
42
330
41
100
AcDbEntity
  8
_U+30EC_U+30A4_U+30E4_U+30FC 1
 62
   179
420
  2234388
370
    25
100
AcDbVertex
100
AcDb2dVertex
 10
80.9020318249061
 20
-146.4937238522652
 30
0.0
  0
VERTEX
  5
43
330
41
100
AcDbEntity
  8
_U+30EC_U+30A4_U+30E4_U+30FC 1
 62
   179
420
  2234388
370
    25
100
AcDbVertex
100
AcDb2dVertex
 10
90.90229379200039
 20
-146.4937238522652
 30
0.0
  0
SEQEND
  5
44
330
41
100
AcDbEntity
  8
_U+30EC_U+30A4_U+30E4_U+30FC 1
 62
   179
420
  2234388
370
    25
  0
POLYLINE
  5
45
330
1F
100
AcDbEntity
  8
_U+30EC_U+30A4_U+30E4_U+30FC 1
 62
   179
420
  2234388
370
    25
100
AcDb2dPolyline
 66
     1
 10
0.0
 20
0.0
 30
0.0
  0
VERTEX
  5
46
330
45
100
AcDbEntity
  8
_U+30EC_U+30A4_U+30E4_U+30FC 1
 62
   179
420
  2234388
370
    25
100
AcDbVertex
100
AcDb2dVertex
 10
90.90229379200039
 20
-102.4936566410432
 30
0.0
  0
VERTEX
  5
47
330
45
100
AcDbEntity
  8
_U+30EC_U+30A4_U+30E4_U+30FC 1
 62
   179
420
  2234388
370
    25
100
AcDbVertex
100
AcDb2dVertex
 10
90.90229379200039
 20
-111.4936174721266
 30
0.0
  0
SEQEND
  5
48
330
45
100
AcDbEntity
  8
_U+30EC_U+30A4_U+30E4_U+30FC 1
 62
   179
420
  2234388
370
    25
  0
POLYLINE
  5
49
330
1F
100
AcDbEntity
  8
_U+30EC_U+30A4_U+30E4_U+30FC 1
 62
   179
420
  2234388
370
    25
100
AcDb2dPolyline
 66
     1
 10
0.0
 20
0.0
 30
0.0
  0
VERTEX
  5
4A
330
49
100
AcDbEntity
  8
_U+30EC_U+30A4_U+30E4_U+30FC 1
 62
   179
420
  2234388
370
    25
100
AcDbVertex
100
AcDb2dVertex
 10
89.90181603974692
 20
-134.9936621884738
 30
0.0
  0
VERTEX
  5
4B
330
49
100
AcDbEntity
  8
_U+30EC_U+30A4_U+30E4_U+30FC 1
 62
   179
420
  2234388
370
    25
100
AcDbVertex
100
AcDb2dVertex
 10
89.90181603974692
 20
-138.7663735764193
 30
0.0
  0
SEQEND
  5
4C
330
49
100
AcDbEntity
  8
_U+30EC_U+30A4_U+30E4_U+30FC 1
 62
   179
420
  2234388
370
    25
  0
POLYLINE
  5
4D
330
1F
100
AcDbEntity
  8
_U+30EC_U+30A4_U+30E4_U+30FC 1
 62
   179
420
  2234388
370
    25
100
AcDb2dPolyline
 66
     1
 10
0.0
 20
0.0
 30
0.0
  0
VERTEX
  5
4E
330
4D
100
AcDbEntity
  8
_U+30EC_U+30A4_U+30E4_U+30FC 1
 62
   179
420
  2234388
370
    25
100
AcDbVertex
100
AcDb2dVertex
 10
86.90182917183853
 20
-145.4936341302931
 30
0.0
  0
VERTEX
  5
4F
330
4D
100
AcDbEntity
  8
_U+30EC_U+30A4_U+30E4_U+30FC 1
 62
   179
420
  2234388
370
    25
100
AcDbVertex
100
AcDb2dVertex
 10
89.90181603974692
 20
-145.4936341302931
 30
0.0
  0
SEQEND
  5
50
330
4D
100
AcDbEntity
  8
_U+30EC_U+30A4_U+30E4_U+30FC 1
 62
   179
420
  2234388
370
    25
  0
POLYLINE
  5
51
330
1F
100
AcDbEntity
  8
_U+30EC_U+30A4_U+30E4_U+30FC 1
 62
   179
420
  2234388
370
    25
100
AcDb2dPolyline
 66
     1
 10
0.0
 20
0.0
 30
0.0
  0
VERTEX
  5
52
330
51
100
AcDbEntity
  8
_U+30EC_U+30A4_U+30E4_U+30FC 1
 62
   179
420
  2234388
370
    25
100
AcDbVertex
100
AcDb2dVertex
 10
90.90229379200039
 20
-137.9936491321682
 30
0.0
  0
VERTEX
  5
53
330
51
100
AcDbEntity
  8
_U+30EC_U+30A4_U+30E4_U+30FC 1
 62
   179
420
  2234388
370
    25
100
AcDbVertex
100
AcDb2dVertex
 10
89.90181603974692
 20
-138.7663735764193
 30
0.0
  0
SEQEND
  5
54
330
51
100
AcDbEntity
  8
_U+30EC_U+30A4_U+30E4_U+30FC 1
 62
   179
420
  2234388
370
    25
  0
POLYLINE
  5
55
330
1F
100
AcDbEntity
  8
_U+30EC_U+30A4_U+30E4_U+30FC 1
 62
   179
420
  2234388
370
    25
100
AcDb2dPolyline
 66
     1
 10
0.0
 20
0.0
 30
0.0
  0
VERTEX
  5
56
330
55
100
AcDbEntity
  8
_U+30EC_U+30A4_U+30E4_U+30FC 1
 62
   179
420
  2234388
370
    25
100
AcDbVertex
100
AcDb2dVertex
 10
89.90181603974692
 20
-140.2773913538192
 30
0.0
  0
VERTEX
  5
57
330
55
100
AcDbEntity
  8
_U+30EC_U+30A4_U+30E4_U+30FC 1
 62
   179
420
  2234388
370
    25
100
AcDbVertex
100
AcDb2dVertex
 10
88.9020791208079
 20
-141.0501157980709
 30
0.0
  0
SEQEND
  5
58
330
55
100
AcDbEntity
  8
_U+30EC_U+30A4_U+30E4_U+30FC 1
 62
   179
420
  2234388
370
    25
  0
POLYLINE
  5
59
330
1F
100
AcDbEntity
  8
_U+30EC_U+30A4_U+30E4_U+30FC 1
 62
   179
420
  2234388
370
    25
100
AcDb2dPolyline
 66
     1
 10
0.0
 20
0.0
 30
0.0
  0
VERTEX
  5
5A
330
59
100
AcDbEntity
  8
_U+30EC_U+30A4_U+30E4_U+30FC 1
 62
   179
420
  2234388
370
    25
100
AcDbVertex
100
AcDb2dVertex
 10
88.9020791208079
 20
-132.693692189049
 30
0.0
  0
VERTEX
  5
5B
330
59
100
AcDbEntity
  8
_U+30EC_U+30A4_U+30E4_U+30FC 1
 62
   179
420
  2234388
370
    25
100
AcDbVertex
100
AcDb2dVertex
 10
88.9020791208079
 20
-141.0501157980709
 30
0.0
  0
SEQEND
  5
5C
330
59
100
AcDbEntity
  8
_U+30EC_U+30A4_U+30E4_U+30FC 1
 62
   179
420
  2234388
370
    25
  0
POLYLINE
  5
5D
330
1F
100
AcDbEntity
  8
_U+30EC_U+30A4_U+30E4_U+30FC 1
 62
   179
420
  2234388
370
    25
100
AcDb2dPolyline
 66
     1
 10
0.0
 20
0.0
 30
0.0
  0
VERTEX
  5
5E
330
5D
100
AcDbEntity
  8
_U+30EC_U+30A4_U+30E4_U+30FC 1
 62
   179
420
  2234388
370
    25
100
AcDbVertex
100
AcDb2dVertex
 10
89.90181603974692
 20
-140.2773913538192
 30
0.0
  0
VERTEX
  5
5F
330
5D
100
AcDbEntity
  8
_U+30EC_U+30A4_U+30E4_U+30FC 1
 62
   179
420
  2234388
370
    25
100
AcDbVertex
100
AcDb2dVertex
 10
89.90181603974692
 20
-145.4936341302931
 30
0.0
  0
SEQEND
  5
60
330
5D
100
AcDbEntity
  8
_U+30EC_U+30A4_U+30E4_U+30FC 1
 62
   179
420
  2234388
370
    25
  0
POLYLINE
  5
61
330
1F
100
AcDbEntity
  8
_U+30EC_U+30A4_U+30E4_U+30FC 1
 62
   179
420
  2234388
370
    25
100
AcDb2dPolyline
 66
     1
 10
0.0
 20
0.0
 30
0.0
  0
VERTEX
  5
62
330
61
100
AcDbEntity
  8
_U+30EC_U+30A4_U+30E4_U+30FC 1
 62
   179
420
  2234388
370
    25
100
AcDbVertex
100
AcDb2dVertex
 10
90.90229379200039
 20
-137.9936491321682
 30
0.0
  0
VERTEX
  5
63
330
61
100
AcDbEntity
  8
_U+30EC_U+30A4_U+30E4_U+30FC 1
 62
   179
420
  2234388
370
    25
100
AcDbVertex
100
AcDb2dVertex
 10
90.90229379200039
 20
-146.4937238522652
 30
0.0
  0
SEQEND
  5
64
330
61
100
AcDbEntity
  8
_U+30EC_U+30A4_U+30E4_U+30FC 1
 62
   179
420
  2234388
370
    25
  0
POLYLINE
  5
65
330
1F
100
AcDbEntity
  8
_U+30EC_U+30A4_U+30E4_U+30FC 1
 62
   179
420
  2234388
370
    25
100
AcDb2dPolyline
 66
     1
 10
0.0
 20
0.0
 30
0.0
  0
VERTEX
  5
66
330
65
100
AcDbEntity
  8
_U+30EC_U+30A4_U+30E4_U+30FC 1
 62
   179
420
  2234388
370
    25
100
AcDbVertex
100
AcDb2dVertex
 10
89.90181603974692
 20
-134.9936621884738
 30
0.0
  0
VERTEX
  5
67
330
65
100
AcDbEntity
  8
_U+30EC_U+30A4_U+30E4_U+30FC 1
 62
   179
420
  2234388
370
    25
100
AcDbVertex
100
AcDb2dVertex
 10
90.90229379200039
 20
-134.9936621884738
 30
0.0
  0
SEQEND
  5
68
330
65
100
AcDbEntity
  8
_U+30EC_U+30A4_U+30E4_U+30FC 1
 62
   179
420
  2234388
370
    25
  0
POLYLINE
  5
69
330
1F
100
AcDbEntity
  8
_U+30EC_U+30A4_U+30E4_U+30FC 1
 62
   179
420
  2234388
370
    25
100
AcDb2dPolyline
 66
     1
 10
0.0
 20
0.0
 30
0.0
  0
VERTEX
  5
6A
330
69
100
AcDbEntity
  8
_U+30EC_U+30A4_U+30E4_U+30FC 1
 62
   179
420
  2234388
370
    25
100
AcDbVertex
100
AcDb2dVertex
 10
89.90181603974692
 20
-133.4664519110776
 30
0.0
  0
VERTEX
  5
6B
330
69
100
AcDbEntity
  8
_U+30EC_U+30A4_U+30E4_U+30FC 1
 62
   179
420
  2234388
370
    25
100
AcDbVertex
100
AcDb2dVertex
 10
88.9020791208079
 20
-132.693692189049
 30
0.0
  0
SEQEND
  5
6C
330
69
100
AcDbEntity
  8
_U+30EC_U+30A4_U+30E4_U+30FC 1
 62
   179
420
  2234388
370
    25
  0
POLYLINE
  5
6D
330
1F
100
AcDbEntity
  8
_U+30EC_U+30A4_U+30E4_U+30FC 1
 62
   179
420
  2234388
370
    25
100
AcDb2dPolyline
 66
     1
 10
0.0
 20
0.0
 30
0.0
  0
VERTEX
  5
6E
330
6D
100
AcDbEntity
  8
_U+30EC_U+30A4_U+30E4_U+30FC 1
 62
   179
420
  2234388
370
    25
100
AcDbVertex
100
AcDb2dVertex
 10
89.90181603974692
 20
-101.4935316412932
 30
0.0
  0
VERTEX
  5
6F
330
6D
100
AcDbEntity
  8
_U+30EC_U+30A4_U+30E4_U+30FC 1
 62
   179
420
  2234388
370
    25
100
AcDbVertex
100
AcDb2dVertex
 10
89.90181603974692
 20
-133.4664519110776
 30
0.0
  0
SEQEND
  5
70
330
6D
100
AcDbEntity
  8
_U+30EC_U+30A4_U+30E4_U+30FC 1
 62
   179
420
  2234388
370
    25
  0
POLYLINE
  5
71
330
1F
100
AcDbEntity
  8
_U+30EC_U+30A4_U+30E4_U+30FC 1
 62
   179
420
  2234388
370
    25
100
AcDb2dPolyline
 66
     1
 10
0.0
 20
0.0
 30
0.0
  0
VERTEX
  5
72
330
71
100
AcDbEntity
  8
_U+30EC_U+30A4_U+30E4_U+30FC 1
 62
   179
420
  2234388
370
    25
100
AcDbVertex
100
AcDb2dVertex
 10
91.9020659887163
 20
-135.7663866327249
 30
0.0
  0
VERTEX
  5
73
330
71
100
AcDbEntity
  8
_U+30EC_U+30A4_U+30E4_U+30FC 1
 62
   179
420
  2234388
370
    25
100
AcDbVertex
100
AcDb2dVertex
 10
90.90229379200039
 20
-134.9936621884738
 30
0.0
  0
SEQEND
  5
74
330
71
100
AcDbEntity
  8
_U+30EC_U+30A4_U+30E4_U+30FC 1
 62
   179
420
  2234388
370
    25
  0
POLYLINE
  5
75
330
1F
100
AcDbEntity
  8
_U+30EC_U+30A4_U+30E4_U+30FC 1
 62
   179
420
  2234388
370
    25
100
AcDb2dPolyline
 66
     1
 10
0.0
 20
0.0
 30
0.0
  0
VERTEX
  5
76
330
75
100
AcDbEntity
  8
_U+30EC_U+30A4_U+30E4_U+30FC 1
 62
   179
420
  2234388
370
    25
100
AcDbVertex
100
AcDb2dVertex
 10
91.9020659887163
 20
-132.693692189049
 30
0.0
  0
VERTEX
  5
77
330
75
100
AcDbEntity
  8
_U+30EC_U+30A4_U+30E4_U+30FC 1
 62
   179
420
  2234388
370
    25
100
AcDbVertex
100
AcDb2dVertex
 10
91.9020659887163
 20
-135.7663866327249
 30
0.0
  0
SEQEND
  5
78
330
75
100
AcDbEntity
  8
_U+30EC_U+30A4_U+30E4_U+30FC 1
 62
   179
420
  2234388
370
    25
  0
POLYLINE
  5
79
330
1F
100
AcDbEntity
  8
_U+30EC_U+30A4_U+30E4_U+30FC 1
 62
   179
420
  2234388
370
    25
100
AcDb2dPolyline
 66
     1
 10
0.0
 20
0.0
 30
0.0
  0
VERTEX
  5
7A
330
79
100
AcDbEntity
  8
_U+30EC_U+30A4_U+30E4_U+30FC 1
 62
   179
420
  2234388
370
    25
100
AcDbVertex
100
AcDb2dVertex
 10
90.90229379200039
 20
-133.4664519110776
 30
0.0
  0
VERTEX
  5
7B
330
79
100
AcDbEntity
  8
_U+30EC_U+30A4_U+30E4_U+30FC 1
 62
   179
420
  2234388
370
    25
100
AcDbVertex
100
AcDb2dVertex
 10
91.9020659887163
 20
-132.693692189049
 30
0.0
  0
SEQEND
  5
7C
330
79
100
AcDbEntity
  8
_U+30EC_U+30A4_U+30E4_U+30FC 1
 62
   179
420
  2234388
370
    25
  0
POLYLINE
  5
7D
330
1F
100
AcDbEntity
  8
_U+30EC_U+30A4_U+30E4_U+30FC 1
 62
   179
420
  2234388
370
    25
100
AcDb2dPolyline
 66
     1
 10
0.0
 20
0.0
 30
0.0
  0
VERTEX
  5
7E
330
7D
100
AcDbEntity
  8
_U+30EC_U+30A4_U+30E4_U+30FC 1
 62
   179
420
  2234388
370
    25
100
AcDbVertex
100
AcDb2dVertex
 10
89.90181603974692
 20
-101.4935316412932
 30
0.0
  0
VERTEX
  5
7F
330
7D
100
AcDbEntity
  8
_U+30EC_U+30A4_U+30E4_U+30FC 1
 62
   179
420
  2234388
370
    25
100
AcDbVertex
100
AcDb2dVertex
 10
93.9022806599088
 20
-101.4935316412932
 30
0.0
  0
SEQEND
  5
80
330
7D
100
AcDbEntity
  8
_U+30EC_U+30A4_U+30E4_U+30FC 1
 62
   179
420
  2234388
370
    25
  0
POLYLINE
  5
81
330
1F
100
AcDbEntity
  8
_U+30EC_U+30A4_U+30E4_U+30FC 1
 62
   179
420
  2234388
370
    25
100
AcDb2dPolyline
 66
     1
 10
0.0
 20
0.0
 30
0.0
  0
VERTEX
  5
82
330
81
100
AcDbEntity
  8
_U+30EC_U+30A4_U+30E4_U+30FC 1
 62
   179
420
  2234388
370
    25
100
AcDbVertex
100
AcDb2dVertex
 10
93.9022806599088
 20
-101.4935316412932
 30
0.0
  0
VERTEX
  5
83
330
81
100
AcDbEntity
  8
_U+30EC_U+30A4_U+30E4_U+30FC 1
 62
   179
420
  2234388
370
    25
100
AcDbVertex
100
AcDb2dVertex
 10
93.9022806599088
 20
-102.4936566410432
 30
0.0
  0
SEQEND
  5
84
330
81
100
AcDbEntity
  8
_U+30EC_U+30A4_U+30E4_U+30FC 1
 62
   179
420
  2234388
370
    25
  0
POLYLINE
  5
85
330
1F
100
AcDbEntity
  8
_U+30EC_U+30A4_U+30E4_U+30FC 1
 62
   179
420
  2234388
370
    25
100
AcDb2dPolyline
 66
     1
 10
0.0
 20
0.0
 30
0.0
  0
VERTEX
  5
86
330
85
100
AcDbEntity
  8
_U+30EC_U+30A4_U+30E4_U+30FC 1
 62
   179
420
  2234388
370
    25
100
AcDbVertex
100
AcDb2dVertex
 10
90.90229379200039
 20
-102.4936566410432
 30
0.0
  0
VERTEX
  5
87
330
85
100
AcDbEntity
  8
_U+30EC_U+30A4_U+30E4_U+30FC 1
 62
   179
420
  2234388
370
    25
100
AcDbVertex
100
AcDb2dVertex
 10
93.9022806599088
 20
-102.4936566410432
 30
0.0
  0
SEQEND
  5
88
330
85
100
AcDbEntity
  8
_U+30EC_U+30A4_U+30E4_U+30FC 1
 62
   179
420
  2234388
370
    25
  0
POLYLINE
  5
89
330
1F
100
AcDbEntity
  8
_U+30EC_U+30A4_U+30E4_U+30FC 1
 62
   179
420
  2234388
370
    25
100
AcDb2dPolyline
 66
     1
 10
0.0
 20
0.0
 30
0.0
  0
VERTEX
  5
8A
330
89
100
AcDbEntity
  8
_U+30EC_U+30A4_U+30E4_U+30FC 1
 62
   179
420
  2234388
370
    25
100
AcDbVertex
100
AcDb2dVertex
 10
90.90229379200039
 20
-111.4936174721266
 30
0.0
  0
VERTEX
  5
8B
330
89
100
AcDbEntity
  8
_U+30EC_U+30A4_U+30E4_U+30FC 1
 62
   179
420
  2234388
370
    25
100
AcDbVertex
100
AcDb2dVertex
 10
91.9020659887163
 20
-110.7208930278755
 30
0.0
  0
SEQEND
  5
8C
330
89
100
AcDbEntity
  8
_U+30EC_U+30A4_U+30E4_U+30FC 1
 62
   179
420
  2234388
370
    25
  0
POLYLINE
  5
8D
330
1F
100
AcDbEntity
  8
_U+30EC_U+30A4_U+30E4_U+30FC 1
 62
   179
420
  2234388
370
    25
100
AcDb2dPolyline
 66
     1
 10
0.0
 20
0.0
 30
0.0
  0
VERTEX
  5
8E
330
8D
100
AcDbEntity
  8
_U+30EC_U+30A4_U+30E4_U+30FC 1
 62
   179
420
  2234388
370
    25
100
AcDbVertex
100
AcDb2dVertex
 10
91.9020659887163
 20
-110.7208930278755
 30
0.0
  0
VERTEX
  5
8F
330
8D
100
AcDbEntity
  8
_U+30EC_U+30A4_U+30E4_U+30FC 1
 62
   179
420
  2234388
370
    25
100
AcDbVertex
100
AcDb2dVertex
 10
91.9020659887163
 20
-113.7208799715698
 30
0.0
  0
SEQEND
  5
90
330
8D
100
AcDbEntity
  8
_U+30EC_U+30A4_U+30E4_U+30FC 1
 62
   179
420
  2234388
370
    25
  0
POLYLINE
  5
91
330
1F
100
AcDbEntity
  8
_U+30EC_U+30A4_U+30E4_U+30FC 1
 62
   179
420
  2234388
370
    25
100
AcDb2dPolyline
 66
     1
 10
0.0
 20
0.0
 30
0.0
  0
VERTEX
  5
92
330
91
100
AcDbEntity
  8
_U+30EC_U+30A4_U+30E4_U+30FC 1
 62
   179
420
  2234388
370
    25
100
AcDbVertex
100
AcDb2dVertex
 10
90.90229379200039
 20
-122.4934755249321
 30
0.0
  0
VERTEX
  5
93
330
91
100
AcDbEntity
  8
_U+30EC_U+30A4_U+30E4_U+30FC 1
 62
   179
420
  2234388
370
    25
100
AcDbVertex
100
AcDb2dVertex
 10
91.9020659887163
 20
-121.720751080681
 30
0.0
  0
SEQEND
  5
94
330
91
100
AcDbEntity
  8
_U+30EC_U+30A4_U+30E4_U+30FC 1
 62
   179
420
  2234388
370
    25
  0
POLYLINE
  5
95
330
1F
100
AcDbEntity
  8
_U+30EC_U+30A4_U+30E4_U+30FC 1
 62
   179
420
  2234388
370
    25
100
AcDb2dPolyline
 66
     1
 10
0.0
 20
0.0
 30
0.0
  0
VERTEX
  5
96
330
95
100
AcDbEntity
  8
_U+30EC_U+30A4_U+30E4_U+30FC 1
 62
   179
420
  2234388
370
    25
100
AcDbVertex
100
AcDb2dVertex
 10
91.9020659887163
 20
-121.720751080681
 30
0.0
  0
VERTEX
  5
97
330
95
100
AcDbEntity
  8
_U+30EC_U+30A4_U+30E4_U+30FC 1
 62
   179
420
  2234388
370
    25
100
AcDbVertex
100
AcDb2dVertex
 10
91.9020659887163
 20
-124.7207380243754
 30
0.0
  0
SEQEND
  5
98
330
95
100
AcDbEntity
  8
_U+30EC_U+30A4_U+30E4_U+30FC 1
 62
   179
420
  2234388
370
    25
  0
POLYLINE
  5
99
330
1F
100
AcDbEntity
  8
_U+30EC_U+30A4_U+30E4_U+30FC 1
 62
   179
420
  2234388
370
    25
100
AcDb2dPolyline
 66
     1
 10
0.0
 20
0.0
 30
0.0
  0
VERTEX
  5
9A
330
99
100
AcDbEntity
  8
_U+30EC_U+30A4_U+30E4_U+30FC 1
 62
   179
420
  2234388
370
    25
100
AcDbVertex
100
AcDb2dVertex
 10
91.9020659887163
 20
-124.7207380243754
 30
0.0
  0
VERTEX
  5
9B
330
99
100
AcDbEntity
  8
_U+30EC_U+30A4_U+30E4_U+30FC 1
 62
   179
420
  2234388
370
    25
100
AcDbVertex
100
AcDb2dVertex
 10
90.90229379200039
 20
-123.9479783023464
 30
0.0
  0
SEQEND
  5
9C
330
99
100
AcDbEntity
  8
_U+30EC_U+30A4_U+30E4_U+30FC 1
 62
   179
420
  2234388
370
    25
  0
POLYLINE
  5
9D
330
1F
100
AcDbEntity
  8
_U+30EC_U+30A4_U+30E4_U+30FC 1
 62
   179
420
  2234388
370
    25
100
AcDb2dPolyline
 66
     1
 10
0.0
 20
0.0
 30
0.0
  0
VERTEX
  5
9E
330
9D
100
AcDbEntity
  8
_U+30EC_U+30A4_U+30E4_U+30FC 1
 62
   179
420
  2234388
370
    25
100
AcDbVertex
100
AcDb2dVertex
 10
91.9020659887163
 20
-113.7208799715698
 30
0.0
  0
VERTEX
  5
9F
330
9D
100
AcDbEntity
  8
_U+30EC_U+30A4_U+30E4_U+30FC 1
 62
   179
420
  2234388
370
    25
100
AcDbVertex
100
AcDb2dVertex
 10
90.90229379200039
 20
-112.9481555273184
 30
0.0
  0
SEQEND
  5
A0
330
9D
100
AcDbEntity
  8
_U+30EC_U+30A4_U+30E4_U+30FC 1
 62
   179
420
  2234388
370
    25
  0
POLYLINE
  5
A1
330
1F
100
AcDbEntity
  8
_U+30EC_U+30A4_U+30E4_U+30FC 1
 62
   179
420
  2234388
370
    25
100
AcDb2dPolyline
 66
     1
 10
0.0
 20
0.0
 30
0.0
  0
VERTEX
  5
A2
330
A1
100
AcDbEntity
  8
_U+30EC_U+30A4_U+30E4_U+30FC 1
 62
   179
420
  2234388
370
    25
100
AcDbVertex
100
AcDb2dVertex
 10
90.90229379200039
 20
-112.9481555273184
 30
0.0
  0
VERTEX
  5
A3
330
A1
100
AcDbEntity
  8
_U+30EC_U+30A4_U+30E4_U+30FC 1
 62
   179
420
  2234388
370
    25
100
AcDbVertex
100
AcDb2dVertex
 10
90.90229379200039
 20
-122.4934755249321
 30
0.0
  0
SEQEND
  5
A4
330
A1
100
AcDbEntity
  8
_U+30EC_U+30A4_U+30E4_U+30FC 1
 62
   179
420
  2234388
370
    25
  0
POLYLINE
  5
A5
330
1F
100
AcDbEntity
  8
_U+30EC_U+30A4_U+30E4_U+30FC 1
 62
   179
420
  2234388
370
    25
100
AcDb2dPolyline
 66
     1
 10
0.0
 20
0.0
 30
0.0
  0
VERTEX
  5
A6
330
A5
100
AcDbEntity
  8
_U+30EC_U+30A4_U+30E4_U+30FC 1
 62
   179
420
  2234388
370
    25
100
AcDbVertex
100
AcDb2dVertex
 10
90.90229379200039
 20
-123.9479783023464
 30
0.0
  0
VERTEX
  5
A7
330
A5
100
AcDbEntity
  8
_U+30EC_U+30A4_U+30E4_U+30FC 1
 62
   179
420
  2234388
370
    25
100
AcDbVertex
100
AcDb2dVertex
 10
90.90229379200039
 20
-133.4664519110776
 30
0.0
  0
SEQEND
  5
A8
330
A5
100
AcDbEntity
  8
_U+30EC_U+30A4_U+30E4_U+30FC 1
 62
   179
420
  2234388
370
    25
  0
POLYLINE
  5
A9
330
1F
100
AcDbEntity
  8
_U+30EC_U+30A4_U+30E4_U+30FC 1
 62
   179
420
  2234388
370
    25
100
AcDb2dPolyline
 66
     1
 10
0.0
 20
0.0
 30
0.0
  0
VERTEX
  5
AA
330
A9
100
AcDbEntity
  8
_U+30EC_U+30A4_U+30E4_U+30FC 1
 62
   179
420
  2234388
370
    25
100
AcDbVertex
100
AcDb2dVertex
 10
82.19619706966698
 20
-145.4936341302931
 30
0.0
  0
VERTEX
  5
AB
330
A9
100
AcDbEntity
  8
_U+30EC_U+30A4_U+30E4_U+30FC 1
 62
   179
420
  2234388
370
    25
100
AcDbVertex
100
AcDb2dVertex
 10
80.9020318249061
 20
-146.4937238522652
 30
0.0
  0
SEQEND
  5
AC
330
A9
100
AcDbEntity
  8
_U+30EC_U+30A4_U+30E4_U+30FC 1
 62
   179
420
  2234388
370
    25
  0
POLYLINE
  5
AD
330
1F
100
AcDbEntity
  8
_U+30EC_U+30A4_U+30E4_U+30FC 1
 62
   179
420
  2234388
370
    25
100
AcDb2dPolyline
 66
     1
 10
0.0
 20
0.0
 30
0.0
  0
VERTEX
  5
AE
330
AD
100
AcDbEntity
  8
_U+30EC_U+30A4_U+30E4_U+30FC 1
 62
   179
420
  2234388
370
    25
100
AcDbVertex
100
AcDb2dVertex
 10
81.69613458242463
 20
-144.4935091305435
 30
0.0
  0
VERTEX
  5
AF
330
AD
100
AcDbEntity
  8
_U+30EC_U+30A4_U+30E4_U+30FC 1
 62
   179
420
  2234388
370
    25
100
AcDbVertex
100
AcDb2dVertex
 10
87.40206804796526
 20
-144.4935091305435
 30
0.0
  0
SEQEND
  5
B0
330
AD
100
AcDbEntity
  8
_U+30EC_U+30A4_U+30E4_U+30FC 1
 62
   179
420
  2234388
370
    25
  0
POLYLINE
  5
B1
330
1F
100
AcDbEntity
  8
_U+30EC_U+30A4_U+30E4_U+30FC 1
 62
   179
420
  2234388
370
    25
100
AcDb2dPolyline
 66
     1
 10
0.0
 20
0.0
 30
0.0
  0
VERTEX
  5
B2
330
B1
100
AcDbEntity
  8
_U+30EC_U+30A4_U+30E4_U+30FC 1
 62
   179
420
  2234388
370
    25
100
AcDbVertex
100
AcDb2dVertex
 10
87.40206804796526
 20
-144.4935091305435
 30
0.0
  0
VERTEX
  5
B3
330
B1
100
AcDbEntity
  8
_U+30EC_U+30A4_U+30E4_U+30FC 1
 62
   179
420
  2234388
370
    25
100
AcDbVertex
100
AcDb2dVertex
 10
86.90182917183853
 20
-145.4936341302931
 30
0.0
  0
SEQEND
  5
B4
330
B1
100
AcDbEntity
  8
_U+30EC_U+30A4_U+30E4_U+30FC 1
 62
   179
420
  2234388
370
    25
  0
POLYLINE
  5
B5
330
1F
100
AcDbEntity
  8
_U+30EC_U+30A4_U+30E4_U+30FC 1
 62
   179
420
  2234388
370
    25
100
AcDb2dPolyline
 66
     1
 10
0.0
 20
0.0
 30
0.0
  0
VERTEX
  5
B6
330
B5
100
AcDbEntity
  8
_U+30EC_U+30A4_U+30E4_U+30FC 1
 62
   179
420
  2234388
370
    25
100
AcDbVertex
100
AcDb2dVertex
 10
81.69613458242463
 20
-144.4935091305435
 30
0.0
  0
VERTEX
  5
B7
330
B5
100
AcDbEntity
  8
_U+30EC_U+30A4_U+30E4_U+30FC 1
 62
   179
420
  2234388
370
    25
100
AcDbVertex
100
AcDb2dVertex
 10
82.19619706966698
 20
-145.4936341302931
 30
0.0
  0
SEQEND
  5
B8
330
B5
100
AcDbEntity
  8
_U+30EC_U+30A4_U+30E4_U+30FC 1
 62
   179
420
  2234388
370
    25
  0
SPLINE
  5
B9
330
1F
100
AcDbEntity
  8
_U+30EC_U+30A4_U+30E4_U+30FC 1
 62
   179
420
  2234388
370
     9
100
AcDbSpline
210
0.0
220
0.0
230
1.0
 70
    11
 71
     3
 72
    17
 73
    13
 74
     0
 42
0.0000000001
 43
0.0000000001
 12
1.0
 22
0.0
 32
0.0
 13
1.0
 23
0.0
 33
0.0
 40
0.0
 40
0.0
 40
0.0
 40
0.0
 40
1.0
 40
1.0
 40
1.0
 40
2.0
 40
2.0
 40
2.0
 40
3.0
 40
3.0
 40
3.0
 40
4.0
 40
4.0
 40
4.0
 40
4.0
 10
91.00220275502717
 20
-150.4934830179321
 30
0.0
 10
91.00220275502717
 20
-150.4383791290572
 30
0.0
 10
90.95739997726078
 20
-150.3935763512905
 30
0.0
 10
90.90229379200039
 20
-150.3935763512905
 30
0.0
 10
90.84683712674854
 20
-150.3935763512905
 30
0.0
 10
90.80203435011377
 20
-150.4383791290572
 30
0.0
 10
90.80203435011377
 20
-150.4934830179321
 30
0.0
 10
90.80203435011377
 20
-150.5489396845848
 30
0.0
 10
90.84683712674854
 20
-150.5937424623515
 30
0.0
 10
90.90229379200039
 20
-150.5937424623515
 30
0.0
 10
90.95739997726078
 20
-150.5937424623515
 30
0.0
 10
91.00220275502717
 20
-150.5489396845848
 30
0.0
 10
91.00220275502717
 20
-150.4934830179321
 30
0.0
  0
SPLINE
  5
BA
330
1F
100
AcDbEntity
  8
_U+30EC_U+30A4_U+30E4_U+30FC 1
 62
   179
420
  2234388
370
     9
100
AcDbSpline
210
0.0
220
0.0
230
1.0
 70
    11
 71
     3
 72
    17
 73
    13
 74
     0
 42
0.0000000001
 43
0.0000000001
 12
1.0
 22
0.0
 32
0.0
 13
1.0
 23
0.0
 33
0.0
 40
0.0
 40
0.0
 40
0.0
 40
0.0
 40
1.0
 40
1.0
 40
1.0
 40
2.0
 40
2.0
 40
2.0
 40
3.0
 40
3.0
 40
3.0
 40
4.0
 40
4.0
 40
4.0
 40
4.0
 10
81.00211487790833
 20
-150.4934830179321
 30
0.0
 10
81.00211487790833
 20
-150.4383791290572
 30
0.0
 10
80.95734737905045
 20
-150.3935763512905
 30
0.0
 10
80.9020318249061
 20
-150.3935763512905
 30
0.0
 10
80.84675154853865
 20
-150.3935763512905
 30
0.0
 10
80.80194877190388
 20
-150.4383791290572
 30
0.0
 10
80.80194877190388
 20
-150.4934830179321
 30
0.0
 10
80.80194877190388
 20
-150.5489396845848
 30
0.0
 10
80.84675154853865
 20
-150.5937424623515
 30
0.0
 10
80.9020318249061
 20
-150.5937424623515
 30
0.0
 10
80.95734737905045
 20
-150.5937424623515
 30
0.0
 10
81.00211487790833
 20
-150.5489396845848
 30
0.0
 10
81.00211487790833
 20
-150.4934830179321
 30
0.0
  0
SPLINE
  5
BB
330
1F
100
AcDbEntity
  8
_U+30EC_U+30A4_U+30E4_U+30FC 1
 62
   179
420
  2234388
370
     5
100
AcDbSpline
210
0.0
220
0.0
230
1.0
 70
    11
 71
     3
 72
    17
 73
    13
 74
     0
 42
0.0000000001
 43
0.0000000001
 12
1.0
 22
0.0
 32
0.0
 13
1.0
 23
0.0
 33
0.0
 40
0.0
 40
0.0
 40
0.0
 40
0.0
 40
1.0
 40
1.0
 40
1.0
 40
2.0
 40
2.0
 40
2.0
 40
3.0
 40
3.0
 40
3.0
 40
4.0
 40
4.0
 40
4.0
 40
4.0
 10
95.00195952074253
 20
-146.4937238522652
 30
0.0
 10
95.00195952074253
 20
-146.4382671856126
 30
0.0
 10
94.95715674410778
 20
-146.3934644078459
 30
0.0
 10
94.9020528566247
 20
-146.3934644078459
 30
0.0
 10
94.84691369136475
 20
-146.3934644078459
 30
0.0
 10
94.80214619250687
 20
-146.4382671856126
 30
0.0
 10
94.80214619250687
 20
-146.4937238522652
 30
0.0
 10
94.80214619250687
 20
-146.5488630189183
 30
0.0
 10
94.84691369136475
 20
-146.5936305189069
 30
0.0
 10
94.9020528566247
 20
-146.5936305189069
 30
0.0
 10
94.95715674410778
 20
-146.5936305189069
 30
0.0
 10
95.00195952074253
 20
-146.5488630189183
 30
0.0
 10
95.00195952074253
 20
-146.4937238522652
 30
0.0
  0
SPLINE
  5
BC
330
1F
100
AcDbEntity
  8
_U+30EC_U+30A4_U+30E4_U+30FC 1
 62
   179
420
  2234388
370
     9
100
AcDbSpline
210
0.0
220
0.0
230
1.0
 70
    11
 71
     3
 72
    17
 73
    13
 74
     0
 42
0.0000000001
 43
0.0000000001
 12
1.0
 22
0.0
 32
0.0
 13
1.0
 23
0.0
 33
0.0
 40
0.0
 40
0.0
 40
0.0
 40
0.0
 40
1.0
 40
1.0
 40
1.0
 40
2.0
 40
2.0
 40
2.0
 40
3.0
 40
3.0
 40
3.0
 40
4.0
 40
4.0
 40
4.0
 40
4.0
 10
95.00195952074253
 20
-137.9936491321682
 30
0.0
 10
95.00195952074253
 20
-137.9381924655155
 30
0.0
 10
94.95715674410778
 20
-137.8937424655265
 30
0.0
 10
94.9020528566247
 20
-137.8937424655265
 30
0.0
 10
94.84691369136475
 20
-137.8937424655265
 30
0.0
 10
94.80214619250687
 20
-137.9381924655155
 30
0.0
 10
94.80214619250687
 20
-137.9936491321682
 30
0.0
 10
94.80214619250687
 20
-138.0487530210431
 30
0.0
 10
94.84691369136475
 20
-138.0935557988098
 30
0.0
 10
94.9020528566247
 20
-138.0935557988098
 30
0.0
 10
94.95715674410778
 20
-138.0935557988098
 30
0.0
 10
95.00195952074253
 20
-138.0487530210431
 30
0.0
 10
95.00195952074253
 20
-137.9936491321682
 30
0.0
  0
SPLINE
  5
BD
330
1F
100
AcDbEntity
  8
_U+30EC_U+30A4_U+30E4_U+30FC 1
 62
   179
420
  2234388
370
     5
100
AcDbSpline
210
0.0
220
0.0
230
1.0
 70
    11
 71
     3
 72
    17
 73
    13
 74
     0
 42
0.0000000001
 43
0.0000000001
 12
1.0
 22
0.0
 32
0.0
 13
1.0
 23
0.0
 33
0.0
 40
0.0
 40
0.0
 40
0.0
 40
0.0
 40
1.0
 40
1.0
 40
1.0
 40
2.0
 40
2.0
 40
2.0
 40
3.0
 40
3.0
 40
3.0
 40
4.0
 40
4.0
 40
4.0
 40
4.0
 10
99.00203608535875
 20
-146.4937238522652
 30
0.0
 10
99.00203608535875
 20
-146.4382671856126
 30
0.0
 10
98.95726858650086
 20
-146.3934644078459
 30
0.0
 10
98.901811921249
 20
-146.3934644078459
 30
0.0
 10
98.84667275598906
 20
-146.3934644078459
 30
0.0
 10
98.80190525713118
 20
-146.4382671856126
 30
0.0
 10
98.80190525713118
 20
-146.4937238522652
 30
0.0
 10
98.80190525713118
 20
-146.5488630189183
 30
0.0
 10
98.84667275598906
 20
-146.5936305189069
 30
0.0
 10
98.901811921249
 20
-146.5936305189069
 30
0.0
 10
98.95726858650086
 20
-146.5936305189069
 30
0.0
 10
99.00203608535875
 20
-146.5488630189183
 30
0.0
 10
99.00203608535875
 20
-146.4937238522652
 30
0.0
  0
SPLINE
  5
BE
330
1F
100
AcDbEntity
  8
_U+30EC_U+30A4_U+30E4_U+30FC 1
 62
   179
420
  2234388
370
     9
100
AcDbSpline
210
0.0
220
0.0
230
1.0
 70
    11
 71
     3
 72
    17
 73
    13
 74
     0
 42
0.0000000001
 43
0.0000000001
 12
1.0
 22
0.0
 32
0.0
 13
1.0
 23
0.0
 33
0.0
 40
0.0
 40
0.0
 40
0.0
 40
0.0
 40
1.0
 40
1.0
 40
1.0
 40
2.0
 40
2.0
 40
2.0
 40
3.0
 40
3.0
 40
3.0
 40
4.0
 40
4.0
 40
4.0
 40
4.0
 10
99.00203608535875
 20
-101.4935316412932
 30
0.0
 10
99.00203608535875
 20
-101.4384277524183
 30
0.0
 10
98.95726858650086
 20
-101.3936249746516
 30
0.0
 10
98.901811921249
 20
-101.3936249746516
 30
0.0
 10
98.84667275598906
 20
-101.3936249746516
 30
0.0
 10
98.80190525713118
 20
-101.4384277524183
 30
0.0
 10
98.80190525713118
 20
-101.4935316412932
 30
0.0
 10
98.80190525713118
 20
-101.5486708079463
 30
0.0
 10
98.84667275598906
 20
-101.5934383079349
 30
0.0
 10
98.901811921249
 20
-101.5934383079349
 30
0.0
 10
98.95726858650086
 20
-101.5934383079349
 30
0.0
 10
99.00203608535875
 20
-101.5486708079463
 30
0.0
 10
99.00203608535875
 20
-101.4935316412932
 30
0.0
  0
POLYLINE
  5
BF
330
1F
100
AcDbEntity
  8
_U+30EC_U+30A4_U+30E4_U+30FC 1
 62
   179
420
  2234388
370
     9
100
AcDb2dPolyline
 66
     1
 10
0.0
 20
0.0
 30
0.0
  0
VERTEX
  5
C0
330
BF
100
AcDbEntity
  8
_U+30EC_U+30A4_U+30E4_U+30FC 1
 62
   179
420
  2234388
370
     9
100
AcDbVertex
100
AcDb2dVertex
 10
94.9020528566247
 20
-137.9936491321682
 30
0.0
  0
VERTEX
  5
C1
330
BF
100
AcDbEntity
  8
_U+30EC_U+30A4_U+30E4_U+30FC 1
 62
   179
420
  2234388
370
     9
100
AcDbVertex
100
AcDb2dVertex
 10
94.9020528566247
 20
-146.4937238522652
 30
0.0
  0
SEQEND
  5
C2
330
BF
100
AcDbEntity
  8
_U+30EC_U+30A4_U+30E4_U+30FC 1
 62
   179
420
  2234388
370
     9
  0
POLYLINE
  5
C3
330
1F
100
AcDbEntity
  8
_U+30EC_U+30A4_U+30E4_U+30FC 1
 62
   179
420
  2234388
370
     9
100
AcDb2dPolyline
 66
     1
 10
0.0
 20
0.0
 30
0.0
  0
VERTEX
  5
C4
330
C3
100
AcDbEntity
  8
_U+30EC_U+30A4_U+30E4_U+30FC 1
 62
   179
420
  2234388
370
     9
100
AcDbVertex
100
AcDb2dVertex
 10
93.4420138655284
 20
-137.9936491321682
 30
0.0
  0
VERTEX
  5
C5
330
C3
100
AcDbEntity
  8
_U+30EC_U+30A4_U+30E4_U+30FC 1
 62
   179
420
  2234388
370
     9
100
AcDbVertex
100
AcDb2dVertex
 10
95.90182505334062
 20
-137.9936491321682
 30
0.0
  0
SEQEND
  5
C6
330
C3
100
AcDbEntity
  8
_U+30EC_U+30A4_U+30E4_U+30FC 1
 62
   179
420
  2234388
370
     9
  0
POLYLINE
  5
C7
330
1F
100
AcDbEntity
  8
_U+30EC_U+30A4_U+30E4_U+30FC 1
 62
   179
420
  2234388
370
     5
100
AcDb2dPolyline
 66
     1
 10
0.0
 20
0.0
 30
0.0
  0
VERTEX
  5
C8
330
C7
100
AcDbEntity
  8
_U+30EC_U+30A4_U+30E4_U+30FC 1
 62
   179
420
  2234388
370
     5
100
AcDbVertex
100
AcDb2dVertex
 10
93.4420138655284
 20
-146.4937238522652
 30
0.0
  0
VERTEX
  5
C9
330
C7
100
AcDbEntity
  8
_U+30EC_U+30A4_U+30E4_U+30FC 1
 62
   179
420
  2234388
370
     5
100
AcDbVertex
100
AcDb2dVertex
 10
95.90182505334062
 20
-146.4937238522652
 30
0.0
  0
SEQEND
  5
CA
330
C7
100
AcDbEntity
  8
_U+30EC_U+30A4_U+30E4_U+30FC 1
 62
   179
420
  2234388
370
     5
  0
INSERT
  5
CC
330
1F
100
AcDbEntity
  8
_U+30EC_U+30A4_U+30E4_U+30FC 1
100
AcDbBlockReference
  2
block 2
 10
0.0
 20
0.0
 30
0.0
  0
SPLINE
  5
DD
330
1F
100
AcDbEntity
  8
_U+30EC_U+30A4_U+30E4_U+30FC 1
 62
   179
420
  2234388
370
    25
100
AcDbSpline
210
0.0
220
0.0
230
1.0
 70
    11
 71
     3
 72
    17
 73
    13
 74
     0
 42
0.0000000001
 43
0.0000000001
 12
1.0
 22
0.0
 32
0.0
 13
1.0
 23
0.0
 33
0.0
 40
0.0
 40
0.0
 40
0.0
 40
0.0
 40
1.0
 40
1.0
 40
1.0
 40
2.0
 40
2.0
 40
2.0
 40
3.0
 40
3.0
 40
3.0
 40
4.0
 40
4.0
 40
4.0
 40
4.0
 10
90.93743045777065
 20
-137.9936491321682
 30
0.0
 10
90.93743045777065
 20
-138.012946076608
 30
0.0
 10
90.92159073595253
 20
-138.0287857988259
 30
0.0
 10
90.90229379200039
 20
-138.0287857988259
 30
0.0
 10
90.8822912925107
 20
-138.0287857988259
 30
0.0
 10
90.86680434846136
 20
-138.012946076608
 30
0.0
 10
90.86680434846136
 20
-137.9936491321682
 30
0.0
 10
90.86680434846136
 20
-137.9739994099512
 30
0.0
 10
90.8822912925107
 20
-137.9581596877327
 30
0.0
 10
90.90229379200039
 20
-137.9581596877327
 30
0.0
 10
90.92159073595253
 20
-137.9581596877327
 30
0.0
 10
90.93743045777065
 20
-137.9739994099512
 30
0.0
 10
90.93743045777065
 20
-137.9936491321682
 30
0.0
  0
SPLINE
  5
DE
330
1F
100
AcDbEntity
  8
_U+30EC_U+30A4_U+30E4_U+30FC 1
 62
   179
420
  2234388
370
    25
100
AcDbSpline
210
0.0
220
0.0
230
1.0
 70
    11
 71
     3
 72
    17
 73
    13
 74
     0
 42
0.0000000001
 43
0.0000000001
 12
1.0
 22
0.0
 32
0.0
 13
1.0
 23
0.0
 33
0.0
 40
0.0
 40
0.0
 40
0.0
 40
0.0
 40
1.0
 40
1.0
 40
1.0
 40
2.0
 40
2.0
 40
2.0
 40
3.0
 40
3.0
 40
3.0
 40
4.0
 40
4.0
 40
4.0
 40
4.0
 10
90.93743045777065
 20
-146.4937238522652
 30
0.0
 10
90.93743045777065
 20
-146.5130207967051
 30
0.0
 10
90.92159073595253
 20
-146.5288605189236
 30
0.0
 10
90.90229379200039
 20
-146.5288605189236
 30
0.0
 10
90.8822912925107
 20
-146.5288605189236
 30
0.0
 10
90.86680434846136
 20
-146.5130207967051
 30
0.0
 10
90.86680434846136
 20
-146.4937238522652
 30
0.0
 10
90.86680434846136
 20
-146.4740741300483
 30
0.0
 10
90.8822912925107
 20
-146.4582344078298
 30
0.0
 10
90.90229379200039
 20
-146.4582344078298
 30
0.0
 10
90.92159073595253
 20
-146.4582344078298
 30
0.0
 10
90.93743045777065
 20
-146.4740741300483
 30
0.0
 10
90.93743045777065
 20
-146.4937238522652
 30
0.0
  0
SPLINE
  5
DF
330
1F
100
AcDbEntity
  8
_U+30EC_U+30A4_U+30E4_U+30FC 1
 62
   179
420
  2234388
370
     5
100
AcDbSpline
210
0.0
220
0.0
230
1.0
 70
    11
 71
     3
 72
    17
 73
    13
 74
     0
 42
0.0000000001
 43
0.0000000001
 12
1.0
 22
0.0
 32
0.0
 13
1.0
 23
0.0
 33
0.0
 40
0.0
 40
0.0
 40
0.0
 40
0.0
 40
1.0
 40
1.0
 40
1.0
 40
2.0
 40
2.0
 40
2.0
 40
3.0
 40
3.0
 40
3.0
 40
4.0
 40
4.0
 40
4.0
 40
4.0
 10
94.93718952239496
 20
-146.4937238522652
 30
0.0
 10
94.93718952239496
 20
-146.5130207967051
 30
0.0
 10
94.92134980057683
 20
-146.5288605189236
 30
0.0
 10
94.9020528566247
 20
-146.5288605189236
 30
0.0
 10
94.88275830961291
 20
-146.5288605189236
 30
0.0
 10
94.86691619085444
 20
-146.5130207967051
 30
0.0
 10
94.86691619085444
 20
-146.4937238522652
 30
0.0
 10
94.86691619085444
 20
-146.4740741300483
 30
0.0
 10
94.88275830961291
 20
-146.4582344078298
 30
0.0
 10
94.9020528566247
 20
-146.4582344078298
 30
0.0
 10
94.92134980057683
 20
-146.4582344078298
 30
0.0
 10
94.93718952239496
 20
-146.4740741300483
 30
0.0
 10
94.93718952239496
 20
-146.4937238522652
 30
0.0
  0
POLYLINE
  5
E0
330
1F
100
AcDbEntity
  8
_U+30EC_U+30A4_U+30E4_U+30FC 1
 62
   179
420
  2234388
370
     9
100
AcDb2dPolyline
 66
     1
 10
0.0
 20
0.0
 30
0.0
  0
VERTEX
  5
E1
330
E0
100
AcDbEntity
  8
_U+30EC_U+30A4_U+30E4_U+30FC 1
 62
   179
420
  2234388
370
     9
100
AcDbVertex
100
AcDb2dVertex
 10
98.901811921249
 20
-146.4937238522652
 30
0.0
  0
VERTEX
  5
E2
330
E0
100
AcDbEntity
  8
_U+30EC_U+30A4_U+30E4_U+30FC 1
 62
   179
420
  2234388
370
     9
100
AcDbVertex
100
AcDb2dVertex
 10
98.901811921249
 20
-101.4935316412932
 30
0.0
  0
SEQEND
  5
E3
330
E0
100
AcDbEntity
  8
_U+30EC_U+30A4_U+30E4_U+30FC 1
 62
   179
420
  2234388
370
     9
  0
POLYLINE
  5
E4
330
1F
100
AcDbEntity
  8
_U+30EC_U+30A4_U+30E4_U+30FC 1
 62
   179
420
  2234388
370
     9
100
AcDb2dPolyline
 66
     1
 10
0.0
 20
0.0
 30
0.0
  0
VERTEX
  5
E5
330
E4
100
AcDbEntity
  8
_U+30EC_U+30A4_U+30E4_U+30FC 1
 62
   179
420
  2234388
370
     9
100
AcDbVertex
100
AcDb2dVertex
 10
93.4420138655284
 20
-146.4937238522652
 30
0.0
  0
VERTEX
  5
E6
330
E4
100
AcDbEntity
  8
_U+30EC_U+30A4_U+30E4_U+30FC 1
 62
   179
420
  2234388
370
     9
100
AcDbVertex
100
AcDb2dVertex
 10
99.90225439572559
 20
-146.4937238522652
 30
0.0
  0
SEQEND
  5
E7
330
E4
100
AcDbEntity
  8
_U+30EC_U+30A4_U+30E4_U+30FC 1
 62
   179
420
  2234388
370
     9
  0
POLYLINE
  5
E8
330
1F
100
AcDbEntity
  8
_U+30EC_U+30A4_U+30E4_U+30FC 1
 62
   179
420
  2234388
370
     9
100
AcDb2dPolyline
 66
     1
 10
0.0
 20
0.0
 30
0.0
  0
VERTEX
  5
E9
330
E8
100
AcDbEntity
  8
_U+30EC_U+30A4_U+30E4_U+30FC 1
 62
   179
420
  2234388
370
     9
100
AcDbVertex
100
AcDb2dVertex
 10
96.44199837289297
 20
-101.4935316412932
 30
0.0
  0
VERTEX
  5
EA
330
E8
100
AcDbEntity
  8
_U+30EC_U+30A4_U+30E4_U+30FC 1
 62
   179
420
  2234388
370
     9
100
AcDbVertex
100
AcDb2dVertex
 10
99.90225439572559
 20
-101.4935316412932
 30
0.0
  0
SEQEND
  5
EB
330
E8
100
AcDbEntity
  8
_U+30EC_U+30A4_U+30E4_U+30FC 1
 62
   179
420
  2234388
370
     9
  0
INSERT
  5
ED
330
1F
100
AcDbEntity
  8
_U+30EC_U+30A4_U+30E4_U+30FC 1
100
AcDbBlockReference
  2
block 3
 10
0.0
 20
0.0
 30
0.0
  0
SPLINE
  5
107
330
1F
100
AcDbEntity
  8
_U+30EC_U+30A4_U+30E4_U+30FC 1
 62
   179
420
  2234388
370
    25
100
AcDbSpline
210
0.0
220
0.0
230
1.0
 70
    11
 71
     3
 72
    17
 73
    13
 74
     0
 42
0.0000000001
 43
0.0000000001
 12
1.0
 22
0.0
 32
0.0
 13
1.0
 23
0.0
 33
0.0
 40
0.0
 40
0.0
 40
0.0
 40
0.0
 40
1.0
 40
1.0
 40
1.0
 40
2.0
 40
2.0
 40
2.0
 40
3.0
 40
3.0
 40
3.0
 40
4.0
 40
4.0
 40
4.0
 40
4.0
 10
90.93743045777065
 20
-146.4937238522652
 30
0.0
 10
90.93743045777065
 20
-146.5130207967051
 30
0.0
 10
90.92159073595253
 20
-146.5288605189236
 30
0.0
 10
90.90229379200039
 20
-146.5288605189236
 30
0.0
 10
90.8822912925107
 20
-146.5288605189236
 30
0.0
 10
90.86680434846136
 20
-146.5130207967051
 30
0.0
 10
90.86680434846136
 20
-146.4937238522652
 30
0.0
 10
90.86680434846136
 20
-146.4740741300483
 30
0.0
 10
90.8822912925107
 20
-146.4582344078298
 30
0.0
 10
90.90229379200039
 20
-146.4582344078298
 30
0.0
 10
90.92159073595253
 20
-146.4582344078298
 30
0.0
 10
90.93743045777065
 20
-146.4740741300483
 30
0.0
 10
90.93743045777065
 20
-146.4937238522652
 30
0.0
  0
SPLINE
  5
108
330
1F
100
AcDbEntity
  8
_U+30EC_U+30A4_U+30E4_U+30FC 1
 62
   179
420
  2234388
370
    25
100
AcDbSpline
210
0.0
220
0.0
230
1.0
 70
    11
 71
     3
 72
    17
 73
    13
 74
     0
 42
0.0000000001
 43
0.0000000001
 12
1.0
 22
0.0
 32
0.0
 13
1.0
 23
0.0
 33
0.0
 40
0.0
 40
0.0
 40
0.0
 40
0.0
 40
1.0
 40
1.0
 40
1.0
 40
2.0
 40
2.0
 40
2.0
 40
3.0
 40
3.0
 40
3.0
 40
4.0
 40
4.0
 40
4.0
 40
4.0
 10
93.93741732567905
 20
-101.4935316412932
 30
0.0
 10
93.93741732567905
 20
-101.5131813635105
 30
0.0
 10
93.92157760386092
 20
-101.5287035857288
 30
0.0
 10
93.9022806599088
 20
-101.5287035857288
 30
0.0
 10
93.88263330986261
 20
-101.5287035857288
 30
0.0
 10
93.86679121636976
 20
-101.5131813635105
 30
0.0
 10
93.86679121636976
 20
-101.4935316412932
 30
0.0
 10
93.86679121636976
 20
-101.4742699746316
 30
0.0
 10
93.88263330986261
 20
-101.4583949746355
 30
0.0
 10
93.9022806599088
 20
-101.4583949746355
 30
0.0
 10
93.92157760386092
 20
-101.4583949746355
 30
0.0
 10
93.93741732567905
 20
-101.4742699746316
 30
0.0
 10
93.93741732567905
 20
-101.4935316412932
 30
0.0
  0
SPLINE
  5
109
330
1F
100
AcDbEntity
  8
_U+30EC_U+30A4_U+30E4_U+30FC 1
 62
   179
420
  2234388
370
     9
100
AcDbSpline
210
0.0
220
0.0
230
1.0
 70
    11
 71
     3
 72
    17
 73
    13
 74
     0
 42
0.0000000001
 43
0.0000000001
 12
1.0
 22
0.0
 32
0.0
 13
1.0
 23
0.0
 33
0.0
 40
0.0
 40
0.0
 40
0.0
 40
0.0
 40
1.0
 40
1.0
 40
1.0
 40
2.0
 40
2.0
 40
2.0
 40
3.0
 40
3.0
 40
3.0
 40
4.0
 40
4.0
 40
4.0
 40
4.0
 10
98.93726608701117
 20
-101.4935316412932
 30
0.0
 10
98.93726608701117
 20
-101.5131813635105
 30
0.0
 10
98.92177914296182
 20
-101.5287035857288
 30
0.0
 10
98.901811921249
 20
-101.5287035857288
 30
0.0
 10
98.88251497729688
 20
-101.5287035857288
 30
0.0
 10
98.86667775306125
 20
-101.5131813635105
 30
0.0
 10
98.86667775306125
 20
-101.4935316412932
 30
0.0
 10
98.86667775306125
 20
-101.4742699746316
 30
0.0
 10
98.88251497729688
 20
-101.4583949746355
 30
0.0
 10
98.901811921249
 20
-101.4583949746355
 30
0.0
 10
98.92177914296182
 20
-101.4583949746355
 30
0.0
 10
98.93726608701117
 20
-101.4742699746316
 30
0.0
 10
98.93726608701117
 20
-101.4935316412932
 30
0.0
  0
POLYLINE
  5
10A
330
1F
100
AcDbEntity
  8
_U+30EC_U+30A4_U+30E4_U+30FC 1
 62
   179
420
  2234388
370
     9
100
AcDb2dPolyline
 66
     1
 10
0.0
 20
0.0
 30
0.0
  0
VERTEX
  5
10B
330
10A
100
AcDbEntity
  8
_U+30EC_U+30A4_U+30E4_U+30FC 1
 62
   179
420
  2234388
370
     9
100
AcDbVertex
100
AcDb2dVertex
 10
80.9020318249061
 20
-150.4934830179321
 30
0.0
  0
VERTEX
  5
10C
330
10A
100
AcDbEntity
  8
_U+30EC_U+30A4_U+30E4_U+30FC 1
 62
   179
420
  2234388
370
     9
100
AcDbVertex
100
AcDb2dVertex
 10
90.90229379200039
 20
-150.4934830179321
 30
0.0
  0
SEQEND
  5
10D
330
10A
100
AcDbEntity
  8
_U+30EC_U+30A4_U+30E4_U+30FC 1
 62
   179
420
  2234388
370
     9
  0
POLYLINE
  5
10E
330
1F
100
AcDbEntity
  8
_U+30EC_U+30A4_U+30E4_U+30FC 1
 62
   179
420
  2234388
370
     9
100
AcDb2dPolyline
 66
     1
 10
0.0
 20
0.0
 30
0.0
  0
VERTEX
  5
10F
330
10E
100
AcDbEntity
  8
_U+30EC_U+30A4_U+30E4_U+30FC 1
 62
   179
420
  2234388
370
     9
100
AcDbVertex
100
AcDb2dVertex
 10
80.9020318249061
 20
-149.0334416294084
 30
0.0
  0
VERTEX
  5
110
330
10E
100
AcDbEntity
  8
_U+30EC_U+30A4_U+30E4_U+30FC 1
 62
   179
420
  2234388
370
     9
100
AcDbVertex
100
AcDb2dVertex
 10
80.9020318249061
 20
-151.4936080176824
 30
0.0
  0
SEQEND
  5
111
330
10E
100
AcDbEntity
  8
_U+30EC_U+30A4_U+30E4_U+30FC 1
 62
   179
420
  2234388
370
     9
  0
POLYLINE
  5
112
330
1F
100
AcDbEntity
  8
_U+30EC_U+30A4_U+30E4_U+30FC 1
 62
   179
420
  2234388
370
     9
100
AcDb2dPolyline
 66
     1
 10
0.0
 20
0.0
 30
0.0
  0
VERTEX
  5
113
330
112
100
AcDbEntity
  8
_U+30EC_U+30A4_U+30E4_U+30FC 1
 62
   179
420
  2234388
370
     9
100
AcDbVertex
100
AcDb2dVertex
 10
90.90229379200039
 20
-149.0334416294084
 30
0.0
  0
VERTEX
  5
114
330
112
100
AcDbEntity
  8
_U+30EC_U+30A4_U+30E4_U+30FC 1
 62
   179
420
  2234388
370
     9
100
AcDbVertex
100
AcDb2dVertex
 10
90.90229379200039
 20
-151.4936080176824
 30
0.0
  0
SEQEND
  5
115
330
112
100
AcDbEntity
  8
_U+30EC_U+30A4_U+30E4_U+30FC 1
 62
   179
420
  2234388
370
     9
  0
INSERT
  5
117
330
1F
100
AcDbEntity
  8
_U+30EC_U+30A4_U+30E4_U+30FC 1
100
AcDbBlockReference
  2
block 4
 10
0.0
 20
0.0
 30
0.0
  0
SPLINE
  5
11F
330
1F
100
AcDbEntity
  8
_U+30EC_U+30A4_U+30E4_U+30FC 1
 62
   179
420
  2234388
370
    25
100
AcDbSpline
210
0.0
220
0.0
230
1.0
 70
    11
 71
     3
 72
    17
 73
    13
 74
     0
 42
0.0000000001
 43
0.0000000001
 12
1.0
 22
0.0
 32
0.0
 13
1.0
 23
0.0
 33
0.0
 40
0.0
 40
0.0
 40
0.0
 40
0.0
 40
1.0
 40
1.0
 40
1.0
 40
2.0
 40
2.0
 40
2.0
 40
3.0
 40
3.0
 40
3.0
 40
4.0
 40
4.0
 40
4.0
 40
4.0
 10
80.93734487956075
 20
-146.4937238522652
 30
0.0
 10
80.93734487956075
 20
-146.5130207967051
 30
0.0
 10
80.92150515774263
 20
-146.5288605189236
 30
0.0
 10
80.9020318249061
 20
-146.5288605189236
 30
0.0
 10
80.88255849206958
 20
-146.5288605189236
 30
0.0
 10
80.86671877025147
 20
-146.5130207967051
 30
0.0
 10
80.86671877025147
 20
-146.4937238522652
 30
0.0
 10
80.86671877025147
 20
-146.4740741300483
 30
0.0
 10
80.88255849206958
 20
-146.4582344078298
 30
0.0
 10
80.9020318249061
 20
-146.4582344078298
 30
0.0
 10
80.92150515774263
 20
-146.4582344078298
 30
0.0
 10
80.93734487956075
 20
-146.4740741300483
 30
0.0
 10
80.93734487956075
 20
-146.4937238522652
 30
0.0
  0
SPLINE
  5
120
330
1F
100
AcDbEntity
  8
_U+30EC_U+30A4_U+30E4_U+30FC 1
 62
   179
420
  2234388
370
    25
100
AcDbSpline
210
0.0
220
0.0
230
1.0
 70
    11
 71
     3
 72
    17
 73
    13
 74
     0
 42
0.0000000001
 43
0.0000000001
 12
1.0
 22
0.0
 32
0.0
 13
1.0
 23
0.0
 33
0.0
 40
0.0
 40
0.0
 40
0.0
 40
0.0
 40
1.0
 40
1.0
 40
1.0
 40
2.0
 40
2.0
 40
2.0
 40
3.0
 40
3.0
 40
3.0
 40
4.0
 40
4.0
 40
4.0
 40
4.0
 10
90.93743045777065
 20
-146.4937238522652
 30
0.0
 10
90.93743045777065
 20
-146.5130207967051
 30
0.0
 10
90.92159073595253
 20
-146.5288605189236
 30
0.0
 10
90.90229379200039
 20
-146.5288605189236
 30
0.0
 10
90.8822912925107
 20
-146.5288605189236
 30
0.0
 10
90.86680434846136
 20
-146.5130207967051
 30
0.0
 10
90.86680434846136
 20
-146.4937238522652
 30
0.0
 10
90.86680434846136
 20
-146.4740741300483
 30
0.0
 10
90.8822912925107
 20
-146.4582344078298
 30
0.0
 10
90.90229379200039
 20
-146.4582344078298
 30
0.0
 10
90.92159073595253
 20
-146.4582344078298
 30
0.0
 10
90.93743045777065
 20
-146.4740741300483
 30
0.0
 10
90.93743045777065
 20
-146.4937238522652
 30
0.0
  0
SPLINE
  5
121
330
1F
100
AcDbEntity
  8
_U+30EC_U+30A4_U+30E4_U+30FC 1
 62
   179
420
  2234388
370
     9
100
AcDbSpline
210
0.0
220
0.0
230
1.0
 70
    11
 71
     3
 72
    17
 73
    13
 74
     0
 42
0.0000000001
 43
0.0000000001
 12
1.0
 22
0.0
 32
0.0
 13
1.0
 23
0.0
 33
0.0
 40
0.0
 40
0.0
 40
0.0
 40
0.0
 40
1.0
 40
1.0
 40
1.0
 40
2.0
 40
2.0
 40
2.0
 40
3.0
 40
3.0
 40
3.0
 40
4.0
 40
4.0
 40
4.0
 40
4.0
 10
90.93743045777065
 20
-150.4934830179321
 30
0.0
 10
90.93743045777065
 20
-150.5131327401497
 30
0.0
 10
90.92159073595253
 20
-150.5289724623676
 30
0.0
 10
90.90229379200039
 20
-150.5289724623676
 30
0.0
 10
90.8822912925107
 20
-150.5289724623676
 30
0.0
 10
90.86680434846136
 20
-150.5131327401497
 30
0.0
 10
90.86680434846136
 20
-150.4934830179321
 30
0.0
 10
90.86680434846136
 20
-150.4741860734923
 30
0.0
 10
90.8822912925107
 20
-150.4583463512744
 30
0.0
 10
90.90229379200039
 20
-150.4583463512744
 30
0.0
 10
90.92159073595253
 20
-150.4583463512744
 30
0.0
 10
90.93743045777065
 20
-150.4741860734923
 30
0.0
 10
90.93743045777065
 20
-150.4934830179321
 30
0.0
  0
SPLINE
  5
122
330
1F
100
AcDbEntity
  8
_U+30EC_U+30A4_U+30E4_U+30FC 1
 62
   179
420
  2234388
370
     9
100
AcDbSpline
210
0.0
220
0.0
230
1.0
 70
    11
 71
     3
 72
    17
 73
    13
 74
     0
 42
0.0000000001
 43
0.0000000001
 12
1.0
 22
0.0
 32
0.0
 13
1.0
 23
0.0
 33
0.0
 40
0.0
 40
0.0
 40
0.0
 40
0.0
 40
1.0
 40
1.0
 40
1.0
 40
2.0
 40
2.0
 40
2.0
 40
3.0
 40
3.0
 40
3.0
 40
4.0
 40
4.0
 40
4.0
 40
4.0
 10
92.00264293059482
 20
-153.1871882950367
 30
0.0
 10
92.00264293059482
 20
-153.1320844061612
 30
0.0
 10
91.9578777547882
 20
-153.0872816283951
 30
0.0
 10
91.90273626647698
 20
-153.0872816283951
 30
0.0
 10
91.84692682345634
 20
-153.0872816283951
 30
0.0
 10
91.80215932459846
 20
-153.1320844061612
 30
0.0
 10
91.80215932459846
 20
-153.1871882950367
 30
0.0
 10
91.80215932459846
 20
-153.2426802394669
 30
0.0
 10
91.84692682345634
 20
-153.2874477394562
 30
0.0
 10
91.90273626647698
 20
-153.2874477394562
 30
0.0
 10
91.9578777547882
 20
-153.2874477394562
 30
0.0
 10
92.00264293059482
 20
-153.2426802394669
 30
0.0
 10
92.00264293059482
 20
-153.1871882950367
 30
0.0
  0
SPLINE
  5
123
330
1F
100
AcDbEntity
  8
_U+30EC_U+30A4_U+30E4_U+30FC 1
 62
   179
420
  2234388
370
     9
100
AcDbSpline
210
0.0
220
0.0
230
1.0
 70
    11
 71
     3
 72
    17
 73
    13
 74
     0
 42
0.0000000001
 43
0.0000000001
 12
1.0
 22
0.0
 32
0.0
 13
1.0
 23
0.0
 33
0.0
 40
0.0
 40
0.0
 40
0.0
 40
0.0
 40
1.0
 40
1.0
 40
1.0
 40
2.0
 40
2.0
 40
2.0
 40
3.0
 40
3.0
 40
3.0
 40
4.0
 40
4.0
 40
4.0
 40
4.0
 10
81.00211487790833
 20
-153.1871882950367
 30
0.0
 10
81.00211487790833
 20
-153.1320844061612
 30
0.0
 10
80.95734737905045
 20
-153.0872816283951
 30
0.0
 10
80.9020318249061
 20
-153.0872816283951
 30
0.0
 10
80.84675154853865
 20
-153.0872816283951
 30
0.0
 10
80.80194877190388
 20
-153.1320844061612
 30
0.0
 10
80.80194877190388
 20
-153.1871882950367
 30
0.0
 10
80.80194877190388
 20
-153.2426802394669
 30
0.0
 10
80.84675154853865
 20
-153.2874477394562
 30
0.0
 10
80.9020318249061
 20
-153.2874477394562
 30
0.0
 10
80.95734737905045
 20
-153.2874477394562
 30
0.0
 10
81.00211487790833
 20
-153.2426802394669
 30
0.0
 10
81.00211487790833
 20
-153.1871882950367
 30
0.0
  0
POLYLINE
  5
124
330
1F
100
AcDbEntity
  8
_U+30EC_U+30A4_U+30E4_U+30FC 1
 62
   179
420
  2234388
370
     9
100
AcDb2dPolyline
 66
     1
 10
0.0
 20
0.0
 30
0.0
  0
VERTEX
  5
125
330
124
100
AcDbEntity
  8
_U+30EC_U+30A4_U+30E4_U+30FC 1
 62
   179
420
  2234388
370
     9
100
AcDbVertex
100
AcDb2dVertex
 10
80.9020318249061
 20
-153.1871882950367
 30
0.0
  0
VERTEX
  5
126
330
124
100
AcDbEntity
  8
_U+30EC_U+30A4_U+30E4_U+30FC 1
 62
   179
420
  2234388
370
     9
100
AcDbVertex
100
AcDb2dVertex
 10
91.90273626647698
 20
-153.1871882950367
 30
0.0
  0
SEQEND
  5
127
330
124
100
AcDbEntity
  8
_U+30EC_U+30A4_U+30E4_U+30FC 1
 62
   179
420
  2234388
370
     9
  0
POLYLINE
  5
128
330
1F
100
AcDbEntity
  8
_U+30EC_U+30A4_U+30E4_U+30FC 1
 62
   179
420
  2234388
370
     9
100
AcDb2dPolyline
 66
     1
 10
0.0
 20
0.0
 30
0.0
  0
VERTEX
  5
129
330
128
100
AcDbEntity
  8
_U+30EC_U+30A4_U+30E4_U+30FC 1
 62
   179
420
  2234388
370
     9
100
AcDbVertex
100
AcDb2dVertex
 10
80.9020318249061
 20
-150.7088185734337
 30
0.0
  0
VERTEX
  5
12A
330
128
100
AcDbEntity
  8
_U+30EC_U+30A4_U+30E4_U+30FC 1
 62
   179
420
  2234388
370
     9
100
AcDbVertex
100
AcDb2dVertex
 10
80.9020318249061
 20
-154.1873132947864
 30
0.0
  0
SEQEND
  5
12B
330
128
100
AcDbEntity
  8
_U+30EC_U+30A4_U+30E4_U+30FC 1
 62
   179
420
  2234388
370
     9
  0
POLYLINE
  5
12C
330
1F
100
AcDbEntity
  8
_U+30EC_U+30A4_U+30E4_U+30FC 1
 62
   179
420
  2234388
370
     9
100
AcDb2dPolyline
 66
     1
 10
0.0
 20
0.0
 30
0.0
  0
VERTEX
  5
12D
330
12C
100
AcDbEntity
  8
_U+30EC_U+30A4_U+30E4_U+30FC 1
 62
   179
420
  2234388
370
     9
100
AcDbVertex
100
AcDb2dVertex
 10
91.90273626647698
 20
-137.7269844100126
 30
0.0
  0
VERTEX
  5
12E
330
12C
100
AcDbEntity
  8
_U+30EC_U+30A4_U+30E4_U+30FC 1
 62
   179
420
  2234388
370
     9
100
AcDbVertex
100
AcDb2dVertex
 10
91.90273626647698
 20
-154.1873132947864
 30
0.0
  0
SEQEND
  5
12F
330
12C
100
AcDbEntity
  8
_U+30EC_U+30A4_U+30E4_U+30FC 1
 62
   179
420
  2234388
370
     9
  0
INSERT
  5
131
330
1F
100
AcDbEntity
  8
_U+30EC_U+30A4_U+30E4_U+30FC 1
100
AcDbBlockReference
  2
block 5
 10
0.0
 20
0.0
 30
0.0
  0
SPLINE
  5
142
330
1F
100
AcDbEntity
  8
_U+30EC_U+30A4_U+30E4_U+30FC 1
 62
   179
420
  2234388
370
     9
100
AcDbSpline
210
0.0
220
0.0
230
1.0
 70
    11
 71
     3
 72
    17
 73
    13
 74
     0
 42
0.0000000001
 43
0.0000000001
 12
1.0
 22
0.0
 32
0.0
 13
1.0
 23
0.0
 33
0.0
 40
0.0
 40
0.0
 40
0.0
 40
0.0
 40
1.0
 40
1.0
 40
1.0
 40
2.0
 40
2.0
 40
2.0
 40
3.0
 40
3.0
 40
3.0
 40
4.0
 40
4.0
 40
4.0
 40
4.0
 10
91.93787293224723
 20
-153.1871882950367
 30
0.0
 10
91.93787293224723
 20
-153.2068380172537
 30
0.0
 10
91.92203321042912
 20
-153.2226777394722
 30
0.0
 10
91.90273626647698
 20
-153.2226777394722
 30
0.0
 10
91.88276904476416
 20
-153.2226777394722
 30
0.0
 10
91.86692932294605
 20
-153.2068380172537
 30
0.0
 10
91.86692932294605
 20
-153.1871882950367
 30
0.0
 10
91.86692932294605
 20
-153.1679266283744
 30
0.0
 10
91.88276904476416
 20
-153.1520516283784
 30
0.0
 10
91.90273626647698
 20
-153.1520516283784
 30
0.0
 10
91.92203321042912
 20
-153.1520516283784
 30
0.0
 10
91.93787293224723
 20
-153.1679266283744
 30
0.0
 10
91.93787293224723
 20
-153.1871882950367
 30
0.0
  0
ENDSEC
  0
SECTION
  2
OBJECTS
  0
DICTIONARY
  5
C
330
0
100
AcDbDictionary
281
     1
  3
ACAD_GROUP
350
D
  3
ACAD_LAYOUT
350
1A
  3
ACAD_MATERIAL
350
3B
  3
ACAD_MLEADERSTYLE
350
144
  3
ACAD_MLINESTYLE
350
17
  3
ACAD_PLOTSETTINGS
350
19
  3
ACAD_PLOTSTYLENAME
350
E
  3
ACAD_TABLESTYLE
350
143
  3
ACAD_VISUALSTYLE
350
2A
  0
SUN
  5
3F
330
29
100
AcDbSun
 90
        1
290
     0
 63
     7
421
 16777215
 40
1.0
291
     1
 91
  2455826
 92
 54000000
292
     0
 70
     2
 71
   256
280
     1
  0
DICTIONARY
  5
D
102
{ACAD_REACTORS
330
C
102
}
330
C
100
AcDbDictionary
281
     1
  0
DICTIONARY
  5
1A
102
{ACAD_REACTORS
330
C
102
}
330
C
100
AcDbDictionary
281
     1
  3
Layout1
350
1E
  3
Layout2
350
26
  3
Model
350
22
  0
DICTIONARY
  5
3B
102
{ACAD_REACTORS
330
C
102
}
330
C
100
AcDbDictionary
281
     1
  3
ByBlock
350
3D
  3
ByLayer
350
3C
  3
Global
350
3E
  0
DICTIONARY
  5
144
102
{ACAD_REACTORS
330
C
102
}
330
C
100
AcDbDictionary
281
     1
  0
DICTIONARY
  5
17
102
{ACAD_REACTORS
330
C
102
}
330
C
100
AcDbDictionary
281
     1
  3
Standard
350
18
  0
DICTIONARY
  5
19
102
{ACAD_REACTORS
330
C
102
}
330
C
100
AcDbDictionary
281
     1
  0
ACDBDICTIONARYWDFLT
  5
E
102
{ACAD_REACTORS
330
C
102
}
330
C
100
AcDbDictionary
281
     1
  3
Normal
350
F
100
AcDbDictionaryWithDefault
340
F
  0
DICTIONARY
  5
143
102
{ACAD_REACTORS
330
C
102
}
330
C
100
AcDbDictionary
281
     1
  0
DICTIONARY
  5
2A
102
{ACAD_REACTORS
330
C
102
}
330
C
100
AcDbDictionary
281
     1
  3
2dWireframe
350
2F
  3
3D Hidden
350
31
  3
3dWireframe
350
30
  3
Basic
350
32
  3
Brighten
350
36
  3
ColorChange
350
3A
  3
Conceptual
350
34
  3
Dim
350
35
  3
Facepattern
350
39
  3
Flat
350
2B
  3
FlatWithEdges
350
2C
  3
Gouraud
350
2D
  3
GouraudWithEdges
350
2E
  3
Linepattern
350
38
  3
Realistic
350
33
  3
Thicken
350
37
  0
LAYOUT
  5
1E
102
{ACAD_REACTORS
330
1A
102
}
330
1A
100
AcDbPlotSettings
  1

  2
none_device
  4

  6

 40
0.0
 41
0.0
 42
0.0
 43
0.0
 44
0.0
 45
0.0
 46
0.0
 47
0.0
 48
0.0
 49
0.0
140
0.0
141
0.0
142
1.0
143
1.0
 70
   688
 72
     0
 73
     0
 74
     5
  7

 75
    16
 76
     0
 77
     2
 78
   300
147
1.0
148
0.0
149
0.0
100
AcDbLayout
  1
Layout1
 70
     1
 71
     1
 10
0.0
 20
0.0
 11
12.0
 21
9.0
 12
0.0
 22
0.0
 32
0.0
 14
1.000000000000000E+20
 24
1.000000000000000E+20
 34
1.000000000000000E+20
 15
-1.000000000000000E+20
 25
-1.000000000000000E+20
 35
-1.000000000000000E+20
146
0.0
 13
0.0
 23
0.0
 33
0.0
 16
1.0
 26
0.0
 36
0.0
 17
0.0
 27
1.0
 37
0.0
 76
     0
330
1B
  0
LAYOUT
  5
26
102
{ACAD_REACTORS
330
1A
102
}
330
1A
100
AcDbPlotSettings
  1

  2
none_device
  4

  6

 40
0.0
 41
0.0
 42
0.0
 43
0.0
 44
0.0
 45
0.0
 46
0.0
 47
0.0
 48
0.0
 49
0.0
140
0.0
141
0.0
142
1.0
143
1.0
 70
   688
 72
     0
 73
     0
 74
     5
  7

 75
    16
 76
     0
 77
     2
 78
   300
147
1.0
148
0.0
149
0.0
100
AcDbLayout
  1
Layout2
 70
     1
 71
     2
 10
0.0
 20
0.0
 11
0.0
 21
0.0
 12
0.0
 22
0.0
 32
0.0
 14
0.0
 24
0.0
 34
0.0
 15
0.0
 25
0.0
 35
0.0
146
0.0
 13
0.0
 23
0.0
 33
0.0
 16
1.0
 26
0.0
 36
0.0
 17
0.0
 27
1.0
 37
0.0
 76
     0
330
23
  0
LAYOUT
  5
22
102
{ACAD_REACTORS
330
1A
102
}
330
1A
100
AcDbPlotSettings
  1

  2
none_device
  4

  6

 40
0.0
 41
0.0
 42
0.0
 43
0.0
 44
0.0
 45
0.0
 46
0.0
 47
0.0
 48
0.0
 49
0.0
140
0.0
141
0.0
142
1.0
143
1.0
 70
  1712
 72
     0
 73
     0
 74
     0
  7

 75
     0
 76
     0
 77
     2
 78
   300
147
1.0
148
0.0
149
0.0
100
AcDbLayout
  1
Model
 70
     1
 71
     0
 10
0.0
 20
0.0
 11
12.0
 21
9.0
 12
0.0
 22
0.0
 32
0.0
 14
1.000000000000000E+20
 24
1.000000000000000E+20
 34
1.000000000000000E+20
 15
-1.000000000000000E+20
 25
-1.000000000000000E+20
 35
-1.000000000000000E+20
146
0.0
 13
0.0
 23
0.0
 33
0.0
 16
1.0
 26
0.0
 36
0.0
 17
0.0
 27
1.0
 37
0.0
 76
     0
330
1F
331
29
  0
MATERIAL
  5
3D
102
{ACAD_REACTORS
330
3B
102
}
330
3B
100
AcDbMaterial
  1
ByBlock
 72
     1
 94
      127
  0
MATERIAL
  5
3C
102
{ACAD_REACTORS
330
3B
102
}
330
3B
100
AcDbMaterial
  1
ByLayer
 72
     1
 94
      127
  0
MATERIAL
  5
3E
102
{ACAD_REACTORS
330
3B
102
}
330
3B
100
AcDbMaterial
  1
Global
 72
     1
 94
      127
  0
MLINESTYLE
  5
18
102
{ACAD_REACTORS
330
17
102
}
330
17
100
AcDbMlineStyle
  2
Standard
 70
     0
  3

 62
   256
 51
90.0
 52
90.0
 71
     2
 49
0.5
 62
   256
  6
BYLAYER
 49
-0.5
 62
   256
  6
BYLAYER
  0
ACDBPLACEHOLDER
  5
F
102
{ACAD_REACTORS
330
E
102
}
330
E
  0
VISUALSTYLE
  5
2F
102
{ACAD_REACTORS
330
2A
102
}
330
2A
100
AcDbVisualStyle
  2
2dWireframe
 70
     4
177
     2
291
     0
 71
     0
176
     1
 72
     2
176
     1
 73
     0
176
     1
 90
        0
176
     1
 40
-0.6
176
     1
 41
-30.0
176
     1
 62
     5
 63
     7
421
 16777215
176
     1
 74
     1
176
     1
 91
        4
176
     1
 64
     7
176
     1
 65
   257
176
     1
 75
     1
176
     1
175
     1
176
     1
 42
1.0
176
     1
 92
        0
176
     1
 66
   257
176
     1
 43
1.0
176
     1
 76
     1
176
     1
 77
     6
176
     1
 78
     2
176
     1
 67
     7
176
     1
 79
     5
176
     1
170
     0
176
     1
171
     0
176
     1
290
     0
176
     1
 93
        1
176
     1
 44
0.0
176
     1
173
     0
176
     1
  0
VISUALSTYLE
  5
31
102
{ACAD_REACTORS
330
2A
102
}
330
2A
100
AcDbVisualStyle
  2
3D Hidden
 70
     6
177
     2
291
     0
 71
     1
176
     1
 72
     2
176
     1
 73
     2
176
     1
 90
        0
176
     1
 40
-0.6
176
     1
 41
-30.0
176
     1
 62
     5
 63
     7
421
 16777215
176
     1
 74
     2
176
     1
 91
        2
176
     1
 64
     7
176
     1
 65
   257
176
     1
 75
     2
176
     1
175
     1
176
     1
 42
40.0
176
     1
 92
        0
176
     1
 66
   257
176
     1
 43
1.0
176
     1
 76
     1
176
     1
 77
     6
176
     1
 78
     2
176
     1
 67
     7
176
     1
 79
     3
176
     1
170
     0
176
     1
171
     0
176
     1
290
     0
176
     1
 93
        1
176
     1
 44
0.0
176
     1
173
     0
176
     1
  0
VISUALSTYLE
  5
30
102
{ACAD_REACTORS
330
2A
102
}
330
2A
100
AcDbVisualStyle
  2
3dWireframe
 70
     5
177
     2
291
     0
 71
     0
176
     1
 72
     2
176
     1
 73
     0
176
     1
 90
        0
176
     1
 40
-0.6
176
     1
 41
-30.0
176
     1
 62
     5
 63
     7
421
 16777215
176
     1
 74
     1
176
     1
 91
        4
176
     1
 64
     7
176
     1
 65
   257
176
     1
 75
     1
176
     1
175
     1
176
     1
 42
1.0
176
     1
 92
        0
176
     1
 66
   257
176
     1
 43
1.0
176
     1
 76
     1
176
     1
 77
     6
176
     1
 78
     2
176
     1
 67
     7
176
     1
 79
     5
176
     1
170
     0
176
     1
171
     0
176
     1
290
     0
176
     1
 93
        1
176
     1
 44
0.0
176
     1
173
     0
176
     1
  0
VISUALSTYLE
  5
32
102
{ACAD_REACTORS
330
2A
102
}
330
2A
100
AcDbVisualStyle
  2
Basic
 70
     7
177
     2
291
     1
 71
     1
176
     1
 72
     0
176
     1
 73
     1
176
     1
 90
        0
176
     1
 40
-0.6
176
     1
 41
-30.0
176
     1
 62
     5
 63
     7
421
 16777215
176
     1
 74
     0
176
     1
 91
        4
176
     1
 64
     7
176
     1
 65
   257
176
     1
 75
     1
176
     1
175
     1
176
     1
 42
1.0
176
     1
 92
        8
176
     1
 66
     7
176
     1
 43
1.0
176
     1
 76
     1
176
     1
 77
     6
176
     1
 78
     2
176
     1
 67
     7
176
     1
 79
     5
176
     1
170
     0
176
     1
171
     0
176
     1
290
     0
176
     1
 93
        1
176
     1
 44
0.0
176
     1
173
     0
176
     1
  0
VISUALSTYLE
  5
36
102
{ACAD_REACTORS
330
2A
102
}
330
2A
100
AcDbVisualStyle
  2
Brighten
 70
    12
177
     2
291
     1
 71
     2
176
     1
 72
     2
176
     1
 73
     0
176
     1
 90
        0
176
     1
 40
-0.6
176
     1
 41
-30.0
176
     1
 62
     5
 63
     7
421
 16777215
176
     1
 74
     1
176
     1
 91
        4
176
     1
 64
     7
176
     1
 65
   257
176
     1
 75
     1
176
     1
175
     1
176
     1
 42
1.0
176
     1
 92
        8
176
     1
 66
     7
176
     1
 43
1.0
176
     1
 76
     1
176
     1
 77
     6
176
     1
 78
     2
176
     1
 67
     7
176
     1
 79
     5
176
     1
170
     0
176
     1
171
     0
176
     1
290
     0
176
     1
 93
        1
176
     1
 44
50.0
176
     1
173
     0
176
     1
  0
VISUALSTYLE
  5
3A
102
{ACAD_REACTORS
330
2A
102
}
330
2A
100
AcDbVisualStyle
  2
ColorChange
 70
    16
177
     2
291
     1
 71
     2
176
     1
 72
     2
176
     1
 73
     3
176
     1
 90
        0
176
     1
 40
-0.6
176
     1
 41
-30.0
176
     1
 62
     5
 63
     8
421
  8421504
176
     1
 74
     1
176
     1
 91
        4
176
     1
 64
     7
176
     1
 65
   257
176
     1
 75
     1
176
     1
175
     1
176
     1
 42
1.0
176
     1
 92
        8
176
     1
 66
     8
424
  8421504
176
     1
 43
1.0
176
     1
 76
     1
176
     1
 77
     6
176
     1
 78
     2
176
     1
 67
     7
176
     1
 79
     5
176
     1
170
     0
176
     1
171
     0
176
     1
290
     0
176
     1
 93
        1
176
     1
 44
0.0
176
     1
173
     0
176
     1
  0
VISUALSTYLE
  5
34
102
{ACAD_REACTORS
330
2A
102
}
330
2A
100
AcDbVisualStyle
  2
Conceptual
 70
     9
177
     2
291
     0
 71
     3
176
     1
 72
     2
176
     1
 73
     0
176
     1
 90
        0
176
     1
 40
-0.6
176
     1
 41
-30.0
176
     1
 62
     5
 63
     7
421
 16777215
176
     1
 74
     2
176
     1
 91
        2
176
     1
 64
     7
176
     1
 65
   257
176
     1
 75
     1
176
     1
175
     1
176
     1
 42
40.0
176
     1
 92
        8
176
     1
 66
     7
176
     1
 43
1.0
176
     1
 76
     1
176
     1
 77
     6
176
     1
 78
     2
176
     1
 67
     7
176
     1
 79
     3
176
     1
170
     0
176
     1
171
     0
176
     1
290
     0
176
     1
 93
        1
176
     1
 44
0.0
176
     1
173
     0
176
     1
  0
VISUALSTYLE
  5
35
102
{ACAD_REACTORS
330
2A
102
}
330
2A
100
AcDbVisualStyle
  2
Dim
 70
    11
177
     2
291
     1
 71
     2
176
     1
 72
     2
176
     1
 73
     0
176
     1
 90
        0
176
     1
 40
-0.6
176
     1
 41
-30.0
176
     1
 62
     5
 63
     7
421
 16777215
176
     1
 74
     1
176
     1
 91
        4
176
     1
 64
     7
176
     1
 65
   257
176
     1
 75
     1
176
     1
175
     1
176
     1
 42
1.0
176
     1
 92
        8
176
     1
 66
     7
176
     1
 43
1.0
176
     1
 76
     1
176
     1
 77
     6
176
     1
 78
     2
176
     1
 67
     7
176
     1
 79
     5
176
     1
170
     0
176
     1
171
     0
176
     1
290
     0
176
     1
 93
        1
176
     1
 44
-50.0
176
     1
173
     0
176
     1
  0
VISUALSTYLE
  5
39
102
{ACAD_REACTORS
330
2A
102
}
330
2A
100
AcDbVisualStyle
  2
Facepattern
 70
    15
177
     2
291
     1
 71
     2
176
     1
 72
     2
176
     1
 73
     0
176
     1
 90
        0
176
     1
 40
-0.6
176
     1
 41
-30.0
176
     1
 62
     5
 63
     7
421
 16777215
176
     1
 74
     1
176
     1
 91
        4
176
     1
 64
     7
176
     1
 65
   257
176
     1
 75
     1
176
     1
175
     1
176
     1
 42
1.0
176
     1
 92
        8
176
     1
 66
     7
176
     1
 43
1.0
176
     1
 76
     1
176
     1
 77
     6
176
     1
 78
     2
176
     1
 67
     7
176
     1
 79
     5
176
     1
170
     0
176
     1
171
     0
176
     1
290
     0
176
     1
 93
        1
176
     1
 44
0.0
176
     1
173
     0
176
     1
  0
VISUALSTYLE
  5
2B
102
{ACAD_REACTORS
330
2A
102
}
330
2A
100
AcDbVisualStyle
  2
Flat
 70
     0
177
     2
291
     1
 71
     2
176
     1
 72
     1
176
     1
 73
     1
176
     1
 90
        2
176
     1
 40
-0.6
176
     1
 41
30.0
176
     1
 62
     5
 63
     7
421
 16777215
176
     1
 74
     0
176
     1
 91
        4
176
     1
 64
     7
176
     1
 65
   257
176
     1
 75
     1
176
     1
175
     1
176
     1
 42
1.0
176
     1
 92
        8
176
     1
 66
     7
176
     1
 43
1.0
176
     1
 76
     1
176
     1
 77
     6
176
     1
 78
     2
176
     1
 67
     7
176
     1
 79
     5
176
     1
170
     0
176
     1
171
     0
176
     1
290
     0
176
     1
 93
       13
176
     1
 44
0.0
176
     1
173
     0
176
     1
  0
VISUALSTYLE
  5
2C
102
{ACAD_REACTORS
330
2A
102
}
330
2A
100
AcDbVisualStyle
  2
FlatWithEdges
 70
     1
177
     2
291
     1
 71
     2
176
     1
 72
     1
176
     1
 73
     1
176
     1
 90
        2
176
     1
 40
-0.6
176
     1
 41
30.0
176
     1
 62
     5
 63
     7
421
 16777215
176
     1
 74
     1
176
     1
 91
        4
176
     1
 64
     7
176
     1
 65
   257
176
     1
 75
     1
176
     1
175
     1
176
     1
 42
1.0
176
     1
 92
        0
176
     1
 66
   257
176
     1
 43
1.0
176
     1
 76
     1
176
     1
 77
     6
176
     1
 78
     2
176
     1
 67
     7
176
     1
 79
     5
176
     1
170
     0
176
     1
171
     0
176
     1
290
     0
176
     1
 93
       13
176
     1
 44
0.0
176
     1
173
     0
176
     1
  0
VISUALSTYLE
  5
2D
102
{ACAD_REACTORS
330
2A
102
}
330
2A
100
AcDbVisualStyle
  2
Gouraud
 70
     2
177
     2
291
     1
 71
     2
176
     1
 72
     2
176
     1
 73
     1
176
     1
 90
        2
176
     1
 40
-0.6
176
     1
 41
30.0
176
     1
 62
     5
 63
     7
421
 16777215
176
     1
 74
     0
176
     1
 91
        4
176
     1
 64
     7
176
     1
 65
   257
176
     1
 75
     1
176
     1
175
     1
176
     1
 42
1.0
176
     1
 92
        0
176
     1
 66
     7
176
     1
 43
1.0
176
     1
 76
     1
176
     1
 77
     6
176
     1
 78
     2
176
     1
 67
     7
176
     1
 79
     5
176
     1
170
     0
176
     1
171
     0
176
     1
290
     0
176
     1
 93
       13
176
     1
 44
0.0
176
     1
173
     0
176
     1
  0
VISUALSTYLE
  5
2E
102
{ACAD_REACTORS
330
2A
102
}
330
2A
100
AcDbVisualStyle
  2
GouraudWithEdges
 70
     3
177
     2
291
     1
 71
     2
176
     1
 72
     2
176
     1
 73
     1
176
     1
 90
        2
176
     1
 40
-0.6
176
     1
 41
30.0
176
     1
 62
     5
 63
     7
421
 16777215
176
     1
 74
     1
176
     1
 91
        4
176
     1
 64
     7
176
     1
 65
   257
176
     1
 75
     1
176
     1
175
     1
176
     1
 42
1.0
176
     1
 92
        0
176
     1
 66
   257
176
     1
 43
1.0
176
     1
 76
     1
176
     1
 77
     6
176
     1
 78
     2
176
     1
 67
     7
176
     1
 79
     5
176
     1
170
     0
176
     1
171
     0
176
     1
290
     0
176
     1
 93
       13
176
     1
 44
0.0
176
     1
173
     0
176
     1
  0
VISUALSTYLE
  5
38
102
{ACAD_REACTORS
330
2A
102
}
330
2A
100
AcDbVisualStyle
  2
Linepattern
 70
    14
177
     2
291
     1
 71
     2
176
     1
 72
     2
176
     1
 73
     0
176
     1
 90
        0
176
     1
 40
-0.6
176
     1
 41
-30.0
176
     1
 62
     5
 63
     7
421
 16777215
176
     1
 74
     1
176
     1
 91
        4
176
     1
 64
     7
176
     1
 65
   257
176
     1
 75
     7
176
     1
175
     7
176
     1
 42
1.0
176
     1
 92
        8
176
     1
 66
     7
176
     1
 43
1.0
176
     1
 76
     1
176
     1
 77
     6
176
     1
 78
     2
176
     1
 67
     7
176
     1
 79
     5
176
     1
170
     0
176
     1
171
     0
176
     1
290
     0
176
     1
 93
        1
176
     1
 44
0.0
176
     1
173
     0
176
     1
  0
VISUALSTYLE
  5
33
102
{ACAD_REACTORS
330
2A
102
}
330
2A
100
AcDbVisualStyle
  2
Realistic
 70
     8
177
     2
291
     0
 71
     2
176
     1
 72
     2
176
     1
 73
     0
176
     1
 90
        0
176
     1
 40
-0.6
176
     1
 41
-30.0
176
     1
 62
     5
 63
     7
421
 16777215
176
     1
 74
     1
176
     1
 91
        0
176
     1
 64
     7
176
     1
 65
   257
176
     1
 75
     1
176
     1
175
     1
176
     1
 42
1.0
176
     1
 92
        8
176
     1
 66
     8
424
  7895160
176
     1
 43
1.0
176
     1
 76
     1
176
     1
 77
     6
176
     1
 78
     2
176
     1
 67
     7
176
     1
 79
     5
176
     1
170
     0
176
     1
171
     0
176
     1
290
     0
176
     1
 93
       13
176
     1
 44
0.0
176
     1
173
     0
176
     1
  0
VISUALSTYLE
  5
37
102
{ACAD_REACTORS
330
2A
102
}
330
2A
100
AcDbVisualStyle
  2
Thicken
 70
    13
177
     2
291
     1
 71
     2
176
     1
 72
     2
176
     1
 73
     0
176
     1
 90
        0
176
     1
 40
-0.6
176
     1
 41
-30.0
176
     1
 62
     5
 63
     7
421
 16777215
176
     1
 74
     1
176
     1
 91
        4
176
     1
 64
     7
176
     1
 65
   257
176
     1
 75
     1
176
     1
175
     1
176
     1
 42
1.0
176
     1
 92
       12
176
     1
 66
     7
176
     1
 43
1.0
176
     1
 76
     1
176
     1
 77
     6
176
     1
 78
     2
176
     1
 67
     7
176
     1
 79
     5
176
     1
170
     0
176
     1
171
     0
176
     1
290
     0
176
     1
 93
        1
176
     1
 44
0.0
176
     1
173
     0
176
     1
  0
ENDSEC
  0
EOF
