  0
SECTION
  2
HEADER
  9
$ACADVER
  1
AC1024
  9
$ACADMAINTVER
 70
     6
  9
$DWGCODEPAGE
  3
UNDEFINED
  9
$INSBASE
 10
0.0
 20
0.0
 30
0.0
  9
$EXTMIN
 10
1.000000000000000E+20
 20
1.000000000000000E+20
 30
1.000000000000000E+20
  9
$EXTMAX
 10
-1.000000000000000E+20
 20
-1.000000000000000E+20
 30
-1.000000000000000E+20
  9
$LIMMIN
 10
0.0
 20
0.0
  9
$LIMMAX
 10
12.0
 20
9.0
  9
$ORTHOMODE
 70
     0
  9
$REGENMODE
 70
     1
  9
$FILLMODE
 70
     1
  9
$QTEXTMODE
 70
     0
  9
$MIRRTEXT
 70
     1
  9
$LTSCALE
 40
1.0
  9
$ATTMODE
 70
     1
  9
$TEXTSIZE
 40
0.2
  9
$TRACEWID
 40
0.05
  9
$TEXTSTYLE
  7
Standard
  9
$CLAYER
  8
0
  9
$CELTYPE
  6
ByLayer
  9
$CECOLOR
 62
   256
  9
$CELTSCALE
 40
1.0
  9
$DISPSILH
 70
     0
  9
$DIMSCALE
 40
1.0
  9
$DIMASZ
 40
0.18
  9
$DIMEXO
 40
0.0625
  9
$DIMDLI
 40
0.38
  9
$DIMRND
 40
0.0
  9
$DIMDLE
 40
0.0
  9
$DIMEXE
 40
0.18
  9
$DIMTP
 40
0.0
  9
$DIMTM
 40
0.0
  9
$DIMTXT
 40
0.18
  9
$DIMCEN
 40
0.09
  9
$DIMTSZ
 40
0.0
  9
$DIMTOL
 70
     0
  9
$DIMLIM
 70
     0
  9
$DIMTIH
 70
     1
  9
$DIMTOH
 70
     1
  9
$DIMSE1
 70
     0
  9
$DIMSE2
 70
     0
  9
$DIMTAD
 70
     0
  9
$DIMZIN
 70
     0
  9
$DIMBLK
  1

  9
$DIMASO
 70
     1
  9
$DIMSHO
 70
     1
  9
$DIMPOST
  1

  9
$DIMAPOST
  1

  9
$DIMALT
 70
     0
  9
$DIMALTD
 70
     2
  9
$DIMALTF
 40
25.4
  9
$DIMLFAC
 40
1.0
  9
$DIMTOFL
 70
     0
  9
$DIMTVP
 40
0.0
  9
$DIMTIX
 70
     0
  9
$DIMSOXD
 70
     0
  9
$DIMSAH
 70
     0
  9
$DIMBLK1
  1

  9
$DIMBLK2
  1

  9
$DIMSTYLE
  2
Standard
  9
$DIMCLRD
 70
     0
  9
$DIMCLRE
 70
     0
  9
$DIMCLRT
 70
     0
  9
$DIMTFAC
 40
1.0
  9
$DIMGAP
 40
0.09
  9
$DIMJUST
 70
     0
  9
$DIMSD1
 70
     0
  9
$DIMSD2
 70
     0
  9
$DIMTOLJ
 70
     1
  9
$DIMTZIN
 70
     0
  9
$DIMALTZ
 70
     0
  9
$DIMALTTZ
 70
     0
  9
$DIMUPT
 70
     0
  9
$DIMDEC
 70
     4
  9
$DIMTDEC
 70
     4
  9
$DIMALTU
 70
     2
  9
$DIMALTTD
 70
     2
  9
$DIMTXSTY
  7
Standard
  9
$DIMAUNIT
 70
     0
  9
$DIMADEC
 70
     0
  9
$DIMALTRND
 40
0.0
  9
$DIMAZIN
 70
     0
  9
$DIMDSEP
 70
    46
  9
$DIMATFIT
 70
     3
  9
$DIMFRAC
 70
     0
  9
$DIMLDRBLK
  1

  9
$DIMLUNIT
 70
     2
  9
$DIMLWD
 70
    -2
  9
$DIMLWE
 70
    -2
  9
$DIMTMOVE
 70
     0
  9
$DIMFXL
 40
1.0
  9
$DIMFXLON
 70
     0
  9
$DIMJOGANG
 40
0.7853981633974483
  9
$DIMTFILL
 70
     0
  9
$DIMTFILLCLR
 70
     0
  9
$DIMARCSYM
 70
     0
  9
$DIMLTYPE
  6

  9
$DIMLTEX1
  6

  9
$DIMLTEX2
  6

  9
$DIMTXTDIRECTION
 70
     0
  9
$LUNITS
 70
     2
  9
$LUPREC
 70
     4
  9
$SKETCHINC
 40
0.1
  9
$FILLETRAD
 40
0.5
  9
$AUNITS
 70
     0
  9
$AUPREC
 70
     0
  9
$MENU
  1
.
  9
$ELEVATION
 40
0.0
  9
$PELEVATION
 40
0.0
  9
$THICKNESS
 40
0.0
  9
$LIMCHECK
 70
     0
  9
$CHAMFERA
 40
0.5
  9
$CHAMFERB
 40
0.5
  9
$CHAMFERC
 40
1.0
  9
$CHAMFERD
 40
0.0
  9
$SKPOLY
 70
     0
  9
$TDCREATE
 40
2457917.63616897
  9
$TDUCREATE
 40
2457917.261168981
  9
$TDUPDATE
 40
2457917.63616897
  9
$TDUUPDATE
 40
2457917.261168981
  9
$TDINDWG
 40
0.0000000116
  9
$TDUSRTIMER
 40
0.0000000116
  9
$USRTIMER
 70
     1
  9
$ANGBASE
 50
0.0
  9
$ANGDIR
 70
     0
  9
$PDMODE
 70
     0
  9
$PDSIZE
 40
0.0
  9
$PLINEWID
 40
0.0
  9
$SPLFRAME
 70
     0
  9
$SPLINETYPE
 70
     6
  9
$SPLINESEGS
 70
     8
  9
$HANDSEED
  5
169
  9
$SURFTAB1
 70
     6
  9
$SURFTAB2
 70
     6
  9
$SURFTYPE
 70
     6
  9
$SURFU
 70
     6
  9
$SURFV
 70
     6
  9
$UCSBASE
  2

  9
$UCSNAME
  2

  9
$UCSORG
 10
0.0
 20
0.0
 30
0.0
  9
$UCSXDIR
 10
1.0
 20
0.0
 30
0.0
  9
$UCSYDIR
 10
0.0
 20
1.0
 30
0.0
  9
$UCSORTHOREF
  2

  9
$UCSORTHOVIEW
 70
     0
  9
$UCSORGTOP
 10
0.0
 20
0.0
 30
0.0
  9
$UCSORGBOTTOM
 10
0.0
 20
0.0
 30
0.0
  9
$UCSORGLEFT
 10
0.0
 20
0.0
 30
0.0
  9
$UCSORGRIGHT
 10
0.0
 20
0.0
 30
0.0
  9
$UCSORGFRONT
 10
0.0
 20
0.0
 30
0.0
  9
$UCSORGBACK
 10
0.0
 20
0.0
 30
0.0
  9
$PUCSBASE
  2

  9
$PUCSNAME
  2

  9
$PUCSORG
 10
0.0
 20
0.0
 30
0.0
  9
$PUCSXDIR
 10
1.0
 20
0.0
 30
0.0
  9
$PUCSYDIR
 10
0.0
 20
1.0
 30
0.0
  9
$PUCSORTHOREF
  2

  9
$PUCSORTHOVIEW
 70
     0
  9
$PUCSORGTOP
 10
0.0
 20
0.0
 30
0.0
  9
$PUCSORGBOTTOM
 10
0.0
 20
0.0
 30
0.0
  9
$PUCSORGLEFT
 10
0.0
 20
0.0
 30
0.0
  9
$PUCSORGRIGHT
 10
0.0
 20
0.0
 30
0.0
  9
$PUCSORGFRONT
 10
0.0
 20
0.0
 30
0.0
  9
$PUCSORGBACK
 10
0.0
 20
0.0
 30
0.0
  9
$USERI1
 70
     0
  9
$USERI2
 70
     0
  9
$USERI3
 70
     0
  9
$USERI4
 70
     0
  9
$USERI5
 70
     0
  9
$USERR1
 40
0.0
  9
$USERR2
 40
0.0
  9
$USERR3
 40
0.0
  9
$USERR4
 40
0.0
  9
$USERR5
 40
0.0
  9
$WORLDVIEW
 70
     1
  9
$SHADEDGE
 70
     3
  9
$SHADEDIF
 70
    70
  9
$TILEMODE
 70
     1
  9
$MAXACTVP
 70
    64
  9
$PINSBASE
 10
0.0
 20
0.0
 30
0.0
  9
$PLIMCHECK
 70
     0
  9
$PEXTMIN
 10
1.000000000000000E+20
 20
1.000000000000000E+20
 30
1.000000000000000E+20
  9
$PEXTMAX
 10
-1.000000000000000E+20
 20
-1.000000000000000E+20
 30
-1.000000000000000E+20
  9
$PLIMMIN
 10
0.0
 20
0.0
  9
$PLIMMAX
 10
12.0
 20
9.0
  9
$UNITMODE
 70
     0
  9
$VISRETAIN
 70
     1
  9
$PLINEGEN
 70
     0
  9
$PSLTSCALE
 70
     1
  9
$TREEDEPTH
 70
  3020
  9
$CMLSTYLE
  2
Standard
  9
$CMLJUST
 70
     0
  9
$CMLSCALE
 40
1.0
  9
$PROXYGRAPHICS
 70
     1
  9
$MEASUREMENT
 70
     0
  9
$CELWEIGHT
370
    -1
  9
$ENDCAPS
280
     0
  9
$JOINSTYLE
280
     0
  9
$LWDISPLAY
290
     1
  9
$INSUNITS
 70
     1
  9
$HYPERLINKBASE
  1

  9
$STYLESHEET
  1

  9
$XEDIT
290
     1
  9
$CEPSNTYPE
380
     0
  9
$PSTYLEMODE
290
     1
  9
$FINGERPRINTGUID
  2
{43FC4AF5-A2FF-E444-E208-947575ACAE54}
  9
$VERSIONGUID
  2
{FAEB1C32-E019-11D5-929B-00C0DF256EC4}
  9
$EXTNAMES
290
     1
  9
$PSVPSCALE
 40
0.0
  9
$OLESTARTUP
290
     0
  9
$SORTENTS
280
   127
  9
$INDEXCTL
280
     0
  9
$HIDETEXT
280
     1
  9
$XCLIPFRAME
280
     2
  9
$HALOGAP
280
     0
  9
$OBSCOLOR
 70
   257
  9
$OBSLTYPE
280
     0
  9
$INTERSECTIONDISPLAY
280
     0
  9
$INTERSECTIONCOLOR
 70
   257
  9
$DIMASSOC
280
     2
  9
$PROJECTNAME
  1

  9
$CAMERADISPLAY
290
     0
  9
$LENSLENGTH
 40
50.0
  9
$CAMERAHEIGHT
 40
0.0
  9
$STEPSPERSEC
 40
2.0
  9
$STEPSIZE
 40
6.0
  9
$3DDWFPREC
 40
2.0
  9
$PSOLWIDTH
 40
0.25
  9
$PSOLHEIGHT
 40
4.0
  9
$LOFTANG1
 40
1.570796326794897
  9
$LOFTANG2
 40
1.570796326794897
  9
$LOFTMAG1
 40
0.0
  9
$LOFTMAG2
 40
0.0
  9
$LOFTPARAM
 70
     7
  9
$LOFTNORMALS
280
     1
  9
$LATITUDE
 40
37.795
  9
$LONGITUDE
 40
-122.394
  9
$NORTHDIRECTION
 40
0.0
  9
$TIMEZONE
 70
 -8000
  9
$LIGHTGLYPHDISPLAY
280
     1
  9
$TILEMODELIGHTSYNCH
280
     1
  9
$CMATERIAL
347
3C
  9
$SOLIDHIST
280
     1
  9
$SHOWHIST
280
     1
  9
$DWFFRAME
280
     2
  9
$DGNFRAME
280
     2
  9
$REALWORLDSCALE
290
     1
  9
$INTERFERECOLOR
 62
   256
  9
$CSHADOW
280
     0
  9
$SHADOWPLANELOCATION
 40
0.0
  0
ENDSEC
  0
SECTION
  2
CLASSES
  0
CLASS
  1
ACDBDICTIONARYWDFLT
  2
AcDbDictionaryWithDefault
  3
ObjectDBX Classes
 90
        0
 91
        4
280
     0
281
     0
  0
CLASS
  1
VISUALSTYLE
  2
AcDbVisualStyle
  3
ObjectDBX Classes
 90
     4095
 91
        4
280
     0
281
     0
  0
CLASS
  1
MATERIAL
  2
AcDbMaterial
  3
ObjectDBX Classes
 90
     1153
 91
        4
280
     0
281
     0
  0
CLASS
  1
SUN
  2
AcDbSun
  3
SCENEOE
 90
     1024
 91
        4
280
     0
281
     0
  0
ENDSEC
  0
SECTION
  2
TABLES
  0
TABLE
  2
VPORT
  5
8
330
0
100
AcDbSymbolTable
 70
     1
  0
VPORT
  5
29
330
8
100
AcDbSymbolTableRecord
100
AcDbViewportTableRecord
  2
*Active
 70
     0
 10
0.0
 20
0.0
 11
1.0
 21
1.0
 12
0.0
 22
0.0
 13
0.0
 23
0.0
 14
0.5
 24
0.5
 15
0.5
 25
0.5
 16
0.0
 26
0.0
 36
1.0
 17
91.00082462281999
 27
-128.4993055234307
 37
0.0
 40
256.9986110468615
 41
0.7081814508812795
 42
50.0
 43
0.0
 44
0.0
 50
0.0
 51
0.0
 71
     0
 72
   100
 73
     1
 74
     3
 75
     0
 76
     0
 77
     0
 78
     0
281
     0
 65
     1
110
0.0
120
0.0
130
0.0
111
1.0
121
0.0
131
0.0
112
0.0
122
1.0
132
0.0
 79
     0
146
0.0
 60
     3
 61
     5
292
     1
282
     1
141
0.0
142
0.0
 63
   250
361
3F
  0
ENDTAB
  0
TABLE
  2
LTYPE
  5
5
330
0
100
AcDbSymbolTable
 70
     1
  0
LTYPE
  5
14
330
5
100
AcDbSymbolTableRecord
100
AcDbLinetypeTableRecord
  2
ByBlock
 70
     0
  3

 72
    65
 73
     0
 40
0.0
  0
LTYPE
  5
15
330
5
100
AcDbSymbolTableRecord
100
AcDbLinetypeTableRecord
  2
ByLayer
 70
     0
  3

 72
    65
 73
     0
 40
0.0
  0
LTYPE
  5
16
330
5
100
AcDbSymbolTableRecord
100
AcDbLinetypeTableRecord
  2
Continuous
 70
     0
  3
Solid line
 72
    65
 73
     0
 40
0.0
  0
ENDTAB
  0
TABLE
  2
LAYER
  5
2
330
0
100
AcDbSymbolTable
 70
     2
  0
LAYER
  5
10
330
2
100
AcDbSymbolTableRecord
100
AcDbLayerTableRecord
  2
0
 70
     0
 62
     7
  6
Continuous
370
    -3
390
F
347
3E
  0
LAYER
  5
40
330
2
100
AcDbSymbolTableRecord
100
AcDbLayerTableRecord
  2
_U+30EC_U+30A4_U+30E4_U+30FC 1
 70
     0
 62
     7
  6
Continuous
370
    -3
390
F
347
3E
  0
ENDTAB
  0
TABLE
  2
STYLE
  5
3
330
0
100
AcDbSymbolTable
 70
     1
  0
STYLE
  5
11
330
3
100
AcDbSymbolTableRecord
100
AcDbTextStyleTableRecord
  2
Standard
 70
     0
 40
0.0
 41
1.0
 50
0.0
 71
     0
 42
0.2
  3
txt
  4

  0
ENDTAB
  0
TABLE
  2
VIEW
  5
6
330
0
100
AcDbSymbolTable
 70
     0
  0
ENDTAB
  0
TABLE
  2
UCS
  5
7
330
0
100
AcDbSymbolTable
 70
     0
  0
ENDTAB
  0
TABLE
  2
APPID
  5
9
330
0
100
AcDbSymbolTable
 70
     1
  0
APPID
  5
12
330
9
100
AcDbSymbolTableRecord
100
AcDbRegAppTableRecord
  2
ACAD
 70
     0
  0
ENDTAB
  0
TABLE
  2
DIMSTYLE
  5
A
330
0
100
AcDbSymbolTable
 70
     1
100
AcDbDimStyleTable
  0
DIMSTYLE
105
27
330
A
100
AcDbSymbolTableRecord
100
AcDbDimStyleTableRecord
  2
Standard
 70
     0
178
     0
340
11
  0
ENDTAB
  0
TABLE
  2
BLOCK_RECORD
  5
1
330
0
100
AcDbSymbolTable
 70
    19
  0
BLOCK_RECORD
  5
1F
330
1
100
AcDbSymbolTableRecord
100
AcDbBlockTableRecord
  2
*Model_Space
340
22
 70
     0
280
     1
281
     0
  0
BLOCK_RECORD
  5
1B
330
1
100
AcDbSymbolTableRecord
100
AcDbBlockTableRecord
  2
*Paper_Space
340
1E
 70
     0
280
     1
281
     0
  0
BLOCK_RECORD
  5
23
330
1
100
AcDbSymbolTableRecord
100
AcDbBlockTableRecord
  2
*Paper_Space0
340
26
 70
     0
280
     1
281
     0
  0
BLOCK_RECORD
  5
41
330
1
100
AcDbSymbolTableRecord
100
AcDbBlockTableRecord
  2
block 2
340
0
102
{BLKREFS
331
42
102
}
 70
     0
280
     1
281
     0
  0
BLOCK_RECORD
  5
B5
330
1
100
AcDbSymbolTableRecord
100
AcDbBlockTableRecord
  2
block 3
340
0
102
{BLKREFS
331
B6
102
}
 70
     0
280
     1
281
     0
  0
BLOCK_RECORD
  5
C5
330
1
100
AcDbSymbolTableRecord
100
AcDbBlockTableRecord
  2
block 4
340
0
102
{BLKREFS
331
C6
102
}
 70
     0
280
     1
281
     0
  0
BLOCK_RECORD
  5
CD
330
1
100
AcDbSymbolTableRecord
100
AcDbBlockTableRecord
  2
block 5
340
0
102
{BLKREFS
331
CE
102
}
 70
     0
280
     1
281
     0
  0
BLOCK_RECORD
  5
D2
330
1
100
AcDbSymbolTableRecord
100
AcDbBlockTableRecord
  2
block 6
340
0
102
{BLKREFS
331
D3
102
}
 70
     0
280
     1
281
     0
  0
BLOCK_RECORD
  5
D7
330
1
100
AcDbSymbolTableRecord
100
AcDbBlockTableRecord
  2
block 7
340
0
102
{BLKREFS
331
D8
102
}
 70
     0
280
     1
281
     0
  0
BLOCK_RECORD
  5
DC
330
1
100
AcDbSymbolTableRecord
100
AcDbBlockTableRecord
  2
block 8
340
0
102
{BLKREFS
331
DD
102
}
 70
     0
280
     1
281
     0
  0
BLOCK_RECORD
  5
EC
330
1
100
AcDbSymbolTableRecord
100
AcDbBlockTableRecord
  2
block 9
340
0
102
{BLKREFS
331
ED
102
}
 70
     0
280
     1
281
     0
  0
BLOCK_RECORD
  5
F2
330
1
100
AcDbSymbolTableRecord
100
AcDbBlockTableRecord
  2
block 10
340
0
102
{BLKREFS
331
F3
102
}
 70
     0
280
     1
281
     0
  0
BLOCK_RECORD
  5
F7
330
1
100
AcDbSymbolTableRecord
100
AcDbBlockTableRecord
  2
block 11
340
0
102
{BLKREFS
331
F8
102
}
 70
     0
280
     1
281
     0
  0
BLOCK_RECORD
  5
FC
330
1
100
AcDbSymbolTableRecord
100
AcDbBlockTableRecord
  2
block 12
340
0
102
{BLKREFS
331
FD
102
}
 70
     0
280
     1
281
     0
  0
BLOCK_RECORD
  5
101
330
1
100
AcDbSymbolTableRecord
100
AcDbBlockTableRecord
  2
block 13
340
0
102
{BLKREFS
331
102
102
}
 70
     0
280
     1
281
     0
  0
BLOCK_RECORD
  5
118
330
1
100
AcDbSymbolTableRecord
100
AcDbBlockTableRecord
  2
block 14
340
0
102
{BLKREFS
331
119
102
}
 70
     0
280
     1
281
     0
  0
BLOCK_RECORD
  5
11E
330
1
100
AcDbSymbolTableRecord
100
AcDbBlockTableRecord
  2
block 15
340
0
102
{BLKREFS
331
11F
102
}
 70
     0
280
     1
281
     0
  0
BLOCK_RECORD
  5
12E
330
1
100
AcDbSymbolTableRecord
100
AcDbBlockTableRecord
  2
block 16
340
0
102
{BLKREFS
331
12F
102
}
 70
     0
280
     1
281
     0
  0
BLOCK_RECORD
  5
13E
330
1
100
AcDbSymbolTableRecord
100
AcDbBlockTableRecord
  2
block 17
340
0
102
{BLKREFS
331
13F
102
}
 70
     0
280
     1
281
     0
  0
BLOCK_RECORD
  5
151
330
1
100
AcDbSymbolTableRecord
100
AcDbBlockTableRecord
  2
block 18
340
0
102
{BLKREFS
331
152
102
}
 70
     0
280
     1
281
     0
  0
BLOCK_RECORD
  5
162
330
1
100
AcDbSymbolTableRecord
100
AcDbBlockTableRecord
  2
block 19
340
0
102
{BLKREFS
331
163
102
}
 70
     0
280
     1
281
     0
  0
ENDTAB
  0
ENDSEC
  0
SECTION
  2
BLOCKS
  0
BLOCK
  5
20
330
1F
100
AcDbEntity
  8
0
100
AcDbBlockBegin
  2
*Model_Space
 70
     0
 10
0.0
 20
0.0
 30
0.0
  3
*Model_Space
  1

  0
ENDBLK
  5
21
330
1F
100
AcDbEntity
  8
0
100
AcDbBlockEnd
  0
BLOCK
  5
1C
330
1B
100
AcDbEntity
 67
     1
  8
0
100
AcDbBlockBegin
  2
*Paper_Space
 70
     0
 10
0.0
 20
0.0
 30
0.0
  3
*Paper_Space
  1

  0
ENDBLK
  5
1D
330
1B
100
AcDbEntity
 67
     1
  8
0
100
AcDbBlockEnd
  0
BLOCK
  5
24
330
23
100
AcDbEntity
  8
0
100
AcDbBlockBegin
  2
*Paper_Space0
 70
     0
 10
0.0
 20
0.0
 30
0.0
  3
*Paper_Space0
  1

  0
ENDBLK
  5
25
330
23
100
AcDbEntity
  8
0
100
AcDbBlockEnd
  0
BLOCK
  5
43
330
41
100
AcDbEntity
  8
0
100
AcDbBlockBegin
  2
block 2
 70
     0
 10
0.0
 20
0.0
 30
0.0
  3
block 2
  1

  0
POLYLINE
  5
45
330
41
100
AcDbEntity
  8
_U+30EC_U+30A4_U+30E4_U+30FC 1
 62
   179
420
  2234388
370
    25
100
AcDb2dPolyline
 66
     1
 10
0.0
 20
0.0
 30
0.0
  0
VERTEX
  5
46
330
45
100
AcDbEntity
  8
_U+30EC_U+30A4_U+30E4_U+30FC 1
 62
   179
420
  2234388
370
    25
100
AcDbVertex
100
AcDb2dVertex
 10
95.05981507482207
 20
-143.8840855195844
 30
0.0
  0
VERTEX
  5
47
330
45
100
AcDbEntity
  8
_U+30EC_U+30A4_U+30E4_U+30FC 1
 62
   179
420
  2234388
370
    25
100
AcDbVertex
100
AcDb2dVertex
 10
95.05981507482207
 20
-144.8841752415565
 30
0.0
  0
SEQEND
  5
48
330
45
100
AcDbEntity
  8
_U+30EC_U+30A4_U+30E4_U+30FC 1
 62
   179
420
  2234388
370
    25
  0
POLYLINE
  5
49
330
41
100
AcDbEntity
  8
_U+30EC_U+30A4_U+30E4_U+30FC 1
 62
   179
420
  2234388
370
    25
100
AcDb2dPolyline
 66
     1
 10
0.0
 20
0.0
 30
0.0
  0
VERTEX
  5
4A
330
49
100
AcDbEntity
  8
_U+30EC_U+30A4_U+30E4_U+30FC 1
 62
   179
420
  2234388
370
    25
100
AcDbVertex
100
AcDb2dVertex
 10
92.05983053254072
 20
-144.8841752415565
 30
0.0
  0
VERTEX
  5
4B
330
49
100
AcDbEntity
  8
_U+30EC_U+30A4_U+30E4_U+30FC 1
 62
   179
420
  2234388
370
    25
100
AcDbVertex
100
AcDb2dVertex
 10
95.05981507482207
 20
-144.8841752415565
 30
0.0
  0
SEQEND
  5
4C
330
49
100
AcDbEntity
  8
_U+30EC_U+30A4_U+30E4_U+30FC 1
 62
   179
420
  2234388
370
    25
  0
POLYLINE
  5
4D
330
41
100
AcDbEntity
  8
_U+30EC_U+30A4_U+30E4_U+30FC 1
 62
   179
420
  2234388
370
    25
100
AcDb2dPolyline
 66
     1
 10
0.0
 20
0.0
 30
0.0
  0
VERTEX
  5
4E
330
4D
100
AcDbEntity
  8
_U+30EC_U+30A4_U+30E4_U+30FC 1
 62
   179
420
  2234388
370
    25
100
AcDbVertex
100
AcDb2dVertex
 10
92.05983053254072
 20
-143.8840855195844
 30
0.0
  0
VERTEX
  5
4F
330
4D
100
AcDbEntity
  8
_U+30EC_U+30A4_U+30E4_U+30FC 1
 62
   179
420
  2234388
370
    25
100
AcDbVertex
100
AcDb2dVertex
 10
92.05983053254072
 20
-144.8841752415565
 30
0.0
  0
SEQEND
  5
50
330
4D
100
AcDbEntity
  8
_U+30EC_U+30A4_U+30E4_U+30FC 1
 62
   179
420
  2234388
370
    25
  0
POLYLINE
  5
51
330
41
100
AcDbEntity
  8
_U+30EC_U+30A4_U+30E4_U+30FC 1
 62
   179
420
  2234388
370
    25
100
AcDb2dPolyline
 66
     1
 10
0.0
 20
0.0
 30
0.0
  0
VERTEX
  5
52
330
51
100
AcDbEntity
  8
_U+30EC_U+30A4_U+30E4_U+30FC 1
 62
   179
420
  2234388
370
    25
100
AcDbVertex
100
AcDb2dVertex
 10
92.05983053254072
 20
-143.8840855195844
 30
0.0
  0
VERTEX
  5
53
330
51
100
AcDbEntity
  8
_U+30EC_U+30A4_U+30E4_U+30FC 1
 62
   179
420
  2234388
370
    25
100
AcDbVertex
100
AcDb2dVertex
 10
93.05960275451262
 20
-143.8840855195844
 30
0.0
  0
SEQEND
  5
54
330
51
100
AcDbEntity
  8
_U+30EC_U+30A4_U+30E4_U+30FC 1
 62
   179
420
  2234388
370
    25
  0
POLYLINE
  5
55
330
41
100
AcDbEntity
  8
_U+30EC_U+30A4_U+30E4_U+30FC 1
 62
   179
420
  2234388
370
    25
100
AcDb2dPolyline
 66
     1
 10
0.0
 20
0.0
 30
0.0
  0
VERTEX
  5
56
330
55
100
AcDbEntity
  8
_U+30EC_U+30A4_U+30E4_U+30FC 1
 62
   179
420
  2234388
370
    25
100
AcDbVertex
100
AcDb2dVertex
 10
94.05937497648516
 20
-120.8842796920011
 30
0.0
  0
VERTEX
  5
57
330
55
100
AcDbEntity
  8
_U+30EC_U+30A4_U+30E4_U+30FC 1
 62
   179
420
  2234388
370
    25
100
AcDbVertex
100
AcDb2dVertex
 10
94.05937497648516
 20
-131.3842163560429
 30
0.0
  0
SEQEND
  5
58
330
55
100
AcDbEntity
  8
_U+30EC_U+30A4_U+30E4_U+30FC 1
 62
   179
420
  2234388
370
    25
  0
POLYLINE
  5
59
330
41
100
AcDbEntity
  8
_U+30EC_U+30A4_U+30E4_U+30FC 1
 62
   179
420
  2234388
370
    25
100
AcDb2dPolyline
 66
     1
 10
0.0
 20
0.0
 30
0.0
  0
VERTEX
  5
5A
330
59
100
AcDbEntity
  8
_U+30EC_U+30A4_U+30E4_U+30FC 1
 62
   179
420
  2234388
370
    25
100
AcDbVertex
100
AcDb2dVertex
 10
93.05960275451262
 20
-120.8842796920011
 30
0.0
  0
VERTEX
  5
5B
330
59
100
AcDbEntity
  8
_U+30EC_U+30A4_U+30E4_U+30FC 1
 62
   179
420
  2234388
370
    25
100
AcDbVertex
100
AcDb2dVertex
 10
93.05960275451262
 20
-131.3842163560429
 30
0.0
  0
SEQEND
  5
5C
330
59
100
AcDbEntity
  8
_U+30EC_U+30A4_U+30E4_U+30FC 1
 62
   179
420
  2234388
370
    25
  0
POLYLINE
  5
5D
330
41
100
AcDbEntity
  8
_U+30EC_U+30A4_U+30E4_U+30FC 1
 62
   179
420
  2234388
370
    25
100
AcDb2dPolyline
 66
     1
 10
0.0
 20
0.0
 30
0.0
  0
VERTEX
  5
5E
330
5D
100
AcDbEntity
  8
_U+30EC_U+30A4_U+30E4_U+30FC 1
 62
   179
420
  2234388
370
    25
100
AcDbVertex
100
AcDb2dVertex
 10
94.05937497648516
 20
-143.8840855195844
 30
0.0
  0
VERTEX
  5
5F
330
5D
100
AcDbEntity
  8
_U+30EC_U+30A4_U+30E4_U+30FC 1
 62
   179
420
  2234388
370
    25
100
AcDbVertex
100
AcDb2dVertex
 10
95.05981507482207
 20
-143.8840855195844
 30
0.0
  0
SEQEND
  5
60
330
5D
100
AcDbEntity
  8
_U+30EC_U+30A4_U+30E4_U+30FC 1
 62
   179
420
  2234388
370
    25
  0
POLYLINE
  5
61
330
41
100
AcDbEntity
  8
_U+30EC_U+30A4_U+30E4_U+30FC 1
 62
   179
420
  2234388
370
    25
100
AcDb2dPolyline
 66
     1
 10
0.0
 20
0.0
 30
0.0
  0
VERTEX
  5
62
330
61
100
AcDbEntity
  8
_U+30EC_U+30A4_U+30E4_U+30FC 1
 62
   179
420
  2234388
370
    25
100
AcDbVertex
100
AcDb2dVertex
 10
90.8096190721425
 20
-119.8841546922512
 30
0.0
  0
VERTEX
  5
63
330
61
100
AcDbEntity
  8
_U+30EC_U+30A4_U+30E4_U+30FC 1
 62
   179
420
  2234388
370
    25
100
AcDbVertex
100
AcDb2dVertex
 10
93.05960275451262
 20
-119.8841546922512
 30
0.0
  0
SEQEND
  5
64
330
61
100
AcDbEntity
  8
_U+30EC_U+30A4_U+30E4_U+30FC 1
 62
   179
420
  2234388
370
    25
  0
POLYLINE
  5
65
330
41
100
AcDbEntity
  8
_U+30EC_U+30A4_U+30E4_U+30FC 1
 62
   179
420
  2234388
370
    25
100
AcDb2dPolyline
 66
     1
 10
0.0
 20
0.0
 30
0.0
  0
VERTEX
  5
66
330
65
100
AcDbEntity
  8
_U+30EC_U+30A4_U+30E4_U+30FC 1
 62
   179
420
  2234388
370
    25
100
AcDbVertex
100
AcDb2dVertex
 10
91.55962460856382
 20
-120.8842796920011
 30
0.0
  0
VERTEX
  5
67
330
65
100
AcDbEntity
  8
_U+30EC_U+30A4_U+30E4_U+30FC 1
 62
   179
420
  2234388
370
    25
100
AcDbVertex
100
AcDb2dVertex
 10
93.05960275451262
 20
-120.8842796920011
 30
0.0
  0
SEQEND
  5
68
330
65
100
AcDbEntity
  8
_U+30EC_U+30A4_U+30E4_U+30FC 1
 62
   179
420
  2234388
370
    25
  0
POLYLINE
  5
69
330
41
100
AcDbEntity
  8
_U+30EC_U+30A4_U+30E4_U+30FC 1
 62
   179
420
  2234388
370
    25
100
AcDb2dPolyline
 66
     1
 10
0.0
 20
0.0
 30
0.0
  0
VERTEX
  5
6A
330
69
100
AcDbEntity
  8
_U+30EC_U+30A4_U+30E4_U+30FC 1
 62
   179
420
  2234388
370
    25
100
AcDbVertex
100
AcDb2dVertex
 10
95.30993451288543
 20
-119.8841546922512
 30
0.0
  0
VERTEX
  5
6B
330
69
100
AcDbEntity
  8
_U+30EC_U+30A4_U+30E4_U+30FC 1
 62
   179
420
  2234388
370
    25
100
AcDbVertex
100
AcDb2dVertex
 10
94.05937497648516
 20
-120.8842796920011
 30
0.0
  0
SEQEND
  5
6C
330
69
100
AcDbEntity
  8
_U+30EC_U+30A4_U+30E4_U+30FC 1
 62
   179
420
  2234388
370
    25
  0
POLYLINE
  5
6D
330
41
100
AcDbEntity
  8
_U+30EC_U+30A4_U+30E4_U+30FC 1
 62
   179
420
  2234388
370
    25
100
AcDb2dPolyline
 66
     1
 10
0.0
 20
0.0
 30
0.0
  0
VERTEX
  5
6E
330
6D
100
AcDbEntity
  8
_U+30EC_U+30A4_U+30E4_U+30FC 1
 62
   179
420
  2234388
370
    25
100
AcDbVertex
100
AcDb2dVertex
 10
90.8096190721425
 20
-119.8841546922512
 30
0.0
  0
VERTEX
  5
6F
330
6D
100
AcDbEntity
  8
_U+30EC_U+30A4_U+30E4_U+30FC 1
 62
   179
420
  2234388
370
    25
100
AcDbVertex
100
AcDb2dVertex
 10
91.55962460856382
 20
-120.8842796920011
 30
0.0
  0
SEQEND
  5
70
330
6D
100
AcDbEntity
  8
_U+30EC_U+30A4_U+30E4_U+30FC 1
 62
   179
420
  2234388
370
    25
  0
POLYLINE
  5
71
330
41
100
AcDbEntity
  8
_U+30EC_U+30A4_U+30E4_U+30FC 1
 62
   179
420
  2234388
370
    25
100
AcDb2dPolyline
 66
     1
 10
0.0
 20
0.0
 30
0.0
  0
VERTEX
  5
72
330
71
100
AcDbEntity
  8
_U+30EC_U+30A4_U+30E4_U+30FC 1
 62
   179
420
  2234388
370
    25
100
AcDbVertex
100
AcDb2dVertex
 10
94.05937497648516
 20
-118.1340594149109
 30
0.0
  0
VERTEX
  5
73
330
71
100
AcDbEntity
  8
_U+30EC_U+30A4_U+30E4_U+30FC 1
 62
   179
420
  2234388
370
    25
100
AcDbVertex
100
AcDb2dVertex
 10
95.30993451288543
 20
-119.8841546922512
 30
0.0
  0
SEQEND
  5
74
330
71
100
AcDbEntity
  8
_U+30EC_U+30A4_U+30E4_U+30FC 1
 62
   179
420
  2234388
370
    25
  0
POLYLINE
  5
75
330
41
100
AcDbEntity
  8
_U+30EC_U+30A4_U+30E4_U+30FC 1
 62
   179
420
  2234388
370
    25
100
AcDb2dPolyline
 66
     1
 10
0.0
 20
0.0
 30
0.0
  0
VERTEX
  5
76
330
75
100
AcDbEntity
  8
_U+30EC_U+30A4_U+30E4_U+30FC 1
 62
   179
420
  2234388
370
    25
100
AcDbVertex
100
AcDb2dVertex
 10
94.05937497648516
 20
-118.1340594149109
 30
0.0
  0
VERTEX
  5
77
330
75
100
AcDbEntity
  8
_U+30EC_U+30A4_U+30E4_U+30FC 1
 62
   179
420
  2234388
370
    25
100
AcDbVertex
100
AcDb2dVertex
 10
93.75552510809729
 20
-119.1389821924375
 30
0.0
  0
SEQEND
  5
78
330
75
100
AcDbEntity
  8
_U+30EC_U+30A4_U+30E4_U+30FC 1
 62
   179
420
  2234388
370
    25
  0
POLYLINE
  5
79
330
41
100
AcDbEntity
  8
_U+30EC_U+30A4_U+30E4_U+30FC 1
 62
   179
420
  2234388
370
    25
100
AcDb2dPolyline
 66
     1
 10
0.0
 20
0.0
 30
0.0
  0
VERTEX
  5
7A
330
79
100
AcDbEntity
  8
_U+30EC_U+30A4_U+30E4_U+30FC 1
 62
   179
420
  2234388
370
    25
100
AcDbVertex
100
AcDb2dVertex
 10
93.05960275451262
 20
-119.8841546922512
 30
0.0
  0
VERTEX
  5
7B
330
79
100
AcDbEntity
  8
_U+30EC_U+30A4_U+30E4_U+30FC 1
 62
   179
420
  2234388
370
    25
100
AcDbVertex
100
AcDb2dVertex
 10
88.40303968909501
 20
-113.3984058049838
 30
0.0
  0
SEQEND
  5
7C
330
79
100
AcDbEntity
  8
_U+30EC_U+30A4_U+30E4_U+30FC 1
 62
   179
420
  2234388
370
    25
  0
POLYLINE
  5
7D
330
41
100
AcDbEntity
  8
_U+30EC_U+30A4_U+30E4_U+30FC 1
 62
   179
420
  2234388
370
    25
100
AcDb2dPolyline
 66
     1
 10
0.0
 20
0.0
 30
0.0
  0
VERTEX
  5
7E
330
7D
100
AcDbEntity
  8
_U+30EC_U+30A4_U+30E4_U+30FC 1
 62
   179
420
  2234388
370
    25
100
AcDbVertex
100
AcDb2dVertex
 10
93.75552510809729
 20
-119.1389821924375
 30
0.0
  0
VERTEX
  5
7F
330
7D
100
AcDbEntity
  8
_U+30EC_U+30A4_U+30E4_U+30FC 1
 62
   179
420
  2234388
370
    25
100
AcDbVertex
100
AcDb2dVertex
 10
89.21538331102957
 20
-112.8151583051296
 30
0.0
  0
SEQEND
  5
80
330
7D
100
AcDbEntity
  8
_U+30EC_U+30A4_U+30E4_U+30FC 1
 62
   179
420
  2234388
370
    25
  0
POLYLINE
  5
81
330
41
100
AcDbEntity
  8
_U+30EC_U+30A4_U+30E4_U+30FC 1
 62
   179
420
  2234388
370
    25
100
AcDb2dPolyline
 66
     1
 10
0.0
 20
0.0
 30
0.0
  0
VERTEX
  5
82
330
81
100
AcDbEntity
  8
_U+30EC_U+30A4_U+30E4_U+30FC 1
 62
   179
420
  2234388
370
    25
100
AcDbVertex
100
AcDb2dVertex
 10
87.69233359611552
 20
-113.9086283048561
 30
0.0
  0
VERTEX
  5
83
330
81
100
AcDbEntity
  8
_U+30EC_U+30A4_U+30E4_U+30FC 1
 62
   179
420
  2234388
370
    25
100
AcDbVertex
100
AcDb2dVertex
 10
88.40303968909501
 20
-113.3984058049838
 30
0.0
  0
SEQEND
  5
84
330
81
100
AcDbEntity
  8
_U+30EC_U+30A4_U+30E4_U+30FC 1
 62
   179
420
  2234388
370
    25
  0
POLYLINE
  5
85
330
41
100
AcDbEntity
  8
_U+30EC_U+30A4_U+30E4_U+30FC 1
 62
   179
420
  2234388
370
    25
100
AcDb2dPolyline
 66
     1
 10
0.0
 20
0.0
 30
0.0
  0
VERTEX
  5
86
330
85
100
AcDbEntity
  8
_U+30EC_U+30A4_U+30E4_U+30FC 1
 62
   179
420
  2234388
370
    25
100
AcDbVertex
100
AcDb2dVertex
 10
87.05962666781278
 20
-110.6695638612214
 30
0.0
  0
VERTEX
  5
87
330
85
100
AcDbEntity
  8
_U+30EC_U+30A4_U+30E4_U+30FC 1
 62
   179
420
  2234388
370
    25
100
AcDbVertex
100
AcDb2dVertex
 10
87.69233359611552
 20
-113.9086283048561
 30
0.0
  0
SEQEND
  5
88
330
85
100
AcDbEntity
  8
_U+30EC_U+30A4_U+30E4_U+30FC 1
 62
   179
420
  2234388
370
    25
  0
POLYLINE
  5
89
330
41
100
AcDbEntity
  8
_U+30EC_U+30A4_U+30E4_U+30FC 1
 62
   179
420
  2234388
370
    25
100
AcDb2dPolyline
 66
     1
 10
0.0
 20
0.0
 30
0.0
  0
VERTEX
  5
8A
330
89
100
AcDbEntity
  8
_U+30EC_U+30A4_U+30E4_U+30FC 1
 62
   179
420
  2234388
370
    25
100
AcDbVertex
100
AcDb2dVertex
 10
87.05962666781278
 20
-110.6695638612214
 30
0.0
  0
VERTEX
  5
8B
330
89
100
AcDbEntity
  8
_U+30EC_U+30A4_U+30E4_U+30FC 1
 62
   179
420
  2234388
370
    25
100
AcDbVertex
100
AcDb2dVertex
 10
89.9261224280157
 20
-112.304935805257
 30
0.0
  0
SEQEND
  5
8C
330
89
100
AcDbEntity
  8
_U+30EC_U+30A4_U+30E4_U+30FC 1
 62
   179
420
  2234388
370
    25
  0
POLYLINE
  5
8D
330
41
100
AcDbEntity
  8
_U+30EC_U+30A4_U+30E4_U+30FC 1
 62
   179
420
  2234388
370
    25
100
AcDb2dPolyline
 66
     1
 10
0.0
 20
0.0
 30
0.0
  0
VERTEX
  5
8E
330
8D
100
AcDbEntity
  8
_U+30EC_U+30A4_U+30E4_U+30FC 1
 62
   179
420
  2234388
370
    25
100
AcDbVertex
100
AcDb2dVertex
 10
89.21538331102957
 20
-112.8151583051296
 30
0.0
  0
VERTEX
  5
8F
330
8D
100
AcDbEntity
  8
_U+30EC_U+30A4_U+30E4_U+30FC 1
 62
   179
420
  2234388
370
    25
100
AcDbVertex
100
AcDb2dVertex
 10
89.9261224280157
 20
-112.304935805257
 30
0.0
  0
SEQEND
  5
90
330
8D
100
AcDbEntity
  8
_U+30EC_U+30A4_U+30E4_U+30FC 1
 62
   179
420
  2234388
370
    25
  0
POLYLINE
  5
91
330
41
100
AcDbEntity
  8
_U+30EC_U+30A4_U+30E4_U+30FC 1
 62
   179
420
  2234388
370
    25
100
AcDb2dPolyline
 66
     1
 10
0.0
 20
0.0
 30
0.0
  0
VERTEX
  5
92
330
91
100
AcDbEntity
  8
_U+30EC_U+30A4_U+30E4_U+30FC 1
 62
   179
420
  2234388
370
    25
100
AcDbVertex
100
AcDb2dVertex
 10
92.05983053254072
 20
-131.1341321894389
 30
0.0
  0
VERTEX
  5
93
330
91
100
AcDbEntity
  8
_U+30EC_U+30A4_U+30E4_U+30FC 1
 62
   179
420
  2234388
370
    25
100
AcDbVertex
100
AcDb2dVertex
 10
92.05983053254072
 20
-133.3841135777651
 30
0.0
  0
SEQEND
  5
94
330
91
100
AcDbEntity
  8
_U+30EC_U+30A4_U+30E4_U+30FC 1
 62
   179
420
  2234388
370
    25
  0
POLYLINE
  5
95
330
41
100
AcDbEntity
  8
_U+30EC_U+30A4_U+30E4_U+30FC 1
 62
   179
420
  2234388
370
    25
100
AcDb2dPolyline
 66
     1
 10
0.0
 20
0.0
 30
0.0
  0
VERTEX
  5
96
330
95
100
AcDbEntity
  8
_U+30EC_U+30A4_U+30E4_U+30FC 1
 62
   179
420
  2234388
370
    25
100
AcDbVertex
100
AcDb2dVertex
 10
92.05983053254072
 20
-133.3841135777651
 30
0.0
  0
VERTEX
  5
97
330
95
100
AcDbEntity
  8
_U+30EC_U+30A4_U+30E4_U+30FC 1
 62
   179
420
  2234388
370
    25
100
AcDbVertex
100
AcDb2dVertex
 10
93.05960275451262
 20
-133.1343469111607
 30
0.0
  0
SEQEND
  5
98
330
95
100
AcDbEntity
  8
_U+30EC_U+30A4_U+30E4_U+30FC 1
 62
   179
420
  2234388
370
    25
  0
POLYLINE
  5
99
330
41
100
AcDbEntity
  8
_U+30EC_U+30A4_U+30E4_U+30FC 1
 62
   179
420
  2234388
370
    25
100
AcDb2dPolyline
 66
     1
 10
0.0
 20
0.0
 30
0.0
  0
VERTEX
  5
9A
330
99
100
AcDbEntity
  8
_U+30EC_U+30A4_U+30E4_U+30FC 1
 62
   179
420
  2234388
370
    25
100
AcDbVertex
100
AcDb2dVertex
 10
92.05983053254072
 20
-131.1341321894389
 30
0.0
  0
VERTEX
  5
9B
330
99
100
AcDbEntity
  8
_U+30EC_U+30A4_U+30E4_U+30FC 1
 62
   179
420
  2234388
370
    25
100
AcDbVertex
100
AcDb2dVertex
 10
93.05960275451262
 20
-131.3842163560429
 30
0.0
  0
SEQEND
  5
9C
330
99
100
AcDbEntity
  8
_U+30EC_U+30A4_U+30E4_U+30FC 1
 62
   179
420
  2234388
370
    25
  0
POLYLINE
  5
9D
330
41
100
AcDbEntity
  8
_U+30EC_U+30A4_U+30E4_U+30FC 1
 62
   179
420
  2234388
370
    25
100
AcDb2dPolyline
 66
     1
 10
0.0
 20
0.0
 30
0.0
  0
VERTEX
  5
9E
330
9D
100
AcDbEntity
  8
_U+30EC_U+30A4_U+30E4_U+30FC 1
 62
   179
420
  2234388
370
    25
100
AcDbVertex
100
AcDb2dVertex
 10
93.05960275451262
 20
-133.1343469111607
 30
0.0
  0
VERTEX
  5
9F
330
9D
100
AcDbEntity
  8
_U+30EC_U+30A4_U+30E4_U+30FC 1
 62
   179
420
  2234388
370
    25
100
AcDbVertex
100
AcDb2dVertex
 10
93.05960275451262
 20
-143.8840855195844
 30
0.0
  0
SEQEND
  5
A0
330
9D
100
AcDbEntity
  8
_U+30EC_U+30A4_U+30E4_U+30FC 1
 62
   179
420
  2234388
370
    25
  0
POLYLINE
  5
A1
330
41
100
AcDbEntity
  8
_U+30EC_U+30A4_U+30E4_U+30FC 1
 62
   179
420
  2234388
370
    25
100
AcDb2dPolyline
 66
     1
 10
0.0
 20
0.0
 30
0.0
  0
VERTEX
  5
A2
330
A1
100
AcDbEntity
  8
_U+30EC_U+30A4_U+30E4_U+30FC 1
 62
   179
420
  2234388
370
    25
100
AcDbVertex
100
AcDb2dVertex
 10
94.05937497648516
 20
-133.1343469111607
 30
0.0
  0
VERTEX
  5
A3
330
A1
100
AcDbEntity
  8
_U+30EC_U+30A4_U+30E4_U+30FC 1
 62
   179
420
  2234388
370
    25
100
AcDbVertex
100
AcDb2dVertex
 10
94.05937497648516
 20
-143.8840855195844
 30
0.0
  0
SEQEND
  5
A4
330
A1
100
AcDbEntity
  8
_U+30EC_U+30A4_U+30E4_U+30FC 1
 62
   179
420
  2234388
370
    25
  0
POLYLINE
  5
A5
330
41
100
AcDbEntity
  8
_U+30EC_U+30A4_U+30E4_U+30FC 1
 62
   179
420
  2234388
370
    25
100
AcDb2dPolyline
 66
     1
 10
0.0
 20
0.0
 30
0.0
  0
VERTEX
  5
A6
330
A5
100
AcDbEntity
  8
_U+30EC_U+30A4_U+30E4_U+30FC 1
 62
   179
420
  2234388
370
    25
100
AcDbVertex
100
AcDb2dVertex
 10
95.05981507482207
 20
-131.1341321894389
 30
0.0
  0
VERTEX
  5
A7
330
A5
100
AcDbEntity
  8
_U+30EC_U+30A4_U+30E4_U+30FC 1
 62
   179
420
  2234388
370
    25
100
AcDbVertex
100
AcDb2dVertex
 10
94.05937497648516
 20
-131.3842163560429
 30
0.0
  0
SEQEND
  5
A8
330
A5
100
AcDbEntity
  8
_U+30EC_U+30A4_U+30E4_U+30FC 1
 62
   179
420
  2234388
370
    25
  0
POLYLINE
  5
A9
330
41
100
AcDbEntity
  8
_U+30EC_U+30A4_U+30E4_U+30FC 1
 62
   179
420
  2234388
370
    25
100
AcDb2dPolyline
 66
     1
 10
0.0
 20
0.0
 30
0.0
  0
VERTEX
  5
AA
330
A9
100
AcDbEntity
  8
_U+30EC_U+30A4_U+30E4_U+30FC 1
 62
   179
420
  2234388
370
    25
100
AcDbVertex
100
AcDb2dVertex
 10
95.05981507482207
 20
-131.1341321894389
 30
0.0
  0
VERTEX
  5
AB
330
A9
100
AcDbEntity
  8
_U+30EC_U+30A4_U+30E4_U+30FC 1
 62
   179
420
  2234388
370
    25
100
AcDbVertex
100
AcDb2dVertex
 10
95.05981507482207
 20
-133.3841135777651
 30
0.0
  0
SEQEND
  5
AC
330
A9
100
AcDbEntity
  8
_U+30EC_U+30A4_U+30E4_U+30FC 1
 62
   179
420
  2234388
370
    25
  0
POLYLINE
  5
AD
330
41
100
AcDbEntity
  8
_U+30EC_U+30A4_U+30E4_U+30FC 1
 62
   179
420
  2234388
370
    25
100
AcDb2dPolyline
 66
     1
 10
0.0
 20
0.0
 30
0.0
  0
VERTEX
  5
AE
330
AD
100
AcDbEntity
  8
_U+30EC_U+30A4_U+30E4_U+30FC 1
 62
   179
420
  2234388
370
    25
100
AcDbVertex
100
AcDb2dVertex
 10
95.05981507482207
 20
-133.3841135777651
 30
0.0
  0
VERTEX
  5
AF
330
AD
100
AcDbEntity
  8
_U+30EC_U+30A4_U+30E4_U+30FC 1
 62
   179
420
  2234388
370
    25
100
AcDbVertex
100
AcDb2dVertex
 10
94.05937497648516
 20
-133.1343469111607
 30
0.0
  0
SEQEND
  5
B0
330
AD
100
AcDbEntity
  8
_U+30EC_U+30A4_U+30E4_U+30FC 1
 62
   179
420
  2234388
370
    25
  0
SPLINE
  5
B1
330
41
100
AcDbEntity
  8
_U+30EC_U+30A4_U+30E4_U+30FC 1
 62
   179
420
  2234388
370
     9
100
AcDbSpline
210
0.0
220
0.0
230
1.0
 70
    11
 71
     3
 72
    17
 73
    13
 74
     0
 42
0.0000000001
 43
0.0000000001
 12
1.0
 22
0.0
 32
0.0
 13
1.0
 23
0.0
 33
0.0
 40
0.0
 40
0.0
 40
0.0
 40
0.0
 40
1.0
 40
1.0
 40
1.0
 40
2.0
 40
2.0
 40
2.0
 40
3.0
 40
3.0
 40
3.0
 40
4.0
 40
4.0
 40
4.0
 40
4.0
 10
99.15948330854359
 20
-119.8841546922512
 30
0.0
 10
99.15948330854359
 20
-119.8290508033759
 30
0.0
 10
99.11471330470634
 20
-119.7842480256095
 30
0.0
 10
99.05957413944638
 20
-119.7842480256095
 30
0.0
 10
99.00447025196331
 20
-119.7842480256095
 30
0.0
 10
98.95966747532854
 20
-119.8290508033759
 30
0.0
 10
98.95966747532854
 20
-119.8841546922512
 30
0.0
 10
98.95966747532854
 20
-119.9392938589039
 30
0.0
 10
99.00447025196331
 20
-119.9840613588928
 30
0.0
 10
99.05957413944638
 20
-119.9840613588928
 30
0.0
 10
99.11471330470634
 20
-119.9840613588928
 30
0.0
 10
99.15948330854359
 20
-119.9392938589039
 30
0.0
 10
99.15948330854359
 20
-119.8841546922512
 30
0.0
  0
SPLINE
  5
B2
330
41
100
AcDbEntity
  8
_U+30EC_U+30A4_U+30E4_U+30FC 1
 62
   179
420
  2234388
370
     9
100
AcDbSpline
210
0.0
220
0.0
230
1.0
 70
    11
 71
     3
 72
    17
 73
    13
 74
     0
 42
0.0000000001
 43
0.0000000001
 12
1.0
 22
0.0
 32
0.0
 13
1.0
 23
0.0
 33
0.0
 40
0.0
 40
0.0
 40
0.0
 40
0.0
 40
1.0
 40
1.0
 40
1.0
 40
2.0
 40
2.0
 40
2.0
 40
3.0
 40
3.0
 40
3.0
 40
4.0
 40
4.0
 40
4.0
 40
4.0
 10
99.15948330854359
 20
-144.8841752415565
 30
0.0
 10
99.15948330854359
 20
-144.8290713526816
 30
0.0
 10
99.11471330470634
 20
-144.7842685749149
 30
0.0
 10
99.05957413944638
 20
-144.7842685749149
 30
0.0
 10
99.00447025196331
 20
-144.7842685749149
 30
0.0
 10
98.95966747532854
 20
-144.8290713526816
 30
0.0
 10
98.95966747532854
 20
-144.8841752415565
 30
0.0
 10
98.95966747532854
 20
-144.9393144082096
 30
0.0
 10
99.00447025196331
 20
-144.9840819081982
 30
0.0
 10
99.05957413944638
 20
-144.9840819081982
 30
0.0
 10
99.11471330470634
 20
-144.9840819081982
 30
0.0
 10
99.15948330854359
 20
-144.9393144082096
 30
0.0
 10
99.15948330854359
 20
-144.8841752415565
 30
0.0
  0
SPLINE
  5
B3
330
41
100
AcDbEntity
  8
_U+30EC_U+30A4_U+30E4_U+30FC 1
 62
   179
420
  2234388
370
     9
100
AcDbSpline
210
0.0
220
0.0
230
1.0
 70
    11
 71
     3
 72
    17
 73
    13
 74
     0
 42
0.0000000001
 43
0.0000000001
 12
1.0
 22
0.0
 32
0.0
 13
1.0
 23
0.0
 33
0.0
 40
0.0
 40
0.0
 40
0.0
 40
0.0
 40
1.0
 40
1.0
 40
1.0
 40
2.0
 40
2.0
 40
2.0
 40
3.0
 40
3.0
 40
3.0
 40
4.0
 40
4.0
 40
4.0
 40
4.0
 10
94.1596320422321
 20
-106.6698046955549
 30
0.0
 10
94.1596320422321
 20
-106.6143480289019
 30
0.0
 10
94.11482926559734
 20
-106.5695452511355
 30
0.0
 10
94.05937497648516
 20
-106.5695452511355
 30
0.0
 10
94.00426871286241
 20
-106.5695452511355
 30
0.0
 10
93.95946593622766
 20
-106.6143480289019
 30
0.0
 10
93.95946593622766
 20
-106.6698046955549
 30
0.0
 10
93.95946593622766
 20
-106.7249085844298
 30
0.0
 10
94.00426871286241
 20
-106.7697113621965
 30
0.0
 10
94.05937497648516
 20
-106.7697113621965
 30
0.0
 10
94.11482926559734
 20
-106.7697113621965
 30
0.0
 10
94.1596320422321
 20
-106.7249085844298
 30
0.0
 10
94.1596320422321
 20
-106.6698046955549
 30
0.0
  0
SPLINE
  5
B4
330
41
100
AcDbEntity
  8
_U+30EC_U+30A4_U+30E4_U+30FC 1
 62
   179
420
  2234388
370
     9
100
AcDbSpline
210
0.0
220
0.0
230
1.0
 70
    11
 71
     3
 72
    17
 73
    13
 74
     0
 42
0.0000000001
 43
0.0000000001
 12
1.0
 22
0.0
 32
0.0
 13
1.0
 23
0.0
 33
0.0
 40
0.0
 40
0.0
 40
0.0
 40
0.0
 40
1.0
 40
1.0
 40
1.0
 40
2.0
 40
2.0
 40
2.0
 40
3.0
 40
3.0
 40
3.0
 40
4.0
 40
4.0
 40
4.0
 40
4.0
 10
87.1595333319306
 20
-106.6698046955549
 30
0.0
 10
87.1595333319306
 20
-106.6143480289019
 30
0.0
 10
87.11490694418023
 20
-106.5695452511355
 30
0.0
 10
87.05962666781278
 20
-106.5695452511355
 30
0.0
 10
87.00434639144531
 20
-106.5695452511355
 30
0.0
 10
86.95954361481054
 20
-106.6143480289019
 30
0.0
 10
86.95954361481054
 20
-106.6698046955549
 30
0.0
 10
86.95954361481054
 20
-106.7249085844298
 30
0.0
 10
87.00434639144531
 20
-106.7697113621965
 30
0.0
 10
87.05962666781278
 20
-106.7697113621965
 30
0.0
 10
87.11490694418023
 20
-106.7697113621965
 30
0.0
 10
87.1595333319306
 20
-106.7249085844298
 30
0.0
 10
87.1595333319306
 20
-106.6698046955549
 30
0.0
  0
INSERT
  5
B6
330
41
100
AcDbEntity
  8
_U+30EC_U+30A4_U+30E4_U+30FC 1
100
AcDbBlockReference
  2
block 3
 10
0.0
 20
0.0
 30
0.0
  0
INSERT
  5
DD
330
41
100
AcDbEntity
  8
_U+30EC_U+30A4_U+30E4_U+30FC 1
100
AcDbBlockReference
  2
block 8
 10
0.0
 20
0.0
 30
0.0
  0
INSERT
  5
102
330
41
100
AcDbEntity
  8
_U+30EC_U+30A4_U+30E4_U+30FC 1
100
AcDbBlockReference
  2
block 13
 10
0.0
 20
0.0
 30
0.0
  0
SPLINE
  5
143
330
41
100
AcDbEntity
  8
_U+30EC_U+30A4_U+30E4_U+30FC 1
 62
   179
420
  2234388
370
     5
100
AcDbSpline
210
0.0
220
0.0
230
1.0
 70
    11
 71
     3
 72
    17
 73
    13
 74
     0
 42
0.0000000001
 43
0.0000000001
 12
1.0
 22
0.0
 32
0.0
 13
1.0
 23
0.0
 33
0.0
 40
0.0
 40
0.0
 40
0.0
 40
0.0
 40
1.0
 40
1.0
 40
1.0
 40
2.0
 40
2.0
 40
2.0
 40
3.0
 40
3.0
 40
3.0
 40
4.0
 40
4.0
 40
4.0
 40
4.0
 10
85.23460143659527
 20
-110.5696571945798
 30
0.0
 10
85.17946227133532
 20
-110.5696571945798
 30
0.0
 10
85.13469477247743
 20
-110.6144246945687
 30
0.0
 10
85.13469477247743
 20
-110.6695638612214
 30
0.0
 10
85.13469477247743
 20
-110.7246677500967
 30
0.0
 10
85.17946227133532
 20
-110.7694705278631
 30
0.0
 10
85.23460143659527
 20
-110.7694705278631
 30
0.0
 10
85.28970532407834
 20
-110.7694705278631
 30
0.0
 10
85.33450810071311
 20
-110.7246677500967
 30
0.0
 10
85.33450810071311
 20
-110.6695638612214
 30
0.0
 10
85.33450810071311
 20
-110.6144246945687
 30
0.0
 10
85.28970532407834
 20
-110.5696571945798
 30
0.0
 10
85.23460143659527
 20
-110.5696571945798
 30
0.0
  0
SPLINE
  5
144
330
41
100
AcDbEntity
  8
_U+30EC_U+30A4_U+30E4_U+30FC 1
 62
   179
420
  2234388
370
     9
100
AcDbSpline
210
0.0
220
0.0
230
1.0
 70
    11
 71
     3
 72
    17
 73
    13
 74
     0
 42
0.0000000001
 43
0.0000000001
 12
1.0
 22
0.0
 32
0.0
 13
1.0
 23
0.0
 33
0.0
 40
0.0
 40
0.0
 40
0.0
 40
0.0
 40
1.0
 40
1.0
 40
1.0
 40
2.0
 40
2.0
 40
2.0
 40
3.0
 40
3.0
 40
3.0
 40
4.0
 40
4.0
 40
4.0
 40
4.0
 10
85.23460143659527
 20
-119.7566960811721
 30
0.0
 10
85.17946227133532
 20
-119.7566960811721
 30
0.0
 10
85.13469477247743
 20
-119.8014635811606
 30
0.0
 10
85.13469477247743
 20
-119.8566027478137
 30
0.0
 10
85.13469477247743
 20
-119.9117066366886
 30
0.0
 10
85.17946227133532
 20
-119.9565094144553
 30
0.0
 10
85.23460143659527
 20
-119.9565094144553
 30
0.0
 10
85.28970532407834
 20
-119.9565094144553
 30
0.0
 10
85.33450810071311
 20
-119.9117066366886
 30
0.0
 10
85.33450810071311
 20
-119.8566027478137
 30
0.0
 10
85.33450810071311
 20
-119.8014635811606
 30
0.0
 10
85.28970532407834
 20
-119.7566960811721
 30
0.0
 10
85.23460143659527
 20
-119.7566960811721
 30
0.0
  0
POLYLINE
  5
145
330
41
100
AcDbEntity
  8
_U+30EC_U+30A4_U+30E4_U+30FC 1
 62
   179
420
  2234388
370
     9
100
AcDb2dPolyline
 66
     1
 10
0.0
 20
0.0
 30
0.0
  0
VERTEX
  5
146
330
145
100
AcDbEntity
  8
_U+30EC_U+30A4_U+30E4_U+30FC 1
 62
   179
420
  2234388
370
     9
100
AcDbVertex
100
AcDb2dVertex
 10
85.23460143659527
 20
-119.8566027478137
 30
0.0
  0
VERTEX
  5
147
330
145
100
AcDbEntity
  8
_U+30EC_U+30A4_U+30E4_U+30FC 1
 62
   179
420
  2234388
370
     9
100
AcDbVertex
100
AcDb2dVertex
 10
85.23460143659527
 20
-110.6695638612214
 30
0.0
  0
SEQEND
  5
148
330
145
100
AcDbEntity
  8
_U+30EC_U+30A4_U+30E4_U+30FC 1
 62
   179
420
  2234388
370
     9
  0
POLYLINE
  5
149
330
41
100
AcDbEntity
  8
_U+30EC_U+30A4_U+30E4_U+30FC 1
 62
   179
420
  2234388
370
     9
100
AcDb2dPolyline
 66
     1
 10
0.0
 20
0.0
 30
0.0
  0
VERTEX
  5
14A
330
149
100
AcDbEntity
  8
_U+30EC_U+30A4_U+30E4_U+30FC 1
 62
   179
420
  2234388
370
     9
100
AcDbVertex
100
AcDb2dVertex
 10
88.69517495941979
 20
-119.8597071922572
 30
0.0
  0
VERTEX
  5
14B
330
149
100
AcDbEntity
  8
_U+30EC_U+30A4_U+30E4_U+30FC 1
 62
   179
420
  2234388
370
     9
100
AcDbVertex
100
AcDb2dVertex
 10
84.23447646211058
 20
-119.8597071922572
 30
0.0
  0
SEQEND
  5
14C
330
149
100
AcDbEntity
  8
_U+30EC_U+30A4_U+30E4_U+30FC 1
 62
   179
420
  2234388
370
     9
  0
POLYLINE
  5
14D
330
41
100
AcDbEntity
  8
_U+30EC_U+30A4_U+30E4_U+30FC 1
 62
   179
420
  2234388
370
     9
100
AcDb2dPolyline
 66
     1
 10
0.0
 20
0.0
 30
0.0
  0
VERTEX
  5
14E
330
14D
100
AcDbEntity
  8
_U+30EC_U+30A4_U+30E4_U+30FC 1
 62
   179
420
  2234388
370
     9
100
AcDbVertex
100
AcDb2dVertex
 10
86.19525275622884
 20
-110.6695638612214
 30
0.0
  0
VERTEX
  5
14F
330
14D
100
AcDbEntity
  8
_U+30EC_U+30A4_U+30E4_U+30FC 1
 62
   179
420
  2234388
370
     9
100
AcDbVertex
100
AcDb2dVertex
 10
84.23447646211058
 20
-110.6695638612214
 30
0.0
  0
SEQEND
  5
150
330
14D
100
AcDbEntity
  8
_U+30EC_U+30A4_U+30E4_U+30FC 1
 62
   179
420
  2234388
370
     9
  0
INSERT
  5
152
330
41
100
AcDbEntity
  8
_U+30EC_U+30A4_U+30E4_U+30FC 1
100
AcDbBlockReference
  2
block 18
 10
0.0
 20
0.0
 30
0.0
  0
INSERT
  5
163
330
41
100
AcDbEntity
  8
_U+30EC_U+30A4_U+30E4_U+30FC 1
100
AcDbBlockReference
  2
block 19
 10
0.0
 20
0.0
 30
0.0
  0
ENDBLK
  5
44
330
41
100
AcDbEntity
  8
0
100
AcDbBlockEnd
  0
BLOCK
  5
B7
330
B5
100
AcDbEntity
  8
0
100
AcDbBlockBegin
  2
block 3
 70
     0
 10
0.0
 20
0.0
 30
0.0
  3
block 3
  1

  0
POLYLINE
  5
B9
330
B5
100
AcDbEntity
  8
_U+30EC_U+30A4_U+30E4_U+30FC 1
 62
   179
420
  2234388
370
     9
100
AcDb2dPolyline
 66
     1
 10
0.0
 20
0.0
 30
0.0
  0
VERTEX
  5
BA
330
B9
100
AcDbEntity
  8
_U+30EC_U+30A4_U+30E4_U+30FC 1
 62
   179
420
  2234388
370
     9
100
AcDbVertex
100
AcDb2dVertex
 10
99.05957413944638
 20
-119.8841546922512
 30
0.0
  0
VERTEX
  5
BB
330
B9
100
AcDbEntity
  8
_U+30EC_U+30A4_U+30E4_U+30FC 1
 62
   179
420
  2234388
370
     9
100
AcDbVertex
100
AcDb2dVertex
 10
99.05957413944638
 20
-144.8841752415565
 30
0.0
  0
SEQEND
  5
BC
330
B9
100
AcDbEntity
  8
_U+30EC_U+30A4_U+30E4_U+30FC 1
 62
   179
420
  2234388
370
     9
  0
POLYLINE
  5
BD
330
B5
100
AcDbEntity
  8
_U+30EC_U+30A4_U+30E4_U+30FC 1
 62
   179
420
  2234388
370
     9
100
AcDb2dPolyline
 66
     1
 10
0.0
 20
0.0
 30
0.0
  0
VERTEX
  5
BE
330
BD
100
AcDbEntity
  8
_U+30EC_U+30A4_U+30E4_U+30FC 1
 62
   179
420
  2234388
370
     9
100
AcDbVertex
100
AcDb2dVertex
 10
97.84965222586962
 20
-119.8841546922512
 30
0.0
  0
VERTEX
  5
BF
330
BD
100
AcDbEntity
  8
_U+30EC_U+30A4_U+30E4_U+30FC 1
 62
   179
420
  2234388
370
     9
100
AcDbVertex
100
AcDb2dVertex
 10
100.0600518916998
 20
-119.8841546922512
 30
0.0
  0
SEQEND
  5
C0
330
BD
100
AcDbEntity
  8
_U+30EC_U+30A4_U+30E4_U+30FC 1
 62
   179
420
  2234388
370
     9
  0
POLYLINE
  5
C1
330
B5
100
AcDbEntity
  8
_U+30EC_U+30A4_U+30E4_U+30FC 1
 62
   179
420
  2234388
370
     9
100
AcDb2dPolyline
 66
     1
 10
0.0
 20
0.0
 30
0.0
  0
VERTEX
  5
C2
330
C1
100
AcDbEntity
  8
_U+30EC_U+30A4_U+30E4_U+30FC 1
 62
   179
420
  2234388
370
     9
100
AcDbVertex
100
AcDb2dVertex
 10
97.59956806558313
 20
-144.8841752415565
 30
0.0
  0
VERTEX
  5
C3
330
C1
100
AcDbEntity
  8
_U+30EC_U+30A4_U+30E4_U+30FC 1
 62
   179
420
  2234388
370
     9
100
AcDbVertex
100
AcDb2dVertex
 10
100.0600518916998
 20
-144.8841752415565
 30
0.0
  0
SEQEND
  5
C4
330
C1
100
AcDbEntity
  8
_U+30EC_U+30A4_U+30E4_U+30FC 1
 62
   179
420
  2234388
370
     9
  0
INSERT
  5
C6
330
B5
100
AcDbEntity
  8
_U+30EC_U+30A4_U+30E4_U+30FC 1
100
AcDbBlockReference
  2
block 4
 10
0.0
 20
0.0
 30
0.0
  0
INSERT
  5
CE
330
B5
100
AcDbEntity
  8
_U+30EC_U+30A4_U+30E4_U+30FC 1
100
AcDbBlockReference
  2
block 5
 10
0.0
 20
0.0
 30
0.0
  0
INSERT
  5
D3
330
B5
100
AcDbEntity
  8
_U+30EC_U+30A4_U+30E4_U+30FC 1
100
AcDbBlockReference
  2
block 6
 10
0.0
 20
0.0
 30
0.0
  0
INSERT
  5
D8
330
B5
100
AcDbEntity
  8
_U+30EC_U+30A4_U+30E4_U+30FC 1
100
AcDbBlockReference
  2
block 7
 10
0.0
 20
0.0
 30
0.0
  0
ENDBLK
  5
B8
330
B5
100
AcDbEntity
  8
0
100
AcDbBlockEnd
  0
BLOCK
  5
C7
330
C5
100
AcDbEntity
  8
0
100
AcDbBlockBegin
  2
block 4
 70
     0
 10
0.0
 20
0.0
 30
0.0
  3
block 4
  1

  0
SPLINE
  5
C9
330
C5
100
AcDbEntity
  8
_U+30EC_U+30A4_U+30E4_U+30FC 1
370
     0
100
AcDbSpline
210
0.0
220
0.0
230
1.0
 70
    11
 71
     3
 72
    44
 73
    40
 74
     0
 42
0.0000000001
 43
0.0000000001
 12
1.0
 22
0.0
 32
0.0
 13
1.0
 23
0.0
 33
0.0
 40
0.0
 40
0.0
 40
0.0
 40
0.0
 40
1.0
 40
1.0
 40
1.0
 40
2.0
 40
2.0
 40
2.0
 40
3.0
 40
3.0
 40
3.0
 40
4.0
 40
4.0
 40
4.0
 40
5.0
 40
5.0
 40
5.0
 40
6.0
 40
6.0
 40
6.0
 40
7.0
 40
7.0
 40
7.0
 40
8.0
 40
8.0
 40
8.0
 40
9.0
 40
9.0
 40
9.0
 40
10.0
 40
10.0
 40
10.0
 40
11.0
 40
11.0
 40
11.0
 40
12.0
 40
12.0
 40
12.0
 40
13.0
 40
13.0
 40
13.0
 40
13.0
 10
98.10495060481405
 20
-132.8800889424744
 30
0.0
 10
98.26342499713553
 20
-133.0978189771422
 30
0.0
 10
98.33749455006841
 20
-133.190836555244
 30
0.0
 10
98.48149954135185
 20
-133.239412401586
 30
0.0
 10
98.48149954135185
 20
-133.239412401586
 30
0.0
 10
98.48149954135185
 20
-132.461165331468
 30
0.0
 10
98.48149954135185
 20
-132.461165331468
 30
0.0
 10
98.48149954135185
 20
-132.461165331468
 30
0.0
 10
98.68682723227275
 20
-132.461165331468
 30
0.0
 10
98.68682723227275
 20
-132.461165331468
 30
0.0
 10
98.68682723227275
 20
-132.461165331468
 30
0.0
 10
98.68682723227275
 20
-133.4891818242666
 30
0.0
 10
98.68682723227275
 20
-133.4891818242666
 30
0.0
 10
98.32922632090381
 20
-133.4574869458023
 30
0.0
 10
98.25102265338863
 20
-133.3920301315825
 30
0.0
 10
97.952677384366
 20
-133.0068684563316
 30
0.0
 10
97.75389537486708
 20
-132.7508978617776
 30
0.0
 10
97.68602699380766
 20
-132.6854410475578
 30
0.0
 10
97.54856768394619
 20
-132.6854410475578
 30
0.0
 10
97.4300563992536
 20
-132.6854410475578
 30
0.0
 10
97.29879826126559
 20
-132.757099033651
 30
0.0
 10
97.29879826126559
 20
-132.9538139858588
 30
0.0
 10
97.29879826126559
 20
-133.2142632045437
 30
0.0
 10
97.52961965877732
 20
-133.2225314337083
 30
0.0
 10
97.64571937663024
 20
-133.2270100578391
 30
0.0
 10
97.64571937663024
 20
-133.2270100578391
 30
0.0
 10
97.64571937663024
 20
-133.4512857739288
 30
0.0
 10
97.64571937663024
 20
-133.4512857739288
 30
0.0
 10
97.51893986277305
 20
-133.4426730352157
 30
0.0
 10
97.40697425950243
 20
-133.4319932392115
 30
0.0
 10
97.28846297480983
 20
-133.3517225144051
 30
0.0
 10
97.12757701564867
 20
-133.2418239684256
 30
0.0
 10
97.09381507989322
 20
-133.0554443026736
 30
0.0
 10
97.09381507989322
 20
-132.9393445848207
 30
0.0
 10
97.09381507989322
 20
-132.6620143982581
 30
0.0
 10
97.27778317880556
 20
-132.4546196500461
 30
0.0
 10
97.55063474123735
 20
-132.4546196500461
 30
0.0
 10
97.77904457190941
 20
-132.4546196500461
 30
0.0
 10
97.87860783143313
 20
-132.5710638774475
 30
0.0
 10
98.10495060481405
 20
-132.8800889424744
 30
0.0
  0
HATCH
  5
CA
330
C5
100
AcDbEntity
  8
_U+30EC_U+30A4_U+30E4_U+30FC 1
 62
   179
420
  2234388
100
AcDbHatch
 10
0.0
 20
0.0
 30
0.0
210
0.0
220
0.0
230
1.0
  2
SOLID
 70
     1
 71
     0
 91
        1
 92
        1
 93
        1
 72
     4
 94
        3
 73
     0
 74
     1
 95
       44
 96
       40
 40
0.0
 40
0.0
 40
0.0
 40
0.0
 40
1.0
 40
1.0
 40
1.0
 40
2.0
 40
2.0
 40
2.0
 40
3.0
 40
3.0
 40
3.0
 40
4.0
 40
4.0
 40
4.0
 40
5.0
 40
5.0
 40
5.0
 40
6.0
 40
6.0
 40
6.0
 40
7.0
 40
7.0
 40
7.0
 40
8.0
 40
8.0
 40
8.0
 40
9.0
 40
9.0
 40
9.0
 40
10.0
 40
10.0
 40
10.0
 40
11.0
 40
11.0
 40
11.0
 40
12.0
 40
12.0
 40
12.0
 40
13.0
 40
13.0
 40
13.0
 40
13.0
 10
98.10495060481405
 20
-132.8800889424744
 10
98.26342499713553
 20
-133.0978189771422
 10
98.33749455006841
 20
-133.190836555244
 10
98.48149954135185
 20
-133.239412401586
 10
98.48149954135185
 20
-133.239412401586
 10
98.48149954135185
 20
-132.461165331468
 10
98.48149954135185
 20
-132.461165331468
 10
98.48149954135185
 20
-132.461165331468
 10
98.68682723227275
 20
-132.461165331468
 10
98.68682723227275
 20
-132.461165331468
 10
98.68682723227275
 20
-132.461165331468
 10
98.68682723227275
 20
-133.4891818242666
 10
98.68682723227275
 20
-133.4891818242666
 10
98.32922632090381
 20
-133.4574869458023
 10
98.25102265338863
 20
-133.3920301315825
 10
97.952677384366
 20
-133.0068684563316
 10
97.75389537486708
 20
-132.7508978617776
 10
97.68602699380766
 20
-132.6854410475578
 10
97.54856768394619
 20
-132.6854410475578
 10
97.4300563992536
 20
-132.6854410475578
 10
97.29879826126559
 20
-132.757099033651
 10
97.29879826126559
 20
-132.9538139858588
 10
97.29879826126559
 20
-133.2142632045437
 10
97.52961965877732
 20
-133.2225314337083
 10
97.64571937663024
 20
-133.2270100578391
 10
97.64571937663024
 20
-133.2270100578391
 10
97.64571937663024
 20
-133.4512857739288
 10
97.64571937663024
 20
-133.4512857739288
 10
97.51893986277305
 20
-133.4426730352157
 10
97.40697425950243
 20
-133.4319932392115
 10
97.28846297480983
 20
-133.3517225144051
 10
97.12757701564867
 20
-133.2418239684256
 10
97.09381507989322
 20
-133.0554443026736
 10
97.09381507989322
 20
-132.9393445848207
 10
97.09381507989322
 20
-132.6620143982581
 10
97.27778317880556
 20
-132.4546196500461
 10
97.55063474123735
 20
-132.4546196500461
 10
97.77904457190941
 20
-132.4546196500461
 10
97.87860783143313
 20
-132.5710638774475
 10
98.10495060481405
 20
-132.8800889424744
 97
        0
 97
        0
 75
     2
 76
     1
 98
        0
  0
SPLINE
  5
CB
330
C5
100
AcDbEntity
  8
_U+30EC_U+30A4_U+30E4_U+30FC 1
370
     0
100
AcDbSpline
210
0.0
220
0.0
230
1.0
 70
    11
 71
     3
 72
    53
 73
    49
 74
     0
 42
0.0000000001
 43
0.0000000001
 12
1.0
 22
0.0
 32
0.0
 13
1.0
 23
0.0
 33
0.0
 40
0.0
 40
0.0
 40
0.0
 40
0.0
 40
1.0
 40
1.0
 40
1.0
 40
2.0
 40
2.0
 40
2.0
 40
3.0
 40
3.0
 40
3.0
 40
4.0
 40
4.0
 40
4.0
 40
5.0
 40
5.0
 40
5.0
 40
6.0
 40
6.0
 40
6.0
 40
7.0
 40
7.0
 40
7.0
 40
8.0
 40
8.0
 40
8.0
 40
9.0
 40
9.0
 40
9.0
 40
10.0
 40
10.0
 40
10.0
 40
11.0
 40
11.0
 40
11.0
 40
12.0
 40
12.0
 40
12.0
 40
13.0
 40
13.0
 40
13.0
 40
14.0
 40
14.0
 40
14.0
 40
15.0
 40
15.0
 40
15.0
 40
16.0
 40
16.0
 40
16.0
 40
16.0
 10
98.73747013590591
 20
-131.8152099279837
 30
0.0
 10
98.73747013590591
 20
-131.8934135954989
 30
0.0
 10
98.72058916802818
 20
-131.9950439123137
 30
0.0
 10
98.6571994110996
 20
-132.0966742291286
 30
0.0
 10
98.5469563555716
 20
-132.2699625320367
 30
0.0
 10
98.41604272713211
 20
-132.2913221240452
 30
0.0
 10
98.30786672889526
 20
-132.3102701492141
 30
0.0
 10
98.30786672889526
 20
-132.3102701492141
 30
0.0
 10
98.30786672889526
 20
-132.0880614904155
 30
0.0
 10
98.30786672889526
 20
-132.0880614904155
 30
0.0
 10
98.5069932479427
 20
-132.0329399626515
 30
0.0
 10
98.53662106911585
 20
-131.9061604487943
 30
0.0
 10
98.53662106911585
 20
-131.8131428706926
 30
0.0
 10
98.53662106911585
 20
-131.6736165035399
 30
0.0
 10
98.43705780959213
 20
-131.5209987735434
 30
0.0
 10
98.20451386433777
 20
-131.5209987735434
 30
0.0
 10
97.9485432697837
 20
-131.5209987735434
 30
0.0
 10
97.87860783143313
 20
-131.7008327578734
 30
0.0
 10
97.87860783143313
 20
-131.8214110998572
 30
0.0
 10
97.87860783143313
 20
-131.8531059783215
 30
0.0
 10
97.87860783143313
 20
-131.9950439123137
 30
0.0
 10
98.00745440258147
 20
-132.0839273758332
 30
0.0
 10
98.00745440258147
 20
-132.0839273758332
 30
0.0
 10
97.9885063774126
 20
-132.2592827360324
 30
0.0
 10
97.9885063774126
 20
-132.2592827360324
 30
0.0
 10
97.9885063774126
 20
-132.2592827360324
 30
0.0
 10
97.14239092623524
 20
-132.1387043940487
 30
0.0
 10
97.14239092623524
 20
-132.1387043940487
 30
0.0
 10
97.14239092623524
 20
-132.1387043940487
 30
0.0
 10
97.14239092623524
 20
-131.3604573239307
 30
0.0
 10
97.14239092623524
 20
-131.3604573239307
 30
0.0
 10
97.14239092623524
 20
-131.3604573239307
 30
0.0
 10
97.33703882115185
 20
-131.3604573239307
 30
0.0
 10
97.33703882115185
 20
-131.3604573239307
 30
0.0
 10
97.33703882115185
 20
-131.3604573239307
 30
0.0
 10
97.33703882115185
 20
-131.9760958871449
 30
0.0
 10
97.33703882115185
 20
-131.9760958871449
 30
0.0
 10
97.33703882115185
 20
-131.9760958871449
 30
0.0
 10
97.76009654674054
 20
-132.0415527013646
 30
0.0
 10
97.76009654674054
 20
-132.0415527013646
 30
0.0
 10
97.72633461098509
 20
-131.9802300017272
 30
0.0
 10
97.68602699380766
 20
-131.8975477100812
 30
0.0
 10
97.68602699380766
 20
-131.7793809349371
 30
0.0
 10
97.68602699380766
 20
-131.5254773976742
 30
0.0
 10
97.87206215001116
 20
-131.288454828289
 30
0.0
 10
98.18522132962036
 20
-131.288454828289
 30
0.0
 10
98.50251462381188
 20
-131.288454828289
 30
0.0
 10
98.73747013590591
 20
-131.5127305443788
 30
0.0
 10
98.73747013590591
 20
-131.8152099279837
 30
0.0
  0
HATCH
  5
CC
330
C5
100
AcDbEntity
  8
_U+30EC_U+30A4_U+30E4_U+30FC 1
 62
   179
420
  2234388
100
AcDbHatch
 10
0.0
 20
0.0
 30
0.0
210
0.0
220
0.0
230
1.0
  2
SOLID
 70
     1
 71
     0
 91
        1
 92
        1
 93
        1
 72
     4
 94
        3
 73
     0
 74
     1
 95
       53
 96
       49
 40
0.0
 40
0.0
 40
0.0
 40
0.0
 40
1.0
 40
1.0
 40
1.0
 40
2.0
 40
2.0
 40
2.0
 40
3.0
 40
3.0
 40
3.0
 40
4.0
 40
4.0
 40
4.0
 40
5.0
 40
5.0
 40
5.0
 40
6.0
 40
6.0
 40
6.0
 40
7.0
 40
7.0
 40
7.0
 40
8.0
 40
8.0
 40
8.0
 40
9.0
 40
9.0
 40
9.0
 40
10.0
 40
10.0
 40
10.0
 40
11.0
 40
11.0
 40
11.0
 40
12.0
 40
12.0
 40
12.0
 40
13.0
 40
13.0
 40
13.0
 40
14.0
 40
14.0
 40
14.0
 40
15.0
 40
15.0
 40
15.0
 40
16.0
 40
16.0
 40
16.0
 40
16.0
 10
98.73747013590591
 20
-131.8152099279837
 10
98.73747013590591
 20
-131.8934135954989
 10
98.72058916802818
 20
-131.9950439123137
 10
98.6571994110996
 20
-132.0966742291286
 10
98.5469563555716
 20
-132.2699625320367
 10
98.41604272713211
 20
-132.2913221240452
 10
98.30786672889526
 20
-132.3102701492141
 10
98.30786672889526
 20
-132.3102701492141
 10
98.30786672889526
 20
-132.0880614904155
 10
98.30786672889526
 20
-132.0880614904155
 10
98.5069932479427
 20
-132.0329399626515
 10
98.53662106911585
 20
-131.9061604487943
 10
98.53662106911585
 20
-131.8131428706926
 10
98.53662106911585
 20
-131.6736165035399
 10
98.43705780959213
 20
-131.5209987735434
 10
98.20451386433777
 20
-131.5209987735434
 10
97.9485432697837
 20
-131.5209987735434
 10
97.87860783143313
 20
-131.7008327578734
 10
97.87860783143313
 20
-131.8214110998572
 10
97.87860783143313
 20
-131.8531059783215
 10
97.87860783143313
 20
-131.9950439123137
 10
98.00745440258147
 20
-132.0839273758332
 10
98.00745440258147
 20
-132.0839273758332
 10
97.9885063774126
 20
-132.2592827360324
 10
97.9885063774126
 20
-132.2592827360324
 10
97.9885063774126
 20
-132.2592827360324
 10
97.14239092623524
 20
-132.1387043940487
 10
97.14239092623524
 20
-132.1387043940487
 10
97.14239092623524
 20
-132.1387043940487
 10
97.14239092623524
 20
-131.3604573239307
 10
97.14239092623524
 20
-131.3604573239307
 10
97.14239092623524
 20
-131.3604573239307
 10
97.33703882115185
 20
-131.3604573239307
 10
97.33703882115185
 20
-131.3604573239307
 10
97.33703882115185
 20
-131.3604573239307
 10
97.33703882115185
 20
-131.9760958871449
 10
97.33703882115185
 20
-131.9760958871449
 10
97.33703882115185
 20
-131.9760958871449
 10
97.76009654674054
 20
-132.0415527013646
 10
97.76009654674054
 20
-132.0415527013646
 10
97.72633461098509
 20
-131.9802300017272
 10
97.68602699380766
 20
-131.8975477100812
 10
97.68602699380766
 20
-131.7793809349371
 10
97.68602699380766
 20
-131.5254773976742
 10
97.87206215001116
 20
-131.288454828289
 10
98.18522132962036
 20
-131.288454828289
 10
98.50251462381188
 20
-131.288454828289
 10
98.73747013590591
 20
-131.5127305443788
 10
98.73747013590591
 20
-131.8152099279837
 97
        0
 97
        0
 75
     2
 76
     1
 98
        0
  0
ENDBLK
  5
C8
330
C5
100
AcDbEntity
  8
0
100
AcDbBlockEnd
  0
BLOCK
  5
CF
330
CD
100
AcDbEntity
  8
0
100
AcDbBlockBegin
  2
block 5
 70
     0
 10
0.0
 20
0.0
 30
0.0
  3
block 5
  1

  0
SPLINE
  5
D1
330
CD
100
AcDbEntity
  8
_U+30EC_U+30A4_U+30E4_U+30FC 1
 62
   179
420
  2234388
370
    25
100
AcDbSpline
210
0.0
220
0.0
230
1.0
 70
    11
 71
     3
 72
    17
 73
    13
 74
     0
 42
0.0000000001
 43
0.0000000001
 12
1.0
 22
0.0
 32
0.0
 13
1.0
 23
0.0
 33
0.0
 40
0.0
 40
0.0
 40
0.0
 40
0.0
 40
1.0
 40
1.0
 40
1.0
 40
2.0
 40
2.0
 40
2.0
 40
3.0
 40
3.0
 40
3.0
 40
4.0
 40
4.0
 40
4.0
 40
4.0
 10
95.3450711786557
 20
-119.8841546922512
 30
0.0
 10
95.3450711786557
 20
-119.9038044144684
 30
0.0
 10
95.32923145683758
 20
-119.9192913589092
 30
0.0
 10
95.30993451288543
 20
-119.9192913589092
 30
0.0
 10
95.28996729117263
 20
-119.9192913589092
 30
0.0
 10
95.2741275693545
 20
-119.9038044144684
 30
0.0
 10
95.2741275693545
 20
-119.8841546922512
 30
0.0
 10
95.2741275693545
 20
-119.8648577478117
 30
0.0
 10
95.28996729117263
 20
-119.8490180255934
 30
0.0
 10
95.30993451288543
 20
-119.8490180255934
 30
0.0
 10
95.32923145683758
 20
-119.8490180255934
 30
0.0
 10
95.3450711786557
 20
-119.8648577478117
 30
0.0
 10
95.3450711786557
 20
-119.8841546922512
 30
0.0
  0
ENDBLK
  5
D0
330
CD
100
AcDbEntity
  8
0
100
AcDbBlockEnd
  0
BLOCK
  5
D4
330
D2
100
AcDbEntity
  8
0
100
AcDbBlockBegin
  2
block 6
 70
     0
 10
0.0
 20
0.0
 30
0.0
  3
block 6
  1

  0
SPLINE
  5
D6
330
D2
100
AcDbEntity
  8
_U+30EC_U+30A4_U+30E4_U+30FC 1
 62
   179
420
  2234388
370
    25
100
AcDbSpline
210
0.0
220
0.0
230
1.0
 70
    11
 71
     3
 72
    17
 73
    13
 74
     0
 42
0.0000000001
 43
0.0000000001
 12
1.0
 22
0.0
 32
0.0
 13
1.0
 23
0.0
 33
0.0
 40
0.0
 40
0.0
 40
0.0
 40
0.0
 40
1.0
 40
1.0
 40
1.0
 40
2.0
 40
2.0
 40
2.0
 40
3.0
 40
3.0
 40
3.0
 40
4.0
 40
4.0
 40
4.0
 40
4.0
 10
95.09495174059234
 20
-144.8841752415565
 30
0.0
 10
95.09495174059234
 20
-144.9038249637741
 30
0.0
 10
95.07911201877421
 20
-144.9193119082149
 30
0.0
 10
95.05981507482207
 20
-144.9193119082149
 30
0.0
 10
95.04020063087803
 20
-144.9193119082149
 30
0.0
 10
95.02436090905992
 20
-144.9038249637741
 30
0.0
 10
95.02436090905992
 20
-144.8841752415565
 30
0.0
 10
95.02436090905992
 20
-144.8645255193396
 30
0.0
 10
95.04020063087803
 20
-144.8490385748988
 30
0.0
 10
95.05981507482207
 20
-144.8490385748988
 30
0.0
 10
95.07911201877421
 20
-144.8490385748988
 30
0.0
 10
95.09495174059234
 20
-144.8645255193396
 30
0.0
 10
95.09495174059234
 20
-144.8841752415565
 30
0.0
  0
ENDBLK
  5
D5
330
D2
100
AcDbEntity
  8
0
100
AcDbBlockEnd
  0
BLOCK
  5
D9
330
D7
100
AcDbEntity
  8
0
100
AcDbBlockBegin
  2
block 7
 70
     0
 10
0.0
 20
0.0
 30
0.0
  3
block 7
  1

  0
SPLINE
  5
DB
330
D7
100
AcDbEntity
  8
_U+30EC_U+30A4_U+30E4_U+30FC 1
 62
   179
420
  2234388
370
     9
100
AcDbSpline
210
0.0
220
0.0
230
1.0
 70
    11
 71
     3
 72
    17
 73
    13
 74
     0
 42
0.0000000001
 43
0.0000000001
 12
1.0
 22
0.0
 32
0.0
 13
1.0
 23
0.0
 33
0.0
 40
0.0
 40
0.0
 40
0.0
 40
0.0
 40
1.0
 40
1.0
 40
1.0
 40
2.0
 40
2.0
 40
2.0
 40
3.0
 40
3.0
 40
3.0
 40
4.0
 40
4.0
 40
4.0
 40
4.0
 10
99.09471080521664
 20
-144.8841752415565
 30
0.0
 10
99.09471080521664
 20
-144.9038249637741
 30
0.0
 10
99.07887108339852
 20
-144.9193119082149
 30
0.0
 10
99.05957413944638
 20
-144.9193119082149
 30
0.0
 10
99.04027719549424
 20
-144.9193119082149
 30
0.0
 10
99.02443747367613
 20
-144.9038249637741
 30
0.0
 10
99.02443747367613
 20
-144.8841752415565
 30
0.0
 10
99.02443747367613
 20
-144.8645255193396
 30
0.0
 10
99.04027719549424
 20
-144.8490385748988
 30
0.0
 10
99.05957413944638
 20
-144.8490385748988
 30
0.0
 10
99.07887108339852
 20
-144.8490385748988
 30
0.0
 10
99.09471080521664
 20
-144.8645255193396
 30
0.0
 10
99.09471080521664
 20
-144.8841752415565
 30
0.0
  0
ENDBLK
  5
DA
330
D7
100
AcDbEntity
  8
0
100
AcDbBlockEnd
  0
BLOCK
  5
DE
330
DC
100
AcDbEntity
  8
0
100
AcDbBlockBegin
  2
block 8
 70
     0
 10
0.0
 20
0.0
 30
0.0
  3
block 8
  1

  0
POLYLINE
  5
E0
330
DC
100
AcDbEntity
  8
_U+30EC_U+30A4_U+30E4_U+30FC 1
 62
   179
420
  2234388
370
     9
100
AcDb2dPolyline
 66
     1
 10
0.0
 20
0.0
 30
0.0
  0
VERTEX
  5
E1
330
E0
100
AcDbEntity
  8
_U+30EC_U+30A4_U+30E4_U+30FC 1
 62
   179
420
  2234388
370
     9
100
AcDbVertex
100
AcDb2dVertex
 10
87.05962666781278
 20
-106.6698046955549
 30
0.0
  0
VERTEX
  5
E2
330
E0
100
AcDbEntity
  8
_U+30EC_U+30A4_U+30E4_U+30FC 1
 62
   179
420
  2234388
370
     9
100
AcDbVertex
100
AcDb2dVertex
 10
94.05937497648516
 20
-106.6698046955549
 30
0.0
  0
SEQEND
  5
E3
330
E0
100
AcDbEntity
  8
_U+30EC_U+30A4_U+30E4_U+30FC 1
 62
   179
420
  2234388
370
     9
  0
POLYLINE
  5
E4
330
DC
100
AcDbEntity
  8
_U+30EC_U+30A4_U+30E4_U+30FC 1
 62
   179
420
  2234388
370
     9
100
AcDb2dPolyline
 66
     1
 10
0.0
 20
0.0
 30
0.0
  0
VERTEX
  5
E5
330
E4
100
AcDbEntity
  8
_U+30EC_U+30A4_U+30E4_U+30FC 1
 62
   179
420
  2234388
370
     9
100
AcDbVertex
100
AcDb2dVertex
 10
87.05962666781278
 20
-108.1298460840786
 30
0.0
  0
VERTEX
  5
E6
330
E4
100
AcDbEntity
  8
_U+30EC_U+30A4_U+30E4_U+30FC 1
 62
   179
420
  2234388
370
     9
100
AcDbVertex
100
AcDb2dVertex
 10
87.05962666781278
 20
-105.6696796958049
 30
0.0
  0
SEQEND
  5
E7
330
E4
100
AcDbEntity
  8
_U+30EC_U+30A4_U+30E4_U+30FC 1
 62
   179
420
  2234388
370
     9
  0
POLYLINE
  5
E8
330
DC
100
AcDbEntity
  8
_U+30EC_U+30A4_U+30E4_U+30FC 1
 62
   179
420
  2234388
370
     9
100
AcDb2dPolyline
 66
     1
 10
0.0
 20
0.0
 30
0.0
  0
VERTEX
  5
E9
330
E8
100
AcDbEntity
  8
_U+30EC_U+30A4_U+30E4_U+30FC 1
 62
   179
420
  2234388
370
     9
100
AcDbVertex
100
AcDb2dVertex
 10
94.05937497648516
 20
-115.5943063599902
 30
0.0
  0
VERTEX
  5
EA
330
E8
100
AcDbEntity
  8
_U+30EC_U+30A4_U+30E4_U+30FC 1
 62
   179
420
  2234388
370
     9
100
AcDbVertex
100
AcDb2dVertex
 10
94.05937497648516
 20
-105.6696796958049
 30
0.0
  0
SEQEND
  5
EB
330
E8
100
AcDbEntity
  8
_U+30EC_U+30A4_U+30E4_U+30FC 1
 62
   179
420
  2234388
370
     9
  0
INSERT
  5
ED
330
DC
100
AcDbEntity
  8
_U+30EC_U+30A4_U+30E4_U+30FC 1
100
AcDbBlockReference
  2
block 9
 10
0.0
 20
0.0
 30
0.0
  0
INSERT
  5
F3
330
DC
100
AcDbEntity
  8
_U+30EC_U+30A4_U+30E4_U+30FC 1
100
AcDbBlockReference
  2
block 10
 10
0.0
 20
0.0
 30
0.0
  0
INSERT
  5
F8
330
DC
100
AcDbEntity
  8
_U+30EC_U+30A4_U+30E4_U+30FC 1
100
AcDbBlockReference
  2
block 11
 10
0.0
 20
0.0
 30
0.0
  0
INSERT
  5
FD
330
DC
100
AcDbEntity
  8
_U+30EC_U+30A4_U+30E4_U+30FC 1
100
AcDbBlockReference
  2
block 12
 10
0.0
 20
0.0
 30
0.0
  0
ENDBLK
  5
DF
330
DC
100
AcDbEntity
  8
0
100
AcDbBlockEnd
  0
BLOCK
  5
EE
330
EC
100
AcDbEntity
  8
0
100
AcDbBlockBegin
  2
block 9
 70
     0
 10
0.0
 20
0.0
 30
0.0
  3
block 9
  1

  0
SPLINE
  5
F0
330
EC
100
AcDbEntity
  8
_U+30EC_U+30A4_U+30E4_U+30FC 1
370
     0
100
AcDbSpline
210
0.0
220
0.0
230
1.0
 70
    11
 71
     3
 72
    26
 73
    22
 74
     0
 42
0.0000000001
 43
0.0000000001
 12
1.0
 22
0.0
 32
0.0
 13
1.0
 23
0.0
 33
0.0
 40
0.0
 40
0.0
 40
0.0
 40
0.0
 40
1.0
 40
1.0
 40
1.0
 40
2.0
 40
2.0
 40
2.0
 40
3.0
 40
3.0
 40
3.0
 40
4.0
 40
4.0
 40
4.0
 40
5.0
 40
5.0
 40
5.0
 40
6.0
 40
6.0
 40
6.0
 40
7.0
 40
7.0
 40
7.0
 40
7.0
 10
90.47044675472614
 20
-106.2972154139639
 30
0.0
 10
90.47044675472614
 20
-106.2972154139639
 30
0.0
 10
90.23342418534095
 20
-106.2972154139639
 30
0.0
 10
90.23342418534095
 20
-106.2972154139639
 30
0.0
 10
90.2589178919318
 20
-105.9883626037113
 30
0.0
 10
90.451326474783
 20
-105.4700479879554
 30
0.0
 10
90.85750323249397
 20
-104.964480225495
 30
0.0
 10
90.85750323249397
 20
-104.964480225495
 30
0.0
 10
90.01982826525547
 20
-104.964480225495
 30
0.0
 10
90.01982826525547
 20
-104.964480225495
 30
0.0
 10
90.01982826525547
 20
-104.964480225495
 30
0.0
 10
90.01982826525547
 20
-104.7529513627007
 30
0.0
 10
90.01982826525547
 20
-104.7529513627007
 30
0.0
 10
90.01982826525547
 20
-104.7529513627007
 30
0.0
 10
91.09452580187914
 20
-104.7529513627007
 30
0.0
 10
91.09452580187914
 20
-104.7529513627007
 30
0.0
 10
91.09452580187914
 20
-104.7529513627007
 30
0.0
 10
91.09452580187914
 20
-104.964480225495
 30
0.0
 10
91.09452580187914
 20
-104.964480225495
 30
0.0
 10
90.77085908103993
 20
-105.2543850105788
 30
0.0
 10
90.50420869048159
 20
-105.8465969244932
 30
0.0
 10
90.47044675472614
 20
-106.2972154139639
 30
0.0
  0
HATCH
  5
F1
330
EC
100
AcDbEntity
  8
_U+30EC_U+30A4_U+30E4_U+30FC 1
 62
   179
420
  2234388
100
AcDbHatch
 10
0.0
 20
0.0
 30
0.0
210
0.0
220
0.0
230
1.0
  2
SOLID
 70
     1
 71
     0
 91
        1
 92
        1
 93
        1
 72
     4
 94
        3
 73
     0
 74
     1
 95
       26
 96
       22
 40
0.0
 40
0.0
 40
0.0
 40
0.0
 40
1.0
 40
1.0
 40
1.0
 40
2.0
 40
2.0
 40
2.0
 40
3.0
 40
3.0
 40
3.0
 40
4.0
 40
4.0
 40
4.0
 40
5.0
 40
5.0
 40
5.0
 40
6.0
 40
6.0
 40
6.0
 40
7.0
 40
7.0
 40
7.0
 40
7.0
 10
90.47044675472614
 20
-106.2972154139639
 10
90.47044675472614
 20
-106.2972154139639
 10
90.23342418534095
 20
-106.2972154139639
 10
90.23342418534095
 20
-106.2972154139639
 10
90.2589178919318
 20
-105.9883626037113
 10
90.451326474783
 20
-105.4700479879554
 10
90.85750323249397
 20
-104.964480225495
 10
90.85750323249397
 20
-104.964480225495
 10
90.01982826525547
 20
-104.964480225495
 10
90.01982826525547
 20
-104.964480225495
 10
90.01982826525547
 20
-104.964480225495
 10
90.01982826525547
 20
-104.7529513627007
 10
90.01982826525547
 20
-104.7529513627007
 10
90.01982826525547
 20
-104.7529513627007
 10
91.09452580187914
 20
-104.7529513627007
 10
91.09452580187914
 20
-104.7529513627007
 10
91.09452580187914
 20
-104.7529513627007
 10
91.09452580187914
 20
-104.964480225495
 10
91.09452580187914
 20
-104.964480225495
 10
90.77085908103993
 20
-105.2543850105788
 10
90.50420869048159
 20
-105.8465969244932
 10
90.47044675472614
 20
-106.2972154139639
 97
        0
 97
        0
 75
     2
 76
     1
 98
        0
  0
ENDBLK
  5
EF
330
EC
100
AcDbEntity
  8
0
100
AcDbBlockEnd
  0
BLOCK
  5
F4
330
F2
100
AcDbEntity
  8
0
100
AcDbBlockBegin
  2
block 10
 70
     0
 10
0.0
 20
0.0
 30
0.0
  3
block 10
  1

  0
SPLINE
  5
F6
330
F2
100
AcDbEntity
  8
_U+30EC_U+30A4_U+30E4_U+30FC 1
 62
   179
420
  2234388
370
     5
100
AcDbSpline
210
0.0
220
0.0
230
1.0
 70
    11
 71
     3
 72
    17
 73
    13
 74
     0
 42
0.0000000001
 43
0.0000000001
 12
1.0
 22
0.0
 32
0.0
 13
1.0
 23
0.0
 33
0.0
 40
0.0
 40
0.0
 40
0.0
 40
0.0
 40
1.0
 40
1.0
 40
1.0
 40
2.0
 40
2.0
 40
2.0
 40
3.0
 40
3.0
 40
3.0
 40
4.0
 40
4.0
 40
4.0
 40
4.0
 10
87.09493972246742
 20
-110.6695638612214
 30
0.0
 10
87.09493972246742
 20
-110.6891783056612
 30
0.0
 10
87.0791000006493
 20
-110.7050533056569
 30
0.0
 10
87.05962666781278
 20
-110.7050533056569
 30
0.0
 10
87.04015553379554
 20
-110.7050533056569
 30
0.0
 10
87.02431361315813
 20
-110.6891783056612
 30
0.0
 10
87.02431361315813
 20
-110.6695638612214
 30
0.0
 10
87.02431361315813
 20
-110.6502669167819
 30
0.0
 10
87.04015553379554
 20
-110.6344271945637
 30
0.0
 10
87.05962666781278
 20
-110.6344271945637
 30
0.0
 10
87.0791000006493
 20
-110.6344271945637
 30
0.0
 10
87.09493972246742
 20
-110.6502669167819
 30
0.0
 10
87.09493972246742
 20
-110.6695638612214
 30
0.0
  0
ENDBLK
  5
F5
330
F2
100
AcDbEntity
  8
0
100
AcDbBlockEnd
  0
BLOCK
  5
F9
330
F7
100
AcDbEntity
  8
0
100
AcDbBlockBegin
  2
block 11
 70
     0
 10
0.0
 20
0.0
 30
0.0
  3
block 11
  1

  0
SPLINE
  5
FB
330
F7
100
AcDbEntity
  8
_U+30EC_U+30A4_U+30E4_U+30FC 1
 62
   179
420
  2234388
370
    25
100
AcDbSpline
210
0.0
220
0.0
230
1.0
 70
    11
 71
     3
 72
    17
 73
    13
 74
     0
 42
0.0000000001
 43
0.0000000001
 12
1.0
 22
0.0
 32
0.0
 13
1.0
 23
0.0
 33
0.0
 40
0.0
 40
0.0
 40
0.0
 40
0.0
 40
1.0
 40
1.0
 40
1.0
 40
2.0
 40
2.0
 40
2.0
 40
3.0
 40
3.0
 40
3.0
 40
4.0
 40
4.0
 40
4.0
 40
4.0
 10
94.09486204388452
 20
-118.1340594149109
 30
0.0
 10
94.09486204388452
 20
-118.1536738593506
 30
0.0
 10
94.0793398220583
 20
-118.1695488593464
 30
0.0
 10
94.05937497648516
 20
-118.1695488593464
 30
0.0
 10
94.04007565639336
 20
-118.1695488593464
 30
0.0
 10
94.02423593457523
 20
-118.1536738593506
 30
0.0
 10
94.02423593457523
 20
-118.1340594149109
 30
0.0
 10
94.02423593457523
 20
-118.1147624704714
 30
0.0
 10
94.04007565639336
 20
-118.0989227482532
 30
0.0
 10
94.05937497648516
 20
-118.0989227482532
 30
0.0
 10
94.0793398220583
 20
-118.0989227482532
 30
0.0
 10
94.09486204388452
 20
-118.1147624704714
 30
0.0
 10
94.09486204388452
 20
-118.1340594149109
 30
0.0
  0
ENDBLK
  5
FA
330
F7
100
AcDbEntity
  8
0
100
AcDbBlockEnd
  0
BLOCK
  5
FE
330
FC
100
AcDbEntity
  8
0
100
AcDbBlockBegin
  2
block 12
 70
     0
 10
0.0
 20
0.0
 30
0.0
  3
block 12
  1

  0
SPLINE
  5
100
330
FC
100
AcDbEntity
  8
_U+30EC_U+30A4_U+30E4_U+30FC 1
 62
   179
420
  2234388
370
     9
100
AcDbSpline
210
0.0
220
0.0
230
1.0
 70
    11
 71
     3
 72
    17
 73
    13
 74
     0
 42
0.0000000001
 43
0.0000000001
 12
1.0
 22
0.0
 32
0.0
 13
1.0
 23
0.0
 33
0.0
 40
0.0
 40
0.0
 40
0.0
 40
0.0
 40
1.0
 40
1.0
 40
1.0
 40
2.0
 40
2.0
 40
2.0
 40
3.0
 40
3.0
 40
3.0
 40
4.0
 40
4.0
 40
4.0
 40
4.0
 10
94.09486204388452
 20
-106.6698046955549
 30
0.0
 10
94.09486204388452
 20
-106.6891016399944
 30
0.0
 10
94.0793398220583
 20
-106.7049413622126
 30
0.0
 10
94.05937497648516
 20
-106.7049413622126
 30
0.0
 10
94.04007565639336
 20
-106.7049413622126
 30
0.0
 10
94.02423593457523
 20
-106.6891016399944
 30
0.0
 10
94.02423593457523
 20
-106.6698046955549
 30
0.0
 10
94.02423593457523
 20
-106.6501549733376
 30
0.0
 10
94.04007565639336
 20
-106.6343152511191
 30
0.0
 10
94.05937497648516
 20
-106.6343152511191
 30
0.0
 10
94.0793398220583
 20
-106.6343152511191
 30
0.0
 10
94.09486204388452
 20
-106.6501549733376
 30
0.0
 10
94.09486204388452
 20
-106.6698046955549
 30
0.0
  0
ENDBLK
  5
FF
330
FC
100
AcDbEntity
  8
0
100
AcDbBlockEnd
  0
BLOCK
  5
103
330
101
100
AcDbEntity
  8
0
100
AcDbBlockBegin
  2
block 13
 70
     0
 10
0.0
 20
0.0
 30
0.0
  3
block 13
  1

  0
SPLINE
  5
105
330
101
100
AcDbEntity
  8
_U+30EC_U+30A4_U+30E4_U+30FC 1
 62
   179
420
  2234388
370
     9
100
AcDbSpline
210
0.0
220
0.0
230
1.0
 70
    11
 71
     3
 72
    17
 73
    13
 74
     0
 42
0.0000000001
 43
0.0000000001
 12
1.0
 22
0.0
 32
0.0
 13
1.0
 23
0.0
 33
0.0
 40
0.0
 40
0.0
 40
0.0
 40
0.0
 40
1.0
 40
1.0
 40
1.0
 40
2.0
 40
2.0
 40
2.0
 40
3.0
 40
3.0
 40
3.0
 40
4.0
 40
4.0
 40
4.0
 40
4.0
 10
95.1535481279863
 20
-148.1253210740796
 30
0.0
 10
95.1535481279863
 20
-148.0698644074269
 30
0.0
 10
95.10874535135153
 20
-148.0250616296602
 30
0.0
 10
95.05364146386846
 20
-148.0250616296602
 30
0.0
 10
94.99850229860851
 20
-148.0250616296602
 30
0.0
 10
94.95373479975063
 20
-148.0698644074269
 30
0.0
 10
94.95373479975063
 20
-148.1253210740796
 30
0.0
 10
94.95373479975063
 20
-148.1804602407327
 30
0.0
 10
94.99850229860851
 20
-148.2252277407212
 30
0.0
 10
95.05364146386846
 20
-148.2252277407212
 30
0.0
 10
95.10874535135153
 20
-148.2252277407212
 30
0.0
 10
95.1535481279863
 20
-148.1804602407327
 30
0.0
 10
95.1535481279863
 20
-148.1253210740796
 30
0.0
  0
SPLINE
  5
106
330
101
100
AcDbEntity
  8
_U+30EC_U+30A4_U+30E4_U+30FC 1
 62
   179
420
  2234388
370
     9
100
AcDbSpline
210
0.0
220
0.0
230
1.0
 70
    11
 71
     3
 72
    17
 73
    13
 74
     0
 42
0.0000000001
 43
0.0000000001
 12
1.0
 22
0.0
 32
0.0
 13
1.0
 23
0.0
 33
0.0
 40
0.0
 40
0.0
 40
0.0
 40
0.0
 40
1.0
 40
1.0
 40
1.0
 40
2.0
 40
2.0
 40
2.0
 40
3.0
 40
3.0
 40
3.0
 40
4.0
 40
4.0
 40
4.0
 40
4.0
 10
92.1535612600779
 20
-148.1253210740796
 30
0.0
 10
92.1535612600779
 20
-148.0698644074269
 30
0.0
 10
92.10911126121191
 20
-148.0250616296602
 30
0.0
 10
92.05365459596007
 20
-148.0250616296602
 30
0.0
 10
91.99851543070011
 20
-148.0250616296602
 30
0.0
 10
91.95374793184223
 20
-148.0698644074269
 30
0.0
 10
91.95374793184223
 20
-148.1253210740796
 30
0.0
 10
91.95374793184223
 20
-148.1804602407327
 30
0.0
 10
91.99851543070011
 20
-148.2252277407212
 30
0.0
 10
92.05365459596007
 20
-148.2252277407212
 30
0.0
 10
92.10911126121191
 20
-148.2252277407212
 30
0.0
 10
92.1535612600779
 20
-148.1804602407327
 30
0.0
 10
92.1535612600779
 20
-148.1253210740796
 30
0.0
  0
POLYLINE
  5
107
330
101
100
AcDbEntity
  8
_U+30EC_U+30A4_U+30E4_U+30FC 1
 62
   179
420
  2234388
370
     9
100
AcDb2dPolyline
 66
     1
 10
0.0
 20
0.0
 30
0.0
  0
VERTEX
  5
108
330
107
100
AcDbEntity
  8
_U+30EC_U+30A4_U+30E4_U+30FC 1
 62
   179
420
  2234388
370
     9
100
AcDbVertex
100
AcDb2dVertex
 10
89.49721521673582
 20
-148.1253210740796
 30
0.0
  0
VERTEX
  5
109
330
107
100
AcDbEntity
  8
_U+30EC_U+30A4_U+30E4_U+30FC 1
 62
   179
420
  2234388
370
     9
100
AcDbVertex
100
AcDb2dVertex
 10
97.57095778853527
 20
-148.1253210740796
 30
0.0
  0
SEQEND
  5
10A
330
107
100
AcDbEntity
  8
_U+30EC_U+30A4_U+30E4_U+30FC 1
 62
   179
420
  2234388
370
     9
  0
POLYLINE
  5
10B
330
101
100
AcDbEntity
  8
_U+30EC_U+30A4_U+30E4_U+30FC 1
 62
   179
420
  2234388
370
     9
100
AcDb2dPolyline
 66
     1
 10
0.0
 20
0.0
 30
0.0
  0
VERTEX
  5
10C
330
10B
100
AcDbEntity
  8
_U+30EC_U+30A4_U+30E4_U+30FC 1
 62
   179
420
  2234388
370
     9
100
AcDbVertex
100
AcDb2dVertex
 10
92.05365459596007
 20
-149.5853624626039
 30
0.0
  0
VERTEX
  5
10D
330
10B
100
AcDbEntity
  8
_U+30EC_U+30A4_U+30E4_U+30FC 1
 62
   179
420
  2234388
370
     9
100
AcDbVertex
100
AcDb2dVertex
 10
92.05365459596007
 20
-147.0983496854477
 30
0.0
  0
SEQEND
  5
10E
330
10B
100
AcDbEntity
  8
_U+30EC_U+30A4_U+30E4_U+30FC 1
 62
   179
420
  2234388
370
     9
  0
SPLINE
  5
10F
330
101
100
AcDbEntity
  8
_U+30EC_U+30A4_U+30E4_U+30FC 1
 62
   179
420
  2234388
370
     9
100
AcDbSpline
210
0.0
220
0.0
230
1.0
 70
    11
 71
     3
 72
    17
 73
    13
 74
     0
 42
0.0000000001
 43
0.0000000001
 12
1.0
 22
0.0
 32
0.0
 13
1.0
 23
0.0
 33
0.0
 40
0.0
 40
0.0
 40
0.0
 40
0.0
 40
1.0
 40
1.0
 40
1.0
 40
2.0
 40
2.0
 40
2.0
 40
3.0
 40
3.0
 40
3.0
 40
4.0
 40
4.0
 40
4.0
 40
4.0
 10
93.64940955524897
 20
-148.1253210740796
 30
0.0
 10
93.64940955524897
 20
-148.0698644074269
 30
0.0
 10
93.60495955638298
 20
-148.0250616296602
 30
0.0
 10
93.54950289113113
 20
-148.0250616296602
 30
0.0
 10
93.49436372587118
 20
-148.0250616296602
 30
0.0
 10
93.44959622701329
 20
-148.0698644074269
 30
0.0
 10
93.44959622701329
 20
-148.1253210740796
 30
0.0
 10
93.44959622701329
 20
-148.1804602407327
 30
0.0
 10
93.49436372587118
 20
-148.2252277407212
 30
0.0
 10
93.54950289113113
 20
-148.2252277407212
 30
0.0
 10
93.60495955638298
 20
-148.2252277407212
 30
0.0
 10
93.64940955524897
 20
-148.1804602407327
 30
0.0
 10
93.64940955524897
 20
-148.1253210740796
 30
0.0
  0
POLYLINE
  5
110
330
101
100
AcDbEntity
  8
_U+30EC_U+30A4_U+30E4_U+30FC 1
 62
   179
420
  2234388
370
     9
100
AcDb2dPolyline
 66
     1
 10
0.0
 20
0.0
 30
0.0
  0
VERTEX
  5
111
330
110
100
AcDbEntity
  8
_U+30EC_U+30A4_U+30E4_U+30FC 1
 62
   179
420
  2234388
370
     9
100
AcDbVertex
100
AcDb2dVertex
 10
93.54950289113113
 20
-151.7047807954072
 30
0.0
  0
VERTEX
  5
112
330
110
100
AcDbEntity
  8
_U+30EC_U+30A4_U+30E4_U+30FC 1
 62
   179
420
  2234388
370
     9
100
AcDbVertex
100
AcDb2dVertex
 10
93.54950289113113
 20
-147.0983496854477
 30
0.0
  0
SEQEND
  5
113
330
110
100
AcDbEntity
  8
_U+30EC_U+30A4_U+30E4_U+30FC 1
 62
   179
420
  2234388
370
     9
  0
POLYLINE
  5
114
330
101
100
AcDbEntity
  8
_U+30EC_U+30A4_U+30E4_U+30FC 1
 62
   179
420
  2234388
370
     9
100
AcDb2dPolyline
 66
     1
 10
0.0
 20
0.0
 30
0.0
  0
VERTEX
  5
115
330
114
100
AcDbEntity
  8
_U+30EC_U+30A4_U+30E4_U+30FC 1
 62
   179
420
  2234388
370
     9
100
AcDbVertex
100
AcDb2dVertex
 10
95.04880840843622
 20
-149.5853624626039
 30
0.0
  0
VERTEX
  5
116
330
114
100
AcDbEntity
  8
_U+30EC_U+30A4_U+30E4_U+30FC 1
 62
   179
420
  2234388
370
     9
100
AcDbVertex
100
AcDb2dVertex
 10
95.04880840843622
 20
-147.0983496854477
 30
0.0
  0
SEQEND
  5
117
330
114
100
AcDbEntity
  8
_U+30EC_U+30A4_U+30E4_U+30FC 1
 62
   179
420
  2234388
370
     9
  0
INSERT
  5
119
330
101
100
AcDbEntity
  8
_U+30EC_U+30A4_U+30E4_U+30FC 1
100
AcDbBlockReference
  2
block 14
 10
0.0
 20
0.0
 30
0.0
  0
INSERT
  5
11F
330
101
100
AcDbEntity
  8
_U+30EC_U+30A4_U+30E4_U+30FC 1
100
AcDbBlockReference
  2
block 15
 10
0.0
 20
0.0
 30
0.0
  0
SPLINE
  5
124
330
101
100
AcDbEntity
  8
_U+30EC_U+30A4_U+30E4_U+30FC 1
 62
   179
420
  2234388
370
     9
100
AcDbSpline
210
0.0
220
0.0
230
1.0
 70
    11
 71
     3
 72
    17
 73
    13
 74
     0
 42
0.0000000001
 43
0.0000000001
 12
1.0
 22
0.0
 32
0.0
 13
1.0
 23
0.0
 33
0.0
 40
0.0
 40
0.0
 40
0.0
 40
0.0
 40
1.0
 40
1.0
 40
1.0
 40
2.0
 40
2.0
 40
2.0
 40
3.0
 40
3.0
 40
3.0
 40
4.0
 40
4.0
 40
4.0
 40
4.0
 10
87.14418749898879
 20
-150.2447394068835
 30
0.0
 10
87.14418749898879
 20
-150.1892827402302
 30
0.0
 10
87.09959638901529
 20
-150.1444799624641
 30
0.0
 10
87.04428083487095
 20
-150.1444799624641
 30
0.0
 10
86.9890027560304
 20
-150.1444799624641
 30
0.0
 10
86.9442330596456
 20
-150.1892827402302
 30
0.0
 10
86.9442330596456
 20
-150.2447394068835
 30
0.0
 10
86.9442330596456
 20
-150.2998785735359
 30
0.0
 10
86.9890027560304
 20
-150.3446460735251
 30
0.0
 10
87.04428083487095
 20
-150.3446460735251
 30
0.0
 10
87.09959638901529
 20
-150.3446460735251
 30
0.0
 10
87.14418749898879
 20
-150.2998785735359
 30
0.0
 10
87.14418749898879
 20
-150.2447394068835
 30
0.0
  0
SPLINE
  5
125
330
101
100
AcDbEntity
  8
_U+30EC_U+30A4_U+30E4_U+30FC 1
 62
   179
420
  2234388
370
     9
100
AcDbSpline
210
0.0
220
0.0
230
1.0
 70
    11
 71
     3
 72
    17
 73
    13
 74
     0
 42
0.0000000001
 43
0.0000000001
 12
1.0
 22
0.0
 32
0.0
 13
1.0
 23
0.0
 33
0.0
 40
0.0
 40
0.0
 40
0.0
 40
0.0
 40
1.0
 40
1.0
 40
1.0
 40
2.0
 40
2.0
 40
2.0
 40
3.0
 40
3.0
 40
3.0
 40
4.0
 40
4.0
 40
4.0
 40
4.0
 10
93.64595233311493
 20
-150.2447394068835
 30
0.0
 10
93.64595233311493
 20
-150.1892827402302
 30
0.0
 10
93.60118483425705
 20
-150.1444799624641
 30
0.0
 10
93.54604566899711
 20
-150.1444799624641
 30
0.0
 10
93.49094178151404
 20
-150.1444799624641
 30
0.0
 10
93.44613900487927
 20
-150.1892827402302
 30
0.0
 10
93.44613900487927
 20
-150.2447394068835
 30
0.0
 10
93.44613900487927
 20
-150.2998785735359
 30
0.0
 10
93.49094178151404
 20
-150.3446460735251
 30
0.0
 10
93.54604566899711
 20
-150.3446460735251
 30
0.0
 10
93.60118483425705
 20
-150.3446460735251
 30
0.0
 10
93.64595233311493
 20
-150.2998785735359
 30
0.0
 10
93.64595233311493
 20
-150.2447394068835
 30
0.0
  0
POLYLINE
  5
126
330
101
100
AcDbEntity
  8
_U+30EC_U+30A4_U+30E4_U+30FC 1
 62
   179
420
  2234388
370
     9
100
AcDb2dPolyline
 66
     1
 10
0.0
 20
0.0
 30
0.0
  0
VERTEX
  5
127
330
126
100
AcDbEntity
  8
_U+30EC_U+30A4_U+30E4_U+30FC 1
 62
   179
420
  2234388
370
     9
100
AcDbVertex
100
AcDb2dVertex
 10
87.04428083487095
 20
-150.2447394068835
 30
0.0
  0
VERTEX
  5
128
330
126
100
AcDbEntity
  8
_U+30EC_U+30A4_U+30E4_U+30FC 1
 62
   179
420
  2234388
370
     9
100
AcDbVertex
100
AcDb2dVertex
 10
93.54604566899711
 20
-150.2447394068835
 30
0.0
  0
SEQEND
  5
129
330
126
100
AcDbEntity
  8
_U+30EC_U+30A4_U+30E4_U+30FC 1
 62
   179
420
  2234388
370
     9
  0
POLYLINE
  5
12A
330
101
100
AcDbEntity
  8
_U+30EC_U+30A4_U+30E4_U+30FC 1
 62
   179
420
  2234388
370
     9
100
AcDb2dPolyline
 66
     1
 10
0.0
 20
0.0
 30
0.0
  0
VERTEX
  5
12B
330
12A
100
AcDbEntity
  8
_U+30EC_U+30A4_U+30E4_U+30FC 1
 62
   179
420
  2234388
370
     9
100
AcDbVertex
100
AcDb2dVertex
 10
87.04428083487095
 20
-151.7047807954072
 30
0.0
  0
VERTEX
  5
12C
330
12A
100
AcDbEntity
  8
_U+30EC_U+30A4_U+30E4_U+30FC 1
 62
   179
420
  2234388
370
     9
100
AcDbVertex
100
AcDb2dVertex
 10
87.04428083487095
 20
-124.8595560798963
 30
0.0
  0
SEQEND
  5
12D
330
12A
100
AcDbEntity
  8
_U+30EC_U+30A4_U+30E4_U+30FC 1
 62
   179
420
  2234388
370
     9
  0
INSERT
  5
12F
330
101
100
AcDbEntity
  8
_U+30EC_U+30A4_U+30E4_U+30FC 1
100
AcDbBlockReference
  2
block 16
 10
0.0
 20
0.0
 30
0.0
  0
INSERT
  5
13F
330
101
100
AcDbEntity
  8
_U+30EC_U+30A4_U+30E4_U+30FC 1
100
AcDbBlockReference
  2
block 17
 10
0.0
 20
0.0
 30
0.0
  0
ENDBLK
  5
104
330
101
100
AcDbEntity
  8
0
100
AcDbBlockEnd
  0
BLOCK
  5
11A
330
118
100
AcDbEntity
  8
0
100
AcDbBlockBegin
  2
block 14
 70
     0
 10
0.0
 20
0.0
 30
0.0
  3
block 14
  1

  0
SPLINE
  5
11C
330
118
100
AcDbEntity
  8
_U+30EC_U+30A4_U+30E4_U+30FC 1
370
     0
100
AcDbSpline
210
0.0
220
0.0
230
1.0
 70
    11
 71
     3
 72
    44
 73
    40
 74
     0
 42
0.0000000001
 43
0.0000000001
 12
1.0
 22
0.0
 32
0.0
 13
1.0
 23
0.0
 33
0.0
 40
0.0
 40
0.0
 40
0.0
 40
0.0
 40
1.0
 40
1.0
 40
1.0
 40
2.0
 40
2.0
 40
2.0
 40
3.0
 40
3.0
 40
3.0
 40
4.0
 40
4.0
 40
4.0
 40
5.0
 40
5.0
 40
5.0
 40
6.0
 40
6.0
 40
6.0
 40
7.0
 40
7.0
 40
7.0
 40
8.0
 40
8.0
 40
8.0
 40
9.0
 40
9.0
 40
9.0
 40
10.0
 40
10.0
 40
10.0
 40
11.0
 40
11.0
 40
11.0
 40
12.0
 40
12.0
 40
12.0
 40
13.0
 40
13.0
 40
13.0
 40
13.0
 10
96.40720754968292
 20
-147.1710340343878
 30
0.0
 10
96.18947751501514
 20
-147.3295084267093
 30
0.0
 10
96.09611542736486
 20
-147.4035779796422
 30
0.0
 10
96.04753958102285
 20
-147.5475829709256
 30
0.0
 10
96.04753958102285
 20
-147.5475829709256
 30
0.0
 10
96.8261311606893
 20
-147.5475829709256
 30
0.0
 10
96.8261311606893
 20
-147.5475829709256
 30
0.0
 10
96.8261311606893
 20
-147.5475829709256
 30
0.0
 10
96.8261311606893
 20
-147.7529106618465
 30
0.0
 10
96.8261311606893
 20
-147.7529106618465
 30
0.0
 10
96.8261311606893
 20
-147.7529106618465
 30
0.0
 10
95.79777015834223
 20
-147.7529106618465
 30
0.0
 10
95.79777015834223
 20
-147.7529106618465
 30
0.0
 10
95.82980954635505
 20
-147.3953097504776
 30
0.0
 10
95.8952663605748
 20
-147.3171060829624
 30
0.0
 10
96.28042803582574
 20
-147.0187608139398
 30
0.0
 10
96.5363986303798
 20
-146.8199788044408
 30
0.0
 10
96.60185544459954
 20
-146.7521104233814
 30
0.0
 10
96.60185544459954
 20
-146.61465111352
 30
0.0
 10
96.60185544459954
 20
-146.4961398288274
 30
0.0
 10
96.52985294895782
 20
-146.3648816908394
 30
0.0
 10
96.33313799675005
 20
-146.3648816908394
 30
0.0
 10
96.0730332876137
 20
-146.3648816908394
 30
0.0
 10
96.06442054890057
 20
-146.5957030883511
 30
0.0
 10
96.06028643431827
 20
-146.711802806204
 30
0.0
 10
96.06028643431827
 20
-146.711802806204
 30
0.0
 10
95.83601071822851
 20
-146.711802806204
 30
0.0
 10
95.83601071822851
 20
-146.711802806204
 30
0.0
 10
95.84462345694163
 20
-146.5850232923468
 30
0.0
 10
95.85495874339738
 20
-146.4730576890762
 30
0.0
 10
95.93557397775223
 20
-146.3545464043836
 30
0.0
 10
96.04547252373169
 20
-146.1936604452224
 30
0.0
 10
96.23150767993518
 20
-146.159898509467
 30
0.0
 10
96.34795190733662
 20
-146.159898509467
 30
0.0
 10
96.62493758435072
 20
-146.159898509467
 30
0.0
 10
96.83233233256276
 20
-146.3438666083793
 30
0.0
 10
96.83233233256276
 20
-146.6167181708111
 30
0.0
 10
96.83233233256276
 20
-146.8451280014832
 30
0.0
 10
96.71623261470984
 20
-146.9446912610069
 30
0.0
 10
96.40720754968292
 20
-147.1710340343878
 30
0.0
  0
HATCH
  5
11D
330
118
100
AcDbEntity
  8
_U+30EC_U+30A4_U+30E4_U+30FC 1
 62
   179
420
  2234388
100
AcDbHatch
 10
0.0
 20
0.0
 30
0.0
210
0.0
220
0.0
230
1.0
  2
SOLID
 70
     1
 71
     0
 91
        1
 92
        1
 93
        1
 72
     4
 94
        3
 73
     0
 74
     1
 95
       44
 96
       40
 40
0.0
 40
0.0
 40
0.0
 40
0.0
 40
1.0
 40
1.0
 40
1.0
 40
2.0
 40
2.0
 40
2.0
 40
3.0
 40
3.0
 40
3.0
 40
4.0
 40
4.0
 40
4.0
 40
5.0
 40
5.0
 40
5.0
 40
6.0
 40
6.0
 40
6.0
 40
7.0
 40
7.0
 40
7.0
 40
8.0
 40
8.0
 40
8.0
 40
9.0
 40
9.0
 40
9.0
 40
10.0
 40
10.0
 40
10.0
 40
11.0
 40
11.0
 40
11.0
 40
12.0
 40
12.0
 40
12.0
 40
13.0
 40
13.0
 40
13.0
 40
13.0
 10
96.40720754968292
 20
-147.1710340343878
 10
96.18947751501514
 20
-147.3295084267093
 10
96.09611542736486
 20
-147.4035779796422
 10
96.04753958102285
 20
-147.5475829709256
 10
96.04753958102285
 20
-147.5475829709256
 10
96.8261311606893
 20
-147.5475829709256
 10
96.8261311606893
 20
-147.5475829709256
 10
96.8261311606893
 20
-147.5475829709256
 10
96.8261311606893
 20
-147.7529106618465
 10
96.8261311606893
 20
-147.7529106618465
 10
96.8261311606893
 20
-147.7529106618465
 10
95.79777015834223
 20
-147.7529106618465
 10
95.79777015834223
 20
-147.7529106618465
 10
95.82980954635505
 20
-147.3953097504776
 10
95.8952663605748
 20
-147.3171060829624
 10
96.28042803582574
 20
-147.0187608139398
 10
96.5363986303798
 20
-146.8199788044408
 10
96.60185544459954
 20
-146.7521104233814
 10
96.60185544459954
 20
-146.61465111352
 10
96.60185544459954
 20
-146.4961398288274
 10
96.52985294895782
 20
-146.3648816908394
 10
96.33313799675005
 20
-146.3648816908394
 10
96.0730332876137
 20
-146.3648816908394
 10
96.06442054890057
 20
-146.5957030883511
 10
96.06028643431827
 20
-146.711802806204
 10
96.06028643431827
 20
-146.711802806204
 10
95.83601071822851
 20
-146.711802806204
 10
95.83601071822851
 20
-146.711802806204
 10
95.84462345694163
 20
-146.5850232923468
 10
95.85495874339738
 20
-146.4730576890762
 10
95.93557397775223
 20
-146.3545464043836
 10
96.04547252373169
 20
-146.1936604452224
 10
96.23150767993518
 20
-146.159898509467
 10
96.34795190733662
 20
-146.159898509467
 10
96.62493758435072
 20
-146.159898509467
 10
96.83233233256276
 20
-146.3438666083793
 10
96.83233233256276
 20
-146.6167181708111
 10
96.83233233256276
 20
-146.8451280014832
 10
96.71623261470984
 20
-146.9446912610069
 10
96.40720754968292
 20
-147.1710340343878
 97
        0
 97
        0
 75
     2
 76
     1
 98
        0
  0
ENDBLK
  5
11B
330
118
100
AcDbEntity
  8
0
100
AcDbBlockEnd
  0
BLOCK
  5
120
330
11E
100
AcDbEntity
  8
0
100
AcDbBlockBegin
  2
block 15
 70
     0
 10
0.0
 20
0.0
 30
0.0
  3
block 15
  1

  0
SPLINE
  5
122
330
11E
100
AcDbEntity
  8
_U+30EC_U+30A4_U+30E4_U+30FC 1
370
     0
100
AcDbSpline
210
0.0
220
0.0
230
1.0
 70
    11
 71
     3
 72
    44
 73
    40
 74
     0
 42
0.0000000001
 43
0.0000000001
 12
1.0
 22
0.0
 32
0.0
 13
1.0
 23
0.0
 33
0.0
 40
0.0
 40
0.0
 40
0.0
 40
0.0
 40
1.0
 40
1.0
 40
1.0
 40
2.0
 40
2.0
 40
2.0
 40
3.0
 40
3.0
 40
3.0
 40
4.0
 40
4.0
 40
4.0
 40
5.0
 40
5.0
 40
5.0
 40
6.0
 40
6.0
 40
6.0
 40
7.0
 40
7.0
 40
7.0
 40
8.0
 40
8.0
 40
8.0
 40
9.0
 40
9.0
 40
9.0
 40
10.0
 40
10.0
 40
10.0
 40
11.0
 40
11.0
 40
11.0
 40
12.0
 40
12.0
 40
12.0
 40
13.0
 40
13.0
 40
13.0
 40
13.0
 10
90.88678654411858
 20
-147.1710340343878
 30
0.0
 10
90.66888425467653
 20
-147.3295084267093
 30
0.0
 10
90.57586667657479
 20
-147.4035779796422
 30
0.0
 10
90.5271185754585
 20
-147.5475829709256
 30
0.0
 10
90.5271185754585
 20
-147.5475829709256
 30
0.0
 10
91.30571015512497
 20
-147.5475829709256
 30
0.0
 10
91.30571015512497
 20
-147.5475829709256
 30
0.0
 10
91.30571015512497
 20
-147.5475829709256
 30
0.0
 10
91.30571015512497
 20
-147.7529106618465
 30
0.0
 10
91.30571015512497
 20
-147.7529106618465
 30
0.0
 10
91.30571015512497
 20
-147.7529106618465
 30
0.0
 10
90.27752140755216
 20
-147.7529106618465
 30
0.0
 10
90.27752140755216
 20
-147.7529106618465
 30
0.0
 10
90.30921628601645
 20
-147.3953097504776
 30
0.0
 10
90.37484535501046
 20
-147.3171060829624
 30
0.0
 10
90.75983477548714
 20
-147.0187608139398
 30
0.0
 10
91.01580537004119
 20
-146.8199788044408
 30
0.0
 10
91.0814344390352
 20
-146.7521104233814
 30
0.0
 10
91.0814344390352
 20
-146.61465111352
 30
0.0
 10
91.0814344390352
 20
-146.4961398288274
 30
0.0
 10
91.00943194339348
 20
-146.3648816908394
 30
0.0
 10
90.81271699118571
 20
-146.3648816908394
 30
0.0
 10
90.55261228204935
 20
-146.3648816908394
 30
0.0
 10
90.54399954333623
 20
-146.5957030883511
 30
0.0
 10
90.53986542875393
 20
-146.711802806204
 30
0.0
 10
90.53986542875393
 20
-146.711802806204
 30
0.0
 10
90.31558971266416
 20
-146.711802806204
 30
0.0
 10
90.31558971266416
 20
-146.711802806204
 30
0.0
 10
90.32403019660302
 20
-146.5850232923468
 30
0.0
 10
90.3347099926073
 20
-146.4730576890762
 30
0.0
 10
90.41498071741363
 20
-146.3545464043836
 30
0.0
 10
90.52505151816736
 20
-146.1936604452224
 30
0.0
 10
90.7112589291451
 20
-146.159898509467
 30
0.0
 10
90.82753090177229
 20
-146.159898509467
 30
0.0
 10
91.10468883356064
 20
-146.159898509467
 30
0.0
 10
91.31208358177268
 20
-146.3438666083793
 30
0.0
 10
91.31208358177268
 20
-146.6167181708111
 30
0.0
 10
91.31208358177268
 20
-146.8451280014832
 30
0.0
 10
91.19563935437124
 20
-146.9446912610069
 30
0.0
 10
90.88678654411858
 20
-147.1710340343878
 30
0.0
  0
HATCH
  5
123
330
11E
100
AcDbEntity
  8
_U+30EC_U+30A4_U+30E4_U+30FC 1
 62
   179
420
  2234388
100
AcDbHatch
 10
0.0
 20
0.0
 30
0.0
210
0.0
220
0.0
230
1.0
  2
SOLID
 70
     1
 71
     0
 91
        1
 92
        1
 93
        1
 72
     4
 94
        3
 73
     0
 74
     1
 95
       44
 96
       40
 40
0.0
 40
0.0
 40
0.0
 40
0.0
 40
1.0
 40
1.0
 40
1.0
 40
2.0
 40
2.0
 40
2.0
 40
3.0
 40
3.0
 40
3.0
 40
4.0
 40
4.0
 40
4.0
 40
5.0
 40
5.0
 40
5.0
 40
6.0
 40
6.0
 40
6.0
 40
7.0
 40
7.0
 40
7.0
 40
8.0
 40
8.0
 40
8.0
 40
9.0
 40
9.0
 40
9.0
 40
10.0
 40
10.0
 40
10.0
 40
11.0
 40
11.0
 40
11.0
 40
12.0
 40
12.0
 40
12.0
 40
13.0
 40
13.0
 40
13.0
 40
13.0
 10
90.88678654411858
 20
-147.1710340343878
 10
90.66888425467653
 20
-147.3295084267093
 10
90.57586667657479
 20
-147.4035779796422
 10
90.5271185754585
 20
-147.5475829709256
 10
90.5271185754585
 20
-147.5475829709256
 10
91.30571015512497
 20
-147.5475829709256
 10
91.30571015512497
 20
-147.5475829709256
 10
91.30571015512497
 20
-147.5475829709256
 10
91.30571015512497
 20
-147.7529106618465
 10
91.30571015512497
 20
-147.7529106618465
 10
91.30571015512497
 20
-147.7529106618465
 10
90.27752140755216
 20
-147.7529106618465
 10
90.27752140755216
 20
-147.7529106618465
 10
90.30921628601645
 20
-147.3953097504776
 10
90.37484535501046
 20
-147.3171060829624
 10
90.75983477548714
 20
-147.0187608139398
 10
91.01580537004119
 20
-146.8199788044408
 10
91.0814344390352
 20
-146.7521104233814
 10
91.0814344390352
 20
-146.61465111352
 10
91.0814344390352
 20
-146.4961398288274
 10
91.00943194339348
 20
-146.3648816908394
 10
90.81271699118571
 20
-146.3648816908394
 10
90.55261228204935
 20
-146.3648816908394
 10
90.54399954333623
 20
-146.5957030883511
 10
90.53986542875393
 20
-146.711802806204
 10
90.53986542875393
 20
-146.711802806204
 10
90.31558971266416
 20
-146.711802806204
 10
90.31558971266416
 20
-146.711802806204
 10
90.32403019660302
 20
-146.5850232923468
 10
90.3347099926073
 20
-146.4730576890762
 10
90.41498071741363
 20
-146.3545464043836
 10
90.52505151816736
 20
-146.1936604452224
 10
90.7112589291451
 20
-146.159898509467
 10
90.82753090177229
 20
-146.159898509467
 10
91.10468883356064
 20
-146.159898509467
 10
91.31208358177268
 20
-146.3438666083793
 10
91.31208358177268
 20
-146.6167181708111
 10
91.31208358177268
 20
-146.8451280014832
 10
91.19563935437124
 20
-146.9446912610069
 10
90.88678654411858
 20
-147.1710340343878
 97
        0
 97
        0
 75
     2
 76
     1
 98
        0
  0
ENDBLK
  5
121
330
11E
100
AcDbEntity
  8
0
100
AcDbBlockEnd
  0
BLOCK
  5
130
330
12E
100
AcDbEntity
  8
0
100
AcDbBlockBegin
  2
block 16
 70
     0
 10
0.0
 20
0.0
 30
0.0
  3
block 16
  1

  0
SPLINE
  5
132
330
12E
100
AcDbEntity
  8
_U+30EC_U+30A4_U+30E4_U+30FC 1
370
     0
100
AcDbSpline
210
0.0
220
0.0
230
1.0
 70
    11
 71
     3
 72
    53
 73
    49
 74
     0
 42
0.0000000001
 43
0.0000000001
 12
1.0
 22
0.0
 32
0.0
 13
1.0
 23
0.0
 33
0.0
 40
0.0
 40
0.0
 40
0.0
 40
0.0
 40
1.0
 40
1.0
 40
1.0
 40
2.0
 40
2.0
 40
2.0
 40
3.0
 40
3.0
 40
3.0
 40
4.0
 40
4.0
 40
4.0
 40
5.0
 40
5.0
 40
5.0
 40
6.0
 40
6.0
 40
6.0
 40
7.0
 40
7.0
 40
7.0
 40
8.0
 40
8.0
 40
8.0
 40
9.0
 40
9.0
 40
9.0
 40
10.0
 40
10.0
 40
10.0
 40
11.0
 40
11.0
 40
11.0
 40
12.0
 40
12.0
 40
12.0
 40
13.0
 40
13.0
 40
13.0
 40
14.0
 40
14.0
 40
14.0
 40
15.0
 40
15.0
 40
15.0
 40
16.0
 40
16.0
 40
16.0
 40
16.0
 10
89.48911130575273
 20
-152.3924207518324
 30
0.0
 10
89.41073538346329
 20
-152.3924207518324
 30
0.0
 10
89.30927732142268
 20
-152.3755397839547
 30
0.0
 10
89.20764700460782
 20
-152.3121500270261
 30
0.0
 10
89.03418644692549
 20
-152.2019069714981
 30
0.0
 10
89.01317136446546
 20
-152.0709933430587
 30
0.0
 10
88.99405108452233
 20
-151.9628173448218
 30
0.0
 10
88.99405108452233
 20
-151.9628173448218
 30
0.0
 10
89.21625974332093
 20
-151.9628173448218
 30
0.0
 10
89.21625974332093
 20
-151.9628173448218
 30
0.0
 10
89.27120901631068
 20
-152.1619438638693
 30
0.0
 10
89.39816078494214
 20
-152.1915716850424
 30
0.0
 10
89.49117836304387
 20
-152.1915716850424
 30
0.0
 10
89.63087698497075
 20
-152.1915716850424
 30
0.0
 10
89.7831502054188
 20
-152.0920084255187
 30
0.0
 10
89.7831502054188
 20
-151.8594644802643
 30
0.0
 10
89.7831502054188
 20
-151.6034938857102
 30
0.0
 10
89.60331622108876
 20
-151.5335584473597
 30
0.0
 10
89.48273787910502
 20
-151.5335584473597
 30
0.0
 10
89.45104300064071
 20
-151.5335584473597
 30
0.0
 10
89.30927732142268
 20
-151.5335584473597
 30
0.0
 10
89.22039385790323
 20
-151.662405018508
 30
0.0
 10
89.22039385790323
 20
-151.662405018508
 30
0.0
 10
89.04486624292976
 20
-151.6434569933391
 30
0.0
 10
89.04486624292976
 20
-151.6434569933391
 30
0.0
 10
89.04486624292976
 20
-151.6434569933391
 30
0.0
 10
89.1654445849135
 20
-150.7973415421618
 30
0.0
 10
89.1654445849135
 20
-150.7973415421618
 30
0.0
 10
89.1654445849135
 20
-150.7973415421618
 30
0.0
 10
89.9438639098057
 20
-150.7973415421618
 30
0.0
 10
89.9438639098057
 20
-150.7973415421618
 30
0.0
 10
89.9438639098057
 20
-150.7973415421618
 30
0.0
 10
89.9438639098057
 20
-150.9919894370784
 30
0.0
 10
89.9438639098057
 20
-150.9919894370784
 30
0.0
 10
89.9438639098057
 20
-150.9919894370784
 30
0.0
 10
89.32822534659157
 20
-150.9919894370784
 30
0.0
 10
89.32822534659157
 20
-150.9919894370784
 30
0.0
 10
89.32822534659157
 20
-150.9919894370784
 30
0.0
 10
89.26276853237181
 20
-151.4150471626671
 30
0.0
 10
89.26276853237181
 20
-151.4150471626671
 30
0.0
 10
89.32409123200927
 20
-151.3812852269116
 30
0.0
 10
89.40660126888099
 20
-151.3409776097342
 30
0.0
 10
89.52511255357359
 20
-151.3409776097342
 30
0.0
 10
89.77884383606224
 20
-151.3409776097342
 30
0.0
 10
90.01586640544743
 20
-151.5270127659377
 30
0.0
 10
90.01586640544743
 20
-151.8401719455469
 30
0.0
 10
90.01586640544743
 20
-152.1574652397384
 30
0.0
 10
89.79159068935766
 20
-152.3924207518324
 30
0.0
 10
89.48911130575273
 20
-152.3924207518324
 30
0.0
  0
HATCH
  5
133
330
12E
100
AcDbEntity
  8
_U+30EC_U+30A4_U+30E4_U+30FC 1
 62
   179
420
  2234388
100
AcDbHatch
 10
0.0
 20
0.0
 30
0.0
210
0.0
220
0.0
230
1.0
  2
SOLID
 70
     1
 71
     0
 91
        1
 92
        1
 93
        1
 72
     4
 94
        3
 73
     0
 74
     1
 95
       53
 96
       49
 40
0.0
 40
0.0
 40
0.0
 40
0.0
 40
1.0
 40
1.0
 40
1.0
 40
2.0
 40
2.0
 40
2.0
 40
3.0
 40
3.0
 40
3.0
 40
4.0
 40
4.0
 40
4.0
 40
5.0
 40
5.0
 40
5.0
 40
6.0
 40
6.0
 40
6.0
 40
7.0
 40
7.0
 40
7.0
 40
8.0
 40
8.0
 40
8.0
 40
9.0
 40
9.0
 40
9.0
 40
10.0
 40
10.0
 40
10.0
 40
11.0
 40
11.0
 40
11.0
 40
12.0
 40
12.0
 40
12.0
 40
13.0
 40
13.0
 40
13.0
 40
14.0
 40
14.0
 40
14.0
 40
15.0
 40
15.0
 40
15.0
 40
16.0
 40
16.0
 40
16.0
 40
16.0
 10
89.48911130575273
 20
-152.3924207518324
 10
89.41073538346329
 20
-152.3924207518324
 10
89.30927732142268
 20
-152.3755397839547
 10
89.20764700460782
 20
-152.3121500270261
 10
89.03418644692549
 20
-152.2019069714981
 10
89.01317136446546
 20
-152.0709933430587
 10
88.99405108452233
 20
-151.9628173448218
 10
88.99405108452233
 20
-151.9628173448218
 10
89.21625974332093
 20
-151.9628173448218
 10
89.21625974332093
 20
-151.9628173448218
 10
89.27120901631068
 20
-152.1619438638693
 10
89.39816078494214
 20
-152.1915716850424
 10
89.49117836304387
 20
-152.1915716850424
 10
89.63087698497075
 20
-152.1915716850424
 10
89.7831502054188
 20
-152.0920084255187
 10
89.7831502054188
 20
-151.8594644802643
 10
89.7831502054188
 20
-151.6034938857102
 10
89.60331622108876
 20
-151.5335584473597
 10
89.48273787910502
 20
-151.5335584473597
 10
89.45104300064071
 20
-151.5335584473597
 10
89.30927732142268
 20
-151.5335584473597
 10
89.22039385790323
 20
-151.662405018508
 10
89.22039385790323
 20
-151.662405018508
 10
89.04486624292976
 20
-151.6434569933391
 10
89.04486624292976
 20
-151.6434569933391
 10
89.04486624292976
 20
-151.6434569933391
 10
89.1654445849135
 20
-150.7973415421618
 10
89.1654445849135
 20
-150.7973415421618
 10
89.1654445849135
 20
-150.7973415421618
 10
89.9438639098057
 20
-150.7973415421618
 10
89.9438639098057
 20
-150.7973415421618
 10
89.9438639098057
 20
-150.7973415421618
 10
89.9438639098057
 20
-150.9919894370784
 10
89.9438639098057
 20
-150.9919894370784
 10
89.9438639098057
 20
-150.9919894370784
 10
89.32822534659157
 20
-150.9919894370784
 10
89.32822534659157
 20
-150.9919894370784
 10
89.32822534659157
 20
-150.9919894370784
 10
89.26276853237181
 20
-151.4150471626671
 10
89.26276853237181
 20
-151.4150471626671
 10
89.32409123200927
 20
-151.3812852269116
 10
89.40660126888099
 20
-151.3409776097342
 10
89.52511255357359
 20
-151.3409776097342
 10
89.77884383606224
 20
-151.3409776097342
 10
90.01586640544743
 20
-151.5270127659377
 10
90.01586640544743
 20
-151.8401719455469
 10
90.01586640544743
 20
-152.1574652397384
 10
89.79159068935766
 20
-152.3924207518324
 10
89.48911130575273
 20
-152.3924207518324
 97
        0
 97
        0
 75
     2
 76
     1
 98
        0
  0
POLYLINE
  5
134
330
12E
100
AcDbEntity
  8
_U+30EC_U+30A4_U+30E4_U+30FC 1
370
     0
100
AcDb2dPolyline
 66
     1
 10
0.0
 20
0.0
 30
0.0
  0
VERTEX
  5
135
330
134
100
AcDbEntity
  8
_U+30EC_U+30A4_U+30E4_U+30FC 1
370
     0
100
AcDbVertex
100
AcDb2dVertex
 10
90.24496525521654
 20
-152.3417778481993
 30
0.0
  0
VERTEX
  5
136
330
134
100
AcDbEntity
  8
_U+30EC_U+30A4_U+30E4_U+30FC 1
370
     0
100
AcDbVertex
100
AcDb2dVertex
 10
90.24496525521654
 20
-152.0899413682275
 30
0.0
  0
VERTEX
  5
137
330
134
100
AcDbEntity
  8
_U+30EC_U+30A4_U+30E4_U+30FC 1
370
     0
100
AcDbVertex
100
AcDb2dVertex
 10
90.49662948041404
 20
-152.0899413682275
 30
0.0
  0
VERTEX
  5
138
330
134
100
AcDbEntity
  8
_U+30EC_U+30A4_U+30E4_U+30FC 1
370
     0
100
AcDbVertex
100
AcDb2dVertex
 10
90.49662948041404
 20
-152.3417778481993
 30
0.0
  0
VERTEX
  5
139
330
134
100
AcDbEntity
  8
_U+30EC_U+30A4_U+30E4_U+30FC 1
370
     0
100
AcDbVertex
100
AcDb2dVertex
 10
90.24496525521654
 20
-152.3417778481993
 30
0.0
  0
SEQEND
  5
13A
330
134
100
AcDbEntity
  8
_U+30EC_U+30A4_U+30E4_U+30FC 1
370
     0
  0
HATCH
  5
13B
330
12E
100
AcDbEntity
  8
_U+30EC_U+30A4_U+30E4_U+30FC 1
 62
   179
420
  2234388
100
AcDbHatch
 10
0.0
 20
0.0
 30
0.0
210
0.0
220
0.0
230
1.0
  2
SOLID
 70
     1
 71
     0
 91
        1
 92
        1
 93
        4
 72
     1
 10
90.24496525521654
 20
-152.3417778481993
 11
90.24496525521654
 21
-152.0899413682275
 72
     1
 10
90.24496525521654
 20
-152.0899413682275
 11
90.49662948041404
 21
-152.0899413682275
 72
     1
 10
90.49662948041404
 20
-152.0899413682275
 11
90.49662948041404
 21
-152.3417778481993
 72
     1
 10
90.49662948041404
 20
-152.3417778481993
 11
90.24496525521654
 21
-152.3417778481993
 97
        0
 75
     2
 76
     1
 98
        0
  0
SPLINE
  5
13C
330
12E
100
AcDbEntity
  8
_U+30EC_U+30A4_U+30E4_U+30FC 1
370
     0
100
AcDbSpline
210
0.0
220
0.0
230
1.0
 70
    11
 71
     3
 72
    53
 73
    49
 74
     0
 42
0.0000000001
 43
0.0000000001
 12
1.0
 22
0.0
 32
0.0
 13
1.0
 23
0.0
 33
0.0
 40
0.0
 40
0.0
 40
0.0
 40
0.0
 40
1.0
 40
1.0
 40
1.0
 40
2.0
 40
2.0
 40
2.0
 40
3.0
 40
3.0
 40
3.0
 40
4.0
 40
4.0
 40
4.0
 40
5.0
 40
5.0
 40
5.0
 40
6.0
 40
6.0
 40
6.0
 40
7.0
 40
7.0
 40
7.0
 40
8.0
 40
8.0
 40
8.0
 40
9.0
 40
9.0
 40
9.0
 40
10.0
 40
10.0
 40
10.0
 40
11.0
 40
11.0
 40
11.0
 40
12.0
 40
12.0
 40
12.0
 40
13.0
 40
13.0
 40
13.0
 40
14.0
 40
14.0
 40
14.0
 40
15.0
 40
15.0
 40
15.0
 40
16.0
 40
16.0
 40
16.0
 40
16.0
 10
91.21407061521732
 20
-152.3924207518324
 30
0.0
 10
91.13586694770216
 20
-152.3924207518324
 30
0.0
 10
91.03423663088728
 20
-152.3755397839547
 30
0.0
 10
90.93277856884667
 20
-152.3121500270261
 30
0.0
 10
90.75931801116434
 20
-152.2019069714981
 30
0.0
 10
90.73813067393006
 20
-152.0709933430587
 30
0.0
 10
90.71918264876118
 20
-151.9628173448218
 30
0.0
 10
90.71918264876118
 20
-151.9628173448218
 30
0.0
 10
90.94121905278553
 20
-151.9628173448218
 30
0.0
 10
90.94121905278553
 20
-151.9628173448218
 30
0.0
 10
90.99616832577527
 20
-152.1619438638693
 30
0.0
 10
91.12312009440673
 20
-152.1915716850424
 30
0.0
 10
91.21630992728274
 20
-152.1915716850424
 30
0.0
 10
91.35583629443535
 20
-152.1915716850424
 30
0.0
 10
91.50828176965766
 20
-152.0920084255187
 30
0.0
 10
91.50828176965766
 20
-151.8594644802643
 30
0.0
 10
91.50828176965766
 20
-151.6034938857102
 30
0.0
 10
91.32844778532761
 20
-151.5335584473597
 30
0.0
 10
91.20786944334387
 20
-151.5335584473597
 30
0.0
 10
91.1760023101053
 20
-151.5335584473597
 30
0.0
 10
91.03423663088728
 20
-151.5335584473597
 30
0.0
 10
90.9455254221421
 20
-151.662405018508
 30
0.0
 10
90.9455254221421
 20
-151.662405018508
 30
0.0
 10
90.76982555239435
 20
-151.6434569933391
 30
0.0
 10
90.76982555239435
 20
-151.6434569933391
 30
0.0
 10
90.76982555239435
 20
-151.6434569933391
 30
0.0
 10
90.8904038943781
 20
-150.7973415421618
 30
0.0
 10
90.8904038943781
 20
-150.7973415421618
 30
0.0
 10
90.8904038943781
 20
-150.7973415421618
 30
0.0
 10
91.6688232192703
 20
-150.7973415421618
 30
0.0
 10
91.6688232192703
 20
-150.7973415421618
 30
0.0
 10
91.6688232192703
 20
-150.7973415421618
 30
0.0
 10
91.6688232192703
 20
-150.9919894370784
 30
0.0
 10
91.6688232192703
 20
-150.9919894370784
 30
0.0
 10
91.6688232192703
 20
-150.9919894370784
 30
0.0
 10
91.05335691083042
 20
-150.9919894370784
 30
0.0
 10
91.05335691083042
 20
-150.9919894370784
 30
0.0
 10
91.05335691083042
 20
-150.9919894370784
 30
0.0
 10
90.9877278418364
 20
-151.4150471626671
 30
0.0
 10
90.9877278418364
 20
-151.4150471626671
 30
0.0
 10
91.04905054147385
 20
-151.3812852269116
 30
0.0
 10
91.13156057834559
 20
-151.3409776097342
 30
0.0
 10
91.25007186303819
 20
-151.3409776097342
 30
0.0
 10
91.50380314552683
 20
-151.3409776097342
 30
0.0
 10
91.74082571491202
 20
-151.5270127659377
 30
0.0
 10
91.74082571491202
 20
-151.8401719455469
 30
0.0
 10
91.74082571491202
 20
-152.1574652397384
 30
0.0
 10
91.51654999882226
 20
-152.3924207518324
 30
0.0
 10
91.21407061521732
 20
-152.3924207518324
 30
0.0
  0
HATCH
  5
13D
330
12E
100
AcDbEntity
  8
_U+30EC_U+30A4_U+30E4_U+30FC 1
 62
   179
420
  2234388
100
AcDbHatch
 10
0.0
 20
0.0
 30
0.0
210
0.0
220
0.0
230
1.0
  2
SOLID
 70
     1
 71
     0
 91
        1
 92
        1
 93
        1
 72
     4
 94
        3
 73
     0
 74
     1
 95
       53
 96
       49
 40
0.0
 40
0.0
 40
0.0
 40
0.0
 40
1.0
 40
1.0
 40
1.0
 40
2.0
 40
2.0
 40
2.0
 40
3.0
 40
3.0
 40
3.0
 40
4.0
 40
4.0
 40
4.0
 40
5.0
 40
5.0
 40
5.0
 40
6.0
 40
6.0
 40
6.0
 40
7.0
 40
7.0
 40
7.0
 40
8.0
 40
8.0
 40
8.0
 40
9.0
 40
9.0
 40
9.0
 40
10.0
 40
10.0
 40
10.0
 40
11.0
 40
11.0
 40
11.0
 40
12.0
 40
12.0
 40
12.0
 40
13.0
 40
13.0
 40
13.0
 40
14.0
 40
14.0
 40
14.0
 40
15.0
 40
15.0
 40
15.0
 40
16.0
 40
16.0
 40
16.0
 40
16.0
 10
91.21407061521732
 20
-152.3924207518324
 10
91.13586694770216
 20
-152.3924207518324
 10
91.03423663088728
 20
-152.3755397839547
 10
90.93277856884667
 20
-152.3121500270261
 10
90.75931801116434
 20
-152.2019069714981
 10
90.73813067393006
 20
-152.0709933430587
 10
90.71918264876118
 20
-151.9628173448218
 10
90.71918264876118
 20
-151.9628173448218
 10
90.94121905278553
 20
-151.9628173448218
 10
90.94121905278553
 20
-151.9628173448218
 10
90.99616832577527
 20
-152.1619438638693
 10
91.12312009440673
 20
-152.1915716850424
 10
91.21630992728274
 20
-152.1915716850424
 10
91.35583629443535
 20
-152.1915716850424
 10
91.50828176965766
 20
-152.0920084255187
 10
91.50828176965766
 20
-151.8594644802643
 10
91.50828176965766
 20
-151.6034938857102
 10
91.32844778532761
 20
-151.5335584473597
 10
91.20786944334387
 20
-151.5335584473597
 10
91.1760023101053
 20
-151.5335584473597
 10
91.03423663088728
 20
-151.5335584473597
 10
90.9455254221421
 20
-151.662405018508
 10
90.9455254221421
 20
-151.662405018508
 10
90.76982555239435
 20
-151.6434569933391
 10
90.76982555239435
 20
-151.6434569933391
 10
90.76982555239435
 20
-151.6434569933391
 10
90.8904038943781
 20
-150.7973415421618
 10
90.8904038943781
 20
-150.7973415421618
 10
90.8904038943781
 20
-150.7973415421618
 10
91.6688232192703
 20
-150.7973415421618
 10
91.6688232192703
 20
-150.7973415421618
 10
91.6688232192703
 20
-150.7973415421618
 10
91.6688232192703
 20
-150.9919894370784
 10
91.6688232192703
 20
-150.9919894370784
 10
91.6688232192703
 20
-150.9919894370784
 10
91.05335691083042
 20
-150.9919894370784
 10
91.05335691083042
 20
-150.9919894370784
 10
91.05335691083042
 20
-150.9919894370784
 10
90.9877278418364
 20
-151.4150471626671
 10
90.9877278418364
 20
-151.4150471626671
 10
91.04905054147385
 20
-151.3812852269116
 10
91.13156057834559
 20
-151.3409776097342
 10
91.25007186303819
 20
-151.3409776097342
 10
91.50380314552683
 20
-151.3409776097342
 10
91.74082571491202
 20
-151.5270127659377
 10
91.74082571491202
 20
-151.8401719455469
 10
91.74082571491202
 20
-152.1574652397384
 10
91.51654999882226
 20
-152.3924207518324
 10
91.21407061521732
 20
-152.3924207518324
 97
        0
 97
        0
 75
     2
 76
     1
 98
        0
  0
ENDBLK
  5
131
330
12E
100
AcDbEntity
  8
0
100
AcDbBlockEnd
  0
BLOCK
  5
140
330
13E
100
AcDbEntity
  8
0
100
AcDbBlockBegin
  2
block 17
 70
     0
 10
0.0
 20
0.0
 30
0.0
  3
block 17
  1

  0
SPLINE
  5
142
330
13E
100
AcDbEntity
  8
_U+30EC_U+30A4_U+30E4_U+30FC 1
 62
   179
420
  2234388
370
     9
100
AcDbSpline
210
0.0
220
0.0
230
1.0
 70
    11
 71
     3
 72
    17
 73
    13
 74
     0
 42
0.0000000001
 43
0.0000000001
 12
1.0
 22
0.0
 32
0.0
 13
1.0
 23
0.0
 33
0.0
 40
0.0
 40
0.0
 40
0.0
 40
0.0
 40
1.0
 40
1.0
 40
1.0
 40
2.0
 40
2.0
 40
2.0
 40
3.0
 40
3.0
 40
3.0
 40
4.0
 40
4.0
 40
4.0
 40
4.0
 10
95.08878053178324
 20
-148.1253210740796
 30
0.0
 10
95.08878053178324
 20
-148.1446180185194
 30
0.0
 10
95.07325830956495
 20
-148.1604577407379
 30
0.0
 10
95.05364146386846
 20
-148.1604577407379
 30
0.0
 10
95.03434451991633
 20
-148.1604577407379
 30
0.0
 10
95.0185047980982
 20
-148.1446180185194
 30
0.0
 10
95.0185047980982
 20
-148.1253210740796
 30
0.0
 10
95.0185047980982
 20
-148.1056713518626
 30
0.0
 10
95.03434451991633
 20
-148.0898316296441
 30
0.0
 10
95.05364146386846
 20
-148.0898316296441
 30
0.0
 10
95.07325830956495
 20
-148.0898316296441
 30
0.0
 10
95.08878053178324
 20
-148.1056713518626
 30
0.0
 10
95.08878053178324
 20
-148.1253210740796
 30
0.0
  0
ENDBLK
  5
141
330
13E
100
AcDbEntity
  8
0
100
AcDbBlockEnd
  0
BLOCK
  5
153
330
151
100
AcDbEntity
  8
0
100
AcDbBlockBegin
  2
block 18
 70
     0
 10
0.0
 20
0.0
 30
0.0
  3
block 18
  1

  0
SPLINE
  5
155
330
151
100
AcDbEntity
  8
_U+30EC_U+30A4_U+30E4_U+30FC 1
370
     0
100
AcDbSpline
210
0.0
220
0.0
230
1.0
 70
    11
 71
     3
 72
    32
 73
    28
 74
     0
 42
0.0000000001
 43
0.0000000001
 12
1.0
 22
0.0
 32
0.0
 13
1.0
 23
0.0
 33
0.0
 40
0.0
 40
0.0
 40
0.0
 40
0.0
 40
1.0
 40
1.0
 40
1.0
 40
2.0
 40
2.0
 40
2.0
 40
3.0
 40
3.0
 40
3.0
 40
4.0
 40
4.0
 40
4.0
 40
5.0
 40
5.0
 40
5.0
 40
6.0
 40
6.0
 40
6.0
 40
7.0
 40
7.0
 40
7.0
 40
8.0
 40
8.0
 40
8.0
 40
9.0
 40
9.0
 40
9.0
 40
9.0
 10
84.9128187179211
 20
-116.1217664640251
 30
0.0
 10
84.9128187179211
 20
-116.6378417677155
 30
0.0
 10
84.35850285434441
 20
-116.6462822516544
 30
0.0
 10
84.14490693425891
 20
-116.6462822516544
 30
0.0
 10
83.91425779152144
 20
-116.6462822516544
 30
0.0
 10
83.266924349843
 20
-116.6273342264855
 30
0.0
 10
83.266924349843
 20
-116.0836981589131
 30
0.0
 10
83.266924349843
 20
-115.9100653464565
 30
0.0
 10
83.33668753341931
 20
-115.6647745479067
 30
0.0
 10
83.66896699297165
 20
-115.6267062427947
 30
0.0
 10
83.66896699297165
 20
-115.6267062427947
 30
0.0
 10
83.66896699297165
 20
-115.8403021628802
 30
0.0
 10
83.66896699297165
 20
-115.8403021628802
 30
0.0
 10
83.6117784079165
 20
-115.8509819588845
 30
0.0
 10
83.46363930205077
 20
-115.8826768373488
 30
0.0
 10
83.46363930205077
 20
-116.0857652162043
 30
0.0
 10
83.46363930205077
 20
-116.3777370585792
 30
0.0
 10
83.79161239224655
 20
-116.4178724209823
 30
0.0
 10
83.99676782839317
 20
-116.4306192742778
 30
0.0
 10
83.918564160878
 20
-116.3374294414018
 30
0.0
 10
83.8593085185317
 20
-116.2697333151166
 30
0.0
 10
83.8593085185317
 20
-116.0878322734954
 30
0.0
 10
83.8593085185317
 20
-115.9079982891654
 30
0.0
 10
83.96714000722002
 20
-115.6055189055604
 30
0.0
 10
84.37331676493098
 20
-115.6055189055604
 30
0.0
 10
84.6928493711879
 20
-115.6055189055604
 30
0.0
 10
84.9128187179211
 20
-115.8043009150593
 30
0.0
 10
84.9128187179211
 20
-116.1217664640251
 30
0.0
  0
SPLINE
  5
156
330
151
100
AcDbEntity
  8
_U+30EC_U+30A4_U+30E4_U+30FC 1
370
     0
100
AcDbSpline
210
0.0
220
0.0
230
1.0
 70
    11
 71
     3
 72
    17
 73
    13
 74
     0
 42
0.0000000001
 43
0.0000000001
 12
1.0
 22
0.0
 32
0.0
 13
1.0
 23
0.0
 33
0.0
 40
0.0
 40
0.0
 40
0.0
 40
0.0
 40
1.0
 40
1.0
 40
1.0
 40
2.0
 40
2.0
 40
2.0
 40
3.0
 40
3.0
 40
3.0
 40
4.0
 40
4.0
 40
4.0
 40
4.0
 10
84.05395641344832
 20
-116.1047132413731
 30
0.0
 10
84.05395641344832
 20
-116.3670572625749
 30
0.0
 10
84.26548527624266
 20
-116.4051255676869
 30
0.0
 10
84.38175724886985
 20
-116.4051255676869
 30
0.0
 10
84.55745711861758
 20
-116.4051255676869
 30
0.0
 10
84.72023788029564
 20
-116.310040932294
 30
0.0
 10
84.72023788029564
 20
-116.1259005786074
 30
0.0
 10
84.72023788029564
 20
-116.0053222366237
 30
0.0
 10
84.66098223794934
 20
-115.8297946216502
 30
0.0
 10
84.37555607699639
 20
-115.8297946216502
 30
0.0
 10
84.15128036090663
 20
-115.8297946216502
 30
0.0
 10
84.05395641344832
 20
-115.9693209888028
 30
0.0
 10
84.05395641344832
 20
-116.1047132413731
 30
0.0
  0
HATCH
  5
157
330
151
100
AcDbEntity
  8
_U+30EC_U+30A4_U+30E4_U+30FC 1
 62
   179
420
  2234388
100
AcDbHatch
 10
0.0
 20
0.0
 30
0.0
210
0.0
220
0.0
230
1.0
  2
SOLID
 70
     1
 71
     0
 91
        2
 92
        1
 93
        1
 72
     4
 94
        3
 73
     0
 74
     1
 95
       32
 96
       28
 40
0.0
 40
0.0
 40
0.0
 40
0.0
 40
1.0
 40
1.0
 40
1.0
 40
2.0
 40
2.0
 40
2.0
 40
3.0
 40
3.0
 40
3.0
 40
4.0
 40
4.0
 40
4.0
 40
5.0
 40
5.0
 40
5.0
 40
6.0
 40
6.0
 40
6.0
 40
7.0
 40
7.0
 40
7.0
 40
8.0
 40
8.0
 40
8.0
 40
9.0
 40
9.0
 40
9.0
 40
9.0
 10
84.9128187179211
 20
-116.1217664640251
 10
84.9128187179211
 20
-116.6378417677155
 10
84.35850285434441
 20
-116.6462822516544
 10
84.14490693425891
 20
-116.6462822516544
 10
83.91425779152144
 20
-116.6462822516544
 10
83.266924349843
 20
-116.6273342264855
 10
83.266924349843
 20
-116.0836981589131
 10
83.266924349843
 20
-115.9100653464565
 10
83.33668753341931
 20
-115.6647745479067
 10
83.66896699297165
 20
-115.6267062427947
 10
83.66896699297165
 20
-115.6267062427947
 10
83.66896699297165
 20
-115.8403021628802
 10
83.66896699297165
 20
-115.8403021628802
 10
83.6117784079165
 20
-115.8509819588845
 10
83.46363930205077
 20
-115.8826768373488
 10
83.46363930205077
 20
-116.0857652162043
 10
83.46363930205077
 20
-116.3777370585792
 10
83.79161239224655
 20
-116.4178724209823
 10
83.99676782839317
 20
-116.4306192742778
 10
83.918564160878
 20
-116.3374294414018
 10
83.8593085185317
 20
-116.2697333151166
 10
83.8593085185317
 20
-116.0878322734954
 10
83.8593085185317
 20
-115.9079982891654
 10
83.96714000722002
 20
-115.6055189055604
 10
84.37331676493098
 20
-115.6055189055604
 10
84.6928493711879
 20
-115.6055189055604
 10
84.9128187179211
 20
-115.8043009150593
 10
84.9128187179211
 20
-116.1217664640251
 97
        0
 97
        0
 92
        1
 93
        1
 72
     4
 94
        3
 73
     0
 74
     1
 95
       17
 96
       13
 40
0.0
 40
0.0
 40
0.0
 40
0.0
 40
1.0
 40
1.0
 40
1.0
 40
2.0
 40
2.0
 40
2.0
 40
3.0
 40
3.0
 40
3.0
 40
4.0
 40
4.0
 40
4.0
 40
4.0
 10
84.05395641344832
 20
-116.1047132413731
 10
84.05395641344832
 20
-116.3670572625749
 10
84.26548527624266
 20
-116.4051255676869
 10
84.38175724886985
 20
-116.4051255676869
 10
84.55745711861758
 20
-116.4051255676869
 10
84.72023788029564
 20
-116.310040932294
 10
84.72023788029564
 20
-116.1259005786074
 10
84.72023788029564
 20
-116.0053222366237
 10
84.66098223794934
 20
-115.8297946216502
 10
84.37555607699639
 20
-115.8297946216502
 10
84.15128036090663
 20
-115.8297946216502
 10
84.05395641344832
 20
-115.9693209888028
 10
84.05395641344832
 20
-116.1047132413731
 97
        0
 97
        0
 75
     2
 76
     1
 98
        0
  0
POLYLINE
  5
158
330
151
100
AcDbEntity
  8
_U+30EC_U+30A4_U+30E4_U+30FC 1
370
     0
100
AcDb2dPolyline
 66
     1
 10
0.0
 20
0.0
 30
0.0
  0
VERTEX
  5
159
330
158
100
AcDbEntity
  8
_U+30EC_U+30A4_U+30E4_U+30FC 1
370
     0
100
AcDbVertex
100
AcDb2dVertex
 10
84.86200355951367
 20
-115.3891669090867
 30
0.0
  0
VERTEX
  5
15A
330
158
100
AcDbEntity
  8
_U+30EC_U+30A4_U+30E4_U+30FC 1
370
     0
100
AcDbVertex
100
AcDb2dVertex
 10
84.61033933431617
 20
-115.3891669090867
 30
0.0
  0
VERTEX
  5
15B
330
158
100
AcDbEntity
  8
_U+30EC_U+30A4_U+30E4_U+30FC 1
370
     0
100
AcDbVertex
100
AcDb2dVertex
 10
84.61033933431617
 20
-115.137330429115
 30
0.0
  0
VERTEX
  5
15C
330
158
100
AcDbEntity
  8
_U+30EC_U+30A4_U+30E4_U+30FC 1
370
     0
100
AcDbVertex
100
AcDb2dVertex
 10
84.86200355951367
 20
-115.137330429115
 30
0.0
  0
VERTEX
  5
15D
330
158
100
AcDbEntity
  8
_U+30EC_U+30A4_U+30E4_U+30FC 1
370
     0
100
AcDbVertex
100
AcDb2dVertex
 10
84.86200355951367
 20
-115.3891669090867
 30
0.0
  0
SEQEND
  5
15E
330
158
100
AcDbEntity
  8
_U+30EC_U+30A4_U+30E4_U+30FC 1
370
     0
  0
HATCH
  5
15F
330
151
100
AcDbEntity
  8
_U+30EC_U+30A4_U+30E4_U+30FC 1
 62
   179
420
  2234388
100
AcDbHatch
 10
0.0
 20
0.0
 30
0.0
210
0.0
220
0.0
230
1.0
  2
SOLID
 70
     1
 71
     0
 91
        1
 92
        1
 93
        4
 72
     1
 10
84.86200355951367
 20
-115.3891669090867
 11
84.61033933431617
 21
-115.3891669090867
 72
     1
 10
84.61033933431617
 20
-115.3891669090867
 11
84.61033933431617
 21
-115.137330429115
 72
     1
 10
84.61033933431617
 20
-115.137330429115
 11
84.86200355951367
 21
-115.137330429115
 72
     1
 10
84.86200355951367
 20
-115.137330429115
 11
84.86200355951367
 21
-115.3891669090867
 97
        0
 75
     2
 76
     1
 98
        0
  0
SPLINE
  5
160
330
151
100
AcDbEntity
  8
_U+30EC_U+30A4_U+30E4_U+30FC 1
370
     0
100
AcDbSpline
210
0.0
220
0.0
230
1.0
 70
    11
 71
     3
 72
    53
 73
    49
 74
     0
 42
0.0000000001
 43
0.0000000001
 12
1.0
 22
0.0
 32
0.0
 13
1.0
 23
0.0
 33
0.0
 40
0.0
 40
0.0
 40
0.0
 40
0.0
 40
1.0
 40
1.0
 40
1.0
 40
2.0
 40
2.0
 40
2.0
 40
3.0
 40
3.0
 40
3.0
 40
4.0
 40
4.0
 40
4.0
 40
5.0
 40
5.0
 40
5.0
 40
6.0
 40
6.0
 40
6.0
 40
7.0
 40
7.0
 40
7.0
 40
8.0
 40
8.0
 40
8.0
 40
9.0
 40
9.0
 40
9.0
 40
10.0
 40
10.0
 40
10.0
 40
11.0
 40
11.0
 40
11.0
 40
12.0
 40
12.0
 40
12.0
 40
13.0
 40
13.0
 40
13.0
 40
14.0
 40
14.0
 40
14.0
 40
15.0
 40
15.0
 40
15.0
 40
16.0
 40
16.0
 40
16.0
 40
16.0
 10
84.9128187179211
 20
-114.4198892943117
 30
0.0
 10
84.9128187179211
 20
-114.4982652166011
 30
0.0
 10
84.89593775004339
 20
-114.5997232786417
 30
0.0
 10
84.83237573834052
 20
-114.7013535954566
 30
0.0
 10
84.72247719236105
 20
-114.8748141531389
 30
0.0
 10
84.59121905437303
 20
-114.895829235599
 30
0.0
 10
84.48338756568471
 20
-114.9149495155421
 30
0.0
 10
84.48338756568471
 20
-114.9149495155421
 30
0.0
 10
84.48338756568471
 20
-114.6927408567435
 30
0.0
 10
84.48338756568471
 20
-114.6927408567435
 30
0.0
 10
84.68216957518362
 20
-114.6377915837538
 30
0.0
 10
84.71179739635677
 20
-114.5108398151223
 30
0.0
 10
84.71179739635677
 20
-114.4178222370205
 30
0.0
 10
84.71179739635677
 20
-114.2781236150937
 30
0.0
 10
84.61240639160732
 20
-114.1258503946456
 30
0.0
 10
84.37969019157869
 20
-114.1258503946456
 30
0.0
 10
84.12371959702463
 20
-114.1258503946456
 30
0.0
 10
84.05395641344832
 20
-114.3056843789757
 30
0.0
 10
84.05395641344832
 20
-114.4262627209594
 30
0.0
 10
84.05395641344832
 20
-114.4579575994237
 30
0.0
 10
84.05395641344832
 20
-114.5997232786417
 30
0.0
 10
84.18297523937093
 20
-114.6886067421612
 30
0.0
 10
84.18297523937093
 20
-114.6886067421612
 30
0.0
 10
84.1638549594278
 20
-114.8641343571347
 30
0.0
 10
84.1638549594278
 20
-114.8641343571347
 30
0.0
 10
84.1638549594278
 20
-114.8641343571347
 30
0.0
 10
83.31773950825043
 20
-114.7435560151509
 30
0.0
 10
83.31773950825043
 20
-114.7435560151509
 30
0.0
 10
83.31773950825043
 20
-114.7435560151509
 30
0.0
 10
83.31773950825043
 20
-113.9651366902587
 30
0.0
 10
83.31773950825043
 20
-113.9651366902587
 30
0.0
 10
83.31773950825043
 20
-113.9651366902587
 30
0.0
 10
83.51238740316704
 20
-113.9651366902587
 30
0.0
 10
83.51238740316704
 20
-113.9651366902587
 30
0.0
 10
83.51238740316704
 20
-113.9651366902587
 30
0.0
 10
83.51238740316704
 20
-114.5807752534729
 30
0.0
 10
83.51238740316704
 20
-114.5807752534729
 30
0.0
 10
83.51238740316704
 20
-114.5807752534729
 30
0.0
 10
83.93544512875573
 20
-114.6462320676926
 30
0.0
 10
83.93544512875573
 20
-114.6462320676926
 30
0.0
 10
83.90151093822601
 20
-114.5849093680552
 30
0.0
 10
83.86137557582285
 20
-114.5023993311834
 30
0.0
 10
83.86137557582285
 20
-114.3838880464908
 30
0.0
 10
83.86137557582285
 20
-114.1301567640022
 30
0.0
 10
84.0475829868006
 20
-113.893134194617
 30
0.0
 10
84.36074216640982
 20
-113.893134194617
 30
0.0
 10
84.67803546060132
 20
-113.893134194617
 30
0.0
 10
84.9128187179211
 20
-114.1174099107068
 30
0.0
 10
84.9128187179211
 20
-114.4198892943117
 30
0.0
  0
HATCH
  5
161
330
151
100
AcDbEntity
  8
_U+30EC_U+30A4_U+30E4_U+30FC 1
 62
   179
420
  2234388
100
AcDbHatch
 10
0.0
 20
0.0
 30
0.0
210
0.0
220
0.0
230
1.0
  2
SOLID
 70
     1
 71
     0
 91
        1
 92
        1
 93
        1
 72
     4
 94
        3
 73
     0
 74
     1
 95
       53
 96
       49
 40
0.0
 40
0.0
 40
0.0
 40
0.0
 40
1.0
 40
1.0
 40
1.0
 40
2.0
 40
2.0
 40
2.0
 40
3.0
 40
3.0
 40
3.0
 40
4.0
 40
4.0
 40
4.0
 40
5.0
 40
5.0
 40
5.0
 40
6.0
 40
6.0
 40
6.0
 40
7.0
 40
7.0
 40
7.0
 40
8.0
 40
8.0
 40
8.0
 40
9.0
 40
9.0
 40
9.0
 40
10.0
 40
10.0
 40
10.0
 40
11.0
 40
11.0
 40
11.0
 40
12.0
 40
12.0
 40
12.0
 40
13.0
 40
13.0
 40
13.0
 40
14.0
 40
14.0
 40
14.0
 40
15.0
 40
15.0
 40
15.0
 40
16.0
 40
16.0
 40
16.0
 40
16.0
 10
84.9128187179211
 20
-114.4198892943117
 10
84.9128187179211
 20
-114.4982652166011
 10
84.89593775004339
 20
-114.5997232786417
 10
84.83237573834052
 20
-114.7013535954566
 10
84.72247719236105
 20
-114.8748141531389
 10
84.59121905437303
 20
-114.895829235599
 10
84.48338756568471
 20
-114.9149495155421
 10
84.48338756568471
 20
-114.9149495155421
 10
84.48338756568471
 20
-114.6927408567435
 10
84.48338756568471
 20
-114.6927408567435
 10
84.68216957518362
 20
-114.6377915837538
 10
84.71179739635677
 20
-114.5108398151223
 10
84.71179739635677
 20
-114.4178222370205
 10
84.71179739635677
 20
-114.2781236150937
 10
84.61240639160732
 20
-114.1258503946456
 10
84.37969019157869
 20
-114.1258503946456
 10
84.12371959702463
 20
-114.1258503946456
 10
84.05395641344832
 20
-114.3056843789757
 10
84.05395641344832
 20
-114.4262627209594
 10
84.05395641344832
 20
-114.4579575994237
 10
84.05395641344832
 20
-114.5997232786417
 10
84.18297523937093
 20
-114.6886067421612
 10
84.18297523937093
 20
-114.6886067421612
 10
84.1638549594278
 20
-114.8641343571347
 10
84.1638549594278
 20
-114.8641343571347
 10
84.1638549594278
 20
-114.8641343571347
 10
83.31773950825043
 20
-114.7435560151509
 10
83.31773950825043
 20
-114.7435560151509
 10
83.31773950825043
 20
-114.7435560151509
 10
83.31773950825043
 20
-113.9651366902587
 10
83.31773950825043
 20
-113.9651366902587
 10
83.31773950825043
 20
-113.9651366902587
 10
83.51238740316704
 20
-113.9651366902587
 10
83.51238740316704
 20
-113.9651366902587
 10
83.51238740316704
 20
-113.9651366902587
 10
83.51238740316704
 20
-114.5807752534729
 10
83.51238740316704
 20
-114.5807752534729
 10
83.51238740316704
 20
-114.5807752534729
 10
83.93544512875573
 20
-114.6462320676926
 10
83.93544512875573
 20
-114.6462320676926
 10
83.90151093822601
 20
-114.5849093680552
 10
83.86137557582285
 20
-114.5023993311834
 10
83.86137557582285
 20
-114.3838880464908
 10
83.86137557582285
 20
-114.1301567640022
 10
84.0475829868006
 20
-113.893134194617
 10
84.36074216640982
 20
-113.893134194617
 10
84.67803546060132
 20
-113.893134194617
 10
84.9128187179211
 20
-114.1174099107068
 10
84.9128187179211
 20
-114.4198892943117
 97
        0
 97
        0
 75
     2
 76
     1
 98
        0
  0
ENDBLK
  5
154
330
151
100
AcDbEntity
  8
0
100
AcDbBlockEnd
  0
BLOCK
  5
164
330
162
100
AcDbEntity
  8
0
100
AcDbBlockBegin
  2
block 19
 70
     0
 10
0.0
 20
0.0
 30
0.0
  3
block 19
  1

  0
SPLINE
  5
166
330
162
100
AcDbEntity
  8
_U+30EC_U+30A4_U+30E4_U+30FC 1
 62
   179
420
  2234388
370
     5
100
AcDbSpline
210
0.0
220
0.0
230
1.0
 70
    11
 71
     3
 72
    17
 73
    13
 74
     0
 42
0.0000000001
 43
0.0000000001
 12
1.0
 22
0.0
 32
0.0
 13
1.0
 23
0.0
 33
0.0
 40
0.0
 40
0.0
 40
0.0
 40
0.0
 40
1.0
 40
1.0
 40
1.0
 40
2.0
 40
2.0
 40
2.0
 40
3.0
 40
3.0
 40
3.0
 40
4.0
 40
4.0
 40
4.0
 40
4.0
 10
85.23460143659527
 20
-110.6344271945637
 30
0.0
 10
85.25389838054741
 20
-110.6344271945637
 30
0.0
 10
85.26973810236552
 20
-110.6502669167819
 30
0.0
 10
85.26973810236552
 20
-110.6695638612214
 30
0.0
 10
85.26973810236552
 20
-110.6891783056612
 30
0.0
 10
85.25389838054741
 20
-110.7047005278795
 30
0.0
 10
85.23460143659527
 20
-110.7047005278795
 30
0.0
 10
85.21495171487435
 20
-110.7047005278795
 30
0.0
 10
85.19911199305623
 20
-110.6891783056612
 30
0.0
 10
85.19911199305623
 20
-110.6695638612214
 30
0.0
 10
85.19911199305623
 20
-110.6502669167819
 30
0.0
 10
85.21495171487435
 20
-110.6344271945637
 30
0.0
 10
85.23460143659527
 20
-110.6344271945637
 30
0.0
  0
ENDBLK
  5
165
330
162
100
AcDbEntity
  8
0
100
AcDbBlockEnd
  0
ENDSEC
  0
SECTION
  2
ENTITIES
  0
INSERT
  5
42
330
1F
100
AcDbEntity
  8
_U+30EC_U+30A4_U+30E4_U+30FC 1
100
AcDbBlockReference
  2
block 2
 10
0.0
 20
0.0
 30
0.0
  0
ENDSEC
  0
SECTION
  2
OBJECTS
  0
DICTIONARY
  5
C
330
0
100
AcDbDictionary
281
     1
  3
ACAD_GROUP
350
D
  3
ACAD_LAYOUT
350
1A
  3
ACAD_MATERIAL
350
3B
  3
ACAD_MLEADERSTYLE
350
168
  3
ACAD_MLINESTYLE
350
17
  3
ACAD_PLOTSETTINGS
350
19
  3
ACAD_PLOTSTYLENAME
350
E
  3
ACAD_TABLESTYLE
350
167
  3
ACAD_VISUALSTYLE
350
2A
  0
SUN
  5
3F
330
29
100
AcDbSun
 90
        1
290
     0
 63
     7
421
 16777215
 40
1.0
291
     1
 91
  2455826
 92
 54000000
292
     0
 70
     2
 71
   256
280
     1
  0
DICTIONARY
  5
D
102
{ACAD_REACTORS
330
C
102
}
330
C
100
AcDbDictionary
281
     1
  0
DICTIONARY
  5
1A
102
{ACAD_REACTORS
330
C
102
}
330
C
100
AcDbDictionary
281
     1
  3
Layout1
350
1E
  3
Layout2
350
26
  3
Model
350
22
  0
DICTIONARY
  5
3B
102
{ACAD_REACTORS
330
C
102
}
330
C
100
AcDbDictionary
281
     1
  3
ByBlock
350
3D
  3
ByLayer
350
3C
  3
Global
350
3E
  0
DICTIONARY
  5
168
102
{ACAD_REACTORS
330
C
102
}
330
C
100
AcDbDictionary
281
     1
  0
DICTIONARY
  5
17
102
{ACAD_REACTORS
330
C
102
}
330
C
100
AcDbDictionary
281
     1
  3
Standard
350
18
  0
DICTIONARY
  5
19
102
{ACAD_REACTORS
330
C
102
}
330
C
100
AcDbDictionary
281
     1
  0
ACDBDICTIONARYWDFLT
  5
E
102
{ACAD_REACTORS
330
C
102
}
330
C
100
AcDbDictionary
281
     1
  3
Normal
350
F
100
AcDbDictionaryWithDefault
340
F
  0
DICTIONARY
  5
167
102
{ACAD_REACTORS
330
C
102
}
330
C
100
AcDbDictionary
281
     1
  0
DICTIONARY
  5
2A
102
{ACAD_REACTORS
330
C
102
}
330
C
100
AcDbDictionary
281
     1
  3
2dWireframe
350
2F
  3
3D Hidden
350
31
  3
3dWireframe
350
30
  3
Basic
350
32
  3
Brighten
350
36
  3
ColorChange
350
3A
  3
Conceptual
350
34
  3
Dim
350
35
  3
Facepattern
350
39
  3
Flat
350
2B
  3
FlatWithEdges
350
2C
  3
Gouraud
350
2D
  3
GouraudWithEdges
350
2E
  3
Linepattern
350
38
  3
Realistic
350
33
  3
Thicken
350
37
  0
LAYOUT
  5
1E
102
{ACAD_REACTORS
330
1A
102
}
330
1A
100
AcDbPlotSettings
  1

  2
none_device
  4

  6

 40
0.0
 41
0.0
 42
0.0
 43
0.0
 44
0.0
 45
0.0
 46
0.0
 47
0.0
 48
0.0
 49
0.0
140
0.0
141
0.0
142
1.0
143
1.0
 70
   688
 72
     0
 73
     0
 74
     5
  7

 75
    16
 76
     0
 77
     2
 78
   300
147
1.0
148
0.0
149
0.0
100
AcDbLayout
  1
Layout1
 70
     1
 71
     1
 10
0.0
 20
0.0
 11
12.0
 21
9.0
 12
0.0
 22
0.0
 32
0.0
 14
1.000000000000000E+20
 24
1.000000000000000E+20
 34
1.000000000000000E+20
 15
-1.000000000000000E+20
 25
-1.000000000000000E+20
 35
-1.000000000000000E+20
146
0.0
 13
0.0
 23
0.0
 33
0.0
 16
1.0
 26
0.0
 36
0.0
 17
0.0
 27
1.0
 37
0.0
 76
     0
330
1B
  0
LAYOUT
  5
26
102
{ACAD_REACTORS
330
1A
102
}
330
1A
100
AcDbPlotSettings
  1

  2
none_device
  4

  6

 40
0.0
 41
0.0
 42
0.0
 43
0.0
 44
0.0
 45
0.0
 46
0.0
 47
0.0
 48
0.0
 49
0.0
140
0.0
141
0.0
142
1.0
143
1.0
 70
   688
 72
     0
 73
     0
 74
     5
  7

 75
    16
 76
     0
 77
     2
 78
   300
147
1.0
148
0.0
149
0.0
100
AcDbLayout
  1
Layout2
 70
     1
 71
     2
 10
0.0
 20
0.0
 11
0.0
 21
0.0
 12
0.0
 22
0.0
 32
0.0
 14
0.0
 24
0.0
 34
0.0
 15
0.0
 25
0.0
 35
0.0
146
0.0
 13
0.0
 23
0.0
 33
0.0
 16
1.0
 26
0.0
 36
0.0
 17
0.0
 27
1.0
 37
0.0
 76
     0
330
23
  0
LAYOUT
  5
22
102
{ACAD_REACTORS
330
1A
102
}
330
1A
100
AcDbPlotSettings
  1

  2
none_device
  4

  6

 40
0.0
 41
0.0
 42
0.0
 43
0.0
 44
0.0
 45
0.0
 46
0.0
 47
0.0
 48
0.0
 49
0.0
140
0.0
141
0.0
142
1.0
143
1.0
 70
  1712
 72
     0
 73
     0
 74
     0
  7

 75
     0
 76
     0
 77
     2
 78
   300
147
1.0
148
0.0
149
0.0
100
AcDbLayout
  1
Model
 70
     1
 71
     0
 10
0.0
 20
0.0
 11
12.0
 21
9.0
 12
0.0
 22
0.0
 32
0.0
 14
1.000000000000000E+20
 24
1.000000000000000E+20
 34
1.000000000000000E+20
 15
-1.000000000000000E+20
 25
-1.000000000000000E+20
 35
-1.000000000000000E+20
146
0.0
 13
0.0
 23
0.0
 33
0.0
 16
1.0
 26
0.0
 36
0.0
 17
0.0
 27
1.0
 37
0.0
 76
     0
330
1F
331
29
  0
MATERIAL
  5
3D
102
{ACAD_REACTORS
330
3B
102
}
330
3B
100
AcDbMaterial
  1
ByBlock
 72
     1
 94
      127
  0
MATERIAL
  5
3C
102
{ACAD_REACTORS
330
3B
102
}
330
3B
100
AcDbMaterial
  1
ByLayer
 72
     1
 94
      127
  0
MATERIAL
  5
3E
102
{ACAD_REACTORS
330
3B
102
}
330
3B
100
AcDbMaterial
  1
Global
 72
     1
 94
      127
  0
MLINESTYLE
  5
18
102
{ACAD_REACTORS
330
17
102
}
330
17
100
AcDbMlineStyle
  2
Standard
 70
     0
  3

 62
   256
 51
90.0
 52
90.0
 71
     2
 49
0.5
 62
   256
  6
BYLAYER
 49
-0.5
 62
   256
  6
BYLAYER
  0
ACDBPLACEHOLDER
  5
F
102
{ACAD_REACTORS
330
E
102
}
330
E
  0
VISUALSTYLE
  5
2F
102
{ACAD_REACTORS
330
2A
102
}
330
2A
100
AcDbVisualStyle
  2
2dWireframe
 70
     4
177
     2
291
     0
 71
     0
176
     1
 72
     2
176
     1
 73
     0
176
     1
 90
        0
176
     1
 40
-0.6
176
     1
 41
-30.0
176
     1
 62
     5
 63
     7
421
 16777215
176
     1
 74
     1
176
     1
 91
        4
176
     1
 64
     7
176
     1
 65
   257
176
     1
 75
     1
176
     1
175
     1
176
     1
 42
1.0
176
     1
 92
        0
176
     1
 66
   257
176
     1
 43
1.0
176
     1
 76
     1
176
     1
 77
     6
176
     1
 78
     2
176
     1
 67
     7
176
     1
 79
     5
176
     1
170
     0
176
     1
171
     0
176
     1
290
     0
176
     1
 93
        1
176
     1
 44
0.0
176
     1
173
     0
176
     1
  0
VISUALSTYLE
  5
31
102
{ACAD_REACTORS
330
2A
102
}
330
2A
100
AcDbVisualStyle
  2
3D Hidden
 70
     6
177
     2
291
     0
 71
     1
176
     1
 72
     2
176
     1
 73
     2
176
     1
 90
        0
176
     1
 40
-0.6
176
     1
 41
-30.0
176
     1
 62
     5
 63
     7
421
 16777215
176
     1
 74
     2
176
     1
 91
        2
176
     1
 64
     7
176
     1
 65
   257
176
     1
 75
     2
176
     1
175
     1
176
     1
 42
40.0
176
     1
 92
        0
176
     1
 66
   257
176
     1
 43
1.0
176
     1
 76
     1
176
     1
 77
     6
176
     1
 78
     2
176
     1
 67
     7
176
     1
 79
     3
176
     1
170
     0
176
     1
171
     0
176
     1
290
     0
176
     1
 93
        1
176
     1
 44
0.0
176
     1
173
     0
176
     1
  0
VISUALSTYLE
  5
30
102
{ACAD_REACTORS
330
2A
102
}
330
2A
100
AcDbVisualStyle
  2
3dWireframe
 70
     5
177
     2
291
     0
 71
     0
176
     1
 72
     2
176
     1
 73
     0
176
     1
 90
        0
176
     1
 40
-0.6
176
     1
 41
-30.0
176
     1
 62
     5
 63
     7
421
 16777215
176
     1
 74
     1
176
     1
 91
        4
176
     1
 64
     7
176
     1
 65
   257
176
     1
 75
     1
176
     1
175
     1
176
     1
 42
1.0
176
     1
 92
        0
176
     1
 66
   257
176
     1
 43
1.0
176
     1
 76
     1
176
     1
 77
     6
176
     1
 78
     2
176
     1
 67
     7
176
     1
 79
     5
176
     1
170
     0
176
     1
171
     0
176
     1
290
     0
176
     1
 93
        1
176
     1
 44
0.0
176
     1
173
     0
176
     1
  0
VISUALSTYLE
  5
32
102
{ACAD_REACTORS
330
2A
102
}
330
2A
100
AcDbVisualStyle
  2
Basic
 70
     7
177
     2
291
     1
 71
     1
176
     1
 72
     0
176
     1
 73
     1
176
     1
 90
        0
176
     1
 40
-0.6
176
     1
 41
-30.0
176
     1
 62
     5
 63
     7
421
 16777215
176
     1
 74
     0
176
     1
 91
        4
176
     1
 64
     7
176
     1
 65
   257
176
     1
 75
     1
176
     1
175
     1
176
     1
 42
1.0
176
     1
 92
        8
176
     1
 66
     7
176
     1
 43
1.0
176
     1
 76
     1
176
     1
 77
     6
176
     1
 78
     2
176
     1
 67
     7
176
     1
 79
     5
176
     1
170
     0
176
     1
171
     0
176
     1
290
     0
176
     1
 93
        1
176
     1
 44
0.0
176
     1
173
     0
176
     1
  0
VISUALSTYLE
  5
36
102
{ACAD_REACTORS
330
2A
102
}
330
2A
100
AcDbVisualStyle
  2
Brighten
 70
    12
177
     2
291
     1
 71
     2
176
     1
 72
     2
176
     1
 73
     0
176
     1
 90
        0
176
     1
 40
-0.6
176
     1
 41
-30.0
176
     1
 62
     5
 63
     7
421
 16777215
176
     1
 74
     1
176
     1
 91
        4
176
     1
 64
     7
176
     1
 65
   257
176
     1
 75
     1
176
     1
175
     1
176
     1
 42
1.0
176
     1
 92
        8
176
     1
 66
     7
176
     1
 43
1.0
176
     1
 76
     1
176
     1
 77
     6
176
     1
 78
     2
176
     1
 67
     7
176
     1
 79
     5
176
     1
170
     0
176
     1
171
     0
176
     1
290
     0
176
     1
 93
        1
176
     1
 44
50.0
176
     1
173
     0
176
     1
  0
VISUALSTYLE
  5
3A
102
{ACAD_REACTORS
330
2A
102
}
330
2A
100
AcDbVisualStyle
  2
ColorChange
 70
    16
177
     2
291
     1
 71
     2
176
     1
 72
     2
176
     1
 73
     3
176
     1
 90
        0
176
     1
 40
-0.6
176
     1
 41
-30.0
176
     1
 62
     5
 63
     8
421
  8421504
176
     1
 74
     1
176
     1
 91
        4
176
     1
 64
     7
176
     1
 65
   257
176
     1
 75
     1
176
     1
175
     1
176
     1
 42
1.0
176
     1
 92
        8
176
     1
 66
     8
424
  8421504
176
     1
 43
1.0
176
     1
 76
     1
176
     1
 77
     6
176
     1
 78
     2
176
     1
 67
     7
176
     1
 79
     5
176
     1
170
     0
176
     1
171
     0
176
     1
290
     0
176
     1
 93
        1
176
     1
 44
0.0
176
     1
173
     0
176
     1
  0
VISUALSTYLE
  5
34
102
{ACAD_REACTORS
330
2A
102
}
330
2A
100
AcDbVisualStyle
  2
Conceptual
 70
     9
177
     2
291
     0
 71
     3
176
     1
 72
     2
176
     1
 73
     0
176
     1
 90
        0
176
     1
 40
-0.6
176
     1
 41
-30.0
176
     1
 62
     5
 63
     7
421
 16777215
176
     1
 74
     2
176
     1
 91
        2
176
     1
 64
     7
176
     1
 65
   257
176
     1
 75
     1
176
     1
175
     1
176
     1
 42
40.0
176
     1
 92
        8
176
     1
 66
     7
176
     1
 43
1.0
176
     1
 76
     1
176
     1
 77
     6
176
     1
 78
     2
176
     1
 67
     7
176
     1
 79
     3
176
     1
170
     0
176
     1
171
     0
176
     1
290
     0
176
     1
 93
        1
176
     1
 44
0.0
176
     1
173
     0
176
     1
  0
VISUALSTYLE
  5
35
102
{ACAD_REACTORS
330
2A
102
}
330
2A
100
AcDbVisualStyle
  2
Dim
 70
    11
177
     2
291
     1
 71
     2
176
     1
 72
     2
176
     1
 73
     0
176
     1
 90
        0
176
     1
 40
-0.6
176
     1
 41
-30.0
176
     1
 62
     5
 63
     7
421
 16777215
176
     1
 74
     1
176
     1
 91
        4
176
     1
 64
     7
176
     1
 65
   257
176
     1
 75
     1
176
     1
175
     1
176
     1
 42
1.0
176
     1
 92
        8
176
     1
 66
     7
176
     1
 43
1.0
176
     1
 76
     1
176
     1
 77
     6
176
     1
 78
     2
176
     1
 67
     7
176
     1
 79
     5
176
     1
170
     0
176
     1
171
     0
176
     1
290
     0
176
     1
 93
        1
176
     1
 44
-50.0
176
     1
173
     0
176
     1
  0
VISUALSTYLE
  5
39
102
{ACAD_REACTORS
330
2A
102
}
330
2A
100
AcDbVisualStyle
  2
Facepattern
 70
    15
177
     2
291
     1
 71
     2
176
     1
 72
     2
176
     1
 73
     0
176
     1
 90
        0
176
     1
 40
-0.6
176
     1
 41
-30.0
176
     1
 62
     5
 63
     7
421
 16777215
176
     1
 74
     1
176
     1
 91
        4
176
     1
 64
     7
176
     1
 65
   257
176
     1
 75
     1
176
     1
175
     1
176
     1
 42
1.0
176
     1
 92
        8
176
     1
 66
     7
176
     1
 43
1.0
176
     1
 76
     1
176
     1
 77
     6
176
     1
 78
     2
176
     1
 67
     7
176
     1
 79
     5
176
     1
170
     0
176
     1
171
     0
176
     1
290
     0
176
     1
 93
        1
176
     1
 44
0.0
176
     1
173
     0
176
     1
  0
VISUALSTYLE
  5
2B
102
{ACAD_REACTORS
330
2A
102
}
330
2A
100
AcDbVisualStyle
  2
Flat
 70
     0
177
     2
291
     1
 71
     2
176
     1
 72
     1
176
     1
 73
     1
176
     1
 90
        2
176
     1
 40
-0.6
176
     1
 41
30.0
176
     1
 62
     5
 63
     7
421
 16777215
176
     1
 74
     0
176
     1
 91
        4
176
     1
 64
     7
176
     1
 65
   257
176
     1
 75
     1
176
     1
175
     1
176
     1
 42
1.0
176
     1
 92
        8
176
     1
 66
     7
176
     1
 43
1.0
176
     1
 76
     1
176
     1
 77
     6
176
     1
 78
     2
176
     1
 67
     7
176
     1
 79
     5
176
     1
170
     0
176
     1
171
     0
176
     1
290
     0
176
     1
 93
       13
176
     1
 44
0.0
176
     1
173
     0
176
     1
  0
VISUALSTYLE
  5
2C
102
{ACAD_REACTORS
330
2A
102
}
330
2A
100
AcDbVisualStyle
  2
FlatWithEdges
 70
     1
177
     2
291
     1
 71
     2
176
     1
 72
     1
176
     1
 73
     1
176
     1
 90
        2
176
     1
 40
-0.6
176
     1
 41
30.0
176
     1
 62
     5
 63
     7
421
 16777215
176
     1
 74
     1
176
     1
 91
        4
176
     1
 64
     7
176
     1
 65
   257
176
     1
 75
     1
176
     1
175
     1
176
     1
 42
1.0
176
     1
 92
        0
176
     1
 66
   257
176
     1
 43
1.0
176
     1
 76
     1
176
     1
 77
     6
176
     1
 78
     2
176
     1
 67
     7
176
     1
 79
     5
176
     1
170
     0
176
     1
171
     0
176
     1
290
     0
176
     1
 93
       13
176
     1
 44
0.0
176
     1
173
     0
176
     1
  0
VISUALSTYLE
  5
2D
102
{ACAD_REACTORS
330
2A
102
}
330
2A
100
AcDbVisualStyle
  2
Gouraud
 70
     2
177
     2
291
     1
 71
     2
176
     1
 72
     2
176
     1
 73
     1
176
     1
 90
        2
176
     1
 40
-0.6
176
     1
 41
30.0
176
     1
 62
     5
 63
     7
421
 16777215
176
     1
 74
     0
176
     1
 91
        4
176
     1
 64
     7
176
     1
 65
   257
176
     1
 75
     1
176
     1
175
     1
176
     1
 42
1.0
176
     1
 92
        0
176
     1
 66
     7
176
     1
 43
1.0
176
     1
 76
     1
176
     1
 77
     6
176
     1
 78
     2
176
     1
 67
     7
176
     1
 79
     5
176
     1
170
     0
176
     1
171
     0
176
     1
290
     0
176
     1
 93
       13
176
     1
 44
0.0
176
     1
173
     0
176
     1
  0
VISUALSTYLE
  5
2E
102
{ACAD_REACTORS
330
2A
102
}
330
2A
100
AcDbVisualStyle
  2
GouraudWithEdges
 70
     3
177
     2
291
     1
 71
     2
176
     1
 72
     2
176
     1
 73
     1
176
     1
 90
        2
176
     1
 40
-0.6
176
     1
 41
30.0
176
     1
 62
     5
 63
     7
421
 16777215
176
     1
 74
     1
176
     1
 91
        4
176
     1
 64
     7
176
     1
 65
   257
176
     1
 75
     1
176
     1
175
     1
176
     1
 42
1.0
176
     1
 92
        0
176
     1
 66
   257
176
     1
 43
1.0
176
     1
 76
     1
176
     1
 77
     6
176
     1
 78
     2
176
     1
 67
     7
176
     1
 79
     5
176
     1
170
     0
176
     1
171
     0
176
     1
290
     0
176
     1
 93
       13
176
     1
 44
0.0
176
     1
173
     0
176
     1
  0
VISUALSTYLE
  5
38
102
{ACAD_REACTORS
330
2A
102
}
330
2A
100
AcDbVisualStyle
  2
Linepattern
 70
    14
177
     2
291
     1
 71
     2
176
     1
 72
     2
176
     1
 73
     0
176
     1
 90
        0
176
     1
 40
-0.6
176
     1
 41
-30.0
176
     1
 62
     5
 63
     7
421
 16777215
176
     1
 74
     1
176
     1
 91
        4
176
     1
 64
     7
176
     1
 65
   257
176
     1
 75
     7
176
     1
175
     7
176
     1
 42
1.0
176
     1
 92
        8
176
     1
 66
     7
176
     1
 43
1.0
176
     1
 76
     1
176
     1
 77
     6
176
     1
 78
     2
176
     1
 67
     7
176
     1
 79
     5
176
     1
170
     0
176
     1
171
     0
176
     1
290
     0
176
     1
 93
        1
176
     1
 44
0.0
176
     1
173
     0
176
     1
  0
VISUALSTYLE
  5
33
102
{ACAD_REACTORS
330
2A
102
}
330
2A
100
AcDbVisualStyle
  2
Realistic
 70
     8
177
     2
291
     0
 71
     2
176
     1
 72
     2
176
     1
 73
     0
176
     1
 90
        0
176
     1
 40
-0.6
176
     1
 41
-30.0
176
     1
 62
     5
 63
     7
421
 16777215
176
     1
 74
     1
176
     1
 91
        0
176
     1
 64
     7
176
     1
 65
   257
176
     1
 75
     1
176
     1
175
     1
176
     1
 42
1.0
176
     1
 92
        8
176
     1
 66
     8
424
  7895160
176
     1
 43
1.0
176
     1
 76
     1
176
     1
 77
     6
176
     1
 78
     2
176
     1
 67
     7
176
     1
 79
     5
176
     1
170
     0
176
     1
171
     0
176
     1
290
     0
176
     1
 93
       13
176
     1
 44
0.0
176
     1
173
     0
176
     1
  0
VISUALSTYLE
  5
37
102
{ACAD_REACTORS
330
2A
102
}
330
2A
100
AcDbVisualStyle
  2
Thicken
 70
    13
177
     2
291
     1
 71
     2
176
     1
 72
     2
176
     1
 73
     0
176
     1
 90
        0
176
     1
 40
-0.6
176
     1
 41
-30.0
176
     1
 62
     5
 63
     7
421
 16777215
176
     1
 74
     1
176
     1
 91
        4
176
     1
 64
     7
176
     1
 65
   257
176
     1
 75
     1
176
     1
175
     1
176
     1
 42
1.0
176
     1
 92
       12
176
     1
 66
     7
176
     1
 43
1.0
176
     1
 76
     1
176
     1
 77
     6
176
     1
 78
     2
176
     1
 67
     7
176
     1
 79
     5
176
     1
170
     0
176
     1
171
     0
176
     1
290
     0
176
     1
 93
        1
176
     1
 44
0.0
176
     1
173
     0
176
     1
  0
ENDSEC
  0
EOF
