  0
SECTION
  2
HEADER
  9
$ACADVER
  1
AC1024
  9
$ACADMAINTVER
 70
     6
  9
$DWGCODEPAGE
  3
UNDEFINED
  9
$INSBASE
 10
0.0
 20
0.0
 30
0.0
  9
$EXTMIN
 10
1.000000000000000E+20
 20
1.000000000000000E+20
 30
1.000000000000000E+20
  9
$EXTMAX
 10
-1.000000000000000E+20
 20
-1.000000000000000E+20
 30
-1.000000000000000E+20
  9
$LIMMIN
 10
0.0
 20
0.0
  9
$LIMMAX
 10
12.0
 20
9.0
  9
$ORTHOMODE
 70
     0
  9
$REGENMODE
 70
     1
  9
$FILLMODE
 70
     1
  9
$QTEXTMODE
 70
     0
  9
$MIRRTEXT
 70
     1
  9
$LTSCALE
 40
1.0
  9
$ATTMODE
 70
     1
  9
$TEXTSIZE
 40
0.2
  9
$TRACEWID
 40
0.05
  9
$TEXTSTYLE
  7
Standard
  9
$CLAYER
  8
0
  9
$CELTYPE
  6
ByLayer
  9
$CECOLOR
 62
   256
  9
$CELTSCALE
 40
1.0
  9
$DISPSILH
 70
     0
  9
$DIMSCALE
 40
1.0
  9
$DIMASZ
 40
0.18
  9
$DIMEXO
 40
0.0625
  9
$DIMDLI
 40
0.38
  9
$DIMRND
 40
0.0
  9
$DIMDLE
 40
0.0
  9
$DIMEXE
 40
0.18
  9
$DIMTP
 40
0.0
  9
$DIMTM
 40
0.0
  9
$DIMTXT
 40
0.18
  9
$DIMCEN
 40
0.09
  9
$DIMTSZ
 40
0.0
  9
$DIMTOL
 70
     0
  9
$DIMLIM
 70
     0
  9
$DIMTIH
 70
     1
  9
$DIMTOH
 70
     1
  9
$DIMSE1
 70
     0
  9
$DIMSE2
 70
     0
  9
$DIMTAD
 70
     0
  9
$DIMZIN
 70
     0
  9
$DIMBLK
  1

  9
$DIMASO
 70
     1
  9
$DIMSHO
 70
     1
  9
$DIMPOST
  1

  9
$DIMAPOST
  1

  9
$DIMALT
 70
     0
  9
$DIMALTD
 70
     2
  9
$DIMALTF
 40
25.4
  9
$DIMLFAC
 40
1.0
  9
$DIMTOFL
 70
     0
  9
$DIMTVP
 40
0.0
  9
$DIMTIX
 70
     0
  9
$DIMSOXD
 70
     0
  9
$DIMSAH
 70
     0
  9
$DIMBLK1
  1

  9
$DIMBLK2
  1

  9
$DIMSTYLE
  2
Standard
  9
$DIMCLRD
 70
     0
  9
$DIMCLRE
 70
     0
  9
$DIMCLRT
 70
     0
  9
$DIMTFAC
 40
1.0
  9
$DIMGAP
 40
0.09
  9
$DIMJUST
 70
     0
  9
$DIMSD1
 70
     0
  9
$DIMSD2
 70
     0
  9
$DIMTOLJ
 70
     1
  9
$DIMTZIN
 70
     0
  9
$DIMALTZ
 70
     0
  9
$DIMALTTZ
 70
     0
  9
$DIMUPT
 70
     0
  9
$DIMDEC
 70
     4
  9
$DIMTDEC
 70
     4
  9
$DIMALTU
 70
     2
  9
$DIMALTTD
 70
     2
  9
$DIMTXSTY
  7
Standard
  9
$DIMAUNIT
 70
     0
  9
$DIMADEC
 70
     0
  9
$DIMALTRND
 40
0.0
  9
$DIMAZIN
 70
     0
  9
$DIMDSEP
 70
    46
  9
$DIMATFIT
 70
     3
  9
$DIMFRAC
 70
     0
  9
$DIMLDRBLK
  1

  9
$DIMLUNIT
 70
     2
  9
$DIMLWD
 70
    -2
  9
$DIMLWE
 70
    -2
  9
$DIMTMOVE
 70
     0
  9
$DIMFXL
 40
1.0
  9
$DIMFXLON
 70
     0
  9
$DIMJOGANG
 40
0.7853981633974483
  9
$DIMTFILL
 70
     0
  9
$DIMTFILLCLR
 70
     0
  9
$DIMARCSYM
 70
     0
  9
$DIMLTYPE
  6

  9
$DIMLTEX1
  6

  9
$DIMLTEX2
  6

  9
$DIMTXTDIRECTION
 70
     0
  9
$LUNITS
 70
     2
  9
$LUPREC
 70
     4
  9
$SKETCHINC
 40
0.1
  9
$FILLETRAD
 40
0.5
  9
$AUNITS
 70
     0
  9
$AUPREC
 70
     0
  9
$MENU
  1
.
  9
$ELEVATION
 40
0.0
  9
$PELEVATION
 40
0.0
  9
$THICKNESS
 40
0.0
  9
$LIMCHECK
 70
     0
  9
$CHAMFERA
 40
0.5
  9
$CHAMFERB
 40
0.5
  9
$CHAMFERC
 40
1.0
  9
$CHAMFERD
 40
0.0
  9
$SKPOLY
 70
     0
  9
$TDCREATE
 40
2457917.603715266
  9
$TDUCREATE
 40
2457917.228715278
  9
$TDUPDATE
 40
2457917.603715266
  9
$TDUUPDATE
 40
2457917.228715278
  9
$TDINDWG
 40
0.0000000116
  9
$TDUSRTIMER
 40
0.0000000116
  9
$USRTIMER
 70
     1
  9
$ANGBASE
 50
0.0
  9
$ANGDIR
 70
     0
  9
$PDMODE
 70
     0
  9
$PDSIZE
 40
0.0
  9
$PLINEWID
 40
0.0
  9
$SPLFRAME
 70
     0
  9
$SPLINETYPE
 70
     6
  9
$SPLINESEGS
 70
     8
  9
$HANDSEED
  5
C9
  9
$SURFTAB1
 70
     6
  9
$SURFTAB2
 70
     6
  9
$SURFTYPE
 70
     6
  9
$SURFU
 70
     6
  9
$SURFV
 70
     6
  9
$UCSBASE
  2

  9
$UCSNAME
  2

  9
$UCSORG
 10
0.0
 20
0.0
 30
0.0
  9
$UCSXDIR
 10
1.0
 20
0.0
 30
0.0
  9
$UCSYDIR
 10
0.0
 20
1.0
 30
0.0
  9
$UCSORTHOREF
  2

  9
$UCSORTHOVIEW
 70
     0
  9
$UCSORGTOP
 10
0.0
 20
0.0
 30
0.0
  9
$UCSORGBOTTOM
 10
0.0
 20
0.0
 30
0.0
  9
$UCSORGLEFT
 10
0.0
 20
0.0
 30
0.0
  9
$UCSORGRIGHT
 10
0.0
 20
0.0
 30
0.0
  9
$UCSORGFRONT
 10
0.0
 20
0.0
 30
0.0
  9
$UCSORGBACK
 10
0.0
 20
0.0
 30
0.0
  9
$PUCSBASE
  2

  9
$PUCSNAME
  2

  9
$PUCSORG
 10
0.0
 20
0.0
 30
0.0
  9
$PUCSXDIR
 10
1.0
 20
0.0
 30
0.0
  9
$PUCSYDIR
 10
0.0
 20
1.0
 30
0.0
  9
$PUCSORTHOREF
  2

  9
$PUCSORTHOVIEW
 70
     0
  9
$PUCSORGTOP
 10
0.0
 20
0.0
 30
0.0
  9
$PUCSORGBOTTOM
 10
0.0
 20
0.0
 30
0.0
  9
$PUCSORGLEFT
 10
0.0
 20
0.0
 30
0.0
  9
$PUCSORGRIGHT
 10
0.0
 20
0.0
 30
0.0
  9
$PUCSORGFRONT
 10
0.0
 20
0.0
 30
0.0
  9
$PUCSORGBACK
 10
0.0
 20
0.0
 30
0.0
  9
$USERI1
 70
     0
  9
$USERI2
 70
     0
  9
$USERI3
 70
     0
  9
$USERI4
 70
     0
  9
$USERI5
 70
     0
  9
$USERR1
 40
0.0
  9
$USERR2
 40
0.0
  9
$USERR3
 40
0.0
  9
$USERR4
 40
0.0
  9
$USERR5
 40
0.0
  9
$WORLDVIEW
 70
     1
  9
$SHADEDGE
 70
     3
  9
$SHADEDIF
 70
    70
  9
$TILEMODE
 70
     1
  9
$MAXACTVP
 70
    64
  9
$PINSBASE
 10
0.0
 20
0.0
 30
0.0
  9
$PLIMCHECK
 70
     0
  9
$PEXTMIN
 10
1.000000000000000E+20
 20
1.000000000000000E+20
 30
1.000000000000000E+20
  9
$PEXTMAX
 10
-1.000000000000000E+20
 20
-1.000000000000000E+20
 30
-1.000000000000000E+20
  9
$PLIMMIN
 10
0.0
 20
0.0
  9
$PLIMMAX
 10
12.0
 20
9.0
  9
$UNITMODE
 70
     0
  9
$VISRETAIN
 70
     1
  9
$PLINEGEN
 70
     0
  9
$PSLTSCALE
 70
     1
  9
$TREEDEPTH
 70
  3020
  9
$CMLSTYLE
  2
Standard
  9
$CMLJUST
 70
     0
  9
$CMLSCALE
 40
1.0
  9
$PROXYGRAPHICS
 70
     1
  9
$MEASUREMENT
 70
     0
  9
$CELWEIGHT
370
    -1
  9
$ENDCAPS
280
     0
  9
$JOINSTYLE
280
     0
  9
$LWDISPLAY
290
     1
  9
$INSUNITS
 70
     1
  9
$HYPERLINKBASE
  1

  9
$STYLESHEET
  1

  9
$XEDIT
290
     1
  9
$CEPSNTYPE
380
     0
  9
$PSTYLEMODE
290
     1
  9
$FINGERPRINTGUID
  2
{E42750B1-EAA5-2BE1-F517-96A793408E1E}
  9
$VERSIONGUID
  2
{FAEB1C32-E019-11D5-929B-00C0DF256EC4}
  9
$EXTNAMES
290
     1
  9
$PSVPSCALE
 40
0.0
  9
$OLESTARTUP
290
     0
  9
$SORTENTS
280
   127
  9
$INDEXCTL
280
     0
  9
$HIDETEXT
280
     1
  9
$XCLIPFRAME
280
     2
  9
$HALOGAP
280
     0
  9
$OBSCOLOR
 70
   257
  9
$OBSLTYPE
280
     0
  9
$INTERSECTIONDISPLAY
280
     0
  9
$INTERSECTIONCOLOR
 70
   257
  9
$DIMASSOC
280
     2
  9
$PROJECTNAME
  1

  9
$CAMERADISPLAY
290
     0
  9
$LENSLENGTH
 40
50.0
  9
$CAMERAHEIGHT
 40
0.0
  9
$STEPSPERSEC
 40
2.0
  9
$STEPSIZE
 40
6.0
  9
$3DDWFPREC
 40
2.0
  9
$PSOLWIDTH
 40
0.25
  9
$PSOLHEIGHT
 40
4.0
  9
$LOFTANG1
 40
1.570796326794897
  9
$LOFTANG2
 40
1.570796326794897
  9
$LOFTMAG1
 40
0.0
  9
$LOFTMAG2
 40
0.0
  9
$LOFTPARAM
 70
     7
  9
$LOFTNORMALS
280
     1
  9
$LATITUDE
 40
37.795
  9
$LONGITUDE
 40
-122.394
  9
$NORTHDIRECTION
 40
0.0
  9
$TIMEZONE
 70
 -8000
  9
$LIGHTGLYPHDISPLAY
280
     1
  9
$TILEMODELIGHTSYNCH
280
     1
  9
$CMATERIAL
347
3C
  9
$SOLIDHIST
280
     1
  9
$SHOWHIST
280
     1
  9
$DWFFRAME
280
     2
  9
$DGNFRAME
280
     2
  9
$REALWORLDSCALE
290
     1
  9
$INTERFERECOLOR
 62
   256
  9
$CSHADOW
280
     0
  9
$SHADOWPLANELOCATION
 40
0.0
  0
ENDSEC
  0
SECTION
  2
CLASSES
  0
CLASS
  1
ACDBDICTIONARYWDFLT
  2
AcDbDictionaryWithDefault
  3
ObjectDBX Classes
 90
        0
 91
        4
280
     0
281
     0
  0
CLASS
  1
VISUALSTYLE
  2
AcDbVisualStyle
  3
ObjectDBX Classes
 90
     4095
 91
        4
280
     0
281
     0
  0
CLASS
  1
MATERIAL
  2
AcDbMaterial
  3
ObjectDBX Classes
 90
     1153
 91
        4
280
     0
281
     0
  0
CLASS
  1
SUN
  2
AcDbSun
  3
SCENEOE
 90
     1024
 91
        4
280
     0
281
     0
  0
ENDSEC
  0
SECTION
  2
TABLES
  0
TABLE
  2
VPORT
  5
8
330
0
100
AcDbSymbolTable
 70
     1
  0
VPORT
  5
29
330
8
100
AcDbSymbolTableRecord
100
AcDbViewportTableRecord
  2
*Active
 70
     0
 10
0.0
 20
0.0
 11
1.0
 21
1.0
 12
0.0
 22
0.0
 13
0.0
 23
0.0
 14
0.5
 24
0.5
 15
0.5
 25
0.5
 16
0.0
 26
0.0
 36
1.0
 17
91.00082462281999
 27
-128.4993055234307
 37
0.0
 40
256.9986110468615
 41
0.7081814508812795
 42
50.0
 43
0.0
 44
0.0
 50
0.0
 51
0.0
 71
     0
 72
   100
 73
     1
 74
     3
 75
     0
 76
     0
 77
     0
 78
     0
281
     0
 65
     1
110
0.0
120
0.0
130
0.0
111
1.0
121
0.0
131
0.0
112
0.0
122
1.0
132
0.0
 79
     0
146
0.0
 60
     3
 61
     5
292
     1
282
     1
141
0.0
142
0.0
 63
   250
361
3F
  0
ENDTAB
  0
TABLE
  2
LTYPE
  5
5
330
0
100
AcDbSymbolTable
 70
     1
  0
LTYPE
  5
14
330
5
100
AcDbSymbolTableRecord
100
AcDbLinetypeTableRecord
  2
ByBlock
 70
     0
  3

 72
    65
 73
     0
 40
0.0
  0
LTYPE
  5
15
330
5
100
AcDbSymbolTableRecord
100
AcDbLinetypeTableRecord
  2
ByLayer
 70
     0
  3

 72
    65
 73
     0
 40
0.0
  0
LTYPE
  5
16
330
5
100
AcDbSymbolTableRecord
100
AcDbLinetypeTableRecord
  2
Continuous
 70
     0
  3
Solid line
 72
    65
 73
     0
 40
0.0
  0
ENDTAB
  0
TABLE
  2
LAYER
  5
2
330
0
100
AcDbSymbolTable
 70
     2
  0
LAYER
  5
10
330
2
100
AcDbSymbolTableRecord
100
AcDbLayerTableRecord
  2
0
 70
     0
 62
     7
  6
Continuous
370
    -3
390
F
347
3E
  0
LAYER
  5
40
330
2
100
AcDbSymbolTableRecord
100
AcDbLayerTableRecord
  2
_U+30EC_U+30A4_U+30E4_U+30FC 1
 70
     0
 62
     7
  6
Continuous
370
    -3
390
F
347
3E
  0
ENDTAB
  0
TABLE
  2
STYLE
  5
3
330
0
100
AcDbSymbolTable
 70
     1
  0
STYLE
  5
11
330
3
100
AcDbSymbolTableRecord
100
AcDbTextStyleTableRecord
  2
Standard
 70
     0
 40
0.0
 41
1.0
 50
0.0
 71
     0
 42
0.2
  3
txt
  4

  0
ENDTAB
  0
TABLE
  2
VIEW
  5
6
330
0
100
AcDbSymbolTable
 70
     0
  0
ENDTAB
  0
TABLE
  2
UCS
  5
7
330
0
100
AcDbSymbolTable
 70
     0
  0
ENDTAB
  0
TABLE
  2
APPID
  5
9
330
0
100
AcDbSymbolTable
 70
     1
  0
APPID
  5
12
330
9
100
AcDbSymbolTableRecord
100
AcDbRegAppTableRecord
  2
ACAD
 70
     0
  0
ENDTAB
  0
TABLE
  2
DIMSTYLE
  5
A
330
0
100
AcDbSymbolTable
 70
     1
100
AcDbDimStyleTable
  0
DIMSTYLE
105
27
330
A
100
AcDbSymbolTableRecord
100
AcDbDimStyleTableRecord
  2
Standard
 70
     0
178
     0
340
11
  0
ENDTAB
  0
TABLE
  2
BLOCK_RECORD
  5
1
330
0
100
AcDbSymbolTable
 70
     7
  0
BLOCK_RECORD
  5
1F
330
1
100
AcDbSymbolTableRecord
100
AcDbBlockTableRecord
  2
*Model_Space
340
22
 70
     0
280
     1
281
     0
  0
BLOCK_RECORD
  5
1B
330
1
100
AcDbSymbolTableRecord
100
AcDbBlockTableRecord
  2
*Paper_Space
340
1E
 70
     0
280
     1
281
     0
  0
BLOCK_RECORD
  5
23
330
1
100
AcDbSymbolTableRecord
100
AcDbBlockTableRecord
  2
*Paper_Space0
340
26
 70
     0
280
     1
281
     0
  0
BLOCK_RECORD
  5
65
330
1
100
AcDbSymbolTableRecord
100
AcDbBlockTableRecord
  2
block 2
340
0
102
{BLKREFS
331
66
102
}
 70
     0
280
     1
281
     0
  0
BLOCK_RECORD
  5
6D
330
1
100
AcDbSymbolTableRecord
100
AcDbBlockTableRecord
  2
block 3
340
0
102
{BLKREFS
331
6E
102
}
 70
     0
280
     1
281
     0
  0
BLOCK_RECORD
  5
7A
330
1
100
AcDbSymbolTableRecord
100
AcDbBlockTableRecord
  2
block 4
340
0
102
{BLKREFS
331
7B
102
}
 70
     0
280
     1
281
     0
  0
BLOCK_RECORD
  5
93
330
1
100
AcDbSymbolTableRecord
100
AcDbBlockTableRecord
  2
block 5
340
0
102
{BLKREFS
331
94
102
}
 70
     0
280
     1
281
     0
  0
BLOCK_RECORD
  5
A9
330
1
100
AcDbSymbolTableRecord
100
AcDbBlockTableRecord
  2
block 6
340
0
102
{BLKREFS
331
AA
102
}
 70
     0
280
     1
281
     0
  0
BLOCK_RECORD
  5
B9
330
1
100
AcDbSymbolTableRecord
100
AcDbBlockTableRecord
  2
block 7
340
0
102
{BLKREFS
331
BA
102
}
 70
     0
280
     1
281
     0
  0
ENDTAB
  0
ENDSEC
  0
SECTION
  2
BLOCKS
  0
BLOCK
  5
20
330
1F
100
AcDbEntity
  8
0
100
AcDbBlockBegin
  2
*Model_Space
 70
     0
 10
0.0
 20
0.0
 30
0.0
  3
*Model_Space
  1

  0
ENDBLK
  5
21
330
1F
100
AcDbEntity
  8
0
100
AcDbBlockEnd
  0
BLOCK
  5
1C
330
1B
100
AcDbEntity
 67
     1
  8
0
100
AcDbBlockBegin
  2
*Paper_Space
 70
     0
 10
0.0
 20
0.0
 30
0.0
  3
*Paper_Space
  1

  0
ENDBLK
  5
1D
330
1B
100
AcDbEntity
 67
     1
  8
0
100
AcDbBlockEnd
  0
BLOCK
  5
24
330
23
100
AcDbEntity
  8
0
100
AcDbBlockBegin
  2
*Paper_Space0
 70
     0
 10
0.0
 20
0.0
 30
0.0
  3
*Paper_Space0
  1

  0
ENDBLK
  5
25
330
23
100
AcDbEntity
  8
0
100
AcDbBlockEnd
  0
BLOCK
  5
67
330
65
100
AcDbEntity
  8
0
100
AcDbBlockBegin
  2
block 2
 70
     0
 10
0.0
 20
0.0
 30
0.0
  3
block 2
  1

  0
SPLINE
  5
69
330
65
100
AcDbEntity
  8
_U+30EC_U+30A4_U+30E4_U+30FC 1
370
     0
100
AcDbSpline
210
0.0
220
0.0
230
1.0
 70
    11
 71
     3
 72
    26
 73
    22
 74
     0
 42
0.0000000001
 43
0.0000000001
 12
1.0
 22
0.0
 32
0.0
 13
1.0
 23
0.0
 33
0.0
 40
0.0
 40
0.0
 40
0.0
 40
0.0
 40
1.0
 40
1.0
 40
1.0
 40
2.0
 40
2.0
 40
2.0
 40
3.0
 40
3.0
 40
3.0
 40
4.0
 40
4.0
 40
4.0
 40
5.0
 40
5.0
 40
5.0
 40
6.0
 40
6.0
 40
6.0
 40
7.0
 40
7.0
 40
7.0
 40
7.0
 10
104.0742675521064
 20
-140.8520398953426
 30
0.0
 10
104.0742675521064
 20
-140.8520398953426
 30
0.0
 10
102.9701144490839
 20
-140.8520398953426
 30
0.0
 10
102.9701144490839
 20
-140.8520398953426
 30
0.0
 10
102.9701144490839
 20
-140.8520398953426
 30
0.0
 10
102.9701144490839
 20
-141.1820800428295
 30
0.0
 10
102.9701144490839
 20
-141.1820800428295
 30
0.0
 10
102.9701144490839
 20
-141.1820800428295
 30
0.0
 10
102.8219753432181
 20
-141.1820800428295
 30
0.0
 10
102.8219753432181
 20
-141.1820800428295
 30
0.0
 10
102.8071614326315
 20
-140.8499728380514
 30
0.0
 10
102.6442084161792
 20
-140.8034640490005
 30
0.0
 10
102.5298312460689
 20
-140.7738362278274
 30
0.0
 10
102.5298312460689
 20
-140.7738362278274
 30
0.0
 10
102.5298312460689
 20
-140.6277641792528
 30
0.0
 10
102.5298312460689
 20
-140.6277641792528
 30
0.0
 10
102.5298312460689
 20
-140.6277641792528
 30
0.0
 10
104.0742675521064
 20
-140.6277641792528
 30
0.0
 10
104.0742675521064
 20
-140.6277641792528
 30
0.0
 10
104.0742675521064
 20
-140.6277641792528
 30
0.0
 10
104.0742675521064
 20
-140.8520398953426
 30
0.0
 10
104.0742675521064
 20
-140.8520398953426
 30
0.0
  0
HATCH
  5
6A
330
65
100
AcDbEntity
  8
_U+30EC_U+30A4_U+30E4_U+30FC 1
 62
     7
420
 16777215
100
AcDbHatch
 10
0.0
 20
0.0
 30
0.0
210
0.0
220
0.0
230
1.0
  2
SOLID
 70
     1
 71
     0
 91
        1
 92
        1
 93
        1
 72
     4
 94
        3
 73
     0
 74
     1
 95
       26
 96
       22
 40
0.0
 40
0.0
 40
0.0
 40
0.0
 40
1.0
 40
1.0
 40
1.0
 40
2.0
 40
2.0
 40
2.0
 40
3.0
 40
3.0
 40
3.0
 40
4.0
 40
4.0
 40
4.0
 40
5.0
 40
5.0
 40
5.0
 40
6.0
 40
6.0
 40
6.0
 40
7.0
 40
7.0
 40
7.0
 40
7.0
 10
104.0742675521064
 20
-140.8520398953426
 10
104.0742675521064
 20
-140.8520398953426
 10
102.9701144490839
 20
-140.8520398953426
 10
102.9701144490839
 20
-140.8520398953426
 10
102.9701144490839
 20
-140.8520398953426
 10
102.9701144490839
 20
-141.1820800428295
 10
102.9701144490839
 20
-141.1820800428295
 10
102.9701144490839
 20
-141.1820800428295
 10
102.8219753432181
 20
-141.1820800428295
 10
102.8219753432181
 20
-141.1820800428295
 10
102.8071614326315
 20
-140.8499728380514
 10
102.6442084161792
 20
-140.8034640490005
 10
102.5298312460689
 20
-140.7738362278274
 10
102.5298312460689
 20
-140.7738362278274
 10
102.5298312460689
 20
-140.6277641792528
 10
102.5298312460689
 20
-140.6277641792528
 10
102.5298312460689
 20
-140.6277641792528
 10
104.0742675521064
 20
-140.6277641792528
 10
104.0742675521064
 20
-140.6277641792528
 10
104.0742675521064
 20
-140.6277641792528
 10
104.0742675521064
 20
-140.8520398953426
 10
104.0742675521064
 20
-140.8520398953426
 97
        0
 97
        0
 75
     2
 76
     1
 98
        0
  0
SPLINE
  5
6B
330
65
100
AcDbEntity
  8
_U+30EC_U+30A4_U+30E4_U+30FC 1
370
     0
100
AcDbSpline
210
0.0
220
0.0
230
1.0
 70
    11
 71
     3
 72
    62
 73
    58
 74
     0
 42
0.0000000001
 43
0.0000000001
 12
1.0
 22
0.0
 32
0.0
 13
1.0
 23
0.0
 33
0.0
 40
0.0
 40
0.0
 40
0.0
 40
0.0
 40
1.0
 40
1.0
 40
1.0
 40
2.0
 40
2.0
 40
2.0
 40
3.0
 40
3.0
 40
3.0
 40
4.0
 40
4.0
 40
4.0
 40
5.0
 40
5.0
 40
5.0
 40
6.0
 40
6.0
 40
6.0
 40
7.0
 40
7.0
 40
7.0
 40
8.0
 40
8.0
 40
8.0
 40
9.0
 40
9.0
 40
9.0
 40
10.0
 40
10.0
 40
10.0
 40
11.0
 40
11.0
 40
11.0
 40
12.0
 40
12.0
 40
12.0
 40
13.0
 40
13.0
 40
13.0
 40
14.0
 40
14.0
 40
14.0
 40
15.0
 40
15.0
 40
15.0
 40
16.0
 40
16.0
 40
16.0
 40
17.0
 40
17.0
 40
17.0
 40
18.0
 40
18.0
 40
18.0
 40
19.0
 40
19.0
 40
19.0
 40
19.0
 10
104.1249104557396
 20
-139.6348876604038
 30
0.0
 10
104.1249104557396
 20
-139.7303168053452
 30
0.0
 10
104.1038953732796
 20
-139.948046840013
 30
0.0
 10
103.9178602170761
 20
-140.0731038061276
 30
0.0
 10
103.805550104257
 20
-140.1471733590604
 30
0.0
 10
103.7063313542818
 20
-140.1513074736427
 30
0.0
 10
103.6215820053446
 20
-140.155441588225
 30
0.0
 10
103.6215820053446
 20
-140.155441588225
 30
0.0
 10
103.6215820053446
 20
-139.9352999867176
 30
0.0
 10
103.6215820053446
 20
-139.9352999867176
 30
0.0
 10
103.6956515582775
 20
-139.9332329294264
 30
0.0
 10
103.930262560823
 20
-139.9228976429707
 30
0.0
 10
103.930262560823
 20
-139.6393662845346
 30
0.0
 10
103.930262560823
 20
-139.5019069746731
 30
0.0
 10
103.860671632021
 20
-139.3492892446766
 30
0.0
 10
103.6322618013489
 20
-139.3492892446766
 30
0.0
 10
103.5158175739474
 20
-139.3492892446766
 30
0.0
 10
103.4672417276054
 20
-139.3875298045629
 30
0.0
 10
103.4355468491411
 20
-139.4192246830272
 30
0.0
 10
103.3614772962082
 20
-139.49329423596
 30
0.0
 10
103.3487304429128
 20
-139.6097384633615
 30
0.0
 10
103.3487304429128
 20
-139.6645154815769
 30
0.0
 10
103.3487304429128
 20
-139.6838080162943
 30
0.0
 10
103.350797500204
 20
-139.7196370093409
 30
0.0
 10
103.3549316147863
 20
-139.7471977732229
 30
0.0
 10
103.3549316147863
 20
-139.7471977732229
 30
0.0
 10
103.1602837198697
 20
-139.7471977732229
 30
0.0
 10
103.1602837198697
 20
-139.7471977732229
 30
0.0
 10
103.1668294012916
 20
-139.7089572133366
 30
0.0
 10
103.1688964585828
 20
-139.6669270484166
 30
0.0
 10
103.1688964585828
 20
-139.6603813669946
 30
0.0
 10
103.1688964585828
 20
-139.5949245527749
 30
0.0
 10
103.1475368665742
 20
-139.396142543276
 30
0.0
 10
102.9108588067376
 20
-139.396142543276
 30
0.0
 10
102.7330918796987
 20
-139.396142543276
 30
0.0
 10
102.6779703519347
 20
-139.5270561717155
 30
0.0
 10
102.6779703519347
 20
-139.6372992272435
 30
0.0
 10
102.6779703519347
 20
-139.9015380509621
 30
0.0
 10
102.9108588067376
 20
-139.9101507896752
 30
0.0
 10
102.9825167928308
 20
-139.9142849042576
 30
0.0
 10
102.9825167928308
 20
-139.9142849042576
 30
0.0
 10
102.9825167928308
 20
-140.1175455378873
 30
0.0
 10
102.9825167928308
 20
-140.1175455378873
 30
0.0
 10
102.8578043362647
 20
-140.1089327991742
 30
0.0
 10
102.4812553997269
 20
-140.0813720352922
 30
0.0
 10
102.4812553997269
 20
-139.624552373948
 30
0.0
 10
102.4812553997269
 20
-139.4002766578583
 30
0.0
 10
102.6083794231326
 20
-139.1591199738908
 30
0.0
 10
102.9043131253156
 20
-139.1591199738908
 30
0.0
 10
103.0906927910676
 20
-139.1591199738908
 30
0.0
 10
103.1730305731651
 20
-139.2542046092837
 30
0.0
 10
103.2343532728025
 20
-139.3537678688074
 30
0.0
 10
103.2619140366845
 20
-139.29244516917
 30
0.0
 10
103.3421847614908
 20
-139.1105441275488
 30
0.0
 10
103.6195149480535
 20
-139.1105441275488
 30
0.0
 10
103.957823324705
 20
-139.1105441275488
 30
0.0
 10
104.1249104557396
 20
-139.3579019833897
 30
0.0
 10
104.1249104557396
 20
-139.6348876604038
 30
0.0
  0
HATCH
  5
6C
330
65
100
AcDbEntity
  8
_U+30EC_U+30A4_U+30E4_U+30FC 1
 62
     7
420
 16777215
100
AcDbHatch
 10
0.0
 20
0.0
 30
0.0
210
0.0
220
0.0
230
1.0
  2
SOLID
 70
     1
 71
     0
 91
        1
 92
        1
 93
        1
 72
     4
 94
        3
 73
     0
 74
     1
 95
       62
 96
       58
 40
0.0
 40
0.0
 40
0.0
 40
0.0
 40
1.0
 40
1.0
 40
1.0
 40
2.0
 40
2.0
 40
2.0
 40
3.0
 40
3.0
 40
3.0
 40
4.0
 40
4.0
 40
4.0
 40
5.0
 40
5.0
 40
5.0
 40
6.0
 40
6.0
 40
6.0
 40
7.0
 40
7.0
 40
7.0
 40
8.0
 40
8.0
 40
8.0
 40
9.0
 40
9.0
 40
9.0
 40
10.0
 40
10.0
 40
10.0
 40
11.0
 40
11.0
 40
11.0
 40
12.0
 40
12.0
 40
12.0
 40
13.0
 40
13.0
 40
13.0
 40
14.0
 40
14.0
 40
14.0
 40
15.0
 40
15.0
 40
15.0
 40
16.0
 40
16.0
 40
16.0
 40
17.0
 40
17.0
 40
17.0
 40
18.0
 40
18.0
 40
18.0
 40
19.0
 40
19.0
 40
19.0
 40
19.0
 10
104.1249104557396
 20
-139.6348876604038
 10
104.1249104557396
 20
-139.7303168053452
 10
104.1038953732796
 20
-139.948046840013
 10
103.9178602170761
 20
-140.0731038061276
 10
103.805550104257
 20
-140.1471733590604
 10
103.7063313542818
 20
-140.1513074736427
 10
103.6215820053446
 20
-140.155441588225
 10
103.6215820053446
 20
-140.155441588225
 10
103.6215820053446
 20
-139.9352999867176
 10
103.6215820053446
 20
-139.9352999867176
 10
103.6956515582775
 20
-139.9332329294264
 10
103.930262560823
 20
-139.9228976429707
 10
103.930262560823
 20
-139.6393662845346
 10
103.930262560823
 20
-139.5019069746731
 10
103.860671632021
 20
-139.3492892446766
 10
103.6322618013489
 20
-139.3492892446766
 10
103.5158175739474
 20
-139.3492892446766
 10
103.4672417276054
 20
-139.3875298045629
 10
103.4355468491411
 20
-139.4192246830272
 10
103.3614772962082
 20
-139.49329423596
 10
103.3487304429128
 20
-139.6097384633615
 10
103.3487304429128
 20
-139.6645154815769
 10
103.3487304429128
 20
-139.6838080162943
 10
103.350797500204
 20
-139.7196370093409
 10
103.3549316147863
 20
-139.7471977732229
 10
103.3549316147863
 20
-139.7471977732229
 10
103.1602837198697
 20
-139.7471977732229
 10
103.1602837198697
 20
-139.7471977732229
 10
103.1668294012916
 20
-139.7089572133366
 10
103.1688964585828
 20
-139.6669270484166
 10
103.1688964585828
 20
-139.6603813669946
 10
103.1688964585828
 20
-139.5949245527749
 10
103.1475368665742
 20
-139.396142543276
 10
102.9108588067376
 20
-139.396142543276
 10
102.7330918796987
 20
-139.396142543276
 10
102.6779703519347
 20
-139.5270561717155
 10
102.6779703519347
 20
-139.6372992272435
 10
102.6779703519347
 20
-139.9015380509621
 10
102.9108588067376
 20
-139.9101507896752
 10
102.9825167928308
 20
-139.9142849042576
 10
102.9825167928308
 20
-139.9142849042576
 10
102.9825167928308
 20
-140.1175455378873
 10
102.9825167928308
 20
-140.1175455378873
 10
102.8578043362647
 20
-140.1089327991742
 10
102.4812553997269
 20
-140.0813720352922
 10
102.4812553997269
 20
-139.624552373948
 10
102.4812553997269
 20
-139.4002766578583
 10
102.6083794231326
 20
-139.1591199738908
 10
102.9043131253156
 20
-139.1591199738908
 10
103.0906927910676
 20
-139.1591199738908
 10
103.1730305731651
 20
-139.2542046092837
 10
103.2343532728025
 20
-139.3537678688074
 10
103.2619140366845
 20
-139.29244516917
 10
103.3421847614908
 20
-139.1105441275488
 10
103.6195149480535
 20
-139.1105441275488
 10
103.957823324705
 20
-139.1105441275488
 10
104.1249104557396
 20
-139.3579019833897
 10
104.1249104557396
 20
-139.6348876604038
 97
        0
 97
        0
 75
     2
 76
     1
 98
        0
  0
ENDBLK
  5
68
330
65
100
AcDbEntity
  8
0
100
AcDbBlockEnd
  0
BLOCK
  5
6F
330
6D
100
AcDbEntity
  8
0
100
AcDbBlockBegin
  2
block 3
 70
     0
 10
0.0
 20
0.0
 30
0.0
  3
block 3
  1

  0
SPLINE
  5
71
330
6D
100
AcDbEntity
  8
_U+30EC_U+30A4_U+30E4_U+30FC 1
370
     0
100
AcDbSpline
210
0.0
220
0.0
230
1.0
 70
    11
 71
     3
 72
    62
 73
    58
 74
     0
 42
0.0000000001
 43
0.0000000001
 12
1.0
 22
0.0
 32
0.0
 13
1.0
 23
0.0
 33
0.0
 40
0.0
 40
0.0
 40
0.0
 40
0.0
 40
1.0
 40
1.0
 40
1.0
 40
2.0
 40
2.0
 40
2.0
 40
3.0
 40
3.0
 40
3.0
 40
4.0
 40
4.0
 40
4.0
 40
5.0
 40
5.0
 40
5.0
 40
6.0
 40
6.0
 40
6.0
 40
7.0
 40
7.0
 40
7.0
 40
8.0
 40
8.0
 40
8.0
 40
9.0
 40
9.0
 40
9.0
 40
10.0
 40
10.0
 40
10.0
 40
11.0
 40
11.0
 40
11.0
 40
12.0
 40
12.0
 40
12.0
 40
13.0
 40
13.0
 40
13.0
 40
14.0
 40
14.0
 40
14.0
 40
15.0
 40
15.0
 40
15.0
 40
16.0
 40
16.0
 40
16.0
 40
17.0
 40
17.0
 40
17.0
 40
18.0
 40
18.0
 40
18.0
 40
19.0
 40
19.0
 40
19.0
 40
19.0
 10
104.1249104557396
 20
-119.3088242974297
 30
0.0
 10
104.1249104557396
 20
-119.4042534423712
 30
0.0
 10
104.1038953732796
 20
-119.621983477039
 30
0.0
 10
103.9178602170761
 20
-119.7470404431535
 30
0.0
 10
103.805550104257
 20
-119.8211099960864
 30
0.0
 10
103.7063313542818
 20
-119.8252441106687
 30
0.0
 10
103.6215820053446
 20
-119.829378225251
 30
0.0
 10
103.6215820053446
 20
-119.829378225251
 30
0.0
 10
103.6215820053446
 20
-119.6092366237435
 30
0.0
 10
103.6215820053446
 20
-119.6092366237435
 30
0.0
 10
103.6956515582775
 20
-119.6071695664524
 30
0.0
 10
103.930262560823
 20
-119.5968342799966
 30
0.0
 10
103.930262560823
 20
-119.3133029215606
 30
0.0
 10
103.930262560823
 20
-119.1758436116991
 30
0.0
 10
103.860671632021
 20
-119.0232258817025
 30
0.0
 10
103.6322618013489
 20
-119.0232258817025
 30
0.0
 10
103.5158175739474
 20
-119.0232258817025
 30
0.0
 10
103.4672417276054
 20
-119.0614664415888
 30
0.0
 10
103.4355468491411
 20
-119.0931613200531
 30
0.0
 10
103.3614772962082
 20
-119.167230872986
 30
0.0
 10
103.3487304429128
 20
-119.2836751003874
 30
0.0
 10
103.3487304429128
 20
-119.3384521186029
 30
0.0
 10
103.3487304429128
 20
-119.3577446533203
 30
0.0
 10
103.350797500204
 20
-119.3935736463669
 30
0.0
 10
103.3549316147863
 20
-119.4211344102489
 30
0.0
 10
103.3549316147863
 20
-119.4211344102489
 30
0.0
 10
103.1602837198697
 20
-119.4211344102489
 30
0.0
 10
103.1602837198697
 20
-119.4211344102489
 30
0.0
 10
103.1668294012916
 20
-119.3828938503626
 30
0.0
 10
103.1688964585828
 20
-119.3408636854426
 30
0.0
 10
103.1688964585828
 20
-119.3343180040206
 30
0.0
 10
103.1688964585828
 20
-119.2688611898008
 30
0.0
 10
103.1475368665742
 20
-119.0700791803019
 30
0.0
 10
102.9108588067376
 20
-119.0700791803019
 30
0.0
 10
102.7330918796987
 20
-119.0700791803019
 30
0.0
 10
102.6779703519347
 20
-119.2009928087414
 30
0.0
 10
102.6779703519347
 20
-119.3112358642694
 30
0.0
 10
102.6779703519347
 20
-119.5754746879881
 30
0.0
 10
102.9108588067376
 20
-119.5840874267012
 30
0.0
 10
102.9825167928308
 20
-119.5882215412835
 30
0.0
 10
102.9825167928308
 20
-119.5882215412835
 30
0.0
 10
102.9825167928308
 20
-119.7914821749132
 30
0.0
 10
102.9825167928308
 20
-119.7914821749132
 30
0.0
 10
102.8578043362647
 20
-119.7828694362001
 30
0.0
 10
102.4812553997269
 20
-119.7553086723181
 30
0.0
 10
102.4812553997269
 20
-119.298489010974
 30
0.0
 10
102.4812553997269
 20
-119.0742132948842
 30
0.0
 10
102.6083794231326
 20
-118.8330566109167
 30
0.0
 10
102.9043131253156
 20
-118.8330566109167
 30
0.0
 10
103.0906927910676
 20
-118.8330566109167
 30
0.0
 10
103.1730305731651
 20
-118.9281412463096
 30
0.0
 10
103.2343532728025
 20
-119.0277045058334
 30
0.0
 10
103.2619140366845
 20
-118.9663818061959
 30
0.0
 10
103.3421847614908
 20
-118.7844807645747
 30
0.0
 10
103.6195149480535
 20
-118.7844807645747
 30
0.0
 10
103.957823324705
 20
-118.7844807645747
 30
0.0
 10
104.1249104557396
 20
-119.0318386204157
 30
0.0
 10
104.1249104557396
 20
-119.3088242974297
 30
0.0
  0
HATCH
  5
72
330
6D
100
AcDbEntity
  8
_U+30EC_U+30A4_U+30E4_U+30FC 1
 62
     7
420
 16777215
100
AcDbHatch
 10
0.0
 20
0.0
 30
0.0
210
0.0
220
0.0
230
1.0
  2
SOLID
 70
     1
 71
     0
 91
        1
 92
        1
 93
        1
 72
     4
 94
        3
 73
     0
 74
     1
 95
       62
 96
       58
 40
0.0
 40
0.0
 40
0.0
 40
0.0
 40
1.0
 40
1.0
 40
1.0
 40
2.0
 40
2.0
 40
2.0
 40
3.0
 40
3.0
 40
3.0
 40
4.0
 40
4.0
 40
4.0
 40
5.0
 40
5.0
 40
5.0
 40
6.0
 40
6.0
 40
6.0
 40
7.0
 40
7.0
 40
7.0
 40
8.0
 40
8.0
 40
8.0
 40
9.0
 40
9.0
 40
9.0
 40
10.0
 40
10.0
 40
10.0
 40
11.0
 40
11.0
 40
11.0
 40
12.0
 40
12.0
 40
12.0
 40
13.0
 40
13.0
 40
13.0
 40
14.0
 40
14.0
 40
14.0
 40
15.0
 40
15.0
 40
15.0
 40
16.0
 40
16.0
 40
16.0
 40
17.0
 40
17.0
 40
17.0
 40
18.0
 40
18.0
 40
18.0
 40
19.0
 40
19.0
 40
19.0
 40
19.0
 10
104.1249104557396
 20
-119.3088242974297
 10
104.1249104557396
 20
-119.4042534423712
 10
104.1038953732796
 20
-119.621983477039
 10
103.9178602170761
 20
-119.7470404431535
 10
103.805550104257
 20
-119.8211099960864
 10
103.7063313542818
 20
-119.8252441106687
 10
103.6215820053446
 20
-119.829378225251
 10
103.6215820053446
 20
-119.829378225251
 10
103.6215820053446
 20
-119.6092366237435
 10
103.6215820053446
 20
-119.6092366237435
 10
103.6956515582775
 20
-119.6071695664524
 10
103.930262560823
 20
-119.5968342799966
 10
103.930262560823
 20
-119.3133029215606
 10
103.930262560823
 20
-119.1758436116991
 10
103.860671632021
 20
-119.0232258817025
 10
103.6322618013489
 20
-119.0232258817025
 10
103.5158175739474
 20
-119.0232258817025
 10
103.4672417276054
 20
-119.0614664415888
 10
103.4355468491411
 20
-119.0931613200531
 10
103.3614772962082
 20
-119.167230872986
 10
103.3487304429128
 20
-119.2836751003874
 10
103.3487304429128
 20
-119.3384521186029
 10
103.3487304429128
 20
-119.3577446533203
 10
103.350797500204
 20
-119.3935736463669
 10
103.3549316147863
 20
-119.4211344102489
 10
103.3549316147863
 20
-119.4211344102489
 10
103.1602837198697
 20
-119.4211344102489
 10
103.1602837198697
 20
-119.4211344102489
 10
103.1668294012916
 20
-119.3828938503626
 10
103.1688964585828
 20
-119.3408636854426
 10
103.1688964585828
 20
-119.3343180040206
 10
103.1688964585828
 20
-119.2688611898008
 10
103.1475368665742
 20
-119.0700791803019
 10
102.9108588067376
 20
-119.0700791803019
 10
102.7330918796987
 20
-119.0700791803019
 10
102.6779703519347
 20
-119.2009928087414
 10
102.6779703519347
 20
-119.3112358642694
 10
102.6779703519347
 20
-119.5754746879881
 10
102.9108588067376
 20
-119.5840874267012
 10
102.9825167928308
 20
-119.5882215412835
 10
102.9825167928308
 20
-119.5882215412835
 10
102.9825167928308
 20
-119.7914821749132
 10
102.9825167928308
 20
-119.7914821749132
 10
102.8578043362647
 20
-119.7828694362001
 10
102.4812553997269
 20
-119.7553086723181
 10
102.4812553997269
 20
-119.298489010974
 10
102.4812553997269
 20
-119.0742132948842
 10
102.6083794231326
 20
-118.8330566109167
 10
102.9043131253156
 20
-118.8330566109167
 10
103.0906927910676
 20
-118.8330566109167
 10
103.1730305731651
 20
-118.9281412463096
 10
103.2343532728025
 20
-119.0277045058334
 10
103.2619140366845
 20
-118.9663818061959
 10
103.3421847614908
 20
-118.7844807645747
 10
103.6195149480535
 20
-118.7844807645747
 10
103.957823324705
 20
-118.7844807645747
 10
104.1249104557396
 20
-119.0318386204157
 10
104.1249104557396
 20
-119.3088242974297
 97
        0
 97
        0
 75
     2
 76
     1
 98
        0
  0
SPLINE
  5
73
330
6D
100
AcDbEntity
  8
_U+30EC_U+30A4_U+30E4_U+30FC 1
370
     0
100
AcDbSpline
210
0.0
220
0.0
230
1.0
 70
    11
 71
     3
 72
    29
 73
    25
 74
     0
 42
0.0000000001
 43
0.0000000001
 12
1.0
 22
0.0
 32
0.0
 13
1.0
 23
0.0
 33
0.0
 40
0.0
 40
0.0
 40
0.0
 40
0.0
 40
1.0
 40
1.0
 40
1.0
 40
2.0
 40
2.0
 40
2.0
 40
3.0
 40
3.0
 40
3.0
 40
4.0
 40
4.0
 40
4.0
 40
5.0
 40
5.0
 40
5.0
 40
6.0
 40
6.0
 40
6.0
 40
7.0
 40
7.0
 40
7.0
 40
8.0
 40
8.0
 40
8.0
 40
8.0
 10
103.8965006250675
 20
-117.7258029219574
 30
0.0
 10
104.1059624305707
 20
-117.8339789201943
 30
0.0
 10
104.1249104557396
 20
-118.0072672231024
 30
0.0
 10
104.1249104557396
 20
-118.1237114505038
 30
0.0
 10
104.1249104557396
 20
-118.284597409665
 30
0.0
 10
104.0784016666887
 20
-118.4261908341087
 30
0.0
 10
103.8965006250675
 20
-118.5212754695016
 30
0.0
 10
103.7018527301509
 20
-118.6249728436077
 30
0.0
 10
103.4651746703143
 20
-118.644265378325
 30
0.0
 10
103.3022216538619
 20
-118.644265378325
 30
0.0
 10
103.1582166625785
 20
-118.644265378325
 30
0.0
 10
102.9063801826067
 20
-118.6270399008988
 30
0.0
 10
102.7075981731078
 20
-118.5212754695016
 30
0.0
 10
102.5046820490266
 20
-118.4134439808133
 30
0.0
 10
102.4812553997269
 20
-118.2525580216521
 30
0.0
 10
102.4812553997269
 20
-118.1237114505038
 30
0.0
 10
102.4812553997269
 20
-117.9648925486338
 30
0.0
 10
102.5256971314866
 20
-117.8212320668989
 30
0.0
 10
102.7075981731078
 20
-117.7258029219574
 30
0.0
 10
102.9001790107333
 20
-117.6265841719822
 30
0.0
 10
103.1285888414054
 20
-117.6031575226826
 30
0.0
 10
103.3022216538619
 20
-117.6031575226826
 30
0.0
 10
103.4734428994789
 20
-117.6031575226826
 30
0.0
 10
103.7039197874421
 20
-117.6245171146911
 30
0.0
 10
103.8965006250675
 20
-117.7258029219574
 30
0.0
  0
SPLINE
  5
74
330
6D
100
AcDbEntity
  8
_U+30EC_U+30A4_U+30E4_U+30FC 1
370
     0
100
AcDbSpline
210
0.0
220
0.0
230
1.0
 70
    11
 71
     3
 72
    17
 73
    13
 74
     0
 42
0.0000000001
 43
0.0000000001
 12
1.0
 22
0.0
 32
0.0
 13
1.0
 23
0.0
 33
0.0
 40
0.0
 40
0.0
 40
0.0
 40
0.0
 40
1.0
 40
1.0
 40
1.0
 40
2.0
 40
2.0
 40
2.0
 40
3.0
 40
3.0
 40
3.0
 40
4.0
 40
4.0
 40
4.0
 40
4.0
 10
102.6738362373524
 20
-118.1237114505038
 30
0.0
 10
102.6738362373524
 20
-118.3734808731844
 30
0.0
 10
102.9573675957884
 20
-118.4199896622353
 30
0.0
 10
103.3022216538619
 20
-118.4199896622353
 30
0.0
 10
103.6215820053446
 20
-118.4199896622353
 30
0.0
 10
103.930262560823
 20
-118.3838161596402
 30
0.0
 10
103.930262560823
 20
-118.1237114505038
 30
0.0
 10
103.930262560823
 20
-117.8760090851143
 30
0.0
 10
103.6491427692266
 20
-117.8274332387723
 30
0.0
 10
103.3022216538619
 20
-117.8274332387723
 30
0.0
 10
102.9825167928308
 20
-117.8274332387723
 30
0.0
 10
102.6738362373524
 20
-117.8656737986586
 30
0.0
 10
102.6738362373524
 20
-118.1237114505038
 30
0.0
  0
HATCH
  5
75
330
6D
100
AcDbEntity
  8
_U+30EC_U+30A4_U+30E4_U+30FC 1
 62
     7
420
 16777215
100
AcDbHatch
 10
0.0
 20
0.0
 30
0.0
210
0.0
220
0.0
230
1.0
  2
SOLID
 70
     1
 71
     0
 91
        2
 92
        1
 93
        1
 72
     4
 94
        3
 73
     0
 74
     1
 95
       29
 96
       25
 40
0.0
 40
0.0
 40
0.0
 40
0.0
 40
1.0
 40
1.0
 40
1.0
 40
2.0
 40
2.0
 40
2.0
 40
3.0
 40
3.0
 40
3.0
 40
4.0
 40
4.0
 40
4.0
 40
5.0
 40
5.0
 40
5.0
 40
6.0
 40
6.0
 40
6.0
 40
7.0
 40
7.0
 40
7.0
 40
8.0
 40
8.0
 40
8.0
 40
8.0
 10
103.8965006250675
 20
-117.7258029219574
 10
104.1059624305707
 20
-117.8339789201943
 10
104.1249104557396
 20
-118.0072672231024
 10
104.1249104557396
 20
-118.1237114505038
 10
104.1249104557396
 20
-118.284597409665
 10
104.0784016666887
 20
-118.4261908341087
 10
103.8965006250675
 20
-118.5212754695016
 10
103.7018527301509
 20
-118.6249728436077
 10
103.4651746703143
 20
-118.644265378325
 10
103.3022216538619
 20
-118.644265378325
 10
103.1582166625785
 20
-118.644265378325
 10
102.9063801826067
 20
-118.6270399008988
 10
102.7075981731078
 20
-118.5212754695016
 10
102.5046820490266
 20
-118.4134439808133
 10
102.4812553997269
 20
-118.2525580216521
 10
102.4812553997269
 20
-118.1237114505038
 10
102.4812553997269
 20
-117.9648925486338
 10
102.5256971314866
 20
-117.8212320668989
 10
102.7075981731078
 20
-117.7258029219574
 10
102.9001790107333
 20
-117.6265841719822
 10
103.1285888414054
 20
-117.6031575226826
 10
103.3022216538619
 20
-117.6031575226826
 10
103.4734428994789
 20
-117.6031575226826
 10
103.7039197874421
 20
-117.6245171146911
 10
103.8965006250675
 20
-117.7258029219574
 97
        0
 97
        0
 92
        1
 93
        1
 72
     4
 94
        3
 73
     0
 74
     1
 95
       17
 96
       13
 40
0.0
 40
0.0
 40
0.0
 40
0.0
 40
1.0
 40
1.0
 40
1.0
 40
2.0
 40
2.0
 40
2.0
 40
3.0
 40
3.0
 40
3.0
 40
4.0
 40
4.0
 40
4.0
 40
4.0
 10
102.6738362373524
 20
-118.1237114505038
 10
102.6738362373524
 20
-118.3734808731844
 10
102.9573675957884
 20
-118.4199896622353
 10
103.3022216538619
 20
-118.4199896622353
 10
103.6215820053446
 20
-118.4199896622353
 10
103.930262560823
 20
-118.3838161596402
 10
103.930262560823
 20
-118.1237114505038
 10
103.930262560823
 20
-117.8760090851143
 10
103.6491427692266
 20
-117.8274332387723
 10
103.3022216538619
 20
-117.8274332387723
 10
102.9825167928308
 20
-117.8274332387723
 10
102.6738362373524
 20
-117.8656737986586
 10
102.6738362373524
 20
-118.1237114505038
 97
        0
 97
        0
 75
     2
 76
     1
 98
        0
  0
ENDBLK
  5
70
330
6D
100
AcDbEntity
  8
0
100
AcDbBlockEnd
  0
BLOCK
  5
7C
330
7A
100
AcDbEntity
  8
0
100
AcDbBlockBegin
  2
block 4
 70
     0
 10
0.0
 20
0.0
 30
0.0
  3
block 4
  1

  0
SPLINE
  5
7E
330
7A
100
AcDbEntity
  8
_U+30EC_U+30A4_U+30E4_U+30FC 1
370
     0
100
AcDbSpline
210
0.0
220
0.0
230
1.0
 70
    11
 71
     3
 72
    26
 73
    22
 74
     0
 42
0.0000000001
 43
0.0000000001
 12
1.0
 22
0.0
 32
0.0
 13
1.0
 23
0.0
 33
0.0
 40
0.0
 40
0.0
 40
0.0
 40
0.0
 40
1.0
 40
1.0
 40
1.0
 40
2.0
 40
2.0
 40
2.0
 40
3.0
 40
3.0
 40
3.0
 40
4.0
 40
4.0
 40
4.0
 40
5.0
 40
5.0
 40
5.0
 40
6.0
 40
6.0
 40
6.0
 40
7.0
 40
7.0
 40
7.0
 40
7.0
 10
91.89826657858794
 20
-109.6594563527935
 30
0.0
 10
91.89826657858794
 20
-109.6594563527935
 30
0.0
 10
91.89826657858794
 20
-108.5553032497709
 30
0.0
 10
91.89826657858794
 20
-108.5553032497709
 30
0.0
 10
91.89826657858794
 20
-108.5553032497709
 30
0.0
 10
91.56822643110101
 20
-108.5553032497709
 30
0.0
 10
91.56822643110101
 20
-108.5553032497709
 30
0.0
 10
91.56822643110101
 20
-108.5553032497709
 30
0.0
 10
91.56822643110101
 20
-108.4071641439052
 30
0.0
 10
91.56822643110101
 20
-108.4071641439052
 30
0.0
 10
91.9003336358791
 20
-108.3923502333186
 30
0.0
 10
91.94684242492995
 20
-108.2293972168663
 30
0.0
 10
91.9764702461031
 20
-108.115020046756
 30
0.0
 10
91.9764702461031
 20
-108.115020046756
 30
0.0
 10
92.1225422946777
 20
-108.115020046756
 30
0.0
 10
92.1225422946777
 20
-108.115020046756
 30
0.0
 10
92.1225422946777
 20
-108.115020046756
 30
0.0
 10
92.1225422946777
 20
-109.6594563527935
 30
0.0
 10
92.1225422946777
 20
-109.6594563527935
 30
0.0
 10
92.1225422946777
 20
-109.6594563527935
 30
0.0
 10
91.89826657858794
 20
-109.6594563527935
 30
0.0
 10
91.89826657858794
 20
-109.6594563527935
 30
0.0
  0
HATCH
  5
7F
330
7A
100
AcDbEntity
  8
_U+30EC_U+30A4_U+30E4_U+30FC 1
 62
     7
420
 16777215
100
AcDbHatch
 10
0.0
 20
0.0
 30
0.0
210
0.0
220
0.0
230
1.0
  2
SOLID
 70
     1
 71
     0
 91
        1
 92
        1
 93
        1
 72
     4
 94
        3
 73
     0
 74
     1
 95
       26
 96
       22
 40
0.0
 40
0.0
 40
0.0
 40
0.0
 40
1.0
 40
1.0
 40
1.0
 40
2.0
 40
2.0
 40
2.0
 40
3.0
 40
3.0
 40
3.0
 40
4.0
 40
4.0
 40
4.0
 40
5.0
 40
5.0
 40
5.0
 40
6.0
 40
6.0
 40
6.0
 40
7.0
 40
7.0
 40
7.0
 40
7.0
 10
91.89826657858794
 20
-109.6594563527935
 10
91.89826657858794
 20
-109.6594563527935
 10
91.89826657858794
 20
-108.5553032497709
 10
91.89826657858794
 20
-108.5553032497709
 10
91.89826657858794
 20
-108.5553032497709
 10
91.56822643110101
 20
-108.5553032497709
 10
91.56822643110101
 20
-108.5553032497709
 10
91.56822643110101
 20
-108.5553032497709
 10
91.56822643110101
 20
-108.4071641439052
 10
91.56822643110101
 20
-108.4071641439052
 10
91.9003336358791
 20
-108.3923502333186
 10
91.94684242492995
 20
-108.2293972168663
 10
91.9764702461031
 20
-108.115020046756
 10
91.9764702461031
 20
-108.115020046756
 10
92.1225422946777
 20
-108.115020046756
 10
92.1225422946777
 20
-108.115020046756
 10
92.1225422946777
 20
-108.115020046756
 10
92.1225422946777
 20
-109.6594563527935
 10
92.1225422946777
 20
-109.6594563527935
 10
92.1225422946777
 20
-109.6594563527935
 10
91.89826657858794
 20
-109.6594563527935
 10
91.89826657858794
 20
-109.6594563527935
 97
        0
 97
        0
 75
     2
 76
     1
 98
        0
  0
POLYLINE
  5
80
330
7A
100
AcDbEntity
  8
_U+30EC_U+30A4_U+30E4_U+30FC 1
370
     0
100
AcDb2dPolyline
 66
     1
 10
0.0
 20
0.0
 30
0.0
  0
VERTEX
  5
81
330
80
100
AcDbEntity
  8
_U+30EC_U+30A4_U+30E4_U+30FC 1
370
     0
100
AcDbVertex
100
AcDb2dVertex
 10
92.6837483492249
 20
-109.6594563527935
 30
0.0
  0
VERTEX
  5
82
330
80
100
AcDbEntity
  8
_U+30EC_U+30A4_U+30E4_U+30FC 1
370
     0
100
AcDbVertex
100
AcDb2dVertex
 10
92.6837483492249
 20
-109.4076198728217
 30
0.0
  0
VERTEX
  5
83
330
80
100
AcDbEntity
  8
_U+30EC_U+30A4_U+30E4_U+30FC 1
370
     0
100
AcDbVertex
100
AcDb2dVertex
 10
92.93558482919666
 20
-109.4076198728217
 30
0.0
  0
VERTEX
  5
84
330
80
100
AcDbEntity
  8
_U+30EC_U+30A4_U+30E4_U+30FC 1
370
     0
100
AcDbVertex
100
AcDb2dVertex
 10
92.93558482919666
 20
-109.6594563527935
 30
0.0
  0
VERTEX
  5
85
330
80
100
AcDbEntity
  8
_U+30EC_U+30A4_U+30E4_U+30FC 1
370
     0
100
AcDbVertex
100
AcDb2dVertex
 10
92.6837483492249
 20
-109.6594563527935
 30
0.0
  0
SEQEND
  5
86
330
80
100
AcDbEntity
  8
_U+30EC_U+30A4_U+30E4_U+30FC 1
370
     0
  0
HATCH
  5
87
330
7A
100
AcDbEntity
  8
_U+30EC_U+30A4_U+30E4_U+30FC 1
 62
     7
420
 16777215
100
AcDbHatch
 10
0.0
 20
0.0
 30
0.0
210
0.0
220
0.0
230
1.0
  2
SOLID
 70
     1
 71
     0
 91
        1
 92
        1
 93
        4
 72
     1
 10
92.6837483492249
 20
-109.6594563527935
 11
92.6837483492249
 21
-109.4076198728217
 72
     1
 10
92.6837483492249
 20
-109.4076198728217
 11
92.93558482919666
 21
-109.4076198728217
 72
     1
 10
92.93558482919666
 20
-109.4076198728217
 11
92.93558482919666
 21
-109.6594563527935
 72
     1
 10
92.93558482919666
 20
-109.6594563527935
 11
92.6837483492249
 21
-109.6594563527935
 97
        0
 75
     2
 76
     1
 98
        0
  0
SPLINE
  5
88
330
7A
100
AcDbEntity
  8
_U+30EC_U+30A4_U+30E4_U+30FC 1
370
     0
100
AcDbSpline
210
0.0
220
0.0
230
1.0
 70
    11
 71
     3
 72
    53
 73
    49
 74
     0
 42
0.0000000001
 43
0.0000000001
 12
1.0
 22
0.0
 32
0.0
 13
1.0
 23
0.0
 33
0.0
 40
0.0
 40
0.0
 40
0.0
 40
0.0
 40
1.0
 40
1.0
 40
1.0
 40
2.0
 40
2.0
 40
2.0
 40
3.0
 40
3.0
 40
3.0
 40
4.0
 40
4.0
 40
4.0
 40
5.0
 40
5.0
 40
5.0
 40
6.0
 40
6.0
 40
6.0
 40
7.0
 40
7.0
 40
7.0
 40
8.0
 40
8.0
 40
8.0
 40
9.0
 40
9.0
 40
9.0
 40
10.0
 40
10.0
 40
10.0
 40
11.0
 40
11.0
 40
11.0
 40
12.0
 40
12.0
 40
12.0
 40
13.0
 40
13.0
 40
13.0
 40
14.0
 40
14.0
 40
14.0
 40
15.0
 40
15.0
 40
15.0
 40
16.0
 40
16.0
 40
16.0
 40
16.0
 10
93.65285370922568
 20
-109.7100992564266
 30
0.0
 10
93.57465004171051
 20
-109.7100992564266
 30
0.0
 10
93.47301972489564
 20
-109.6932182885489
 30
0.0
 10
93.37138940808077
 20
-109.6298285316203
 30
0.0
 10
93.1981011051727
 20
-109.5199299856409
 30
0.0
 10
93.17674151316415
 20
-109.3886718476528
 30
0.0
 10
93.15779348799528
 20
-109.2808403589645
 30
0.0
 10
93.15779348799528
 20
-109.2808403589645
 30
0.0
 10
93.3800021467939
 20
-109.2808403589645
 30
0.0
 10
93.3800021467939
 20
-109.2808403589645
 30
0.0
 10
93.43477916500936
 20
-109.4796223684634
 30
0.0
 10
93.56190318841509
 20
-109.5092501896366
 30
0.0
 10
93.65492076651682
 20
-109.5092501896366
 30
0.0
 10
93.79444713366945
 20
-109.5092501896366
 30
0.0
 10
93.94672035411749
 20
-109.4096869301129
 30
0.0
 10
93.94672035411749
 20
-109.1771429848585
 30
0.0
 10
93.94672035411749
 20
-108.9211723903044
 30
0.0
 10
93.76688636978744
 20
-108.8512369519539
 30
0.0
 10
93.6463080278037
 20
-108.8512369519539
 30
0.0
 10
93.6146131493394
 20
-108.8512369519539
 30
0.0
 10
93.47301972489564
 20
-108.8512369519539
 30
0.0
 10
93.3841362613762
 20
-108.9804280326507
 30
0.0
 10
93.3841362613762
 20
-108.9804280326507
 30
0.0
 10
93.20843639162845
 20
-108.9614800074819
 30
0.0
 10
93.20843639162845
 20
-108.9614800074819
 30
0.0
 10
93.20843639162845
 20
-108.9614800074819
 30
0.0
 10
93.3290147336122
 20
-108.115020046756
 30
0.0
 10
93.3290147336122
 20
-108.115020046756
 30
0.0
 10
93.3290147336122
 20
-108.115020046756
 30
0.0
 10
94.10760631327865
 20
-108.115020046756
 30
0.0
 10
94.10760631327865
 20
-108.115020046756
 30
0.0
 10
94.10760631327865
 20
-108.115020046756
 30
0.0
 10
94.10760631327865
 20
-108.3096679416726
 30
0.0
 10
94.10760631327865
 20
-108.3096679416726
 30
0.0
 10
94.10760631327865
 20
-108.3096679416726
 30
0.0
 10
93.49196775006452
 20
-108.3096679416726
 30
0.0
 10
93.49196775006452
 20
-108.3096679416726
 30
0.0
 10
93.49196775006452
 20
-108.3096679416726
 30
0.0
 10
93.42651093584476
 20
-108.7327256672613
 30
0.0
 10
93.42651093584476
 20
-108.7327256672613
 30
0.0
 10
93.48783363548222
 20
-108.6989637315058
 30
0.0
 10
93.57017141757969
 20
-108.6586561143284
 30
0.0
 10
93.68868270227227
 20
-108.6586561143284
 30
0.0
 10
93.94258623953519
 20
-108.6586561143284
 30
0.0
 10
94.17960880892038
 20
-108.8450357800804
 30
0.0
 10
94.17960880892038
 20
-109.1581949596896
 30
0.0
 10
94.17960880892038
 20
-109.4754882538811
 30
0.0
 10
93.95533309283061
 20
-109.7100992564266
 30
0.0
 10
93.65285370922568
 20
-109.7100992564266
 30
0.0
  0
HATCH
  5
89
330
7A
100
AcDbEntity
  8
_U+30EC_U+30A4_U+30E4_U+30FC 1
 62
     7
420
 16777215
100
AcDbHatch
 10
0.0
 20
0.0
 30
0.0
210
0.0
220
0.0
230
1.0
  2
SOLID
 70
     1
 71
     0
 91
        1
 92
        1
 93
        1
 72
     4
 94
        3
 73
     0
 74
     1
 95
       53
 96
       49
 40
0.0
 40
0.0
 40
0.0
 40
0.0
 40
1.0
 40
1.0
 40
1.0
 40
2.0
 40
2.0
 40
2.0
 40
3.0
 40
3.0
 40
3.0
 40
4.0
 40
4.0
 40
4.0
 40
5.0
 40
5.0
 40
5.0
 40
6.0
 40
6.0
 40
6.0
 40
7.0
 40
7.0
 40
7.0
 40
8.0
 40
8.0
 40
8.0
 40
9.0
 40
9.0
 40
9.0
 40
10.0
 40
10.0
 40
10.0
 40
11.0
 40
11.0
 40
11.0
 40
12.0
 40
12.0
 40
12.0
 40
13.0
 40
13.0
 40
13.0
 40
14.0
 40
14.0
 40
14.0
 40
15.0
 40
15.0
 40
15.0
 40
16.0
 40
16.0
 40
16.0
 40
16.0
 10
93.65285370922568
 20
-109.7100992564266
 10
93.57465004171051
 20
-109.7100992564266
 10
93.47301972489564
 20
-109.6932182885489
 10
93.37138940808077
 20
-109.6298285316203
 10
93.1981011051727
 20
-109.5199299856409
 10
93.17674151316415
 20
-109.3886718476528
 10
93.15779348799528
 20
-109.2808403589645
 10
93.15779348799528
 20
-109.2808403589645
 10
93.3800021467939
 20
-109.2808403589645
 10
93.3800021467939
 20
-109.2808403589645
 10
93.43477916500936
 20
-109.4796223684634
 10
93.56190318841509
 20
-109.5092501896366
 10
93.65492076651682
 20
-109.5092501896366
 10
93.79444713366945
 20
-109.5092501896366
 10
93.94672035411749
 20
-109.4096869301129
 10
93.94672035411749
 20
-109.1771429848585
 10
93.94672035411749
 20
-108.9211723903044
 10
93.76688636978744
 20
-108.8512369519539
 10
93.6463080278037
 20
-108.8512369519539
 10
93.6146131493394
 20
-108.8512369519539
 10
93.47301972489564
 20
-108.8512369519539
 10
93.3841362613762
 20
-108.9804280326507
 10
93.3841362613762
 20
-108.9804280326507
 10
93.20843639162845
 20
-108.9614800074819
 10
93.20843639162845
 20
-108.9614800074819
 10
93.20843639162845
 20
-108.9614800074819
 10
93.3290147336122
 20
-108.115020046756
 10
93.3290147336122
 20
-108.115020046756
 10
93.3290147336122
 20
-108.115020046756
 10
94.10760631327865
 20
-108.115020046756
 10
94.10760631327865
 20
-108.115020046756
 10
94.10760631327865
 20
-108.115020046756
 10
94.10760631327865
 20
-108.3096679416726
 10
94.10760631327865
 20
-108.3096679416726
 10
94.10760631327865
 20
-108.3096679416726
 10
93.49196775006452
 20
-108.3096679416726
 10
93.49196775006452
 20
-108.3096679416726
 10
93.49196775006452
 20
-108.3096679416726
 10
93.42651093584476
 20
-108.7327256672613
 10
93.42651093584476
 20
-108.7327256672613
 10
93.48783363548222
 20
-108.6989637315058
 10
93.57017141757969
 20
-108.6586561143284
 10
93.68868270227227
 20
-108.6586561143284
 10
93.94258623953519
 20
-108.6586561143284
 10
94.17960880892038
 20
-108.8450357800804
 10
94.17960880892038
 20
-109.1581949596896
 10
94.17960880892038
 20
-109.4754882538811
 10
93.95533309283061
 20
-109.7100992564266
 10
93.65285370922568
 20
-109.7100992564266
 97
        0
 97
        0
 75
     2
 76
     1
 98
        0
  0
ENDBLK
  5
7D
330
7A
100
AcDbEntity
  8
0
100
AcDbBlockEnd
  0
BLOCK
  5
95
330
93
100
AcDbEntity
  8
0
100
AcDbBlockBegin
  2
block 5
 70
     0
 10
0.0
 20
0.0
 30
0.0
  3
block 5
  1

  0
SPLINE
  5
97
330
93
100
AcDbEntity
  8
_U+30EC_U+30A4_U+30E4_U+30FC 1
370
     0
100
AcDbSpline
210
0.0
220
0.0
230
1.0
 70
    11
 71
     3
 72
    26
 73
    22
 74
     0
 42
0.0000000001
 43
0.0000000001
 12
1.0
 22
0.0
 32
0.0
 13
1.0
 23
0.0
 33
0.0
 40
0.0
 40
0.0
 40
0.0
 40
0.0
 40
1.0
 40
1.0
 40
1.0
 40
2.0
 40
2.0
 40
2.0
 40
3.0
 40
3.0
 40
3.0
 40
4.0
 40
4.0
 40
4.0
 40
5.0
 40
5.0
 40
5.0
 40
6.0
 40
6.0
 40
6.0
 40
7.0
 40
7.0
 40
7.0
 40
7.0
 10
88.5468776905369
 20
-116.3532768806339
 30
0.0
 10
88.5468776905369
 20
-116.3532768806339
 30
0.0
 10
88.5468776905369
 20
-115.2491237776113
 30
0.0
 10
88.5468776905369
 20
-115.2491237776113
 30
0.0
 10
88.5468776905369
 20
-115.2491237776113
 30
0.0
 10
88.21683754304996
 20
-115.2491237776113
 30
0.0
 10
88.21683754304996
 20
-115.2491237776113
 30
0.0
 10
88.21683754304996
 20
-115.2491237776113
 30
0.0
 10
88.21683754304996
 20
-115.1009846717456
 30
0.0
 10
88.21683754304996
 20
-115.1009846717456
 30
0.0
 10
88.54894474782805
 20
-115.086170761159
 30
0.0
 10
88.59545353687892
 20
-114.9232177447067
 30
0.0
 10
88.62508135805207
 20
-114.8088405745964
 30
0.0
 10
88.62508135805207
 20
-114.8088405745964
 30
0.0
 10
88.77115340662667
 20
-114.8088405745964
 30
0.0
 10
88.77115340662667
 20
-114.8088405745964
 30
0.0
 10
88.77115340662667
 20
-114.8088405745964
 30
0.0
 10
88.77115340662667
 20
-116.3532768806339
 30
0.0
 10
88.77115340662667
 20
-116.3532768806339
 30
0.0
 10
88.77115340662667
 20
-116.3532768806339
 30
0.0
 10
88.5468776905369
 20
-116.3532768806339
 30
0.0
 10
88.5468776905369
 20
-116.3532768806339
 30
0.0
  0
HATCH
  5
98
330
93
100
AcDbEntity
  8
_U+30EC_U+30A4_U+30E4_U+30FC 1
 62
     7
420
 16777215
100
AcDbHatch
 10
0.0
 20
0.0
 30
0.0
210
0.0
220
0.0
230
1.0
  2
SOLID
 70
     1
 71
     0
 91
        1
 92
        1
 93
        1
 72
     4
 94
        3
 73
     0
 74
     1
 95
       26
 96
       22
 40
0.0
 40
0.0
 40
0.0
 40
0.0
 40
1.0
 40
1.0
 40
1.0
 40
2.0
 40
2.0
 40
2.0
 40
3.0
 40
3.0
 40
3.0
 40
4.0
 40
4.0
 40
4.0
 40
5.0
 40
5.0
 40
5.0
 40
6.0
 40
6.0
 40
6.0
 40
7.0
 40
7.0
 40
7.0
 40
7.0
 10
88.5468776905369
 20
-116.3532768806339
 10
88.5468776905369
 20
-116.3532768806339
 10
88.5468776905369
 20
-115.2491237776113
 10
88.5468776905369
 20
-115.2491237776113
 10
88.5468776905369
 20
-115.2491237776113
 10
88.21683754304996
 20
-115.2491237776113
 10
88.21683754304996
 20
-115.2491237776113
 10
88.21683754304996
 20
-115.2491237776113
 10
88.21683754304996
 20
-115.1009846717456
 10
88.21683754304996
 20
-115.1009846717456
 10
88.54894474782805
 20
-115.086170761159
 10
88.59545353687892
 20
-114.9232177447067
 10
88.62508135805207
 20
-114.8088405745964
 10
88.62508135805207
 20
-114.8088405745964
 10
88.77115340662667
 20
-114.8088405745964
 10
88.77115340662667
 20
-114.8088405745964
 10
88.77115340662667
 20
-114.8088405745964
 10
88.77115340662667
 20
-116.3532768806339
 10
88.77115340662667
 20
-116.3532768806339
 10
88.77115340662667
 20
-116.3532768806339
 10
88.5468776905369
 20
-116.3532768806339
 10
88.5468776905369
 20
-116.3532768806339
 97
        0
 97
        0
 75
     2
 76
     1
 98
        0
  0
SPLINE
  5
99
330
93
100
AcDbEntity
  8
_U+30EC_U+30A4_U+30E4_U+30FC 1
370
     0
100
AcDbSpline
210
0.0
220
0.0
230
1.0
 70
    11
 71
     3
 72
    62
 73
    58
 74
     0
 42
0.0000000001
 43
0.0000000001
 12
1.0
 22
0.0
 32
0.0
 13
1.0
 23
0.0
 33
0.0
 40
0.0
 40
0.0
 40
0.0
 40
0.0
 40
1.0
 40
1.0
 40
1.0
 40
2.0
 40
2.0
 40
2.0
 40
3.0
 40
3.0
 40
3.0
 40
4.0
 40
4.0
 40
4.0
 40
5.0
 40
5.0
 40
5.0
 40
6.0
 40
6.0
 40
6.0
 40
7.0
 40
7.0
 40
7.0
 40
8.0
 40
8.0
 40
8.0
 40
9.0
 40
9.0
 40
9.0
 40
10.0
 40
10.0
 40
10.0
 40
11.0
 40
11.0
 40
11.0
 40
12.0
 40
12.0
 40
12.0
 40
13.0
 40
13.0
 40
13.0
 40
14.0
 40
14.0
 40
14.0
 40
15.0
 40
15.0
 40
15.0
 40
16.0
 40
16.0
 40
16.0
 40
17.0
 40
17.0
 40
17.0
 40
18.0
 40
18.0
 40
18.0
 40
19.0
 40
19.0
 40
19.0
 40
19.0
 10
89.76402992547567
 20
-116.4039197842671
 30
0.0
 10
89.66860078053425
 20
-116.4039197842671
 30
0.0
 10
89.45087074586645
 20
-116.3829047018071
 30
0.0
 10
89.32581377975188
 20
-116.1968695456036
 30
0.0
 10
89.25174422681901
 20
-116.0845594327844
 30
0.0
 10
89.24761011223671
 20
-115.9853406828092
 30
0.0
 10
89.24347599765441
 20
-115.9005913338721
 30
0.0
 10
89.24347599765441
 20
-115.9005913338721
 30
0.0
 10
89.46361759916188
 20
-115.9005913338721
 30
0.0
 10
89.46361759916188
 20
-115.9005913338721
 30
0.0
 10
89.46568465645302
 20
-115.974660886805
 30
0.0
 10
89.47601994290878
 20
-116.2092718893505
 30
0.0
 10
89.75955130134484
 20
-116.2092718893505
 30
0.0
 10
89.89701061120631
 20
-116.2092718893505
 30
0.0
 10
90.04962834120288
 20
-116.1396809605484
 30
0.0
 10
90.04962834120288
 20
-115.9112711298764
 30
0.0
 10
90.04962834120288
 20
-115.7948269024749
 30
0.0
 10
90.0113877813166
 20
-115.7462510561329
 30
0.0
 10
89.9796929028523
 20
-115.7145561776686
 30
0.0
 10
89.90562334991944
 20
-115.6404866247357
 30
0.0
 10
89.789179122518
 20
-115.6277397714403
 30
0.0
 10
89.73440210430252
 20
-115.6277397714403
 30
0.0
 10
89.71510956958511
 20
-115.6277397714403
 30
0.0
 10
89.67928057653852
 20
-115.6298068287314
 30
0.0
 10
89.65171981265652
 20
-115.6339409433137
 30
0.0
 10
89.65171981265652
 20
-115.6339409433137
 30
0.0
 10
89.65171981265652
 20
-115.4392930483971
 30
0.0
 10
89.65171981265652
 20
-115.4392930483971
 30
0.0
 10
89.68996037254279
 20
-115.4458387298191
 30
0.0
 10
89.73199053746283
 20
-115.4479057871102
 30
0.0
 10
89.73853621888482
 20
-115.4479057871102
 30
0.0
 10
89.80399303310456
 20
-115.4479057871102
 30
0.0
 10
90.00277504260347
 20
-115.4265461951017
 30
0.0
 10
90.00277504260347
 20
-115.189868135265
 30
0.0
 10
90.00277504260347
 20
-115.0121012082261
 30
0.0
 10
89.87186141416399
 20
-114.9569796804622
 30
0.0
 10
89.76161835863599
 20
-114.9569796804622
 30
0.0
 10
89.49737953491733
 20
-114.9569796804622
 30
0.0
 10
89.4887667962042
 20
-115.189868135265
 30
0.0
 10
89.4846326816219
 20
-115.2615261213582
 30
0.0
 10
89.4846326816219
 20
-115.2615261213582
 30
0.0
 10
89.28137204799216
 20
-115.2615261213582
 30
0.0
 10
89.28137204799216
 20
-115.2615261213582
 30
0.0
 10
89.28998478670529
 20
-115.1368136647922
 30
0.0
 10
89.31754555058728
 20
-114.7602647282544
 30
0.0
 10
89.77436521193141
 20
-114.7602647282544
 30
0.0
 10
89.99864092802117
 20
-114.7602647282544
 30
0.0
 10
90.23979761198866
 20
-114.8873887516601
 30
0.0
 10
90.23979761198866
 20
-115.1833224538431
 30
0.0
 10
90.23979761198866
 20
-115.3697021195951
 30
0.0
 10
90.14471297659577
 20
-115.4520399016925
 30
0.0
 10
90.04514971707205
 20
-115.51336260133
 30
0.0
 10
90.1064724167095
 20
-115.540923365212
 30
0.0
 10
90.28837345833068
 20
-115.6211940900183
 30
0.0
 10
90.28837345833068
 20
-115.8985242765809
 30
0.0
 10
90.28837345833068
 20
-116.2368326532325
 30
0.0
 10
90.04101560248975
 20
-116.4039197842671
 30
0.0
 10
89.76402992547567
 20
-116.4039197842671
 30
0.0
  0
HATCH
  5
9A
330
93
100
AcDbEntity
  8
_U+30EC_U+30A4_U+30E4_U+30FC 1
 62
     7
420
 16777215
100
AcDbHatch
 10
0.0
 20
0.0
 30
0.0
210
0.0
220
0.0
230
1.0
  2
SOLID
 70
     1
 71
     0
 91
        1
 92
        1
 93
        1
 72
     4
 94
        3
 73
     0
 74
     1
 95
       62
 96
       58
 40
0.0
 40
0.0
 40
0.0
 40
0.0
 40
1.0
 40
1.0
 40
1.0
 40
2.0
 40
2.0
 40
2.0
 40
3.0
 40
3.0
 40
3.0
 40
4.0
 40
4.0
 40
4.0
 40
5.0
 40
5.0
 40
5.0
 40
6.0
 40
6.0
 40
6.0
 40
7.0
 40
7.0
 40
7.0
 40
8.0
 40
8.0
 40
8.0
 40
9.0
 40
9.0
 40
9.0
 40
10.0
 40
10.0
 40
10.0
 40
11.0
 40
11.0
 40
11.0
 40
12.0
 40
12.0
 40
12.0
 40
13.0
 40
13.0
 40
13.0
 40
14.0
 40
14.0
 40
14.0
 40
15.0
 40
15.0
 40
15.0
 40
16.0
 40
16.0
 40
16.0
 40
17.0
 40
17.0
 40
17.0
 40
18.0
 40
18.0
 40
18.0
 40
19.0
 40
19.0
 40
19.0
 40
19.0
 10
89.76402992547567
 20
-116.4039197842671
 10
89.66860078053425
 20
-116.4039197842671
 10
89.45087074586645
 20
-116.3829047018071
 10
89.32581377975188
 20
-116.1968695456036
 10
89.25174422681901
 20
-116.0845594327844
 10
89.24761011223671
 20
-115.9853406828092
 10
89.24347599765441
 20
-115.9005913338721
 10
89.24347599765441
 20
-115.9005913338721
 10
89.46361759916188
 20
-115.9005913338721
 10
89.46361759916188
 20
-115.9005913338721
 10
89.46568465645302
 20
-115.974660886805
 10
89.47601994290878
 20
-116.2092718893505
 10
89.75955130134484
 20
-116.2092718893505
 10
89.89701061120631
 20
-116.2092718893505
 10
90.04962834120288
 20
-116.1396809605484
 10
90.04962834120288
 20
-115.9112711298764
 10
90.04962834120288
 20
-115.7948269024749
 10
90.0113877813166
 20
-115.7462510561329
 10
89.9796929028523
 20
-115.7145561776686
 10
89.90562334991944
 20
-115.6404866247357
 10
89.789179122518
 20
-115.6277397714403
 10
89.73440210430252
 20
-115.6277397714403
 10
89.71510956958511
 20
-115.6277397714403
 10
89.67928057653852
 20
-115.6298068287314
 10
89.65171981265652
 20
-115.6339409433137
 10
89.65171981265652
 20
-115.6339409433137
 10
89.65171981265652
 20
-115.4392930483971
 10
89.65171981265652
 20
-115.4392930483971
 10
89.68996037254279
 20
-115.4458387298191
 10
89.73199053746283
 20
-115.4479057871102
 10
89.73853621888482
 20
-115.4479057871102
 10
89.80399303310456
 20
-115.4479057871102
 10
90.00277504260347
 20
-115.4265461951017
 10
90.00277504260347
 20
-115.189868135265
 10
90.00277504260347
 20
-115.0121012082261
 10
89.87186141416399
 20
-114.9569796804622
 10
89.76161835863599
 20
-114.9569796804622
 10
89.49737953491733
 20
-114.9569796804622
 10
89.4887667962042
 20
-115.189868135265
 10
89.4846326816219
 20
-115.2615261213582
 10
89.4846326816219
 20
-115.2615261213582
 10
89.28137204799216
 20
-115.2615261213582
 10
89.28137204799216
 20
-115.2615261213582
 10
89.28998478670529
 20
-115.1368136647922
 10
89.31754555058728
 20
-114.7602647282544
 10
89.77436521193141
 20
-114.7602647282544
 10
89.99864092802117
 20
-114.7602647282544
 10
90.23979761198866
 20
-114.8873887516601
 10
90.23979761198866
 20
-115.1833224538431
 10
90.23979761198866
 20
-115.3697021195951
 10
90.14471297659577
 20
-115.4520399016925
 10
90.04514971707205
 20
-115.51336260133
 10
90.1064724167095
 20
-115.540923365212
 10
90.28837345833068
 20
-115.6211940900183
 10
90.28837345833068
 20
-115.8985242765809
 10
90.28837345833068
 20
-116.2368326532325
 10
90.04101560248975
 20
-116.4039197842671
 10
89.76402992547567
 20
-116.4039197842671
 97
        0
 97
        0
 75
     2
 76
     1
 98
        0
  0
ENDBLK
  5
96
330
93
100
AcDbEntity
  8
0
100
AcDbBlockEnd
  0
BLOCK
  5
AB
330
A9
100
AcDbEntity
  8
0
100
AcDbBlockBegin
  2
block 6
 70
     0
 10
0.0
 20
0.0
 30
0.0
  3
block 6
  1

  0
SPLINE
  5
AD
330
A9
100
AcDbEntity
  8
_U+30EC_U+30A4_U+30E4_U+30FC 1
370
     0
100
AcDbSpline
210
0.0
220
0.0
230
1.0
 70
    11
 71
     3
 72
    44
 73
    40
 74
     0
 42
0.0000000001
 43
0.0000000001
 12
1.0
 22
0.0
 32
0.0
 13
1.0
 23
0.0
 33
0.0
 40
0.0
 40
0.0
 40
0.0
 40
0.0
 40
1.0
 40
1.0
 40
1.0
 40
2.0
 40
2.0
 40
2.0
 40
3.0
 40
3.0
 40
3.0
 40
4.0
 40
4.0
 40
4.0
 40
5.0
 40
5.0
 40
5.0
 40
6.0
 40
6.0
 40
6.0
 40
7.0
 40
7.0
 40
7.0
 40
8.0
 40
8.0
 40
8.0
 40
9.0
 40
9.0
 40
9.0
 40
10.0
 40
10.0
 40
10.0
 40
11.0
 40
11.0
 40
11.0
 40
12.0
 40
12.0
 40
12.0
 40
13.0
 40
13.0
 40
13.0
 40
13.0
 10
91.18375377494712
 20
-151.0571017417496
 30
0.0
 10
90.96602374027933
 20
-151.2159206436196
 30
0.0
 10
90.87300616217759
 20
-151.2899901965525
 30
0.0
 10
90.82408580628704
 20
-151.4336506782874
 30
0.0
 10
90.82408580628704
 20
-151.4336506782874
 30
0.0
 10
91.6026773859535
 20
-151.4336506782874
 30
0.0
 10
91.6026773859535
 20
-151.4336506782874
 30
0.0
 10
91.6026773859535
 20
-151.4336506782874
 30
0.0
 10
91.6026773859535
 20
-151.6389783692083
 30
0.0
 10
91.6026773859535
 20
-151.6389783692083
 30
0.0
 10
91.6026773859535
 20
-151.6389783692083
 30
0.0
 10
90.57466089315496
 20
-151.6389783692083
 30
0.0
 10
90.57466089315496
 20
-151.6389783692083
 30
0.0
 10
90.60635577161925
 20
-151.2813774578394
 30
0.0
 10
90.67181258583899
 20
-151.2031737903242
 30
0.0
 10
91.05697426108993
 20
-150.9048285213016
 30
0.0
 10
91.31294485564399
 20
-150.7060465118027
 30
0.0
 10
91.37840166986373
 20
-150.6381781307432
 30
0.0
 10
91.37840166986373
 20
-150.5007188208818
 30
0.0
 10
91.37840166986373
 20
-150.3822075361892
 30
0.0
 10
91.30639917422202
 20
-150.2512939077497
 30
0.0
 10
91.10968422201425
 20
-150.2512939077497
 30
0.0
 10
90.84957951287788
 20
-150.2512939077497
 30
0.0
 10
90.84131128371328
 20
-150.4817707957129
 30
0.0
 10
90.83683265958246
 20
-150.5982150231143
 30
0.0
 10
90.83683265958246
 20
-150.5982150231143
 30
0.0
 10
90.61255694349269
 20
-150.5982150231143
 30
0.0
 10
90.61255694349269
 20
-150.5982150231143
 30
0.0
 10
90.62116968220582
 20
-150.4710909997086
 30
0.0
 10
90.6318494782101
 20
-150.359125396438
 30
0.0
 10
90.71212020301643
 20
-150.2406141117454
 30
0.0
 10
90.82201874899589
 20
-150.0797281525842
 30
0.0
 10
91.0083984147479
 20
-150.0459662168288
 30
0.0
 10
91.12449813260082
 20
-150.0459662168288
 30
0.0
 10
91.40182831916344
 20
-150.0459662168288
 30
0.0
 10
91.60922306737548
 20
-150.2299343157411
 30
0.0
 10
91.60922306737548
 20
-150.5027858781729
 30
0.0
 10
91.60922306737548
 20
-150.7315402183935
 30
0.0
 10
91.49277883997404
 20
-150.8307589683687
 30
0.0
 10
91.18375377494712
 20
-151.0571017417496
 30
0.0
  0
HATCH
  5
AE
330
A9
100
AcDbEntity
  8
_U+30EC_U+30A4_U+30E4_U+30FC 1
 62
     7
420
 16777215
100
AcDbHatch
 10
0.0
 20
0.0
 30
0.0
210
0.0
220
0.0
230
1.0
  2
SOLID
 70
     1
 71
     0
 91
        1
 92
        1
 93
        1
 72
     4
 94
        3
 73
     0
 74
     1
 95
       44
 96
       40
 40
0.0
 40
0.0
 40
0.0
 40
0.0
 40
1.0
 40
1.0
 40
1.0
 40
2.0
 40
2.0
 40
2.0
 40
3.0
 40
3.0
 40
3.0
 40
4.0
 40
4.0
 40
4.0
 40
5.0
 40
5.0
 40
5.0
 40
6.0
 40
6.0
 40
6.0
 40
7.0
 40
7.0
 40
7.0
 40
8.0
 40
8.0
 40
8.0
 40
9.0
 40
9.0
 40
9.0
 40
10.0
 40
10.0
 40
10.0
 40
11.0
 40
11.0
 40
11.0
 40
12.0
 40
12.0
 40
12.0
 40
13.0
 40
13.0
 40
13.0
 40
13.0
 10
91.18375377494712
 20
-151.0571017417496
 10
90.96602374027933
 20
-151.2159206436196
 10
90.87300616217759
 20
-151.2899901965525
 10
90.82408580628704
 20
-151.4336506782874
 10
90.82408580628704
 20
-151.4336506782874
 10
91.6026773859535
 20
-151.4336506782874
 10
91.6026773859535
 20
-151.4336506782874
 10
91.6026773859535
 20
-151.4336506782874
 10
91.6026773859535
 20
-151.6389783692083
 10
91.6026773859535
 20
-151.6389783692083
 10
91.6026773859535
 20
-151.6389783692083
 10
90.57466089315496
 20
-151.6389783692083
 10
90.57466089315496
 20
-151.6389783692083
 10
90.60635577161925
 20
-151.2813774578394
 10
90.67181258583899
 20
-151.2031737903242
 10
91.05697426108993
 20
-150.9048285213016
 10
91.31294485564399
 20
-150.7060465118027
 10
91.37840166986373
 20
-150.6381781307432
 10
91.37840166986373
 20
-150.5007188208818
 10
91.37840166986373
 20
-150.3822075361892
 10
91.30639917422202
 20
-150.2512939077497
 10
91.10968422201425
 20
-150.2512939077497
 10
90.84957951287788
 20
-150.2512939077497
 10
90.84131128371328
 20
-150.4817707957129
 10
90.83683265958246
 20
-150.5982150231143
 10
90.83683265958246
 20
-150.5982150231143
 10
90.61255694349269
 20
-150.5982150231143
 10
90.61255694349269
 20
-150.5982150231143
 10
90.62116968220582
 20
-150.4710909997086
 10
90.6318494782101
 20
-150.359125396438
 10
90.71212020301643
 20
-150.2406141117454
 10
90.82201874899589
 20
-150.0797281525842
 10
91.0083984147479
 20
-150.0459662168288
 10
91.12449813260082
 20
-150.0459662168288
 10
91.40182831916344
 20
-150.0459662168288
 10
91.60922306737548
 20
-150.2299343157411
 10
91.60922306737548
 20
-150.5027858781729
 10
91.60922306737548
 20
-150.7315402183935
 10
91.49277883997404
 20
-150.8307589683687
 10
91.18375377494712
 20
-151.0571017417496
 97
        0
 97
        0
 75
     2
 76
     1
 98
        0
  0
SPLINE
  5
AF
330
A9
100
AcDbEntity
  8
_U+30EC_U+30A4_U+30E4_U+30FC 1
370
     0
100
AcDbSpline
210
0.0
220
0.0
230
1.0
 70
    11
 71
     3
 72
    26
 73
    22
 74
     0
 42
0.0000000001
 43
0.0000000001
 12
1.0
 22
0.0
 32
0.0
 13
1.0
 23
0.0
 33
0.0
 40
0.0
 40
0.0
 40
0.0
 40
0.0
 40
1.0
 40
1.0
 40
1.0
 40
2.0
 40
2.0
 40
2.0
 40
3.0
 40
3.0
 40
3.0
 40
4.0
 40
4.0
 40
4.0
 40
5.0
 40
5.0
 40
5.0
 40
6.0
 40
6.0
 40
6.0
 40
7.0
 40
7.0
 40
7.0
 40
7.0
 10
92.2190049682647
 20
-151.6389783692083
 30
0.0
 10
92.2190049682647
 20
-151.6389783692083
 30
0.0
 10
92.2190049682647
 20
-150.5348252661857
 30
0.0
 10
92.2190049682647
 20
-150.5348252661857
 30
0.0
 10
92.2190049682647
 20
-150.5348252661857
 30
0.0
 10
91.88896482077776
 20
-150.5348252661857
 30
0.0
 10
91.88896482077776
 20
-150.5348252661857
 30
0.0
 10
91.88896482077776
 20
-150.5348252661857
 30
0.0
 10
91.88896482077776
 20
-150.38668616032
 30
0.0
 10
91.88896482077776
 20
-150.38668616032
 30
0.0
 10
92.22107202555584
 20
-150.3718722497334
 30
0.0
 10
92.26758081460672
 20
-150.2089192332811
 30
0.0
 10
92.29720863577987
 20
-150.0945420631708
 30
0.0
 10
92.29720863577987
 20
-150.0945420631708
 30
0.0
 10
92.44328068435446
 20
-150.0945420631708
 30
0.0
 10
92.44328068435446
 20
-150.0945420631708
 30
0.0
 10
92.44328068435446
 20
-150.0945420631708
 30
0.0
 10
92.44328068435446
 20
-151.6389783692083
 30
0.0
 10
92.44328068435446
 20
-151.6389783692083
 30
0.0
 10
92.44328068435446
 20
-151.6389783692083
 30
0.0
 10
92.2190049682647
 20
-151.6389783692083
 30
0.0
 10
92.2190049682647
 20
-151.6389783692083
 30
0.0
  0
HATCH
  5
B0
330
A9
100
AcDbEntity
  8
_U+30EC_U+30A4_U+30E4_U+30FC 1
 62
     7
420
 16777215
100
AcDbHatch
 10
0.0
 20
0.0
 30
0.0
210
0.0
220
0.0
230
1.0
  2
SOLID
 70
     1
 71
     0
 91
        1
 92
        1
 93
        1
 72
     4
 94
        3
 73
     0
 74
     1
 95
       26
 96
       22
 40
0.0
 40
0.0
 40
0.0
 40
0.0
 40
1.0
 40
1.0
 40
1.0
 40
2.0
 40
2.0
 40
2.0
 40
3.0
 40
3.0
 40
3.0
 40
4.0
 40
4.0
 40
4.0
 40
5.0
 40
5.0
 40
5.0
 40
6.0
 40
6.0
 40
6.0
 40
7.0
 40
7.0
 40
7.0
 40
7.0
 10
92.2190049682647
 20
-151.6389783692083
 10
92.2190049682647
 20
-151.6389783692083
 10
92.2190049682647
 20
-150.5348252661857
 10
92.2190049682647
 20
-150.5348252661857
 10
92.2190049682647
 20
-150.5348252661857
 10
91.88896482077776
 20
-150.5348252661857
 10
91.88896482077776
 20
-150.5348252661857
 10
91.88896482077776
 20
-150.5348252661857
 10
91.88896482077776
 20
-150.38668616032
 10
91.88896482077776
 20
-150.38668616032
 10
92.22107202555584
 20
-150.3718722497334
 10
92.26758081460672
 20
-150.2089192332811
 10
92.29720863577987
 20
-150.0945420631708
 10
92.29720863577987
 20
-150.0945420631708
 10
92.44328068435446
 20
-150.0945420631708
 10
92.44328068435446
 20
-150.0945420631708
 10
92.44328068435446
 20
-150.0945420631708
 10
92.44328068435446
 20
-151.6389783692083
 10
92.44328068435446
 20
-151.6389783692083
 10
92.44328068435446
 20
-151.6389783692083
 10
92.2190049682647
 20
-151.6389783692083
 10
92.2190049682647
 20
-151.6389783692083
 97
        0
 97
        0
 75
     2
 76
     1
 98
        0
  0
ENDBLK
  5
AC
330
A9
100
AcDbEntity
  8
0
100
AcDbBlockEnd
  0
BLOCK
  5
BB
330
B9
100
AcDbEntity
  8
0
100
AcDbBlockBegin
  2
block 7
 70
     0
 10
0.0
 20
0.0
 30
0.0
  3
block 7
  1

  0
SPLINE
  5
BD
330
B9
100
AcDbEntity
  8
_U+30EC_U+30A4_U+30E4_U+30FC 1
370
     0
100
AcDbSpline
210
0.0
220
0.0
230
1.0
 70
    11
 71
     3
 72
    44
 73
    40
 74
     0
 42
0.0000000001
 43
0.0000000001
 12
1.0
 22
0.0
 32
0.0
 13
1.0
 23
0.0
 33
0.0
 40
0.0
 40
0.0
 40
0.0
 40
0.0
 40
1.0
 40
1.0
 40
1.0
 40
2.0
 40
2.0
 40
2.0
 40
3.0
 40
3.0
 40
3.0
 40
4.0
 40
4.0
 40
4.0
 40
5.0
 40
5.0
 40
5.0
 40
6.0
 40
6.0
 40
6.0
 40
7.0
 40
7.0
 40
7.0
 40
8.0
 40
8.0
 40
8.0
 40
9.0
 40
9.0
 40
9.0
 40
10.0
 40
10.0
 40
10.0
 40
11.0
 40
11.0
 40
11.0
 40
12.0
 40
12.0
 40
12.0
 40
13.0
 40
13.0
 40
13.0
 40
13.0
 10
77.3692653886438
 20
-138.210340677253
 30
0.0
 10
77.52791203573955
 20
-138.4280707119208
 30
0.0
 10
77.60198158867243
 20
-138.5210882900225
 30
0.0
 10
77.74581432518161
 20
-138.570008645913
 30
0.0
 10
77.74581432518161
 20
-138.570008645913
 30
0.0
 10
77.74581432518161
 20
-137.7914170662466
 30
0.0
 10
77.74581432518161
 20
-137.7914170662466
 30
0.0
 10
77.74581432518161
 20
-137.7914170662466
 30
0.0
 10
77.95096976132824
 20
-137.7914170662466
 30
0.0
 10
77.95096976132824
 20
-137.7914170662466
 30
0.0
 10
77.95096976132824
 20
-137.7914170662466
 30
0.0
 10
77.95096976132824
 20
-138.8194335590451
 30
0.0
 10
77.95096976132824
 20
-138.8194335590451
 30
0.0
 10
77.5933688499593
 20
-138.7877386805808
 30
0.0
 10
77.51516518244414
 20
-138.7222818663611
 30
0.0
 10
77.21681991342149
 20
-138.3371201911102
 30
0.0
 10
77.01803790392258
 20
-138.0811495965561
 30
0.0
 10
76.95034177763742
 20
-138.0156927823364
 30
0.0
 10
76.81288246777595
 20
-138.0156927823364
 30
0.0
 10
76.69437118308336
 20
-138.0156927823364
 30
0.0
 10
76.5632852998696
 20
-138.0876952779781
 30
0.0
 10
76.5632852998696
 20
-138.2840657206373
 30
0.0
 10
76.5632852998696
 20
-138.5445149393222
 30
0.0
 10
76.79376218783281
 20
-138.5527831684868
 30
0.0
 10
76.91020641523426
 20
-138.5572617926176
 30
0.0
 10
76.91020641523426
 20
-138.5572617926176
 30
0.0
 10
76.91020641523426
 20
-138.7815375087074
 30
0.0
 10
76.91020641523426
 20
-138.7815375087074
 30
0.0
 10
76.7832546466028
 20
-138.7729247699943
 30
0.0
 10
76.67111678855792
 20
-138.76224497399
 30
0.0
 10
76.55260550386532
 20
-138.6819742491837
 30
0.0
 10
76.39189179947842
 20
-138.5720757032042
 30
0.0
 10
76.35795760894871
 20
-138.3860405470007
 30
0.0
 10
76.35795760894871
 20
-138.2695963195993
 30
0.0
 10
76.35795760894871
 20
-137.9922661330367
 30
0.0
 10
76.54209796263531
 20
-137.7852158943732
 30
0.0
 10
76.81494952506709
 20
-137.7852158943732
 30
0.0
 10
77.04335935573917
 20
-137.7852158943732
 30
0.0
 10
77.14292261526289
 20
-137.9013156122261
 30
0.0
 10
77.3692653886438
 20
-138.210340677253
 30
0.0
  0
HATCH
  5
BE
330
B9
100
AcDbEntity
  8
_U+30EC_U+30A4_U+30E4_U+30FC 1
 62
     7
420
 16777215
100
AcDbHatch
 10
0.0
 20
0.0
 30
0.0
210
0.0
220
0.0
230
1.0
  2
SOLID
 70
     1
 71
     0
 91
        1
 92
        1
 93
        1
 72
     4
 94
        3
 73
     0
 74
     1
 95
       44
 96
       40
 40
0.0
 40
0.0
 40
0.0
 40
0.0
 40
1.0
 40
1.0
 40
1.0
 40
2.0
 40
2.0
 40
2.0
 40
3.0
 40
3.0
 40
3.0
 40
4.0
 40
4.0
 40
4.0
 40
5.0
 40
5.0
 40
5.0
 40
6.0
 40
6.0
 40
6.0
 40
7.0
 40
7.0
 40
7.0
 40
8.0
 40
8.0
 40
8.0
 40
9.0
 40
9.0
 40
9.0
 40
10.0
 40
10.0
 40
10.0
 40
11.0
 40
11.0
 40
11.0
 40
12.0
 40
12.0
 40
12.0
 40
13.0
 40
13.0
 40
13.0
 40
13.0
 10
77.3692653886438
 20
-138.210340677253
 10
77.52791203573955
 20
-138.4280707119208
 10
77.60198158867243
 20
-138.5210882900225
 10
77.74581432518161
 20
-138.570008645913
 10
77.74581432518161
 20
-138.570008645913
 10
77.74581432518161
 20
-137.7914170662466
 10
77.74581432518161
 20
-137.7914170662466
 10
77.74581432518161
 20
-137.7914170662466
 10
77.95096976132824
 20
-137.7914170662466
 10
77.95096976132824
 20
-137.7914170662466
 10
77.95096976132824
 20
-137.7914170662466
 10
77.95096976132824
 20
-138.8194335590451
 10
77.95096976132824
 20
-138.8194335590451
 10
77.5933688499593
 20
-138.7877386805808
 10
77.51516518244414
 20
-138.7222818663611
 10
77.21681991342149
 20
-138.3371201911102
 10
77.01803790392258
 20
-138.0811495965561
 10
76.95034177763742
 20
-138.0156927823364
 10
76.81288246777595
 20
-138.0156927823364
 10
76.69437118308336
 20
-138.0156927823364
 10
76.5632852998696
 20
-138.0876952779781
 10
76.5632852998696
 20
-138.2840657206373
 10
76.5632852998696
 20
-138.5445149393222
 10
76.79376218783281
 20
-138.5527831684868
 10
76.91020641523426
 20
-138.5572617926176
 10
76.91020641523426
 20
-138.5572617926176
 10
76.91020641523426
 20
-138.7815375087074
 10
76.91020641523426
 20
-138.7815375087074
 10
76.7832546466028
 20
-138.7729247699943
 10
76.67111678855792
 20
-138.76224497399
 10
76.55260550386532
 20
-138.6819742491837
 10
76.39189179947842
 20
-138.5720757032042
 10
76.35795760894871
 20
-138.3860405470007
 10
76.35795760894871
 20
-138.2695963195993
 10
76.35795760894871
 20
-137.9922661330367
 10
76.54209796263531
 20
-137.7852158943732
 10
76.81494952506709
 20
-137.7852158943732
 10
77.04335935573917
 20
-137.7852158943732
 10
77.14292261526289
 20
-137.9013156122261
 10
77.3692653886438
 20
-138.210340677253
 97
        0
 97
        0
 75
     2
 76
     1
 98
        0
  0
SPLINE
  5
BF
330
B9
100
AcDbEntity
  8
_U+30EC_U+30A4_U+30E4_U+30FC 1
370
     0
100
AcDbSpline
210
0.0
220
0.0
230
1.0
 70
    11
 71
     3
 72
    26
 73
    22
 74
     0
 42
0.0000000001
 43
0.0000000001
 12
1.0
 22
0.0
 32
0.0
 13
1.0
 23
0.0
 33
0.0
 40
0.0
 40
0.0
 40
0.0
 40
0.0
 40
1.0
 40
1.0
 40
1.0
 40
2.0
 40
2.0
 40
2.0
 40
3.0
 40
3.0
 40
3.0
 40
4.0
 40
4.0
 40
4.0
 40
5.0
 40
5.0
 40
5.0
 40
6.0
 40
6.0
 40
6.0
 40
7.0
 40
7.0
 40
7.0
 40
7.0
 10
77.95096976132824
 20
-137.1750894839354
 30
0.0
 10
77.95096976132824
 20
-137.1750894839354
 30
0.0
 10
76.8466444035314
 20
-137.1750894839354
 30
0.0
 10
76.8466444035314
 20
-137.1750894839354
 30
0.0
 10
76.8466444035314
 20
-137.1750894839354
 30
0.0
 10
76.8466444035314
 20
-137.5051296314223
 30
0.0
 10
76.8466444035314
 20
-137.5051296314223
 30
0.0
 10
76.8466444035314
 20
-137.5051296314223
 30
0.0
 10
76.69867755243992
 20
-137.5051296314223
 30
0.0
 10
76.69867755243992
 20
-137.5051296314223
 30
0.0
 10
76.68386364185335
 20
-137.1730224266443
 30
0.0
 10
76.52091062540103
 20
-137.1265136375934
 30
0.0
 10
76.406705710065
 20
-137.0968858164202
 30
0.0
 10
76.406705710065
 20
-137.0968858164202
 30
0.0
 10
76.406705710065
 20
-136.9508137678456
 30
0.0
 10
76.406705710065
 20
-136.9508137678456
 30
0.0
 10
76.406705710065
 20
-136.9508137678456
 30
0.0
 10
77.95096976132824
 20
-136.9508137678456
 30
0.0
 10
77.95096976132824
 20
-136.9508137678456
 30
0.0
 10
77.95096976132824
 20
-136.9508137678456
 30
0.0
 10
77.95096976132824
 20
-137.1750894839354
 30
0.0
 10
77.95096976132824
 20
-137.1750894839354
 30
0.0
  0
HATCH
  5
C0
330
B9
100
AcDbEntity
  8
_U+30EC_U+30A4_U+30E4_U+30FC 1
 62
     7
420
 16777215
100
AcDbHatch
 10
0.0
 20
0.0
 30
0.0
210
0.0
220
0.0
230
1.0
  2
SOLID
 70
     1
 71
     0
 91
        1
 92
        1
 93
        1
 72
     4
 94
        3
 73
     0
 74
     1
 95
       26
 96
       22
 40
0.0
 40
0.0
 40
0.0
 40
0.0
 40
1.0
 40
1.0
 40
1.0
 40
2.0
 40
2.0
 40
2.0
 40
3.0
 40
3.0
 40
3.0
 40
4.0
 40
4.0
 40
4.0
 40
5.0
 40
5.0
 40
5.0
 40
6.0
 40
6.0
 40
6.0
 40
7.0
 40
7.0
 40
7.0
 40
7.0
 10
77.95096976132824
 20
-137.1750894839354
 10
77.95096976132824
 20
-137.1750894839354
 10
76.8466444035314
 20
-137.1750894839354
 10
76.8466444035314
 20
-137.1750894839354
 10
76.8466444035314
 20
-137.1750894839354
 10
76.8466444035314
 20
-137.5051296314223
 10
76.8466444035314
 20
-137.5051296314223
 10
76.8466444035314
 20
-137.5051296314223
 10
76.69867755243992
 20
-137.5051296314223
 10
76.69867755243992
 20
-137.5051296314223
 10
76.68386364185335
 20
-137.1730224266443
 10
76.52091062540103
 20
-137.1265136375934
 10
76.406705710065
 20
-137.0968858164202
 10
76.406705710065
 20
-137.0968858164202
 10
76.406705710065
 20
-136.9508137678456
 10
76.406705710065
 20
-136.9508137678456
 10
76.406705710065
 20
-136.9508137678456
 10
77.95096976132824
 20
-136.9508137678456
 10
77.95096976132824
 20
-136.9508137678456
 10
77.95096976132824
 20
-136.9508137678456
 10
77.95096976132824
 20
-137.1750894839354
 10
77.95096976132824
 20
-137.1750894839354
 97
        0
 97
        0
 75
     2
 76
     1
 98
        0
  0
ENDBLK
  5
BC
330
B9
100
AcDbEntity
  8
0
100
AcDbBlockEnd
  0
ENDSEC
  0
SECTION
  2
ENTITIES
  0
POLYLINE
  5
41
330
1F
100
AcDbEntity
  8
_U+30EC_U+30A4_U+30E4_U+30FC 1
 62
     7
420
 16777215
370
    25
100
AcDb2dPolyline
 66
     1
 10
0.0
 20
0.0
 30
0.0
  0
VERTEX
  5
42
330
41
100
AcDbEntity
  8
_U+30EC_U+30A4_U+30E4_U+30FC 1
 62
     7
420
 16777215
370
    25
100
AcDbVertex
100
AcDb2dVertex
 10
97.19027775348022
 20
-133.7120910776833
 30
0.0
  0
VERTEX
  5
43
330
41
100
AcDbEntity
  8
_U+30EC_U+30A4_U+30E4_U+30FC 1
 62
     7
420
 16777215
370
    25
100
AcDbVertex
100
AcDb2dVertex
 10
97.19027775348022
 20
-103.7121863629608
 30
0.0
  0
VERTEX
  5
44
330
41
100
AcDbEntity
  8
_U+30EC_U+30A4_U+30E4_U+30FC 1
 62
     7
420
 16777215
370
    25
100
AcDbVertex
100
AcDb2dVertex
 10
95.69545005860567
 20
-103.7121863629608
 30
0.0
  0
VERTEX
  5
45
330
41
100
AcDbEntity
  8
_U+30EC_U+30A4_U+30E4_U+30FC 1
 62
     7
420
 16777215
370
    25
100
AcDbVertex
100
AcDb2dVertex
 10
95.69545005860567
 20
-132.2117271891693
 30
0.0
  0
VERTEX
  5
46
330
41
100
AcDbEntity
  8
_U+30EC_U+30A4_U+30E4_U+30FC 1
 62
     7
420
 16777215
370
    25
100
AcDbVertex
100
AcDb2dVertex
 10
95.69199283647166
 20
-132.2117271891693
 30
0.0
  0
VERTEX
  5
47
330
41
100
AcDbEntity
  8
_U+30EC_U+30A4_U+30E4_U+30FC 1
 62
     7
420
 16777215
370
    25
100
AcDbVertex
100
AcDb2dVertex
 10
82.69227316812213
 20
-132.2117271891693
 30
0.0
  0
VERTEX
  5
48
330
41
100
AcDbEntity
  8
_U+30EC_U+30A4_U+30E4_U+30FC 1
 62
     7
420
 16777215
370
    25
100
AcDbVertex
100
AcDb2dVertex
 10
82.69227316812213
 20
-127.212231079308
 30
0.0
  0
VERTEX
  5
49
330
41
100
AcDbEntity
  8
_U+30EC_U+30A4_U+30E4_U+30FC 1
 62
     7
420
 16777215
370
    25
100
AcDbVertex
100
AcDb2dVertex
 10
81.19540181742161
 20
-127.212231079308
 30
0.0
  0
VERTEX
  5
4A
330
41
100
AcDbEntity
  8
_U+30EC_U+30A4_U+30E4_U+30FC 1
 62
     7
420
 16777215
370
    25
100
AcDbVertex
100
AcDb2dVertex
 10
81.19540181742161
 20
-148.2162671851684
 30
0.0
  0
VERTEX
  5
4B
330
41
100
AcDbEntity
  8
_U+30EC_U+30A4_U+30E4_U+30FC 1
 62
     7
420
 16777215
370
    25
100
AcDbVertex
100
AcDb2dVertex
 10
102.1997901704439
 20
-148.2162671851684
 30
0.0
  0
VERTEX
  5
4C
330
41
100
AcDbEntity
  8
_U+30EC_U+30A4_U+30E4_U+30FC 1
 62
     7
420
 16777215
370
    25
100
AcDbVertex
100
AcDb2dVertex
 10
102.1997901704439
 20
-146.7166088522099
 30
0.0
  0
VERTEX
  5
4D
330
41
100
AcDbEntity
  8
_U+30EC_U+30A4_U+30E4_U+30FC 1
 62
     7
420
 16777215
370
    25
100
AcDbVertex
100
AcDb2dVertex
 10
82.69227316812213
 20
-146.7166088522099
 30
0.0
  0
VERTEX
  5
4E
330
41
100
AcDbEntity
  8
_U+30EC_U+30A4_U+30E4_U+30FC 1
 62
     7
420
 16777215
370
    25
100
AcDbVertex
100
AcDb2dVertex
 10
82.69227316812213
 20
-133.7120910776833
 30
0.0
  0
VERTEX
  5
4F
330
41
100
AcDbEntity
  8
_U+30EC_U+30A4_U+30E4_U+30FC 1
 62
     7
420
 16777215
370
    25
100
AcDbVertex
100
AcDb2dVertex
 10
97.19027775348022
 20
-133.7120910776833
 30
0.0
  0
SEQEND
  5
50
330
41
100
AcDbEntity
  8
_U+30EC_U+30A4_U+30E4_U+30FC 1
 62
     7
420
 16777215
370
    25
  0
SPLINE
  5
51
330
1F
100
AcDbEntity
  8
_U+30EC_U+30A4_U+30E4_U+30FC 1
 62
     7
420
 16777215
370
     9
100
AcDbSpline
210
0.0
220
0.0
230
1.0
 70
    11
 71
     3
 72
    17
 73
    13
 74
     0
 42
0.0000000001
 43
0.0000000001
 12
1.0
 22
0.0
 32
0.0
 13
1.0
 23
0.0
 33
0.0
 40
0.0
 40
0.0
 40
0.0
 40
0.0
 40
1.0
 40
1.0
 40
1.0
 40
2.0
 40
2.0
 40
2.0
 40
3.0
 40
3.0
 40
3.0
 40
4.0
 40
4.0
 40
4.0
 40
4.0
 10
104.8738809355555
 20
-146.7166088522099
 30
0.0
 10
104.8738809355555
 20
-146.7717480188623
 30
0.0
 10
104.9186484344134
 20
-146.8165507966291
 30
0.0
 10
104.9737875996733
 20
-146.8165507966291
 30
0.0
 10
105.0288914871564
 20
-146.8165507966291
 30
0.0
 10
105.0736942637912
 20
-146.7717480188623
 30
0.0
 10
105.0736942637912
 20
-146.7166088522099
 30
0.0
 10
105.0736942637912
 20
-146.6615049633343
 30
0.0
 10
105.0288914871564
 20
-146.6167021855682
 30
0.0
 10
104.9737875996733
 20
-146.6167021855682
 30
0.0
 10
104.9186484344134
 20
-146.6167021855682
 30
0.0
 10
104.8738809355555
 20
-146.6615049633343
 30
0.0
 10
104.8738809355555
 20
-146.7166088522099
 30
0.0
  0
SPLINE
  5
52
330
1F
100
AcDbEntity
  8
_U+30EC_U+30A4_U+30E4_U+30FC 1
 62
     7
420
 16777215
370
     9
100
AcDbSpline
210
0.0
220
0.0
230
1.0
 70
    24
 71
     3
 72
     8
 73
     4
 74
     0
 42
0.0000000001
 43
0.0000000001
 12
1.0
 22
0.0
 32
0.0
 13
1.0
 23
0.0
 33
0.0
 40
0.0
 40
0.0
 40
0.0
 40
0.0
 40
1.0
 40
1.0
 40
1.0
 40
1.0
 10
104.9737875996733
 20
-146.7142099633213
 30
0.0
 10
104.9737875996733
 20
-146.7142099633213
 30
0.0
 10
104.9737875996733
 20
-135.993751910446
 30
0.0
 10
104.9737875996733
 20
-133.7144899665713
 30
0.0
  0
POLYLINE
  5
53
330
1F
100
AcDbEntity
  8
_U+30EC_U+30A4_U+30E4_U+30FC 1
 62
     7
420
 16777215
370
     9
100
AcDb2dPolyline
 66
     1
 10
0.0
 20
0.0
 30
0.0
  0
VERTEX
  5
54
330
53
100
AcDbEntity
  8
_U+30EC_U+30A4_U+30E4_U+30FC 1
 62
     7
420
 16777215
370
     9
100
AcDbVertex
100
AcDb2dVertex
 10
104.9737875996733
 20
-103.7128919185163
 30
0.0
  0
VERTEX
  5
55
330
53
100
AcDbEntity
  8
_U+30EC_U+30A4_U+30E4_U+30FC 1
 62
     7
420
 16777215
370
     9
100
AcDbVertex
100
AcDb2dVertex
 10
104.9737875996733
 20
-133.7131141332384
 30
0.0
  0
SEQEND
  5
56
330
53
100
AcDbEntity
  8
_U+30EC_U+30A4_U+30E4_U+30FC 1
 62
     7
420
 16777215
370
     9
  0
POLYLINE
  5
57
330
1F
100
AcDbEntity
  8
_U+30EC_U+30A4_U+30E4_U+30FC 1
 62
     7
420
 16777215
370
     9
100
AcDb2dPolyline
 66
     1
 10
0.0
 20
0.0
 30
0.0
  0
VERTEX
  5
58
330
57
100
AcDbEntity
  8
_U+30EC_U+30A4_U+30E4_U+30FC 1
 62
     7
420
 16777215
370
     9
100
AcDbVertex
100
AcDb2dVertex
 10
103.34977775194
 20
-146.7166088522099
 30
0.0
  0
VERTEX
  5
59
330
57
100
AcDbEntity
  8
_U+30EC_U+30A4_U+30E4_U+30FC 1
 62
     7
420
 16777215
370
     9
100
AcDbVertex
100
AcDb2dVertex
 10
105.9735597963893
 20
-146.7166088522099
 30
0.0
  0
SEQEND
  5
5A
330
57
100
AcDbEntity
  8
_U+30EC_U+30A4_U+30E4_U+30FC 1
 62
     7
420
 16777215
370
     9
  0
SPLINE
  5
5B
330
1F
100
AcDbEntity
  8
_U+30EC_U+30A4_U+30E4_U+30FC 1
 62
     7
420
 16777215
370
     9
100
AcDbSpline
210
0.0
220
0.0
230
1.0
 70
    11
 71
     3
 72
    17
 73
    13
 74
     0
 42
0.0000000001
 43
0.0000000001
 12
1.0
 22
0.0
 32
0.0
 13
1.0
 23
0.0
 33
0.0
 40
0.0
 40
0.0
 40
0.0
 40
0.0
 40
1.0
 40
1.0
 40
1.0
 40
2.0
 40
2.0
 40
2.0
 40
3.0
 40
3.0
 40
3.0
 40
4.0
 40
4.0
 40
4.0
 40
4.0
 10
104.8738809355555
 20
-133.7120910776833
 30
0.0
 10
104.8738809355555
 20
-133.7671949665582
 30
0.0
 10
104.9186484344134
 20
-133.811997744325
 30
0.0
 10
104.9737875996733
 20
-133.811997744325
 30
0.0
 10
105.0288914871564
 20
-133.811997744325
 30
0.0
 10
105.0736942637912
 20
-133.7671949665582
 30
0.0
 10
105.0736942637912
 20
-133.7120910776833
 30
0.0
 10
105.0736942637912
 20
-133.6569519110302
 30
0.0
 10
105.0288914871564
 20
-133.6121844110417
 30
0.0
 10
104.9737875996733
 20
-133.6121844110417
 30
0.0
 10
104.9186484344134
 20
-133.6121844110417
 30
0.0
 10
104.8738809355555
 20
-133.6569519110302
 30
0.0
 10
104.8738809355555
 20
-133.7120910776833
 30
0.0
  0
POLYLINE
  5
5C
330
1F
100
AcDbEntity
  8
_U+30EC_U+30A4_U+30E4_U+30FC 1
 62
     7
420
 16777215
370
     9
100
AcDb2dPolyline
 66
     1
 10
0.0
 20
0.0
 30
0.0
  0
VERTEX
  5
5D
330
5C
100
AcDbEntity
  8
_U+30EC_U+30A4_U+30E4_U+30FC 1
 62
     7
420
 16777215
370
     9
100
AcDbVertex
100
AcDb2dVertex
 10
98.34057776890062
 20
-133.7120910776833
 30
0.0
  0
VERTEX
  5
5E
330
5C
100
AcDbEntity
  8
_U+30EC_U+30A4_U+30E4_U+30FC 1
 62
     7
420
 16777215
370
     9
100
AcDbVertex
100
AcDb2dVertex
 10
105.9735597963893
 20
-133.7120910776833
 30
0.0
  0
SEQEND
  5
5F
330
5C
100
AcDbEntity
  8
_U+30EC_U+30A4_U+30E4_U+30FC 1
 62
     7
420
 16777215
370
     9
  0
SPLINE
  5
60
330
1F
100
AcDbEntity
  8
_U+30EC_U+30A4_U+30E4_U+30FC 1
 62
     7
420
 16777215
370
     9
100
AcDbSpline
210
0.0
220
0.0
230
1.0
 70
    11
 71
     3
 72
    17
 73
    13
 74
     0
 42
0.0000000001
 43
0.0000000001
 12
1.0
 22
0.0
 32
0.0
 13
1.0
 23
0.0
 33
0.0
 40
0.0
 40
0.0
 40
0.0
 40
0.0
 40
1.0
 40
1.0
 40
1.0
 40
2.0
 40
2.0
 40
2.0
 40
3.0
 40
3.0
 40
3.0
 40
4.0
 40
4.0
 40
4.0
 40
4.0
 10
104.8738809355555
 20
-103.7115160851831
 30
0.0
 10
104.8738809355555
 20
-103.7662671962806
 30
0.0
 10
104.9186484344134
 20
-103.811422751825
 30
0.0
 10
104.9737875996733
 20
-103.811422751825
 30
0.0
 10
105.0288914871564
 20
-103.811422751825
 30
0.0
 10
105.0736942637912
 20
-103.7662671962806
 30
0.0
 10
105.0736942637912
 20
-103.7115160851831
 30
0.0
 10
105.0736942637912
 20
-103.6560241407526
 30
0.0
 10
105.0288914871564
 20
-103.611256640764
 30
0.0
 10
104.9737875996733
 20
-103.611256640764
 30
0.0
 10
104.9186484344134
 20
-103.611256640764
 30
0.0
 10
104.8738809355555
 20
-103.6560241407526
 30
0.0
 10
104.8738809355555
 20
-103.7115160851831
 30
0.0
  0
POLYLINE
  5
61
330
1F
100
AcDbEntity
  8
_U+30EC_U+30A4_U+30E4_U+30FC 1
 62
     7
420
 16777215
370
     9
100
AcDb2dPolyline
 66
     1
 10
0.0
 20
0.0
 30
0.0
  0
VERTEX
  5
62
330
61
100
AcDbEntity
  8
_U+30EC_U+30A4_U+30E4_U+30FC 1
 62
     7
420
 16777215
370
     9
100
AcDbVertex
100
AcDb2dVertex
 10
98.34057776890062
 20
-103.7115160851831
 30
0.0
  0
VERTEX
  5
63
330
61
100
AcDbEntity
  8
_U+30EC_U+30A4_U+30E4_U+30FC 1
 62
     7
420
 16777215
370
     9
100
AcDbVertex
100
AcDb2dVertex
 10
105.9735597963893
 20
-103.7115160851831
 30
0.0
  0
SEQEND
  5
64
330
61
100
AcDbEntity
  8
_U+30EC_U+30A4_U+30E4_U+30FC 1
 62
     7
420
 16777215
370
     9
  0
INSERT
  5
66
330
1F
100
AcDbEntity
  8
_U+30EC_U+30A4_U+30E4_U+30FC 1
100
AcDbBlockReference
  2
block 2
 10
0.0
 20
0.0
 30
0.0
  0
INSERT
  5
6E
330
1F
100
AcDbEntity
  8
_U+30EC_U+30A4_U+30E4_U+30FC 1
100
AcDbBlockReference
  2
block 3
 10
0.0
 20
0.0
 30
0.0
  0
POLYLINE
  5
76
330
1F
100
AcDbEntity
  8
_U+30EC_U+30A4_U+30E4_U+30FC 1
 62
     7
420
 16777215
370
     9
100
AcDb2dPolyline
 66
     1
 10
0.0
 20
0.0
 30
0.0
  0
VERTEX
  5
77
330
76
100
AcDbEntity
  8
_U+30EC_U+30A4_U+30E4_U+30FC 1
 62
     7
420
 16777215
370
     9
100
AcDbVertex
100
AcDb2dVertex
 10
98.49424776498017
 20
-110.2379049724404
 30
0.0
  0
VERTEX
  5
78
330
76
100
AcDbEntity
  8
_U+30EC_U+30A4_U+30E4_U+30FC 1
 62
     7
420
 16777215
370
     9
100
AcDbVertex
100
AcDb2dVertex
 10
92.68650263537032
 20
-110.2379049724404
 30
0.0
  0
SEQEND
  5
79
330
76
100
AcDbEntity
  8
_U+30EC_U+30A4_U+30E4_U+30FC 1
 62
     7
420
 16777215
370
     9
  0
INSERT
  5
7B
330
1F
100
AcDbEntity
  8
_U+30EC_U+30A4_U+30E4_U+30FC 1
100
AcDbBlockReference
  2
block 4
 10
0.0
 20
0.0
 30
0.0
  0
POLYLINE
  5
8A
330
1F
100
AcDbEntity
  8
_U+30EC_U+30A4_U+30E4_U+30FC 1
 62
     7
420
 16777215
370
     9
100
AcDb2dPolyline
 66
     1
 10
0.0
 20
0.0
 30
0.0
  0
VERTEX
  5
8B
330
8A
100
AcDbEntity
  8
_U+30EC_U+30A4_U+30E4_U+30FC 1
 62
     7
420
 16777215
370
     9
100
AcDbVertex
100
AcDb2dVertex
 10
95.68409061445104
 20
-116.9317221929893
 30
0.0
  0
VERTEX
  5
8C
330
8A
100
AcDbEntity
  8
_U+30EC_U+30A4_U+30E4_U+30FC 1
 62
     7
420
 16777215
370
     9
100
AcDbVertex
100
AcDb2dVertex
 10
82.68437094610151
 20
-116.9317221929893
 30
0.0
  0
SEQEND
  5
8D
330
8A
100
AcDbEntity
  8
_U+30EC_U+30A4_U+30E4_U+30FC 1
 62
     7
420
 16777215
370
     9
  0
SPLINE
  5
8E
330
1F
100
AcDbEntity
  8
_U+30EC_U+30A4_U+30E4_U+30FC 1
 62
     7
420
 16777215
370
     9
100
AcDbSpline
210
0.0
220
0.0
230
1.0
 70
    11
 71
     3
 72
    17
 73
    13
 74
     0
 42
0.0000000001
 43
0.0000000001
 12
1.0
 22
0.0
 32
0.0
 13
1.0
 23
0.0
 33
0.0
 40
0.0
 40
0.0
 40
0.0
 40
0.0
 40
1.0
 40
1.0
 40
1.0
 40
2.0
 40
2.0
 40
2.0
 40
3.0
 40
3.0
 40
3.0
 40
4.0
 40
4.0
 40
4.0
 40
4.0
 10
82.69227316812213
 20
-116.8318155263477
 30
0.0
 10
82.63716928063906
 20
-116.8318155263477
 30
0.0
 10
82.5923665040043
 20
-116.8765830263365
 30
0.0
 10
82.5923665040043
 20
-116.9317221929893
 30
0.0
 10
82.5923665040043
 20
-116.9868260818645
 30
0.0
 10
82.63716928063906
 20
-117.0316288596309
 30
0.0
 10
82.69227316812213
 20
-117.0316288596309
 30
0.0
 10
82.74741233338209
 20
-117.0316288596309
 30
0.0
 10
82.79217983223997
 20
-116.9868260818645
 30
0.0
 10
82.79217983223997
 20
-116.9317221929893
 30
0.0
 10
82.79217983223997
 20
-116.8765830263365
 30
0.0
 10
82.74741233338209
 20
-116.8318155263477
 30
0.0
 10
82.69227316812213
 20
-116.8318155263477
 30
0.0
  0
POLYLINE
  5
8F
330
1F
100
AcDbEntity
  8
_U+30EC_U+30A4_U+30E4_U+30FC 1
 62
     7
420
 16777215
370
     9
100
AcDb2dPolyline
 66
     1
 10
0.0
 20
0.0
 30
0.0
  0
VERTEX
  5
90
330
8F
100
AcDbEntity
  8
_U+30EC_U+30A4_U+30E4_U+30FC 1
 62
     7
420
 16777215
370
     9
100
AcDbVertex
100
AcDb2dVertex
 10
82.69227316812213
 20
-115.4716808044653
 30
0.0
  0
VERTEX
  5
91
330
8F
100
AcDbEntity
  8
_U+30EC_U+30A4_U+30E4_U+30FC 1
 62
     7
420
 16777215
370
     9
100
AcDbVertex
100
AcDb2dVertex
 10
82.69227316812213
 20
-125.7122199685718
 30
0.0
  0
SEQEND
  5
92
330
8F
100
AcDbEntity
  8
_U+30EC_U+30A4_U+30E4_U+30FC 1
 62
     7
420
 16777215
370
     9
  0
INSERT
  5
94
330
1F
100
AcDbEntity
  8
_U+30EC_U+30A4_U+30E4_U+30FC 1
100
AcDbBlockReference
  2
block 5
 10
0.0
 20
0.0
 30
0.0
  0
SPLINE
  5
9B
330
1F
100
AcDbEntity
  8
_U+30EC_U+30A4_U+30E4_U+30FC 1
 62
     7
420
 16777215
370
     9
100
AcDbSpline
210
0.0
220
0.0
230
1.0
 70
    11
 71
     3
 72
    17
 73
    13
 74
     0
 42
0.0000000001
 43
0.0000000001
 12
1.0
 22
0.0
 32
0.0
 13
1.0
 23
0.0
 33
0.0
 40
0.0
 40
0.0
 40
0.0
 40
0.0
 40
1.0
 40
1.0
 40
1.0
 40
2.0
 40
2.0
 40
2.0
 40
3.0
 40
3.0
 40
3.0
 40
4.0
 40
4.0
 40
4.0
 40
4.0
 10
81.27738737088555
 20
-152.2353232952745
 30
0.0
 10
81.27738737088555
 20
-152.1802194063995
 30
0.0
 10
81.23258459425078
 20
-152.1354166286328
 30
0.0
 10
81.17677515123015
 20
-152.1354166286328
 30
0.0
 10
81.12167126374707
 20
-152.1354166286328
 30
0.0
 10
81.07686848711232
 20
-152.1802194063995
 30
0.0
 10
81.07686848711232
 20
-152.2353232952745
 30
0.0
 10
81.07686848711232
 20
-152.2904624619275
 30
0.0
 10
81.12167126374707
 20
-152.3352299619161
 30
0.0
 10
81.17677515123015
 20
-152.3352299619161
 30
0.0
 10
81.23258459425078
 20
-152.3352299619161
 30
0.0
 10
81.27738737088555
 20
-152.2904624619275
 30
0.0
 10
81.27738737088555
 20
-152.2353232952745
 30
0.0
  0
POLYLINE
  5
9C
330
1F
100
AcDbEntity
  8
_U+30EC_U+30A4_U+30E4_U+30FC 1
 62
     7
420
 16777215
370
     9
100
AcDb2dPolyline
 66
     1
 10
0.0
 20
0.0
 30
0.0
  0
VERTEX
  5
9D
330
9C
100
AcDbEntity
  8
_U+30EC_U+30A4_U+30E4_U+30FC 1
 62
     7
420
 16777215
370
     9
100
AcDbVertex
100
AcDb2dVertex
 10
81.17885654006594
 20
-152.2353232952745
 30
0.0
  0
VERTEX
  5
9E
330
9C
100
AcDbEntity
  8
_U+30EC_U+30A4_U+30E4_U+30FC 1
 62
     7
420
 16777215
370
     9
100
AcDbVertex
100
AcDb2dVertex
 10
102.1791173931935
 20
-152.2353232952745
 30
0.0
  0
SEQEND
  5
9F
330
9C
100
AcDbEntity
  8
_U+30EC_U+30A4_U+30E4_U+30FC 1
 62
     7
420
 16777215
370
     9
  0
POLYLINE
  5
A0
330
1F
100
AcDbEntity
  8
_U+30EC_U+30A4_U+30E4_U+30FC 1
 62
     7
420
 16777215
370
     9
100
AcDb2dPolyline
 66
     1
 10
0.0
 20
0.0
 30
0.0
  0
VERTEX
  5
A1
330
A0
100
AcDbEntity
  8
_U+30EC_U+30A4_U+30E4_U+30FC 1
 62
     7
420
 16777215
370
     9
100
AcDbVertex
100
AcDb2dVertex
 10
81.17677515123015
 20
-149.7744866292231
 30
0.0
  0
VERTEX
  5
A2
330
A0
100
AcDbEntity
  8
_U+30EC_U+30A4_U+30E4_U+30FC 1
 62
     7
420
 16777215
370
     9
100
AcDbVertex
100
AcDb2dVertex
 10
81.17677515123015
 20
-153.235095517247
 30
0.0
  0
SEQEND
  5
A3
330
A0
100
AcDbEntity
  8
_U+30EC_U+30A4_U+30E4_U+30FC 1
 62
     7
420
 16777215
370
     9
  0
SPLINE
  5
A4
330
1F
100
AcDbEntity
  8
_U+30EC_U+30A4_U+30E4_U+30FC 1
 62
     7
420
 16777215
370
     9
100
AcDbSpline
210
0.0
220
0.0
230
1.0
 70
    11
 71
     3
 72
    17
 73
    13
 74
     0
 42
0.0000000001
 43
0.0000000001
 12
1.0
 22
0.0
 32
0.0
 13
1.0
 23
0.0
 33
0.0
 40
0.0
 40
0.0
 40
0.0
 40
0.0
 40
1.0
 40
1.0
 40
1.0
 40
2.0
 40
2.0
 40
2.0
 40
3.0
 40
3.0
 40
3.0
 40
4.0
 40
4.0
 40
4.0
 40
4.0
 10
102.2814229461391
 20
-152.2353232952745
 30
0.0
 10
102.2814229461391
 20
-152.1802194063995
 30
0.0
 10
102.2366554472812
 20
-152.1354166286328
 30
0.0
 10
102.1808460042605
 20
-152.1354166286328
 30
0.0
 10
102.1257068390006
 20
-152.1354166286328
 30
0.0
 10
102.0809393401427
 20
-152.1802194063995
 30
0.0
 10
102.0809393401427
 20
-152.2353232952745
 30
0.0
 10
102.0809393401427
 20
-152.2904624619275
 30
0.0
 10
102.1257068390006
 20
-152.3352299619161
 30
0.0
 10
102.1808460042605
 20
-152.3352299619161
 30
0.0
 10
102.2366554472812
 20
-152.3352299619161
 30
0.0
 10
102.2814229461391
 20
-152.2904624619275
 30
0.0
 10
102.2814229461391
 20
-152.2353232952745
 30
0.0
  0
POLYLINE
  5
A5
330
1F
100
AcDbEntity
  8
_U+30EC_U+30A4_U+30E4_U+30FC 1
 62
     7
420
 16777215
370
     9
100
AcDb2dPolyline
 66
     1
 10
0.0
 20
0.0
 30
0.0
  0
VERTEX
  5
A6
330
A5
100
AcDbEntity
  8
_U+30EC_U+30A4_U+30E4_U+30FC 1
 62
     7
420
 16777215
370
     9
100
AcDbVertex
100
AcDb2dVertex
 10
102.1808460042605
 20
-149.7744866292231
 30
0.0
  0
VERTEX
  5
A7
330
A5
100
AcDbEntity
  8
_U+30EC_U+30A4_U+30E4_U+30FC 1
 62
     7
420
 16777215
370
     9
100
AcDbVertex
100
AcDb2dVertex
 10
102.1808460042605
 20
-153.235095517247
 30
0.0
  0
SEQEND
  5
A8
330
A5
100
AcDbEntity
  8
_U+30EC_U+30A4_U+30E4_U+30FC 1
 62
     7
420
 16777215
370
     9
  0
INSERT
  5
AA
330
1F
100
AcDbEntity
  8
_U+30EC_U+30A4_U+30E4_U+30FC 1
100
AcDbBlockReference
  2
block 6
 10
0.0
 20
0.0
 30
0.0
  0
POLYLINE
  5
B1
330
1F
100
AcDbEntity
  8
_U+30EC_U+30A4_U+30E4_U+30FC 1
 62
     7
420
 16777215
370
     9
100
AcDb2dPolyline
 66
     1
 10
0.0
 20
0.0
 30
0.0
  0
VERTEX
  5
B2
330
B1
100
AcDbEntity
  8
_U+30EC_U+30A4_U+30E4_U+30FC 1
 62
     7
420
 16777215
370
     9
100
AcDbVertex
100
AcDb2dVertex
 10
78.69357243680416
 20
-148.2145385740577
 30
0.0
  0
VERTEX
  5
B3
330
B1
100
AcDbEntity
  8
_U+30EC_U+30A4_U+30E4_U+30FC 1
 62
     7
420
 16777215
370
     9
100
AcDbVertex
100
AcDb2dVertex
 10
78.69357243680416
 20
-127.2142771904186
 30
0.0
  0
SEQEND
  5
B4
330
B1
100
AcDbEntity
  8
_U+30EC_U+30A4_U+30E4_U+30FC 1
 62
     7
420
 16777215
370
     9
  0
POLYLINE
  5
B5
330
1F
100
AcDbEntity
  8
_U+30EC_U+30A4_U+30E4_U+30FC 1
 62
     7
420
 16777215
370
     9
100
AcDb2dPolyline
 66
     1
 10
0.0
 20
0.0
 30
0.0
  0
VERTEX
  5
B6
330
B5
100
AcDbEntity
  8
_U+30EC_U+30A4_U+30E4_U+30FC 1
 62
     7
420
 16777215
370
     9
100
AcDbVertex
100
AcDb2dVertex
 10
79.69539074457897
 20
-148.2162671851684
 30
0.0
  0
VERTEX
  5
B7
330
B5
100
AcDbEntity
  8
_U+30EC_U+30A4_U+30E4_U+30FC 1
 62
     7
420
 16777215
370
     9
100
AcDbVertex
100
AcDb2dVertex
 10
77.22111330770305
 20
-148.2162671851684
 30
0.0
  0
SEQEND
  5
B8
330
B5
100
AcDbEntity
  8
_U+30EC_U+30A4_U+30E4_U+30FC 1
 62
     7
420
 16777215
370
     9
  0
INSERT
  5
BA
330
1F
100
AcDbEntity
  8
_U+30EC_U+30A4_U+30E4_U+30FC 1
100
AcDbBlockReference
  2
block 7
 10
0.0
 20
0.0
 30
0.0
  0
SPLINE
  5
C1
330
1F
100
AcDbEntity
  8
_U+30EC_U+30A4_U+30E4_U+30FC 1
 62
     7
420
 16777215
370
     9
100
AcDbSpline
210
0.0
220
0.0
230
1.0
 70
    11
 71
     3
 72
    17
 73
    13
 74
     0
 42
0.0000000001
 43
0.0000000001
 12
1.0
 22
0.0
 32
0.0
 13
1.0
 23
0.0
 33
0.0
 40
0.0
 40
0.0
 40
0.0
 40
0.0
 40
1.0
 40
1.0
 40
1.0
 40
2.0
 40
2.0
 40
2.0
 40
3.0
 40
3.0
 40
3.0
 40
4.0
 40
4.0
 40
4.0
 40
4.0
 10
78.78727220252534
 20
-148.2148913518349
 30
0.0
 10
78.78727220252534
 20
-148.1597874629599
 30
0.0
 10
78.74317498031415
 20
-148.115337462971
 30
0.0
 10
78.68736354807366
 20
-148.115337462971
 30
0.0
 10
78.63222438281372
 20
-148.115337462971
 30
0.0
 10
78.58745688395584
 20
-148.1597874629599
 30
0.0
 10
78.58745688395584
 20
-148.2148913518349
 30
0.0
 10
78.58745688395584
 20
-148.2707007962659
 30
0.0
 10
78.63222438281372
 20
-148.315503574032
 30
0.0
 10
78.68736354807366
 20
-148.315503574032
 30
0.0
 10
78.74317498031415
 20
-148.315503574032
 30
0.0
 10
78.78727220252534
 20
-148.2707007962659
 30
0.0
 10
78.78727220252534
 20
-148.2148913518349
 30
0.0
  0
POLYLINE
  5
C2
330
1F
100
AcDbEntity
  8
_U+30EC_U+30A4_U+30E4_U+30FC 1
 62
     7
420
 16777215
370
     9
100
AcDb2dPolyline
 66
     1
 10
0.0
 20
0.0
 30
0.0
  0
VERTEX
  5
C3
330
C2
100
AcDbEntity
  8
_U+30EC_U+30A4_U+30E4_U+30FC 1
 62
     7
420
 16777215
370
     9
100
AcDbVertex
100
AcDb2dVertex
 10
79.69539074457897
 20
-127.212231079308
 30
0.0
  0
VERTEX
  5
C4
330
C2
100
AcDbEntity
  8
_U+30EC_U+30A4_U+30E4_U+30FC 1
 62
     7
420
 16777215
370
     9
100
AcDbVertex
100
AcDb2dVertex
 10
77.22111330770305
 20
-127.212231079308
 30
0.0
  0
SEQEND
  5
C5
330
C2
100
AcDbEntity
  8
_U+30EC_U+30A4_U+30E4_U+30FC 1
 62
     7
420
 16777215
370
     9
  0
SPLINE
  5
C6
330
1F
100
AcDbEntity
  8
_U+30EC_U+30A4_U+30E4_U+30FC 1
 62
     7
420
 16777215
370
     9
100
AcDbSpline
210
0.0
220
0.0
230
1.0
 70
    11
 71
     3
 72
    17
 73
    13
 74
     0
 42
0.0000000001
 43
0.0000000001
 12
1.0
 22
0.0
 32
0.0
 13
1.0
 23
0.0
 33
0.0
 40
0.0
 40
0.0
 40
0.0
 40
0.0
 40
1.0
 40
1.0
 40
1.0
 40
2.0
 40
2.0
 40
2.0
 40
3.0
 40
3.0
 40
3.0
 40
4.0
 40
4.0
 40
4.0
 40
4.0
 10
78.78727220252534
 20
-127.2108552459752
 30
0.0
 10
78.78727220252534
 20
-127.1557160793221
 30
0.0
 10
78.74317498031415
 20
-127.1112660793334
 30
0.0
 10
78.68736354807366
 20
-127.1112660793334
 30
0.0
 10
78.63222438281372
 20
-127.1112660793334
 30
0.0
 10
78.58745688395584
 20
-127.1557160793221
 30
0.0
 10
78.58745688395584
 20
-127.2108552459752
 30
0.0
 10
78.58745688395584
 20
-127.2666646904056
 30
0.0
 10
78.63222438281372
 20
-127.3114321903945
 30
0.0
 10
78.68736354807366
 20
-127.3114321903945
 30
0.0
 10
78.74317498031415
 20
-127.3114321903945
 30
0.0
 10
78.78727220252534
 20
-127.2666646904056
 30
0.0
 10
78.78727220252534
 20
-127.2108552459752
 30
0.0
  0
ENDSEC
  0
SECTION
  2
OBJECTS
  0
DICTIONARY
  5
C
330
0
100
AcDbDictionary
281
     1
  3
ACAD_GROUP
350
D
  3
ACAD_LAYOUT
350
1A
  3
ACAD_MATERIAL
350
3B
  3
ACAD_MLEADERSTYLE
350
C8
  3
ACAD_MLINESTYLE
350
17
  3
ACAD_PLOTSETTINGS
350
19
  3
ACAD_PLOTSTYLENAME
350
E
  3
ACAD_TABLESTYLE
350
C7
  3
ACAD_VISUALSTYLE
350
2A
  0
SUN
  5
3F
330
29
100
AcDbSun
 90
        1
290
     0
 63
     7
421
 16777215
 40
1.0
291
     1
 91
  2455826
 92
 54000000
292
     0
 70
     2
 71
   256
280
     1
  0
DICTIONARY
  5
D
102
{ACAD_REACTORS
330
C
102
}
330
C
100
AcDbDictionary
281
     1
  0
DICTIONARY
  5
1A
102
{ACAD_REACTORS
330
C
102
}
330
C
100
AcDbDictionary
281
     1
  3
Layout1
350
1E
  3
Layout2
350
26
  3
Model
350
22
  0
DICTIONARY
  5
3B
102
{ACAD_REACTORS
330
C
102
}
330
C
100
AcDbDictionary
281
     1
  3
ByBlock
350
3D
  3
ByLayer
350
3C
  3
Global
350
3E
  0
DICTIONARY
  5
C8
102
{ACAD_REACTORS
330
C
102
}
330
C
100
AcDbDictionary
281
     1
  0
DICTIONARY
  5
17
102
{ACAD_REACTORS
330
C
102
}
330
C
100
AcDbDictionary
281
     1
  3
Standard
350
18
  0
DICTIONARY
  5
19
102
{ACAD_REACTORS
330
C
102
}
330
C
100
AcDbDictionary
281
     1
  0
ACDBDICTIONARYWDFLT
  5
E
102
{ACAD_REACTORS
330
C
102
}
330
C
100
AcDbDictionary
281
     1
  3
Normal
350
F
100
AcDbDictionaryWithDefault
340
F
  0
DICTIONARY
  5
C7
102
{ACAD_REACTORS
330
C
102
}
330
C
100
AcDbDictionary
281
     1
  0
DICTIONARY
  5
2A
102
{ACAD_REACTORS
330
C
102
}
330
C
100
AcDbDictionary
281
     1
  3
2dWireframe
350
2F
  3
3D Hidden
350
31
  3
3dWireframe
350
30
  3
Basic
350
32
  3
Brighten
350
36
  3
ColorChange
350
3A
  3
Conceptual
350
34
  3
Dim
350
35
  3
Facepattern
350
39
  3
Flat
350
2B
  3
FlatWithEdges
350
2C
  3
Gouraud
350
2D
  3
GouraudWithEdges
350
2E
  3
Linepattern
350
38
  3
Realistic
350
33
  3
Thicken
350
37
  0
LAYOUT
  5
1E
102
{ACAD_REACTORS
330
1A
102
}
330
1A
100
AcDbPlotSettings
  1

  2
none_device
  4

  6

 40
0.0
 41
0.0
 42
0.0
 43
0.0
 44
0.0
 45
0.0
 46
0.0
 47
0.0
 48
0.0
 49
0.0
140
0.0
141
0.0
142
1.0
143
1.0
 70
   688
 72
     0
 73
     0
 74
     5
  7

 75
    16
 76
     0
 77
     2
 78
   300
147
1.0
148
0.0
149
0.0
100
AcDbLayout
  1
Layout1
 70
     1
 71
     1
 10
0.0
 20
0.0
 11
12.0
 21
9.0
 12
0.0
 22
0.0
 32
0.0
 14
1.000000000000000E+20
 24
1.000000000000000E+20
 34
1.000000000000000E+20
 15
-1.000000000000000E+20
 25
-1.000000000000000E+20
 35
-1.000000000000000E+20
146
0.0
 13
0.0
 23
0.0
 33
0.0
 16
1.0
 26
0.0
 36
0.0
 17
0.0
 27
1.0
 37
0.0
 76
     0
330
1B
  0
LAYOUT
  5
26
102
{ACAD_REACTORS
330
1A
102
}
330
1A
100
AcDbPlotSettings
  1

  2
none_device
  4

  6

 40
0.0
 41
0.0
 42
0.0
 43
0.0
 44
0.0
 45
0.0
 46
0.0
 47
0.0
 48
0.0
 49
0.0
140
0.0
141
0.0
142
1.0
143
1.0
 70
   688
 72
     0
 73
     0
 74
     5
  7

 75
    16
 76
     0
 77
     2
 78
   300
147
1.0
148
0.0
149
0.0
100
AcDbLayout
  1
Layout2
 70
     1
 71
     2
 10
0.0
 20
0.0
 11
0.0
 21
0.0
 12
0.0
 22
0.0
 32
0.0
 14
0.0
 24
0.0
 34
0.0
 15
0.0
 25
0.0
 35
0.0
146
0.0
 13
0.0
 23
0.0
 33
0.0
 16
1.0
 26
0.0
 36
0.0
 17
0.0
 27
1.0
 37
0.0
 76
     0
330
23
  0
LAYOUT
  5
22
102
{ACAD_REACTORS
330
1A
102
}
330
1A
100
AcDbPlotSettings
  1

  2
none_device
  4

  6

 40
0.0
 41
0.0
 42
0.0
 43
0.0
 44
0.0
 45
0.0
 46
0.0
 47
0.0
 48
0.0
 49
0.0
140
0.0
141
0.0
142
1.0
143
1.0
 70
  1712
 72
     0
 73
     0
 74
     0
  7

 75
     0
 76
     0
 77
     2
 78
   300
147
1.0
148
0.0
149
0.0
100
AcDbLayout
  1
Model
 70
     1
 71
     0
 10
0.0
 20
0.0
 11
12.0
 21
9.0
 12
0.0
 22
0.0
 32
0.0
 14
1.000000000000000E+20
 24
1.000000000000000E+20
 34
1.000000000000000E+20
 15
-1.000000000000000E+20
 25
-1.000000000000000E+20
 35
-1.000000000000000E+20
146
0.0
 13
0.0
 23
0.0
 33
0.0
 16
1.0
 26
0.0
 36
0.0
 17
0.0
 27
1.0
 37
0.0
 76
     0
330
1F
331
29
  0
MATERIAL
  5
3D
102
{ACAD_REACTORS
330
3B
102
}
330
3B
100
AcDbMaterial
  1
ByBlock
 72
     1
 94
      127
  0
MATERIAL
  5
3C
102
{ACAD_REACTORS
330
3B
102
}
330
3B
100
AcDbMaterial
  1
ByLayer
 72
     1
 94
      127
  0
MATERIAL
  5
3E
102
{ACAD_REACTORS
330
3B
102
}
330
3B
100
AcDbMaterial
  1
Global
 72
     1
 94
      127
  0
MLINESTYLE
  5
18
102
{ACAD_REACTORS
330
17
102
}
330
17
100
AcDbMlineStyle
  2
Standard
 70
     0
  3

 62
   256
 51
90.0
 52
90.0
 71
     2
 49
0.5
 62
   256
  6
BYLAYER
 49
-0.5
 62
   256
  6
BYLAYER
  0
ACDBPLACEHOLDER
  5
F
102
{ACAD_REACTORS
330
E
102
}
330
E
  0
VISUALSTYLE
  5
2F
102
{ACAD_REACTORS
330
2A
102
}
330
2A
100
AcDbVisualStyle
  2
2dWireframe
 70
     4
177
     2
291
     0
 71
     0
176
     1
 72
     2
176
     1
 73
     0
176
     1
 90
        0
176
     1
 40
-0.6
176
     1
 41
-30.0
176
     1
 62
     5
 63
     7
421
 16777215
176
     1
 74
     1
176
     1
 91
        4
176
     1
 64
     7
176
     1
 65
   257
176
     1
 75
     1
176
     1
175
     1
176
     1
 42
1.0
176
     1
 92
        0
176
     1
 66
   257
176
     1
 43
1.0
176
     1
 76
     1
176
     1
 77
     6
176
     1
 78
     2
176
     1
 67
     7
176
     1
 79
     5
176
     1
170
     0
176
     1
171
     0
176
     1
290
     0
176
     1
 93
        1
176
     1
 44
0.0
176
     1
173
     0
176
     1
  0
VISUALSTYLE
  5
31
102
{ACAD_REACTORS
330
2A
102
}
330
2A
100
AcDbVisualStyle
  2
3D Hidden
 70
     6
177
     2
291
     0
 71
     1
176
     1
 72
     2
176
     1
 73
     2
176
     1
 90
        0
176
     1
 40
-0.6
176
     1
 41
-30.0
176
     1
 62
     5
 63
     7
421
 16777215
176
     1
 74
     2
176
     1
 91
        2
176
     1
 64
     7
176
     1
 65
   257
176
     1
 75
     2
176
     1
175
     1
176
     1
 42
40.0
176
     1
 92
        0
176
     1
 66
   257
176
     1
 43
1.0
176
     1
 76
     1
176
     1
 77
     6
176
     1
 78
     2
176
     1
 67
     7
176
     1
 79
     3
176
     1
170
     0
176
     1
171
     0
176
     1
290
     0
176
     1
 93
        1
176
     1
 44
0.0
176
     1
173
     0
176
     1
  0
VISUALSTYLE
  5
30
102
{ACAD_REACTORS
330
2A
102
}
330
2A
100
AcDbVisualStyle
  2
3dWireframe
 70
     5
177
     2
291
     0
 71
     0
176
     1
 72
     2
176
     1
 73
     0
176
     1
 90
        0
176
     1
 40
-0.6
176
     1
 41
-30.0
176
     1
 62
     5
 63
     7
421
 16777215
176
     1
 74
     1
176
     1
 91
        4
176
     1
 64
     7
176
     1
 65
   257
176
     1
 75
     1
176
     1
175
     1
176
     1
 42
1.0
176
     1
 92
        0
176
     1
 66
   257
176
     1
 43
1.0
176
     1
 76
     1
176
     1
 77
     6
176
     1
 78
     2
176
     1
 67
     7
176
     1
 79
     5
176
     1
170
     0
176
     1
171
     0
176
     1
290
     0
176
     1
 93
        1
176
     1
 44
0.0
176
     1
173
     0
176
     1
  0
VISUALSTYLE
  5
32
102
{ACAD_REACTORS
330
2A
102
}
330
2A
100
AcDbVisualStyle
  2
Basic
 70
     7
177
     2
291
     1
 71
     1
176
     1
 72
     0
176
     1
 73
     1
176
     1
 90
        0
176
     1
 40
-0.6
176
     1
 41
-30.0
176
     1
 62
     5
 63
     7
421
 16777215
176
     1
 74
     0
176
     1
 91
        4
176
     1
 64
     7
176
     1
 65
   257
176
     1
 75
     1
176
     1
175
     1
176
     1
 42
1.0
176
     1
 92
        8
176
     1
 66
     7
176
     1
 43
1.0
176
     1
 76
     1
176
     1
 77
     6
176
     1
 78
     2
176
     1
 67
     7
176
     1
 79
     5
176
     1
170
     0
176
     1
171
     0
176
     1
290
     0
176
     1
 93
        1
176
     1
 44
0.0
176
     1
173
     0
176
     1
  0
VISUALSTYLE
  5
36
102
{ACAD_REACTORS
330
2A
102
}
330
2A
100
AcDbVisualStyle
  2
Brighten
 70
    12
177
     2
291
     1
 71
     2
176
     1
 72
     2
176
     1
 73
     0
176
     1
 90
        0
176
     1
 40
-0.6
176
     1
 41
-30.0
176
     1
 62
     5
 63
     7
421
 16777215
176
     1
 74
     1
176
     1
 91
        4
176
     1
 64
     7
176
     1
 65
   257
176
     1
 75
     1
176
     1
175
     1
176
     1
 42
1.0
176
     1
 92
        8
176
     1
 66
     7
176
     1
 43
1.0
176
     1
 76
     1
176
     1
 77
     6
176
     1
 78
     2
176
     1
 67
     7
176
     1
 79
     5
176
     1
170
     0
176
     1
171
     0
176
     1
290
     0
176
     1
 93
        1
176
     1
 44
50.0
176
     1
173
     0
176
     1
  0
VISUALSTYLE
  5
3A
102
{ACAD_REACTORS
330
2A
102
}
330
2A
100
AcDbVisualStyle
  2
ColorChange
 70
    16
177
     2
291
     1
 71
     2
176
     1
 72
     2
176
     1
 73
     3
176
     1
 90
        0
176
     1
 40
-0.6
176
     1
 41
-30.0
176
     1
 62
     5
 63
     8
421
  8421504
176
     1
 74
     1
176
     1
 91
        4
176
     1
 64
     7
176
     1
 65
   257
176
     1
 75
     1
176
     1
175
     1
176
     1
 42
1.0
176
     1
 92
        8
176
     1
 66
     8
424
  8421504
176
     1
 43
1.0
176
     1
 76
     1
176
     1
 77
     6
176
     1
 78
     2
176
     1
 67
     7
176
     1
 79
     5
176
     1
170
     0
176
     1
171
     0
176
     1
290
     0
176
     1
 93
        1
176
     1
 44
0.0
176
     1
173
     0
176
     1
  0
VISUALSTYLE
  5
34
102
{ACAD_REACTORS
330
2A
102
}
330
2A
100
AcDbVisualStyle
  2
Conceptual
 70
     9
177
     2
291
     0
 71
     3
176
     1
 72
     2
176
     1
 73
     0
176
     1
 90
        0
176
     1
 40
-0.6
176
     1
 41
-30.0
176
     1
 62
     5
 63
     7
421
 16777215
176
     1
 74
     2
176
     1
 91
        2
176
     1
 64
     7
176
     1
 65
   257
176
     1
 75
     1
176
     1
175
     1
176
     1
 42
40.0
176
     1
 92
        8
176
     1
 66
     7
176
     1
 43
1.0
176
     1
 76
     1
176
     1
 77
     6
176
     1
 78
     2
176
     1
 67
     7
176
     1
 79
     3
176
     1
170
     0
176
     1
171
     0
176
     1
290
     0
176
     1
 93
        1
176
     1
 44
0.0
176
     1
173
     0
176
     1
  0
VISUALSTYLE
  5
35
102
{ACAD_REACTORS
330
2A
102
}
330
2A
100
AcDbVisualStyle
  2
Dim
 70
    11
177
     2
291
     1
 71
     2
176
     1
 72
     2
176
     1
 73
     0
176
     1
 90
        0
176
     1
 40
-0.6
176
     1
 41
-30.0
176
     1
 62
     5
 63
     7
421
 16777215
176
     1
 74
     1
176
     1
 91
        4
176
     1
 64
     7
176
     1
 65
   257
176
     1
 75
     1
176
     1
175
     1
176
     1
 42
1.0
176
     1
 92
        8
176
     1
 66
     7
176
     1
 43
1.0
176
     1
 76
     1
176
     1
 77
     6
176
     1
 78
     2
176
     1
 67
     7
176
     1
 79
     5
176
     1
170
     0
176
     1
171
     0
176
     1
290
     0
176
     1
 93
        1
176
     1
 44
-50.0
176
     1
173
     0
176
     1
  0
VISUALSTYLE
  5
39
102
{ACAD_REACTORS
330
2A
102
}
330
2A
100
AcDbVisualStyle
  2
Facepattern
 70
    15
177
     2
291
     1
 71
     2
176
     1
 72
     2
176
     1
 73
     0
176
     1
 90
        0
176
     1
 40
-0.6
176
     1
 41
-30.0
176
     1
 62
     5
 63
     7
421
 16777215
176
     1
 74
     1
176
     1
 91
        4
176
     1
 64
     7
176
     1
 65
   257
176
     1
 75
     1
176
     1
175
     1
176
     1
 42
1.0
176
     1
 92
        8
176
     1
 66
     7
176
     1
 43
1.0
176
     1
 76
     1
176
     1
 77
     6
176
     1
 78
     2
176
     1
 67
     7
176
     1
 79
     5
176
     1
170
     0
176
     1
171
     0
176
     1
290
     0
176
     1
 93
        1
176
     1
 44
0.0
176
     1
173
     0
176
     1
  0
VISUALSTYLE
  5
2B
102
{ACAD_REACTORS
330
2A
102
}
330
2A
100
AcDbVisualStyle
  2
Flat
 70
     0
177
     2
291
     1
 71
     2
176
     1
 72
     1
176
     1
 73
     1
176
     1
 90
        2
176
     1
 40
-0.6
176
     1
 41
30.0
176
     1
 62
     5
 63
     7
421
 16777215
176
     1
 74
     0
176
     1
 91
        4
176
     1
 64
     7
176
     1
 65
   257
176
     1
 75
     1
176
     1
175
     1
176
     1
 42
1.0
176
     1
 92
        8
176
     1
 66
     7
176
     1
 43
1.0
176
     1
 76
     1
176
     1
 77
     6
176
     1
 78
     2
176
     1
 67
     7
176
     1
 79
     5
176
     1
170
     0
176
     1
171
     0
176
     1
290
     0
176
     1
 93
       13
176
     1
 44
0.0
176
     1
173
     0
176
     1
  0
VISUALSTYLE
  5
2C
102
{ACAD_REACTORS
330
2A
102
}
330
2A
100
AcDbVisualStyle
  2
FlatWithEdges
 70
     1
177
     2
291
     1
 71
     2
176
     1
 72
     1
176
     1
 73
     1
176
     1
 90
        2
176
     1
 40
-0.6
176
     1
 41
30.0
176
     1
 62
     5
 63
     7
421
 16777215
176
     1
 74
     1
176
     1
 91
        4
176
     1
 64
     7
176
     1
 65
   257
176
     1
 75
     1
176
     1
175
     1
176
     1
 42
1.0
176
     1
 92
        0
176
     1
 66
   257
176
     1
 43
1.0
176
     1
 76
     1
176
     1
 77
     6
176
     1
 78
     2
176
     1
 67
     7
176
     1
 79
     5
176
     1
170
     0
176
     1
171
     0
176
     1
290
     0
176
     1
 93
       13
176
     1
 44
0.0
176
     1
173
     0
176
     1
  0
VISUALSTYLE
  5
2D
102
{ACAD_REACTORS
330
2A
102
}
330
2A
100
AcDbVisualStyle
  2
Gouraud
 70
     2
177
     2
291
     1
 71
     2
176
     1
 72
     2
176
     1
 73
     1
176
     1
 90
        2
176
     1
 40
-0.6
176
     1
 41
30.0
176
     1
 62
     5
 63
     7
421
 16777215
176
     1
 74
     0
176
     1
 91
        4
176
     1
 64
     7
176
     1
 65
   257
176
     1
 75
     1
176
     1
175
     1
176
     1
 42
1.0
176
     1
 92
        0
176
     1
 66
     7
176
     1
 43
1.0
176
     1
 76
     1
176
     1
 77
     6
176
     1
 78
     2
176
     1
 67
     7
176
     1
 79
     5
176
     1
170
     0
176
     1
171
     0
176
     1
290
     0
176
     1
 93
       13
176
     1
 44
0.0
176
     1
173
     0
176
     1
  0
VISUALSTYLE
  5
2E
102
{ACAD_REACTORS
330
2A
102
}
330
2A
100
AcDbVisualStyle
  2
GouraudWithEdges
 70
     3
177
     2
291
     1
 71
     2
176
     1
 72
     2
176
     1
 73
     1
176
     1
 90
        2
176
     1
 40
-0.6
176
     1
 41
30.0
176
     1
 62
     5
 63
     7
421
 16777215
176
     1
 74
     1
176
     1
 91
        4
176
     1
 64
     7
176
     1
 65
   257
176
     1
 75
     1
176
     1
175
     1
176
     1
 42
1.0
176
     1
 92
        0
176
     1
 66
   257
176
     1
 43
1.0
176
     1
 76
     1
176
     1
 77
     6
176
     1
 78
     2
176
     1
 67
     7
176
     1
 79
     5
176
     1
170
     0
176
     1
171
     0
176
     1
290
     0
176
     1
 93
       13
176
     1
 44
0.0
176
     1
173
     0
176
     1
  0
VISUALSTYLE
  5
38
102
{ACAD_REACTORS
330
2A
102
}
330
2A
100
AcDbVisualStyle
  2
Linepattern
 70
    14
177
     2
291
     1
 71
     2
176
     1
 72
     2
176
     1
 73
     0
176
     1
 90
        0
176
     1
 40
-0.6
176
     1
 41
-30.0
176
     1
 62
     5
 63
     7
421
 16777215
176
     1
 74
     1
176
     1
 91
        4
176
     1
 64
     7
176
     1
 65
   257
176
     1
 75
     7
176
     1
175
     7
176
     1
 42
1.0
176
     1
 92
        8
176
     1
 66
     7
176
     1
 43
1.0
176
     1
 76
     1
176
     1
 77
     6
176
     1
 78
     2
176
     1
 67
     7
176
     1
 79
     5
176
     1
170
     0
176
     1
171
     0
176
     1
290
     0
176
     1
 93
        1
176
     1
 44
0.0
176
     1
173
     0
176
     1
  0
VISUALSTYLE
  5
33
102
{ACAD_REACTORS
330
2A
102
}
330
2A
100
AcDbVisualStyle
  2
Realistic
 70
     8
177
     2
291
     0
 71
     2
176
     1
 72
     2
176
     1
 73
     0
176
     1
 90
        0
176
     1
 40
-0.6
176
     1
 41
-30.0
176
     1
 62
     5
 63
     7
421
 16777215
176
     1
 74
     1
176
     1
 91
        0
176
     1
 64
     7
176
     1
 65
   257
176
     1
 75
     1
176
     1
175
     1
176
     1
 42
1.0
176
     1
 92
        8
176
     1
 66
     8
424
  7895160
176
     1
 43
1.0
176
     1
 76
     1
176
     1
 77
     6
176
     1
 78
     2
176
     1
 67
     7
176
     1
 79
     5
176
     1
170
     0
176
     1
171
     0
176
     1
290
     0
176
     1
 93
       13
176
     1
 44
0.0
176
     1
173
     0
176
     1
  0
VISUALSTYLE
  5
37
102
{ACAD_REACTORS
330
2A
102
}
330
2A
100
AcDbVisualStyle
  2
Thicken
 70
    13
177
     2
291
     1
 71
     2
176
     1
 72
     2
176
     1
 73
     0
176
     1
 90
        0
176
     1
 40
-0.6
176
     1
 41
-30.0
176
     1
 62
     5
 63
     7
421
 16777215
176
     1
 74
     1
176
     1
 91
        4
176
     1
 64
     7
176
     1
 65
   257
176
     1
 75
     1
176
     1
175
     1
176
     1
 42
1.0
176
     1
 92
       12
176
     1
 66
     7
176
     1
 43
1.0
176
     1
 76
     1
176
     1
 77
     6
176
     1
 78
     2
176
     1
 67
     7
176
     1
 79
     5
176
     1
170
     0
176
     1
171
     0
176
     1
290
     0
176
     1
 93
        1
176
     1
 44
0.0
176
     1
173
     0
176
     1
  0
ENDSEC
  0
EOF
