  0
SECTION
  2
HEADER
  9
$ACADVER
  1
AC1024
  9
$ACADMAINTVER
 70
     6
  9
$DWGCODEPAGE
  3
UNDEFINED
  9
$INSBASE
 10
0.0
 20
0.0
 30
0.0
  9
$EXTMIN
 10
1.000000000000000E+20
 20
1.000000000000000E+20
 30
1.000000000000000E+20
  9
$EXTMAX
 10
-1.000000000000000E+20
 20
-1.000000000000000E+20
 30
-1.000000000000000E+20
  9
$LIMMIN
 10
0.0
 20
0.0
  9
$LIMMAX
 10
12.0
 20
9.0
  9
$ORTHOMODE
 70
     0
  9
$REGENMODE
 70
     1
  9
$FILLMODE
 70
     1
  9
$QTEXTMODE
 70
     0
  9
$MIRRTEXT
 70
     1
  9
$LTSCALE
 40
1.0
  9
$ATTMODE
 70
     1
  9
$TEXTSIZE
 40
0.2
  9
$TRACEWID
 40
0.05
  9
$TEXTSTYLE
  7
Standard
  9
$CLAYER
  8
0
  9
$CELTYPE
  6
ByLayer
  9
$CECOLOR
 62
   256
  9
$CELTSCALE
 40
1.0
  9
$DISPSILH
 70
     0
  9
$DIMSCALE
 40
1.0
  9
$DIMASZ
 40
0.18
  9
$DIMEXO
 40
0.0625
  9
$DIMDLI
 40
0.38
  9
$DIMRND
 40
0.0
  9
$DIMDLE
 40
0.0
  9
$DIMEXE
 40
0.18
  9
$DIMTP
 40
0.0
  9
$DIMTM
 40
0.0
  9
$DIMTXT
 40
0.18
  9
$DIMCEN
 40
0.09
  9
$DIMTSZ
 40
0.0
  9
$DIMTOL
 70
     0
  9
$DIMLIM
 70
     0
  9
$DIMTIH
 70
     1
  9
$DIMTOH
 70
     1
  9
$DIMSE1
 70
     0
  9
$DIMSE2
 70
     0
  9
$DIMTAD
 70
     0
  9
$DIMZIN
 70
     0
  9
$DIMBLK
  1

  9
$DIMASO
 70
     1
  9
$DIMSHO
 70
     1
  9
$DIMPOST
  1

  9
$DIMAPOST
  1

  9
$DIMALT
 70
     0
  9
$DIMALTD
 70
     2
  9
$DIMALTF
 40
25.4
  9
$DIMLFAC
 40
1.0
  9
$DIMTOFL
 70
     0
  9
$DIMTVP
 40
0.0
  9
$DIMTIX
 70
     0
  9
$DIMSOXD
 70
     0
  9
$DIMSAH
 70
     0
  9
$DIMBLK1
  1

  9
$DIMBLK2
  1

  9
$DIMSTYLE
  2
Standard
  9
$DIMCLRD
 70
     0
  9
$DIMCLRE
 70
     0
  9
$DIMCLRT
 70
     0
  9
$DIMTFAC
 40
1.0
  9
$DIMGAP
 40
0.09
  9
$DIMJUST
 70
     0
  9
$DIMSD1
 70
     0
  9
$DIMSD2
 70
     0
  9
$DIMTOLJ
 70
     1
  9
$DIMTZIN
 70
     0
  9
$DIMALTZ
 70
     0
  9
$DIMALTTZ
 70
     0
  9
$DIMUPT
 70
     0
  9
$DIMDEC
 70
     4
  9
$DIMTDEC
 70
     4
  9
$DIMALTU
 70
     2
  9
$DIMALTTD
 70
     2
  9
$DIMTXSTY
  7
Standard
  9
$DIMAUNIT
 70
     0
  9
$DIMADEC
 70
     0
  9
$DIMALTRND
 40
0.0
  9
$DIMAZIN
 70
     0
  9
$DIMDSEP
 70
    46
  9
$DIMATFIT
 70
     3
  9
$DIMFRAC
 70
     0
  9
$DIMLDRBLK
  1

  9
$DIMLUNIT
 70
     2
  9
$DIMLWD
 70
    -2
  9
$DIMLWE
 70
    -2
  9
$DIMTMOVE
 70
     0
  9
$DIMFXL
 40
1.0
  9
$DIMFXLON
 70
     0
  9
$DIMJOGANG
 40
0.7853981633974483
  9
$DIMTFILL
 70
     0
  9
$DIMTFILLCLR
 70
     0
  9
$DIMARCSYM
 70
     0
  9
$DIMLTYPE
  6

  9
$DIMLTEX1
  6

  9
$DIMLTEX2
  6

  9
$DIMTXTDIRECTION
 70
     0
  9
$LUNITS
 70
     2
  9
$LUPREC
 70
     4
  9
$SKETCHINC
 40
0.1
  9
$FILLETRAD
 40
0.5
  9
$AUNITS
 70
     0
  9
$AUPREC
 70
     0
  9
$MENU
  1
.
  9
$ELEVATION
 40
0.0
  9
$PELEVATION
 40
0.0
  9
$THICKNESS
 40
0.0
  9
$LIMCHECK
 70
     0
  9
$CHAMFERA
 40
0.5
  9
$CHAMFERB
 40
0.5
  9
$CHAMFERC
 40
1.0
  9
$CHAMFERD
 40
0.0
  9
$SKPOLY
 70
     0
  9
$TDCREATE
 40
2457917.603634248
  9
$TDUCREATE
 40
2457917.228634259
  9
$TDUPDATE
 40
2457917.603645822
  9
$TDUUPDATE
 40
2457917.228645833
  9
$TDINDWG
 40
0.0000000116
  9
$TDUSRTIMER
 40
0.0000000116
  9
$USRTIMER
 70
     1
  9
$ANGBASE
 50
0.0
  9
$ANGDIR
 70
     0
  9
$PDMODE
 70
     0
  9
$PDSIZE
 40
0.0
  9
$PLINEWID
 40
0.0
  9
$SPLFRAME
 70
     0
  9
$SPLINETYPE
 70
     6
  9
$SPLINESEGS
 70
     8
  9
$HANDSEED
  5
11B
  9
$SURFTAB1
 70
     6
  9
$SURFTAB2
 70
     6
  9
$SURFTYPE
 70
     6
  9
$SURFU
 70
     6
  9
$SURFV
 70
     6
  9
$UCSBASE
  2

  9
$UCSNAME
  2

  9
$UCSORG
 10
0.0
 20
0.0
 30
0.0
  9
$UCSXDIR
 10
1.0
 20
0.0
 30
0.0
  9
$UCSYDIR
 10
0.0
 20
1.0
 30
0.0
  9
$UCSORTHOREF
  2

  9
$UCSORTHOVIEW
 70
     0
  9
$UCSORGTOP
 10
0.0
 20
0.0
 30
0.0
  9
$UCSORGBOTTOM
 10
0.0
 20
0.0
 30
0.0
  9
$UCSORGLEFT
 10
0.0
 20
0.0
 30
0.0
  9
$UCSORGRIGHT
 10
0.0
 20
0.0
 30
0.0
  9
$UCSORGFRONT
 10
0.0
 20
0.0
 30
0.0
  9
$UCSORGBACK
 10
0.0
 20
0.0
 30
0.0
  9
$PUCSBASE
  2

  9
$PUCSNAME
  2

  9
$PUCSORG
 10
0.0
 20
0.0
 30
0.0
  9
$PUCSXDIR
 10
1.0
 20
0.0
 30
0.0
  9
$PUCSYDIR
 10
0.0
 20
1.0
 30
0.0
  9
$PUCSORTHOREF
  2

  9
$PUCSORTHOVIEW
 70
     0
  9
$PUCSORGTOP
 10
0.0
 20
0.0
 30
0.0
  9
$PUCSORGBOTTOM
 10
0.0
 20
0.0
 30
0.0
  9
$PUCSORGLEFT
 10
0.0
 20
0.0
 30
0.0
  9
$PUCSORGRIGHT
 10
0.0
 20
0.0
 30
0.0
  9
$PUCSORGFRONT
 10
0.0
 20
0.0
 30
0.0
  9
$PUCSORGBACK
 10
0.0
 20
0.0
 30
0.0
  9
$USERI1
 70
     0
  9
$USERI2
 70
     0
  9
$USERI3
 70
     0
  9
$USERI4
 70
     0
  9
$USERI5
 70
     0
  9
$USERR1
 40
0.0
  9
$USERR2
 40
0.0
  9
$USERR3
 40
0.0
  9
$USERR4
 40
0.0
  9
$USERR5
 40
0.0
  9
$WORLDVIEW
 70
     1
  9
$SHADEDGE
 70
     3
  9
$SHADEDIF
 70
    70
  9
$TILEMODE
 70
     1
  9
$MAXACTVP
 70
    64
  9
$PINSBASE
 10
0.0
 20
0.0
 30
0.0
  9
$PLIMCHECK
 70
     0
  9
$PEXTMIN
 10
1.000000000000000E+20
 20
1.000000000000000E+20
 30
1.000000000000000E+20
  9
$PEXTMAX
 10
-1.000000000000000E+20
 20
-1.000000000000000E+20
 30
-1.000000000000000E+20
  9
$PLIMMIN
 10
0.0
 20
0.0
  9
$PLIMMAX
 10
12.0
 20
9.0
  9
$UNITMODE
 70
     0
  9
$VISRETAIN
 70
     1
  9
$PLINEGEN
 70
     0
  9
$PSLTSCALE
 70
     1
  9
$TREEDEPTH
 70
  3020
  9
$CMLSTYLE
  2
Standard
  9
$CMLJUST
 70
     0
  9
$CMLSCALE
 40
1.0
  9
$PROXYGRAPHICS
 70
     1
  9
$MEASUREMENT
 70
     0
  9
$CELWEIGHT
370
    -1
  9
$ENDCAPS
280
     0
  9
$JOINSTYLE
280
     0
  9
$LWDISPLAY
290
     1
  9
$INSUNITS
 70
     1
  9
$HYPERLINKBASE
  1

  9
$STYLESHEET
  1

  9
$XEDIT
290
     1
  9
$CEPSNTYPE
380
     0
  9
$PSTYLEMODE
290
     1
  9
$FINGERPRINTGUID
  2
{299D2052-D542-692F-8133-24CAD2172355}
  9
$VERSIONGUID
  2
{FAEB1C32-E019-11D5-929B-00C0DF256EC4}
  9
$EXTNAMES
290
     1
  9
$PSVPSCALE
 40
0.0
  9
$OLESTARTUP
290
     0
  9
$SORTENTS
280
   127
  9
$INDEXCTL
280
     0
  9
$HIDETEXT
280
     1
  9
$XCLIPFRAME
280
     2
  9
$HALOGAP
280
     0
  9
$OBSCOLOR
 70
   257
  9
$OBSLTYPE
280
     0
  9
$INTERSECTIONDISPLAY
280
     0
  9
$INTERSECTIONCOLOR
 70
   257
  9
$DIMASSOC
280
     2
  9
$PROJECTNAME
  1

  9
$CAMERADISPLAY
290
     0
  9
$LENSLENGTH
 40
50.0
  9
$CAMERAHEIGHT
 40
0.0
  9
$STEPSPERSEC
 40
2.0
  9
$STEPSIZE
 40
6.0
  9
$3DDWFPREC
 40
2.0
  9
$PSOLWIDTH
 40
0.25
  9
$PSOLHEIGHT
 40
4.0
  9
$LOFTANG1
 40
1.570796326794897
  9
$LOFTANG2
 40
1.570796326794897
  9
$LOFTMAG1
 40
0.0
  9
$LOFTMAG2
 40
0.0
  9
$LOFTPARAM
 70
     7
  9
$LOFTNORMALS
280
     1
  9
$LATITUDE
 40
37.795
  9
$LONGITUDE
 40
-122.394
  9
$NORTHDIRECTION
 40
0.0
  9
$TIMEZONE
 70
 -8000
  9
$LIGHTGLYPHDISPLAY
280
     1
  9
$TILEMODELIGHTSYNCH
280
     1
  9
$CMATERIAL
347
3C
  9
$SOLIDHIST
280
     1
  9
$SHOWHIST
280
     1
  9
$DWFFRAME
280
     2
  9
$DGNFRAME
280
     2
  9
$REALWORLDSCALE
290
     1
  9
$INTERFERECOLOR
 62
   256
  9
$CSHADOW
280
     0
  9
$SHADOWPLANELOCATION
 40
0.0
  0
ENDSEC
  0
SECTION
  2
CLASSES
  0
CLASS
  1
ACDBDICTIONARYWDFLT
  2
AcDbDictionaryWithDefault
  3
ObjectDBX Classes
 90
        0
 91
        4
280
     0
281
     0
  0
CLASS
  1
VISUALSTYLE
  2
AcDbVisualStyle
  3
ObjectDBX Classes
 90
     4095
 91
        4
280
     0
281
     0
  0
CLASS
  1
MATERIAL
  2
AcDbMaterial
  3
ObjectDBX Classes
 90
     1153
 91
        4
280
     0
281
     0
  0
CLASS
  1
SUN
  2
AcDbSun
  3
SCENEOE
 90
     1024
 91
        4
280
     0
281
     0
  0
ENDSEC
  0
SECTION
  2
TABLES
  0
TABLE
  2
VPORT
  5
8
330
0
100
AcDbSymbolTable
 70
     1
  0
VPORT
  5
29
330
8
100
AcDbSymbolTableRecord
100
AcDbViewportTableRecord
  2
*Active
 70
     0
 10
0.0
 20
0.0
 11
1.0
 21
1.0
 12
0.0
 22
0.0
 13
0.0
 23
0.0
 14
0.5
 24
0.5
 15
0.5
 25
0.5
 16
0.0
 26
0.0
 36
1.0
 17
91.00082462281999
 27
-128.4993055234307
 37
0.0
 40
256.9986110468615
 41
0.7081814508812795
 42
50.0
 43
0.0
 44
0.0
 50
0.0
 51
0.0
 71
     0
 72
   100
 73
     1
 74
     3
 75
     0
 76
     0
 77
     0
 78
     0
281
     0
 65
     1
110
0.0
120
0.0
130
0.0
111
1.0
121
0.0
131
0.0
112
0.0
122
1.0
132
0.0
 79
     0
146
0.0
 60
     3
 61
     5
292
     1
282
     1
141
0.0
142
0.0
 63
   250
361
3F
  0
ENDTAB
  0
TABLE
  2
LTYPE
  5
5
330
0
100
AcDbSymbolTable
 70
     1
  0
LTYPE
  5
14
330
5
100
AcDbSymbolTableRecord
100
AcDbLinetypeTableRecord
  2
ByBlock
 70
     0
  3

 72
    65
 73
     0
 40
0.0
  0
LTYPE
  5
15
330
5
100
AcDbSymbolTableRecord
100
AcDbLinetypeTableRecord
  2
ByLayer
 70
     0
  3

 72
    65
 73
     0
 40
0.0
  0
LTYPE
  5
16
330
5
100
AcDbSymbolTableRecord
100
AcDbLinetypeTableRecord
  2
Continuous
 70
     0
  3
Solid line
 72
    65
 73
     0
 40
0.0
  0
ENDTAB
  0
TABLE
  2
LAYER
  5
2
330
0
100
AcDbSymbolTable
 70
     2
  0
LAYER
  5
10
330
2
100
AcDbSymbolTableRecord
100
AcDbLayerTableRecord
  2
0
 70
     0
 62
     7
  6
Continuous
370
    -3
390
F
347
3E
  0
LAYER
  5
40
330
2
100
AcDbSymbolTableRecord
100
AcDbLayerTableRecord
  2
_U+30EC_U+30A4_U+30E4_U+30FC 1
 70
     0
 62
     7
  6
Continuous
370
    -3
390
F
347
3E
  0
ENDTAB
  0
TABLE
  2
STYLE
  5
3
330
0
100
AcDbSymbolTable
 70
     1
  0
STYLE
  5
11
330
3
100
AcDbSymbolTableRecord
100
AcDbTextStyleTableRecord
  2
Standard
 70
     0
 40
0.0
 41
1.0
 50
0.0
 71
     0
 42
0.2
  3
txt
  4

  0
ENDTAB
  0
TABLE
  2
VIEW
  5
6
330
0
100
AcDbSymbolTable
 70
     0
  0
ENDTAB
  0
TABLE
  2
UCS
  5
7
330
0
100
AcDbSymbolTable
 70
     0
  0
ENDTAB
  0
TABLE
  2
APPID
  5
9
330
0
100
AcDbSymbolTable
 70
     1
  0
APPID
  5
12
330
9
100
AcDbSymbolTableRecord
100
AcDbRegAppTableRecord
  2
ACAD
 70
     0
  0
ENDTAB
  0
TABLE
  2
DIMSTYLE
  5
A
330
0
100
AcDbSymbolTable
 70
     1
100
AcDbDimStyleTable
  0
DIMSTYLE
105
27
330
A
100
AcDbSymbolTableRecord
100
AcDbDimStyleTableRecord
  2
Standard
 70
     0
178
     0
340
11
  0
ENDTAB
  0
TABLE
  2
BLOCK_RECORD
  5
1
330
0
100
AcDbSymbolTable
 70
     9
  0
BLOCK_RECORD
  5
1F
330
1
100
AcDbSymbolTableRecord
100
AcDbBlockTableRecord
  2
*Model_Space
340
22
 70
     0
280
     1
281
     0
  0
BLOCK_RECORD
  5
1B
330
1
100
AcDbSymbolTableRecord
100
AcDbBlockTableRecord
  2
*Paper_Space
340
1E
 70
     0
280
     1
281
     0
  0
BLOCK_RECORD
  5
23
330
1
100
AcDbSymbolTableRecord
100
AcDbBlockTableRecord
  2
*Paper_Space0
340
26
 70
     0
280
     1
281
     0
  0
BLOCK_RECORD
  5
73
330
1
100
AcDbSymbolTableRecord
100
AcDbBlockTableRecord
  2
block 2
340
0
102
{BLKREFS
331
74
102
}
 70
     0
280
     1
281
     0
  0
BLOCK_RECORD
  5
81
330
1
100
AcDbSymbolTableRecord
100
AcDbBlockTableRecord
  2
block 3
340
0
102
{BLKREFS
331
82
102
}
 70
     0
280
     1
281
     0
  0
BLOCK_RECORD
  5
93
330
1
100
AcDbSymbolTableRecord
100
AcDbBlockTableRecord
  2
block 4
340
0
102
{BLKREFS
331
94
102
}
 70
     0
280
     1
281
     0
  0
BLOCK_RECORD
  5
A8
330
1
100
AcDbSymbolTableRecord
100
AcDbBlockTableRecord
  2
block 5
340
0
102
{BLKREFS
331
A9
102
}
 70
     0
280
     1
281
     0
  0
BLOCK_RECORD
  5
C1
330
1
100
AcDbSymbolTableRecord
100
AcDbBlockTableRecord
  2
block 6
340
0
102
{BLKREFS
331
C2
102
}
 70
     0
280
     1
281
     0
  0
BLOCK_RECORD
  5
D2
330
1
100
AcDbSymbolTableRecord
100
AcDbBlockTableRecord
  2
block 7
340
0
102
{BLKREFS
331
D3
102
}
 70
     0
280
     1
281
     0
  0
BLOCK_RECORD
  5
F9
330
1
100
AcDbSymbolTableRecord
100
AcDbBlockTableRecord
  2
block 8
340
0
102
{BLKREFS
331
FA
102
}
 70
     0
280
     1
281
     0
  0
BLOCK_RECORD
  5
109
330
1
100
AcDbSymbolTableRecord
100
AcDbBlockTableRecord
  2
block 9
340
0
102
{BLKREFS
331
10A
102
}
 70
     0
280
     1
281
     0
  0
ENDTAB
  0
ENDSEC
  0
SECTION
  2
BLOCKS
  0
BLOCK
  5
20
330
1F
100
AcDbEntity
  8
0
100
AcDbBlockBegin
  2
*Model_Space
 70
     0
 10
0.0
 20
0.0
 30
0.0
  3
*Model_Space
  1

  0
ENDBLK
  5
21
330
1F
100
AcDbEntity
  8
0
100
AcDbBlockEnd
  0
BLOCK
  5
1C
330
1B
100
AcDbEntity
 67
     1
  8
0
100
AcDbBlockBegin
  2
*Paper_Space
 70
     0
 10
0.0
 20
0.0
 30
0.0
  3
*Paper_Space
  1

  0
ENDBLK
  5
1D
330
1B
100
AcDbEntity
 67
     1
  8
0
100
AcDbBlockEnd
  0
BLOCK
  5
24
330
23
100
AcDbEntity
  8
0
100
AcDbBlockBegin
  2
*Paper_Space0
 70
     0
 10
0.0
 20
0.0
 30
0.0
  3
*Paper_Space0
  1

  0
ENDBLK
  5
25
330
23
100
AcDbEntity
  8
0
100
AcDbBlockEnd
  0
BLOCK
  5
75
330
73
100
AcDbEntity
  8
0
100
AcDbBlockBegin
  2
block 2
 70
     0
 10
0.0
 20
0.0
 30
0.0
  3
block 2
  1

  0
SPLINE
  5
77
330
73
100
AcDbEntity
  8
_U+30EC_U+30A4_U+30E4_U+30FC 1
370
     0
100
AcDbSpline
210
0.0
220
0.0
230
1.0
 70
    11
 71
     3
 72
    62
 73
    58
 74
     0
 42
0.0000000001
 43
0.0000000001
 12
1.0
 22
0.0
 32
0.0
 13
1.0
 23
0.0
 33
0.0
 40
0.0
 40
0.0
 40
0.0
 40
0.0
 40
1.0
 40
1.0
 40
1.0
 40
2.0
 40
2.0
 40
2.0
 40
3.0
 40
3.0
 40
3.0
 40
4.0
 40
4.0
 40
4.0
 40
5.0
 40
5.0
 40
5.0
 40
6.0
 40
6.0
 40
6.0
 40
7.0
 40
7.0
 40
7.0
 40
8.0
 40
8.0
 40
8.0
 40
9.0
 40
9.0
 40
9.0
 40
10.0
 40
10.0
 40
10.0
 40
11.0
 40
11.0
 40
11.0
 40
12.0
 40
12.0
 40
12.0
 40
13.0
 40
13.0
 40
13.0
 40
14.0
 40
14.0
 40
14.0
 40
15.0
 40
15.0
 40
15.0
 40
16.0
 40
16.0
 40
16.0
 40
17.0
 40
17.0
 40
17.0
 40
18.0
 40
18.0
 40
18.0
 40
19.0
 40
19.0
 40
19.0
 40
19.0
 10
86.0338527888214
 20
-130.6080484699522
 30
0.0
 10
85.93859589865424
 20
-130.6080484699522
 30
0.0
 10
85.72069360921219
 20
-130.5870333874921
 30
0.0
 10
85.59598115264615
 20
-130.4009982312886
 30
0.0
 10
85.52191159971328
 20
-130.2886881184695
 30
0.0
 10
85.51760523035671
 20
-130.1894693684943
 30
0.0
 10
85.51347111577441
 20
-130.1047200195572
 30
0.0
 10
85.51347111577441
 20
-130.1047200195572
 30
0.0
 10
85.73344046250762
 20
-130.1047200195572
 30
0.0
 10
85.73344046250762
 20
-130.1047200195572
 30
0.0
 10
85.73550751979876
 20
-130.17878957249
 30
0.0
 10
85.74618731580304
 20
-130.4134005750356
 30
0.0
 10
86.02954641946484
 20
-130.4134005750356
 30
0.0
 10
86.16717798410058
 20
-130.4134005750356
 30
0.0
 10
86.31945120454861
 20
-130.3438096462335
 30
0.0
 10
86.31945120454861
 20
-130.1153998155614
 30
0.0
 10
86.31945120454861
 20
-129.99895558816
 30
0.0
 10
86.28138289943661
 20
-129.950379741818
 30
0.0
 10
86.2496880209723
 20
-129.9186848633537
 30
0.0
 10
86.17561846803943
 20
-129.8446153104208
 30
0.0
 10
86.05917424063799
 20
-129.8318684571254
 30
0.0
 10
86.00422496764826
 20
-129.8318684571254
 30
0.0
 10
85.98527694247937
 20
-129.8318684571254
 30
0.0
 10
85.94927569465852
 20
-129.8339355144165
 30
0.0
 10
85.92171493077652
 20
-129.8380696289988
 30
0.0
 10
85.92171493077652
 20
-129.8380696289988
 30
0.0
 10
85.92171493077652
 20
-129.6434217340822
 30
0.0
 10
85.92171493077652
 20
-129.6434217340822
 30
0.0
 10
85.95978323588854
 20
-129.6499674155042
 30
0.0
 10
86.0021579103571
 20
-129.6520344727953
 30
0.0
 10
86.00853133700481
 20
-129.6520344727953
 30
0.0
 10
86.07398815122457
 20
-129.6520344727953
 30
0.0
 10
86.27294241549774
 20
-129.6306748807868
 30
0.0
 10
86.27294241549774
 20
-129.3939968209501
 30
0.0
 10
86.27294241549774
 20
-129.2162298939112
 30
0.0
 10
86.14168427750973
 20
-129.1611083661472
 30
0.0
 10
86.03178573153025
 20
-129.1611083661472
 30
0.0
 10
85.76737465303732
 20
-129.1611083661472
 30
0.0
 10
85.7587619143242
 20
-129.3939968209501
 30
0.0
 10
85.7546277997419
 20
-129.4656548070433
 30
0.0
 10
85.7546277997419
 20
-129.4656548070433
 30
0.0
 10
85.55153942088643
 20
-129.4656548070433
 30
0.0
 10
85.55153942088643
 20
-129.4656548070433
 30
0.0
 10
85.55997990482528
 20
-129.3409423504773
 30
0.0
 10
85.58754066870729
 20
-128.9643934139395
 30
0.0
 10
86.04436033005142
 20
-128.9643934139395
 30
0.0
 10
86.26863604614118
 20
-128.9643934139395
 30
0.0
 10
86.50979273010867
 20
-129.0915174373452
 30
0.0
 10
86.50979273010867
 20
-129.3874511395281
 30
0.0
 10
86.50979273010867
 20
-129.5738308052802
 30
0.0
 10
86.41470809471578
 20
-129.6561685873776
 30
0.0
 10
86.31514483519206
 20
-129.7174912870151
 30
0.0
 10
86.37663978960376
 20
-129.7450520508971
 30
0.0
 10
86.55854083122495
 20
-129.8253227757034
 30
0.0
 10
86.55854083122495
 20
-130.102652962266
 30
0.0
 10
86.55854083122495
 20
-130.4409613389175
 30
0.0
 10
86.31101072060976
 20
-130.6080484699522
 30
0.0
 10
86.0338527888214
 20
-130.6080484699522
 30
0.0
  0
HATCH
  5
78
330
73
100
AcDbEntity
  8
_U+30EC_U+30A4_U+30E4_U+30FC 1
 62
     7
420
 16777215
100
AcDbHatch
 10
0.0
 20
0.0
 30
0.0
210
0.0
220
0.0
230
1.0
  2
SOLID
 70
     1
 71
     0
 91
        1
 92
        1
 93
        1
 72
     4
 94
        3
 73
     0
 74
     1
 95
       62
 96
       58
 40
0.0
 40
0.0
 40
0.0
 40
0.0
 40
1.0
 40
1.0
 40
1.0
 40
2.0
 40
2.0
 40
2.0
 40
3.0
 40
3.0
 40
3.0
 40
4.0
 40
4.0
 40
4.0
 40
5.0
 40
5.0
 40
5.0
 40
6.0
 40
6.0
 40
6.0
 40
7.0
 40
7.0
 40
7.0
 40
8.0
 40
8.0
 40
8.0
 40
9.0
 40
9.0
 40
9.0
 40
10.0
 40
10.0
 40
10.0
 40
11.0
 40
11.0
 40
11.0
 40
12.0
 40
12.0
 40
12.0
 40
13.0
 40
13.0
 40
13.0
 40
14.0
 40
14.0
 40
14.0
 40
15.0
 40
15.0
 40
15.0
 40
16.0
 40
16.0
 40
16.0
 40
17.0
 40
17.0
 40
17.0
 40
18.0
 40
18.0
 40
18.0
 40
19.0
 40
19.0
 40
19.0
 40
19.0
 10
86.0338527888214
 20
-130.6080484699522
 10
85.93859589865424
 20
-130.6080484699522
 10
85.72069360921219
 20
-130.5870333874921
 10
85.59598115264615
 20
-130.4009982312886
 10
85.52191159971328
 20
-130.2886881184695
 10
85.51760523035671
 20
-130.1894693684943
 10
85.51347111577441
 20
-130.1047200195572
 10
85.51347111577441
 20
-130.1047200195572
 10
85.73344046250762
 20
-130.1047200195572
 10
85.73344046250762
 20
-130.1047200195572
 10
85.73550751979876
 20
-130.17878957249
 10
85.74618731580304
 20
-130.4134005750356
 10
86.02954641946484
 20
-130.4134005750356
 10
86.16717798410058
 20
-130.4134005750356
 10
86.31945120454861
 20
-130.3438096462335
 10
86.31945120454861
 20
-130.1153998155614
 10
86.31945120454861
 20
-129.99895558816
 10
86.28138289943661
 20
-129.950379741818
 10
86.2496880209723
 20
-129.9186848633537
 10
86.17561846803943
 20
-129.8446153104208
 10
86.05917424063799
 20
-129.8318684571254
 10
86.00422496764826
 20
-129.8318684571254
 10
85.98527694247937
 20
-129.8318684571254
 10
85.94927569465852
 20
-129.8339355144165
 10
85.92171493077652
 20
-129.8380696289988
 10
85.92171493077652
 20
-129.8380696289988
 10
85.92171493077652
 20
-129.6434217340822
 10
85.92171493077652
 20
-129.6434217340822
 10
85.95978323588854
 20
-129.6499674155042
 10
86.0021579103571
 20
-129.6520344727953
 10
86.00853133700481
 20
-129.6520344727953
 10
86.07398815122457
 20
-129.6520344727953
 10
86.27294241549774
 20
-129.6306748807868
 10
86.27294241549774
 20
-129.3939968209501
 10
86.27294241549774
 20
-129.2162298939112
 10
86.14168427750973
 20
-129.1611083661472
 10
86.03178573153025
 20
-129.1611083661472
 10
85.76737465303732
 20
-129.1611083661472
 10
85.7587619143242
 20
-129.3939968209501
 10
85.7546277997419
 20
-129.4656548070433
 10
85.7546277997419
 20
-129.4656548070433
 10
85.55153942088643
 20
-129.4656548070433
 10
85.55153942088643
 20
-129.4656548070433
 10
85.55997990482528
 20
-129.3409423504773
 10
85.58754066870729
 20
-128.9643934139395
 10
86.04436033005142
 20
-128.9643934139395
 10
86.26863604614118
 20
-128.9643934139395
 10
86.50979273010867
 20
-129.0915174373452
 10
86.50979273010867
 20
-129.3874511395281
 10
86.50979273010867
 20
-129.5738308052802
 10
86.41470809471578
 20
-129.6561685873776
 10
86.31514483519206
 20
-129.7174912870151
 10
86.37663978960376
 20
-129.7450520508971
 10
86.55854083122495
 20
-129.8253227757034
 10
86.55854083122495
 20
-130.102652962266
 10
86.55854083122495
 20
-130.4409613389175
 10
86.31101072060976
 20
-130.6080484699522
 10
86.0338527888214
 20
-130.6080484699522
 97
        0
 97
        0
 75
     2
 76
     1
 98
        0
  0
ENDBLK
  5
76
330
73
100
AcDbEntity
  8
0
100
AcDbBlockEnd
  0
BLOCK
  5
83
330
81
100
AcDbEntity
  8
0
100
AcDbBlockBegin
  2
block 3
 70
     0
 10
0.0
 20
0.0
 30
0.0
  3
block 3
  1

  0
SPLINE
  5
85
330
81
100
AcDbEntity
  8
_U+30EC_U+30A4_U+30E4_U+30FC 1
370
     0
100
AcDbSpline
210
0.0
220
0.0
230
1.0
 70
    11
 71
     3
 72
    26
 73
    22
 74
     0
 42
0.0000000001
 43
0.0000000001
 12
1.0
 22
0.0
 32
0.0
 13
1.0
 23
0.0
 33
0.0
 40
0.0
 40
0.0
 40
0.0
 40
0.0
 40
1.0
 40
1.0
 40
1.0
 40
2.0
 40
2.0
 40
2.0
 40
3.0
 40
3.0
 40
3.0
 40
4.0
 40
4.0
 40
4.0
 40
5.0
 40
5.0
 40
5.0
 40
6.0
 40
6.0
 40
6.0
 40
7.0
 40
7.0
 40
7.0
 40
7.0
 10
90.95293237743539
 20
-130.557405566319
 30
0.0
 10
90.95293237743539
 20
-130.557405566319
 30
0.0
 10
90.71608206282446
 20
-130.557405566319
 30
0.0
 10
90.71608206282446
 20
-130.557405566319
 30
0.0
 10
90.74140351464104
 20
-130.2483805012921
 30
0.0
 10
90.9339843522665
 20
-129.7302381403105
 30
0.0
 10
91.34016110997746
 20
-129.2244981230758
 30
0.0
 10
91.34016110997746
 20
-129.2244981230758
 30
0.0
 10
90.5023138879647
 20
-129.2244981230758
 30
0.0
 10
90.5023138879647
 20
-129.2244981230758
 30
0.0
 10
90.5023138879647
 20
-129.2244981230758
 30
0.0
 10
90.5023138879647
 20
-129.0129692602815
 30
0.0
 10
90.5023138879647
 20
-129.0129692602815
 30
0.0
 10
90.5023138879647
 20
-129.0129692602815
 30
0.0
 10
91.57718367936265
 20
-129.0129692602815
 30
0.0
 10
91.57718367936265
 20
-129.0129692602815
 30
0.0
 10
91.57718367936265
 20
-129.0129692602815
 30
0.0
 10
91.57718367936265
 20
-129.2244981230758
 30
0.0
 10
91.57718367936265
 20
-129.2244981230758
 30
0.0
 10
91.25334470374916
 20
-129.5145751629339
 30
0.0
 10
90.9868665679651
 20
-130.1067870768483
 30
0.0
 10
90.95293237743539
 20
-130.557405566319
 30
0.0
  0
HATCH
  5
86
330
81
100
AcDbEntity
  8
_U+30EC_U+30A4_U+30E4_U+30FC 1
 62
     7
420
 16777215
100
AcDbHatch
 10
0.0
 20
0.0
 30
0.0
210
0.0
220
0.0
230
1.0
  2
SOLID
 70
     1
 71
     0
 91
        1
 92
        1
 93
        1
 72
     4
 94
        3
 73
     0
 74
     1
 95
       26
 96
       22
 40
0.0
 40
0.0
 40
0.0
 40
0.0
 40
1.0
 40
1.0
 40
1.0
 40
2.0
 40
2.0
 40
2.0
 40
3.0
 40
3.0
 40
3.0
 40
4.0
 40
4.0
 40
4.0
 40
5.0
 40
5.0
 40
5.0
 40
6.0
 40
6.0
 40
6.0
 40
7.0
 40
7.0
 40
7.0
 40
7.0
 10
90.95293237743539
 20
-130.557405566319
 10
90.95293237743539
 20
-130.557405566319
 10
90.71608206282446
 20
-130.557405566319
 10
90.71608206282446
 20
-130.557405566319
 10
90.74140351464104
 20
-130.2483805012921
 10
90.9339843522665
 20
-129.7302381403105
 10
91.34016110997746
 20
-129.2244981230758
 10
91.34016110997746
 20
-129.2244981230758
 10
90.5023138879647
 20
-129.2244981230758
 10
90.5023138879647
 20
-129.2244981230758
 10
90.5023138879647
 20
-129.2244981230758
 10
90.5023138879647
 20
-129.0129692602815
 10
90.5023138879647
 20
-129.0129692602815
 10
90.5023138879647
 20
-129.0129692602815
 10
91.57718367936265
 20
-129.0129692602815
 10
91.57718367936265
 20
-129.0129692602815
 10
91.57718367936265
 20
-129.0129692602815
 10
91.57718367936265
 20
-129.2244981230758
 10
91.57718367936265
 20
-129.2244981230758
 10
91.25334470374916
 20
-129.5145751629339
 10
90.9868665679651
 20
-130.1067870768483
 10
90.95293237743539
 20
-130.557405566319
 97
        0
 97
        0
 75
     2
 76
     1
 98
        0
  0
ENDBLK
  5
84
330
81
100
AcDbEntity
  8
0
100
AcDbBlockEnd
  0
BLOCK
  5
95
330
93
100
AcDbEntity
  8
0
100
AcDbBlockBegin
  2
block 4
 70
     0
 10
0.0
 20
0.0
 30
0.0
  3
block 4
  1

  0
SPLINE
  5
97
330
93
100
AcDbEntity
  8
_U+30EC_U+30A4_U+30E4_U+30FC 1
370
     0
100
AcDbSpline
210
0.0
220
0.0
230
1.0
 70
    11
 71
     3
 72
    44
 73
    40
 74
     0
 42
0.0000000001
 43
0.0000000001
 12
1.0
 22
0.0
 32
0.0
 13
1.0
 23
0.0
 33
0.0
 40
0.0
 40
0.0
 40
0.0
 40
0.0
 40
1.0
 40
1.0
 40
1.0
 40
2.0
 40
2.0
 40
2.0
 40
3.0
 40
3.0
 40
3.0
 40
4.0
 40
4.0
 40
4.0
 40
5.0
 40
5.0
 40
5.0
 40
6.0
 40
6.0
 40
6.0
 40
7.0
 40
7.0
 40
7.0
 40
8.0
 40
8.0
 40
8.0
 40
9.0
 40
9.0
 40
9.0
 40
10.0
 40
10.0
 40
10.0
 40
11.0
 40
11.0
 40
11.0
 40
12.0
 40
12.0
 40
12.0
 40
13.0
 40
13.0
 40
13.0
 40
13.0
 10
79.36156410776378
 20
-145.6493353585529
 30
0.0
 10
79.52021075485953
 20
-145.8670653932207
 30
0.0
 10
79.5942803077924
 20
-145.9600829713225
 30
0.0
 10
79.73811304430158
 20
-146.009003327213
 30
0.0
 10
79.73811304430158
 20
-146.009003327213
 30
0.0
 10
79.73811304430158
 20
-145.2304117475466
 30
0.0
 10
79.73811304430158
 20
-145.2304117475466
 30
0.0
 10
79.73811304430158
 20
-145.2304117475466
 30
0.0
 10
79.94326848044821
 20
-145.2304117475466
 30
0.0
 10
79.94326848044821
 20
-145.2304117475466
 30
0.0
 10
79.94326848044821
 20
-145.2304117475466
 30
0.0
 10
79.94326848044821
 20
-146.2584282403451
 30
0.0
 10
79.94326848044821
 20
-146.2584282403451
 30
0.0
 10
79.58566756907928
 20
-146.2267333618808
 30
0.0
 10
79.50746390156411
 20
-146.1612765476611
 30
0.0
 10
79.20911863254148
 20
-145.7761148724101
 30
0.0
 10
79.01033662304256
 20
-145.5201442778561
 30
0.0
 10
78.9426404967574
 20
-145.4546874636363
 30
0.0
 10
78.80518118689594
 20
-145.4546874636363
 30
0.0
 10
78.68666990220333
 20
-145.4546874636363
 30
0.0
 10
78.55541176421532
 20
-145.5266899592781
 30
0.0
 10
78.55541176421532
 20
-145.7234049114858
 30
0.0
 10
78.55541176421532
 20
-145.9835096206222
 30
0.0
 10
78.7860609069528
 20
-145.9921223593353
 30
0.0
 10
78.90250513435424
 20
-145.9962564739176
 30
0.0
 10
78.90250513435424
 20
-145.9962564739176
 30
0.0
 10
78.90250513435424
 20
-146.2205321900074
 30
0.0
 10
78.90250513435424
 20
-146.2205321900074
 30
0.0
 10
78.77555336572279
 20
-146.2119194512942
 30
0.0
 10
78.6634155076779
 20
-146.20123965529
 30
0.0
 10
78.54490422298531
 20
-146.1209689304837
 30
0.0
 10
78.3841905185984
 20
-146.0110703845042
 30
0.0
 10
78.3502563280687
 20
-145.8246907187522
 30
0.0
 10
78.3502563280687
 20
-145.7085910008992
 30
0.0
 10
78.3502563280687
 20
-145.4312608143366
 30
0.0
 10
78.5343966817553
 20
-145.2238660661246
 30
0.0
 10
78.80724824418708
 20
-145.2238660661246
 30
0.0
 10
79.03565807485914
 20
-145.2238660661246
 30
0.0
 10
79.13522133438286
 20
-145.340310293526
 30
0.0
 10
79.36156410776378
 20
-145.6493353585529
 30
0.0
  0
HATCH
  5
98
330
93
100
AcDbEntity
  8
_U+30EC_U+30A4_U+30E4_U+30FC 1
 62
     7
420
 16777215
100
AcDbHatch
 10
0.0
 20
0.0
 30
0.0
210
0.0
220
0.0
230
1.0
  2
SOLID
 70
     1
 71
     0
 91
        1
 92
        1
 93
        1
 72
     4
 94
        3
 73
     0
 74
     1
 95
       44
 96
       40
 40
0.0
 40
0.0
 40
0.0
 40
0.0
 40
1.0
 40
1.0
 40
1.0
 40
2.0
 40
2.0
 40
2.0
 40
3.0
 40
3.0
 40
3.0
 40
4.0
 40
4.0
 40
4.0
 40
5.0
 40
5.0
 40
5.0
 40
6.0
 40
6.0
 40
6.0
 40
7.0
 40
7.0
 40
7.0
 40
8.0
 40
8.0
 40
8.0
 40
9.0
 40
9.0
 40
9.0
 40
10.0
 40
10.0
 40
10.0
 40
11.0
 40
11.0
 40
11.0
 40
12.0
 40
12.0
 40
12.0
 40
13.0
 40
13.0
 40
13.0
 40
13.0
 10
79.36156410776378
 20
-145.6493353585529
 10
79.52021075485953
 20
-145.8670653932207
 10
79.5942803077924
 20
-145.9600829713225
 10
79.73811304430158
 20
-146.009003327213
 10
79.73811304430158
 20
-146.009003327213
 10
79.73811304430158
 20
-145.2304117475466
 10
79.73811304430158
 20
-145.2304117475466
 10
79.73811304430158
 20
-145.2304117475466
 10
79.94326848044821
 20
-145.2304117475466
 10
79.94326848044821
 20
-145.2304117475466
 10
79.94326848044821
 20
-145.2304117475466
 10
79.94326848044821
 20
-146.2584282403451
 10
79.94326848044821
 20
-146.2584282403451
 10
79.58566756907928
 20
-146.2267333618808
 10
79.50746390156411
 20
-146.1612765476611
 10
79.20911863254148
 20
-145.7761148724101
 10
79.01033662304256
 20
-145.5201442778561
 10
78.9426404967574
 20
-145.4546874636363
 10
78.80518118689594
 20
-145.4546874636363
 10
78.68666990220333
 20
-145.4546874636363
 10
78.55541176421532
 20
-145.5266899592781
 10
78.55541176421532
 20
-145.7234049114858
 10
78.55541176421532
 20
-145.9835096206222
 10
78.7860609069528
 20
-145.9921223593353
 10
78.90250513435424
 20
-145.9962564739176
 10
78.90250513435424
 20
-145.9962564739176
 10
78.90250513435424
 20
-146.2205321900074
 10
78.90250513435424
 20
-146.2205321900074
 10
78.77555336572279
 20
-146.2119194512942
 10
78.6634155076779
 20
-146.20123965529
 10
78.54490422298531
 20
-146.1209689304837
 10
78.3841905185984
 20
-146.0110703845042
 10
78.3502563280687
 20
-145.8246907187522
 10
78.3502563280687
 20
-145.7085910008992
 10
78.3502563280687
 20
-145.4312608143366
 10
78.5343966817553
 20
-145.2238660661246
 10
78.80724824418708
 20
-145.2238660661246
 10
79.03565807485914
 20
-145.2238660661246
 10
79.13522133438286
 20
-145.340310293526
 10
79.36156410776378
 20
-145.6493353585529
 97
        0
 97
        0
 75
     2
 76
     1
 98
        0
  0
SPLINE
  5
99
330
93
100
AcDbEntity
  8
_U+30EC_U+30A4_U+30E4_U+30FC 1
370
     0
100
AcDbSpline
210
0.0
220
0.0
230
1.0
 70
    11
 71
     3
 72
    29
 73
    25
 74
     0
 42
0.0000000001
 43
0.0000000001
 12
1.0
 22
0.0
 32
0.0
 13
1.0
 23
0.0
 33
0.0
 40
0.0
 40
0.0
 40
0.0
 40
0.0
 40
1.0
 40
1.0
 40
1.0
 40
2.0
 40
2.0
 40
2.0
 40
3.0
 40
3.0
 40
3.0
 40
4.0
 40
4.0
 40
4.0
 40
5.0
 40
5.0
 40
5.0
 40
6.0
 40
6.0
 40
6.0
 40
7.0
 40
7.0
 40
7.0
 40
8.0
 40
8.0
 40
8.0
 40
8.0
 10
79.76550155340932
 20
-144.167599790347
 30
0.0
 10
79.97496335891252
 20
-144.2757757885838
 30
0.0
 10
79.99408363885566
 20
-144.4490640914919
 30
0.0
 10
79.99408363885566
 20
-144.5655083188934
 30
0.0
 10
79.99408363885566
 20
-144.7263942780545
 30
0.0
 10
79.94757484980478
 20
-144.8679877024983
 30
0.0
 10
79.76550155340932
 20
-144.9630723378912
 30
0.0
 10
79.57102591326696
 20
-145.0667697119972
 30
0.0
 10
79.33400334388178
 20
-145.0860622467146
 30
0.0
 10
79.17105032742947
 20
-145.0860622467146
 30
0.0
 10
79.02721759092029
 20
-145.0860622467146
 30
0.0
 10
78.77555336572279
 20
-145.0688367692883
 30
0.0
 10
78.5765991014496
 20
-144.9630723378912
 30
0.0
 10
78.37351072259412
 20
-144.8552408492029
 30
0.0
 10
78.3502563280687
 20
-144.6943548900417
 30
0.0
 10
78.3502563280687
 20
-144.5655083188934
 30
0.0
 10
78.3502563280687
 20
-144.4066894170233
 30
0.0
 10
78.39469805982841
 20
-144.2630289352884
 30
0.0
 10
78.5765991014496
 20
-144.167599790347
 30
0.0
 10
78.76917993907507
 20
-144.0683810403718
 30
0.0
 10
78.99758976974714
 20
-144.0449543910721
 30
0.0
 10
79.17105032742947
 20
-144.0449543910721
 30
0.0
 10
79.34244382782065
 20
-144.0449543910721
 30
0.0
 10
79.57309297055812
 20
-144.0663139830806
 30
0.0
 10
79.76550155340932
 20
-144.167599790347
 30
0.0
  0
SPLINE
  5
9A
330
93
100
AcDbEntity
  8
_U+30EC_U+30A4_U+30E4_U+30FC 1
370
     0
100
AcDbSpline
210
0.0
220
0.0
230
1.0
 70
    11
 71
     3
 72
    17
 73
    13
 74
     0
 42
0.0000000001
 43
0.0000000001
 12
1.0
 22
0.0
 32
0.0
 13
1.0
 23
0.0
 33
0.0
 40
0.0
 40
0.0
 40
0.0
 40
0.0
 40
1.0
 40
1.0
 40
1.0
 40
2.0
 40
2.0
 40
2.0
 40
3.0
 40
3.0
 40
3.0
 40
4.0
 40
4.0
 40
4.0
 40
4.0
 10
78.54283716569415
 20
-144.5655083188934
 30
0.0
 10
78.54283716569415
 20
-144.815277741574
 30
0.0
 10
78.82619626935596
 20
-144.8617865306248
 30
0.0
 10
79.17105032742947
 20
-144.8617865306248
 30
0.0
 10
79.49058293368638
 20
-144.8617865306248
 30
0.0
 10
79.79943574393903
 20
-144.8256130280297
 30
0.0
 10
79.79943574393903
 20
-144.5655083188934
 30
0.0
 10
79.79943574393903
 20
-144.3178059535039
 30
0.0
 10
79.51797144279412
 20
-144.2692301071619
 30
0.0
 10
79.17105032742947
 20
-144.2692301071619
 30
0.0
 10
78.8516899759468
 20
-144.2692301071619
 30
0.0
 10
78.54283716569415
 20
-144.3074706670481
 30
0.0
 10
78.54283716569415
 20
-144.5655083188934
 30
0.0
  0
HATCH
  5
9B
330
93
100
AcDbEntity
  8
_U+30EC_U+30A4_U+30E4_U+30FC 1
 62
     7
420
 16777215
100
AcDbHatch
 10
0.0
 20
0.0
 30
0.0
210
0.0
220
0.0
230
1.0
  2
SOLID
 70
     1
 71
     0
 91
        2
 92
        1
 93
        1
 72
     4
 94
        3
 73
     0
 74
     1
 95
       29
 96
       25
 40
0.0
 40
0.0
 40
0.0
 40
0.0
 40
1.0
 40
1.0
 40
1.0
 40
2.0
 40
2.0
 40
2.0
 40
3.0
 40
3.0
 40
3.0
 40
4.0
 40
4.0
 40
4.0
 40
5.0
 40
5.0
 40
5.0
 40
6.0
 40
6.0
 40
6.0
 40
7.0
 40
7.0
 40
7.0
 40
8.0
 40
8.0
 40
8.0
 40
8.0
 10
79.76550155340932
 20
-144.167599790347
 10
79.97496335891252
 20
-144.2757757885838
 10
79.99408363885566
 20
-144.4490640914919
 10
79.99408363885566
 20
-144.5655083188934
 10
79.99408363885566
 20
-144.7263942780545
 10
79.94757484980478
 20
-144.8679877024983
 10
79.76550155340932
 20
-144.9630723378912
 10
79.57102591326696
 20
-145.0667697119972
 10
79.33400334388178
 20
-145.0860622467146
 10
79.17105032742947
 20
-145.0860622467146
 10
79.02721759092029
 20
-145.0860622467146
 10
78.77555336572279
 20
-145.0688367692883
 10
78.5765991014496
 20
-144.9630723378912
 10
78.37351072259412
 20
-144.8552408492029
 10
78.3502563280687
 20
-144.6943548900417
 10
78.3502563280687
 20
-144.5655083188934
 10
78.3502563280687
 20
-144.4066894170233
 10
78.39469805982841
 20
-144.2630289352884
 10
78.5765991014496
 20
-144.167599790347
 10
78.76917993907507
 20
-144.0683810403718
 10
78.99758976974714
 20
-144.0449543910721
 10
79.17105032742947
 20
-144.0449543910721
 10
79.34244382782065
 20
-144.0449543910721
 10
79.57309297055812
 20
-144.0663139830806
 10
79.76550155340932
 20
-144.167599790347
 97
        0
 97
        0
 92
        1
 93
        1
 72
     4
 94
        3
 73
     0
 74
     1
 95
       17
 96
       13
 40
0.0
 40
0.0
 40
0.0
 40
0.0
 40
1.0
 40
1.0
 40
1.0
 40
2.0
 40
2.0
 40
2.0
 40
3.0
 40
3.0
 40
3.0
 40
4.0
 40
4.0
 40
4.0
 40
4.0
 10
78.54283716569415
 20
-144.5655083188934
 10
78.54283716569415
 20
-144.815277741574
 10
78.82619626935596
 20
-144.8617865306248
 10
79.17105032742947
 20
-144.8617865306248
 10
79.49058293368638
 20
-144.8617865306248
 10
79.79943574393903
 20
-144.8256130280297
 10
79.79943574393903
 20
-144.5655083188934
 10
79.79943574393903
 20
-144.3178059535039
 10
79.51797144279412
 20
-144.2692301071619
 10
79.17105032742947
 20
-144.2692301071619
 10
78.8516899759468
 20
-144.2692301071619
 10
78.54283716569415
 20
-144.3074706670481
 10
78.54283716569415
 20
-144.5655083188934
 97
        0
 97
        0
 75
     2
 76
     1
 98
        0
  0
ENDBLK
  5
96
330
93
100
AcDbEntity
  8
0
100
AcDbBlockEnd
  0
BLOCK
  5
AA
330
A8
100
AcDbEntity
  8
0
100
AcDbBlockBegin
  2
block 5
 70
     0
 10
0.0
 20
0.0
 30
0.0
  3
block 5
  1

  0
SPLINE
  5
AC
330
A8
100
AcDbEntity
  8
_U+30EC_U+30A4_U+30E4_U+30FC 1
370
     0
100
AcDbSpline
210
0.0
220
0.0
230
1.0
 70
    11
 71
     3
 72
    62
 73
    58
 74
     0
 42
0.0000000001
 43
0.0000000001
 12
1.0
 22
0.0
 32
0.0
 13
1.0
 23
0.0
 33
0.0
 40
0.0
 40
0.0
 40
0.0
 40
0.0
 40
1.0
 40
1.0
 40
1.0
 40
2.0
 40
2.0
 40
2.0
 40
3.0
 40
3.0
 40
3.0
 40
4.0
 40
4.0
 40
4.0
 40
5.0
 40
5.0
 40
5.0
 40
6.0
 40
6.0
 40
6.0
 40
7.0
 40
7.0
 40
7.0
 40
8.0
 40
8.0
 40
8.0
 40
9.0
 40
9.0
 40
9.0
 40
10.0
 40
10.0
 40
10.0
 40
11.0
 40
11.0
 40
11.0
 40
12.0
 40
12.0
 40
12.0
 40
13.0
 40
13.0
 40
13.0
 40
14.0
 40
14.0
 40
14.0
 40
15.0
 40
15.0
 40
15.0
 40
16.0
 40
16.0
 40
16.0
 40
17.0
 40
17.0
 40
17.0
 40
18.0
 40
18.0
 40
18.0
 40
19.0
 40
19.0
 40
19.0
 40
19.0
 10
102.9942301174806
 20
-154.3247748095091
 30
0.0
 10
102.9942301174806
 20
-154.4202039544505
 30
0.0
 10
102.9732150350206
 20
-154.6379339891183
 30
0.0
 10
102.7871798788171
 20
-154.7629909552329
 30
0.0
 10
102.674869765998
 20
-154.8370605081657
 30
0.0
 10
102.5756510160228
 20
-154.841194622748
 30
0.0
 10
102.4909016670856
 20
-154.8453287373303
 30
0.0
 10
102.4909016670856
 20
-154.8453287373303
 30
0.0
 10
102.4909016670856
 20
-154.6251871358229
 30
0.0
 10
102.4909016670856
 20
-154.6251871358229
 30
0.0
 10
102.5649712200185
 20
-154.6231200785317
 30
0.0
 10
102.799582222564
 20
-154.612784792076
 30
0.0
 10
102.799582222564
 20
-154.3292534336399
 30
0.0
 10
102.799582222564
 20
-154.1917941237784
 30
0.0
 10
102.729991293762
 20
-154.0391763937819
 30
0.0
 10
102.5015814630899
 20
-154.0391763937819
 30
0.0
 10
102.3851372356884
 20
-154.0391763937819
 30
0.0
 10
102.3365613893464
 20
-154.0774169536681
 30
0.0
 10
102.3048665108821
 20
-154.1091118321324
 30
0.0
 10
102.2307969579493
 20
-154.1831813850653
 30
0.0
 10
102.2180501046538
 20
-154.2996256124668
 30
0.0
 10
102.2180501046538
 20
-154.3544026306822
 30
0.0
 10
102.2180501046538
 20
-154.3736951653997
 30
0.0
 10
102.220117161945
 20
-154.4095241584462
 30
0.0
 10
102.2242512765273
 20
-154.4370849223282
 30
0.0
 10
102.2242512765273
 20
-154.4370849223282
 30
0.0
 10
102.0296033816107
 20
-154.4370849223282
 30
0.0
 10
102.0296033816107
 20
-154.4370849223282
 30
0.0
 10
102.0361490630326
 20
-154.398844362442
 30
0.0
 10
102.0382161203238
 20
-154.3568141975219
 30
0.0
 10
102.0382161203238
 20
-154.3502685160999
 30
0.0
 10
102.0382161203238
 20
-154.2848117018802
 30
0.0
 10
102.0168565283152
 20
-154.0860296923813
 30
0.0
 10
101.7801784684786
 20
-154.0860296923813
 30
0.0
 10
101.6024115414397
 20
-154.0860296923813
 30
0.0
 10
101.5472900136757
 20
-154.2169433208208
 30
0.0
 10
101.5472900136757
 20
-154.3271863763488
 30
0.0
 10
101.5472900136757
 20
-154.5914252000674
 30
0.0
 10
101.7801784684786
 20
-154.6000379387806
 30
0.0
 10
101.8518364545718
 20
-154.6041720533628
 30
0.0
 10
101.8518364545718
 20
-154.6041720533628
 30
0.0
 10
101.8518364545718
 20
-154.8074326869926
 30
0.0
 10
101.8518364545718
 20
-154.8074326869926
 30
0.0
 10
101.7271239980057
 20
-154.7988199482795
 30
0.0
 10
101.3505750614679
 20
-154.7712591843975
 30
0.0
 10
101.3505750614679
 20
-154.3144395230534
 30
0.0
 10
101.3505750614679
 20
-154.0901638069636
 30
0.0
 10
101.4776990848736
 20
-153.8490071229961
 30
0.0
 10
101.7736327870566
 20
-153.8490071229961
 30
0.0
 10
101.9600124528086
 20
-153.8490071229961
 30
0.0
 10
102.0423502349061
 20
-153.944091758389
 30
0.0
 10
102.1036729345435
 20
-154.0436550179127
 30
0.0
 10
102.1312336984255
 20
-153.9823323182753
 30
0.0
 10
102.2115044232318
 20
-153.8004312766541
 30
0.0
 10
102.4888346097945
 20
-153.8004312766541
 30
0.0
 10
102.827142986446
 20
-153.8004312766541
 30
0.0
 10
102.9942301174806
 20
-154.047789132495
 30
0.0
 10
102.9942301174806
 20
-154.3247748095091
 30
0.0
  0
HATCH
  5
AD
330
A8
100
AcDbEntity
  8
_U+30EC_U+30A4_U+30E4_U+30FC 1
 62
     7
420
 16777215
100
AcDbHatch
 10
0.0
 20
0.0
 30
0.0
210
0.0
220
0.0
230
1.0
  2
SOLID
 70
     1
 71
     0
 91
        1
 92
        1
 93
        1
 72
     4
 94
        3
 73
     0
 74
     1
 95
       62
 96
       58
 40
0.0
 40
0.0
 40
0.0
 40
0.0
 40
1.0
 40
1.0
 40
1.0
 40
2.0
 40
2.0
 40
2.0
 40
3.0
 40
3.0
 40
3.0
 40
4.0
 40
4.0
 40
4.0
 40
5.0
 40
5.0
 40
5.0
 40
6.0
 40
6.0
 40
6.0
 40
7.0
 40
7.0
 40
7.0
 40
8.0
 40
8.0
 40
8.0
 40
9.0
 40
9.0
 40
9.0
 40
10.0
 40
10.0
 40
10.0
 40
11.0
 40
11.0
 40
11.0
 40
12.0
 40
12.0
 40
12.0
 40
13.0
 40
13.0
 40
13.0
 40
14.0
 40
14.0
 40
14.0
 40
15.0
 40
15.0
 40
15.0
 40
16.0
 40
16.0
 40
16.0
 40
17.0
 40
17.0
 40
17.0
 40
18.0
 40
18.0
 40
18.0
 40
19.0
 40
19.0
 40
19.0
 40
19.0
 10
102.9942301174806
 20
-154.3247748095091
 10
102.9942301174806
 20
-154.4202039544505
 10
102.9732150350206
 20
-154.6379339891183
 10
102.7871798788171
 20
-154.7629909552329
 10
102.674869765998
 20
-154.8370605081657
 10
102.5756510160228
 20
-154.841194622748
 10
102.4909016670856
 20
-154.8453287373303
 10
102.4909016670856
 20
-154.8453287373303
 10
102.4909016670856
 20
-154.6251871358229
 10
102.4909016670856
 20
-154.6251871358229
 10
102.5649712200185
 20
-154.6231200785317
 10
102.799582222564
 20
-154.612784792076
 10
102.799582222564
 20
-154.3292534336399
 10
102.799582222564
 20
-154.1917941237784
 10
102.729991293762
 20
-154.0391763937819
 10
102.5015814630899
 20
-154.0391763937819
 10
102.3851372356884
 20
-154.0391763937819
 10
102.3365613893464
 20
-154.0774169536681
 10
102.3048665108821
 20
-154.1091118321324
 10
102.2307969579493
 20
-154.1831813850653
 10
102.2180501046538
 20
-154.2996256124668
 10
102.2180501046538
 20
-154.3544026306822
 10
102.2180501046538
 20
-154.3736951653997
 10
102.220117161945
 20
-154.4095241584462
 10
102.2242512765273
 20
-154.4370849223282
 10
102.2242512765273
 20
-154.4370849223282
 10
102.0296033816107
 20
-154.4370849223282
 10
102.0296033816107
 20
-154.4370849223282
 10
102.0361490630326
 20
-154.398844362442
 10
102.0382161203238
 20
-154.3568141975219
 10
102.0382161203238
 20
-154.3502685160999
 10
102.0382161203238
 20
-154.2848117018802
 10
102.0168565283152
 20
-154.0860296923813
 10
101.7801784684786
 20
-154.0860296923813
 10
101.6024115414397
 20
-154.0860296923813
 10
101.5472900136757
 20
-154.2169433208208
 10
101.5472900136757
 20
-154.3271863763488
 10
101.5472900136757
 20
-154.5914252000674
 10
101.7801784684786
 20
-154.6000379387806
 10
101.8518364545718
 20
-154.6041720533628
 10
101.8518364545718
 20
-154.6041720533628
 10
101.8518364545718
 20
-154.8074326869926
 10
101.8518364545718
 20
-154.8074326869926
 10
101.7271239980057
 20
-154.7988199482795
 10
101.3505750614679
 20
-154.7712591843975
 10
101.3505750614679
 20
-154.3144395230534
 10
101.3505750614679
 20
-154.0901638069636
 10
101.4776990848736
 20
-153.8490071229961
 10
101.7736327870566
 20
-153.8490071229961
 10
101.9600124528086
 20
-153.8490071229961
 10
102.0423502349061
 20
-153.944091758389
 10
102.1036729345435
 20
-154.0436550179127
 10
102.1312336984255
 20
-153.9823323182753
 10
102.2115044232318
 20
-153.8004312766541
 10
102.4888346097945
 20
-153.8004312766541
 10
102.827142986446
 20
-153.8004312766541
 10
102.9942301174806
 20
-154.047789132495
 10
102.9942301174806
 20
-154.3247748095091
 97
        0
 97
        0
 75
     2
 76
     1
 98
        0
  0
POLYLINE
  5
AE
330
A8
100
AcDbEntity
  8
_U+30EC_U+30A4_U+30E4_U+30FC 1
370
     0
100
AcDb2dPolyline
 66
     1
 10
0.0
 20
0.0
 30
0.0
  0
VERTEX
  5
AF
330
AE
100
AcDbEntity
  8
_U+30EC_U+30A4_U+30E4_U+30FC 1
370
     0
100
AcDbVertex
100
AcDb2dVertex
 10
102.9435872138474
 20
-153.5796006560496
 30
0.0
  0
VERTEX
  5
B0
330
AE
100
AcDbEntity
  8
_U+30EC_U+30A4_U+30E4_U+30FC 1
370
     0
100
AcDbVertex
100
AcDb2dVertex
 10
102.6917507338757
 20
-153.5796006560496
 30
0.0
  0
VERTEX
  5
B1
330
AE
100
AcDbEntity
  8
_U+30EC_U+30A4_U+30E4_U+30FC 1
370
     0
100
AcDbVertex
100
AcDb2dVertex
 10
102.6917507338757
 20
-153.3277641760778
 30
0.0
  0
VERTEX
  5
B2
330
AE
100
AcDbEntity
  8
_U+30EC_U+30A4_U+30E4_U+30FC 1
370
     0
100
AcDbVertex
100
AcDb2dVertex
 10
102.9435872138474
 20
-153.3277641760778
 30
0.0
  0
VERTEX
  5
B3
330
AE
100
AcDbEntity
  8
_U+30EC_U+30A4_U+30E4_U+30FC 1
370
     0
100
AcDbVertex
100
AcDb2dVertex
 10
102.9435872138474
 20
-153.5796006560496
 30
0.0
  0
SEQEND
  5
B4
330
AE
100
AcDbEntity
  8
_U+30EC_U+30A4_U+30E4_U+30FC 1
370
     0
  0
HATCH
  5
B5
330
A8
100
AcDbEntity
  8
_U+30EC_U+30A4_U+30E4_U+30FC 1
 62
     7
420
 16777215
100
AcDbHatch
 10
0.0
 20
0.0
 30
0.0
210
0.0
220
0.0
230
1.0
  2
SOLID
 70
     1
 71
     0
 91
        1
 92
        1
 93
        4
 72
     1
 10
102.9435872138474
 20
-153.5796006560496
 11
102.6917507338757
 21
-153.5796006560496
 72
     1
 10
102.6917507338757
 20
-153.5796006560496
 11
102.6917507338757
 21
-153.3277641760778
 72
     1
 10
102.6917507338757
 20
-153.3277641760778
 11
102.9435872138474
 21
-153.3277641760778
 72
     1
 10
102.9435872138474
 20
-153.3277641760778
 11
102.9435872138474
 21
-153.5796006560496
 97
        0
 75
     2
 76
     1
 98
        0
  0
SPLINE
  5
B6
330
A8
100
AcDbEntity
  8
_U+30EC_U+30A4_U+30E4_U+30FC 1
370
     0
100
AcDbSpline
210
0.0
220
0.0
230
1.0
 70
    11
 71
     3
 72
    32
 73
    28
 74
     0
 42
0.0000000001
 43
0.0000000001
 12
1.0
 22
0.0
 32
0.0
 13
1.0
 23
0.0
 33
0.0
 40
0.0
 40
0.0
 40
0.0
 40
0.0
 40
1.0
 40
1.0
 40
1.0
 40
2.0
 40
2.0
 40
2.0
 40
3.0
 40
3.0
 40
3.0
 40
4.0
 40
4.0
 40
4.0
 40
5.0
 40
5.0
 40
5.0
 40
6.0
 40
6.0
 40
6.0
 40
7.0
 40
7.0
 40
7.0
 40
8.0
 40
8.0
 40
8.0
 40
9.0
 40
9.0
 40
9.0
 40
9.0
 10
102.9942301174806
 20
-152.5870686467491
 30
0.0
 10
102.9942301174806
 20
-153.103488459988
 30
0.0
 10
102.4402587634524
 20
-153.1117566891526
 30
0.0
 10
102.2263183338184
 20
-153.1117566891526
 30
0.0
 10
101.9958414458552
 20
-153.1117566891526
 30
0.0
 10
101.3485080041768
 20
-153.0928086639838
 30
0.0
 10
101.3485080041768
 20
-152.5491725964113
 30
0.0
 10
101.3485080041768
 20
-152.3755397839547
 30
0.0
 10
101.4184434425273
 20
-152.1302489854049
 30
0.0
 10
101.7505506473054
 20
-152.0920084255187
 30
0.0
 10
101.7505506473054
 20
-152.0920084255187
 30
0.0
 10
101.7505506473054
 20
-152.3059488551527
 30
0.0
 10
101.7505506473054
 20
-152.3059488551527
 30
0.0
 10
101.6933620622503
 20
-152.3162841416084
 30
0.0
 10
101.5452229563845
 20
-152.3479790200727
 30
0.0
 10
101.5452229563845
 20
-152.5512396537025
 30
0.0
 10
101.5452229563845
 20
-152.8430392413031
 30
0.0
 10
101.8731960465803
 20
-152.8833468584806
 30
0.0
 10
102.0781792279527
 20
-152.896093711776
 30
0.0
 10
101.9999755604375
 20
-152.8030761336742
 30
0.0
 10
101.9407199180912
 20
-152.7352077526148
 30
0.0
 10
101.9407199180912
 20
-152.5533067109936
 30
0.0
 10
101.9407199180912
 20
-152.3734727266636
 30
0.0
 10
102.0488959163281
 20
-152.0709933430587
 30
0.0
 10
102.455072674039
 20
-152.0709933430587
 30
0.0
 10
102.7744330255217
 20
-152.0709933430587
 30
0.0
 10
102.9942301174806
 20
-152.2697753525576
 30
0.0
 10
102.9942301174806
 20
-152.5870686467491
 30
0.0
  0
SPLINE
  5
B7
330
A8
100
AcDbEntity
  8
_U+30EC_U+30A4_U+30E4_U+30FC 1
370
     0
100
AcDbSpline
210
0.0
220
0.0
230
1.0
 70
    11
 71
     3
 72
    17
 73
    13
 74
     0
 42
0.0000000001
 43
0.0000000001
 12
1.0
 22
0.0
 32
0.0
 13
1.0
 23
0.0
 33
0.0
 40
0.0
 40
0.0
 40
0.0
 40
0.0
 40
1.0
 40
1.0
 40
1.0
 40
2.0
 40
2.0
 40
2.0
 40
3.0
 40
3.0
 40
3.0
 40
4.0
 40
4.0
 40
4.0
 40
4.0
 10
102.1353678130078
 20
-152.5701876788713
 30
0.0
 10
102.1353678130078
 20
-152.8327039548474
 30
0.0
 10
102.3468966758022
 20
-152.8706000051851
 30
0.0
 10
102.4633409032036
 20
-152.8706000051851
 30
0.0
 10
102.6390407729514
 20
-152.8706000051851
 30
0.0
 10
102.8019937894037
 20
-152.7755153697922
 30
0.0
 10
102.8019937894037
 20
-152.5915472708799
 30
0.0
 10
102.8019937894037
 20
-152.4709689288962
 30
0.0
 10
102.7427381470574
 20
-152.2952690591484
 30
0.0
 10
102.4571397313302
 20
-152.2952690591484
 30
0.0
 10
102.2328640152404
 20
-152.2952690591484
 30
0.0
 10
102.1353678130078
 20
-152.434795426301
 30
0.0
 10
102.1353678130078
 20
-152.5701876788713
 30
0.0
  0
HATCH
  5
B8
330
A8
100
AcDbEntity
  8
_U+30EC_U+30A4_U+30E4_U+30FC 1
 62
     7
420
 16777215
100
AcDbHatch
 10
0.0
 20
0.0
 30
0.0
210
0.0
220
0.0
230
1.0
  2
SOLID
 70
     1
 71
     0
 91
        2
 92
        1
 93
        1
 72
     4
 94
        3
 73
     0
 74
     1
 95
       32
 96
       28
 40
0.0
 40
0.0
 40
0.0
 40
0.0
 40
1.0
 40
1.0
 40
1.0
 40
2.0
 40
2.0
 40
2.0
 40
3.0
 40
3.0
 40
3.0
 40
4.0
 40
4.0
 40
4.0
 40
5.0
 40
5.0
 40
5.0
 40
6.0
 40
6.0
 40
6.0
 40
7.0
 40
7.0
 40
7.0
 40
8.0
 40
8.0
 40
8.0
 40
9.0
 40
9.0
 40
9.0
 40
9.0
 10
102.9942301174806
 20
-152.5870686467491
 10
102.9942301174806
 20
-153.103488459988
 10
102.4402587634524
 20
-153.1117566891526
 10
102.2263183338184
 20
-153.1117566891526
 10
101.9958414458552
 20
-153.1117566891526
 10
101.3485080041768
 20
-153.0928086639838
 10
101.3485080041768
 20
-152.5491725964113
 10
101.3485080041768
 20
-152.3755397839547
 10
101.4184434425273
 20
-152.1302489854049
 10
101.7505506473054
 20
-152.0920084255187
 10
101.7505506473054
 20
-152.0920084255187
 10
101.7505506473054
 20
-152.3059488551527
 10
101.7505506473054
 20
-152.3059488551527
 10
101.6933620622503
 20
-152.3162841416084
 10
101.5452229563845
 20
-152.3479790200727
 10
101.5452229563845
 20
-152.5512396537025
 10
101.5452229563845
 20
-152.8430392413031
 10
101.8731960465803
 20
-152.8833468584806
 10
102.0781792279527
 20
-152.896093711776
 10
101.9999755604375
 20
-152.8030761336742
 10
101.9407199180912
 20
-152.7352077526148
 10
101.9407199180912
 20
-152.5533067109936
 10
101.9407199180912
 20
-152.3734727266636
 10
102.0488959163281
 20
-152.0709933430587
 10
102.455072674039
 20
-152.0709933430587
 10
102.7744330255217
 20
-152.0709933430587
 10
102.9942301174806
 20
-152.2697753525576
 10
102.9942301174806
 20
-152.5870686467491
 97
        0
 97
        0
 92
        1
 93
        1
 72
     4
 94
        3
 73
     0
 74
     1
 95
       17
 96
       13
 40
0.0
 40
0.0
 40
0.0
 40
0.0
 40
1.0
 40
1.0
 40
1.0
 40
2.0
 40
2.0
 40
2.0
 40
3.0
 40
3.0
 40
3.0
 40
4.0
 40
4.0
 40
4.0
 40
4.0
 10
102.1353678130078
 20
-152.5701876788713
 10
102.1353678130078
 20
-152.8327039548474
 10
102.3468966758022
 20
-152.8706000051851
 10
102.4633409032036
 20
-152.8706000051851
 10
102.6390407729514
 20
-152.8706000051851
 10
102.8019937894037
 20
-152.7755153697922
 10
102.8019937894037
 20
-152.5915472708799
 10
102.8019937894037
 20
-152.4709689288962
 10
102.7427381470574
 20
-152.2952690591484
 10
102.4571397313302
 20
-152.2952690591484
 10
102.2328640152404
 20
-152.2952690591484
 10
102.1353678130078
 20
-152.434795426301
 10
102.1353678130078
 20
-152.5701876788713
 97
        0
 97
        0
 75
     2
 76
     1
 98
        0
  0
ENDBLK
  5
AB
330
A8
100
AcDbEntity
  8
0
100
AcDbBlockEnd
  0
BLOCK
  5
C3
330
C1
100
AcDbEntity
  8
0
100
AcDbBlockBegin
  2
block 6
 70
     0
 10
0.0
 20
0.0
 30
0.0
  3
block 6
  1

  0
SPLINE
  5
C5
330
C1
100
AcDbEntity
  8
_U+30EC_U+30A4_U+30E4_U+30FC 1
370
     0
100
AcDbSpline
210
0.0
220
0.0
230
1.0
 70
    11
 71
     3
 72
    26
 73
    22
 74
     0
 42
0.0000000001
 43
0.0000000001
 12
1.0
 22
0.0
 32
0.0
 13
1.0
 23
0.0
 33
0.0
 40
0.0
 40
0.0
 40
0.0
 40
0.0
 40
1.0
 40
1.0
 40
1.0
 40
2.0
 40
2.0
 40
2.0
 40
3.0
 40
3.0
 40
3.0
 40
4.0
 40
4.0
 40
4.0
 40
5.0
 40
5.0
 40
5.0
 40
6.0
 40
6.0
 40
6.0
 40
7.0
 40
7.0
 40
7.0
 40
7.0
 10
102.9435872138474
 20
-147.1910155882022
 30
0.0
 10
102.9435872138474
 20
-147.1910155882022
 30
0.0
 10
101.8394341108249
 20
-147.1910155882022
 30
0.0
 10
101.8394341108249
 20
-147.1910155882022
 30
0.0
 10
101.8394341108249
 20
-147.1910155882022
 30
0.0
 10
101.8394341108249
 20
-147.5210557356892
 30
0.0
 10
101.8394341108249
 20
-147.5210557356892
 30
0.0
 10
101.8394341108249
 20
-147.5210557356892
 30
0.0
 10
101.6912950049591
 20
-147.5210557356892
 30
0.0
 10
101.6912950049591
 20
-147.5210557356892
 30
0.0
 10
101.6764810943725
 20
-147.1889485309111
 30
0.0
 10
101.5135280779202
 20
-147.1424397418602
 30
0.0
 10
101.3991509078099
 20
-147.1128119206871
 30
0.0
 10
101.3991509078099
 20
-147.1128119206871
 30
0.0
 10
101.3991509078099
 20
-146.9667398721125
 30
0.0
 10
101.3991509078099
 20
-146.9667398721125
 30
0.0
 10
101.3991509078099
 20
-146.9667398721125
 30
0.0
 10
102.9435872138474
 20
-146.9667398721125
 30
0.0
 10
102.9435872138474
 20
-146.9667398721125
 30
0.0
 10
102.9435872138474
 20
-146.9667398721125
 30
0.0
 10
102.9435872138474
 20
-147.1910155882022
 30
0.0
 10
102.9435872138474
 20
-147.1910155882022
 30
0.0
  0
HATCH
  5
C6
330
C1
100
AcDbEntity
  8
_U+30EC_U+30A4_U+30E4_U+30FC 1
 62
     7
420
 16777215
100
AcDbHatch
 10
0.0
 20
0.0
 30
0.0
210
0.0
220
0.0
230
1.0
  2
SOLID
 70
     1
 71
     0
 91
        1
 92
        1
 93
        1
 72
     4
 94
        3
 73
     0
 74
     1
 95
       26
 96
       22
 40
0.0
 40
0.0
 40
0.0
 40
0.0
 40
1.0
 40
1.0
 40
1.0
 40
2.0
 40
2.0
 40
2.0
 40
3.0
 40
3.0
 40
3.0
 40
4.0
 40
4.0
 40
4.0
 40
5.0
 40
5.0
 40
5.0
 40
6.0
 40
6.0
 40
6.0
 40
7.0
 40
7.0
 40
7.0
 40
7.0
 10
102.9435872138474
 20
-147.1910155882022
 10
102.9435872138474
 20
-147.1910155882022
 10
101.8394341108249
 20
-147.1910155882022
 10
101.8394341108249
 20
-147.1910155882022
 10
101.8394341108249
 20
-147.1910155882022
 10
101.8394341108249
 20
-147.5210557356892
 10
101.8394341108249
 20
-147.5210557356892
 10
101.8394341108249
 20
-147.5210557356892
 10
101.6912950049591
 20
-147.5210557356892
 10
101.6912950049591
 20
-147.5210557356892
 10
101.6764810943725
 20
-147.1889485309111
 10
101.5135280779202
 20
-147.1424397418602
 10
101.3991509078099
 20
-147.1128119206871
 10
101.3991509078099
 20
-147.1128119206871
 10
101.3991509078099
 20
-146.9667398721125
 10
101.3991509078099
 20
-146.9667398721125
 10
101.3991509078099
 20
-146.9667398721125
 10
102.9435872138474
 20
-146.9667398721125
 10
102.9435872138474
 20
-146.9667398721125
 10
102.9435872138474
 20
-146.9667398721125
 10
102.9435872138474
 20
-147.1910155882022
 10
102.9435872138474
 20
-147.1910155882022
 97
        0
 97
        0
 75
     2
 76
     1
 98
        0
  0
SPLINE
  5
C7
330
C1
100
AcDbEntity
  8
_U+30EC_U+30A4_U+30E4_U+30FC 1
370
     0
100
AcDbSpline
210
0.0
220
0.0
230
1.0
 70
    11
 71
     3
 72
    29
 73
    25
 74
     0
 42
0.0000000001
 43
0.0000000001
 12
1.0
 22
0.0
 32
0.0
 13
1.0
 23
0.0
 33
0.0
 40
0.0
 40
0.0
 40
0.0
 40
0.0
 40
1.0
 40
1.0
 40
1.0
 40
2.0
 40
2.0
 40
2.0
 40
3.0
 40
3.0
 40
3.0
 40
4.0
 40
4.0
 40
4.0
 40
5.0
 40
5.0
 40
5.0
 40
6.0
 40
6.0
 40
6.0
 40
7.0
 40
7.0
 40
7.0
 40
8.0
 40
8.0
 40
8.0
 40
8.0
 10
102.7658202868085
 20
-145.5676865955525
 30
0.0
 10
102.9752820923117
 20
-145.6758625937894
 30
0.0
 10
102.9942301174806
 20
-145.8491508966974
 30
0.0
 10
102.9942301174806
 20
-145.9655951240989
 30
0.0
 10
102.9942301174806
 20
-146.12648108326
 30
0.0
 10
102.9477213284297
 20
-146.2680745077038
 30
0.0
 10
102.7658202868085
 20
-146.3631591430967
 30
0.0
 10
102.5711723918919
 20
-146.4668565172027
 30
0.0
 10
102.3341498225067
 20
-146.4861490519201
 30
0.0
 10
102.171541315603
 20
-146.4861490519201
 30
0.0
 10
102.0275363243195
 20
-146.4861490519201
 30
0.0
 10
101.7756998443477
 20
-146.4689235744939
 30
0.0
 10
101.5769178348488
 20
-146.3631591430967
 30
0.0
 10
101.3740017107676
 20
-146.2553276544084
 30
0.0
 10
101.3505750614679
 20
-146.0944416952472
 30
0.0
 10
101.3505750614679
 20
-145.9655951240989
 30
0.0
 10
101.3505750614679
 20
-145.8067762222289
 30
0.0
 10
101.3950167932276
 20
-145.6631157404939
 30
0.0
 10
101.5769178348488
 20
-145.5676865955525
 30
0.0
 10
101.7694986724743
 20
-145.4684678455773
 30
0.0
 10
101.9979085031464
 20
-145.4450411962776
 30
0.0
 10
102.171541315603
 20
-145.4450411962776
 30
0.0
 10
102.3427625612199
 20
-145.4450411962776
 30
0.0
 10
102.5732394491831
 20
-145.4664007882862
 30
0.0
 10
102.7658202868085
 20
-145.5676865955525
 30
0.0
  0
SPLINE
  5
C8
330
C1
100
AcDbEntity
  8
_U+30EC_U+30A4_U+30E4_U+30FC 1
370
     0
100
AcDbSpline
210
0.0
220
0.0
230
1.0
 70
    11
 71
     3
 72
    17
 73
    13
 74
     0
 42
0.0000000001
 43
0.0000000001
 12
1.0
 22
0.0
 32
0.0
 13
1.0
 23
0.0
 33
0.0
 40
0.0
 40
0.0
 40
0.0
 40
0.0
 40
1.0
 40
1.0
 40
1.0
 40
2.0
 40
2.0
 40
2.0
 40
3.0
 40
3.0
 40
3.0
 40
4.0
 40
4.0
 40
4.0
 40
4.0
 10
101.5431558990934
 20
-145.9655951240989
 30
0.0
 10
101.5431558990934
 20
-146.2153645467795
 30
0.0
 10
101.8266872575294
 20
-146.2618733358304
 30
0.0
 10
102.171541315603
 20
-146.2618733358304
 30
0.0
 10
102.4909016670856
 20
-146.2618733358304
 30
0.0
 10
102.799582222564
 20
-146.2256998332352
 30
0.0
 10
102.799582222564
 20
-145.9655951240989
 30
0.0
 10
102.799582222564
 20
-145.7178927587094
 30
0.0
 10
102.5184624309676
 20
-145.6693169123674
 30
0.0
 10
102.171541315603
 20
-145.6693169123674
 30
0.0
 10
101.8518364545718
 20
-145.6693169123674
 30
0.0
 10
101.5431558990934
 20
-145.7075574722537
 30
0.0
 10
101.5431558990934
 20
-145.9655951240989
 30
0.0
  0
HATCH
  5
C9
330
C1
100
AcDbEntity
  8
_U+30EC_U+30A4_U+30E4_U+30FC 1
 62
     7
420
 16777215
100
AcDbHatch
 10
0.0
 20
0.0
 30
0.0
210
0.0
220
0.0
230
1.0
  2
SOLID
 70
     1
 71
     0
 91
        2
 92
        1
 93
        1
 72
     4
 94
        3
 73
     0
 74
     1
 95
       29
 96
       25
 40
0.0
 40
0.0
 40
0.0
 40
0.0
 40
1.0
 40
1.0
 40
1.0
 40
2.0
 40
2.0
 40
2.0
 40
3.0
 40
3.0
 40
3.0
 40
4.0
 40
4.0
 40
4.0
 40
5.0
 40
5.0
 40
5.0
 40
6.0
 40
6.0
 40
6.0
 40
7.0
 40
7.0
 40
7.0
 40
8.0
 40
8.0
 40
8.0
 40
8.0
 10
102.7658202868085
 20
-145.5676865955525
 10
102.9752820923117
 20
-145.6758625937894
 10
102.9942301174806
 20
-145.8491508966974
 10
102.9942301174806
 20
-145.9655951240989
 10
102.9942301174806
 20
-146.12648108326
 10
102.9477213284297
 20
-146.2680745077038
 10
102.7658202868085
 20
-146.3631591430967
 10
102.5711723918919
 20
-146.4668565172027
 10
102.3341498225067
 20
-146.4861490519201
 10
102.171541315603
 20
-146.4861490519201
 10
102.0275363243195
 20
-146.4861490519201
 10
101.7756998443477
 20
-146.4689235744939
 10
101.5769178348488
 20
-146.3631591430967
 10
101.3740017107676
 20
-146.2553276544084
 10
101.3505750614679
 20
-146.0944416952472
 10
101.3505750614679
 20
-145.9655951240989
 10
101.3505750614679
 20
-145.8067762222289
 10
101.3950167932276
 20
-145.6631157404939
 10
101.5769178348488
 20
-145.5676865955525
 10
101.7694986724743
 20
-145.4684678455773
 10
101.9979085031464
 20
-145.4450411962776
 10
102.171541315603
 20
-145.4450411962776
 10
102.3427625612199
 20
-145.4450411962776
 10
102.5732394491831
 20
-145.4664007882862
 10
102.7658202868085
 20
-145.5676865955525
 97
        0
 97
        0
 92
        1
 93
        1
 72
     4
 94
        3
 73
     0
 74
     1
 95
       17
 96
       13
 40
0.0
 40
0.0
 40
0.0
 40
0.0
 40
1.0
 40
1.0
 40
1.0
 40
2.0
 40
2.0
 40
2.0
 40
3.0
 40
3.0
 40
3.0
 40
4.0
 40
4.0
 40
4.0
 40
4.0
 10
101.5431558990934
 20
-145.9655951240989
 10
101.5431558990934
 20
-146.2153645467795
 10
101.8266872575294
 20
-146.2618733358304
 10
102.171541315603
 20
-146.2618733358304
 10
102.4909016670856
 20
-146.2618733358304
 10
102.799582222564
 20
-146.2256998332352
 10
102.799582222564
 20
-145.9655951240989
 10
102.799582222564
 20
-145.7178927587094
 10
102.5184624309676
 20
-145.6693169123674
 10
102.171541315603
 20
-145.6693169123674
 10
101.8518364545718
 20
-145.6693169123674
 10
101.5431558990934
 20
-145.7075574722537
 10
101.5431558990934
 20
-145.9655951240989
 97
        0
 97
        0
 75
     2
 76
     1
 98
        0
  0
ENDBLK
  5
C4
330
C1
100
AcDbEntity
  8
0
100
AcDbBlockEnd
  0
BLOCK
  5
D4
330
D2
100
AcDbEntity
  8
0
100
AcDbBlockBegin
  2
block 7
 70
     0
 10
0.0
 20
0.0
 30
0.0
  3
block 7
  1

  0
POLYLINE
  5
D6
330
D2
100
AcDbEntity
  8
_U+30EC_U+30A4_U+30E4_U+30FC 1
370
     0
100
AcDb2dPolyline
 66
     1
 10
0.0
 20
0.0
 30
0.0
  0
VERTEX
  5
D7
330
D6
100
AcDbEntity
  8
_U+30EC_U+30A4_U+30E4_U+30FC 1
370
     0
100
AcDbVertex
100
AcDb2dVertex
 10
102.5966660984828
 20
-119.3861666910736
 30
0.0
  0
VERTEX
  5
D8
330
D6
100
AcDbEntity
  8
_U+30EC_U+30A4_U+30E4_U+30FC 1
370
     0
100
AcDbVertex
100
AcDb2dVertex
 10
102.9435872138474
 20
-119.3861666910736
 30
0.0
  0
VERTEX
  5
D9
330
D6
100
AcDbEntity
  8
_U+30EC_U+30A4_U+30E4_U+30FC 1
370
     0
100
AcDbVertex
100
AcDb2dVertex
 10
102.9435872138474
 20
-119.6040689805156
 30
0.0
  0
VERTEX
  5
DA
330
D6
100
AcDbEntity
  8
_U+30EC_U+30A4_U+30E4_U+30FC 1
370
     0
100
AcDbVertex
100
AcDb2dVertex
 10
102.5966660984828
 20
-119.6040689805156
 30
0.0
  0
VERTEX
  5
DB
330
D6
100
AcDbEntity
  8
_U+30EC_U+30A4_U+30E4_U+30FC 1
370
     0
100
AcDbVertex
100
AcDb2dVertex
 10
102.5966660984828
 20
-120.259842906133
 30
0.0
  0
VERTEX
  5
DC
330
D6
100
AcDbEntity
  8
_U+30EC_U+30A4_U+30E4_U+30FC 1
370
     0
100
AcDbVertex
100
AcDb2dVertex
 10
102.372390382393
 20
-120.259842906133
 30
0.0
  0
VERTEX
  5
DD
330
D6
100
AcDbEntity
  8
_U+30EC_U+30A4_U+30E4_U+30FC 1
370
     0
100
AcDbVertex
100
AcDb2dVertex
 10
101.3991509078099
 20
-119.5808145859902
 30
0.0
  0
VERTEX
  5
DE
330
D6
100
AcDbEntity
  8
_U+30EC_U+30A4_U+30E4_U+30FC 1
370
     0
100
AcDbVertex
100
AcDb2dVertex
 10
101.3991509078099
 20
-119.3861666910736
 30
0.0
  0
VERTEX
  5
DF
330
D6
100
AcDbEntity
  8
_U+30EC_U+30A4_U+30E4_U+30FC 1
370
     0
100
AcDbVertex
100
AcDb2dVertex
 10
102.3978840889839
 20
-119.3861666910736
 30
0.0
  0
VERTEX
  5
E0
330
D6
100
AcDbEntity
  8
_U+30EC_U+30A4_U+30E4_U+30FC 1
370
     0
100
AcDbVertex
100
AcDb2dVertex
 10
102.3978840889839
 20
-119.1787719428616
 30
0.0
  0
VERTEX
  5
E1
330
D6
100
AcDbEntity
  8
_U+30EC_U+30A4_U+30E4_U+30FC 1
370
     0
100
AcDbVertex
100
AcDb2dVertex
 10
102.5966660984828
 20
-119.1787719428616
 30
0.0
  0
VERTEX
  5
E2
330
D6
100
AcDbEntity
  8
_U+30EC_U+30A4_U+30E4_U+30FC 1
370
     0
100
AcDbVertex
100
AcDb2dVertex
 10
102.5966660984828
 20
-119.3861666910736
 30
0.0
  0
SEQEND
  5
E3
330
D6
100
AcDbEntity
  8
_U+30EC_U+30A4_U+30E4_U+30FC 1
370
     0
  0
POLYLINE
  5
E4
330
D2
100
AcDbEntity
  8
_U+30EC_U+30A4_U+30E4_U+30FC 1
370
     0
100
AcDb2dPolyline
 66
     1
 10
0.0
 20
0.0
 30
0.0
  0
VERTEX
  5
E5
330
E4
100
AcDbEntity
  8
_U+30EC_U+30A4_U+30E4_U+30FC 1
370
     0
100
AcDbVertex
100
AcDb2dVertex
 10
101.7419379085923
 20
-119.6040689805156
 30
0.0
  0
VERTEX
  5
E6
330
E4
100
AcDbEntity
  8
_U+30EC_U+30A4_U+30E4_U+30FC 1
370
     0
100
AcDbVertex
100
AcDb2dVertex
 10
102.3978840889839
 20
-120.0608886418598
 30
0.0
  0
VERTEX
  5
E7
330
E4
100
AcDbEntity
  8
_U+30EC_U+30A4_U+30E4_U+30FC 1
370
     0
100
AcDbVertex
100
AcDb2dVertex
 10
102.3978840889839
 20
-119.6040689805156
 30
0.0
  0
VERTEX
  5
E8
330
E4
100
AcDbEntity
  8
_U+30EC_U+30A4_U+30E4_U+30FC 1
370
     0
100
AcDbVertex
100
AcDb2dVertex
 10
101.7419379085923
 20
-119.6040689805156
 30
0.0
  0
SEQEND
  5
E9
330
E4
100
AcDbEntity
  8
_U+30EC_U+30A4_U+30E4_U+30FC 1
370
     0
  0
HATCH
  5
EA
330
D2
100
AcDbEntity
  8
_U+30EC_U+30A4_U+30E4_U+30FC 1
 62
     7
420
 16777215
100
AcDbHatch
 10
0.0
 20
0.0
 30
0.0
210
0.0
220
0.0
230
1.0
  2
SOLID
 70
     1
 71
     0
 91
        2
 92
        1
 93
       11
 72
     1
 10
102.5966660984828
 20
-119.3861666910736
 11
102.9435872138474
 21
-119.3861666910736
 72
     1
 10
102.9435872138474
 20
-119.3861666910736
 11
102.9435872138474
 21
-119.6040689805156
 72
     1
 10
102.9435872138474
 20
-119.6040689805156
 11
102.5966660984828
 21
-119.6040689805156
 72
     1
 10
102.5966660984828
 20
-119.6040689805156
 11
102.5966660984828
 21
-120.259842906133
 72
     1
 10
102.5966660984828
 20
-120.259842906133
 11
102.372390382393
 21
-120.259842906133
 72
     1
 10
102.372390382393
 20
-120.259842906133
 11
101.3991509078099
 21
-119.5808145859902
 72
     1
 10
101.3991509078099
 20
-119.5808145859902
 11
101.3991509078099
 21
-119.3861666910736
 72
     1
 10
101.3991509078099
 20
-119.3861666910736
 11
102.3978840889839
 21
-119.3861666910736
 72
     1
 10
102.3978840889839
 20
-119.3861666910736
 11
102.3978840889839
 21
-119.1787719428616
 72
     1
 10
102.3978840889839
 20
-119.1787719428616
 11
102.5966660984828
 21
-119.1787719428616
 72
     1
 10
102.5966660984828
 20
-119.1787719428616
 11
102.5966660984828
 21
-119.3861666910736
 97
        0
 92
        1
 93
        3
 72
     1
 10
101.7419379085923
 20
-119.6040689805156
 11
102.3978840889839
 21
-120.0608886418598
 72
     1
 10
102.3978840889839
 20
-120.0608886418598
 11
102.3978840889839
 21
-119.6040689805156
 72
     1
 10
102.3978840889839
 20
-119.6040689805156
 11
101.7419379085923
 21
-119.6040689805156
 97
        0
 75
     2
 76
     1
 98
        0
  0
SPLINE
  5
EB
330
D2
100
AcDbEntity
  8
_U+30EC_U+30A4_U+30E4_U+30FC 1
370
     0
100
AcDbSpline
210
0.0
220
0.0
230
1.0
 70
    11
 71
     3
 72
    53
 73
    49
 74
     0
 42
0.0000000001
 43
0.0000000001
 12
1.0
 22
0.0
 32
0.0
 13
1.0
 23
0.0
 33
0.0
 40
0.0
 40
0.0
 40
0.0
 40
0.0
 40
1.0
 40
1.0
 40
1.0
 40
2.0
 40
2.0
 40
2.0
 40
3.0
 40
3.0
 40
3.0
 40
4.0
 40
4.0
 40
4.0
 40
5.0
 40
5.0
 40
5.0
 40
6.0
 40
6.0
 40
6.0
 40
7.0
 40
7.0
 40
7.0
 40
8.0
 40
8.0
 40
8.0
 40
9.0
 40
9.0
 40
9.0
 40
10.0
 40
10.0
 40
10.0
 40
11.0
 40
11.0
 40
11.0
 40
12.0
 40
12.0
 40
12.0
 40
13.0
 40
13.0
 40
13.0
 40
14.0
 40
14.0
 40
14.0
 40
15.0
 40
15.0
 40
15.0
 40
16.0
 40
16.0
 40
16.0
 40
16.0
 10
102.9942301174806
 20
-118.5603773032592
 30
0.0
 10
102.9942301174806
 20
-118.6387532255487
 30
0.0
 10
102.9773491496029
 20
-118.7402112875893
 30
0.0
 10
102.9139593926743
 20
-118.8418416044041
 30
0.0
 10
102.8040608466948
 20
-119.0153021620865
 30
0.0
 10
102.6728027087068
 20
-119.0364894993207
 30
0.0
 10
102.5649712200185
 20
-119.0554375244896
 30
0.0
 10
102.5649712200185
 20
-119.0554375244896
 30
0.0
 10
102.5649712200185
 20
-118.8334011204653
 30
0.0
 10
102.5649712200185
 20
-118.8334011204653
 30
0.0
 10
102.7637532295174
 20
-118.7782795927013
 30
0.0
 10
102.7933810506905
 20
-118.6513278240698
 30
0.0
 10
102.7933810506905
 20
-118.5583102459681
 30
0.0
 10
102.7933810506905
 20
-118.4186116240412
 30
0.0
 10
102.6938177911668
 20
-118.2663384035931
 30
0.0
 10
102.4612738459125
 20
-118.2663384035931
 30
0.0
 10
102.2053032513584
 20
-118.2663384035931
 30
0.0
 10
102.1353678130078
 20
-118.4461723879232
 30
0.0
 10
102.1353678130078
 20
-118.5667507299069
 30
0.0
 10
102.1353678130078
 20
-118.5984456083712
 30
0.0
 10
102.1353678130078
 20
-118.7402112875893
 30
0.0
 10
102.2645588937047
 20
-118.8290947511087
 30
0.0
 10
102.2645588937047
 20
-118.8290947511087
 30
0.0
 10
102.2456108685358
 20
-119.0046223660822
 30
0.0
 10
102.2456108685358
 20
-119.0046223660822
 30
0.0
 10
102.2456108685358
 20
-119.0046223660822
 30
0.0
 10
101.3991509078099
 20
-118.8840440240984
 30
0.0
 10
101.3991509078099
 20
-118.8840440240984
 30
0.0
 10
101.3991509078099
 20
-118.8840440240984
 30
0.0
 10
101.3991509078099
 20
-118.1056246992062
 30
0.0
 10
101.3991509078099
 20
-118.1056246992062
 30
0.0
 10
101.3991509078099
 20
-118.1056246992062
 30
0.0
 10
101.5937988027266
 20
-118.1056246992062
 30
0.0
 10
101.5937988027266
 20
-118.1056246992062
 30
0.0
 10
101.5937988027266
 20
-118.1056246992062
 30
0.0
 10
101.5937988027266
 20
-118.7212632624204
 30
0.0
 10
101.5937988027266
 20
-118.7212632624204
 30
0.0
 10
101.5937988027266
 20
-118.7212632624204
 30
0.0
 10
102.0168565283152
 20
-118.7867200766401
 30
0.0
 10
102.0168565283152
 20
-118.7867200766401
 30
0.0
 10
101.9830945925598
 20
-118.7253973770027
 30
0.0
 10
101.9427869753824
 20
-118.642887340131
 30
0.0
 10
101.9427869753824
 20
-118.5245483102126
 30
0.0
 10
101.9427869753824
 20
-118.2706447729497
 30
0.0
 10
102.1291666411344
 20
-118.0336222035645
 30
0.0
 10
102.4423258207436
 20
-118.0336222035645
 30
0.0
 10
102.7596191149351
 20
-118.0336222035645
 30
0.0
 10
102.9942301174806
 20
-118.2578979196543
 30
0.0
 10
102.9942301174806
 20
-118.5603773032592
 30
0.0
  0
HATCH
  5
EC
330
D2
100
AcDbEntity
  8
_U+30EC_U+30A4_U+30E4_U+30FC 1
 62
     7
420
 16777215
100
AcDbHatch
 10
0.0
 20
0.0
 30
0.0
210
0.0
220
0.0
230
1.0
  2
SOLID
 70
     1
 71
     0
 91
        1
 92
        1
 93
        1
 72
     4
 94
        3
 73
     0
 74
     1
 95
       53
 96
       49
 40
0.0
 40
0.0
 40
0.0
 40
0.0
 40
1.0
 40
1.0
 40
1.0
 40
2.0
 40
2.0
 40
2.0
 40
3.0
 40
3.0
 40
3.0
 40
4.0
 40
4.0
 40
4.0
 40
5.0
 40
5.0
 40
5.0
 40
6.0
 40
6.0
 40
6.0
 40
7.0
 40
7.0
 40
7.0
 40
8.0
 40
8.0
 40
8.0
 40
9.0
 40
9.0
 40
9.0
 40
10.0
 40
10.0
 40
10.0
 40
11.0
 40
11.0
 40
11.0
 40
12.0
 40
12.0
 40
12.0
 40
13.0
 40
13.0
 40
13.0
 40
14.0
 40
14.0
 40
14.0
 40
15.0
 40
15.0
 40
15.0
 40
16.0
 40
16.0
 40
16.0
 40
16.0
 10
102.9942301174806
 20
-118.5603773032592
 10
102.9942301174806
 20
-118.6387532255487
 10
102.9773491496029
 20
-118.7402112875893
 10
102.9139593926743
 20
-118.8418416044041
 10
102.8040608466948
 20
-119.0153021620865
 10
102.6728027087068
 20
-119.0364894993207
 10
102.5649712200185
 20
-119.0554375244896
 10
102.5649712200185
 20
-119.0554375244896
 10
102.5649712200185
 20
-118.8334011204653
 10
102.5649712200185
 20
-118.8334011204653
 10
102.7637532295174
 20
-118.7782795927013
 10
102.7933810506905
 20
-118.6513278240698
 10
102.7933810506905
 20
-118.5583102459681
 10
102.7933810506905
 20
-118.4186116240412
 10
102.6938177911668
 20
-118.2663384035931
 10
102.4612738459125
 20
-118.2663384035931
 10
102.2053032513584
 20
-118.2663384035931
 10
102.1353678130078
 20
-118.4461723879232
 10
102.1353678130078
 20
-118.5667507299069
 10
102.1353678130078
 20
-118.5984456083712
 10
102.1353678130078
 20
-118.7402112875893
 10
102.2645588937047
 20
-118.8290947511087
 10
102.2645588937047
 20
-118.8290947511087
 10
102.2456108685358
 20
-119.0046223660822
 10
102.2456108685358
 20
-119.0046223660822
 10
102.2456108685358
 20
-119.0046223660822
 10
101.3991509078099
 20
-118.8840440240984
 10
101.3991509078099
 20
-118.8840440240984
 10
101.3991509078099
 20
-118.8840440240984
 10
101.3991509078099
 20
-118.1056246992062
 10
101.3991509078099
 20
-118.1056246992062
 10
101.3991509078099
 20
-118.1056246992062
 10
101.5937988027266
 20
-118.1056246992062
 10
101.5937988027266
 20
-118.1056246992062
 10
101.5937988027266
 20
-118.1056246992062
 10
101.5937988027266
 20
-118.7212632624204
 10
101.5937988027266
 20
-118.7212632624204
 10
101.5937988027266
 20
-118.7212632624204
 10
102.0168565283152
 20
-118.7867200766401
 10
102.0168565283152
 20
-118.7867200766401
 10
101.9830945925598
 20
-118.7253973770027
 10
101.9427869753824
 20
-118.642887340131
 10
101.9427869753824
 20
-118.5245483102126
 10
101.9427869753824
 20
-118.2706447729497
 10
102.1291666411344
 20
-118.0336222035645
 10
102.4423258207436
 20
-118.0336222035645
 10
102.7596191149351
 20
-118.0336222035645
 10
102.9942301174806
 20
-118.2578979196543
 10
102.9942301174806
 20
-118.5603773032592
 97
        0
 97
        0
 75
     2
 76
     1
 98
        0
  0
ENDBLK
  5
D5
330
D2
100
AcDbEntity
  8
0
100
AcDbBlockEnd
  0
BLOCK
  5
FB
330
F9
100
AcDbEntity
  8
0
100
AcDbBlockBegin
  2
block 8
 70
     0
 10
0.0
 20
0.0
 30
0.0
  3
block 8
  1

  0
SPLINE
  5
FD
330
F9
100
AcDbEntity
  8
_U+30EC_U+30A4_U+30E4_U+30FC 1
370
     0
100
AcDbSpline
210
0.0
220
0.0
230
1.0
 70
    11
 71
     3
 72
    26
 73
    22
 74
     0
 42
0.0000000001
 43
0.0000000001
 12
1.0
 22
0.0
 32
0.0
 13
1.0
 23
0.0
 33
0.0
 40
0.0
 40
0.0
 40
0.0
 40
0.0
 40
1.0
 40
1.0
 40
1.0
 40
2.0
 40
2.0
 40
2.0
 40
3.0
 40
3.0
 40
3.0
 40
4.0
 40
4.0
 40
4.0
 40
5.0
 40
5.0
 40
5.0
 40
6.0
 40
6.0
 40
6.0
 40
7.0
 40
7.0
 40
7.0
 40
7.0
 10
91.326725237585
 20
-158.557419122687
 30
0.0
 10
91.326725237585
 20
-158.557419122687
 30
0.0
 10
91.326725237585
 20
-157.4532660196645
 30
0.0
 10
91.326725237585
 20
-157.4532660196645
 30
0.0
 10
91.326725237585
 20
-157.4532660196645
 30
0.0
 10
90.99668509009805
 20
-157.4532660196645
 30
0.0
 10
90.99668509009805
 20
-157.4532660196645
 30
0.0
 10
90.99668509009805
 20
-157.4532660196645
 30
0.0
 10
90.99668509009805
 20
-157.3051269137987
 30
0.0
 10
90.99668509009805
 20
-157.3051269137987
 30
0.0
 10
91.32879229487614
 20
-157.2903130032122
 30
0.0
 10
91.37530108392701
 20
-157.1273599867598
 30
0.0
 10
91.40492890510016
 20
-157.0129828166495
 30
0.0
 10
91.40492890510016
 20
-157.0129828166495
 30
0.0
 10
91.55100095367476
 20
-157.0129828166495
 30
0.0
 10
91.55100095367476
 20
-157.0129828166495
 30
0.0
 10
91.55100095367476
 20
-157.0129828166495
 30
0.0
 10
91.55100095367476
 20
-158.557419122687
 30
0.0
 10
91.55100095367476
 20
-158.557419122687
 30
0.0
 10
91.55100095367476
 20
-158.557419122687
 30
0.0
 10
91.326725237585
 20
-158.557419122687
 30
0.0
 10
91.326725237585
 20
-158.557419122687
 30
0.0
  0
HATCH
  5
FE
330
F9
100
AcDbEntity
  8
_U+30EC_U+30A4_U+30E4_U+30FC 1
 62
     7
420
 16777215
100
AcDbHatch
 10
0.0
 20
0.0
 30
0.0
210
0.0
220
0.0
230
1.0
  2
SOLID
 70
     1
 71
     0
 91
        1
 92
        1
 93
        1
 72
     4
 94
        3
 73
     0
 74
     1
 95
       26
 96
       22
 40
0.0
 40
0.0
 40
0.0
 40
0.0
 40
1.0
 40
1.0
 40
1.0
 40
2.0
 40
2.0
 40
2.0
 40
3.0
 40
3.0
 40
3.0
 40
4.0
 40
4.0
 40
4.0
 40
5.0
 40
5.0
 40
5.0
 40
6.0
 40
6.0
 40
6.0
 40
7.0
 40
7.0
 40
7.0
 40
7.0
 10
91.326725237585
 20
-158.557419122687
 10
91.326725237585
 20
-158.557419122687
 10
91.326725237585
 20
-157.4532660196645
 10
91.326725237585
 20
-157.4532660196645
 10
91.326725237585
 20
-157.4532660196645
 10
90.99668509009805
 20
-157.4532660196645
 10
90.99668509009805
 20
-157.4532660196645
 10
90.99668509009805
 20
-157.4532660196645
 10
90.99668509009805
 20
-157.3051269137987
 10
90.99668509009805
 20
-157.3051269137987
 10
91.32879229487614
 20
-157.2903130032122
 10
91.37530108392701
 20
-157.1273599867598
 10
91.40492890510016
 20
-157.0129828166495
 10
91.40492890510016
 20
-157.0129828166495
 10
91.55100095367476
 20
-157.0129828166495
 10
91.55100095367476
 20
-157.0129828166495
 10
91.55100095367476
 20
-157.0129828166495
 10
91.55100095367476
 20
-158.557419122687
 10
91.55100095367476
 20
-158.557419122687
 10
91.55100095367476
 20
-158.557419122687
 10
91.326725237585
 20
-158.557419122687
 10
91.326725237585
 20
-158.557419122687
 97
        0
 97
        0
 75
     2
 76
     1
 98
        0
  0
SPLINE
  5
FF
330
F9
100
AcDbEntity
  8
_U+30EC_U+30A4_U+30E4_U+30FC 1
370
     0
100
AcDbSpline
210
0.0
220
0.0
230
1.0
 70
    11
 71
     3
 72
    53
 73
    49
 74
     0
 42
0.0000000001
 43
0.0000000001
 12
1.0
 22
0.0
 32
0.0
 13
1.0
 23
0.0
 33
0.0
 40
0.0
 40
0.0
 40
0.0
 40
0.0
 40
1.0
 40
1.0
 40
1.0
 40
2.0
 40
2.0
 40
2.0
 40
3.0
 40
3.0
 40
3.0
 40
4.0
 40
4.0
 40
4.0
 40
5.0
 40
5.0
 40
5.0
 40
6.0
 40
6.0
 40
6.0
 40
7.0
 40
7.0
 40
7.0
 40
8.0
 40
8.0
 40
8.0
 40
9.0
 40
9.0
 40
9.0
 40
10.0
 40
10.0
 40
10.0
 40
11.0
 40
11.0
 40
11.0
 40
12.0
 40
12.0
 40
12.0
 40
13.0
 40
13.0
 40
13.0
 40
14.0
 40
14.0
 40
14.0
 40
15.0
 40
15.0
 40
15.0
 40
16.0
 40
16.0
 40
16.0
 40
16.0
 10
92.53319767651948
 20
-158.6080620263202
 30
0.0
 10
92.45499400900431
 20
-158.6080620263202
 30
0.0
 10
92.35336369218945
 20
-158.5911810584425
 30
0.0
 10
92.25173337537457
 20
-158.5277913015139
 30
0.0
 10
92.07844507246651
 20
-158.4178927555344
 30
0.0
 10
92.05708548045796
 20
-158.2866346175464
 30
0.0
 10
92.03813745528907
 20
-158.1788031288581
 30
0.0
 10
92.03813745528907
 20
-158.1788031288581
 30
0.0
 10
92.2603461140877
 20
-158.1788031288581
 30
0.0
 10
92.2603461140877
 20
-158.1788031288581
 30
0.0
 10
92.31512313230317
 20
-158.377585138357
 30
0.0
 10
92.44224715570888
 20
-158.4072129595301
 30
0.0
 10
92.53526473381064
 20
-158.4072129595301
 30
0.0
 10
92.67479110096325
 20
-158.4072129595301
 30
0.0
 10
92.8270643214113
 20
-158.3076497000064
 30
0.0
 10
92.8270643214113
 20
-158.0751057547521
 30
0.0
 10
92.8270643214113
 20
-157.819135160198
 30
0.0
 10
92.64723033708125
 20
-157.7491997218474
 30
0.0
 10
92.52665199509751
 20
-157.7491997218474
 30
0.0
 10
92.49495711663322
 20
-157.7491997218474
 30
0.0
 10
92.35336369218945
 20
-157.7491997218474
 30
0.0
 10
92.26448022867
 20
-157.8783908025443
 30
0.0
 10
92.26448022867
 20
-157.8783908025443
 30
0.0
 10
92.08878035892225
 20
-157.8594427773754
 30
0.0
 10
92.08878035892225
 20
-157.8594427773754
 30
0.0
 10
92.08878035892225
 20
-157.8594427773754
 30
0.0
 10
92.209358700906
 20
-157.0129828166495
 30
0.0
 10
92.209358700906
 20
-157.0129828166495
 30
0.0
 10
92.209358700906
 20
-157.0129828166495
 30
0.0
 10
92.98795028057246
 20
-157.0129828166495
 30
0.0
 10
92.98795028057246
 20
-157.0129828166495
 30
0.0
 10
92.98795028057246
 20
-157.0129828166495
 30
0.0
 10
92.98795028057246
 20
-157.2076307115662
 30
0.0
 10
92.98795028057246
 20
-157.2076307115662
 30
0.0
 10
92.98795028057246
 20
-157.2076307115662
 30
0.0
 10
92.37231171735831
 20
-157.2076307115662
 30
0.0
 10
92.37231171735831
 20
-157.2076307115662
 30
0.0
 10
92.37231171735831
 20
-157.2076307115662
 30
0.0
 10
92.30685490313857
 20
-157.6306884371548
 30
0.0
 10
92.30685490313857
 20
-157.6306884371548
 30
0.0
 10
92.36817760277602
 20
-157.5969265013994
 30
0.0
 10
92.45051538487348
 20
-157.556618884222
 30
0.0
 10
92.56902666956609
 20
-157.556618884222
 30
0.0
 10
92.822930206829
 20
-157.556618884222
 30
0.0
 10
93.05995277621419
 20
-157.742998549974
 30
0.0
 10
93.05995277621419
 20
-158.0561577295832
 30
0.0
 10
93.05995277621419
 20
-158.3734510237747
 30
0.0
 10
92.83567706012442
 20
-158.6080620263202
 30
0.0
 10
92.53319767651948
 20
-158.6080620263202
 30
0.0
  0
HATCH
  5
100
330
F9
100
AcDbEntity
  8
_U+30EC_U+30A4_U+30E4_U+30FC 1
 62
     7
420
 16777215
100
AcDbHatch
 10
0.0
 20
0.0
 30
0.0
210
0.0
220
0.0
230
1.0
  2
SOLID
 70
     1
 71
     0
 91
        1
 92
        1
 93
        1
 72
     4
 94
        3
 73
     0
 74
     1
 95
       53
 96
       49
 40
0.0
 40
0.0
 40
0.0
 40
0.0
 40
1.0
 40
1.0
 40
1.0
 40
2.0
 40
2.0
 40
2.0
 40
3.0
 40
3.0
 40
3.0
 40
4.0
 40
4.0
 40
4.0
 40
5.0
 40
5.0
 40
5.0
 40
6.0
 40
6.0
 40
6.0
 40
7.0
 40
7.0
 40
7.0
 40
8.0
 40
8.0
 40
8.0
 40
9.0
 40
9.0
 40
9.0
 40
10.0
 40
10.0
 40
10.0
 40
11.0
 40
11.0
 40
11.0
 40
12.0
 40
12.0
 40
12.0
 40
13.0
 40
13.0
 40
13.0
 40
14.0
 40
14.0
 40
14.0
 40
15.0
 40
15.0
 40
15.0
 40
16.0
 40
16.0
 40
16.0
 40
16.0
 10
92.53319767651948
 20
-158.6080620263202
 10
92.45499400900431
 20
-158.6080620263202
 10
92.35336369218945
 20
-158.5911810584425
 10
92.25173337537457
 20
-158.5277913015139
 10
92.07844507246651
 20
-158.4178927555344
 10
92.05708548045796
 20
-158.2866346175464
 10
92.03813745528907
 20
-158.1788031288581
 10
92.03813745528907
 20
-158.1788031288581
 10
92.2603461140877
 20
-158.1788031288581
 10
92.2603461140877
 20
-158.1788031288581
 10
92.31512313230317
 20
-158.377585138357
 10
92.44224715570888
 20
-158.4072129595301
 10
92.53526473381064
 20
-158.4072129595301
 10
92.67479110096325
 20
-158.4072129595301
 10
92.8270643214113
 20
-158.3076497000064
 10
92.8270643214113
 20
-158.0751057547521
 10
92.8270643214113
 20
-157.819135160198
 10
92.64723033708125
 20
-157.7491997218474
 10
92.52665199509751
 20
-157.7491997218474
 10
92.49495711663322
 20
-157.7491997218474
 10
92.35336369218945
 20
-157.7491997218474
 10
92.26448022867
 20
-157.8783908025443
 10
92.26448022867
 20
-157.8783908025443
 10
92.08878035892225
 20
-157.8594427773754
 10
92.08878035892225
 20
-157.8594427773754
 10
92.08878035892225
 20
-157.8594427773754
 10
92.209358700906
 20
-157.0129828166495
 10
92.209358700906
 20
-157.0129828166495
 10
92.209358700906
 20
-157.0129828166495
 10
92.98795028057246
 20
-157.0129828166495
 10
92.98795028057246
 20
-157.0129828166495
 10
92.98795028057246
 20
-157.0129828166495
 10
92.98795028057246
 20
-157.2076307115662
 10
92.98795028057246
 20
-157.2076307115662
 10
92.98795028057246
 20
-157.2076307115662
 10
92.37231171735831
 20
-157.2076307115662
 10
92.37231171735831
 20
-157.2076307115662
 10
92.37231171735831
 20
-157.2076307115662
 10
92.30685490313857
 20
-157.6306884371548
 10
92.30685490313857
 20
-157.6306884371548
 10
92.36817760277602
 20
-157.5969265013994
 10
92.45051538487348
 20
-157.556618884222
 10
92.56902666956609
 20
-157.556618884222
 10
92.822930206829
 20
-157.556618884222
 10
93.05995277621419
 20
-157.742998549974
 10
93.05995277621419
 20
-158.0561577295832
 10
93.05995277621419
 20
-158.3734510237747
 10
92.83567706012442
 20
-158.6080620263202
 10
92.53319767651948
 20
-158.6080620263202
 97
        0
 97
        0
 75
     2
 76
     1
 98
        0
  0
ENDBLK
  5
FC
330
F9
100
AcDbEntity
  8
0
100
AcDbBlockEnd
  0
BLOCK
  5
10B
330
109
100
AcDbEntity
  8
0
100
AcDbBlockBegin
  2
block 9
 70
     0
 10
0.0
 20
0.0
 30
0.0
  3
block 9
  1

  0
SPLINE
  5
10D
330
109
100
AcDbEntity
  8
_U+30EC_U+30A4_U+30E4_U+30FC 1
370
     0
100
AcDbSpline
210
0.0
220
0.0
230
1.0
 70
    11
 71
     3
 72
    26
 73
    22
 74
     0
 42
0.0000000001
 43
0.0000000001
 12
1.0
 22
0.0
 32
0.0
 13
1.0
 23
0.0
 33
0.0
 40
0.0
 40
0.0
 40
0.0
 40
0.0
 40
1.0
 40
1.0
 40
1.0
 40
2.0
 40
2.0
 40
2.0
 40
3.0
 40
3.0
 40
3.0
 40
4.0
 40
4.0
 40
4.0
 40
5.0
 40
5.0
 40
5.0
 40
6.0
 40
6.0
 40
6.0
 40
7.0
 40
7.0
 40
7.0
 40
7.0
 10
90.8738674360489
 20
-105.5039821784851
 30
0.0
 10
90.8738674360489
 20
-105.5039821784851
 30
0.0
 10
90.8738674360489
 20
-104.3996568206883
 30
0.0
 10
90.8738674360489
 20
-104.3996568206883
 30
0.0
 10
90.8738674360489
 20
-104.3996568206883
 30
0.0
 10
90.54382728856197
 20
-104.3996568206883
 30
0.0
 10
90.54382728856197
 20
-104.3996568206883
 30
0.0
 10
90.54382728856197
 20
-104.3996568206883
 30
0.0
 10
90.54382728856197
 20
-104.2516899695968
 30
0.0
 10
90.54382728856197
 20
-104.2516899695968
 30
0.0
 10
90.87593449334005
 20
-104.2368760590102
 30
0.0
 10
90.92244328239092
 20
-104.0739230425579
 30
0.0
 10
90.95207110356407
 20
-103.9597181272219
 30
0.0
 10
90.95207110356407
 20
-103.9597181272219
 30
0.0
 10
91.09814315213866
 20
-103.9597181272219
 30
0.0
 10
91.09814315213866
 20
-103.9597181272219
 30
0.0
 10
91.09814315213866
 20
-103.9597181272219
 30
0.0
 10
91.09814315213866
 20
-105.5039821784851
 30
0.0
 10
91.09814315213866
 20
-105.5039821784851
 30
0.0
 10
91.09814315213866
 20
-105.5039821784851
 30
0.0
 10
90.8738674360489
 20
-105.5039821784851
 30
0.0
 10
90.8738674360489
 20
-105.5039821784851
 30
0.0
  0
HATCH
  5
10E
330
109
100
AcDbEntity
  8
_U+30EC_U+30A4_U+30E4_U+30FC 1
 62
     7
420
 16777215
100
AcDbHatch
 10
0.0
 20
0.0
 30
0.0
210
0.0
220
0.0
230
1.0
  2
SOLID
 70
     1
 71
     0
 91
        1
 92
        1
 93
        1
 72
     4
 94
        3
 73
     0
 74
     1
 95
       26
 96
       22
 40
0.0
 40
0.0
 40
0.0
 40
0.0
 40
1.0
 40
1.0
 40
1.0
 40
2.0
 40
2.0
 40
2.0
 40
3.0
 40
3.0
 40
3.0
 40
4.0
 40
4.0
 40
4.0
 40
5.0
 40
5.0
 40
5.0
 40
6.0
 40
6.0
 40
6.0
 40
7.0
 40
7.0
 40
7.0
 40
7.0
 10
90.8738674360489
 20
-105.5039821784851
 10
90.8738674360489
 20
-105.5039821784851
 10
90.8738674360489
 20
-104.3996568206883
 10
90.8738674360489
 20
-104.3996568206883
 10
90.8738674360489
 20
-104.3996568206883
 10
90.54382728856197
 20
-104.3996568206883
 10
90.54382728856197
 20
-104.3996568206883
 10
90.54382728856197
 20
-104.3996568206883
 10
90.54382728856197
 20
-104.2516899695968
 10
90.54382728856197
 20
-104.2516899695968
 10
90.87593449334005
 20
-104.2368760590102
 10
90.92244328239092
 20
-104.0739230425579
 10
90.95207110356407
 20
-103.9597181272219
 10
90.95207110356407
 20
-103.9597181272219
 10
91.09814315213866
 20
-103.9597181272219
 10
91.09814315213866
 20
-103.9597181272219
 10
91.09814315213866
 20
-103.9597181272219
 10
91.09814315213866
 20
-105.5039821784851
 10
91.09814315213866
 20
-105.5039821784851
 10
91.09814315213866
 20
-105.5039821784851
 10
90.8738674360489
 20
-105.5039821784851
 10
90.8738674360489
 20
-105.5039821784851
 97
        0
 97
        0
 75
     2
 76
     1
 98
        0
  0
POLYLINE
  5
10F
330
109
100
AcDbEntity
  8
_U+30EC_U+30A4_U+30E4_U+30FC 1
370
     0
100
AcDb2dPolyline
 66
     1
 10
0.0
 20
0.0
 30
0.0
  0
VERTEX
  5
110
330
10F
100
AcDbEntity
  8
_U+30EC_U+30A4_U+30E4_U+30FC 1
370
     0
100
AcDbVertex
100
AcDb2dVertex
 10
91.6591769519116
 20
-105.5039821784851
 30
0.0
  0
VERTEX
  5
111
330
10F
100
AcDbEntity
  8
_U+30EC_U+30A4_U+30E4_U+30FC 1
370
     0
100
AcDbVertex
100
AcDb2dVertex
 10
91.6591769519116
 20
-105.2523179532876
 30
0.0
  0
VERTEX
  5
112
330
10F
100
AcDbEntity
  8
_U+30EC_U+30A4_U+30E4_U+30FC 1
370
     0
100
AcDbVertex
100
AcDb2dVertex
 10
91.91101343188336
 20
-105.2523179532876
 30
0.0
  0
VERTEX
  5
113
330
10F
100
AcDbEntity
  8
_U+30EC_U+30A4_U+30E4_U+30FC 1
370
     0
100
AcDbVertex
100
AcDb2dVertex
 10
91.91101343188336
 20
-105.5039821784851
 30
0.0
  0
VERTEX
  5
114
330
10F
100
AcDbEntity
  8
_U+30EC_U+30A4_U+30E4_U+30FC 1
370
     0
100
AcDbVertex
100
AcDb2dVertex
 10
91.6591769519116
 20
-105.5039821784851
 30
0.0
  0
SEQEND
  5
115
330
10F
100
AcDbEntity
  8
_U+30EC_U+30A4_U+30E4_U+30FC 1
370
     0
  0
HATCH
  5
116
330
109
100
AcDbEntity
  8
_U+30EC_U+30A4_U+30E4_U+30FC 1
 62
     7
420
 16777215
100
AcDbHatch
 10
0.0
 20
0.0
 30
0.0
210
0.0
220
0.0
230
1.0
  2
SOLID
 70
     1
 71
     0
 91
        1
 92
        1
 93
        4
 72
     1
 10
91.6591769519116
 20
-105.5039821784851
 11
91.6591769519116
 21
-105.2523179532876
 72
     1
 10
91.6591769519116
 20
-105.2523179532876
 11
91.91101343188336
 21
-105.2523179532876
 72
     1
 10
91.91101343188336
 20
-105.2523179532876
 11
91.91101343188336
 21
-105.5039821784851
 72
     1
 10
91.91101343188336
 20
-105.5039821784851
 11
91.6591769519116
 21
-105.5039821784851
 97
        0
 75
     2
 76
     1
 98
        0
  0
SPLINE
  5
117
330
109
100
AcDbEntity
  8
_U+30EC_U+30A4_U+30E4_U+30FC 1
370
     0
100
AcDbSpline
210
0.0
220
0.0
230
1.0
 70
    11
 71
     3
 72
    26
 73
    22
 74
     0
 42
0.0000000001
 43
0.0000000001
 12
1.0
 22
0.0
 32
0.0
 13
1.0
 23
0.0
 33
0.0
 40
0.0
 40
0.0
 40
0.0
 40
0.0
 40
1.0
 40
1.0
 40
1.0
 40
2.0
 40
2.0
 40
2.0
 40
3.0
 40
3.0
 40
3.0
 40
4.0
 40
4.0
 40
4.0
 40
5.0
 40
5.0
 40
5.0
 40
6.0
 40
6.0
 40
6.0
 40
7.0
 40
7.0
 40
7.0
 40
7.0
 10
92.59899900028775
 20
-105.5039821784851
 30
0.0
 10
92.59899900028775
 20
-105.5039821784851
 30
0.0
 10
92.59899900028775
 20
-104.3996568206883
 30
0.0
 10
92.59899900028775
 20
-104.3996568206883
 30
0.0
 10
92.59899900028775
 20
-104.3996568206883
 30
0.0
 10
92.26895885280082
 20
-104.3996568206883
 30
0.0
 10
92.26895885280082
 20
-104.3996568206883
 30
0.0
 10
92.26895885280082
 20
-104.3996568206883
 30
0.0
 10
92.26895885280082
 20
-104.2516899695968
 30
0.0
 10
92.26895885280082
 20
-104.2516899695968
 30
0.0
 10
92.6010660575789
 20
-104.2368760590102
 30
0.0
 10
92.64757484662978
 20
-104.0739230425579
 30
0.0
 10
92.67720266780293
 20
-103.9597181272219
 30
0.0
 10
92.67720266780293
 20
-103.9597181272219
 30
0.0
 10
92.82327471637753
 20
-103.9597181272219
 30
0.0
 10
92.82327471637753
 20
-103.9597181272219
 30
0.0
 10
92.82327471637753
 20
-103.9597181272219
 30
0.0
 10
92.82327471637753
 20
-105.5039821784851
 30
0.0
 10
92.82327471637753
 20
-105.5039821784851
 30
0.0
 10
92.82327471637753
 20
-105.5039821784851
 30
0.0
 10
92.59899900028775
 20
-105.5039821784851
 30
0.0
 10
92.59899900028775
 20
-105.5039821784851
 30
0.0
  0
HATCH
  5
118
330
109
100
AcDbEntity
  8
_U+30EC_U+30A4_U+30E4_U+30FC 1
 62
     7
420
 16777215
100
AcDbHatch
 10
0.0
 20
0.0
 30
0.0
210
0.0
220
0.0
230
1.0
  2
SOLID
 70
     1
 71
     0
 91
        1
 92
        1
 93
        1
 72
     4
 94
        3
 73
     0
 74
     1
 95
       26
 96
       22
 40
0.0
 40
0.0
 40
0.0
 40
0.0
 40
1.0
 40
1.0
 40
1.0
 40
2.0
 40
2.0
 40
2.0
 40
3.0
 40
3.0
 40
3.0
 40
4.0
 40
4.0
 40
4.0
 40
5.0
 40
5.0
 40
5.0
 40
6.0
 40
6.0
 40
6.0
 40
7.0
 40
7.0
 40
7.0
 40
7.0
 10
92.59899900028775
 20
-105.5039821784851
 10
92.59899900028775
 20
-105.5039821784851
 10
92.59899900028775
 20
-104.3996568206883
 10
92.59899900028775
 20
-104.3996568206883
 10
92.59899900028775
 20
-104.3996568206883
 10
92.26895885280082
 20
-104.3996568206883
 10
92.26895885280082
 20
-104.3996568206883
 10
92.26895885280082
 20
-104.3996568206883
 10
92.26895885280082
 20
-104.2516899695968
 10
92.26895885280082
 20
-104.2516899695968
 10
92.6010660575789
 20
-104.2368760590102
 10
92.64757484662978
 20
-104.0739230425579
 10
92.67720266780293
 20
-103.9597181272219
 10
92.67720266780293
 20
-103.9597181272219
 10
92.82327471637753
 20
-103.9597181272219
 10
92.82327471637753
 20
-103.9597181272219
 10
92.82327471637753
 20
-103.9597181272219
 10
92.82327471637753
 20
-105.5039821784851
 10
92.82327471637753
 20
-105.5039821784851
 10
92.82327471637753
 20
-105.5039821784851
 10
92.59899900028775
 20
-105.5039821784851
 10
92.59899900028775
 20
-105.5039821784851
 97
        0
 97
        0
 75
     2
 76
     1
 98
        0
  0
ENDBLK
  5
10C
330
109
100
AcDbEntity
  8
0
100
AcDbBlockEnd
  0
ENDSEC
  0
SECTION
  2
ENTITIES
  0
POLYLINE
  5
41
330
1F
100
AcDbEntity
  8
_U+30EC_U+30A4_U+30E4_U+30FC 1
 62
     7
420
 16777215
370
    25
100
AcDb2dPolyline
 66
     1
 10
0.0
 20
0.0
 30
0.0
  0
VERTEX
  5
42
330
41
100
AcDbEntity
  8
_U+30EC_U+30A4_U+30E4_U+30FC 1
 62
     7
420
 16777215
370
    25
100
AcDbVertex
100
AcDb2dVertex
 10
94.5399617547513
 20
-140.4492999648876
 30
0.0
  0
VERTEX
  5
43
330
41
100
AcDbEntity
  8
_U+30EC_U+30A4_U+30E4_U+30FC 1
 62
     7
420
 16777215
370
    25
100
AcDbVertex
100
AcDb2dVertex
 10
94.5399617547513
 20
-96.55326692030617
 30
0.0
  0
VERTEX
  5
44
330
41
100
AcDbEntity
  8
_U+30EC_U+30A4_U+30E4_U+30FC 1
 62
     7
420
 16777215
370
    25
100
AcDbVertex
100
AcDb2dVertex
 10
95.63999339335382
 20
-96.55326692030617
 30
0.0
  0
VERTEX
  5
45
330
41
100
AcDbEntity
  8
_U+30EC_U+30A4_U+30E4_U+30FC 1
 62
     7
420
 16777215
370
    25
100
AcDbVertex
100
AcDb2dVertex
 10
95.63999339335382
 20
-141.5531063535005
 30
0.0
  0
VERTEX
  5
46
330
41
100
AcDbEntity
  8
_U+30EC_U+30A4_U+30E4_U+30FC 1
 62
     7
420
 16777215
370
    25
100
AcDbVertex
100
AcDb2dVertex
 10
85.64008420402831
 20
-141.5531063535005
 30
0.0
  0
VERTEX
  5
47
330
41
100
AcDbEntity
  8
_U+30EC_U+30A4_U+30E4_U+30FC 1
 62
     7
420
 16777215
370
    25
100
AcDbVertex
100
AcDb2dVertex
 10
85.63973142625954
 20
-141.5531063535005
 30
0.0
  0
VERTEX
  5
48
330
41
100
AcDbEntity
  8
_U+30EC_U+30A4_U+30E4_U+30FC 1
 62
     7
420
 16777215
370
    25
100
AcDbVertex
100
AcDb2dVertex
 10
85.63973142625954
 20
-154.0532930170422
 30
0.0
  0
VERTEX
  5
49
330
41
100
AcDbEntity
  8
_U+30EC_U+30A4_U+30E4_U+30FC 1
 62
     7
420
 16777215
370
    25
100
AcDbVertex
100
AcDb2dVertex
 10
85.63973142625954
 20
-154.0536457948199
 30
0.0
  0
VERTEX
  5
4A
330
41
100
AcDbEntity
  8
_U+30EC_U+30A4_U+30E4_U+30FC 1
 62
     7
420
 16777215
370
    25
100
AcDbVertex
100
AcDb2dVertex
 10
98.43946386427876
 20
-154.0536457948199
 30
0.0
  0
VERTEX
  5
4B
330
41
100
AcDbEntity
  8
_U+30EC_U+30A4_U+30E4_U+30FC 1
 62
     7
420
 16777215
370
    25
100
AcDbVertex
100
AcDb2dVertex
 10
98.43946386427876
 20
-152.6535766285035
 30
0.0
  0
VERTEX
  5
4C
330
41
100
AcDbEntity
  8
_U+30EC_U+30A4_U+30E4_U+30FC 1
 62
     7
420
 16777215
370
    25
100
AcDbVertex
100
AcDb2dVertex
 10
98.43981664205653
 20
-152.6532238507257
 30
0.0
  0
VERTEX
  5
4D
330
41
100
AcDbEntity
  8
_U+30EC_U+30A4_U+30E4_U+30FC 1
 62
     7
420
 16777215
370
    25
100
AcDbVertex
100
AcDb2dVertex
 10
94.5399617547513
 20
-152.6532238507257
 30
0.0
  0
VERTEX
  5
4E
330
41
100
AcDbEntity
  8
_U+30EC_U+30A4_U+30E4_U+30FC 1
 62
     7
420
 16777215
370
    25
100
AcDbVertex
100
AcDb2dVertex
 10
94.5399617547513
 20
-151.5531921843338
 30
0.0
  0
VERTEX
  5
4F
330
41
100
AcDbEntity
  8
_U+30EC_U+30A4_U+30E4_U+30FC 1
 62
     7
420
 16777215
370
    25
100
AcDbVertex
100
AcDb2dVertex
 10
99.53984579386031
 20
-151.5531921843338
 30
0.0
  0
VERTEX
  5
50
330
41
100
AcDbEntity
  8
_U+30EC_U+30A4_U+30E4_U+30FC 1
 62
     7
420
 16777215
370
    25
100
AcDbVertex
100
AcDb2dVertex
 10
99.53984579386031
 20
-155.1533246834341
 30
0.0
  0
VERTEX
  5
51
330
41
100
AcDbEntity
  8
_U+30EC_U+30A4_U+30E4_U+30FC 1
 62
     7
420
 16777215
370
    25
100
AcDbVertex
100
AcDb2dVertex
 10
84.53987617654141
 20
-155.1533246834341
 30
0.0
  0
VERTEX
  5
52
330
41
100
AcDbEntity
  8
_U+30EC_U+30A4_U+30E4_U+30FC 1
 62
     7
420
 16777215
370
    25
100
AcDbVertex
100
AcDb2dVertex
 10
84.53987617654141
 20
-135.1535057995452
 30
0.0
  0
VERTEX
  5
53
330
41
100
AcDbEntity
  8
_U+30EC_U+30A4_U+30E4_U+30FC 1
 62
     7
420
 16777215
370
    25
100
AcDbVertex
100
AcDb2dVertex
 10
87.53986304444982
 20
-135.1535057995452
 30
0.0
  0
VERTEX
  5
54
330
41
100
AcDbEntity
  8
_U+30EC_U+30A4_U+30E4_U+30FC 1
 62
     7
420
 16777215
370
    25
100
AcDbVertex
100
AcDb2dVertex
 10
87.53986304444982
 20
-136.2535374659365
 30
0.0
  0
VERTEX
  5
55
330
41
100
AcDbEntity
  8
_U+30EC_U+30A4_U+30E4_U+30FC 1
 62
     7
420
 16777215
370
    25
100
AcDbVertex
100
AcDb2dVertex
 10
85.63990781514393
 20
-136.2535374659365
 30
0.0
  0
VERTEX
  5
56
330
41
100
AcDbEntity
  8
_U+30EC_U+30A4_U+30E4_U+30FC 1
 62
     7
420
 16777215
370
    25
100
AcDbVertex
100
AcDb2dVertex
 10
85.63973142625954
 20
-136.252831910381
 30
0.0
  0
VERTEX
  5
57
330
41
100
AcDbEntity
  8
_U+30EC_U+30A4_U+30E4_U+30FC 1
 62
     7
420
 16777215
370
    25
100
AcDbVertex
100
AcDb2dVertex
 10
85.63973142625954
 20
-140.4527571871089
 30
0.0
  0
VERTEX
  5
58
330
41
100
AcDbEntity
  8
_U+30EC_U+30A4_U+30E4_U+30FC 1
 62
     7
420
 16777215
370
    25
100
AcDbVertex
100
AcDb2dVertex
 10
85.6364527563686
 20
-140.4527571871089
 30
0.0
  0
VERTEX
  5
59
330
41
100
AcDbEntity
  8
_U+30EC_U+30A4_U+30E4_U+30FC 1
 62
     7
420
 16777215
370
    25
100
AcDbVertex
100
AcDb2dVertex
 10
94.53650453261729
 20
-140.4527571871089
 30
0.0
  0
VERTEX
  5
5A
330
41
100
AcDbEntity
  8
_U+30EC_U+30A4_U+30E4_U+30FC 1
 62
     7
420
 16777215
370
    25
100
AcDbVertex
100
AcDb2dVertex
 10
94.5399617547513
 20
-140.4492999648876
 30
0.0
  0
SEQEND
  5
5B
330
41
100
AcDbEntity
  8
_U+30EC_U+30A4_U+30E4_U+30FC 1
 62
     7
420
 16777215
370
    25
  0
SPLINE
  5
5C
330
1F
100
AcDbEntity
  8
_U+30EC_U+30A4_U+30E4_U+30FC 1
 62
     7
420
 16777215
370
     9
100
AcDbSpline
210
0.0
220
0.0
230
1.0
 70
    11
 71
     3
 72
    17
 73
    13
 74
     0
 42
0.0000000001
 43
0.0000000001
 12
1.0
 22
0.0
 32
0.0
 13
1.0
 23
0.0
 33
0.0
 40
0.0
 40
0.0
 40
0.0
 40
0.0
 40
1.0
 40
1.0
 40
1.0
 40
2.0
 40
2.0
 40
2.0
 40
3.0
 40
3.0
 40
3.0
 40
4.0
 40
4.0
 40
4.0
 40
4.0
 10
103.6401818003631
 20
-96.55361969808393
 30
0.0
 10
103.6401818003631
 20
-96.4985158092087
 30
0.0
 10
103.5954143015052
 20
-96.45371303144198
 30
0.0
 10
103.5402777518927
 20
-96.45371303144198
 30
0.0
 10
103.4851712487622
 20
-96.45371303144198
 30
0.0
 10
103.4403684721275
 20
-96.4985158092087
 30
0.0
 10
103.4403684721275
 20
-96.55361969808393
 30
0.0
 10
103.4403684721275
 20
-96.60875886473669
 30
0.0
 10
103.4851712487622
 20
-96.65352636472556
 30
0.0
 10
103.5402777518927
 20
-96.65352636472556
 30
0.0
 10
103.5954143015052
 20
-96.65352636472556
 30
0.0
 10
103.6401818003631
 20
-96.60875886473669
 30
0.0
 10
103.6401818003631
 20
-96.55361969808393
 30
0.0
  0
SPLINE
  5
5D
330
1F
100
AcDbEntity
  8
_U+30EC_U+30A4_U+30E4_U+30FC 1
 62
     7
420
 16777215
370
     9
100
AcDbSpline
210
0.0
220
0.0
230
1.0
 70
    11
 71
     3
 72
    17
 73
    13
 74
     0
 42
0.0000000001
 43
0.0000000001
 12
1.0
 22
0.0
 32
0.0
 13
1.0
 23
0.0
 33
0.0
 40
0.0
 40
0.0
 40
0.0
 40
0.0
 40
1.0
 40
1.0
 40
1.0
 40
2.0
 40
2.0
 40
2.0
 40
3.0
 40
3.0
 40
3.0
 40
4.0
 40
4.0
 40
4.0
 40
4.0
 10
103.6401818003631
 20
-141.553811909056
 30
0.0
 10
103.6401818003631
 20
-141.4986727424029
 30
0.0
 10
103.5954143015052
 20
-141.4539052424143
 30
0.0
 10
103.5402777518927
 20
-141.4539052424143
 30
0.0
 10
103.4851712487622
 20
-141.4539052424143
 30
0.0
 10
103.4403684721275
 20
-141.4986727424029
 30
0.0
 10
103.4403684721275
 20
-141.553811909056
 30
0.0
 10
103.4403684721275
 20
-141.6089157979309
 30
0.0
 10
103.4851712487622
 20
-141.6537185756976
 30
0.0
 10
103.5402777518927
 20
-141.6537185756976
 30
0.0
 10
103.5954143015052
 20
-141.6537185756976
 30
0.0
 10
103.6401818003631
 20
-141.6089157979309
 30
0.0
 10
103.6401818003631
 20
-141.553811909056
 30
0.0
  0
SPLINE
  5
5E
330
1F
100
AcDbEntity
  8
_U+30EC_U+30A4_U+30E4_U+30FC 1
 62
     7
420
 16777215
370
     9
100
AcDbSpline
210
0.0
220
0.0
230
1.0
 70
    11
 71
     3
 72
    17
 73
    13
 74
     0
 42
0.0000000001
 43
0.0000000001
 12
1.0
 22
0.0
 32
0.0
 13
1.0
 23
0.0
 33
0.0
 40
0.0
 40
0.0
 40
0.0
 40
0.0
 40
1.0
 40
1.0
 40
1.0
 40
2.0
 40
2.0
 40
2.0
 40
3.0
 40
3.0
 40
3.0
 40
4.0
 40
4.0
 40
4.0
 40
4.0
 10
94.64022119663791
 20
-131.1533938561006
 30
0.0
 10
94.64022119663791
 20
-131.0982899672256
 30
0.0
 10
94.59541842000316
 20
-131.0534871894589
 30
0.0
 10
94.54031453252009
 20
-131.0534871894589
 30
0.0
 10
94.48450508949945
 20
-131.0534871894589
 30
0.0
 10
94.44040786840225
 20
-131.0982899672256
 30
0.0
 10
94.44040786840225
 20
-131.1533938561006
 30
0.0
 10
94.44040786840225
 20
-131.2085330227536
 30
0.0
 10
94.48450508949945
 20
-131.2533005227422
 30
0.0
 10
94.54031453252009
 20
-131.2533005227422
 30
0.0
 10
94.59541842000316
 20
-131.2533005227422
 30
0.0
 10
94.64022119663791
 20
-131.2085330227536
 30
0.0
 10
94.64022119663791
 20
-131.1533938561006
 30
0.0
  0
SPLINE
  5
5F
330
1F
100
AcDbEntity
  8
_U+30EC_U+30A4_U+30E4_U+30FC 1
 62
     7
420
 16777215
370
     9
100
AcDbSpline
210
0.0
220
0.0
230
1.0
 70
    11
 71
     3
 72
    17
 73
    13
 74
     0
 42
0.0000000001
 43
0.0000000001
 12
1.0
 22
0.0
 32
0.0
 13
1.0
 23
0.0
 33
0.0
 40
0.0
 40
0.0
 40
0.0
 40
0.0
 40
1.0
 40
1.0
 40
1.0
 40
2.0
 40
2.0
 40
2.0
 40
3.0
 40
3.0
 40
3.0
 40
4.0
 40
4.0
 40
4.0
 40
4.0
 10
87.63976970856764
 20
-131.1533938561006
 30
0.0
 10
87.63976970856764
 20
-131.0982899672256
 30
0.0
 10
87.59500220970976
 20
-131.0534871894589
 30
0.0
 10
87.53986304444982
 20
-131.0534871894589
 30
0.0
 10
87.48475915696675
 20
-131.0534871894589
 30
0.0
 10
87.43995638033198
 20
-131.0982899672256
 30
0.0
 10
87.43995638033198
 20
-131.1533938561006
 30
0.0
 10
87.43995638033198
 20
-131.2085330227536
 30
0.0
 10
87.48475915696675
 20
-131.2533005227422
 30
0.0
 10
87.53986304444982
 20
-131.2533005227422
 30
0.0
 10
87.59500220970976
 20
-131.2533005227422
 30
0.0
 10
87.63976970856764
 20
-131.2085330227536
 30
0.0
 10
87.63976970856764
 20
-131.1533938561006
 30
0.0
  0
SPLINE
  5
60
330
1F
100
AcDbEntity
  8
_U+30EC_U+30A4_U+30E4_U+30FC 1
 62
     7
420
 16777215
370
     9
100
AcDbSpline
210
0.0
220
0.0
230
1.0
 70
    11
 71
     3
 72
    17
 73
    13
 74
     0
 42
0.0000000001
 43
0.0000000001
 12
1.0
 22
0.0
 32
0.0
 13
1.0
 23
0.0
 33
0.0
 40
0.0
 40
0.0
 40
0.0
 40
0.0
 40
1.0
 40
1.0
 40
1.0
 40
2.0
 40
2.0
 40
2.0
 40
3.0
 40
3.0
 40
3.0
 40
4.0
 40
4.0
 40
4.0
 40
4.0
 10
84.63978284065924
 20
-131.1533938561006
 30
0.0
 10
84.63978284065924
 20
-131.0982899672256
 30
0.0
 10
84.59501534180136
 20
-131.0534871894589
 30
0.0
 10
84.53987617654141
 20
-131.0534871894589
 30
0.0
 10
84.48477228905834
 20
-131.0534871894589
 30
0.0
 10
84.43996951242357
 20
-131.0982899672256
 30
0.0
 10
84.43996951242357
 20
-131.1533938561006
 30
0.0
 10
84.43996951242357
 20
-131.2085330227536
 30
0.0
 10
84.48477228905834
 20
-131.2533005227422
 30
0.0
 10
84.53987617654141
 20
-131.2533005227422
 30
0.0
 10
84.59501534180136
 20
-131.2533005227422
 30
0.0
 10
84.63978284065924
 20
-131.2085330227536
 30
0.0
 10
84.63978284065924
 20
-131.1533938561006
 30
0.0
  0
SPLINE
  5
61
330
1F
100
AcDbEntity
  8
_U+30EC_U+30A4_U+30E4_U+30FC 1
 62
     7
420
 16777215
370
     9
100
AcDbSpline
210
0.0
220
0.0
230
1.0
 70
    11
 71
     3
 72
    17
 73
    13
 74
     0
 42
0.0000000001
 43
0.0000000001
 12
1.0
 22
0.0
 32
0.0
 13
1.0
 23
0.0
 33
0.0
 40
0.0
 40
0.0
 40
0.0
 40
0.0
 40
1.0
 40
1.0
 40
1.0
 40
2.0
 40
2.0
 40
2.0
 40
3.0
 40
3.0
 40
3.0
 40
4.0
 40
4.0
 40
4.0
 40
4.0
 10
80.64002377603494
 20
-135.153858577323
 30
0.0
 10
80.64002377603494
 20
-135.0987194106699
 30
0.0
 10
80.59525831318446
 20
-135.0539519106807
 30
0.0
 10
80.5401171119171
 20
-135.0539519106807
 30
0.0
 10
80.48501322443403
 20
-135.0539519106807
 30
0.0
 10
80.44021044779926
 20
-135.0987194106699
 30
0.0
 10
80.44021044779926
 20
-135.153858577323
 30
0.0
 10
80.44021044779926
 20
-135.2089624661979
 30
0.0
 10
80.48501322443403
 20
-135.2537652439646
 30
0.0
 10
80.5401171119171
 20
-135.2537652439646
 30
0.0
 10
80.59525831318446
 20
-135.2537652439646
 30
0.0
 10
80.64002377603494
 20
-135.2089624661979
 30
0.0
 10
80.64002377603494
 20
-135.153858577323
 30
0.0
  0
SPLINE
  5
62
330
1F
100
AcDbEntity
  8
_U+30EC_U+30A4_U+30E4_U+30FC 1
 62
     7
420
 16777215
370
     9
100
AcDbSpline
210
0.0
220
0.0
230
1.0
 70
    11
 71
     3
 72
    17
 73
    13
 74
     0
 42
0.0000000001
 43
0.0000000001
 12
1.0
 22
0.0
 32
0.0
 13
1.0
 23
0.0
 33
0.0
 40
0.0
 40
0.0
 40
0.0
 40
0.0
 40
1.0
 40
1.0
 40
1.0
 40
2.0
 40
2.0
 40
2.0
 40
3.0
 40
3.0
 40
3.0
 40
4.0
 40
4.0
 40
4.0
 40
4.0
 10
80.64002377603494
 20
-155.1533246834341
 30
0.0
 10
80.64002377603494
 20
-155.098185516781
 30
0.0
 10
80.59525831318446
 20
-155.0534180167925
 30
0.0
 10
80.5401171119171
 20
-155.0534180167925
 30
0.0
 10
80.48501322443403
 20
-155.0534180167925
 30
0.0
 10
80.44021044779926
 20
-155.098185516781
 30
0.0
 10
80.44021044779926
 20
-155.1533246834341
 30
0.0
 10
80.44021044779926
 20
-155.2091341278646
 30
0.0
 10
80.48501322443403
 20
-155.2539016278531
 30
0.0
 10
80.5401171119171
 20
-155.2539016278531
 30
0.0
 10
80.59525831318446
 20
-155.2539016278531
 30
0.0
 10
80.64002377603494
 20
-155.2091341278646
 30
0.0
 10
80.64002377603494
 20
-155.1533246834341
 30
0.0
  0
SPLINE
  5
63
330
1F
100
AcDbEntity
  8
_U+30EC_U+30A4_U+30E4_U+30FC 1
 62
     7
420
 16777215
370
     9
100
AcDbSpline
210
0.0
220
0.0
230
1.0
 70
    11
 71
     3
 72
    17
 73
    13
 74
     0
 42
0.0000000001
 43
0.0000000001
 12
1.0
 22
0.0
 32
0.0
 13
1.0
 23
0.0
 33
0.0
 40
0.0
 40
0.0
 40
0.0
 40
0.0
 40
1.0
 40
1.0
 40
1.0
 40
2.0
 40
2.0
 40
2.0
 40
3.0
 40
3.0
 40
3.0
 40
4.0
 40
4.0
 40
4.0
 40
4.0
 10
84.63978284065924
 20
-159.1537541268783
 30
0.0
 10
84.63978284065924
 20
-159.0986502380034
 30
0.0
 10
84.59501534180136
 20
-159.0538474602367
 30
0.0
 10
84.53987617654141
 20
-159.0538474602367
 30
0.0
 10
84.48477228905834
 20
-159.0538474602367
 30
0.0
 10
84.43996951242357
 20
-159.0986502380034
 30
0.0
 10
84.43996951242357
 20
-159.1537541268783
 30
0.0
 10
84.43996951242357
 20
-159.2088932935314
 30
0.0
 10
84.48477228905834
 20
-159.25366079352
 30
0.0
 10
84.53987617654141
 20
-159.25366079352
 30
0.0
 10
84.59501534180136
 20
-159.25366079352
 30
0.0
 10
84.63978284065924
 20
-159.2088932935314
 30
0.0
 10
84.63978284065924
 20
-159.1537541268783
 30
0.0
  0
SPLINE
  5
64
330
1F
100
AcDbEntity
  8
_U+30EC_U+30A4_U+30E4_U+30FC 1
 62
     7
420
 16777215
370
     9
100
AcDbSpline
210
0.0
220
0.0
230
1.0
 70
    11
 71
     3
 72
    17
 73
    13
 74
     0
 42
0.0000000001
 43
0.0000000001
 12
1.0
 22
0.0
 32
0.0
 13
1.0
 23
0.0
 33
0.0
 40
0.0
 40
0.0
 40
0.0
 40
0.0
 40
1.0
 40
1.0
 40
1.0
 40
2.0
 40
2.0
 40
2.0
 40
3.0
 40
3.0
 40
3.0
 40
4.0
 40
4.0
 40
4.0
 40
4.0
 10
99.63975245797813
 20
-159.1537541268783
 30
0.0
 10
99.63975245797813
 20
-159.0986502380034
 30
0.0
 10
99.59494968134338
 20
-159.0538474602367
 30
0.0
 10
99.53984579386031
 20
-159.0538474602367
 30
0.0
 10
99.48470662860035
 20
-159.0538474602367
 30
0.0
 10
99.43994164180683
 20
-159.0986502380034
 30
0.0
 10
99.43994164180683
 20
-159.1537541268783
 30
0.0
 10
99.43994164180683
 20
-159.2088932935314
 30
0.0
 10
99.48470662860035
 20
-159.25366079352
 30
0.0
 10
99.53984579386031
 20
-159.25366079352
 30
0.0
 10
99.59494968134338
 20
-159.25366079352
 30
0.0
 10
99.63975245797813
 20
-159.2088932935314
 30
0.0
 10
99.63975245797813
 20
-159.1537541268783
 30
0.0
  0
SPLINE
  5
65
330
1F
100
AcDbEntity
  8
_U+30EC_U+30A4_U+30E4_U+30FC 1
 62
     7
420
 16777215
370
     9
100
AcDbSpline
210
0.0
220
0.0
230
1.0
 70
    11
 71
     3
 72
    17
 73
    13
 74
     0
 42
0.0000000001
 43
0.0000000001
 12
1.0
 22
0.0
 32
0.0
 13
1.0
 23
0.0
 33
0.0
 40
0.0
 40
0.0
 40
0.0
 40
0.0
 40
1.0
 40
1.0
 40
1.0
 40
2.0
 40
2.0
 40
2.0
 40
3.0
 40
3.0
 40
3.0
 40
4.0
 40
4.0
 40
4.0
 40
4.0
 10
103.6401818003631
 20
-155.1533246834341
 30
0.0
 10
103.6401818003631
 20
-155.098185516781
 30
0.0
 10
103.5954143015052
 20
-155.0534180167925
 30
0.0
 10
103.5402777518927
 20
-155.0534180167925
 30
0.0
 10
103.4851712487622
 20
-155.0534180167925
 30
0.0
 10
103.4403684721275
 20
-155.098185516781
 30
0.0
 10
103.4403684721275
 20
-155.1533246834341
 30
0.0
 10
103.4403684721275
 20
-155.2091341278646
 30
0.0
 10
103.4851712487622
 20
-155.2539016278531
 30
0.0
 10
103.5402777518927
 20
-155.2539016278531
 30
0.0
 10
103.5954143015052
 20
-155.2539016278531
 30
0.0
 10
103.6401818003631
 20
-155.2091341278646
 30
0.0
 10
103.6401818003631
 20
-155.1533246834341
 30
0.0
  0
SPLINE
  5
66
330
1F
100
AcDbEntity
  8
_U+30EC_U+30A4_U+30E4_U+30FC 1
 62
     7
420
 16777215
370
     9
100
AcDbSpline
210
0.0
220
0.0
230
1.0
 70
    11
 71
     3
 72
    17
 73
    13
 74
     0
 42
0.0000000001
 43
0.0000000001
 12
1.0
 22
0.0
 32
0.0
 13
1.0
 23
0.0
 33
0.0
 40
0.0
 40
0.0
 40
0.0
 40
0.0
 40
1.0
 40
1.0
 40
1.0
 40
2.0
 40
2.0
 40
2.0
 40
3.0
 40
3.0
 40
3.0
 40
4.0
 40
4.0
 40
4.0
 40
4.0
 10
103.6401818003631
 20
-151.5535449621115
 30
0.0
 10
103.6401818003631
 20
-151.4984057954585
 30
0.0
 10
103.5954143015052
 20
-151.4536382954699
 30
0.0
 10
103.5402777518927
 20
-151.4536382954699
 30
0.0
 10
103.4851712487622
 20
-151.4536382954699
 30
0.0
 10
103.4403684721275
 20
-151.4984057954585
 30
0.0
 10
103.4403684721275
 20
-151.5535449621115
 30
0.0
 10
103.4403684721275
 20
-151.6086488509864
 30
0.0
 10
103.4851712487622
 20
-151.6534516287532
 30
0.0
 10
103.5402777518927
 20
-151.6534516287532
 30
0.0
 10
103.5954143015052
 20
-151.6534516287532
 30
0.0
 10
103.6401818003631
 20
-151.6086488509864
 30
0.0
 10
103.6401818003631
 20
-151.5535449621115
 30
0.0
  0
POLYLINE
  5
67
330
1F
100
AcDbEntity
  8
_U+30EC_U+30A4_U+30E4_U+30FC 1
 62
     7
420
 16777215
370
     9
100
AcDb2dPolyline
 66
     1
 10
0.0
 20
0.0
 30
0.0
  0
VERTEX
  5
68
330
67
100
AcDbEntity
  8
_U+30EC_U+30A4_U+30E4_U+30FC 1
 62
     7
420
 16777215
370
     9
100
AcDbVertex
100
AcDb2dVertex
 10
84.53987617654141
 20
-131.1533938561006
 30
0.0
  0
VERTEX
  5
69
330
67
100
AcDbEntity
  8
_U+30EC_U+30A4_U+30E4_U+30FC 1
 62
     7
420
 16777215
370
     9
100
AcDbVertex
100
AcDb2dVertex
 10
87.53986304444982
 20
-131.1533938561006
 30
0.0
  0
SEQEND
  5
6A
330
67
100
AcDbEntity
  8
_U+30EC_U+30A4_U+30E4_U+30FC 1
 62
     7
420
 16777215
370
     9
  0
POLYLINE
  5
6B
330
1F
100
AcDbEntity
  8
_U+30EC_U+30A4_U+30E4_U+30FC 1
 62
     7
420
 16777215
370
     9
100
AcDb2dPolyline
 66
     1
 10
0.0
 20
0.0
 30
0.0
  0
VERTEX
  5
6C
330
6B
100
AcDbEntity
  8
_U+30EC_U+30A4_U+30E4_U+30FC 1
 62
     7
420
 16777215
370
     9
100
AcDbVertex
100
AcDb2dVertex
 10
84.53987617654141
 20
-132.6134352446243
 30
0.0
  0
VERTEX
  5
6D
330
6B
100
AcDbEntity
  8
_U+30EC_U+30A4_U+30E4_U+30FC 1
 62
     7
420
 16777215
370
     9
100
AcDbVertex
100
AcDb2dVertex
 10
84.53987617654141
 20
-130.1536569119062
 30
0.0
  0
SEQEND
  5
6E
330
6B
100
AcDbEntity
  8
_U+30EC_U+30A4_U+30E4_U+30FC 1
 62
     7
420
 16777215
370
     9
  0
POLYLINE
  5
6F
330
1F
100
AcDbEntity
  8
_U+30EC_U+30A4_U+30E4_U+30FC 1
 62
     7
420
 16777215
370
     9
100
AcDb2dPolyline
 66
     1
 10
0.0
 20
0.0
 30
0.0
  0
VERTEX
  5
70
330
6F
100
AcDbEntity
  8
_U+30EC_U+30A4_U+30E4_U+30FC 1
 62
     7
420
 16777215
370
     9
100
AcDbVertex
100
AcDb2dVertex
 10
87.53986304444982
 20
-132.6134352446243
 30
0.0
  0
VERTEX
  5
71
330
6F
100
AcDbEntity
  8
_U+30EC_U+30A4_U+30E4_U+30FC 1
 62
     7
420
 16777215
370
     9
100
AcDbVertex
100
AcDb2dVertex
 10
87.53986304444982
 20
-130.1536569119062
 30
0.0
  0
SEQEND
  5
72
330
6F
100
AcDbEntity
  8
_U+30EC_U+30A4_U+30E4_U+30FC 1
 62
     7
420
 16777215
370
     9
  0
INSERT
  5
74
330
1F
100
AcDbEntity
  8
_U+30EC_U+30A4_U+30E4_U+30FC 1
100
AcDbBlockReference
  2
block 2
 10
0.0
 20
0.0
 30
0.0
  0
POLYLINE
  5
79
330
1F
100
AcDbEntity
  8
_U+30EC_U+30A4_U+30E4_U+30FC 1
 62
     7
420
 16777215
370
     9
100
AcDb2dPolyline
 66
     1
 10
0.0
 20
0.0
 30
0.0
  0
VERTEX
  5
7A
330
79
100
AcDbEntity
  8
_U+30EC_U+30A4_U+30E4_U+30FC 1
 62
     7
420
 16777215
370
     9
100
AcDbVertex
100
AcDb2dVertex
 10
87.53986304444982
 20
-131.1533938561006
 30
0.0
  0
VERTEX
  5
7B
330
79
100
AcDbEntity
  8
_U+30EC_U+30A4_U+30E4_U+30FC 1
 62
     7
420
 16777215
370
     9
100
AcDbVertex
100
AcDb2dVertex
 10
94.54031453252009
 20
-131.1533938561006
 30
0.0
  0
SEQEND
  5
7C
330
79
100
AcDbEntity
  8
_U+30EC_U+30A4_U+30E4_U+30FC 1
 62
     7
420
 16777215
370
     9
  0
POLYLINE
  5
7D
330
1F
100
AcDbEntity
  8
_U+30EC_U+30A4_U+30E4_U+30FC 1
 62
     7
420
 16777215
370
     9
100
AcDb2dPolyline
 66
     1
 10
0.0
 20
0.0
 30
0.0
  0
VERTEX
  5
7E
330
7D
100
AcDbEntity
  8
_U+30EC_U+30A4_U+30E4_U+30FC 1
 62
     7
420
 16777215
370
     9
100
AcDbVertex
100
AcDb2dVertex
 10
87.53986304444982
 20
-132.6134352446243
 30
0.0
  0
VERTEX
  5
7F
330
7D
100
AcDbEntity
  8
_U+30EC_U+30A4_U+30E4_U+30FC 1
 62
     7
420
 16777215
370
     9
100
AcDbVertex
100
AcDb2dVertex
 10
87.53986304444982
 20
-130.1536569119062
 30
0.0
  0
SEQEND
  5
80
330
7D
100
AcDbEntity
  8
_U+30EC_U+30A4_U+30E4_U+30FC 1
 62
     7
420
 16777215
370
     9
  0
INSERT
  5
82
330
1F
100
AcDbEntity
  8
_U+30EC_U+30A4_U+30E4_U+30FC 1
100
AcDbBlockReference
  2
block 3
 10
0.0
 20
0.0
 30
0.0
  0
POLYLINE
  5
87
330
1F
100
AcDbEntity
  8
_U+30EC_U+30A4_U+30E4_U+30FC 1
 62
     7
420
 16777215
370
     9
100
AcDb2dPolyline
 66
     1
 10
0.0
 20
0.0
 30
0.0
  0
VERTEX
  5
88
330
87
100
AcDbEntity
  8
_U+30EC_U+30A4_U+30E4_U+30FC 1
 62
     7
420
 16777215
370
     9
100
AcDbVertex
100
AcDb2dVertex
 10
80.5401171119171
 20
-135.153858577323
 30
0.0
  0
VERTEX
  5
89
330
87
100
AcDbEntity
  8
_U+30EC_U+30A4_U+30E4_U+30FC 1
 62
     7
420
 16777215
370
     9
100
AcDbVertex
100
AcDb2dVertex
 10
80.5401171119171
 20
-155.1533246834341
 30
0.0
  0
SEQEND
  5
8A
330
87
100
AcDbEntity
  8
_U+30EC_U+30A4_U+30E4_U+30FC 1
 62
     7
420
 16777215
370
     9
  0
POLYLINE
  5
8B
330
1F
100
AcDbEntity
  8
_U+30EC_U+30A4_U+30E4_U+30FC 1
 62
     7
420
 16777215
370
     9
100
AcDb2dPolyline
 66
     1
 10
0.0
 20
0.0
 30
0.0
  0
VERTEX
  5
8C
330
8B
100
AcDbEntity
  8
_U+30EC_U+30A4_U+30E4_U+30FC 1
 62
     7
420
 16777215
370
     9
100
AcDbVertex
100
AcDb2dVertex
 10
82.00015846355723
 20
-135.153858577323
 30
0.0
  0
VERTEX
  5
8D
330
8B
100
AcDbEntity
  8
_U+30EC_U+30A4_U+30E4_U+30FC 1
 62
     7
420
 16777215
370
     9
100
AcDbVertex
100
AcDb2dVertex
 10
79.53967463744051
 20
-135.153858577323
 30
0.0
  0
SEQEND
  5
8E
330
8B
100
AcDbEntity
  8
_U+30EC_U+30A4_U+30E4_U+30FC 1
 62
     7
420
 16777215
370
     9
  0
POLYLINE
  5
8F
330
1F
100
AcDbEntity
  8
_U+30EC_U+30A4_U+30E4_U+30FC 1
 62
     7
420
 16777215
370
     9
100
AcDb2dPolyline
 66
     1
 10
0.0
 20
0.0
 30
0.0
  0
VERTEX
  5
90
330
8F
100
AcDbEntity
  8
_U+30EC_U+30A4_U+30E4_U+30FC 1
 62
     7
420
 16777215
370
     9
100
AcDbVertex
100
AcDb2dVertex
 10
82.00015846355723
 20
-155.1533246834341
 30
0.0
  0
VERTEX
  5
91
330
8F
100
AcDbEntity
  8
_U+30EC_U+30A4_U+30E4_U+30FC 1
 62
     7
420
 16777215
370
     9
100
AcDbVertex
100
AcDb2dVertex
 10
79.53967463744051
 20
-155.1533246834341
 30
0.0
  0
SEQEND
  5
92
330
8F
100
AcDbEntity
  8
_U+30EC_U+30A4_U+30E4_U+30FC 1
 62
     7
420
 16777215
370
     9
  0
INSERT
  5
94
330
1F
100
AcDbEntity
  8
_U+30EC_U+30A4_U+30E4_U+30FC 1
100
AcDbBlockReference
  2
block 4
 10
0.0
 20
0.0
 30
0.0
  0
POLYLINE
  5
9C
330
1F
100
AcDbEntity
  8
_U+30EC_U+30A4_U+30E4_U+30FC 1
 62
     7
420
 16777215
370
     9
100
AcDb2dPolyline
 66
     1
 10
0.0
 20
0.0
 30
0.0
  0
VERTEX
  5
9D
330
9C
100
AcDbEntity
  8
_U+30EC_U+30A4_U+30E4_U+30FC 1
 62
     7
420
 16777215
370
     9
100
AcDbVertex
100
AcDb2dVertex
 10
103.5402777518927
 20
-151.5531921843338
 30
0.0
  0
VERTEX
  5
9E
330
9C
100
AcDbEntity
  8
_U+30EC_U+30A4_U+30E4_U+30FC 1
 62
     7
420
 16777215
370
     9
100
AcDbVertex
100
AcDb2dVertex
 10
103.5402777518927
 20
-155.1533246834341
 30
0.0
  0
SEQEND
  5
9F
330
9C
100
AcDbEntity
  8
_U+30EC_U+30A4_U+30E4_U+30FC 1
 62
     7
420
 16777215
370
     9
  0
POLYLINE
  5
A0
330
1F
100
AcDbEntity
  8
_U+30EC_U+30A4_U+30E4_U+30FC 1
 62
     7
420
 16777215
370
     9
100
AcDb2dPolyline
 66
     1
 10
0.0
 20
0.0
 30
0.0
  0
VERTEX
  5
A1
330
A0
100
AcDbEntity
  8
_U+30EC_U+30A4_U+30E4_U+30FC 1
 62
     7
420
 16777215
370
     9
100
AcDbVertex
100
AcDb2dVertex
 10
102.0802337846052
 20
-151.5535449621115
 30
0.0
  0
VERTEX
  5
A2
330
A0
100
AcDbEntity
  8
_U+30EC_U+30A4_U+30E4_U+30FC 1
 62
     7
420
 16777215
370
     9
100
AcDbVertex
100
AcDb2dVertex
 10
104.5400499738653
 20
-151.5535449621115
 30
0.0
  0
SEQEND
  5
A3
330
A0
100
AcDbEntity
  8
_U+30EC_U+30A4_U+30E4_U+30FC 1
 62
     7
420
 16777215
370
     9
  0
POLYLINE
  5
A4
330
1F
100
AcDbEntity
  8
_U+30EC_U+30A4_U+30E4_U+30FC 1
 62
     7
420
 16777215
370
     9
100
AcDb2dPolyline
 66
     1
 10
0.0
 20
0.0
 30
0.0
  0
VERTEX
  5
A5
330
A4
100
AcDbEntity
  8
_U+30EC_U+30A4_U+30E4_U+30FC 1
 62
     7
420
 16777215
370
     9
100
AcDbVertex
100
AcDb2dVertex
 10
102.0802337846052
 20
-155.1533246834341
 30
0.0
  0
VERTEX
  5
A6
330
A4
100
AcDbEntity
  8
_U+30EC_U+30A4_U+30E4_U+30FC 1
 62
     7
420
 16777215
370
     9
100
AcDbVertex
100
AcDb2dVertex
 10
104.5400499738653
 20
-155.1533246834341
 30
0.0
  0
SEQEND
  5
A7
330
A4
100
AcDbEntity
  8
_U+30EC_U+30A4_U+30E4_U+30FC 1
 62
     7
420
 16777215
370
     9
  0
INSERT
  5
A9
330
1F
100
AcDbEntity
  8
_U+30EC_U+30A4_U+30E4_U+30FC 1
100
AcDbBlockReference
  2
block 5
 10
0.0
 20
0.0
 30
0.0
  0
POLYLINE
  5
B9
330
1F
100
AcDbEntity
  8
_U+30EC_U+30A4_U+30E4_U+30FC 1
 62
     7
420
 16777215
370
     9
100
AcDb2dPolyline
 66
     1
 10
0.0
 20
0.0
 30
0.0
  0
VERTEX
  5
BA
330
B9
100
AcDbEntity
  8
_U+30EC_U+30A4_U+30E4_U+30FC 1
 62
     7
420
 16777215
370
     9
100
AcDbVertex
100
AcDb2dVertex
 10
103.5402777518927
 20
-151.5535449621115
 30
0.0
  0
VERTEX
  5
BB
330
B9
100
AcDbEntity
  8
_U+30EC_U+30A4_U+30E4_U+30FC 1
 62
     7
420
 16777215
370
     9
100
AcDbVertex
100
AcDb2dVertex
 10
103.5402777518927
 20
-141.5534591312782
 30
0.0
  0
SEQEND
  5
BC
330
B9
100
AcDbEntity
  8
_U+30EC_U+30A4_U+30E4_U+30FC 1
 62
     7
420
 16777215
370
     9
  0
POLYLINE
  5
BD
330
1F
100
AcDbEntity
  8
_U+30EC_U+30A4_U+30E4_U+30FC 1
 62
     7
420
 16777215
370
     9
100
AcDb2dPolyline
 66
     1
 10
0.0
 20
0.0
 30
0.0
  0
VERTEX
  5
BE
330
BD
100
AcDbEntity
  8
_U+30EC_U+30A4_U+30E4_U+30FC 1
 62
     7
420
 16777215
370
     9
100
AcDbVertex
100
AcDb2dVertex
 10
98.07980444222017
 20
-141.553811909056
 30
0.0
  0
VERTEX
  5
BF
330
BD
100
AcDbEntity
  8
_U+30EC_U+30A4_U+30E4_U+30FC 1
 62
     7
420
 16777215
370
     9
100
AcDbVertex
100
AcDb2dVertex
 10
104.5400499738653
 20
-141.553811909056
 30
0.0
  0
SEQEND
  5
C0
330
BD
100
AcDbEntity
  8
_U+30EC_U+30A4_U+30E4_U+30FC 1
 62
     7
420
 16777215
370
     9
  0
INSERT
  5
C2
330
1F
100
AcDbEntity
  8
_U+30EC_U+30A4_U+30E4_U+30FC 1
100
AcDbBlockReference
  2
block 6
 10
0.0
 20
0.0
 30
0.0
  0
POLYLINE
  5
CA
330
1F
100
AcDbEntity
  8
_U+30EC_U+30A4_U+30E4_U+30FC 1
 62
     7
420
 16777215
370
     9
100
AcDb2dPolyline
 66
     1
 10
0.0
 20
0.0
 30
0.0
  0
VERTEX
  5
CB
330
CA
100
AcDbEntity
  8
_U+30EC_U+30A4_U+30E4_U+30FC 1
 62
     7
420
 16777215
370
     9
100
AcDbVertex
100
AcDb2dVertex
 10
103.5402777518927
 20
-141.553811909056
 30
0.0
  0
VERTEX
  5
CC
330
CA
100
AcDbEntity
  8
_U+30EC_U+30A4_U+30E4_U+30FC 1
 62
     7
420
 16777215
370
     9
100
AcDbVertex
100
AcDb2dVertex
 10
103.5402777518927
 20
-96.55361969808393
 30
0.0
  0
SEQEND
  5
CD
330
CA
100
AcDbEntity
  8
_U+30EC_U+30A4_U+30E4_U+30FC 1
 62
     7
420
 16777215
370
     9
  0
POLYLINE
  5
CE
330
1F
100
AcDbEntity
  8
_U+30EC_U+30A4_U+30E4_U+30FC 1
 62
     7
420
 16777215
370
     9
100
AcDb2dPolyline
 66
     1
 10
0.0
 20
0.0
 30
0.0
  0
VERTEX
  5
CF
330
CE
100
AcDbEntity
  8
_U+30EC_U+30A4_U+30E4_U+30FC 1
 62
     7
420
 16777215
370
     9
100
AcDbVertex
100
AcDb2dVertex
 10
98.07980444222017
 20
-96.55361969808393
 30
0.0
  0
VERTEX
  5
D0
330
CE
100
AcDbEntity
  8
_U+30EC_U+30A4_U+30E4_U+30FC 1
 62
     7
420
 16777215
370
     9
100
AcDbVertex
100
AcDb2dVertex
 10
104.5400499738653
 20
-96.55361969808393
 30
0.0
  0
SEQEND
  5
D1
330
CE
100
AcDbEntity
  8
_U+30EC_U+30A4_U+30E4_U+30FC 1
 62
     7
420
 16777215
370
     9
  0
INSERT
  5
D3
330
1F
100
AcDbEntity
  8
_U+30EC_U+30A4_U+30E4_U+30FC 1
100
AcDbBlockReference
  2
block 7
 10
0.0
 20
0.0
 30
0.0
  0
POLYLINE
  5
ED
330
1F
100
AcDbEntity
  8
_U+30EC_U+30A4_U+30E4_U+30FC 1
 62
     7
420
 16777215
370
     9
100
AcDb2dPolyline
 66
     1
 10
0.0
 20
0.0
 30
0.0
  0
VERTEX
  5
EE
330
ED
100
AcDbEntity
  8
_U+30EC_U+30A4_U+30E4_U+30FC 1
 62
     7
420
 16777215
370
     9
100
AcDbVertex
100
AcDb2dVertex
 10
84.53987617654141
 20
-159.1537541268783
 30
0.0
  0
VERTEX
  5
EF
330
ED
100
AcDbEntity
  8
_U+30EC_U+30A4_U+30E4_U+30FC 1
 62
     7
420
 16777215
370
     9
100
AcDbVertex
100
AcDb2dVertex
 10
99.53984579386031
 20
-159.1537541268783
 30
0.0
  0
SEQEND
  5
F0
330
ED
100
AcDbEntity
  8
_U+30EC_U+30A4_U+30E4_U+30FC 1
 62
     7
420
 16777215
370
     9
  0
POLYLINE
  5
F1
330
1F
100
AcDbEntity
  8
_U+30EC_U+30A4_U+30E4_U+30FC 1
 62
     7
420
 16777215
370
     9
100
AcDb2dPolyline
 66
     1
 10
0.0
 20
0.0
 30
0.0
  0
VERTEX
  5
F2
330
F1
100
AcDbEntity
  8
_U+30EC_U+30A4_U+30E4_U+30FC 1
 62
     7
420
 16777215
370
     9
100
AcDbVertex
100
AcDb2dVertex
 10
84.53987617654141
 20
-157.6937480161322
 30
0.0
  0
VERTEX
  5
F3
330
F1
100
AcDbEntity
  8
_U+30EC_U+30A4_U+30E4_U+30FC 1
 62
     7
420
 16777215
370
     9
100
AcDbVertex
100
AcDb2dVertex
 10
84.53987617654141
 20
-160.1535263488502
 30
0.0
  0
SEQEND
  5
F4
330
F1
100
AcDbEntity
  8
_U+30EC_U+30A4_U+30E4_U+30FC 1
 62
     7
420
 16777215
370
     9
  0
POLYLINE
  5
F5
330
1F
100
AcDbEntity
  8
_U+30EC_U+30A4_U+30E4_U+30FC 1
 62
     7
420
 16777215
370
     9
100
AcDb2dPolyline
 66
     1
 10
0.0
 20
0.0
 30
0.0
  0
VERTEX
  5
F6
330
F5
100
AcDbEntity
  8
_U+30EC_U+30A4_U+30E4_U+30FC 1
 62
     7
420
 16777215
370
     9
100
AcDbVertex
100
AcDb2dVertex
 10
99.53984579386031
 20
-157.6937480161322
 30
0.0
  0
VERTEX
  5
F7
330
F5
100
AcDbEntity
  8
_U+30EC_U+30A4_U+30E4_U+30FC 1
 62
     7
420
 16777215
370
     9
100
AcDbVertex
100
AcDb2dVertex
 10
99.53984579386031
 20
-160.1535263488502
 30
0.0
  0
SEQEND
  5
F8
330
F5
100
AcDbEntity
  8
_U+30EC_U+30A4_U+30E4_U+30FC 1
 62
     7
420
 16777215
370
     9
  0
INSERT
  5
FA
330
1F
100
AcDbEntity
  8
_U+30EC_U+30A4_U+30E4_U+30FC 1
100
AcDbBlockReference
  2
block 8
 10
0.0
 20
0.0
 30
0.0
  0
POLYLINE
  5
101
330
1F
100
AcDbEntity
  8
_U+30EC_U+30A4_U+30E4_U+30FC 1
 62
     7
420
 16777215
370
     9
100
AcDb2dPolyline
 66
     1
 10
0.0
 20
0.0
 30
0.0
  0
VERTEX
  5
102
330
101
100
AcDbEntity
  8
_U+30EC_U+30A4_U+30E4_U+30FC 1
 62
     7
420
 16777215
370
     9
100
AcDbVertex
100
AcDb2dVertex
 10
95.74402755736637
 20
-106.1006683068083
 30
0.0
  0
VERTEX
  5
103
330
101
100
AcDbEntity
  8
_U+30EC_U+30A4_U+30E4_U+30FC 1
 62
     7
420
 16777215
370
     9
100
AcDbVertex
100
AcDb2dVertex
 10
90.47321019183612
 20
-106.1006683068083
 30
0.0
  0
SEQEND
  5
104
330
101
100
AcDbEntity
  8
_U+30EC_U+30A4_U+30E4_U+30FC 1
 62
     7
420
 16777215
370
     9
  0
POLYLINE
  5
105
330
1F
100
AcDbEntity
  8
_U+30EC_U+30A4_U+30E4_U+30FC 1
 62
     7
420
 16777215
370
     9
100
AcDb2dPolyline
 66
     1
 10
0.0
 20
0.0
 30
0.0
  0
VERTEX
  5
106
330
105
100
AcDbEntity
  8
_U+30EC_U+30A4_U+30E4_U+30FC 1
 62
     7
420
 16777215
370
     9
100
AcDbVertex
100
AcDb2dVertex
 10
97.74357195079817
 20
-106.1006683068083
 30
0.0
  0
VERTEX
  5
107
330
105
100
AcDbEntity
  8
_U+30EC_U+30A4_U+30E4_U+30FC 1
 62
     7
420
 16777215
370
     9
100
AcDbVertex
100
AcDb2dVertex
 10
95.74402755736637
 20
-106.1006683068083
 30
0.0
  0
SEQEND
  5
108
330
105
100
AcDbEntity
  8
_U+30EC_U+30A4_U+30E4_U+30FC 1
 62
     7
420
 16777215
370
     9
  0
INSERT
  5
10A
330
1F
100
AcDbEntity
  8
_U+30EC_U+30A4_U+30E4_U+30FC 1
100
AcDbBlockReference
  2
block 9
 10
0.0
 20
0.0
 30
0.0
  0
ENDSEC
  0
SECTION
  2
OBJECTS
  0
DICTIONARY
  5
C
330
0
100
AcDbDictionary
281
     1
  3
ACAD_GROUP
350
D
  3
ACAD_LAYOUT
350
1A
  3
ACAD_MATERIAL
350
3B
  3
ACAD_MLEADERSTYLE
350
11A
  3
ACAD_MLINESTYLE
350
17
  3
ACAD_PLOTSETTINGS
350
19
  3
ACAD_PLOTSTYLENAME
350
E
  3
ACAD_TABLESTYLE
350
119
  3
ACAD_VISUALSTYLE
350
2A
  0
SUN
  5
3F
330
29
100
AcDbSun
 90
        1
290
     0
 63
     7
421
 16777215
 40
1.0
291
     1
 91
  2455826
 92
 54000000
292
     0
 70
     2
 71
   256
280
     1
  0
DICTIONARY
  5
D
102
{ACAD_REACTORS
330
C
102
}
330
C
100
AcDbDictionary
281
     1
  0
DICTIONARY
  5
1A
102
{ACAD_REACTORS
330
C
102
}
330
C
100
AcDbDictionary
281
     1
  3
Layout1
350
1E
  3
Layout2
350
26
  3
Model
350
22
  0
DICTIONARY
  5
3B
102
{ACAD_REACTORS
330
C
102
}
330
C
100
AcDbDictionary
281
     1
  3
ByBlock
350
3D
  3
ByLayer
350
3C
  3
Global
350
3E
  0
DICTIONARY
  5
11A
102
{ACAD_REACTORS
330
C
102
}
330
C
100
AcDbDictionary
281
     1
  0
DICTIONARY
  5
17
102
{ACAD_REACTORS
330
C
102
}
330
C
100
AcDbDictionary
281
     1
  3
Standard
350
18
  0
DICTIONARY
  5
19
102
{ACAD_REACTORS
330
C
102
}
330
C
100
AcDbDictionary
281
     1
  0
ACDBDICTIONARYWDFLT
  5
E
102
{ACAD_REACTORS
330
C
102
}
330
C
100
AcDbDictionary
281
     1
  3
Normal
350
F
100
AcDbDictionaryWithDefault
340
F
  0
DICTIONARY
  5
119
102
{ACAD_REACTORS
330
C
102
}
330
C
100
AcDbDictionary
281
     1
  0
DICTIONARY
  5
2A
102
{ACAD_REACTORS
330
C
102
}
330
C
100
AcDbDictionary
281
     1
  3
2dWireframe
350
2F
  3
3D Hidden
350
31
  3
3dWireframe
350
30
  3
Basic
350
32
  3
Brighten
350
36
  3
ColorChange
350
3A
  3
Conceptual
350
34
  3
Dim
350
35
  3
Facepattern
350
39
  3
Flat
350
2B
  3
FlatWithEdges
350
2C
  3
Gouraud
350
2D
  3
GouraudWithEdges
350
2E
  3
Linepattern
350
38
  3
Realistic
350
33
  3
Thicken
350
37
  0
LAYOUT
  5
1E
102
{ACAD_REACTORS
330
1A
102
}
330
1A
100
AcDbPlotSettings
  1

  2
none_device
  4

  6

 40
0.0
 41
0.0
 42
0.0
 43
0.0
 44
0.0
 45
0.0
 46
0.0
 47
0.0
 48
0.0
 49
0.0
140
0.0
141
0.0
142
1.0
143
1.0
 70
   688
 72
     0
 73
     0
 74
     5
  7

 75
    16
 76
     0
 77
     2
 78
   300
147
1.0
148
0.0
149
0.0
100
AcDbLayout
  1
Layout1
 70
     1
 71
     1
 10
0.0
 20
0.0
 11
12.0
 21
9.0
 12
0.0
 22
0.0
 32
0.0
 14
1.000000000000000E+20
 24
1.000000000000000E+20
 34
1.000000000000000E+20
 15
-1.000000000000000E+20
 25
-1.000000000000000E+20
 35
-1.000000000000000E+20
146
0.0
 13
0.0
 23
0.0
 33
0.0
 16
1.0
 26
0.0
 36
0.0
 17
0.0
 27
1.0
 37
0.0
 76
     0
330
1B
  0
LAYOUT
  5
26
102
{ACAD_REACTORS
330
1A
102
}
330
1A
100
AcDbPlotSettings
  1

  2
none_device
  4

  6

 40
0.0
 41
0.0
 42
0.0
 43
0.0
 44
0.0
 45
0.0
 46
0.0
 47
0.0
 48
0.0
 49
0.0
140
0.0
141
0.0
142
1.0
143
1.0
 70
   688
 72
     0
 73
     0
 74
     5
  7

 75
    16
 76
     0
 77
     2
 78
   300
147
1.0
148
0.0
149
0.0
100
AcDbLayout
  1
Layout2
 70
     1
 71
     2
 10
0.0
 20
0.0
 11
0.0
 21
0.0
 12
0.0
 22
0.0
 32
0.0
 14
0.0
 24
0.0
 34
0.0
 15
0.0
 25
0.0
 35
0.0
146
0.0
 13
0.0
 23
0.0
 33
0.0
 16
1.0
 26
0.0
 36
0.0
 17
0.0
 27
1.0
 37
0.0
 76
     0
330
23
  0
LAYOUT
  5
22
102
{ACAD_REACTORS
330
1A
102
}
330
1A
100
AcDbPlotSettings
  1

  2
none_device
  4

  6

 40
0.0
 41
0.0
 42
0.0
 43
0.0
 44
0.0
 45
0.0
 46
0.0
 47
0.0
 48
0.0
 49
0.0
140
0.0
141
0.0
142
1.0
143
1.0
 70
  1712
 72
     0
 73
     0
 74
     0
  7

 75
     0
 76
     0
 77
     2
 78
   300
147
1.0
148
0.0
149
0.0
100
AcDbLayout
  1
Model
 70
     1
 71
     0
 10
0.0
 20
0.0
 11
12.0
 21
9.0
 12
0.0
 22
0.0
 32
0.0
 14
1.000000000000000E+20
 24
1.000000000000000E+20
 34
1.000000000000000E+20
 15
-1.000000000000000E+20
 25
-1.000000000000000E+20
 35
-1.000000000000000E+20
146
0.0
 13
0.0
 23
0.0
 33
0.0
 16
1.0
 26
0.0
 36
0.0
 17
0.0
 27
1.0
 37
0.0
 76
     0
330
1F
331
29
  0
MATERIAL
  5
3D
102
{ACAD_REACTORS
330
3B
102
}
330
3B
100
AcDbMaterial
  1
ByBlock
 72
     1
 94
      127
  0
MATERIAL
  5
3C
102
{ACAD_REACTORS
330
3B
102
}
330
3B
100
AcDbMaterial
  1
ByLayer
 72
     1
 94
      127
  0
MATERIAL
  5
3E
102
{ACAD_REACTORS
330
3B
102
}
330
3B
100
AcDbMaterial
  1
Global
 72
     1
 94
      127
  0
MLINESTYLE
  5
18
102
{ACAD_REACTORS
330
17
102
}
330
17
100
AcDbMlineStyle
  2
Standard
 70
     0
  3

 62
   256
 51
90.0
 52
90.0
 71
     2
 49
0.5
 62
   256
  6
BYLAYER
 49
-0.5
 62
   256
  6
BYLAYER
  0
ACDBPLACEHOLDER
  5
F
102
{ACAD_REACTORS
330
E
102
}
330
E
  0
VISUALSTYLE
  5
2F
102
{ACAD_REACTORS
330
2A
102
}
330
2A
100
AcDbVisualStyle
  2
2dWireframe
 70
     4
177
     2
291
     0
 71
     0
176
     1
 72
     2
176
     1
 73
     0
176
     1
 90
        0
176
     1
 40
-0.6
176
     1
 41
-30.0
176
     1
 62
     5
 63
     7
421
 16777215
176
     1
 74
     1
176
     1
 91
        4
176
     1
 64
     7
176
     1
 65
   257
176
     1
 75
     1
176
     1
175
     1
176
     1
 42
1.0
176
     1
 92
        0
176
     1
 66
   257
176
     1
 43
1.0
176
     1
 76
     1
176
     1
 77
     6
176
     1
 78
     2
176
     1
 67
     7
176
     1
 79
     5
176
     1
170
     0
176
     1
171
     0
176
     1
290
     0
176
     1
 93
        1
176
     1
 44
0.0
176
     1
173
     0
176
     1
  0
VISUALSTYLE
  5
31
102
{ACAD_REACTORS
330
2A
102
}
330
2A
100
AcDbVisualStyle
  2
3D Hidden
 70
     6
177
     2
291
     0
 71
     1
176
     1
 72
     2
176
     1
 73
     2
176
     1
 90
        0
176
     1
 40
-0.6
176
     1
 41
-30.0
176
     1
 62
     5
 63
     7
421
 16777215
176
     1
 74
     2
176
     1
 91
        2
176
     1
 64
     7
176
     1
 65
   257
176
     1
 75
     2
176
     1
175
     1
176
     1
 42
40.0
176
     1
 92
        0
176
     1
 66
   257
176
     1
 43
1.0
176
     1
 76
     1
176
     1
 77
     6
176
     1
 78
     2
176
     1
 67
     7
176
     1
 79
     3
176
     1
170
     0
176
     1
171
     0
176
     1
290
     0
176
     1
 93
        1
176
     1
 44
0.0
176
     1
173
     0
176
     1
  0
VISUALSTYLE
  5
30
102
{ACAD_REACTORS
330
2A
102
}
330
2A
100
AcDbVisualStyle
  2
3dWireframe
 70
     5
177
     2
291
     0
 71
     0
176
     1
 72
     2
176
     1
 73
     0
176
     1
 90
        0
176
     1
 40
-0.6
176
     1
 41
-30.0
176
     1
 62
     5
 63
     7
421
 16777215
176
     1
 74
     1
176
     1
 91
        4
176
     1
 64
     7
176
     1
 65
   257
176
     1
 75
     1
176
     1
175
     1
176
     1
 42
1.0
176
     1
 92
        0
176
     1
 66
   257
176
     1
 43
1.0
176
     1
 76
     1
176
     1
 77
     6
176
     1
 78
     2
176
     1
 67
     7
176
     1
 79
     5
176
     1
170
     0
176
     1
171
     0
176
     1
290
     0
176
     1
 93
        1
176
     1
 44
0.0
176
     1
173
     0
176
     1
  0
VISUALSTYLE
  5
32
102
{ACAD_REACTORS
330
2A
102
}
330
2A
100
AcDbVisualStyle
  2
Basic
 70
     7
177
     2
291
     1
 71
     1
176
     1
 72
     0
176
     1
 73
     1
176
     1
 90
        0
176
     1
 40
-0.6
176
     1
 41
-30.0
176
     1
 62
     5
 63
     7
421
 16777215
176
     1
 74
     0
176
     1
 91
        4
176
     1
 64
     7
176
     1
 65
   257
176
     1
 75
     1
176
     1
175
     1
176
     1
 42
1.0
176
     1
 92
        8
176
     1
 66
     7
176
     1
 43
1.0
176
     1
 76
     1
176
     1
 77
     6
176
     1
 78
     2
176
     1
 67
     7
176
     1
 79
     5
176
     1
170
     0
176
     1
171
     0
176
     1
290
     0
176
     1
 93
        1
176
     1
 44
0.0
176
     1
173
     0
176
     1
  0
VISUALSTYLE
  5
36
102
{ACAD_REACTORS
330
2A
102
}
330
2A
100
AcDbVisualStyle
  2
Brighten
 70
    12
177
     2
291
     1
 71
     2
176
     1
 72
     2
176
     1
 73
     0
176
     1
 90
        0
176
     1
 40
-0.6
176
     1
 41
-30.0
176
     1
 62
     5
 63
     7
421
 16777215
176
     1
 74
     1
176
     1
 91
        4
176
     1
 64
     7
176
     1
 65
   257
176
     1
 75
     1
176
     1
175
     1
176
     1
 42
1.0
176
     1
 92
        8
176
     1
 66
     7
176
     1
 43
1.0
176
     1
 76
     1
176
     1
 77
     6
176
     1
 78
     2
176
     1
 67
     7
176
     1
 79
     5
176
     1
170
     0
176
     1
171
     0
176
     1
290
     0
176
     1
 93
        1
176
     1
 44
50.0
176
     1
173
     0
176
     1
  0
VISUALSTYLE
  5
3A
102
{ACAD_REACTORS
330
2A
102
}
330
2A
100
AcDbVisualStyle
  2
ColorChange
 70
    16
177
     2
291
     1
 71
     2
176
     1
 72
     2
176
     1
 73
     3
176
     1
 90
        0
176
     1
 40
-0.6
176
     1
 41
-30.0
176
     1
 62
     5
 63
     8
421
  8421504
176
     1
 74
     1
176
     1
 91
        4
176
     1
 64
     7
176
     1
 65
   257
176
     1
 75
     1
176
     1
175
     1
176
     1
 42
1.0
176
     1
 92
        8
176
     1
 66
     8
424
  8421504
176
     1
 43
1.0
176
     1
 76
     1
176
     1
 77
     6
176
     1
 78
     2
176
     1
 67
     7
176
     1
 79
     5
176
     1
170
     0
176
     1
171
     0
176
     1
290
     0
176
     1
 93
        1
176
     1
 44
0.0
176
     1
173
     0
176
     1
  0
VISUALSTYLE
  5
34
102
{ACAD_REACTORS
330
2A
102
}
330
2A
100
AcDbVisualStyle
  2
Conceptual
 70
     9
177
     2
291
     0
 71
     3
176
     1
 72
     2
176
     1
 73
     0
176
     1
 90
        0
176
     1
 40
-0.6
176
     1
 41
-30.0
176
     1
 62
     5
 63
     7
421
 16777215
176
     1
 74
     2
176
     1
 91
        2
176
     1
 64
     7
176
     1
 65
   257
176
     1
 75
     1
176
     1
175
     1
176
     1
 42
40.0
176
     1
 92
        8
176
     1
 66
     7
176
     1
 43
1.0
176
     1
 76
     1
176
     1
 77
     6
176
     1
 78
     2
176
     1
 67
     7
176
     1
 79
     3
176
     1
170
     0
176
     1
171
     0
176
     1
290
     0
176
     1
 93
        1
176
     1
 44
0.0
176
     1
173
     0
176
     1
  0
VISUALSTYLE
  5
35
102
{ACAD_REACTORS
330
2A
102
}
330
2A
100
AcDbVisualStyle
  2
Dim
 70
    11
177
     2
291
     1
 71
     2
176
     1
 72
     2
176
     1
 73
     0
176
     1
 90
        0
176
     1
 40
-0.6
176
     1
 41
-30.0
176
     1
 62
     5
 63
     7
421
 16777215
176
     1
 74
     1
176
     1
 91
        4
176
     1
 64
     7
176
     1
 65
   257
176
     1
 75
     1
176
     1
175
     1
176
     1
 42
1.0
176
     1
 92
        8
176
     1
 66
     7
176
     1
 43
1.0
176
     1
 76
     1
176
     1
 77
     6
176
     1
 78
     2
176
     1
 67
     7
176
     1
 79
     5
176
     1
170
     0
176
     1
171
     0
176
     1
290
     0
176
     1
 93
        1
176
     1
 44
-50.0
176
     1
173
     0
176
     1
  0
VISUALSTYLE
  5
39
102
{ACAD_REACTORS
330
2A
102
}
330
2A
100
AcDbVisualStyle
  2
Facepattern
 70
    15
177
     2
291
     1
 71
     2
176
     1
 72
     2
176
     1
 73
     0
176
     1
 90
        0
176
     1
 40
-0.6
176
     1
 41
-30.0
176
     1
 62
     5
 63
     7
421
 16777215
176
     1
 74
     1
176
     1
 91
        4
176
     1
 64
     7
176
     1
 65
   257
176
     1
 75
     1
176
     1
175
     1
176
     1
 42
1.0
176
     1
 92
        8
176
     1
 66
     7
176
     1
 43
1.0
176
     1
 76
     1
176
     1
 77
     6
176
     1
 78
     2
176
     1
 67
     7
176
     1
 79
     5
176
     1
170
     0
176
     1
171
     0
176
     1
290
     0
176
     1
 93
        1
176
     1
 44
0.0
176
     1
173
     0
176
     1
  0
VISUALSTYLE
  5
2B
102
{ACAD_REACTORS
330
2A
102
}
330
2A
100
AcDbVisualStyle
  2
Flat
 70
     0
177
     2
291
     1
 71
     2
176
     1
 72
     1
176
     1
 73
     1
176
     1
 90
        2
176
     1
 40
-0.6
176
     1
 41
30.0
176
     1
 62
     5
 63
     7
421
 16777215
176
     1
 74
     0
176
     1
 91
        4
176
     1
 64
     7
176
     1
 65
   257
176
     1
 75
     1
176
     1
175
     1
176
     1
 42
1.0
176
     1
 92
        8
176
     1
 66
     7
176
     1
 43
1.0
176
     1
 76
     1
176
     1
 77
     6
176
     1
 78
     2
176
     1
 67
     7
176
     1
 79
     5
176
     1
170
     0
176
     1
171
     0
176
     1
290
     0
176
     1
 93
       13
176
     1
 44
0.0
176
     1
173
     0
176
     1
  0
VISUALSTYLE
  5
2C
102
{ACAD_REACTORS
330
2A
102
}
330
2A
100
AcDbVisualStyle
  2
FlatWithEdges
 70
     1
177
     2
291
     1
 71
     2
176
     1
 72
     1
176
     1
 73
     1
176
     1
 90
        2
176
     1
 40
-0.6
176
     1
 41
30.0
176
     1
 62
     5
 63
     7
421
 16777215
176
     1
 74
     1
176
     1
 91
        4
176
     1
 64
     7
176
     1
 65
   257
176
     1
 75
     1
176
     1
175
     1
176
     1
 42
1.0
176
     1
 92
        0
176
     1
 66
   257
176
     1
 43
1.0
176
     1
 76
     1
176
     1
 77
     6
176
     1
 78
     2
176
     1
 67
     7
176
     1
 79
     5
176
     1
170
     0
176
     1
171
     0
176
     1
290
     0
176
     1
 93
       13
176
     1
 44
0.0
176
     1
173
     0
176
     1
  0
VISUALSTYLE
  5
2D
102
{ACAD_REACTORS
330
2A
102
}
330
2A
100
AcDbVisualStyle
  2
Gouraud
 70
     2
177
     2
291
     1
 71
     2
176
     1
 72
     2
176
     1
 73
     1
176
     1
 90
        2
176
     1
 40
-0.6
176
     1
 41
30.0
176
     1
 62
     5
 63
     7
421
 16777215
176
     1
 74
     0
176
     1
 91
        4
176
     1
 64
     7
176
     1
 65
   257
176
     1
 75
     1
176
     1
175
     1
176
     1
 42
1.0
176
     1
 92
        0
176
     1
 66
     7
176
     1
 43
1.0
176
     1
 76
     1
176
     1
 77
     6
176
     1
 78
     2
176
     1
 67
     7
176
     1
 79
     5
176
     1
170
     0
176
     1
171
     0
176
     1
290
     0
176
     1
 93
       13
176
     1
 44
0.0
176
     1
173
     0
176
     1
  0
VISUALSTYLE
  5
2E
102
{ACAD_REACTORS
330
2A
102
}
330
2A
100
AcDbVisualStyle
  2
GouraudWithEdges
 70
     3
177
     2
291
     1
 71
     2
176
     1
 72
     2
176
     1
 73
     1
176
     1
 90
        2
176
     1
 40
-0.6
176
     1
 41
30.0
176
     1
 62
     5
 63
     7
421
 16777215
176
     1
 74
     1
176
     1
 91
        4
176
     1
 64
     7
176
     1
 65
   257
176
     1
 75
     1
176
     1
175
     1
176
     1
 42
1.0
176
     1
 92
        0
176
     1
 66
   257
176
     1
 43
1.0
176
     1
 76
     1
176
     1
 77
     6
176
     1
 78
     2
176
     1
 67
     7
176
     1
 79
     5
176
     1
170
     0
176
     1
171
     0
176
     1
290
     0
176
     1
 93
       13
176
     1
 44
0.0
176
     1
173
     0
176
     1
  0
VISUALSTYLE
  5
38
102
{ACAD_REACTORS
330
2A
102
}
330
2A
100
AcDbVisualStyle
  2
Linepattern
 70
    14
177
     2
291
     1
 71
     2
176
     1
 72
     2
176
     1
 73
     0
176
     1
 90
        0
176
     1
 40
-0.6
176
     1
 41
-30.0
176
     1
 62
     5
 63
     7
421
 16777215
176
     1
 74
     1
176
     1
 91
        4
176
     1
 64
     7
176
     1
 65
   257
176
     1
 75
     7
176
     1
175
     7
176
     1
 42
1.0
176
     1
 92
        8
176
     1
 66
     7
176
     1
 43
1.0
176
     1
 76
     1
176
     1
 77
     6
176
     1
 78
     2
176
     1
 67
     7
176
     1
 79
     5
176
     1
170
     0
176
     1
171
     0
176
     1
290
     0
176
     1
 93
        1
176
     1
 44
0.0
176
     1
173
     0
176
     1
  0
VISUALSTYLE
  5
33
102
{ACAD_REACTORS
330
2A
102
}
330
2A
100
AcDbVisualStyle
  2
Realistic
 70
     8
177
     2
291
     0
 71
     2
176
     1
 72
     2
176
     1
 73
     0
176
     1
 90
        0
176
     1
 40
-0.6
176
     1
 41
-30.0
176
     1
 62
     5
 63
     7
421
 16777215
176
     1
 74
     1
176
     1
 91
        0
176
     1
 64
     7
176
     1
 65
   257
176
     1
 75
     1
176
     1
175
     1
176
     1
 42
1.0
176
     1
 92
        8
176
     1
 66
     8
424
  7895160
176
     1
 43
1.0
176
     1
 76
     1
176
     1
 77
     6
176
     1
 78
     2
176
     1
 67
     7
176
     1
 79
     5
176
     1
170
     0
176
     1
171
     0
176
     1
290
     0
176
     1
 93
       13
176
     1
 44
0.0
176
     1
173
     0
176
     1
  0
VISUALSTYLE
  5
37
102
{ACAD_REACTORS
330
2A
102
}
330
2A
100
AcDbVisualStyle
  2
Thicken
 70
    13
177
     2
291
     1
 71
     2
176
     1
 72
     2
176
     1
 73
     0
176
     1
 90
        0
176
     1
 40
-0.6
176
     1
 41
-30.0
176
     1
 62
     5
 63
     7
421
 16777215
176
     1
 74
     1
176
     1
 91
        4
176
     1
 64
     7
176
     1
 65
   257
176
     1
 75
     1
176
     1
175
     1
176
     1
 42
1.0
176
     1
 92
       12
176
     1
 66
     7
176
     1
 43
1.0
176
     1
 76
     1
176
     1
 77
     6
176
     1
 78
     2
176
     1
 67
     7
176
     1
 79
     5
176
     1
170
     0
176
     1
171
     0
176
     1
290
     0
176
     1
 93
        1
176
     1
 44
0.0
176
     1
173
     0
176
     1
  0
ENDSEC
  0
EOF
