  0
SECTION
  2
HEADER
  9
$ACADVER
  1
AC1024
  9
$ACADMAINTVER
 70
     6
  9
$DWGCODEPAGE
  3
UNDEFINED
  9
$INSBASE
 10
0.0
 20
0.0
 30
0.0
  9
$EXTMIN
 10
1.000000000000000E+20
 20
1.000000000000000E+20
 30
1.000000000000000E+20
  9
$EXTMAX
 10
-1.000000000000000E+20
 20
-1.000000000000000E+20
 30
-1.000000000000000E+20
  9
$LIMMIN
 10
0.0
 20
0.0
  9
$LIMMAX
 10
12.0
 20
9.0
  9
$ORTHOMODE
 70
     0
  9
$REGENMODE
 70
     1
  9
$FILLMODE
 70
     1
  9
$QTEXTMODE
 70
     0
  9
$MIRRTEXT
 70
     1
  9
$LTSCALE
 40
1.0
  9
$ATTMODE
 70
     1
  9
$TEXTSIZE
 40
0.2
  9
$TRACEWID
 40
0.05
  9
$TEXTSTYLE
  7
Standard
  9
$CLAYER
  8
0
  9
$CELTYPE
  6
ByLayer
  9
$CECOLOR
 62
   256
  9
$CELTSCALE
 40
1.0
  9
$DISPSILH
 70
     0
  9
$DIMSCALE
 40
1.0
  9
$DIMASZ
 40
0.18
  9
$DIMEXO
 40
0.0625
  9
$DIMDLI
 40
0.38
  9
$DIMRND
 40
0.0
  9
$DIMDLE
 40
0.0
  9
$DIMEXE
 40
0.18
  9
$DIMTP
 40
0.0
  9
$DIMTM
 40
0.0
  9
$DIMTXT
 40
0.18
  9
$DIMCEN
 40
0.09
  9
$DIMTSZ
 40
0.0
  9
$DIMTOL
 70
     0
  9
$DIMLIM
 70
     0
  9
$DIMTIH
 70
     1
  9
$DIMTOH
 70
     1
  9
$DIMSE1
 70
     0
  9
$DIMSE2
 70
     0
  9
$DIMTAD
 70
     0
  9
$DIMZIN
 70
     0
  9
$DIMBLK
  1

  9
$DIMASO
 70
     1
  9
$DIMSHO
 70
     1
  9
$DIMPOST
  1

  9
$DIMAPOST
  1

  9
$DIMALT
 70
     0
  9
$DIMALTD
 70
     2
  9
$DIMALTF
 40
25.4
  9
$DIMLFAC
 40
1.0
  9
$DIMTOFL
 70
     0
  9
$DIMTVP
 40
0.0
  9
$DIMTIX
 70
     0
  9
$DIMSOXD
 70
     0
  9
$DIMSAH
 70
     0
  9
$DIMBLK1
  1

  9
$DIMBLK2
  1

  9
$DIMSTYLE
  2
Standard
  9
$DIMCLRD
 70
     0
  9
$DIMCLRE
 70
     0
  9
$DIMCLRT
 70
     0
  9
$DIMTFAC
 40
1.0
  9
$DIMGAP
 40
0.09
  9
$DIMJUST
 70
     0
  9
$DIMSD1
 70
     0
  9
$DIMSD2
 70
     0
  9
$DIMTOLJ
 70
     1
  9
$DIMTZIN
 70
     0
  9
$DIMALTZ
 70
     0
  9
$DIMALTTZ
 70
     0
  9
$DIMUPT
 70
     0
  9
$DIMDEC
 70
     4
  9
$DIMTDEC
 70
     4
  9
$DIMALTU
 70
     2
  9
$DIMALTTD
 70
     2
  9
$DIMTXSTY
  7
Standard
  9
$DIMAUNIT
 70
     0
  9
$DIMADEC
 70
     0
  9
$DIMALTRND
 40
0.0
  9
$DIMAZIN
 70
     0
  9
$DIMDSEP
 70
    46
  9
$DIMATFIT
 70
     3
  9
$DIMFRAC
 70
     0
  9
$DIMLDRBLK
  1

  9
$DIMLUNIT
 70
     2
  9
$DIMLWD
 70
    -2
  9
$DIMLWE
 70
    -2
  9
$DIMTMOVE
 70
     0
  9
$DIMFXL
 40
1.0
  9
$DIMFXLON
 70
     0
  9
$DIMJOGANG
 40
0.7853981633974483
  9
$DIMTFILL
 70
     0
  9
$DIMTFILLCLR
 70
     0
  9
$DIMARCSYM
 70
     0
  9
$DIMLTYPE
  6

  9
$DIMLTEX1
  6

  9
$DIMLTEX2
  6

  9
$DIMTXTDIRECTION
 70
     0
  9
$LUNITS
 70
     2
  9
$LUPREC
 70
     4
  9
$SKETCHINC
 40
0.1
  9
$FILLETRAD
 40
0.5
  9
$AUNITS
 70
     0
  9
$AUPREC
 70
     0
  9
$MENU
  1
.
  9
$ELEVATION
 40
0.0
  9
$PELEVATION
 40
0.0
  9
$THICKNESS
 40
0.0
  9
$LIMCHECK
 70
     0
  9
$CHAMFERA
 40
0.5
  9
$CHAMFERB
 40
0.5
  9
$CHAMFERC
 40
1.0
  9
$CHAMFERD
 40
0.0
  9
$SKPOLY
 70
     0
  9
$TDCREATE
 40
2457917.603611111
  9
$TDUCREATE
 40
2457917.228611111
  9
$TDUPDATE
 40
2457917.603611111
  9
$TDUUPDATE
 40
2457917.228611111
  9
$TDINDWG
 40
0.0000000116
  9
$TDUSRTIMER
 40
0.0000000116
  9
$USRTIMER
 70
     1
  9
$ANGBASE
 50
0.0
  9
$ANGDIR
 70
     0
  9
$PDMODE
 70
     0
  9
$PDSIZE
 40
0.0
  9
$PLINEWID
 40
0.0
  9
$SPLFRAME
 70
     0
  9
$SPLINETYPE
 70
     6
  9
$SPLINESEGS
 70
     8
  9
$HANDSEED
  5
105
  9
$SURFTAB1
 70
     6
  9
$SURFTAB2
 70
     6
  9
$SURFTYPE
 70
     6
  9
$SURFU
 70
     6
  9
$SURFV
 70
     6
  9
$UCSBASE
  2

  9
$UCSNAME
  2

  9
$UCSORG
 10
0.0
 20
0.0
 30
0.0
  9
$UCSXDIR
 10
1.0
 20
0.0
 30
0.0
  9
$UCSYDIR
 10
0.0
 20
1.0
 30
0.0
  9
$UCSORTHOREF
  2

  9
$UCSORTHOVIEW
 70
     0
  9
$UCSORGTOP
 10
0.0
 20
0.0
 30
0.0
  9
$UCSORGBOTTOM
 10
0.0
 20
0.0
 30
0.0
  9
$UCSORGLEFT
 10
0.0
 20
0.0
 30
0.0
  9
$UCSORGRIGHT
 10
0.0
 20
0.0
 30
0.0
  9
$UCSORGFRONT
 10
0.0
 20
0.0
 30
0.0
  9
$UCSORGBACK
 10
0.0
 20
0.0
 30
0.0
  9
$PUCSBASE
  2

  9
$PUCSNAME
  2

  9
$PUCSORG
 10
0.0
 20
0.0
 30
0.0
  9
$PUCSXDIR
 10
1.0
 20
0.0
 30
0.0
  9
$PUCSYDIR
 10
0.0
 20
1.0
 30
0.0
  9
$PUCSORTHOREF
  2

  9
$PUCSORTHOVIEW
 70
     0
  9
$PUCSORGTOP
 10
0.0
 20
0.0
 30
0.0
  9
$PUCSORGBOTTOM
 10
0.0
 20
0.0
 30
0.0
  9
$PUCSORGLEFT
 10
0.0
 20
0.0
 30
0.0
  9
$PUCSORGRIGHT
 10
0.0
 20
0.0
 30
0.0
  9
$PUCSORGFRONT
 10
0.0
 20
0.0
 30
0.0
  9
$PUCSORGBACK
 10
0.0
 20
0.0
 30
0.0
  9
$USERI1
 70
     0
  9
$USERI2
 70
     0
  9
$USERI3
 70
     0
  9
$USERI4
 70
     0
  9
$USERI5
 70
     0
  9
$USERR1
 40
0.0
  9
$USERR2
 40
0.0
  9
$USERR3
 40
0.0
  9
$USERR4
 40
0.0
  9
$USERR5
 40
0.0
  9
$WORLDVIEW
 70
     1
  9
$SHADEDGE
 70
     3
  9
$SHADEDIF
 70
    70
  9
$TILEMODE
 70
     1
  9
$MAXACTVP
 70
    64
  9
$PINSBASE
 10
0.0
 20
0.0
 30
0.0
  9
$PLIMCHECK
 70
     0
  9
$PEXTMIN
 10
1.000000000000000E+20
 20
1.000000000000000E+20
 30
1.000000000000000E+20
  9
$PEXTMAX
 10
-1.000000000000000E+20
 20
-1.000000000000000E+20
 30
-1.000000000000000E+20
  9
$PLIMMIN
 10
0.0
 20
0.0
  9
$PLIMMAX
 10
12.0
 20
9.0
  9
$UNITMODE
 70
     0
  9
$VISRETAIN
 70
     1
  9
$PLINEGEN
 70
     0
  9
$PSLTSCALE
 70
     1
  9
$TREEDEPTH
 70
  3020
  9
$CMLSTYLE
  2
Standard
  9
$CMLJUST
 70
     0
  9
$CMLSCALE
 40
1.0
  9
$PROXYGRAPHICS
 70
     1
  9
$MEASUREMENT
 70
     0
  9
$CELWEIGHT
370
    -1
  9
$ENDCAPS
280
     0
  9
$JOINSTYLE
280
     0
  9
$LWDISPLAY
290
     1
  9
$INSUNITS
 70
     1
  9
$HYPERLINKBASE
  1

  9
$STYLESHEET
  1

  9
$XEDIT
290
     1
  9
$CEPSNTYPE
380
     0
  9
$PSTYLEMODE
290
     1
  9
$FINGERPRINTGUID
  2
{99D39436-A02B-3F28-6F1A-5C3347171974}
  9
$VERSIONGUID
  2
{FAEB1C32-E019-11D5-929B-00C0DF256EC4}
  9
$EXTNAMES
290
     1
  9
$PSVPSCALE
 40
0.0
  9
$OLESTARTUP
290
     0
  9
$SORTENTS
280
   127
  9
$INDEXCTL
280
     0
  9
$HIDETEXT
280
     1
  9
$XCLIPFRAME
280
     2
  9
$HALOGAP
280
     0
  9
$OBSCOLOR
 70
   257
  9
$OBSLTYPE
280
     0
  9
$INTERSECTIONDISPLAY
280
     0
  9
$INTERSECTIONCOLOR
 70
   257
  9
$DIMASSOC
280
     2
  9
$PROJECTNAME
  1

  9
$CAMERADISPLAY
290
     0
  9
$LENSLENGTH
 40
50.0
  9
$CAMERAHEIGHT
 40
0.0
  9
$STEPSPERSEC
 40
2.0
  9
$STEPSIZE
 40
6.0
  9
$3DDWFPREC
 40
2.0
  9
$PSOLWIDTH
 40
0.25
  9
$PSOLHEIGHT
 40
4.0
  9
$LOFTANG1
 40
1.570796326794897
  9
$LOFTANG2
 40
1.570796326794897
  9
$LOFTMAG1
 40
0.0
  9
$LOFTMAG2
 40
0.0
  9
$LOFTPARAM
 70
     7
  9
$LOFTNORMALS
280
     1
  9
$LATITUDE
 40
37.795
  9
$LONGITUDE
 40
-122.394
  9
$NORTHDIRECTION
 40
0.0
  9
$TIMEZONE
 70
 -8000
  9
$LIGHTGLYPHDISPLAY
280
     1
  9
$TILEMODELIGHTSYNCH
280
     1
  9
$CMATERIAL
347
3C
  9
$SOLIDHIST
280
     1
  9
$SHOWHIST
280
     1
  9
$DWFFRAME
280
     2
  9
$DGNFRAME
280
     2
  9
$REALWORLDSCALE
290
     1
  9
$INTERFERECOLOR
 62
   256
  9
$CSHADOW
280
     0
  9
$SHADOWPLANELOCATION
 40
0.0
  0
ENDSEC
  0
SECTION
  2
CLASSES
  0
CLASS
  1
ACDBDICTIONARYWDFLT
  2
AcDbDictionaryWithDefault
  3
ObjectDBX Classes
 90
        0
 91
        4
280
     0
281
     0
  0
CLASS
  1
VISUALSTYLE
  2
AcDbVisualStyle
  3
ObjectDBX Classes
 90
     4095
 91
        4
280
     0
281
     0
  0
CLASS
  1
MATERIAL
  2
AcDbMaterial
  3
ObjectDBX Classes
 90
     1153
 91
        4
280
     0
281
     0
  0
CLASS
  1
SUN
  2
AcDbSun
  3
SCENEOE
 90
     1024
 91
        4
280
     0
281
     0
  0
ENDSEC
  0
SECTION
  2
TABLES
  0
TABLE
  2
VPORT
  5
8
330
0
100
AcDbSymbolTable
 70
     1
  0
VPORT
  5
29
330
8
100
AcDbSymbolTableRecord
100
AcDbViewportTableRecord
  2
*Active
 70
     0
 10
0.0
 20
0.0
 11
1.0
 21
1.0
 12
0.0
 22
0.0
 13
0.0
 23
0.0
 14
0.5
 24
0.5
 15
0.5
 25
0.5
 16
0.0
 26
0.0
 36
1.0
 17
91.00082462281999
 27
-128.4993055234307
 37
0.0
 40
256.9986110468615
 41
0.7081814508812795
 42
50.0
 43
0.0
 44
0.0
 50
0.0
 51
0.0
 71
     0
 72
   100
 73
     1
 74
     3
 75
     0
 76
     0
 77
     0
 78
     0
281
     0
 65
     1
110
0.0
120
0.0
130
0.0
111
1.0
121
0.0
131
0.0
112
0.0
122
1.0
132
0.0
 79
     0
146
0.0
 60
     3
 61
     5
292
     1
282
     1
141
0.0
142
0.0
 63
   250
361
3F
  0
ENDTAB
  0
TABLE
  2
LTYPE
  5
5
330
0
100
AcDbSymbolTable
 70
     1
  0
LTYPE
  5
14
330
5
100
AcDbSymbolTableRecord
100
AcDbLinetypeTableRecord
  2
ByBlock
 70
     0
  3

 72
    65
 73
     0
 40
0.0
  0
LTYPE
  5
15
330
5
100
AcDbSymbolTableRecord
100
AcDbLinetypeTableRecord
  2
ByLayer
 70
     0
  3

 72
    65
 73
     0
 40
0.0
  0
LTYPE
  5
16
330
5
100
AcDbSymbolTableRecord
100
AcDbLinetypeTableRecord
  2
Continuous
 70
     0
  3
Solid line
 72
    65
 73
     0
 40
0.0
  0
ENDTAB
  0
TABLE
  2
LAYER
  5
2
330
0
100
AcDbSymbolTable
 70
     2
  0
LAYER
  5
10
330
2
100
AcDbSymbolTableRecord
100
AcDbLayerTableRecord
  2
0
 70
     0
 62
     7
  6
Continuous
370
    -3
390
F
347
3E
  0
LAYER
  5
40
330
2
100
AcDbSymbolTableRecord
100
AcDbLayerTableRecord
  2
_U+30EC_U+30A4_U+30E4_U+30FC 1
 70
     0
 62
     7
  6
Continuous
370
    -3
390
F
347
3E
  0
ENDTAB
  0
TABLE
  2
STYLE
  5
3
330
0
100
AcDbSymbolTable
 70
     1
  0
STYLE
  5
11
330
3
100
AcDbSymbolTableRecord
100
AcDbTextStyleTableRecord
  2
Standard
 70
     0
 40
0.0
 41
1.0
 50
0.0
 71
     0
 42
0.2
  3
txt
  4

  0
ENDTAB
  0
TABLE
  2
VIEW
  5
6
330
0
100
AcDbSymbolTable
 70
     0
  0
ENDTAB
  0
TABLE
  2
UCS
  5
7
330
0
100
AcDbSymbolTable
 70
     0
  0
ENDTAB
  0
TABLE
  2
APPID
  5
9
330
0
100
AcDbSymbolTable
 70
     1
  0
APPID
  5
12
330
9
100
AcDbSymbolTableRecord
100
AcDbRegAppTableRecord
  2
ACAD
 70
     0
  0
ENDTAB
  0
TABLE
  2
DIMSTYLE
  5
A
330
0
100
AcDbSymbolTable
 70
     1
100
AcDbDimStyleTable
  0
DIMSTYLE
105
27
330
A
100
AcDbSymbolTableRecord
100
AcDbDimStyleTableRecord
  2
Standard
 70
     0
178
     0
340
11
  0
ENDTAB
  0
TABLE
  2
BLOCK_RECORD
  5
1
330
0
100
AcDbSymbolTable
 70
     7
  0
BLOCK_RECORD
  5
1F
330
1
100
AcDbSymbolTableRecord
100
AcDbBlockTableRecord
  2
*Model_Space
340
22
 70
     0
280
     1
281
     0
  0
BLOCK_RECORD
  5
1B
330
1
100
AcDbSymbolTableRecord
100
AcDbBlockTableRecord
  2
*Paper_Space
340
1E
 70
     0
280
     1
281
     0
  0
BLOCK_RECORD
  5
23
330
1
100
AcDbSymbolTableRecord
100
AcDbBlockTableRecord
  2
*Paper_Space0
340
26
 70
     0
280
     1
281
     0
  0
BLOCK_RECORD
  5
C2
330
1
100
AcDbSymbolTableRecord
100
AcDbBlockTableRecord
  2
block 2
340
0
102
{BLKREFS
331
C3
102
}
 70
     0
280
     1
281
     0
  0
BLOCK_RECORD
  5
C8
330
1
100
AcDbSymbolTableRecord
100
AcDbBlockTableRecord
  2
block 3
340
0
102
{BLKREFS
331
C9
102
}
 70
     0
280
     1
281
     0
  0
BLOCK_RECORD
  5
D1
330
1
100
AcDbSymbolTableRecord
100
AcDbBlockTableRecord
  2
block 4
340
0
102
{BLKREFS
331
D2
102
}
 70
     0
280
     1
281
     0
  0
BLOCK_RECORD
  5
ED
330
1
100
AcDbSymbolTableRecord
100
AcDbBlockTableRecord
  2
block 5
340
0
102
{BLKREFS
331
EE
102
}
 70
     0
280
     1
281
     0
  0
BLOCK_RECORD
  5
F3
330
1
100
AcDbSymbolTableRecord
100
AcDbBlockTableRecord
  2
block 6
340
0
102
{BLKREFS
331
F4
102
}
 70
     0
280
     1
281
     0
  0
BLOCK_RECORD
  5
FB
330
1
100
AcDbSymbolTableRecord
100
AcDbBlockTableRecord
  2
block 7
340
0
102
{BLKREFS
331
FC
102
}
 70
     0
280
     1
281
     0
  0
ENDTAB
  0
ENDSEC
  0
SECTION
  2
BLOCKS
  0
BLOCK
  5
20
330
1F
100
AcDbEntity
  8
0
100
AcDbBlockBegin
  2
*Model_Space
 70
     0
 10
0.0
 20
0.0
 30
0.0
  3
*Model_Space
  1

  0
ENDBLK
  5
21
330
1F
100
AcDbEntity
  8
0
100
AcDbBlockEnd
  0
BLOCK
  5
1C
330
1B
100
AcDbEntity
 67
     1
  8
0
100
AcDbBlockBegin
  2
*Paper_Space
 70
     0
 10
0.0
 20
0.0
 30
0.0
  3
*Paper_Space
  1

  0
ENDBLK
  5
1D
330
1B
100
AcDbEntity
 67
     1
  8
0
100
AcDbBlockEnd
  0
BLOCK
  5
24
330
23
100
AcDbEntity
  8
0
100
AcDbBlockBegin
  2
*Paper_Space0
 70
     0
 10
0.0
 20
0.0
 30
0.0
  3
*Paper_Space0
  1

  0
ENDBLK
  5
25
330
23
100
AcDbEntity
  8
0
100
AcDbBlockEnd
  0
BLOCK
  5
C4
330
C2
100
AcDbEntity
  8
0
100
AcDbBlockBegin
  2
block 2
 70
     0
 10
0.0
 20
0.0
 30
0.0
  3
block 2
  1

  0
SPLINE
  5
C6
330
C2
100
AcDbEntity
  8
_U+30EC_U+30A4_U+30E4_U+30FC 1
370
     0
100
AcDbSpline
210
0.0
220
0.0
230
1.0
 70
    11
 71
     3
 72
    62
 73
    58
 74
     0
 42
0.0000000001
 43
0.0000000001
 12
1.0
 22
0.0
 32
0.0
 13
1.0
 23
0.0
 33
0.0
 40
0.0
 40
0.0
 40
0.0
 40
0.0
 40
1.0
 40
1.0
 40
1.0
 40
2.0
 40
2.0
 40
2.0
 40
3.0
 40
3.0
 40
3.0
 40
4.0
 40
4.0
 40
4.0
 40
5.0
 40
5.0
 40
5.0
 40
6.0
 40
6.0
 40
6.0
 40
7.0
 40
7.0
 40
7.0
 40
8.0
 40
8.0
 40
8.0
 40
9.0
 40
9.0
 40
9.0
 40
10.0
 40
10.0
 40
10.0
 40
11.0
 40
11.0
 40
11.0
 40
12.0
 40
12.0
 40
12.0
 40
13.0
 40
13.0
 40
13.0
 40
14.0
 40
14.0
 40
14.0
 40
15.0
 40
15.0
 40
15.0
 40
16.0
 40
16.0
 40
16.0
 40
17.0
 40
17.0
 40
17.0
 40
18.0
 40
18.0
 40
18.0
 40
19.0
 40
19.0
 40
19.0
 40
19.0
 10
117.8384575443251
 20
-138.7181477517788
 30
0.0
 10
117.8384575443251
 20
-138.8197780685937
 30
0.0
 10
117.8174424618651
 20
-139.0526665233966
 30
0.0
 10
117.6314073056616
 20
-139.1859917186757
 30
0.0
 10
117.5190971928425
 20
-139.2652289148365
 30
0.0
 10
117.4198784428673
 20
-139.2697075389673
 30
0.0
 10
117.3351290939301
 20
-139.2741861630981
 30
0.0
 10
117.3351290939301
 20
-139.2741861630981
 30
0.0
 10
117.3351290939301
 20
-139.0392306510041
 30
0.0
 10
117.3351290939301
 20
-139.0392306510041
 30
0.0
 10
117.409198646863
 20
-139.0368190841644
 30
0.0
 10
117.6438096494085
 20
-139.0254502690631
 30
0.0
 10
117.6438096494085
 20
-138.7226263759096
 30
0.0
 10
117.6438096494085
 20
-138.5755207986895
 30
0.0
 10
117.5742187206065
 20
-138.4129122917857
 30
0.0
 10
117.3458088899344
 20
-138.4129122917857
 30
0.0
 10
117.2293646625329
 20
-138.4129122917857
 30
0.0
 10
117.1807888161909
 20
-138.4535644185116
 30
0.0
 10
117.1490939377266
 20
-138.4873263542671
 30
0.0
 10
117.0750243847937
 20
-138.5665635504278
 30
0.0
 10
117.0622775314983
 20
-138.6909314974453
 30
0.0
 10
117.0622775314983
 20
-138.7498426302431
 30
0.0
 10
117.0622775314983
 20
-138.7701686936061
 30
0.0
 10
117.0643445887895
 20
-138.8084092534924
 30
0.0
 10
117.0684787033718
 20
-138.8380370746655
 30
0.0
 10
117.0684787033718
 20
-138.8380370746655
 30
0.0
 10
116.8738308084552
 20
-138.8380370746655
 30
0.0
 10
116.8738308084552
 20
-138.8380370746655
 30
0.0
 10
116.8803764898771
 20
-138.7973849479395
 30
0.0
 10
116.8824435471683
 20
-138.7519096875342
 30
0.0
 10
116.8824435471683
 20
-138.7453640061123
 30
0.0
 10
116.8824435471683
 20
-138.6750840582132
 30
0.0
 10
116.8610839551597
 20
-138.4625216667733
 30
0.0
 10
116.6244058953231
 20
-138.4625216667733
 30
0.0
 10
116.4466389682842
 20
-138.4625216667733
 30
0.0
 10
116.3915174405202
 20
-138.6027370530229
 30
0.0
 10
116.3915174405202
 20
-138.7202148090699
 30
0.0
 10
116.3915174405202
 20
-139.003057148409
 30
0.0
 10
116.6244058953231
 20
-139.0120143966706
 30
0.0
 10
116.6960638814163
 20
-139.0164930208014
 30
0.0
 10
116.6960638814163
 20
-139.0164930208014
 30
0.0
 10
116.6960638814163
 20
-139.2335340363722
 30
0.0
 10
116.6960638814163
 20
-139.2335340363722
 30
0.0
 10
116.5713514248502
 20
-139.2245767881105
 30
0.0
 10
116.1948024883124
 20
-139.1952934764859
 30
0.0
 10
116.1948024883124
 20
-138.7067789366775
 30
0.0
 10
116.1948024883124
 20
-138.4670002909041
 30
0.0
 10
116.3219265117181
 20
-138.2093071486074
 30
0.0
 10
116.6178602139011
 20
-138.2093071486074
 30
0.0
 10
116.8042398796531
 20
-138.2093071486074
 30
0.0
 10
116.8865776617506
 20
-138.3112819749708
 30
0.0
 10
116.947900361388
 20
-138.4173909159165
 30
0.0
 10
116.97546112527
 20
-138.3519341016967
 30
0.0
 10
117.0557318500764
 20
-138.1572862067801
 30
0.0
 10
117.333062036639
 20
-138.1572862067801
 30
0.0
 10
117.6713704132905
 20
-138.1572862067801
 30
0.0
 10
117.8384575443251
 20
-138.4218695400473
 30
0.0
 10
117.8384575443251
 20
-138.7181477517788
 30
0.0
  0
HATCH
  5
C7
330
C2
100
AcDbEntity
  8
_U+30EC_U+30A4_U+30E4_U+30FC 1
 62
   179
420
  2234388
100
AcDbHatch
 10
0.0
 20
0.0
 30
0.0
210
0.0
220
0.0
230
1.0
  2
SOLID
 70
     1
 71
     0
 91
        1
 92
        1
 93
        1
 72
     4
 94
        3
 73
     0
 74
     1
 95
       62
 96
       58
 40
0.0
 40
0.0
 40
0.0
 40
0.0
 40
1.0
 40
1.0
 40
1.0
 40
2.0
 40
2.0
 40
2.0
 40
3.0
 40
3.0
 40
3.0
 40
4.0
 40
4.0
 40
4.0
 40
5.0
 40
5.0
 40
5.0
 40
6.0
 40
6.0
 40
6.0
 40
7.0
 40
7.0
 40
7.0
 40
8.0
 40
8.0
 40
8.0
 40
9.0
 40
9.0
 40
9.0
 40
10.0
 40
10.0
 40
10.0
 40
11.0
 40
11.0
 40
11.0
 40
12.0
 40
12.0
 40
12.0
 40
13.0
 40
13.0
 40
13.0
 40
14.0
 40
14.0
 40
14.0
 40
15.0
 40
15.0
 40
15.0
 40
16.0
 40
16.0
 40
16.0
 40
17.0
 40
17.0
 40
17.0
 40
18.0
 40
18.0
 40
18.0
 40
19.0
 40
19.0
 40
19.0
 40
19.0
 10
117.8384575443251
 20
-138.7181477517788
 10
117.8384575443251
 20
-138.8197780685937
 10
117.8174424618651
 20
-139.0526665233966
 10
117.6314073056616
 20
-139.1859917186757
 10
117.5190971928425
 20
-139.2652289148365
 10
117.4198784428673
 20
-139.2697075389673
 10
117.3351290939301
 20
-139.2741861630981
 10
117.3351290939301
 20
-139.2741861630981
 10
117.3351290939301
 20
-139.0392306510041
 10
117.3351290939301
 20
-139.0392306510041
 10
117.409198646863
 20
-139.0368190841644
 10
117.6438096494085
 20
-139.0254502690631
 10
117.6438096494085
 20
-138.7226263759096
 10
117.6438096494085
 20
-138.5755207986895
 10
117.5742187206065
 20
-138.4129122917857
 10
117.3458088899344
 20
-138.4129122917857
 10
117.2293646625329
 20
-138.4129122917857
 10
117.1807888161909
 20
-138.4535644185116
 10
117.1490939377266
 20
-138.4873263542671
 10
117.0750243847937
 20
-138.5665635504278
 10
117.0622775314983
 20
-138.6909314974453
 10
117.0622775314983
 20
-138.7498426302431
 10
117.0622775314983
 20
-138.7701686936061
 10
117.0643445887895
 20
-138.8084092534924
 10
117.0684787033718
 20
-138.8380370746655
 10
117.0684787033718
 20
-138.8380370746655
 10
116.8738308084552
 20
-138.8380370746655
 10
116.8738308084552
 20
-138.8380370746655
 10
116.8803764898771
 20
-138.7973849479395
 10
116.8824435471683
 20
-138.7519096875342
 10
116.8824435471683
 20
-138.7453640061123
 10
116.8824435471683
 20
-138.6750840582132
 10
116.8610839551597
 20
-138.4625216667733
 10
116.6244058953231
 20
-138.4625216667733
 10
116.4466389682842
 20
-138.4625216667733
 10
116.3915174405202
 20
-138.6027370530229
 10
116.3915174405202
 20
-138.7202148090699
 10
116.3915174405202
 20
-139.003057148409
 10
116.6244058953231
 20
-139.0120143966706
 10
116.6960638814163
 20
-139.0164930208014
 10
116.6960638814163
 20
-139.0164930208014
 10
116.6960638814163
 20
-139.2335340363722
 10
116.6960638814163
 20
-139.2335340363722
 10
116.5713514248502
 20
-139.2245767881105
 10
116.1948024883124
 20
-139.1952934764859
 10
116.1948024883124
 20
-138.7067789366775
 10
116.1948024883124
 20
-138.4670002909041
 10
116.3219265117181
 20
-138.2093071486074
 10
116.6178602139011
 20
-138.2093071486074
 10
116.8042398796531
 20
-138.2093071486074
 10
116.8865776617506
 20
-138.3112819749708
 10
116.947900361388
 20
-138.4173909159165
 10
116.97546112527
 20
-138.3519341016967
 10
117.0557318500764
 20
-138.1572862067801
 10
117.333062036639
 20
-138.1572862067801
 10
117.6713704132905
 20
-138.1572862067801
 10
117.8384575443251
 20
-138.4218695400473
 10
117.8384575443251
 20
-138.7181477517788
 97
        0
 97
        0
 75
     2
 76
     1
 98
        0
  0
ENDBLK
  5
C5
330
C2
100
AcDbEntity
  8
0
100
AcDbBlockEnd
  0
BLOCK
  5
CA
330
C8
100
AcDbEntity
  8
0
100
AcDbBlockBegin
  2
block 3
 70
     0
 10
0.0
 20
0.0
 30
0.0
  3
block 3
  1

  0
SPLINE
  5
CC
330
C8
100
AcDbEntity
  8
_U+30EC_U+30A4_U+30E4_U+30FC 1
370
     0
100
AcDbSpline
210
0.0
220
0.0
230
1.0
 70
    11
 71
     3
 72
    26
 73
    22
 74
     0
 42
0.0000000001
 43
0.0000000001
 12
1.0
 22
0.0
 32
0.0
 13
1.0
 23
0.0
 33
0.0
 40
0.0
 40
0.0
 40
0.0
 40
0.0
 40
1.0
 40
1.0
 40
1.0
 40
2.0
 40
2.0
 40
2.0
 40
3.0
 40
3.0
 40
3.0
 40
4.0
 40
4.0
 40
4.0
 40
5.0
 40
5.0
 40
5.0
 40
6.0
 40
6.0
 40
6.0
 40
7.0
 40
7.0
 40
7.0
 40
7.0
 10
75.64086098369395
 20
-146.5767550631822
 30
0.0
 10
75.64086098369395
 20
-146.5767550631822
 30
0.0
 10
75.64086098369395
 20
-145.4722574506111
 30
0.0
 10
75.64086098369395
 20
-145.4722574506111
 30
0.0
 10
75.64086098369395
 20
-145.4722574506111
 30
0.0
 10
75.2884277155529
 20
-145.4722574506111
 30
0.0
 10
75.2884277155529
 20
-145.4722574506111
 30
0.0
 10
75.2884277155529
 20
-145.4722574506111
 30
0.0
 10
75.2884277155529
 20
-145.3244628542939
 30
0.0
 10
75.2884277155529
 20
-145.3244628542939
 30
0.0
 10
75.64327255053362
 20
-145.3096489437073
 30
0.0
 10
75.69288192552122
 20
-145.146695927255
 30
0.0
 10
75.72457680398553
 20
-145.0323187571447
 30
0.0
 10
75.72457680398553
 20
-145.0323187571447
 30
0.0
 10
75.88063962946734
 20
-145.0323187571447
 30
0.0
 10
75.88063962946734
 20
-145.0323187571447
 30
0.0
 10
75.88063962946734
 20
-145.0323187571447
 30
0.0
 10
75.88063962946734
 20
-146.5767550631822
 30
0.0
 10
75.88063962946734
 20
-146.5767550631822
 30
0.0
 10
75.88063962946734
 20
-146.5767550631822
 30
0.0
 10
75.64086098369395
 20
-146.5767550631822
 30
0.0
 10
75.64086098369395
 20
-146.5767550631822
 30
0.0
  0
HATCH
  5
CD
330
C8
100
AcDbEntity
  8
_U+30EC_U+30A4_U+30E4_U+30FC 1
 62
   179
420
  2234388
100
AcDbHatch
 10
0.0
 20
0.0
 30
0.0
210
0.0
220
0.0
230
1.0
  2
SOLID
 70
     1
 71
     0
 91
        1
 92
        1
 93
        1
 72
     4
 94
        3
 73
     0
 74
     1
 95
       26
 96
       22
 40
0.0
 40
0.0
 40
0.0
 40
0.0
 40
1.0
 40
1.0
 40
1.0
 40
2.0
 40
2.0
 40
2.0
 40
3.0
 40
3.0
 40
3.0
 40
4.0
 40
4.0
 40
4.0
 40
5.0
 40
5.0
 40
5.0
 40
6.0
 40
6.0
 40
6.0
 40
7.0
 40
7.0
 40
7.0
 40
7.0
 10
75.64086098369395
 20
-146.5767550631822
 10
75.64086098369395
 20
-146.5767550631822
 10
75.64086098369395
 20
-145.4722574506111
 10
75.64086098369395
 20
-145.4722574506111
 10
75.64086098369395
 20
-145.4722574506111
 10
75.2884277155529
 20
-145.4722574506111
 10
75.2884277155529
 20
-145.4722574506111
 10
75.2884277155529
 20
-145.4722574506111
 10
75.2884277155529
 20
-145.3244628542939
 10
75.2884277155529
 20
-145.3244628542939
 10
75.64327255053362
 20
-145.3096489437073
 10
75.69288192552122
 20
-145.146695927255
 10
75.72457680398553
 20
-145.0323187571447
 10
75.72457680398553
 20
-145.0323187571447
 10
75.88063962946734
 20
-145.0323187571447
 10
75.88063962946734
 20
-145.0323187571447
 10
75.88063962946734
 20
-145.0323187571447
 10
75.88063962946734
 20
-146.5767550631822
 10
75.88063962946734
 20
-146.5767550631822
 10
75.88063962946734
 20
-146.5767550631822
 10
75.64086098369395
 20
-146.5767550631822
 10
75.64086098369395
 20
-146.5767550631822
 97
        0
 97
        0
 75
     2
 76
     1
 98
        0
  0
SPLINE
  5
CE
330
C8
100
AcDbEntity
  8
_U+30EC_U+30A4_U+30E4_U+30FC 1
370
     0
100
AcDbSpline
210
0.0
220
0.0
230
1.0
 70
    11
 71
     3
 72
    29
 73
    25
 74
     0
 42
0.0000000001
 43
0.0000000001
 12
1.0
 22
0.0
 32
0.0
 13
1.0
 23
0.0
 33
0.0
 40
0.0
 40
0.0
 40
0.0
 40
0.0
 40
1.0
 40
1.0
 40
1.0
 40
2.0
 40
2.0
 40
2.0
 40
3.0
 40
3.0
 40
3.0
 40
4.0
 40
4.0
 40
4.0
 40
5.0
 40
5.0
 40
5.0
 40
6.0
 40
6.0
 40
6.0
 40
7.0
 40
7.0
 40
7.0
 40
8.0
 40
8.0
 40
8.0
 40
8.0
 10
77.37581107006578
 20
-146.3989881361433
 30
0.0
 10
77.2604003713099
 20
-146.6084499416465
 30
0.0
 10
77.07505423420346
 20
-146.6273979668154
 30
0.0
 10
76.95068628718595
 20
-146.6273979668154
 30
0.0
 10
76.7791205320205
 20
-146.6273979668154
 30
0.0
 10
76.62753633066951
 20
-146.5808891777645
 30
0.0
 10
76.52590601385464
 20
-146.3989881361433
 30
0.0
 10
76.4149739392296
 20
-146.2043402412267
 30
0.0
 10
76.39464787586662
 20
-145.9673176718415
 30
0.0
 10
76.39464787586662
 20
-145.8043646553892
 30
0.0
 10
76.39464787586662
 20
-145.6607041736543
 30
0.0
 10
76.41290688193844
 20
-145.4088676936825
 30
0.0
 10
76.52590601385464
 20
-145.2100856841836
 30
0.0
 10
76.64097220306198
 20
-145.0068250505539
 30
0.0
 10
76.81288246777595
 20
-144.9837429108027
 30
0.0
 10
76.95068628718595
 20
-144.9837429108027
 30
0.0
 10
77.12052949460876
 20
-144.9837429108027
 30
0.0
 10
77.2741807532509
 20
-145.0281846425624
 30
0.0
 10
77.37581107006578
 20
-145.2100856841836
 30
0.0
 10
77.48226452056
 20
-145.4026665218091
 30
0.0
 10
77.50706920805379
 20
-145.6310763524811
 30
0.0
 10
77.50706920805379
 20
-145.8043646553892
 30
0.0
 10
77.50706920805379
 20
-145.9759304105546
 30
0.0
 10
77.48433157785114
 20
-146.2064072985179
 30
0.0
 10
77.37581107006578
 20
-146.3989881361433
 30
0.0
  0
SPLINE
  5
CF
330
C8
100
AcDbEntity
  8
_U+30EC_U+30A4_U+30E4_U+30FC 1
370
     0
100
AcDbSpline
210
0.0
220
0.0
230
1.0
 70
    11
 71
     3
 72
    17
 73
    13
 74
     0
 42
0.0000000001
 43
0.0000000001
 12
1.0
 22
0.0
 32
0.0
 13
1.0
 23
0.0
 33
0.0
 40
0.0
 40
0.0
 40
0.0
 40
0.0
 40
1.0
 40
1.0
 40
1.0
 40
2.0
 40
2.0
 40
2.0
 40
3.0
 40
3.0
 40
3.0
 40
4.0
 40
4.0
 40
4.0
 40
4.0
 10
76.95068628718595
 20
-145.1763237484282
 30
0.0
 10
76.6840358966276
 20
-145.1763237484282
 30
0.0
 10
76.63442652164001
 20
-145.4598551068642
 30
0.0
 10
76.63442652164001
 20
-145.8043646553892
 30
0.0
 10
76.63442652164001
 20
-146.1240695164204
 30
0.0
 10
76.67266708152628
 20
-146.4327500718988
 30
0.0
 10
76.95068628718595
 20
-146.4327500718988
 30
0.0
 10
77.21526962045313
 20
-146.4327500718988
 30
0.0
 10
77.26729056228041
 20
-146.1512857707538
 30
0.0
 10
77.26729056228041
 20
-145.8043646553892
 30
0.0
 10
77.26729056228041
 20
-145.4850043039065
 30
0.0
 10
77.22663843555445
 20
-145.1763237484282
 30
0.0
 10
76.95068628718595
 20
-145.1763237484282
 30
0.0
  0
HATCH
  5
D0
330
C8
100
AcDbEntity
  8
_U+30EC_U+30A4_U+30E4_U+30FC 1
 62
   179
420
  2234388
100
AcDbHatch
 10
0.0
 20
0.0
 30
0.0
210
0.0
220
0.0
230
1.0
  2
SOLID
 70
     1
 71
     0
 91
        2
 92
        1
 93
        1
 72
     4
 94
        3
 73
     0
 74
     1
 95
       29
 96
       25
 40
0.0
 40
0.0
 40
0.0
 40
0.0
 40
1.0
 40
1.0
 40
1.0
 40
2.0
 40
2.0
 40
2.0
 40
3.0
 40
3.0
 40
3.0
 40
4.0
 40
4.0
 40
4.0
 40
5.0
 40
5.0
 40
5.0
 40
6.0
 40
6.0
 40
6.0
 40
7.0
 40
7.0
 40
7.0
 40
8.0
 40
8.0
 40
8.0
 40
8.0
 10
77.37581107006578
 20
-146.3989881361433
 10
77.2604003713099
 20
-146.6084499416465
 10
77.07505423420346
 20
-146.6273979668154
 10
76.95068628718595
 20
-146.6273979668154
 10
76.7791205320205
 20
-146.6273979668154
 10
76.62753633066951
 20
-146.5808891777645
 10
76.52590601385464
 20
-146.3989881361433
 10
76.4149739392296
 20
-146.2043402412267
 10
76.39464787586662
 20
-145.9673176718415
 10
76.39464787586662
 20
-145.8043646553892
 10
76.39464787586662
 20
-145.6607041736543
 10
76.41290688193844
 20
-145.4088676936825
 10
76.52590601385464
 20
-145.2100856841836
 10
76.64097220306198
 20
-145.0068250505539
 10
76.81288246777595
 20
-144.9837429108027
 10
76.95068628718595
 20
-144.9837429108027
 10
77.12052949460876
 20
-144.9837429108027
 10
77.2741807532509
 20
-145.0281846425624
 10
77.37581107006578
 20
-145.2100856841836
 10
77.48226452056
 20
-145.4026665218091
 10
77.50706920805379
 20
-145.6310763524811
 10
77.50706920805379
 20
-145.8043646553892
 10
77.50706920805379
 20
-145.9759304105546
 10
77.48433157785114
 20
-146.2064072985179
 10
77.37581107006578
 20
-146.3989881361433
 97
        0
 97
        0
 92
        1
 93
        1
 72
     4
 94
        3
 73
     0
 74
     1
 95
       17
 96
       13
 40
0.0
 40
0.0
 40
0.0
 40
0.0
 40
1.0
 40
1.0
 40
1.0
 40
2.0
 40
2.0
 40
2.0
 40
3.0
 40
3.0
 40
3.0
 40
4.0
 40
4.0
 40
4.0
 40
4.0
 10
76.95068628718595
 20
-145.1763237484282
 10
76.6840358966276
 20
-145.1763237484282
 10
76.63442652164001
 20
-145.4598551068642
 10
76.63442652164001
 20
-145.8043646553892
 10
76.63442652164001
 20
-146.1240695164204
 10
76.67266708152628
 20
-146.4327500718988
 10
76.95068628718595
 20
-146.4327500718988
 10
77.21526962045313
 20
-146.4327500718988
 10
77.26729056228041
 20
-146.1512857707538
 10
77.26729056228041
 20
-145.8043646553892
 10
77.26729056228041
 20
-145.4850043039065
 10
77.22663843555445
 20
-145.1763237484282
 10
76.95068628718595
 20
-145.1763237484282
 97
        0
 97
        0
 75
     2
 76
     1
 98
        0
  0
ENDBLK
  5
CB
330
C8
100
AcDbEntity
  8
0
100
AcDbBlockEnd
  0
BLOCK
  5
D3
330
D1
100
AcDbEntity
  8
0
100
AcDbBlockBegin
  2
block 4
 70
     0
 10
0.0
 20
0.0
 30
0.0
  3
block 4
  1

  0
POLYLINE
  5
D5
330
D1
100
AcDbEntity
  8
_U+30EC_U+30A4_U+30E4_U+30FC 1
370
     0
100
AcDb2dPolyline
 66
     1
 10
0.0
 20
0.0
 30
0.0
  0
VERTEX
  5
D6
330
D5
100
AcDbEntity
  8
_U+30EC_U+30A4_U+30E4_U+30FC 1
370
     0
100
AcDbVertex
100
AcDb2dVertex
 10
91.04836152237681
 20
-113.9613470852249
 30
0.0
  0
VERTEX
  5
D7
330
D5
100
AcDbEntity
  8
_U+30EC_U+30A4_U+30E4_U+30FC 1
370
     0
100
AcDbVertex
100
AcDb2dVertex
 10
91.04836152237681
 20
-114.3082682005896
 30
0.0
  0
VERTEX
  5
D8
330
D5
100
AcDbEntity
  8
_U+30EC_U+30A4_U+30E4_U+30FC 1
370
     0
100
AcDbVertex
100
AcDb2dVertex
 10
90.81547306757392
 20
-114.3082682005896
 30
0.0
  0
VERTEX
  5
D9
330
D5
100
AcDbEntity
  8
_U+30EC_U+30A4_U+30E4_U+30FC 1
370
     0
100
AcDbVertex
100
AcDb2dVertex
 10
90.81547306757392
 20
-113.9613470852249
 30
0.0
  0
VERTEX
  5
DA
330
D5
100
AcDbEntity
  8
_U+30EC_U+30A4_U+30E4_U+30FC 1
370
     0
100
AcDbVertex
100
AcDb2dVertex
 10
90.11439613632557
 20
-113.9613470852249
 30
0.0
  0
VERTEX
  5
DB
330
D5
100
AcDbEntity
  8
_U+30EC_U+30A4_U+30E4_U+30FC 1
370
     0
100
AcDbVertex
100
AcDb2dVertex
 10
90.11439613632557
 20
-113.7370713691352
 30
0.0
  0
VERTEX
  5
DC
330
D5
100
AcDbEntity
  8
_U+30EC_U+30A4_U+30E4_U+30FC 1
370
     0
100
AcDbVertex
100
AcDb2dVertex
 10
90.84027775506772
 20
-112.7638318945521
 30
0.0
  0
VERTEX
  5
DD
330
D5
100
AcDbEntity
  8
_U+30EC_U+30A4_U+30E4_U+30FC 1
370
     0
100
AcDbVertex
100
AcDb2dVertex
 10
91.04836152237681
 20
-112.7638318945521
 30
0.0
  0
VERTEX
  5
DE
330
D5
100
AcDbEntity
  8
_U+30EC_U+30A4_U+30E4_U+30FC 1
370
     0
100
AcDbVertex
100
AcDb2dVertex
 10
91.04836152237681
 20
-113.762565075726
 30
0.0
  0
VERTEX
  5
DF
330
D5
100
AcDbEntity
  8
_U+30EC_U+30A4_U+30E4_U+30FC 1
370
     0
100
AcDbVertex
100
AcDb2dVertex
 10
91.26988116207836
 20
-113.762565075726
 30
0.0
  0
VERTEX
  5
E0
330
D5
100
AcDbEntity
  8
_U+30EC_U+30A4_U+30E4_U+30FC 1
370
     0
100
AcDbVertex
100
AcDb2dVertex
 10
91.26988116207836
 20
-113.9613470852249
 30
0.0
  0
VERTEX
  5
E1
330
D5
100
AcDbEntity
  8
_U+30EC_U+30A4_U+30E4_U+30FC 1
370
     0
100
AcDbVertex
100
AcDb2dVertex
 10
91.04836152237681
 20
-113.9613470852249
 30
0.0
  0
SEQEND
  5
E2
330
D5
100
AcDbEntity
  8
_U+30EC_U+30A4_U+30E4_U+30FC 1
370
     0
  0
POLYLINE
  5
E3
330
D1
100
AcDbEntity
  8
_U+30EC_U+30A4_U+30E4_U+30FC 1
370
     0
100
AcDb2dPolyline
 66
     1
 10
0.0
 20
0.0
 30
0.0
  0
VERTEX
  5
E4
330
E3
100
AcDbEntity
  8
_U+30EC_U+30A4_U+30E4_U+30FC 1
370
     0
100
AcDbVertex
100
AcDb2dVertex
 10
90.81547306757392
 20
-113.1066188953345
 30
0.0
  0
VERTEX
  5
E5
330
E3
100
AcDbEntity
  8
_U+30EC_U+30A4_U+30E4_U+30FC 1
370
     0
100
AcDbVertex
100
AcDb2dVertex
 10
90.32695852776548
 20
-113.762565075726
 30
0.0
  0
VERTEX
  5
E6
330
E3
100
AcDbEntity
  8
_U+30EC_U+30A4_U+30E4_U+30FC 1
370
     0
100
AcDbVertex
100
AcDb2dVertex
 10
90.81547306757392
 20
-113.762565075726
 30
0.0
  0
VERTEX
  5
E7
330
E3
100
AcDbEntity
  8
_U+30EC_U+30A4_U+30E4_U+30FC 1
370
     0
100
AcDbVertex
100
AcDb2dVertex
 10
90.81547306757392
 20
-113.1066188953345
 30
0.0
  0
SEQEND
  5
E8
330
E3
100
AcDbEntity
  8
_U+30EC_U+30A4_U+30E4_U+30FC 1
370
     0
  0
HATCH
  5
E9
330
D1
100
AcDbEntity
  8
_U+30EC_U+30A4_U+30E4_U+30FC 1
 62
   179
420
  2234388
100
AcDbHatch
 10
0.0
 20
0.0
 30
0.0
210
0.0
220
0.0
230
1.0
  2
SOLID
 70
     1
 71
     0
 91
        2
 92
        1
 93
       11
 72
     1
 10
91.04836152237681
 20
-113.9613470852249
 11
91.04836152237681
 21
-114.3082682005896
 72
     1
 10
91.04836152237681
 20
-114.3082682005896
 11
90.81547306757392
 21
-114.3082682005896
 72
     1
 10
90.81547306757392
 20
-114.3082682005896
 11
90.81547306757392
 21
-113.9613470852249
 72
     1
 10
90.81547306757392
 20
-113.9613470852249
 11
90.11439613632557
 21
-113.9613470852249
 72
     1
 10
90.11439613632557
 20
-113.9613470852249
 11
90.11439613632557
 21
-113.7370713691352
 72
     1
 10
90.11439613632557
 20
-113.7370713691352
 11
90.84027775506772
 21
-112.7638318945521
 72
     1
 10
90.84027775506772
 20
-112.7638318945521
 11
91.04836152237681
 21
-112.7638318945521
 72
     1
 10
91.04836152237681
 20
-112.7638318945521
 11
91.04836152237681
 21
-113.762565075726
 72
     1
 10
91.04836152237681
 20
-113.762565075726
 11
91.26988116207836
 21
-113.762565075726
 72
     1
 10
91.26988116207836
 20
-113.762565075726
 11
91.26988116207836
 21
-113.9613470852249
 72
     1
 10
91.26988116207836
 20
-113.9613470852249
 11
91.04836152237681
 21
-113.9613470852249
 97
        0
 92
        1
 93
        3
 72
     1
 10
90.81547306757392
 20
-113.1066188953345
 11
90.32695852776548
 21
-113.762565075726
 72
     1
 10
90.32695852776548
 20
-113.762565075726
 11
90.81547306757392
 21
-113.762565075726
 72
     1
 10
90.81547306757392
 20
-113.762565075726
 11
90.81547306757392
 21
-113.1066188953345
 97
        0
 75
     2
 76
     1
 98
        0
  0
SPLINE
  5
EA
330
D1
100
AcDbEntity
  8
_U+30EC_U+30A4_U+30E4_U+30FC 1
370
     0
100
AcDbSpline
210
0.0
220
0.0
230
1.0
 70
    11
 71
     3
 72
    29
 73
    25
 74
     0
 42
0.0000000001
 43
0.0000000001
 12
1.0
 22
0.0
 32
0.0
 13
1.0
 23
0.0
 33
0.0
 40
0.0
 40
0.0
 40
0.0
 40
0.0
 40
1.0
 40
1.0
 40
1.0
 40
2.0
 40
2.0
 40
2.0
 40
3.0
 40
3.0
 40
3.0
 40
4.0
 40
4.0
 40
4.0
 40
5.0
 40
5.0
 40
5.0
 40
6.0
 40
6.0
 40
6.0
 40
7.0
 40
7.0
 40
7.0
 40
8.0
 40
8.0
 40
8.0
 40
8.0
 10
92.37610132239209
 20
-114.1305012735507
 30
0.0
 10
92.26069062363622
 20
-114.3399630790539
 30
0.0
 10
92.07534448652977
 20
-114.3589111042228
 30
0.0
 10
91.95097653951225
 20
-114.3589111042228
 30
0.0
 10
91.77941078434682
 20
-114.3589111042228
 30
0.0
 10
91.62782658299582
 20
-114.3124023151719
 30
0.0
 10
91.52619626618096
 20
-114.1305012735507
 30
0.0
 10
91.4152641915559
 20
-113.9358533786341
 30
0.0
 10
91.39493812819293
 20
-113.6988308092489
 30
0.0
 10
91.39493812819293
 20
-113.5362223023451
 30
0.0
 10
91.39493812819293
 20
-113.3922173110617
 30
0.0
 10
91.41285262471624
 20
-113.1403808310899
 30
0.0
 10
91.52619626618096
 20
-112.941598821591
 30
0.0
 10
91.6412624553883
 20
-112.7386826975098
 30
0.0
 10
91.81317272010227
 20
-112.7152560482101
 30
0.0
 10
91.95097653951225
 20
-112.7152560482101
 30
0.0
 10
92.12081974693508
 20
-112.7152560482101
 30
0.0
 10
92.27447100557723
 20
-112.7596977799698
 30
0.0
 10
92.37610132239209
 20
-112.941598821591
 30
0.0
 10
92.4825547728863
 20
-113.1341796592165
 30
0.0
 10
92.50735946038012
 20
-113.3625894898885
 30
0.0
 10
92.50735946038012
 20
-113.5362223023451
 30
0.0
 10
92.50735946038012
 20
-113.707443547962
 30
0.0
 10
92.48462183017746
 20
-113.9379204359252
 30
0.0
 10
92.37610132239209
 20
-114.1305012735507
 30
0.0
  0
SPLINE
  5
EB
330
D1
100
AcDbEntity
  8
_U+30EC_U+30A4_U+30E4_U+30FC 1
370
     0
100
AcDbSpline
210
0.0
220
0.0
230
1.0
 70
    11
 71
     3
 72
    17
 73
    13
 74
     0
 42
0.0000000001
 43
0.0000000001
 12
1.0
 22
0.0
 32
0.0
 13
1.0
 23
0.0
 33
0.0
 40
0.0
 40
0.0
 40
0.0
 40
0.0
 40
1.0
 40
1.0
 40
1.0
 40
2.0
 40
2.0
 40
2.0
 40
3.0
 40
3.0
 40
3.0
 40
4.0
 40
4.0
 40
4.0
 40
4.0
 10
91.95097653951225
 20
-112.9078368858356
 30
0.0
 10
91.68432614895393
 20
-112.9078368858356
 30
0.0
 10
91.63471677396633
 20
-113.1913682442716
 30
0.0
 10
91.63471677396633
 20
-113.5362223023451
 30
0.0
 10
91.63471677396633
 20
-113.8555826538278
 30
0.0
 10
91.6729573338526
 20
-114.1642632093062
 30
0.0
 10
91.95097653951225
 20
-114.1642632093062
 30
0.0
 10
92.21555987277945
 20
-114.1642632093062
 30
0.0
 10
92.26758081460672
 20
-113.8831434177098
 30
0.0
 10
92.26758081460672
 20
-113.5362223023451
 30
0.0
 10
92.26758081460672
 20
-113.2165174413139
 30
0.0
 10
92.22692868788077
 20
-112.9078368858356
 30
0.0
 10
91.95097653951225
 20
-112.9078368858356
 30
0.0
  0
HATCH
  5
EC
330
D1
100
AcDbEntity
  8
_U+30EC_U+30A4_U+30E4_U+30FC 1
 62
   179
420
  2234388
100
AcDbHatch
 10
0.0
 20
0.0
 30
0.0
210
0.0
220
0.0
230
1.0
  2
SOLID
 70
     1
 71
     0
 91
        2
 92
        1
 93
        1
 72
     4
 94
        3
 73
     0
 74
     1
 95
       29
 96
       25
 40
0.0
 40
0.0
 40
0.0
 40
0.0
 40
1.0
 40
1.0
 40
1.0
 40
2.0
 40
2.0
 40
2.0
 40
3.0
 40
3.0
 40
3.0
 40
4.0
 40
4.0
 40
4.0
 40
5.0
 40
5.0
 40
5.0
 40
6.0
 40
6.0
 40
6.0
 40
7.0
 40
7.0
 40
7.0
 40
8.0
 40
8.0
 40
8.0
 40
8.0
 10
92.37610132239209
 20
-114.1305012735507
 10
92.26069062363622
 20
-114.3399630790539
 10
92.07534448652977
 20
-114.3589111042228
 10
91.95097653951225
 20
-114.3589111042228
 10
91.77941078434682
 20
-114.3589111042228
 10
91.62782658299582
 20
-114.3124023151719
 10
91.52619626618096
 20
-114.1305012735507
 10
91.4152641915559
 20
-113.9358533786341
 10
91.39493812819293
 20
-113.6988308092489
 10
91.39493812819293
 20
-113.5362223023451
 10
91.39493812819293
 20
-113.3922173110617
 10
91.41285262471624
 20
-113.1403808310899
 10
91.52619626618096
 20
-112.941598821591
 10
91.6412624553883
 20
-112.7386826975098
 10
91.81317272010227
 20
-112.7152560482101
 10
91.95097653951225
 20
-112.7152560482101
 10
92.12081974693508
 20
-112.7152560482101
 10
92.27447100557723
 20
-112.7596977799698
 10
92.37610132239209
 20
-112.941598821591
 10
92.4825547728863
 20
-113.1341796592165
 10
92.50735946038012
 20
-113.3625894898885
 10
92.50735946038012
 20
-113.5362223023451
 10
92.50735946038012
 20
-113.707443547962
 10
92.48462183017746
 20
-113.9379204359252
 10
92.37610132239209
 20
-114.1305012735507
 97
        0
 97
        0
 92
        1
 93
        1
 72
     4
 94
        3
 73
     0
 74
     1
 95
       17
 96
       13
 40
0.0
 40
0.0
 40
0.0
 40
0.0
 40
1.0
 40
1.0
 40
1.0
 40
2.0
 40
2.0
 40
2.0
 40
3.0
 40
3.0
 40
3.0
 40
4.0
 40
4.0
 40
4.0
 40
4.0
 10
91.95097653951225
 20
-112.9078368858356
 10
91.68432614895393
 20
-112.9078368858356
 10
91.63471677396633
 20
-113.1913682442716
 10
91.63471677396633
 20
-113.5362223023451
 10
91.63471677396633
 20
-113.8555826538278
 10
91.6729573338526
 20
-114.1642632093062
 10
91.95097653951225
 20
-114.1642632093062
 10
92.21555987277945
 20
-114.1642632093062
 10
92.26758081460672
 20
-113.8831434177098
 10
92.26758081460672
 20
-113.5362223023451
 10
92.26758081460672
 20
-113.2165174413139
 10
92.22692868788077
 20
-112.9078368858356
 10
91.95097653951225
 20
-112.9078368858356
 97
        0
 97
        0
 75
     2
 76
     1
 98
        0
  0
ENDBLK
  5
D4
330
D1
100
AcDbEntity
  8
0
100
AcDbBlockEnd
  0
BLOCK
  5
EF
330
ED
100
AcDbEntity
  8
0
100
AcDbBlockBegin
  2
block 5
 70
     0
 10
0.0
 20
0.0
 30
0.0
  3
block 5
  1

  0
SPLINE
  5
F1
330
ED
100
AcDbEntity
  8
_U+30EC_U+30A4_U+30E4_U+30FC 1
370
     0
100
AcDbSpline
210
0.0
220
0.0
230
1.0
 70
    11
 71
     3
 72
    26
 73
    22
 74
     0
 42
0.0000000001
 43
0.0000000001
 12
1.0
 22
0.0
 32
0.0
 13
1.0
 23
0.0
 33
0.0
 40
0.0
 40
0.0
 40
0.0
 40
0.0
 40
1.0
 40
1.0
 40
1.0
 40
2.0
 40
2.0
 40
2.0
 40
3.0
 40
3.0
 40
3.0
 40
4.0
 40
4.0
 40
4.0
 40
5.0
 40
5.0
 40
5.0
 40
6.0
 40
6.0
 40
6.0
 40
7.0
 40
7.0
 40
7.0
 40
7.0
 10
71.77046846079003
 20
-111.7187621791016
 30
0.0
 10
71.77046846079003
 20
-111.7187621791016
 30
0.0
 10
71.77046846079003
 20
-110.6144368213047
 30
0.0
 10
71.77046846079003
 20
-110.6144368213047
 30
0.0
 10
71.77046846079003
 20
-110.6144368213047
 30
0.0
 10
71.41769068310045
 20
-110.6144368213047
 30
0.0
 10
71.41769068310045
 20
-110.6144368213047
 30
0.0
 10
71.41769068310045
 20
-110.6144368213047
 30
0.0
 10
71.41769068310045
 20
-110.466297715439
 30
0.0
 10
71.41769068310045
 20
-110.466297715439
 30
0.0
 10
71.77270777285544
 20
-110.4516560596267
 30
0.0
 10
71.8224894026173
 20
-110.2887030431744
 30
0.0
 10
71.85401202630733
 20
-110.1744981278383
 30
0.0
 10
71.85401202630733
 20
-110.1744981278383
 30
0.0
 10
72.01007485178916
 20
-110.1744981278383
 30
0.0
 10
72.01007485178916
 20
-110.1744981278383
 30
0.0
 10
72.01007485178916
 20
-110.1744981278383
 30
0.0
 10
72.01007485178916
 20
-111.7187621791016
 30
0.0
 10
72.01007485178916
 20
-111.7187621791016
 30
0.0
 10
72.01007485178916
 20
-111.7187621791016
 30
0.0
 10
71.77046846079003
 20
-111.7187621791016
 30
0.0
 10
71.77046846079003
 20
-111.7187621791016
 30
0.0
  0
HATCH
  5
F2
330
ED
100
AcDbEntity
  8
_U+30EC_U+30A4_U+30E4_U+30FC 1
 62
   179
420
  2234388
100
AcDbHatch
 10
0.0
 20
0.0
 30
0.0
210
0.0
220
0.0
230
1.0
  2
SOLID
 70
     1
 71
     0
 91
        1
 92
        1
 93
        1
 72
     4
 94
        3
 73
     0
 74
     1
 95
       26
 96
       22
 40
0.0
 40
0.0
 40
0.0
 40
0.0
 40
1.0
 40
1.0
 40
1.0
 40
2.0
 40
2.0
 40
2.0
 40
3.0
 40
3.0
 40
3.0
 40
4.0
 40
4.0
 40
4.0
 40
5.0
 40
5.0
 40
5.0
 40
6.0
 40
6.0
 40
6.0
 40
7.0
 40
7.0
 40
7.0
 40
7.0
 10
71.77046846079003
 20
-111.7187621791016
 10
71.77046846079003
 20
-111.7187621791016
 10
71.77046846079003
 20
-110.6144368213047
 10
71.77046846079003
 20
-110.6144368213047
 10
71.77046846079003
 20
-110.6144368213047
 10
71.41769068310045
 20
-110.6144368213047
 10
71.41769068310045
 20
-110.6144368213047
 10
71.41769068310045
 20
-110.6144368213047
 10
71.41769068310045
 20
-110.466297715439
 10
71.41769068310045
 20
-110.466297715439
 10
71.77270777285544
 20
-110.4516560596267
 10
71.8224894026173
 20
-110.2887030431744
 10
71.85401202630733
 20
-110.1744981278383
 10
71.85401202630733
 20
-110.1744981278383
 10
72.01007485178916
 20
-110.1744981278383
 10
72.01007485178916
 20
-110.1744981278383
 10
72.01007485178916
 20
-110.1744981278383
 10
72.01007485178916
 20
-111.7187621791016
 10
72.01007485178916
 20
-111.7187621791016
 10
72.01007485178916
 20
-111.7187621791016
 10
71.77046846079003
 20
-111.7187621791016
 10
71.77046846079003
 20
-111.7187621791016
 97
        0
 97
        0
 75
     2
 76
     1
 98
        0
  0
ENDBLK
  5
F0
330
ED
100
AcDbEntity
  8
0
100
AcDbBlockEnd
  0
BLOCK
  5
F5
330
F3
100
AcDbEntity
  8
0
100
AcDbBlockBegin
  2
block 6
 70
     0
 10
0.0
 20
0.0
 30
0.0
  3
block 6
  1

  0
SPLINE
  5
F7
330
F3
100
AcDbEntity
  8
_U+30EC_U+30A4_U+30E4_U+30FC 1
370
     0
100
AcDbSpline
210
0.0
220
0.0
230
1.0
 70
    11
 71
     3
 72
    26
 73
    22
 74
     0
 42
0.0000000001
 43
0.0000000001
 12
1.0
 22
0.0
 32
0.0
 13
1.0
 23
0.0
 33
0.0
 40
0.0
 40
0.0
 40
0.0
 40
0.0
 40
1.0
 40
1.0
 40
1.0
 40
2.0
 40
2.0
 40
2.0
 40
3.0
 40
3.0
 40
3.0
 40
4.0
 40
4.0
 40
4.0
 40
5.0
 40
5.0
 40
5.0
 40
6.0
 40
6.0
 40
6.0
 40
7.0
 40
7.0
 40
7.0
 40
7.0
 10
117.7871256215949
 20
-131.5747422631133
 30
0.0
 10
117.7871256215949
 20
-131.5747422631133
 30
0.0
 10
116.6826280090238
 20
-131.5747422631133
 30
0.0
 10
116.6826280090238
 20
-131.5747422631133
 30
0.0
 10
116.6826280090238
 20
-131.5747422631133
 30
0.0
 10
116.6826280090238
 20
-131.9275200408028
 30
0.0
 10
116.6826280090238
 20
-131.9275200408028
 30
0.0
 10
116.6826280090238
 20
-131.9275200408028
 30
0.0
 10
116.534488903158
 20
-131.9275200408028
 30
0.0
 10
116.534488903158
 20
-131.9275200408028
 30
0.0
 10
116.52001950212
 20
-131.5723306962736
 30
0.0
 10
116.3570664856677
 20
-131.522721321286
 30
0.0
 10
116.2430338251059
 20
-131.4910264428217
 30
0.0
 10
116.2430338251059
 20
-131.4910264428217
 30
0.0
 10
116.2430338251059
 20
-131.3353081268884
 30
0.0
 10
116.2430338251059
 20
-131.3353081268884
 30
0.0
 10
116.2430338251059
 20
-131.3353081268884
 30
0.0
 10
117.7871256215949
 20
-131.3353081268884
 30
0.0
 10
117.7871256215949
 20
-131.3353081268884
 30
0.0
 10
117.7871256215949
 20
-131.3353081268884
 30
0.0
 10
117.7871256215949
 20
-131.5747422631133
 30
0.0
 10
117.7871256215949
 20
-131.5747422631133
 30
0.0
  0
HATCH
  5
F8
330
F3
100
AcDbEntity
  8
_U+30EC_U+30A4_U+30E4_U+30FC 1
 62
   179
420
  2234388
100
AcDbHatch
 10
0.0
 20
0.0
 30
0.0
210
0.0
220
0.0
230
1.0
  2
SOLID
 70
     1
 71
     0
 91
        1
 92
        1
 93
        1
 72
     4
 94
        3
 73
     0
 74
     1
 95
       26
 96
       22
 40
0.0
 40
0.0
 40
0.0
 40
0.0
 40
1.0
 40
1.0
 40
1.0
 40
2.0
 40
2.0
 40
2.0
 40
3.0
 40
3.0
 40
3.0
 40
4.0
 40
4.0
 40
4.0
 40
5.0
 40
5.0
 40
5.0
 40
6.0
 40
6.0
 40
6.0
 40
7.0
 40
7.0
 40
7.0
 40
7.0
 10
117.7871256215949
 20
-131.5747422631133
 10
117.7871256215949
 20
-131.5747422631133
 10
116.6826280090238
 20
-131.5747422631133
 10
116.6826280090238
 20
-131.5747422631133
 10
116.6826280090238
 20
-131.5747422631133
 10
116.6826280090238
 20
-131.9275200408028
 10
116.6826280090238
 20
-131.9275200408028
 10
116.6826280090238
 20
-131.9275200408028
 10
116.534488903158
 20
-131.9275200408028
 10
116.534488903158
 20
-131.9275200408028
 10
116.52001950212
 20
-131.5723306962736
 10
116.3570664856677
 20
-131.522721321286
 10
116.2430338251059
 20
-131.4910264428217
 10
116.2430338251059
 20
-131.4910264428217
 10
116.2430338251059
 20
-131.3353081268884
 10
116.2430338251059
 20
-131.3353081268884
 10
116.2430338251059
 20
-131.3353081268884
 10
117.7871256215949
 20
-131.3353081268884
 10
117.7871256215949
 20
-131.3353081268884
 10
117.7871256215949
 20
-131.3353081268884
 10
117.7871256215949
 20
-131.5747422631133
 10
117.7871256215949
 20
-131.5747422631133
 97
        0
 97
        0
 75
     2
 76
     1
 98
        0
  0
SPLINE
  5
F9
330
F3
100
AcDbEntity
  8
_U+30EC_U+30A4_U+30E4_U+30FC 1
370
     0
100
AcDbSpline
210
0.0
220
0.0
230
1.0
 70
    11
 71
     3
 72
    62
 73
    58
 74
     0
 42
0.0000000001
 43
0.0000000001
 12
1.0
 22
0.0
 32
0.0
 13
1.0
 23
0.0
 33
0.0
 40
0.0
 40
0.0
 40
0.0
 40
0.0
 40
1.0
 40
1.0
 40
1.0
 40
2.0
 40
2.0
 40
2.0
 40
3.0
 40
3.0
 40
3.0
 40
4.0
 40
4.0
 40
4.0
 40
5.0
 40
5.0
 40
5.0
 40
6.0
 40
6.0
 40
6.0
 40
7.0
 40
7.0
 40
7.0
 40
8.0
 40
8.0
 40
8.0
 40
9.0
 40
9.0
 40
9.0
 40
10.0
 40
10.0
 40
10.0
 40
11.0
 40
11.0
 40
11.0
 40
12.0
 40
12.0
 40
12.0
 40
13.0
 40
13.0
 40
13.0
 40
14.0
 40
14.0
 40
14.0
 40
15.0
 40
15.0
 40
15.0
 40
16.0
 40
16.0
 40
16.0
 40
17.0
 40
17.0
 40
17.0
 40
18.0
 40
18.0
 40
18.0
 40
19.0
 40
19.0
 40
19.0
 40
19.0
 10
117.8381130347766
 20
-130.2742187174314
 30
0.0
 10
117.8381130347766
 20
-130.3755045246978
 30
0.0
 10
117.816753442768
 20
-130.6083929795007
 30
0.0
 10
117.6307182865645
 20
-130.7420626843284
 30
0.0
 10
117.5184081737454
 20
-130.8212998804891
 30
0.0
 10
117.4191894237702
 20
-130.8254339950714
 30
0.0
 10
117.3344400748331
 20
-130.8302571287508
 30
0.0
 10
117.3344400748331
 20
-130.8302571287508
 30
0.0
 10
117.3344400748331
 20
-130.5949571071082
 30
0.0
 10
117.3344400748331
 20
-130.5949571071082
 30
0.0
 10
117.4085096277659
 20
-130.5925455402685
 30
0.0
 10
117.6431206303114
 20
-130.5815212347157
 30
0.0
 10
117.6431206303114
 20
-130.2783528320138
 30
0.0
 10
117.6431206303114
 20
-130.1315917643421
 30
0.0
 10
117.5735297015094
 20
-129.9689832574383
 30
0.0
 10
117.3447753612888
 20
-129.9689832574383
 30
0.0
 10
117.2286756434359
 20
-129.9689832574383
 30
0.0
 10
117.1800997970939
 20
-130.0096353841643
 30
0.0
 10
117.1484049186296
 20
-130.0433973199197
 30
0.0
 10
117.0739908561482
 20
-130.1226345160805
 30
0.0
 10
117.0615885124013
 20
-130.2466579535495
 30
0.0
 10
117.0615885124013
 20
-130.3055690863472
 30
0.0
 10
117.0615885124013
 20
-130.3258951497102
 30
0.0
 10
117.0636555696924
 20
-130.364480219145
 30
0.0
 10
117.0677896842747
 20
-130.3937635307696
 30
0.0
 10
117.0677896842747
 20
-130.3937635307696
 30
0.0
 10
116.8734862989066
 20
-130.3937635307696
 30
0.0
 10
116.8734862989066
 20
-130.3937635307696
 30
0.0
 10
116.8796874707801
 20
-130.3531114040437
 30
0.0
 10
116.8817545280712
 20
-130.3079806531869
 30
0.0
 10
116.8817545280712
 20
-130.3010904622164
 30
0.0
 10
116.8817545280712
 20
-130.2308105143173
 30
0.0
 10
116.8603949360627
 20
-130.0185926324259
 30
0.0
 10
116.6233723666775
 20
-130.0185926324259
 30
0.0
 10
116.4459499491871
 20
-130.0185926324259
 30
0.0
 10
116.3908284214231
 20
-130.158463509127
 30
0.0
 10
116.3908284214231
 20
-130.2762857747226
 30
0.0
 10
116.3908284214231
 20
-130.5587836045131
 30
0.0
 10
116.6233723666775
 20
-130.5677408527747
 30
0.0
 10
116.6957193718677
 20
-130.5725639864541
 30
0.0
 10
116.6957193718677
 20
-130.5725639864541
 30
0.0
 10
116.6957193718677
 20
-130.7896050020248
 30
0.0
 10
116.6957193718677
 20
-130.7896050020248
 30
0.0
 10
116.5706624057532
 20
-130.7806477537632
 30
0.0
 10
116.1941134692154
 20
-130.75101993259
 30
0.0
 10
116.1941134692154
 20
-130.2625053927816
 30
0.0
 10
116.1941134692154
 20
-130.0230712565567
 30
0.0
 10
116.3208929830726
 20
-129.76537811426
 30
0.0
 10
116.617171194804
 20
-129.76537811426
 30
0.0
 10
116.8032063510075
 20
-129.76537811426
 30
0.0
 10
116.8858886426535
 20
-129.8670084310749
 30
0.0
 10
116.947211342291
 20
-129.9731173720206
 30
0.0
 10
116.974772106173
 20
-129.9076605578009
 30
0.0
 10
117.0553873405278
 20
-129.7133571724328
 30
0.0
 10
117.3323730175419
 20
-129.7133571724328
 30
0.0
 10
117.6706813941935
 20
-129.7133571724328
 30
0.0
 10
117.8381130347766
 20
-129.9779405057
 30
0.0
 10
117.8381130347766
 20
-130.2742187174314
 30
0.0
  0
HATCH
  5
FA
330
F3
100
AcDbEntity
  8
_U+30EC_U+30A4_U+30E4_U+30FC 1
 62
   179
420
  2234388
100
AcDbHatch
 10
0.0
 20
0.0
 30
0.0
210
0.0
220
0.0
230
1.0
  2
SOLID
 70
     1
 71
     0
 91
        1
 92
        1
 93
        1
 72
     4
 94
        3
 73
     0
 74
     1
 95
       62
 96
       58
 40
0.0
 40
0.0
 40
0.0
 40
0.0
 40
1.0
 40
1.0
 40
1.0
 40
2.0
 40
2.0
 40
2.0
 40
3.0
 40
3.0
 40
3.0
 40
4.0
 40
4.0
 40
4.0
 40
5.0
 40
5.0
 40
5.0
 40
6.0
 40
6.0
 40
6.0
 40
7.0
 40
7.0
 40
7.0
 40
8.0
 40
8.0
 40
8.0
 40
9.0
 40
9.0
 40
9.0
 40
10.0
 40
10.0
 40
10.0
 40
11.0
 40
11.0
 40
11.0
 40
12.0
 40
12.0
 40
12.0
 40
13.0
 40
13.0
 40
13.0
 40
14.0
 40
14.0
 40
14.0
 40
15.0
 40
15.0
 40
15.0
 40
16.0
 40
16.0
 40
16.0
 40
17.0
 40
17.0
 40
17.0
 40
18.0
 40
18.0
 40
18.0
 40
19.0
 40
19.0
 40
19.0
 40
19.0
 10
117.8381130347766
 20
-130.2742187174314
 10
117.8381130347766
 20
-130.3755045246978
 10
117.816753442768
 20
-130.6083929795007
 10
117.6307182865645
 20
-130.7420626843284
 10
117.5184081737454
 20
-130.8212998804891
 10
117.4191894237702
 20
-130.8254339950714
 10
117.3344400748331
 20
-130.8302571287508
 10
117.3344400748331
 20
-130.8302571287508
 10
117.3344400748331
 20
-130.5949571071082
 10
117.3344400748331
 20
-130.5949571071082
 10
117.4085096277659
 20
-130.5925455402685
 10
117.6431206303114
 20
-130.5815212347157
 10
117.6431206303114
 20
-130.2783528320138
 10
117.6431206303114
 20
-130.1315917643421
 10
117.5735297015094
 20
-129.9689832574383
 10
117.3447753612888
 20
-129.9689832574383
 10
117.2286756434359
 20
-129.9689832574383
 10
117.1800997970939
 20
-130.0096353841643
 10
117.1484049186296
 20
-130.0433973199197
 10
117.0739908561482
 20
-130.1226345160805
 10
117.0615885124013
 20
-130.2466579535495
 10
117.0615885124013
 20
-130.3055690863472
 10
117.0615885124013
 20
-130.3258951497102
 10
117.0636555696924
 20
-130.364480219145
 10
117.0677896842747
 20
-130.3937635307696
 10
117.0677896842747
 20
-130.3937635307696
 10
116.8734862989066
 20
-130.3937635307696
 10
116.8734862989066
 20
-130.3937635307696
 10
116.8796874707801
 20
-130.3531114040437
 10
116.8817545280712
 20
-130.3079806531869
 10
116.8817545280712
 20
-130.3010904622164
 10
116.8817545280712
 20
-130.2308105143173
 10
116.8603949360627
 20
-130.0185926324259
 10
116.6233723666775
 20
-130.0185926324259
 10
116.4459499491871
 20
-130.0185926324259
 10
116.3908284214231
 20
-130.158463509127
 10
116.3908284214231
 20
-130.2762857747226
 10
116.3908284214231
 20
-130.5587836045131
 10
116.6233723666775
 20
-130.5677408527747
 10
116.6957193718677
 20
-130.5725639864541
 10
116.6957193718677
 20
-130.5725639864541
 10
116.6957193718677
 20
-130.7896050020248
 10
116.6957193718677
 20
-130.7896050020248
 10
116.5706624057532
 20
-130.7806477537632
 10
116.1941134692154
 20
-130.75101993259
 10
116.1941134692154
 20
-130.2625053927816
 10
116.1941134692154
 20
-130.0230712565567
 10
116.3208929830726
 20
-129.76537811426
 10
116.617171194804
 20
-129.76537811426
 10
116.8032063510075
 20
-129.76537811426
 10
116.8858886426535
 20
-129.8670084310749
 10
116.947211342291
 20
-129.9731173720206
 10
116.974772106173
 20
-129.9076605578009
 10
117.0553873405278
 20
-129.7133571724328
 10
117.3323730175419
 20
-129.7133571724328
 10
117.6706813941935
 20
-129.7133571724328
 10
117.8381130347766
 20
-129.9779405057
 10
117.8381130347766
 20
-130.2742187174314
 97
        0
 97
        0
 75
     2
 76
     1
 98
        0
  0
ENDBLK
  5
F6
330
F3
100
AcDbEntity
  8
0
100
AcDbBlockEnd
  0
BLOCK
  5
FD
330
FB
100
AcDbEntity
  8
0
100
AcDbBlockBegin
  2
block 7
 70
     0
 10
0.0
 20
0.0
 30
0.0
  3
block 7
  1

  0
SPLINE
  5
FF
330
FB
100
AcDbEntity
  8
_U+30EC_U+30A4_U+30E4_U+30FC 1
370
     0
100
AcDbSpline
210
0.0
220
0.0
230
1.0
 70
    11
 71
     3
 72
    44
 73
    40
 74
     0
 42
0.0000000001
 43
0.0000000001
 12
1.0
 22
0.0
 32
0.0
 13
1.0
 23
0.0
 33
0.0
 40
0.0
 40
0.0
 40
0.0
 40
0.0
 40
1.0
 40
1.0
 40
1.0
 40
2.0
 40
2.0
 40
2.0
 40
3.0
 40
3.0
 40
3.0
 40
4.0
 40
4.0
 40
4.0
 40
5.0
 40
5.0
 40
5.0
 40
6.0
 40
6.0
 40
6.0
 40
7.0
 40
7.0
 40
7.0
 40
8.0
 40
8.0
 40
8.0
 40
9.0
 40
9.0
 40
9.0
 40
10.0
 40
10.0
 40
10.0
 40
11.0
 40
11.0
 40
11.0
 40
12.0
 40
12.0
 40
12.0
 40
13.0
 40
13.0
 40
13.0
 40
13.0
 10
65.44268932825739
 20
-130.2783528320138
 30
0.0
 10
65.60150823012741
 20
-130.5112412868166
 30
0.0
 10
65.67557778306028
 20
-130.6108045463403
 30
0.0
 10
65.81923826479519
 20
-130.6628254881676
 30
0.0
 10
65.81923826479519
 20
-130.6628254881676
 30
0.0
 10
65.81923826479519
 20
-129.8304904189313
 30
0.0
 10
65.81923826479519
 20
-129.8304904189313
 30
0.0
 10
65.81923826479519
 20
-129.8304904189313
 30
0.0
 10
66.02456595571608
 20
-129.8304904189313
 30
0.0
 10
66.02456595571608
 20
-129.8304904189313
 30
0.0
 10
66.02456595571608
 20
-129.8304904189313
 30
0.0
 10
66.02456595571608
 20
-130.929475878726
 30
0.0
 10
66.02456595571608
 20
-130.929475878726
 30
0.0
 10
65.66696504434715
 20
-130.895369433422
 30
0.0
 10
65.58876137683198
 20
-130.8254339950714
 30
0.0
 10
65.29041610780935
 20
-130.4140895941326
 30
0.0
 10
65.09163409831042
 20
-130.1405490126038
 30
0.0
 10
65.02376571725101
 20
-130.0702690647047
 30
0.0
 10
64.88630640738954
 20
-130.0702690647047
 30
0.0
 10
64.76779512269694
 20
-130.0702690647047
 30
0.0
 10
64.63688149425745
 20
-130.1470946940257
 30
0.0
 10
64.63688149425745
 20
-130.3575900281745
 30
0.0
 10
64.63688149425745
 20
-130.6356092338341
 30
0.0
 10
64.86735838222066
 20
-130.6445664820958
 30
0.0
 10
64.9838026096221
 20
-130.6490451062266
 30
0.0
 10
64.9838026096221
 20
-130.6490451062266
 30
0.0
 10
64.9838026096221
 20
-130.888823752
 30
0.0
 10
64.9838026096221
 20
-130.888823752
 30
0.0
 10
64.85667858621639
 20
-130.8798665037384
 30
0.0
 10
64.74471298294577
 20
-130.868497688637
 30
0.0
 10
64.62620169825317
 20
-130.7823703015058
 30
0.0
 10
64.465315739092
 20
-130.6648925454588
 30
0.0
 10
64.43155380333656
 20
-130.4661105359599
 30
0.0
 10
64.43155380333656
 20
-130.3417425889423
 30
0.0
 10
64.43155380333656
 20
-130.0454643772109
 30
0.0
 10
64.6155219022489
 20
-129.8239447375093
 30
0.0
 10
64.88837346468068
 20
-129.8239447375093
 30
0.0
 10
65.11712780490127
 20
-129.8239447375093
 30
0.0
 10
65.21634655487647
 20
-129.9483126845268
 30
0.0
 10
65.44268932825739
 20
-130.2783528320138
 30
0.0
  0
HATCH
  5
100
330
FB
100
AcDbEntity
  8
_U+30EC_U+30A4_U+30E4_U+30FC 1
 62
   179
420
  2234388
100
AcDbHatch
 10
0.0
 20
0.0
 30
0.0
210
0.0
220
0.0
230
1.0
  2
SOLID
 70
     1
 71
     0
 91
        1
 92
        1
 93
        1
 72
     4
 94
        3
 73
     0
 74
     1
 95
       44
 96
       40
 40
0.0
 40
0.0
 40
0.0
 40
0.0
 40
1.0
 40
1.0
 40
1.0
 40
2.0
 40
2.0
 40
2.0
 40
3.0
 40
3.0
 40
3.0
 40
4.0
 40
4.0
 40
4.0
 40
5.0
 40
5.0
 40
5.0
 40
6.0
 40
6.0
 40
6.0
 40
7.0
 40
7.0
 40
7.0
 40
8.0
 40
8.0
 40
8.0
 40
9.0
 40
9.0
 40
9.0
 40
10.0
 40
10.0
 40
10.0
 40
11.0
 40
11.0
 40
11.0
 40
12.0
 40
12.0
 40
12.0
 40
13.0
 40
13.0
 40
13.0
 40
13.0
 10
65.44268932825739
 20
-130.2783528320138
 10
65.60150823012741
 20
-130.5112412868166
 10
65.67557778306028
 20
-130.6108045463403
 10
65.81923826479519
 20
-130.6628254881676
 10
65.81923826479519
 20
-130.6628254881676
 10
65.81923826479519
 20
-129.8304904189313
 10
65.81923826479519
 20
-129.8304904189313
 10
65.81923826479519
 20
-129.8304904189313
 10
66.02456595571608
 20
-129.8304904189313
 10
66.02456595571608
 20
-129.8304904189313
 10
66.02456595571608
 20
-129.8304904189313
 10
66.02456595571608
 20
-130.929475878726
 10
66.02456595571608
 20
-130.929475878726
 10
65.66696504434715
 20
-130.895369433422
 10
65.58876137683198
 20
-130.8254339950714
 10
65.29041610780935
 20
-130.4140895941326
 10
65.09163409831042
 20
-130.1405490126038
 10
65.02376571725101
 20
-130.0702690647047
 10
64.88630640738954
 20
-130.0702690647047
 10
64.76779512269694
 20
-130.0702690647047
 10
64.63688149425745
 20
-130.1470946940257
 10
64.63688149425745
 20
-130.3575900281745
 10
64.63688149425745
 20
-130.6356092338341
 10
64.86735838222066
 20
-130.6445664820958
 10
64.9838026096221
 20
-130.6490451062266
 10
64.9838026096221
 20
-130.6490451062266
 10
64.9838026096221
 20
-130.888823752
 10
64.9838026096221
 20
-130.888823752
 10
64.85667858621639
 20
-130.8798665037384
 10
64.74471298294577
 20
-130.868497688637
 10
64.62620169825317
 20
-130.7823703015058
 10
64.465315739092
 20
-130.6648925454588
 10
64.43155380333656
 20
-130.4661105359599
 10
64.43155380333656
 20
-130.3417425889423
 10
64.43155380333656
 20
-130.0454643772109
 10
64.6155219022489
 20
-129.8239447375093
 10
64.88837346468068
 20
-129.8239447375093
 10
65.11712780490127
 20
-129.8239447375093
 10
65.21634655487647
 20
-129.9483126845268
 10
65.44268932825739
 20
-130.2783528320138
 97
        0
 97
        0
 75
     2
 76
     1
 98
        0
  0
SPLINE
  5
101
330
FB
100
AcDbEntity
  8
_U+30EC_U+30A4_U+30E4_U+30FC 1
370
     0
100
AcDbSpline
210
0.0
220
0.0
230
1.0
 70
    11
 71
     3
 72
    26
 73
    22
 74
     0
 42
0.0000000001
 43
0.0000000001
 12
1.0
 22
0.0
 32
0.0
 13
1.0
 23
0.0
 33
0.0
 40
0.0
 40
0.0
 40
0.0
 40
0.0
 40
1.0
 40
1.0
 40
1.0
 40
2.0
 40
2.0
 40
2.0
 40
3.0
 40
3.0
 40
3.0
 40
4.0
 40
4.0
 40
4.0
 40
5.0
 40
5.0
 40
5.0
 40
6.0
 40
6.0
 40
6.0
 40
7.0
 40
7.0
 40
7.0
 40
7.0
 10
66.02456595571608
 20
-129.1721326717
 30
0.0
 10
66.02456595571608
 20
-129.1721326717
 30
0.0
 10
64.92041285269352
 20
-129.1721326717
 30
0.0
 10
64.92041285269352
 20
-129.1721326717
 30
0.0
 10
64.92041285269352
 20
-129.1721326717
 30
0.0
 10
64.92041285269352
 20
-129.5245659398411
 30
0.0
 10
64.92041285269352
 20
-129.5245659398411
 30
0.0
 10
64.92041285269352
 20
-129.5245659398411
 30
0.0
 10
64.77227374682776
 20
-129.5245659398411
 30
0.0
 10
64.77227374682776
 20
-129.5245659398411
 30
0.0
 10
64.7574598362412
 20
-129.1697211048603
 30
0.0
 10
64.59450681978888
 20
-129.1201117298727
 30
0.0
 10
64.48012964967859
 20
-129.0884168514085
 30
0.0
 10
64.48012964967859
 20
-129.0884168514085
 30
0.0
 10
64.48012964967859
 20
-128.9323540259266
 30
0.0
 10
64.48012964967859
 20
-128.9323540259266
 30
0.0
 10
64.48012964967859
 20
-128.9323540259266
 30
0.0
 10
66.02456595571608
 20
-128.9323540259266
 30
0.0
 10
66.02456595571608
 20
-128.9323540259266
 30
0.0
 10
66.02456595571608
 20
-128.9323540259266
 30
0.0
 10
66.02456595571608
 20
-129.1721326717
 30
0.0
 10
66.02456595571608
 20
-129.1721326717
 30
0.0
  0
HATCH
  5
102
330
FB
100
AcDbEntity
  8
_U+30EC_U+30A4_U+30E4_U+30FC 1
 62
   179
420
  2234388
100
AcDbHatch
 10
0.0
 20
0.0
 30
0.0
210
0.0
220
0.0
230
1.0
  2
SOLID
 70
     1
 71
     0
 91
        1
 92
        1
 93
        1
 72
     4
 94
        3
 73
     0
 74
     1
 95
       26
 96
       22
 40
0.0
 40
0.0
 40
0.0
 40
0.0
 40
1.0
 40
1.0
 40
1.0
 40
2.0
 40
2.0
 40
2.0
 40
3.0
 40
3.0
 40
3.0
 40
4.0
 40
4.0
 40
4.0
 40
5.0
 40
5.0
 40
5.0
 40
6.0
 40
6.0
 40
6.0
 40
7.0
 40
7.0
 40
7.0
 40
7.0
 10
66.02456595571608
 20
-129.1721326717
 10
66.02456595571608
 20
-129.1721326717
 10
64.92041285269352
 20
-129.1721326717
 10
64.92041285269352
 20
-129.1721326717
 10
64.92041285269352
 20
-129.1721326717
 10
64.92041285269352
 20
-129.5245659398411
 10
64.92041285269352
 20
-129.5245659398411
 10
64.92041285269352
 20
-129.5245659398411
 10
64.77227374682776
 20
-129.5245659398411
 10
64.77227374682776
 20
-129.5245659398411
 10
64.7574598362412
 20
-129.1697211048603
 10
64.59450681978888
 20
-129.1201117298727
 10
64.48012964967859
 20
-129.0884168514085
 10
64.48012964967859
 20
-129.0884168514085
 10
64.48012964967859
 20
-128.9323540259266
 10
64.48012964967859
 20
-128.9323540259266
 10
64.48012964967859
 20
-128.9323540259266
 10
66.02456595571608
 20
-128.9323540259266
 10
66.02456595571608
 20
-128.9323540259266
 10
66.02456595571608
 20
-128.9323540259266
 10
66.02456595571608
 20
-129.1721326717
 10
66.02456595571608
 20
-129.1721326717
 97
        0
 97
        0
 75
     2
 76
     1
 98
        0
  0
ENDBLK
  5
FE
330
FB
100
AcDbEntity
  8
0
100
AcDbBlockEnd
  0
ENDSEC
  0
SECTION
  2
ENTITIES
  0
POLYLINE
  5
41
330
1F
100
AcDbEntity
  8
_U+30EC_U+30A4_U+30E4_U+30FC 1
 62
   179
420
  2234388
370
    25
100
AcDb2dPolyline
 66
     1
 10
0.0
 20
0.0
 30
0.0
  0
VERTEX
  5
42
330
41
100
AcDbEntity
  8
_U+30EC_U+30A4_U+30E4_U+30FC 1
 62
   179
420
  2234388
370
    25
100
AcDbVertex
100
AcDb2dVertex
 10
81.32286042528098
 20
-140.251215242715
 30
0.0
  0
VERTEX
  5
43
330
41
100
AcDbEntity
  8
_U+30EC_U+30A4_U+30E4_U+30FC 1
 62
   179
420
  2234388
370
    25
100
AcDbVertex
100
AcDb2dVertex
 10
71.32277484707109
 20
-140.251215242715
 30
0.0
  0
SEQEND
  5
44
330
41
100
AcDbEntity
  8
_U+30EC_U+30A4_U+30E4_U+30FC 1
 62
   179
420
  2234388
370
    25
  0
POLYLINE
  5
45
330
1F
100
AcDbEntity
  8
_U+30EC_U+30A4_U+30E4_U+30FC 1
 62
   179
420
  2234388
370
    25
100
AcDb2dPolyline
 66
     1
 10
0.0
 20
0.0
 30
0.0
  0
VERTEX
  5
46
330
45
100
AcDbEntity
  8
_U+30EC_U+30A4_U+30E4_U+30FC 1
 62
   179
420
  2234388
370
    25
100
AcDbVertex
100
AcDb2dVertex
 10
111.322729104365
 20
-124.2518610800482
 30
0.0
  0
VERTEX
  5
47
330
45
100
AcDbEntity
  8
_U+30EC_U+30A4_U+30E4_U+30FC 1
 62
   179
420
  2234388
370
    25
100
AcDbVertex
100
AcDb2dVertex
 10
111.322729104365
 20
-123.2513833025204
 30
0.0
  0
SEQEND
  5
48
330
45
100
AcDbEntity
  8
_U+30EC_U+30A4_U+30E4_U+30FC 1
 62
   179
420
  2234388
370
    25
  0
POLYLINE
  5
49
330
1F
100
AcDbEntity
  8
_U+30EC_U+30A4_U+30E4_U+30FC 1
 62
   179
420
  2234388
370
    25
100
AcDb2dPolyline
 66
     1
 10
0.0
 20
0.0
 30
0.0
  0
VERTEX
  5
4A
330
49
100
AcDbEntity
  8
_U+30EC_U+30A4_U+30E4_U+30FC 1
 62
   179
420
  2234388
370
    25
100
AcDbVertex
100
AcDb2dVertex
 10
81.32286042528098
 20
-137.2512282990206
 30
0.0
  0
VERTEX
  5
4B
330
49
100
AcDbEntity
  8
_U+30EC_U+30A4_U+30E4_U+30FC 1
 62
   179
420
  2234388
370
    25
100
AcDbVertex
100
AcDb2dVertex
 10
78.32287355737257
 20
-137.2512282990206
 30
0.0
  0
SEQEND
  5
4C
330
49
100
AcDbEntity
  8
_U+30EC_U+30A4_U+30E4_U+30FC 1
 62
   179
420
  2234388
370
    25
  0
POLYLINE
  5
4D
330
1F
100
AcDbEntity
  8
_U+30EC_U+30A4_U+30E4_U+30FC 1
 62
   179
420
  2234388
370
    25
100
AcDb2dPolyline
 66
     1
 10
0.0
 20
0.0
 30
0.0
  0
VERTEX
  5
4E
330
4D
100
AcDbEntity
  8
_U+30EC_U+30A4_U+30E4_U+30FC 1
 62
   179
420
  2234388
370
    25
100
AcDbVertex
100
AcDb2dVertex
 10
111.322729104365
 20
-124.2518610800482
 30
0.0
  0
VERTEX
  5
4F
330
4D
100
AcDbEntity
  8
_U+30EC_U+30A4_U+30E4_U+30FC 1
 62
   179
420
  2234388
370
    25
100
AcDbVertex
100
AcDb2dVertex
 10
72.322547043787
 20
-124.2518610800482
 30
0.0
  0
SEQEND
  5
50
330
4D
100
AcDbEntity
  8
_U+30EC_U+30A4_U+30E4_U+30FC 1
 62
   179
420
  2234388
370
    25
  0
POLYLINE
  5
51
330
1F
100
AcDbEntity
  8
_U+30EC_U+30A4_U+30E4_U+30FC 1
 62
   179
420
  2234388
370
    25
100
AcDb2dPolyline
 66
     1
 10
0.0
 20
0.0
 30
0.0
  0
VERTEX
  5
52
330
51
100
AcDbEntity
  8
_U+30EC_U+30A4_U+30E4_U+30FC 1
 62
   179
420
  2234388
370
    25
100
AcDbVertex
100
AcDb2dVertex
 10
111.322729104365
 20
-123.2513833025204
 30
0.0
  0
VERTEX
  5
53
330
51
100
AcDbEntity
  8
_U+30EC_U+30A4_U+30E4_U+30FC 1
 62
   179
420
  2234388
370
    25
100
AcDbVertex
100
AcDb2dVertex
 10
72.322547043787
 20
-123.2513833025204
 30
0.0
  0
SEQEND
  5
54
330
51
100
AcDbEntity
  8
_U+30EC_U+30A4_U+30E4_U+30FC 1
 62
   179
420
  2234388
370
    25
  0
POLYLINE
  5
55
330
1F
100
AcDbEntity
  8
_U+30EC_U+30A4_U+30E4_U+30FC 1
 62
   179
420
  2234388
370
    25
100
AcDb2dPolyline
 66
     1
 10
0.0
 20
0.0
 30
0.0
  0
VERTEX
  5
56
330
55
100
AcDbEntity
  8
_U+30EC_U+30A4_U+30E4_U+30FC 1
 62
   179
420
  2234388
370
    25
100
AcDbVertex
100
AcDb2dVertex
 10
72.322547043787
 20
-139.2514430207424
 30
0.0
  0
VERTEX
  5
57
330
55
100
AcDbEntity
  8
_U+30EC_U+30A4_U+30E4_U+30FC 1
 62
   179
420
  2234388
370
    25
100
AcDbVertex
100
AcDb2dVertex
 10
72.322547043787
 20
-124.2518610800482
 30
0.0
  0
SEQEND
  5
58
330
55
100
AcDbEntity
  8
_U+30EC_U+30A4_U+30E4_U+30FC 1
 62
   179
420
  2234388
370
    25
  0
POLYLINE
  5
59
330
1F
100
AcDbEntity
  8
_U+30EC_U+30A4_U+30E4_U+30FC 1
 62
   179
420
  2234388
370
    25
100
AcDb2dPolyline
 66
     1
 10
0.0
 20
0.0
 30
0.0
  0
VERTEX
  5
5A
330
59
100
AcDbEntity
  8
_U+30EC_U+30A4_U+30E4_U+30FC 1
 62
   179
420
  2234388
370
    25
100
AcDbVertex
100
AcDb2dVertex
 10
80.32308822856507
 20
-139.2514430207424
 30
0.0
  0
VERTEX
  5
5B
330
59
100
AcDbEntity
  8
_U+30EC_U+30A4_U+30E4_U+30FC 1
 62
   179
420
  2234388
370
    25
100
AcDbVertex
100
AcDb2dVertex
 10
72.322547043787
 20
-139.2514430207424
 30
0.0
  0
SEQEND
  5
5C
330
59
100
AcDbEntity
  8
_U+30EC_U+30A4_U+30E4_U+30FC 1
 62
   179
420
  2234388
370
    25
  0
POLYLINE
  5
5D
330
1F
100
AcDbEntity
  8
_U+30EC_U+30A4_U+30E4_U+30FC 1
 62
   179
420
  2234388
370
    25
100
AcDb2dPolyline
 66
     1
 10
0.0
 20
0.0
 30
0.0
  0
VERTEX
  5
5E
330
5D
100
AcDbEntity
  8
_U+30EC_U+30A4_U+30E4_U+30FC 1
 62
   179
420
  2234388
370
    25
100
AcDbVertex
100
AcDb2dVertex
 10
81.32286042528098
 20
-140.251215242715
 30
0.0
  0
VERTEX
  5
5F
330
5D
100
AcDbEntity
  8
_U+30EC_U+30A4_U+30E4_U+30FC 1
 62
   179
420
  2234388
370
    25
100
AcDbVertex
100
AcDb2dVertex
 10
81.32286042528098
 20
-137.2512282990206
 30
0.0
  0
SEQEND
  5
60
330
5D
100
AcDbEntity
  8
_U+30EC_U+30A4_U+30E4_U+30FC 1
 62
   179
420
  2234388
370
    25
  0
POLYLINE
  5
61
330
1F
100
AcDbEntity
  8
_U+30EC_U+30A4_U+30E4_U+30FC 1
 62
   179
420
  2234388
370
    25
100
AcDb2dPolyline
 66
     1
 10
0.0
 20
0.0
 30
0.0
  0
VERTEX
  5
62
330
61
100
AcDbEntity
  8
_U+30EC_U+30A4_U+30E4_U+30FC 1
 62
   179
420
  2234388
370
    25
100
AcDbVertex
100
AcDb2dVertex
 10
80.32308822856507
 20
-139.2514430207424
 30
0.0
  0
VERTEX
  5
63
330
61
100
AcDbEntity
  8
_U+30EC_U+30A4_U+30E4_U+30FC 1
 62
   179
420
  2234388
370
    25
100
AcDbVertex
100
AcDb2dVertex
 10
80.32308822856507
 20
-138.2516707987705
 30
0.0
  0
SEQEND
  5
64
330
61
100
AcDbEntity
  8
_U+30EC_U+30A4_U+30E4_U+30FC 1
 62
   179
420
  2234388
370
    25
  0
POLYLINE
  5
65
330
1F
100
AcDbEntity
  8
_U+30EC_U+30A4_U+30E4_U+30FC 1
 62
   179
420
  2234388
370
    25
100
AcDb2dPolyline
 66
     1
 10
0.0
 20
0.0
 30
0.0
  0
VERTEX
  5
66
330
65
100
AcDbEntity
  8
_U+30EC_U+30A4_U+30E4_U+30FC 1
 62
   179
420
  2234388
370
    25
100
AcDbVertex
100
AcDb2dVertex
 10
80.32308822856507
 20
-138.2516707987705
 30
0.0
  0
VERTEX
  5
67
330
65
100
AcDbEntity
  8
_U+30EC_U+30A4_U+30E4_U+30FC 1
 62
   179
420
  2234388
370
    25
100
AcDbVertex
100
AcDb2dVertex
 10
78.32287355737257
 20
-138.2516707987705
 30
0.0
  0
SEQEND
  5
68
330
65
100
AcDbEntity
  8
_U+30EC_U+30A4_U+30E4_U+30FC 1
 62
   179
420
  2234388
370
    25
  0
POLYLINE
  5
69
330
1F
100
AcDbEntity
  8
_U+30EC_U+30A4_U+30E4_U+30FC 1
 62
   179
420
  2234388
370
    25
100
AcDb2dPolyline
 66
     1
 10
0.0
 20
0.0
 30
0.0
  0
VERTEX
  5
6A
330
69
100
AcDbEntity
  8
_U+30EC_U+30A4_U+30E4_U+30FC 1
 62
   179
420
  2234388
370
    25
100
AcDbVertex
100
AcDb2dVertex
 10
78.32287355737257
 20
-138.2516707987705
 30
0.0
  0
VERTEX
  5
6B
330
69
100
AcDbEntity
  8
_U+30EC_U+30A4_U+30E4_U+30FC 1
 62
   179
420
  2234388
370
    25
100
AcDbVertex
100
AcDb2dVertex
 10
78.32287355737257
 20
-137.2512282990206
 30
0.0
  0
SEQEND
  5
6C
330
69
100
AcDbEntity
  8
_U+30EC_U+30A4_U+30E4_U+30FC 1
 62
   179
420
  2234388
370
    25
  0
POLYLINE
  5
6D
330
1F
100
AcDbEntity
  8
_U+30EC_U+30A4_U+30E4_U+30FC 1
 62
   179
420
  2234388
370
    25
100
AcDb2dPolyline
 66
     1
 10
0.0
 20
0.0
 30
0.0
  0
VERTEX
  5
6E
330
6D
100
AcDbEntity
  8
_U+30EC_U+30A4_U+30E4_U+30FC 1
 62
   179
420
  2234388
370
    25
100
AcDbVertex
100
AcDb2dVertex
 10
72.322547043787
 20
-123.2513833025204
 30
0.0
  0
VERTEX
  5
6F
330
6D
100
AcDbEntity
  8
_U+30EC_U+30A4_U+30E4_U+30FC 1
 62
   179
420
  2234388
370
    25
100
AcDbVertex
100
AcDb2dVertex
 10
72.322547043787
 20
-119.2509538590762
 30
0.0
  0
VERTEX
  5
70
330
6D
100
AcDbEntity
  8
_U+30EC_U+30A4_U+30E4_U+30FC 1
 62
   179
420
  2234388
370
    25
100
AcDbVertex
100
AcDb2dVertex
 10
71.32277484707109
 20
-119.2513066368539
 30
0.0
  0
VERTEX
  5
71
330
6D
100
AcDbEntity
  8
_U+30EC_U+30A4_U+30E4_U+30FC 1
 62
   179
420
  2234388
370
    25
100
AcDbVertex
100
AcDb2dVertex
 10
71.32277484707109
 20
-140.251215242715
 30
0.0
  0
SEQEND
  5
72
330
6D
100
AcDbEntity
  8
_U+30EC_U+30A4_U+30E4_U+30FC 1
 62
   179
420
  2234388
370
    25
  0
SPLINE
  5
73
330
1F
100
AcDbEntity
  8
_U+30EC_U+30A4_U+30E4_U+30FC 1
 62
   179
420
  2234388
370
     9
100
AcDbSpline
210
0.0
220
0.0
230
1.0
 70
    11
 71
     3
 72
    17
 73
    13
 74
     0
 42
0.0000000001
 43
0.0000000001
 12
1.0
 22
0.0
 32
0.0
 13
1.0
 23
0.0
 33
0.0
 40
0.0
 40
0.0
 40
0.0
 40
0.0
 40
1.0
 40
1.0
 40
1.0
 40
2.0
 40
2.0
 40
2.0
 40
3.0
 40
3.0
 40
3.0
 40
4.0
 40
4.0
 40
4.0
 40
4.0
 10
115.3231937245269
 20
-137.151321632379
 30
0.0
 10
115.37829761201
 20
-137.151321632379
 30
0.0
 10
115.4231003886447
 20
-137.1960891323675
 30
0.0
 10
115.4231003886447
 20
-137.2512282990206
 30
0.0
 10
115.4231003886447
 20
-137.3070377434511
 30
0.0
 10
115.37829761201
 20
-137.3511349656623
 30
0.0
 10
115.3231937245269
 20
-137.3511349656623
 30
0.0
 10
115.2673842815063
 20
-137.3511349656623
 30
0.0
 10
115.2225815048715
 20
-137.3070377434511
 30
0.0
 10
115.2225815048715
 20
-137.2512282990206
 30
0.0
 10
115.2225815048715
 20
-137.1960891323675
 30
0.0
 10
115.2673842815063
 20
-137.151321632379
 30
0.0
 10
115.3231937245269
 20
-137.151321632379
 30
0.0
  0
SPLINE
  5
74
330
1F
100
AcDbEntity
  8
_U+30EC_U+30A4_U+30E4_U+30FC 1
 62
   179
420
  2234388
370
     9
100
AcDbSpline
210
0.0
220
0.0
230
1.0
 70
    11
 71
     3
 72
    17
 73
    13
 74
     0
 42
0.0000000001
 43
0.0000000001
 12
1.0
 22
0.0
 32
0.0
 13
1.0
 23
0.0
 33
0.0
 40
0.0
 40
0.0
 40
0.0
 40
0.0
 40
1.0
 40
1.0
 40
1.0
 40
2.0
 40
2.0
 40
2.0
 40
3.0
 40
3.0
 40
3.0
 40
4.0
 40
4.0
 40
4.0
 40
4.0
 10
115.3231937245269
 20
-140.1513085760733
 30
0.0
 10
115.37829761201
 20
-140.1513085760733
 30
0.0
 10
115.4231003886447
 20
-140.1961113538401
 30
0.0
 10
115.4231003886447
 20
-140.251215242715
 30
0.0
 10
115.4231003886447
 20
-140.3070246871454
 30
0.0
 10
115.37829761201
 20
-140.3518274649121
 30
0.0
 10
115.3231937245269
 20
-140.3518274649121
 30
0.0
 10
115.2673842815063
 20
-140.3518274649121
 30
0.0
 10
115.2225815048715
 20
-140.3070246871454
 30
0.0
 10
115.2225815048715
 20
-140.251215242715
 30
0.0
 10
115.2225815048715
 20
-140.1961113538401
 30
0.0
 10
115.2673842815063
 20
-140.1513085760733
 30
0.0
 10
115.3231937245269
 20
-140.1513085760733
 30
0.0
  0
SPLINE
  5
75
330
1F
100
AcDbEntity
  8
_U+30EC_U+30A4_U+30E4_U+30FC 1
 62
   179
420
  2234388
370
     9
100
AcDbSpline
210
0.0
220
0.0
230
1.0
 70
    11
 71
     3
 72
    17
 73
    13
 74
     0
 42
0.0000000001
 43
0.0000000001
 12
1.0
 22
0.0
 32
0.0
 13
1.0
 23
0.0
 33
0.0
 40
0.0
 40
0.0
 40
0.0
 40
0.0
 40
1.0
 40
1.0
 40
1.0
 40
2.0
 40
2.0
 40
2.0
 40
3.0
 40
3.0
 40
3.0
 40
4.0
 40
4.0
 40
4.0
 40
4.0
 10
115.3231937245269
 20
-124.1519544134065
 30
0.0
 10
115.37829761201
 20
-124.1519544134065
 30
0.0
 10
115.4231003886447
 20
-124.1967219133954
 30
0.0
 10
115.4231003886447
 20
-124.2518610800482
 30
0.0
 10
115.4231003886447
 20
-124.3069649689234
 30
0.0
 10
115.37829761201
 20
-124.3517677466898
 30
0.0
 10
115.3231937245269
 20
-124.3517677466898
 30
0.0
 10
115.2673842815063
 20
-124.3517677466898
 30
0.0
 10
115.2225815048715
 20
-124.3069649689234
 30
0.0
 10
115.2225815048715
 20
-124.2518610800482
 30
0.0
 10
115.2225815048715
 20
-124.1967219133954
 30
0.0
 10
115.2673842815063
 20
-124.1519544134065
 30
0.0
 10
115.3231937245269
 20
-124.1519544134065
 30
0.0
  0
SPLINE
  5
76
330
1F
100
AcDbEntity
  8
_U+30EC_U+30A4_U+30E4_U+30FC 1
 62
   179
420
  2234388
370
     9
100
AcDbSpline
210
0.0
220
0.0
230
1.0
 70
    11
 71
     3
 72
    17
 73
    13
 74
     0
 42
0.0000000001
 43
0.0000000001
 12
1.0
 22
0.0
 32
0.0
 13
1.0
 23
0.0
 33
0.0
 40
0.0
 40
0.0
 40
0.0
 40
0.0
 40
1.0
 40
1.0
 40
1.0
 40
2.0
 40
2.0
 40
2.0
 40
3.0
 40
3.0
 40
3.0
 40
4.0
 40
4.0
 40
4.0
 40
4.0
 10
111.322729104365
 20
-115.1509352489899
 30
0.0
 10
111.377868269625
 20
-115.1509352489899
 30
0.0
 10
111.4226710462597
 20
-115.1957380267566
 30
0.0
 10
111.4226710462597
 20
-115.2508419156319
 30
0.0
 10
111.4226710462597
 20
-115.3059810822846
 30
0.0
 10
111.377868269625
 20
-115.3507485822735
 30
0.0
 10
111.322729104365
 20
-115.3507485822735
 30
0.0
 10
111.2676252168819
 20
-115.3507485822735
 30
0.0
 10
111.2228224402472
 20
-115.3059810822846
 30
0.0
 10
111.2228224402472
 20
-115.2508419156319
 30
0.0
 10
111.2228224402472
 20
-115.1957380267566
 30
0.0
 10
111.2676252168819
 20
-115.1509352489899
 30
0.0
 10
111.322729104365
 20
-115.1509352489899
 30
0.0
  0
SPLINE
  5
77
330
1F
100
AcDbEntity
  8
_U+30EC_U+30A4_U+30E4_U+30FC 1
 62
   179
420
  2234388
370
     9
100
AcDbSpline
210
0.0
220
0.0
230
1.0
 70
    11
 71
     3
 72
    17
 73
    13
 74
     0
 42
0.0000000001
 43
0.0000000001
 12
1.0
 22
0.0
 32
0.0
 13
1.0
 23
0.0
 33
0.0
 40
0.0
 40
0.0
 40
0.0
 40
0.0
 40
1.0
 40
1.0
 40
1.0
 40
2.0
 40
2.0
 40
2.0
 40
3.0
 40
3.0
 40
3.0
 40
4.0
 40
4.0
 40
4.0
 40
4.0
 10
71.32277484707109
 20
-115.1509352489899
 30
0.0
 10
71.37791401233103
 20
-115.1509352489899
 30
0.0
 10
71.42268331547753
 20
-115.1957380267566
 30
0.0
 10
71.42268331547753
 20
-115.2508419156319
 30
0.0
 10
71.42268331547753
 20
-115.3059810822846
 30
0.0
 10
71.37791401233103
 20
-115.3507485822735
 30
0.0
 10
71.32277484707109
 20
-115.3507485822735
 30
0.0
 10
71.26767095958802
 20
-115.3507485822735
 30
0.0
 10
71.22286818295325
 20
-115.3059810822846
 30
0.0
 10
71.22286818295325
 20
-115.2508419156319
 30
0.0
 10
71.22286818295325
 20
-115.1957380267566
 30
0.0
 10
71.26767095958802
 20
-115.1509352489899
 30
0.0
 10
71.32277484707109
 20
-115.1509352489899
 30
0.0
  0
SPLINE
  5
78
330
1F
100
AcDbEntity
  8
_U+30EC_U+30A4_U+30E4_U+30FC 1
 62
   179
420
  2234388
370
     9
100
AcDbSpline
210
0.0
220
0.0
230
1.0
 70
    11
 71
     3
 72
    17
 73
    13
 74
     0
 42
0.0000000001
 43
0.0000000001
 12
1.0
 22
0.0
 32
0.0
 13
1.0
 23
0.0
 33
0.0
 40
0.0
 40
0.0
 40
0.0
 40
0.0
 40
1.0
 40
1.0
 40
1.0
 40
2.0
 40
2.0
 40
2.0
 40
3.0
 40
3.0
 40
3.0
 40
4.0
 40
4.0
 40
4.0
 40
4.0
 10
67.32234720539165
 20
-119.1513999702123
 30
0.0
 10
67.37815494770673
 20
-119.1513999702123
 30
0.0
 10
67.42292244656461
 20
-119.1961674702009
 30
0.0
 10
67.42292244656461
 20
-119.2513066368539
 30
0.0
 10
67.42292244656461
 20
-119.3064105257289
 30
0.0
 10
67.37815494770673
 20
-119.3512133034956
 30
0.0
 10
67.32234720539165
 20
-119.3512133034956
 30
0.0
 10
67.26720633942615
 20
-119.3512133034956
 30
0.0
 10
67.22243884056826
 20
-119.3064105257289
 30
0.0
 10
67.22243884056826
 20
-119.2513066368539
 30
0.0
 10
67.22243884056826
 20
-119.1961674702009
 30
0.0
 10
67.26720633942615
 20
-119.1513999702123
 30
0.0
 10
67.32234720539165
 20
-119.1513999702123
 30
0.0
  0
SPLINE
  5
79
330
1F
100
AcDbEntity
  8
_U+30EC_U+30A4_U+30E4_U+30FC 1
 62
   179
420
  2234388
370
     9
100
AcDbSpline
210
0.0
220
0.0
230
1.0
 70
    11
 71
     3
 72
    17
 73
    13
 74
     0
 42
0.0000000001
 43
0.0000000001
 12
1.0
 22
0.0
 32
0.0
 13
1.0
 23
0.0
 33
0.0
 40
0.0
 40
0.0
 40
0.0
 40
0.0
 40
1.0
 40
1.0
 40
1.0
 40
2.0
 40
2.0
 40
2.0
 40
3.0
 40
3.0
 40
3.0
 40
4.0
 40
4.0
 40
4.0
 40
4.0
 10
67.32234720539165
 20
-140.1513085760733
 30
0.0
 10
67.37815494770673
 20
-140.1513085760733
 30
0.0
 10
67.42292244656461
 20
-140.1961113538401
 30
0.0
 10
67.42292244656461
 20
-140.251215242715
 30
0.0
 10
67.42292244656461
 20
-140.3070246871454
 30
0.0
 10
67.37815494770673
 20
-140.3518274649121
 30
0.0
 10
67.32234720539165
 20
-140.3518274649121
 30
0.0
 10
67.26720633942615
 20
-140.3518274649121
 30
0.0
 10
67.22243884056826
 20
-140.3070246871454
 30
0.0
 10
67.22243884056826
 20
-140.251215242715
 30
0.0
 10
67.22243884056826
 20
-140.1961113538401
 30
0.0
 10
67.26720633942615
 20
-140.1513085760733
 30
0.0
 10
67.32234720539165
 20
-140.1513085760733
 30
0.0
  0
SPLINE
  5
7A
330
1F
100
AcDbEntity
  8
_U+30EC_U+30A4_U+30E4_U+30FC 1
 62
   179
420
  2234388
370
     9
100
AcDbSpline
210
0.0
220
0.0
230
1.0
 70
    11
 71
     3
 72
    17
 73
    13
 74
     0
 42
0.0000000001
 43
0.0000000001
 12
1.0
 22
0.0
 32
0.0
 13
1.0
 23
0.0
 33
0.0
 40
0.0
 40
0.0
 40
0.0
 40
0.0
 40
1.0
 40
1.0
 40
1.0
 40
2.0
 40
2.0
 40
2.0
 40
3.0
 40
3.0
 40
3.0
 40
4.0
 40
4.0
 40
4.0
 40
4.0
 10
71.31003956961821
 20
-112.7317969162614
 30
0.0
 10
71.36584901263885
 20
-112.7317969162614
 30
0.0
 10
71.41061651149673
 20
-112.7765644162503
 30
0.0
 10
71.41061651149673
 20
-112.8317035829033
 30
0.0
 10
71.41061651149673
 20
-112.8875130273338
 30
0.0
 10
71.36584901263885
 20
-112.9322805273223
 30
0.0
 10
71.31003956961821
 20
-112.9322805273223
 30
0.0
 10
71.25490040435827
 20
-112.9322805273223
 30
0.0
 10
71.21013290550037
 20
-112.8875130273338
 30
0.0
 10
71.21013290550037
 20
-112.8317035829033
 30
0.0
 10
71.21013290550037
 20
-112.7765644162503
 30
0.0
 10
71.25490040435827
 20
-112.7317969162614
 30
0.0
 10
71.31003956961821
 20
-112.7317969162614
 30
0.0
  0
SPLINE
  5
7B
330
1F
100
AcDbEntity
  8
_U+30EC_U+30A4_U+30E4_U+30FC 1
 62
   179
420
  2234388
370
     9
100
AcDbSpline
210
0.0
220
0.0
230
1.0
 70
    11
 71
     3
 72
    17
 73
    13
 74
     0
 42
0.0000000001
 43
0.0000000001
 12
1.0
 22
0.0
 32
0.0
 13
1.0
 23
0.0
 33
0.0
 40
0.0
 40
0.0
 40
0.0
 40
0.0
 40
1.0
 40
1.0
 40
1.0
 40
2.0
 40
2.0
 40
2.0
 40
3.0
 40
3.0
 40
3.0
 40
4.0
 40
4.0
 40
4.0
 40
4.0
 10
72.48482481742472
 20
-112.6318902496198
 30
0.0
 10
72.5406360929761
 20
-112.6318902496198
 30
0.0
 10
72.58540175930324
 20
-112.6766577496086
 30
0.0
 10
72.58540175930324
 20
-112.7317969162614
 30
0.0
 10
72.58540175930324
 20
-112.7869008051366
 30
0.0
 10
72.5406360929761
 20
-112.8317035829033
 30
0.0
 10
72.48482481742472
 20
-112.8317035829033
 30
0.0
 10
72.42968565216478
 20
-112.8317035829033
 30
0.0
 10
72.38488287553001
 20
-112.7869008051366
 30
0.0
 10
72.38488287553001
 20
-112.7317969162614
 30
0.0
 10
72.38488287553001
 20
-112.6766577496086
 30
0.0
 10
72.42968565216478
 20
-112.6318902496198
 30
0.0
 10
72.48482481742472
 20
-112.6318902496198
 30
0.0
  0
SPLINE
  5
7C
330
1F
100
AcDbEntity
  8
_U+30EC_U+30A4_U+30E4_U+30FC 1
 62
   179
420
  2234388
370
     9
100
AcDbSpline
210
0.0
220
0.0
230
1.0
 70
    11
 71
     3
 72
    17
 73
    13
 74
     0
 42
0.0000000001
 43
0.0000000001
 12
1.0
 22
0.0
 32
0.0
 13
1.0
 23
0.0
 33
0.0
 40
0.0
 40
0.0
 40
0.0
 40
0.0
 40
1.0
 40
1.0
 40
1.0
 40
2.0
 40
2.0
 40
2.0
 40
3.0
 40
3.0
 40
3.0
 40
4.0
 40
4.0
 40
4.0
 40
4.0
 10
71.32277484707109
 20
-144.1517380195176
 30
0.0
 10
71.37791401233103
 20
-144.1517380195176
 30
0.0
 10
71.42268331547753
 20
-144.1965407972843
 30
0.0
 10
71.42268331547753
 20
-144.2516446861592
 30
0.0
 10
71.42268331547753
 20
-144.3067838528123
 30
0.0
 10
71.37791401233103
 20
-144.3515513528009
 30
0.0
 10
71.32277484707109
 20
-144.3515513528009
 30
0.0
 10
71.26767095958802
 20
-144.3515513528009
 30
0.0
 10
71.22286818295325
 20
-144.3067838528123
 30
0.0
 10
71.22286818295325
 20
-144.2516446861592
 30
0.0
 10
71.22286818295325
 20
-144.1965407972843
 30
0.0
 10
71.26767095958802
 20
-144.1517380195176
 30
0.0
 10
71.32277484707109
 20
-144.1517380195176
 30
0.0
  0
SPLINE
  5
7D
330
1F
100
AcDbEntity
  8
_U+30EC_U+30A4_U+30E4_U+30FC 1
 62
   179
420
  2234388
370
     9
100
AcDbSpline
210
0.0
220
0.0
230
1.0
 70
    11
 71
     3
 72
    17
 73
    13
 74
     0
 42
0.0000000001
 43
0.0000000001
 12
1.0
 22
0.0
 32
0.0
 13
1.0
 23
0.0
 33
0.0
 40
0.0
 40
0.0
 40
0.0
 40
0.0
 40
1.0
 40
1.0
 40
1.0
 40
2.0
 40
2.0
 40
2.0
 40
3.0
 40
3.0
 40
3.0
 40
4.0
 40
4.0
 40
4.0
 40
4.0
 10
81.32286042528098
 20
-144.1517380195176
 30
0.0
 10
81.37796431276405
 20
-144.1517380195176
 30
0.0
 10
81.42276708939882
 20
-144.1965407972843
 30
0.0
 10
81.42276708939882
 20
-144.2516446861592
 30
0.0
 10
81.42276708939882
 20
-144.3067838528123
 30
0.0
 10
81.37796431276405
 20
-144.3515513528009
 30
0.0
 10
81.32286042528098
 20
-144.3515513528009
 30
0.0
 10
81.26705098226036
 20
-144.3515513528009
 30
0.0
 10
81.22295376116315
 20
-144.3067838528123
 30
0.0
 10
81.22295376116315
 20
-144.2516446861592
 30
0.0
 10
81.22295376116315
 20
-144.1965407972843
 30
0.0
 10
81.26705098226036
 20
-144.1517380195176
 30
0.0
 10
81.32286042528098
 20
-144.1517380195176
 30
0.0
  0
POLYLINE
  5
7E
330
1F
100
AcDbEntity
  8
_U+30EC_U+30A4_U+30E4_U+30FC 1
 62
   179
420
  2234388
370
     9
100
AcDb2dPolyline
 66
     1
 10
0.0
 20
0.0
 30
0.0
  0
VERTEX
  5
7F
330
7E
100
AcDbEntity
  8
_U+30EC_U+30A4_U+30E4_U+30FC 1
 62
   179
420
  2234388
370
     9
100
AcDbVertex
100
AcDb2dVertex
 10
113.8631523728867
 20
-124.2518610800482
 30
0.0
  0
VERTEX
  5
80
330
7E
100
AcDbEntity
  8
_U+30EC_U+30A4_U+30E4_U+30FC 1
 62
   179
420
  2234388
370
     9
100
AcDbVertex
100
AcDb2dVertex
 10
116.3229659212428
 20
-124.2518610800482
 30
0.0
  0
SEQEND
  5
81
330
7E
100
AcDbEntity
  8
_U+30EC_U+30A4_U+30E4_U+30FC 1
 62
   179
420
  2234388
370
     9
  0
POLYLINE
  5
82
330
1F
100
AcDbEntity
  8
_U+30EC_U+30A4_U+30E4_U+30FC 1
 62
   179
420
  2234388
370
     9
100
AcDb2dPolyline
 66
     1
 10
0.0
 20
0.0
 30
0.0
  0
VERTEX
  5
83
330
82
100
AcDbEntity
  8
_U+30EC_U+30A4_U+30E4_U+30FC 1
 62
   179
420
  2234388
370
     9
100
AcDbVertex
100
AcDb2dVertex
 10
115.3231937245269
 20
-140.251215242715
 30
0.0
  0
VERTEX
  5
84
330
82
100
AcDbEntity
  8
_U+30EC_U+30A4_U+30E4_U+30FC 1
 62
   179
420
  2234388
370
     9
100
AcDbVertex
100
AcDb2dVertex
 10
115.3231937245269
 20
-137.2512282990206
 30
0.0
  0
SEQEND
  5
85
330
82
100
AcDbEntity
  8
_U+30EC_U+30A4_U+30E4_U+30FC 1
 62
   179
420
  2234388
370
     9
  0
POLYLINE
  5
86
330
1F
100
AcDbEntity
  8
_U+30EC_U+30A4_U+30E4_U+30FC 1
 62
   179
420
  2234388
370
     9
100
AcDb2dPolyline
 66
     1
 10
0.0
 20
0.0
 30
0.0
  0
VERTEX
  5
87
330
86
100
AcDbEntity
  8
_U+30EC_U+30A4_U+30E4_U+30FC 1
 62
   179
420
  2234388
370
     9
100
AcDbVertex
100
AcDb2dVertex
 10
83.86257813826516
 20
-140.251215242715
 30
0.0
  0
VERTEX
  5
88
330
86
100
AcDbEntity
  8
_U+30EC_U+30A4_U+30E4_U+30FC 1
 62
   179
420
  2234388
370
     9
100
AcDbVertex
100
AcDb2dVertex
 10
116.3229659212428
 20
-140.251215242715
 30
0.0
  0
SEQEND
  5
89
330
86
100
AcDbEntity
  8
_U+30EC_U+30A4_U+30E4_U+30FC 1
 62
   179
420
  2234388
370
     9
  0
POLYLINE
  5
8A
330
1F
100
AcDbEntity
  8
_U+30EC_U+30A4_U+30E4_U+30FC 1
 62
   179
420
  2234388
370
     9
100
AcDb2dPolyline
 66
     1
 10
0.0
 20
0.0
 30
0.0
  0
VERTEX
  5
8B
330
8A
100
AcDbEntity
  8
_U+30EC_U+30A4_U+30E4_U+30FC 1
 62
   179
420
  2234388
370
     9
100
AcDbVertex
100
AcDb2dVertex
 10
81.32286042528098
 20
-144.2516446861592
 30
0.0
  0
VERTEX
  5
8C
330
8A
100
AcDbEntity
  8
_U+30EC_U+30A4_U+30E4_U+30FC 1
 62
   179
420
  2234388
370
     9
100
AcDbVertex
100
AcDb2dVertex
 10
71.32277484707109
 20
-144.2516446861592
 30
0.0
  0
SEQEND
  5
8D
330
8A
100
AcDbEntity
  8
_U+30EC_U+30A4_U+30E4_U+30FC 1
 62
   179
420
  2234388
370
     9
  0
POLYLINE
  5
8E
330
1F
100
AcDbEntity
  8
_U+30EC_U+30A4_U+30E4_U+30FC 1
 62
   179
420
  2234388
370
     9
100
AcDb2dPolyline
 66
     1
 10
0.0
 20
0.0
 30
0.0
  0
VERTEX
  5
8F
330
8E
100
AcDbEntity
  8
_U+30EC_U+30A4_U+30E4_U+30FC 1
 62
   179
420
  2234388
370
     9
100
AcDbVertex
100
AcDb2dVertex
 10
81.32286042528098
 20
-142.791638575413
 30
0.0
  0
VERTEX
  5
90
330
8E
100
AcDbEntity
  8
_U+30EC_U+30A4_U+30E4_U+30FC 1
 62
   179
420
  2234388
370
     9
100
AcDbVertex
100
AcDb2dVertex
 10
81.32286042528098
 20
-145.2514169081318
 30
0.0
  0
SEQEND
  5
91
330
8E
100
AcDbEntity
  8
_U+30EC_U+30A4_U+30E4_U+30FC 1
 62
   179
420
  2234388
370
     9
  0
POLYLINE
  5
92
330
1F
100
AcDbEntity
  8
_U+30EC_U+30A4_U+30E4_U+30FC 1
 62
   179
420
  2234388
370
     9
100
AcDb2dPolyline
 66
     1
 10
0.0
 20
0.0
 30
0.0
  0
VERTEX
  5
93
330
92
100
AcDbEntity
  8
_U+30EC_U+30A4_U+30E4_U+30FC 1
 62
   179
420
  2234388
370
     9
100
AcDbVertex
100
AcDb2dVertex
 10
71.32277484707109
 20
-142.791638575413
 30
0.0
  0
VERTEX
  5
94
330
92
100
AcDbEntity
  8
_U+30EC_U+30A4_U+30E4_U+30FC 1
 62
   179
420
  2234388
370
     9
100
AcDbVertex
100
AcDb2dVertex
 10
71.32277484707109
 20
-145.2514169081318
 30
0.0
  0
SEQEND
  5
95
330
92
100
AcDbEntity
  8
_U+30EC_U+30A4_U+30E4_U+30FC 1
 62
   179
420
  2234388
370
     9
  0
POLYLINE
  5
96
330
1F
100
AcDbEntity
  8
_U+30EC_U+30A4_U+30E4_U+30FC 1
 62
   179
420
  2234388
370
     9
100
AcDb2dPolyline
 66
     1
 10
0.0
 20
0.0
 30
0.0
  0
VERTEX
  5
97
330
96
100
AcDbEntity
  8
_U+30EC_U+30A4_U+30E4_U+30FC 1
 62
   179
420
  2234388
370
     9
100
AcDbVertex
100
AcDb2dVertex
 10
71.32277484707109
 20
-115.2508419156319
 30
0.0
  0
VERTEX
  5
98
330
96
100
AcDbEntity
  8
_U+30EC_U+30A4_U+30E4_U+30FC 1
 62
   179
420
  2234388
370
     9
100
AcDbVertex
100
AcDb2dVertex
 10
111.322729104365
 20
-115.2508419156319
 30
0.0
  0
SEQEND
  5
99
330
96
100
AcDbEntity
  8
_U+30EC_U+30A4_U+30E4_U+30FC 1
 62
   179
420
  2234388
370
     9
  0
POLYLINE
  5
9A
330
1F
100
AcDbEntity
  8
_U+30EC_U+30A4_U+30E4_U+30FC 1
 62
   179
420
  2234388
370
     9
100
AcDb2dPolyline
 66
     1
 10
0.0
 20
0.0
 30
0.0
  0
VERTEX
  5
9B
330
9A
100
AcDbEntity
  8
_U+30EC_U+30A4_U+30E4_U+30FC 1
 62
   179
420
  2234388
370
     9
100
AcDbVertex
100
AcDb2dVertex
 10
71.32277484707109
 20
-116.7112360819333
 30
0.0
  0
VERTEX
  5
9C
330
9A
100
AcDbEntity
  8
_U+30EC_U+30A4_U+30E4_U+30FC 1
 62
   179
420
  2234388
370
     9
100
AcDbVertex
100
AcDb2dVertex
 10
71.32277484707109
 20
-114.2503994158819
 30
0.0
  0
SEQEND
  5
9D
330
9A
100
AcDbEntity
  8
_U+30EC_U+30A4_U+30E4_U+30FC 1
 62
   179
420
  2234388
370
     9
  0
POLYLINE
  5
9E
330
1F
100
AcDbEntity
  8
_U+30EC_U+30A4_U+30E4_U+30FC 1
 62
   179
420
  2234388
370
     9
100
AcDb2dPolyline
 66
     1
 10
0.0
 20
0.0
 30
0.0
  0
VERTEX
  5
9F
330
9E
100
AcDbEntity
  8
_U+30EC_U+30A4_U+30E4_U+30FC 1
 62
   179
420
  2234388
370
     9
100
AcDbVertex
100
AcDb2dVertex
 10
111.322729104365
 20
-121.7114377473498
 30
0.0
  0
VERTEX
  5
A0
330
9E
100
AcDbEntity
  8
_U+30EC_U+30A4_U+30E4_U+30FC 1
 62
   179
420
  2234388
370
     9
100
AcDbVertex
100
AcDb2dVertex
 10
111.322729104365
 20
-114.2503994158819
 30
0.0
  0
SEQEND
  5
A1
330
9E
100
AcDbEntity
  8
_U+30EC_U+30A4_U+30E4_U+30FC 1
 62
   179
420
  2234388
370
     9
  0
POLYLINE
  5
A2
330
1F
100
AcDbEntity
  8
_U+30EC_U+30A4_U+30E4_U+30FC 1
 62
   179
420
  2234388
370
     9
100
AcDb2dPolyline
 66
     1
 10
0.0
 20
0.0
 30
0.0
  0
VERTEX
  5
A3
330
A2
100
AcDbEntity
  8
_U+30EC_U+30A4_U+30E4_U+30FC 1
 62
   179
420
  2234388
370
     9
100
AcDbVertex
100
AcDb2dVertex
 10
115.3231937245269
 20
-137.2512282990206
 30
0.0
  0
VERTEX
  5
A4
330
A2
100
AcDbEntity
  8
_U+30EC_U+30A4_U+30E4_U+30FC 1
 62
   179
420
  2234388
370
     9
100
AcDbVertex
100
AcDb2dVertex
 10
115.3231937245269
 20
-124.2518610800482
 30
0.0
  0
SEQEND
  5
A5
330
A2
100
AcDbEntity
  8
_U+30EC_U+30A4_U+30E4_U+30FC 1
 62
   179
420
  2234388
370
     9
  0
POLYLINE
  5
A6
330
1F
100
AcDbEntity
  8
_U+30EC_U+30A4_U+30E4_U+30FC 1
 62
   179
420
  2234388
370
     9
100
AcDb2dPolyline
 66
     1
 10
0.0
 20
0.0
 30
0.0
  0
VERTEX
  5
A7
330
A6
100
AcDbEntity
  8
_U+30EC_U+30A4_U+30E4_U+30FC 1
 62
   179
420
  2234388
370
     9
100
AcDbVertex
100
AcDb2dVertex
 10
83.86257813826516
 20
-137.2512282990206
 30
0.0
  0
VERTEX
  5
A8
330
A6
100
AcDbEntity
  8
_U+30EC_U+30A4_U+30E4_U+30FC 1
 62
   179
420
  2234388
370
     9
100
AcDbVertex
100
AcDb2dVertex
 10
116.3229659212428
 20
-137.2512282990206
 30
0.0
  0
SEQEND
  5
A9
330
A6
100
AcDbEntity
  8
_U+30EC_U+30A4_U+30E4_U+30FC 1
 62
   179
420
  2234388
370
     9
  0
POLYLINE
  5
AA
330
1F
100
AcDbEntity
  8
_U+30EC_U+30A4_U+30E4_U+30FC 1
 62
   179
420
  2234388
370
     9
100
AcDb2dPolyline
 66
     1
 10
0.0
 20
0.0
 30
0.0
  0
VERTEX
  5
AB
330
AA
100
AcDbEntity
  8
_U+30EC_U+30A4_U+30E4_U+30FC 1
 62
   179
420
  2234388
370
     9
100
AcDbVertex
100
AcDb2dVertex
 10
67.32234720539165
 20
-140.251215242715
 30
0.0
  0
VERTEX
  5
AC
330
AA
100
AcDbEntity
  8
_U+30EC_U+30A4_U+30E4_U+30FC 1
 62
   179
420
  2234388
370
     9
100
AcDbVertex
100
AcDb2dVertex
 10
67.32234720539165
 20
-119.2513066368539
 30
0.0
  0
SEQEND
  5
AD
330
AA
100
AcDbEntity
  8
_U+30EC_U+30A4_U+30E4_U+30FC 1
 62
   179
420
  2234388
370
     9
  0
POLYLINE
  5
AE
330
1F
100
AcDbEntity
  8
_U+30EC_U+30A4_U+30E4_U+30FC 1
 62
   179
420
  2234388
370
     9
100
AcDb2dPolyline
 66
     1
 10
0.0
 20
0.0
 30
0.0
  0
VERTEX
  5
AF
330
AE
100
AcDbEntity
  8
_U+30EC_U+30A4_U+30E4_U+30FC 1
 62
   179
420
  2234388
370
     9
100
AcDbVertex
100
AcDb2dVertex
 10
68.78235157854935
 20
-140.251215242715
 30
0.0
  0
VERTEX
  5
B0
330
AE
100
AcDbEntity
  8
_U+30EC_U+30A4_U+30E4_U+30FC 1
 62
   179
420
  2234388
370
     9
100
AcDbVertex
100
AcDb2dVertex
 10
66.32257498341943
 20
-140.251215242715
 30
0.0
  0
SEQEND
  5
B1
330
AE
100
AcDbEntity
  8
_U+30EC_U+30A4_U+30E4_U+30FC 1
 62
   179
420
  2234388
370
     9
  0
POLYLINE
  5
B2
330
1F
100
AcDbEntity
  8
_U+30EC_U+30A4_U+30E4_U+30FC 1
 62
   179
420
  2234388
370
     9
100
AcDb2dPolyline
 66
     1
 10
0.0
 20
0.0
 30
0.0
  0
VERTEX
  5
B3
330
B2
100
AcDbEntity
  8
_U+30EC_U+30A4_U+30E4_U+30FC 1
 62
   179
420
  2234388
370
     9
100
AcDbVertex
100
AcDb2dVertex
 10
68.78235157854935
 20
-119.2513066368539
 30
0.0
  0
VERTEX
  5
B4
330
B2
100
AcDbEntity
  8
_U+30EC_U+30A4_U+30E4_U+30FC 1
 62
   179
420
  2234388
370
     9
100
AcDbVertex
100
AcDb2dVertex
 10
66.32257498341943
 20
-119.2513066368539
 30
0.0
  0
SEQEND
  5
B5
330
B2
100
AcDbEntity
  8
_U+30EC_U+30A4_U+30E4_U+30FC 1
 62
   179
420
  2234388
370
     9
  0
POLYLINE
  5
B6
330
1F
100
AcDbEntity
  8
_U+30EC_U+30A4_U+30E4_U+30FC 1
 62
   179
420
  2234388
370
     9
100
AcDb2dPolyline
 66
     1
 10
0.0
 20
0.0
 30
0.0
  0
VERTEX
  5
B7
330
B6
100
AcDbEntity
  8
_U+30EC_U+30A4_U+30E4_U+30FC 1
 62
   179
420
  2234388
370
     9
100
AcDbVertex
100
AcDb2dVertex
 10
72.3966303752303
 20
-113.4377052494183
 30
0.0
  0
VERTEX
  5
B8
330
B6
100
AcDbEntity
  8
_U+30EC_U+30A4_U+30E4_U+30FC 1
 62
   179
420
  2234388
370
     9
100
AcDbVertex
100
AcDb2dVertex
 10
72.3966303752303
 20
-112.0262413608822
 30
0.0
  0
SEQEND
  5
B9
330
B6
100
AcDbEntity
  8
_U+30EC_U+30A4_U+30E4_U+30FC 1
 62
   179
420
  2234388
370
     9
  0
POLYLINE
  5
BA
330
1F
100
AcDbEntity
  8
_U+30EC_U+30A4_U+30E4_U+30FC 1
 62
   179
420
  2234388
370
     9
100
AcDb2dPolyline
 66
     1
 10
0.0
 20
0.0
 30
0.0
  0
VERTEX
  5
BB
330
BA
100
AcDbEntity
  8
_U+30EC_U+30A4_U+30E4_U+30FC 1
 62
   179
420
  2234388
370
     9
100
AcDbVertex
100
AcDb2dVertex
 10
71.39823401181263
 20
-113.4377052494183
 30
0.0
  0
VERTEX
  5
BC
330
BA
100
AcDbEntity
  8
_U+30EC_U+30A4_U+30E4_U+30FC 1
 62
   179
420
  2234388
370
     9
100
AcDbVertex
100
AcDb2dVertex
 10
71.39823401181263
 20
-112.0262413608822
 30
0.0
  0
SEQEND
  5
BD
330
BA
100
AcDbEntity
  8
_U+30EC_U+30A4_U+30E4_U+30FC 1
 62
   179
420
  2234388
370
     9
  0
POLYLINE
  5
BE
330
1F
100
AcDbEntity
  8
_U+30EC_U+30A4_U+30E4_U+30FC 1
 62
   179
420
  2234388
370
     9
100
AcDb2dPolyline
 66
     1
 10
0.0
 20
0.0
 30
0.0
  0
VERTEX
  5
BF
330
BE
100
AcDbEntity
  8
_U+30EC_U+30A4_U+30E4_U+30FC 1
 62
   179
420
  2234388
370
     9
100
AcDbVertex
100
AcDb2dVertex
 10
70.13663015510994
 20
-112.7317969162614
 30
0.0
  0
VERTEX
  5
C0
330
BE
100
AcDbEntity
  8
_U+30EC_U+30A4_U+30E4_U+30FC 1
 62
   179
420
  2234388
370
     9
100
AcDbVertex
100
AcDb2dVertex
 10
73.50523451361413
 20
-112.7317969162614
 30
0.0
  0
SEQEND
  5
C1
330
BE
100
AcDbEntity
  8
_U+30EC_U+30A4_U+30E4_U+30FC 1
 62
   179
420
  2234388
370
     9
  0
INSERT
  5
C3
330
1F
100
AcDbEntity
  8
_U+30EC_U+30A4_U+30E4_U+30FC 1
100
AcDbBlockReference
  2
block 2
 10
0.0
 20
0.0
 30
0.0
  0
INSERT
  5
C9
330
1F
100
AcDbEntity
  8
_U+30EC_U+30A4_U+30E4_U+30FC 1
100
AcDbBlockReference
  2
block 3
 10
0.0
 20
0.0
 30
0.0
  0
INSERT
  5
D2
330
1F
100
AcDbEntity
  8
_U+30EC_U+30A4_U+30E4_U+30FC 1
100
AcDbBlockReference
  2
block 4
 10
0.0
 20
0.0
 30
0.0
  0
INSERT
  5
EE
330
1F
100
AcDbEntity
  8
_U+30EC_U+30A4_U+30E4_U+30FC 1
100
AcDbBlockReference
  2
block 5
 10
0.0
 20
0.0
 30
0.0
  0
INSERT
  5
F4
330
1F
100
AcDbEntity
  8
_U+30EC_U+30A4_U+30E4_U+30FC 1
100
AcDbBlockReference
  2
block 6
 10
0.0
 20
0.0
 30
0.0
  0
INSERT
  5
FC
330
1F
100
AcDbEntity
  8
_U+30EC_U+30A4_U+30E4_U+30FC 1
100
AcDbBlockReference
  2
block 7
 10
0.0
 20
0.0
 30
0.0
  0
ENDSEC
  0
SECTION
  2
OBJECTS
  0
DICTIONARY
  5
C
330
0
100
AcDbDictionary
281
     1
  3
ACAD_GROUP
350
D
  3
ACAD_LAYOUT
350
1A
  3
ACAD_MATERIAL
350
3B
  3
ACAD_MLEADERSTYLE
350
104
  3
ACAD_MLINESTYLE
350
17
  3
ACAD_PLOTSETTINGS
350
19
  3
ACAD_PLOTSTYLENAME
350
E
  3
ACAD_TABLESTYLE
350
103
  3
ACAD_VISUALSTYLE
350
2A
  0
SUN
  5
3F
330
29
100
AcDbSun
 90
        1
290
     0
 63
     7
421
 16777215
 40
1.0
291
     1
 91
  2455826
 92
 54000000
292
     0
 70
     2
 71
   256
280
     1
  0
DICTIONARY
  5
D
102
{ACAD_REACTORS
330
C
102
}
330
C
100
AcDbDictionary
281
     1
  0
DICTIONARY
  5
1A
102
{ACAD_REACTORS
330
C
102
}
330
C
100
AcDbDictionary
281
     1
  3
Layout1
350
1E
  3
Layout2
350
26
  3
Model
350
22
  0
DICTIONARY
  5
3B
102
{ACAD_REACTORS
330
C
102
}
330
C
100
AcDbDictionary
281
     1
  3
ByBlock
350
3D
  3
ByLayer
350
3C
  3
Global
350
3E
  0
DICTIONARY
  5
104
102
{ACAD_REACTORS
330
C
102
}
330
C
100
AcDbDictionary
281
     1
  0
DICTIONARY
  5
17
102
{ACAD_REACTORS
330
C
102
}
330
C
100
AcDbDictionary
281
     1
  3
Standard
350
18
  0
DICTIONARY
  5
19
102
{ACAD_REACTORS
330
C
102
}
330
C
100
AcDbDictionary
281
     1
  0
ACDBDICTIONARYWDFLT
  5
E
102
{ACAD_REACTORS
330
C
102
}
330
C
100
AcDbDictionary
281
     1
  3
Normal
350
F
100
AcDbDictionaryWithDefault
340
F
  0
DICTIONARY
  5
103
102
{ACAD_REACTORS
330
C
102
}
330
C
100
AcDbDictionary
281
     1
  0
DICTIONARY
  5
2A
102
{ACAD_REACTORS
330
C
102
}
330
C
100
AcDbDictionary
281
     1
  3
2dWireframe
350
2F
  3
3D Hidden
350
31
  3
3dWireframe
350
30
  3
Basic
350
32
  3
Brighten
350
36
  3
ColorChange
350
3A
  3
Conceptual
350
34
  3
Dim
350
35
  3
Facepattern
350
39
  3
Flat
350
2B
  3
FlatWithEdges
350
2C
  3
Gouraud
350
2D
  3
GouraudWithEdges
350
2E
  3
Linepattern
350
38
  3
Realistic
350
33
  3
Thicken
350
37
  0
LAYOUT
  5
1E
102
{ACAD_REACTORS
330
1A
102
}
330
1A
100
AcDbPlotSettings
  1

  2
none_device
  4

  6

 40
0.0
 41
0.0
 42
0.0
 43
0.0
 44
0.0
 45
0.0
 46
0.0
 47
0.0
 48
0.0
 49
0.0
140
0.0
141
0.0
142
1.0
143
1.0
 70
   688
 72
     0
 73
     0
 74
     5
  7

 75
    16
 76
     0
 77
     2
 78
   300
147
1.0
148
0.0
149
0.0
100
AcDbLayout
  1
Layout1
 70
     1
 71
     1
 10
0.0
 20
0.0
 11
12.0
 21
9.0
 12
0.0
 22
0.0
 32
0.0
 14
1.000000000000000E+20
 24
1.000000000000000E+20
 34
1.000000000000000E+20
 15
-1.000000000000000E+20
 25
-1.000000000000000E+20
 35
-1.000000000000000E+20
146
0.0
 13
0.0
 23
0.0
 33
0.0
 16
1.0
 26
0.0
 36
0.0
 17
0.0
 27
1.0
 37
0.0
 76
     0
330
1B
  0
LAYOUT
  5
26
102
{ACAD_REACTORS
330
1A
102
}
330
1A
100
AcDbPlotSettings
  1

  2
none_device
  4

  6

 40
0.0
 41
0.0
 42
0.0
 43
0.0
 44
0.0
 45
0.0
 46
0.0
 47
0.0
 48
0.0
 49
0.0
140
0.0
141
0.0
142
1.0
143
1.0
 70
   688
 72
     0
 73
     0
 74
     5
  7

 75
    16
 76
     0
 77
     2
 78
   300
147
1.0
148
0.0
149
0.0
100
AcDbLayout
  1
Layout2
 70
     1
 71
     2
 10
0.0
 20
0.0
 11
0.0
 21
0.0
 12
0.0
 22
0.0
 32
0.0
 14
0.0
 24
0.0
 34
0.0
 15
0.0
 25
0.0
 35
0.0
146
0.0
 13
0.0
 23
0.0
 33
0.0
 16
1.0
 26
0.0
 36
0.0
 17
0.0
 27
1.0
 37
0.0
 76
     0
330
23
  0
LAYOUT
  5
22
102
{ACAD_REACTORS
330
1A
102
}
330
1A
100
AcDbPlotSettings
  1

  2
none_device
  4

  6

 40
0.0
 41
0.0
 42
0.0
 43
0.0
 44
0.0
 45
0.0
 46
0.0
 47
0.0
 48
0.0
 49
0.0
140
0.0
141
0.0
142
1.0
143
1.0
 70
  1712
 72
     0
 73
     0
 74
     0
  7

 75
     0
 76
     0
 77
     2
 78
   300
147
1.0
148
0.0
149
0.0
100
AcDbLayout
  1
Model
 70
     1
 71
     0
 10
0.0
 20
0.0
 11
12.0
 21
9.0
 12
0.0
 22
0.0
 32
0.0
 14
1.000000000000000E+20
 24
1.000000000000000E+20
 34
1.000000000000000E+20
 15
-1.000000000000000E+20
 25
-1.000000000000000E+20
 35
-1.000000000000000E+20
146
0.0
 13
0.0
 23
0.0
 33
0.0
 16
1.0
 26
0.0
 36
0.0
 17
0.0
 27
1.0
 37
0.0
 76
     0
330
1F
331
29
  0
MATERIAL
  5
3D
102
{ACAD_REACTORS
330
3B
102
}
330
3B
100
AcDbMaterial
  1
ByBlock
 72
     1
 94
      127
  0
MATERIAL
  5
3C
102
{ACAD_REACTORS
330
3B
102
}
330
3B
100
AcDbMaterial
  1
ByLayer
 72
     1
 94
      127
  0
MATERIAL
  5
3E
102
{ACAD_REACTORS
330
3B
102
}
330
3B
100
AcDbMaterial
  1
Global
 72
     1
 94
      127
  0
MLINESTYLE
  5
18
102
{ACAD_REACTORS
330
17
102
}
330
17
100
AcDbMlineStyle
  2
Standard
 70
     0
  3

 62
   256
 51
90.0
 52
90.0
 71
     2
 49
0.5
 62
   256
  6
BYLAYER
 49
-0.5
 62
   256
  6
BYLAYER
  0
ACDBPLACEHOLDER
  5
F
102
{ACAD_REACTORS
330
E
102
}
330
E
  0
VISUALSTYLE
  5
2F
102
{ACAD_REACTORS
330
2A
102
}
330
2A
100
AcDbVisualStyle
  2
2dWireframe
 70
     4
177
     2
291
     0
 71
     0
176
     1
 72
     2
176
     1
 73
     0
176
     1
 90
        0
176
     1
 40
-0.6
176
     1
 41
-30.0
176
     1
 62
     5
 63
     7
421
 16777215
176
     1
 74
     1
176
     1
 91
        4
176
     1
 64
     7
176
     1
 65
   257
176
     1
 75
     1
176
     1
175
     1
176
     1
 42
1.0
176
     1
 92
        0
176
     1
 66
   257
176
     1
 43
1.0
176
     1
 76
     1
176
     1
 77
     6
176
     1
 78
     2
176
     1
 67
     7
176
     1
 79
     5
176
     1
170
     0
176
     1
171
     0
176
     1
290
     0
176
     1
 93
        1
176
     1
 44
0.0
176
     1
173
     0
176
     1
  0
VISUALSTYLE
  5
31
102
{ACAD_REACTORS
330
2A
102
}
330
2A
100
AcDbVisualStyle
  2
3D Hidden
 70
     6
177
     2
291
     0
 71
     1
176
     1
 72
     2
176
     1
 73
     2
176
     1
 90
        0
176
     1
 40
-0.6
176
     1
 41
-30.0
176
     1
 62
     5
 63
     7
421
 16777215
176
     1
 74
     2
176
     1
 91
        2
176
     1
 64
     7
176
     1
 65
   257
176
     1
 75
     2
176
     1
175
     1
176
     1
 42
40.0
176
     1
 92
        0
176
     1
 66
   257
176
     1
 43
1.0
176
     1
 76
     1
176
     1
 77
     6
176
     1
 78
     2
176
     1
 67
     7
176
     1
 79
     3
176
     1
170
     0
176
     1
171
     0
176
     1
290
     0
176
     1
 93
        1
176
     1
 44
0.0
176
     1
173
     0
176
     1
  0
VISUALSTYLE
  5
30
102
{ACAD_REACTORS
330
2A
102
}
330
2A
100
AcDbVisualStyle
  2
3dWireframe
 70
     5
177
     2
291
     0
 71
     0
176
     1
 72
     2
176
     1
 73
     0
176
     1
 90
        0
176
     1
 40
-0.6
176
     1
 41
-30.0
176
     1
 62
     5
 63
     7
421
 16777215
176
     1
 74
     1
176
     1
 91
        4
176
     1
 64
     7
176
     1
 65
   257
176
     1
 75
     1
176
     1
175
     1
176
     1
 42
1.0
176
     1
 92
        0
176
     1
 66
   257
176
     1
 43
1.0
176
     1
 76
     1
176
     1
 77
     6
176
     1
 78
     2
176
     1
 67
     7
176
     1
 79
     5
176
     1
170
     0
176
     1
171
     0
176
     1
290
     0
176
     1
 93
        1
176
     1
 44
0.0
176
     1
173
     0
176
     1
  0
VISUALSTYLE
  5
32
102
{ACAD_REACTORS
330
2A
102
}
330
2A
100
AcDbVisualStyle
  2
Basic
 70
     7
177
     2
291
     1
 71
     1
176
     1
 72
     0
176
     1
 73
     1
176
     1
 90
        0
176
     1
 40
-0.6
176
     1
 41
-30.0
176
     1
 62
     5
 63
     7
421
 16777215
176
     1
 74
     0
176
     1
 91
        4
176
     1
 64
     7
176
     1
 65
   257
176
     1
 75
     1
176
     1
175
     1
176
     1
 42
1.0
176
     1
 92
        8
176
     1
 66
     7
176
     1
 43
1.0
176
     1
 76
     1
176
     1
 77
     6
176
     1
 78
     2
176
     1
 67
     7
176
     1
 79
     5
176
     1
170
     0
176
     1
171
     0
176
     1
290
     0
176
     1
 93
        1
176
     1
 44
0.0
176
     1
173
     0
176
     1
  0
VISUALSTYLE
  5
36
102
{ACAD_REACTORS
330
2A
102
}
330
2A
100
AcDbVisualStyle
  2
Brighten
 70
    12
177
     2
291
     1
 71
     2
176
     1
 72
     2
176
     1
 73
     0
176
     1
 90
        0
176
     1
 40
-0.6
176
     1
 41
-30.0
176
     1
 62
     5
 63
     7
421
 16777215
176
     1
 74
     1
176
     1
 91
        4
176
     1
 64
     7
176
     1
 65
   257
176
     1
 75
     1
176
     1
175
     1
176
     1
 42
1.0
176
     1
 92
        8
176
     1
 66
     7
176
     1
 43
1.0
176
     1
 76
     1
176
     1
 77
     6
176
     1
 78
     2
176
     1
 67
     7
176
     1
 79
     5
176
     1
170
     0
176
     1
171
     0
176
     1
290
     0
176
     1
 93
        1
176
     1
 44
50.0
176
     1
173
     0
176
     1
  0
VISUALSTYLE
  5
3A
102
{ACAD_REACTORS
330
2A
102
}
330
2A
100
AcDbVisualStyle
  2
ColorChange
 70
    16
177
     2
291
     1
 71
     2
176
     1
 72
     2
176
     1
 73
     3
176
     1
 90
        0
176
     1
 40
-0.6
176
     1
 41
-30.0
176
     1
 62
     5
 63
     8
421
  8421504
176
     1
 74
     1
176
     1
 91
        4
176
     1
 64
     7
176
     1
 65
   257
176
     1
 75
     1
176
     1
175
     1
176
     1
 42
1.0
176
     1
 92
        8
176
     1
 66
     8
424
  8421504
176
     1
 43
1.0
176
     1
 76
     1
176
     1
 77
     6
176
     1
 78
     2
176
     1
 67
     7
176
     1
 79
     5
176
     1
170
     0
176
     1
171
     0
176
     1
290
     0
176
     1
 93
        1
176
     1
 44
0.0
176
     1
173
     0
176
     1
  0
VISUALSTYLE
  5
34
102
{ACAD_REACTORS
330
2A
102
}
330
2A
100
AcDbVisualStyle
  2
Conceptual
 70
     9
177
     2
291
     0
 71
     3
176
     1
 72
     2
176
     1
 73
     0
176
     1
 90
        0
176
     1
 40
-0.6
176
     1
 41
-30.0
176
     1
 62
     5
 63
     7
421
 16777215
176
     1
 74
     2
176
     1
 91
        2
176
     1
 64
     7
176
     1
 65
   257
176
     1
 75
     1
176
     1
175
     1
176
     1
 42
40.0
176
     1
 92
        8
176
     1
 66
     7
176
     1
 43
1.0
176
     1
 76
     1
176
     1
 77
     6
176
     1
 78
     2
176
     1
 67
     7
176
     1
 79
     3
176
     1
170
     0
176
     1
171
     0
176
     1
290
     0
176
     1
 93
        1
176
     1
 44
0.0
176
     1
173
     0
176
     1
  0
VISUALSTYLE
  5
35
102
{ACAD_REACTORS
330
2A
102
}
330
2A
100
AcDbVisualStyle
  2
Dim
 70
    11
177
     2
291
     1
 71
     2
176
     1
 72
     2
176
     1
 73
     0
176
     1
 90
        0
176
     1
 40
-0.6
176
     1
 41
-30.0
176
     1
 62
     5
 63
     7
421
 16777215
176
     1
 74
     1
176
     1
 91
        4
176
     1
 64
     7
176
     1
 65
   257
176
     1
 75
     1
176
     1
175
     1
176
     1
 42
1.0
176
     1
 92
        8
176
     1
 66
     7
176
     1
 43
1.0
176
     1
 76
     1
176
     1
 77
     6
176
     1
 78
     2
176
     1
 67
     7
176
     1
 79
     5
176
     1
170
     0
176
     1
171
     0
176
     1
290
     0
176
     1
 93
        1
176
     1
 44
-50.0
176
     1
173
     0
176
     1
  0
VISUALSTYLE
  5
39
102
{ACAD_REACTORS
330
2A
102
}
330
2A
100
AcDbVisualStyle
  2
Facepattern
 70
    15
177
     2
291
     1
 71
     2
176
     1
 72
     2
176
     1
 73
     0
176
     1
 90
        0
176
     1
 40
-0.6
176
     1
 41
-30.0
176
     1
 62
     5
 63
     7
421
 16777215
176
     1
 74
     1
176
     1
 91
        4
176
     1
 64
     7
176
     1
 65
   257
176
     1
 75
     1
176
     1
175
     1
176
     1
 42
1.0
176
     1
 92
        8
176
     1
 66
     7
176
     1
 43
1.0
176
     1
 76
     1
176
     1
 77
     6
176
     1
 78
     2
176
     1
 67
     7
176
     1
 79
     5
176
     1
170
     0
176
     1
171
     0
176
     1
290
     0
176
     1
 93
        1
176
     1
 44
0.0
176
     1
173
     0
176
     1
  0
VISUALSTYLE
  5
2B
102
{ACAD_REACTORS
330
2A
102
}
330
2A
100
AcDbVisualStyle
  2
Flat
 70
     0
177
     2
291
     1
 71
     2
176
     1
 72
     1
176
     1
 73
     1
176
     1
 90
        2
176
     1
 40
-0.6
176
     1
 41
30.0
176
     1
 62
     5
 63
     7
421
 16777215
176
     1
 74
     0
176
     1
 91
        4
176
     1
 64
     7
176
     1
 65
   257
176
     1
 75
     1
176
     1
175
     1
176
     1
 42
1.0
176
     1
 92
        8
176
     1
 66
     7
176
     1
 43
1.0
176
     1
 76
     1
176
     1
 77
     6
176
     1
 78
     2
176
     1
 67
     7
176
     1
 79
     5
176
     1
170
     0
176
     1
171
     0
176
     1
290
     0
176
     1
 93
       13
176
     1
 44
0.0
176
     1
173
     0
176
     1
  0
VISUALSTYLE
  5
2C
102
{ACAD_REACTORS
330
2A
102
}
330
2A
100
AcDbVisualStyle
  2
FlatWithEdges
 70
     1
177
     2
291
     1
 71
     2
176
     1
 72
     1
176
     1
 73
     1
176
     1
 90
        2
176
     1
 40
-0.6
176
     1
 41
30.0
176
     1
 62
     5
 63
     7
421
 16777215
176
     1
 74
     1
176
     1
 91
        4
176
     1
 64
     7
176
     1
 65
   257
176
     1
 75
     1
176
     1
175
     1
176
     1
 42
1.0
176
     1
 92
        0
176
     1
 66
   257
176
     1
 43
1.0
176
     1
 76
     1
176
     1
 77
     6
176
     1
 78
     2
176
     1
 67
     7
176
     1
 79
     5
176
     1
170
     0
176
     1
171
     0
176
     1
290
     0
176
     1
 93
       13
176
     1
 44
0.0
176
     1
173
     0
176
     1
  0
VISUALSTYLE
  5
2D
102
{ACAD_REACTORS
330
2A
102
}
330
2A
100
AcDbVisualStyle
  2
Gouraud
 70
     2
177
     2
291
     1
 71
     2
176
     1
 72
     2
176
     1
 73
     1
176
     1
 90
        2
176
     1
 40
-0.6
176
     1
 41
30.0
176
     1
 62
     5
 63
     7
421
 16777215
176
     1
 74
     0
176
     1
 91
        4
176
     1
 64
     7
176
     1
 65
   257
176
     1
 75
     1
176
     1
175
     1
176
     1
 42
1.0
176
     1
 92
        0
176
     1
 66
     7
176
     1
 43
1.0
176
     1
 76
     1
176
     1
 77
     6
176
     1
 78
     2
176
     1
 67
     7
176
     1
 79
     5
176
     1
170
     0
176
     1
171
     0
176
     1
290
     0
176
     1
 93
       13
176
     1
 44
0.0
176
     1
173
     0
176
     1
  0
VISUALSTYLE
  5
2E
102
{ACAD_REACTORS
330
2A
102
}
330
2A
100
AcDbVisualStyle
  2
GouraudWithEdges
 70
     3
177
     2
291
     1
 71
     2
176
     1
 72
     2
176
     1
 73
     1
176
     1
 90
        2
176
     1
 40
-0.6
176
     1
 41
30.0
176
     1
 62
     5
 63
     7
421
 16777215
176
     1
 74
     1
176
     1
 91
        4
176
     1
 64
     7
176
     1
 65
   257
176
     1
 75
     1
176
     1
175
     1
176
     1
 42
1.0
176
     1
 92
        0
176
     1
 66
   257
176
     1
 43
1.0
176
     1
 76
     1
176
     1
 77
     6
176
     1
 78
     2
176
     1
 67
     7
176
     1
 79
     5
176
     1
170
     0
176
     1
171
     0
176
     1
290
     0
176
     1
 93
       13
176
     1
 44
0.0
176
     1
173
     0
176
     1
  0
VISUALSTYLE
  5
38
102
{ACAD_REACTORS
330
2A
102
}
330
2A
100
AcDbVisualStyle
  2
Linepattern
 70
    14
177
     2
291
     1
 71
     2
176
     1
 72
     2
176
     1
 73
     0
176
     1
 90
        0
176
     1
 40
-0.6
176
     1
 41
-30.0
176
     1
 62
     5
 63
     7
421
 16777215
176
     1
 74
     1
176
     1
 91
        4
176
     1
 64
     7
176
     1
 65
   257
176
     1
 75
     7
176
     1
175
     7
176
     1
 42
1.0
176
     1
 92
        8
176
     1
 66
     7
176
     1
 43
1.0
176
     1
 76
     1
176
     1
 77
     6
176
     1
 78
     2
176
     1
 67
     7
176
     1
 79
     5
176
     1
170
     0
176
     1
171
     0
176
     1
290
     0
176
     1
 93
        1
176
     1
 44
0.0
176
     1
173
     0
176
     1
  0
VISUALSTYLE
  5
33
102
{ACAD_REACTORS
330
2A
102
}
330
2A
100
AcDbVisualStyle
  2
Realistic
 70
     8
177
     2
291
     0
 71
     2
176
     1
 72
     2
176
     1
 73
     0
176
     1
 90
        0
176
     1
 40
-0.6
176
     1
 41
-30.0
176
     1
 62
     5
 63
     7
421
 16777215
176
     1
 74
     1
176
     1
 91
        0
176
     1
 64
     7
176
     1
 65
   257
176
     1
 75
     1
176
     1
175
     1
176
     1
 42
1.0
176
     1
 92
        8
176
     1
 66
     8
424
  7895160
176
     1
 43
1.0
176
     1
 76
     1
176
     1
 77
     6
176
     1
 78
     2
176
     1
 67
     7
176
     1
 79
     5
176
     1
170
     0
176
     1
171
     0
176
     1
290
     0
176
     1
 93
       13
176
     1
 44
0.0
176
     1
173
     0
176
     1
  0
VISUALSTYLE
  5
37
102
{ACAD_REACTORS
330
2A
102
}
330
2A
100
AcDbVisualStyle
  2
Thicken
 70
    13
177
     2
291
     1
 71
     2
176
     1
 72
     2
176
     1
 73
     0
176
     1
 90
        0
176
     1
 40
-0.6
176
     1
 41
-30.0
176
     1
 62
     5
 63
     7
421
 16777215
176
     1
 74
     1
176
     1
 91
        4
176
     1
 64
     7
176
     1
 65
   257
176
     1
 75
     1
176
     1
175
     1
176
     1
 42
1.0
176
     1
 92
       12
176
     1
 66
     7
176
     1
 43
1.0
176
     1
 76
     1
176
     1
 77
     6
176
     1
 78
     2
176
     1
 67
     7
176
     1
 79
     5
176
     1
170
     0
176
     1
171
     0
176
     1
290
     0
176
     1
 93
        1
176
     1
 44
0.0
176
     1
173
     0
176
     1
  0
ENDSEC
  0
EOF
