  0
SECTION
  2
HEADER
  9
$ACADVER
  1
AC1024
  9
$ACADMAINTVER
 70
     6
  9
$DWGCODEPAGE
  3
UNDEFINED
  9
$INSBASE
 10
0.0
 20
0.0
 30
0.0
  9
$EXTMIN
 10
1.000000000000000E+20
 20
1.000000000000000E+20
 30
1.000000000000000E+20
  9
$EXTMAX
 10
-1.000000000000000E+20
 20
-1.000000000000000E+20
 30
-1.000000000000000E+20
  9
$LIMMIN
 10
0.0
 20
0.0
  9
$LIMMAX
 10
12.0
 20
9.0
  9
$ORTHOMODE
 70
     0
  9
$REGENMODE
 70
     1
  9
$FILLMODE
 70
     1
  9
$QTEXTMODE
 70
     0
  9
$MIRRTEXT
 70
     1
  9
$LTSCALE
 40
1.0
  9
$ATTMODE
 70
     1
  9
$TEXTSIZE
 40
0.2
  9
$TRACEWID
 40
0.05
  9
$TEXTSTYLE
  7
Standard
  9
$CLAYER
  8
0
  9
$CELTYPE
  6
ByLayer
  9
$CECOLOR
 62
   256
  9
$CELTSCALE
 40
1.0
  9
$DISPSILH
 70
     0
  9
$DIMSCALE
 40
1.0
  9
$DIMASZ
 40
0.18
  9
$DIMEXO
 40
0.0625
  9
$DIMDLI
 40
0.38
  9
$DIMRND
 40
0.0
  9
$DIMDLE
 40
0.0
  9
$DIMEXE
 40
0.18
  9
$DIMTP
 40
0.0
  9
$DIMTM
 40
0.0
  9
$DIMTXT
 40
0.18
  9
$DIMCEN
 40
0.09
  9
$DIMTSZ
 40
0.0
  9
$DIMTOL
 70
     0
  9
$DIMLIM
 70
     0
  9
$DIMTIH
 70
     1
  9
$DIMTOH
 70
     1
  9
$DIMSE1
 70
     0
  9
$DIMSE2
 70
     0
  9
$DIMTAD
 70
     0
  9
$DIMZIN
 70
     0
  9
$DIMBLK
  1

  9
$DIMASO
 70
     1
  9
$DIMSHO
 70
     1
  9
$DIMPOST
  1

  9
$DIMAPOST
  1

  9
$DIMALT
 70
     0
  9
$DIMALTD
 70
     2
  9
$DIMALTF
 40
25.4
  9
$DIMLFAC
 40
1.0
  9
$DIMTOFL
 70
     0
  9
$DIMTVP
 40
0.0
  9
$DIMTIX
 70
     0
  9
$DIMSOXD
 70
     0
  9
$DIMSAH
 70
     0
  9
$DIMBLK1
  1

  9
$DIMBLK2
  1

  9
$DIMSTYLE
  2
Standard
  9
$DIMCLRD
 70
     0
  9
$DIMCLRE
 70
     0
  9
$DIMCLRT
 70
     0
  9
$DIMTFAC
 40
1.0
  9
$DIMGAP
 40
0.09
  9
$DIMJUST
 70
     0
  9
$DIMSD1
 70
     0
  9
$DIMSD2
 70
     0
  9
$DIMTOLJ
 70
     1
  9
$DIMTZIN
 70
     0
  9
$DIMALTZ
 70
     0
  9
$DIMALTTZ
 70
     0
  9
$DIMUPT
 70
     0
  9
$DIMDEC
 70
     4
  9
$DIMTDEC
 70
     4
  9
$DIMALTU
 70
     2
  9
$DIMALTTD
 70
     2
  9
$DIMTXSTY
  7
Standard
  9
$DIMAUNIT
 70
     0
  9
$DIMADEC
 70
     0
  9
$DIMALTRND
 40
0.0
  9
$DIMAZIN
 70
     0
  9
$DIMDSEP
 70
    46
  9
$DIMATFIT
 70
     3
  9
$DIMFRAC
 70
     0
  9
$DIMLDRBLK
  1

  9
$DIMLUNIT
 70
     2
  9
$DIMLWD
 70
    -2
  9
$DIMLWE
 70
    -2
  9
$DIMTMOVE
 70
     0
  9
$DIMFXL
 40
1.0
  9
$DIMFXLON
 70
     0
  9
$DIMJOGANG
 40
0.7853981633974483
  9
$DIMTFILL
 70
     0
  9
$DIMTFILLCLR
 70
     0
  9
$DIMARCSYM
 70
     0
  9
$DIMLTYPE
  6

  9
$DIMLTEX1
  6

  9
$DIMLTEX2
  6

  9
$DIMTXTDIRECTION
 70
     0
  9
$LUNITS
 70
     2
  9
$LUPREC
 70
     4
  9
$SKETCHINC
 40
0.1
  9
$FILLETRAD
 40
0.5
  9
$AUNITS
 70
     0
  9
$AUPREC
 70
     0
  9
$MENU
  1
.
  9
$ELEVATION
 40
0.0
  9
$PELEVATION
 40
0.0
  9
$THICKNESS
 40
0.0
  9
$LIMCHECK
 70
     0
  9
$CHAMFERA
 40
0.5
  9
$CHAMFERB
 40
0.5
  9
$CHAMFERC
 40
1.0
  9
$CHAMFERD
 40
0.0
  9
$SKPOLY
 70
     0
  9
$TDCREATE
 40
2457917.603564803
  9
$TDUCREATE
 40
2457917.228564815
  9
$TDUPDATE
 40
2457917.603564803
  9
$TDUUPDATE
 40
2457917.228564815
  9
$TDINDWG
 40
0.0000000116
  9
$TDUSRTIMER
 40
0.0000000116
  9
$USRTIMER
 70
     1
  9
$ANGBASE
 50
0.0
  9
$ANGDIR
 70
     0
  9
$PDMODE
 70
     0
  9
$PDSIZE
 40
0.0
  9
$PLINEWID
 40
0.0
  9
$SPLFRAME
 70
     0
  9
$SPLINETYPE
 70
     6
  9
$SPLINESEGS
 70
     8
  9
$HANDSEED
  5
10E
  9
$SURFTAB1
 70
     6
  9
$SURFTAB2
 70
     6
  9
$SURFTYPE
 70
     6
  9
$SURFU
 70
     6
  9
$SURFV
 70
     6
  9
$UCSBASE
  2

  9
$UCSNAME
  2

  9
$UCSORG
 10
0.0
 20
0.0
 30
0.0
  9
$UCSXDIR
 10
1.0
 20
0.0
 30
0.0
  9
$UCSYDIR
 10
0.0
 20
1.0
 30
0.0
  9
$UCSORTHOREF
  2

  9
$UCSORTHOVIEW
 70
     0
  9
$UCSORGTOP
 10
0.0
 20
0.0
 30
0.0
  9
$UCSORGBOTTOM
 10
0.0
 20
0.0
 30
0.0
  9
$UCSORGLEFT
 10
0.0
 20
0.0
 30
0.0
  9
$UCSORGRIGHT
 10
0.0
 20
0.0
 30
0.0
  9
$UCSORGFRONT
 10
0.0
 20
0.0
 30
0.0
  9
$UCSORGBACK
 10
0.0
 20
0.0
 30
0.0
  9
$PUCSBASE
  2

  9
$PUCSNAME
  2

  9
$PUCSORG
 10
0.0
 20
0.0
 30
0.0
  9
$PUCSXDIR
 10
1.0
 20
0.0
 30
0.0
  9
$PUCSYDIR
 10
0.0
 20
1.0
 30
0.0
  9
$PUCSORTHOREF
  2

  9
$PUCSORTHOVIEW
 70
     0
  9
$PUCSORGTOP
 10
0.0
 20
0.0
 30
0.0
  9
$PUCSORGBOTTOM
 10
0.0
 20
0.0
 30
0.0
  9
$PUCSORGLEFT
 10
0.0
 20
0.0
 30
0.0
  9
$PUCSORGRIGHT
 10
0.0
 20
0.0
 30
0.0
  9
$PUCSORGFRONT
 10
0.0
 20
0.0
 30
0.0
  9
$PUCSORGBACK
 10
0.0
 20
0.0
 30
0.0
  9
$USERI1
 70
     0
  9
$USERI2
 70
     0
  9
$USERI3
 70
     0
  9
$USERI4
 70
     0
  9
$USERI5
 70
     0
  9
$USERR1
 40
0.0
  9
$USERR2
 40
0.0
  9
$USERR3
 40
0.0
  9
$USERR4
 40
0.0
  9
$USERR5
 40
0.0
  9
$WORLDVIEW
 70
     1
  9
$SHADEDGE
 70
     3
  9
$SHADEDIF
 70
    70
  9
$TILEMODE
 70
     1
  9
$MAXACTVP
 70
    64
  9
$PINSBASE
 10
0.0
 20
0.0
 30
0.0
  9
$PLIMCHECK
 70
     0
  9
$PEXTMIN
 10
1.000000000000000E+20
 20
1.000000000000000E+20
 30
1.000000000000000E+20
  9
$PEXTMAX
 10
-1.000000000000000E+20
 20
-1.000000000000000E+20
 30
-1.000000000000000E+20
  9
$PLIMMIN
 10
0.0
 20
0.0
  9
$PLIMMAX
 10
12.0
 20
9.0
  9
$UNITMODE
 70
     0
  9
$VISRETAIN
 70
     1
  9
$PLINEGEN
 70
     0
  9
$PSLTSCALE
 70
     1
  9
$TREEDEPTH
 70
  3020
  9
$CMLSTYLE
  2
Standard
  9
$CMLJUST
 70
     0
  9
$CMLSCALE
 40
1.0
  9
$PROXYGRAPHICS
 70
     1
  9
$MEASUREMENT
 70
     0
  9
$CELWEIGHT
370
    -1
  9
$ENDCAPS
280
     0
  9
$JOINSTYLE
280
     0
  9
$LWDISPLAY
290
     1
  9
$INSUNITS
 70
     1
  9
$HYPERLINKBASE
  1

  9
$STYLESHEET
  1

  9
$XEDIT
290
     1
  9
$CEPSNTYPE
380
     0
  9
$PSTYLEMODE
290
     1
  9
$FINGERPRINTGUID
  2
{1F85B434-AB74-F844-4A19-87EAF97CFF9D}
  9
$VERSIONGUID
  2
{FAEB1C32-E019-11D5-929B-00C0DF256EC4}
  9
$EXTNAMES
290
     1
  9
$PSVPSCALE
 40
0.0
  9
$OLESTARTUP
290
     0
  9
$SORTENTS
280
   127
  9
$INDEXCTL
280
     0
  9
$HIDETEXT
280
     1
  9
$XCLIPFRAME
280
     2
  9
$HALOGAP
280
     0
  9
$OBSCOLOR
 70
   257
  9
$OBSLTYPE
280
     0
  9
$INTERSECTIONDISPLAY
280
     0
  9
$INTERSECTIONCOLOR
 70
   257
  9
$DIMASSOC
280
     2
  9
$PROJECTNAME
  1

  9
$CAMERADISPLAY
290
     0
  9
$LENSLENGTH
 40
50.0
  9
$CAMERAHEIGHT
 40
0.0
  9
$STEPSPERSEC
 40
2.0
  9
$STEPSIZE
 40
6.0
  9
$3DDWFPREC
 40
2.0
  9
$PSOLWIDTH
 40
0.25
  9
$PSOLHEIGHT
 40
4.0
  9
$LOFTANG1
 40
1.570796326794897
  9
$LOFTANG2
 40
1.570796326794897
  9
$LOFTMAG1
 40
0.0
  9
$LOFTMAG2
 40
0.0
  9
$LOFTPARAM
 70
     7
  9
$LOFTNORMALS
280
     1
  9
$LATITUDE
 40
37.795
  9
$LONGITUDE
 40
-122.394
  9
$NORTHDIRECTION
 40
0.0
  9
$TIMEZONE
 70
 -8000
  9
$LIGHTGLYPHDISPLAY
280
     1
  9
$TILEMODELIGHTSYNCH
280
     1
  9
$CMATERIAL
347
3C
  9
$SOLIDHIST
280
     1
  9
$SHOWHIST
280
     1
  9
$DWFFRAME
280
     2
  9
$DGNFRAME
280
     2
  9
$REALWORLDSCALE
290
     1
  9
$INTERFERECOLOR
 62
   256
  9
$CSHADOW
280
     0
  9
$SHADOWPLANELOCATION
 40
0.0
  0
ENDSEC
  0
SECTION
  2
CLASSES
  0
CLASS
  1
ACDBDICTIONARYWDFLT
  2
AcDbDictionaryWithDefault
  3
ObjectDBX Classes
 90
        0
 91
        4
280
     0
281
     0
  0
CLASS
  1
VISUALSTYLE
  2
AcDbVisualStyle
  3
ObjectDBX Classes
 90
     4095
 91
        4
280
     0
281
     0
  0
CLASS
  1
MATERIAL
  2
AcDbMaterial
  3
ObjectDBX Classes
 90
     1153
 91
        4
280
     0
281
     0
  0
CLASS
  1
SUN
  2
AcDbSun
  3
SCENEOE
 90
     1024
 91
        4
280
     0
281
     0
  0
ENDSEC
  0
SECTION
  2
TABLES
  0
TABLE
  2
VPORT
  5
8
330
0
100
AcDbSymbolTable
 70
     1
  0
VPORT
  5
29
330
8
100
AcDbSymbolTableRecord
100
AcDbViewportTableRecord
  2
*Active
 70
     0
 10
0.0
 20
0.0
 11
1.0
 21
1.0
 12
0.0
 22
0.0
 13
0.0
 23
0.0
 14
0.5
 24
0.5
 15
0.5
 25
0.5
 16
0.0
 26
0.0
 36
1.0
 17
91.00082462281999
 27
-128.4993055234307
 37
0.0
 40
256.9986110468615
 41
0.7081814508812795
 42
50.0
 43
0.0
 44
0.0
 50
0.0
 51
0.0
 71
     0
 72
   100
 73
     1
 74
     3
 75
     0
 76
     0
 77
     0
 78
     0
281
     0
 65
     1
110
0.0
120
0.0
130
0.0
111
1.0
121
0.0
131
0.0
112
0.0
122
1.0
132
0.0
 79
     0
146
0.0
 60
     3
 61
     5
292
     1
282
     1
141
0.0
142
0.0
 63
   250
361
3F
  0
ENDTAB
  0
TABLE
  2
LTYPE
  5
5
330
0
100
AcDbSymbolTable
 70
     1
  0
LTYPE
  5
14
330
5
100
AcDbSymbolTableRecord
100
AcDbLinetypeTableRecord
  2
ByBlock
 70
     0
  3

 72
    65
 73
     0
 40
0.0
  0
LTYPE
  5
15
330
5
100
AcDbSymbolTableRecord
100
AcDbLinetypeTableRecord
  2
ByLayer
 70
     0
  3

 72
    65
 73
     0
 40
0.0
  0
LTYPE
  5
16
330
5
100
AcDbSymbolTableRecord
100
AcDbLinetypeTableRecord
  2
Continuous
 70
     0
  3
Solid line
 72
    65
 73
     0
 40
0.0
  0
ENDTAB
  0
TABLE
  2
LAYER
  5
2
330
0
100
AcDbSymbolTable
 70
     2
  0
LAYER
  5
10
330
2
100
AcDbSymbolTableRecord
100
AcDbLayerTableRecord
  2
0
 70
     0
 62
     7
  6
Continuous
370
    -3
390
F
347
3E
  0
LAYER
  5
40
330
2
100
AcDbSymbolTableRecord
100
AcDbLayerTableRecord
  2
_U+30EC_U+30A4_U+30E4_U+30FC 1
 70
     0
 62
     7
  6
Continuous
370
    -3
390
F
347
3E
  0
ENDTAB
  0
TABLE
  2
STYLE
  5
3
330
0
100
AcDbSymbolTable
 70
     1
  0
STYLE
  5
11
330
3
100
AcDbSymbolTableRecord
100
AcDbTextStyleTableRecord
  2
Standard
 70
     0
 40
0.0
 41
1.0
 50
0.0
 71
     0
 42
0.2
  3
txt
  4

  0
ENDTAB
  0
TABLE
  2
VIEW
  5
6
330
0
100
AcDbSymbolTable
 70
     0
  0
ENDTAB
  0
TABLE
  2
UCS
  5
7
330
0
100
AcDbSymbolTable
 70
     0
  0
ENDTAB
  0
TABLE
  2
APPID
  5
9
330
0
100
AcDbSymbolTable
 70
     1
  0
APPID
  5
12
330
9
100
AcDbSymbolTableRecord
100
AcDbRegAppTableRecord
  2
ACAD
 70
     0
  0
ENDTAB
  0
TABLE
  2
DIMSTYLE
  5
A
330
0
100
AcDbSymbolTable
 70
     1
100
AcDbDimStyleTable
  0
DIMSTYLE
105
27
330
A
100
AcDbSymbolTableRecord
100
AcDbDimStyleTableRecord
  2
Standard
 70
     0
178
     0
340
11
  0
ENDTAB
  0
TABLE
  2
BLOCK_RECORD
  5
1
330
0
100
AcDbSymbolTable
 70
     7
  0
BLOCK_RECORD
  5
1F
330
1
100
AcDbSymbolTableRecord
100
AcDbBlockTableRecord
  2
*Model_Space
340
22
 70
     0
280
     1
281
     0
  0
BLOCK_RECORD
  5
1B
330
1
100
AcDbSymbolTableRecord
100
AcDbBlockTableRecord
  2
*Paper_Space
340
1E
 70
     0
280
     1
281
     0
  0
BLOCK_RECORD
  5
23
330
1
100
AcDbSymbolTableRecord
100
AcDbBlockTableRecord
  2
*Paper_Space0
340
26
 70
     0
280
     1
281
     0
  0
BLOCK_RECORD
  5
C2
330
1
100
AcDbSymbolTableRecord
100
AcDbBlockTableRecord
  2
block 2
340
0
102
{BLKREFS
331
C3
102
}
 70
     0
280
     1
281
     0
  0
BLOCK_RECORD
  5
C8
330
1
100
AcDbSymbolTableRecord
100
AcDbBlockTableRecord
  2
block 3
340
0
102
{BLKREFS
331
C9
102
}
 70
     0
280
     1
281
     0
  0
BLOCK_RECORD
  5
D1
330
1
100
AcDbSymbolTableRecord
100
AcDbBlockTableRecord
  2
block 4
340
0
102
{BLKREFS
331
D2
102
}
 70
     0
280
     1
281
     0
  0
BLOCK_RECORD
  5
ED
330
1
100
AcDbSymbolTableRecord
100
AcDbBlockTableRecord
  2
block 5
340
0
102
{BLKREFS
331
EE
102
}
 70
     0
280
     1
281
     0
  0
BLOCK_RECORD
  5
F3
330
1
100
AcDbSymbolTableRecord
100
AcDbBlockTableRecord
  2
block 6
340
0
102
{BLKREFS
331
F4
102
}
 70
     0
280
     1
281
     0
  0
BLOCK_RECORD
  5
104
330
1
100
AcDbSymbolTableRecord
100
AcDbBlockTableRecord
  2
block 7
340
0
102
{BLKREFS
331
105
102
}
 70
     0
280
     1
281
     0
  0
ENDTAB
  0
ENDSEC
  0
SECTION
  2
BLOCKS
  0
BLOCK
  5
20
330
1F
100
AcDbEntity
  8
0
100
AcDbBlockBegin
  2
*Model_Space
 70
     0
 10
0.0
 20
0.0
 30
0.0
  3
*Model_Space
  1

  0
ENDBLK
  5
21
330
1F
100
AcDbEntity
  8
0
100
AcDbBlockEnd
  0
BLOCK
  5
1C
330
1B
100
AcDbEntity
 67
     1
  8
0
100
AcDbBlockBegin
  2
*Paper_Space
 70
     0
 10
0.0
 20
0.0
 30
0.0
  3
*Paper_Space
  1

  0
ENDBLK
  5
1D
330
1B
100
AcDbEntity
 67
     1
  8
0
100
AcDbBlockEnd
  0
BLOCK
  5
24
330
23
100
AcDbEntity
  8
0
100
AcDbBlockBegin
  2
*Paper_Space0
 70
     0
 10
0.0
 20
0.0
 30
0.0
  3
*Paper_Space0
  1

  0
ENDBLK
  5
25
330
23
100
AcDbEntity
  8
0
100
AcDbBlockEnd
  0
BLOCK
  5
C4
330
C2
100
AcDbEntity
  8
0
100
AcDbBlockBegin
  2
block 2
 70
     0
 10
0.0
 20
0.0
 30
0.0
  3
block 2
  1

  0
SPLINE
  5
C6
330
C2
100
AcDbEntity
  8
_U+30EC_U+30A4_U+30E4_U+30FC 1
370
     0
100
AcDbSpline
210
0.0
220
0.0
230
1.0
 70
    11
 71
     3
 72
    62
 73
    58
 74
     0
 42
0.0000000001
 43
0.0000000001
 12
1.0
 22
0.0
 32
0.0
 13
1.0
 23
0.0
 33
0.0
 40
0.0
 40
0.0
 40
0.0
 40
0.0
 40
1.0
 40
1.0
 40
1.0
 40
2.0
 40
2.0
 40
2.0
 40
3.0
 40
3.0
 40
3.0
 40
4.0
 40
4.0
 40
4.0
 40
5.0
 40
5.0
 40
5.0
 40
6.0
 40
6.0
 40
6.0
 40
7.0
 40
7.0
 40
7.0
 40
8.0
 40
8.0
 40
8.0
 40
9.0
 40
9.0
 40
9.0
 40
10.0
 40
10.0
 40
10.0
 40
11.0
 40
11.0
 40
11.0
 40
12.0
 40
12.0
 40
12.0
 40
13.0
 40
13.0
 40
13.0
 40
14.0
 40
14.0
 40
14.0
 40
15.0
 40
15.0
 40
15.0
 40
16.0
 40
16.0
 40
16.0
 40
17.0
 40
17.0
 40
17.0
 40
18.0
 40
18.0
 40
18.0
 40
19.0
 40
19.0
 40
19.0
 40
19.0
 10
117.8381130347766
 20
-135.6706162855268
 30
0.0
 10
117.8381130347766
 20
-135.7722466023417
 30
0.0
 10
117.8170979523166
 20
-136.0051350571445
 30
0.0
 10
117.6310627961131
 20
-136.1384602524237
 30
0.0
 10
117.5187526832939
 20
-136.2176974485845
 30
0.0
 10
117.4195339333187
 20
-136.2221760727153
 30
0.0
 10
117.3347845843816
 20
-136.2266546968461
 30
0.0
 10
117.3347845843816
 20
-136.2266546968461
 30
0.0
 10
117.3347845843816
 20
-135.9916991847521
 30
0.0
 10
117.3347845843816
 20
-135.9916991847521
 30
0.0
 10
117.4088541373145
 20
-135.9892876179124
 30
0.0
 10
117.64346513986
 20
-135.9779188028111
 30
0.0
 10
117.64346513986
 20
-135.6750949096576
 30
0.0
 10
117.64346513986
 20
-135.5279893324374
 30
0.0
 10
117.5738742110579
 20
-135.3653808255337
 30
0.0
 10
117.3454643803859
 20
-135.3653808255337
 30
0.0
 10
117.2290201529844
 20
-135.3653808255337
 30
0.0
 10
117.1804443066424
 20
-135.4060329522596
 30
0.0
 10
117.1487494281781
 20
-135.4397948880151
 30
0.0
 10
117.0746798752452
 20
-135.5190320841758
 30
0.0
 10
117.0619330219498
 20
-135.6434000311933
 30
0.0
 10
117.0619330219498
 20
-135.7023111639911
 30
0.0
 10
117.0619330219498
 20
-135.7226372273541
 30
0.0
 10
117.064000079241
 20
-135.7608777872403
 30
0.0
 10
117.0681341938233
 20
-135.7905056084135
 30
0.0
 10
117.0681341938233
 20
-135.7905056084135
 30
0.0
 10
116.8734862989066
 20
-135.7905056084135
 30
0.0
 10
116.8734862989066
 20
-135.7905056084135
 30
0.0
 10
116.8800319803286
 20
-135.7498534816876
 30
0.0
 10
116.8820990376198
 20
-135.7043782212822
 30
0.0
 10
116.8820990376198
 20
-135.6978325398603
 30
0.0
 10
116.8820990376198
 20
-135.6275525919612
 30
0.0
 10
116.8607394456112
 20
-135.4149902005213
 30
0.0
 10
116.6240613857745
 20
-135.4149902005213
 30
0.0
 10
116.4462944587357
 20
-135.4149902005213
 30
0.0
 10
116.3911729309717
 20
-135.5552055867709
 30
0.0
 10
116.3911729309717
 20
-135.6726833428179
 30
0.0
 10
116.3911729309717
 20
-135.9555256821569
 30
0.0
 10
116.6240613857745
 20
-135.9644829304186
 30
0.0
 10
116.6957193718677
 20
-135.9689615545494
 30
0.0
 10
116.6957193718677
 20
-135.9689615545494
 30
0.0
 10
116.6957193718677
 20
-136.1860025701202
 30
0.0
 10
116.6957193718677
 20
-136.1860025701202
 30
0.0
 10
116.5710069153017
 20
-136.1770453218585
 30
0.0
 10
116.1944579787639
 20
-136.1477620102339
 30
0.0
 10
116.1944579787639
 20
-135.6592474704255
 30
0.0
 10
116.1944579787639
 20
-135.4194688246521
 30
0.0
 10
116.3215820021696
 20
-135.1617756823554
 30
0.0
 10
116.6175157043526
 20
-135.1617756823554
 30
0.0
 10
116.8038953701046
 20
-135.1617756823554
 30
0.0
 10
116.8862331522021
 20
-135.2637505087188
 30
0.0
 10
116.9475558518395
 20
-135.3698594496645
 30
0.0
 10
116.9751166157215
 20
-135.3044026354447
 30
0.0
 10
117.0553873405278
 20
-135.1097547405281
 30
0.0
 10
117.3327175270904
 20
-135.1097547405281
 30
0.0
 10
117.671025903742
 20
-135.1097547405281
 30
0.0
 10
117.8381130347766
 20
-135.3743380737953
 30
0.0
 10
117.8381130347766
 20
-135.6706162855268
 30
0.0
  0
HATCH
  5
C7
330
C2
100
AcDbEntity
  8
_U+30EC_U+30A4_U+30E4_U+30FC 1
 62
   179
420
  2234388
100
AcDbHatch
 10
0.0
 20
0.0
 30
0.0
210
0.0
220
0.0
230
1.0
  2
SOLID
 70
     1
 71
     0
 91
        1
 92
        1
 93
        1
 72
     4
 94
        3
 73
     0
 74
     1
 95
       62
 96
       58
 40
0.0
 40
0.0
 40
0.0
 40
0.0
 40
1.0
 40
1.0
 40
1.0
 40
2.0
 40
2.0
 40
2.0
 40
3.0
 40
3.0
 40
3.0
 40
4.0
 40
4.0
 40
4.0
 40
5.0
 40
5.0
 40
5.0
 40
6.0
 40
6.0
 40
6.0
 40
7.0
 40
7.0
 40
7.0
 40
8.0
 40
8.0
 40
8.0
 40
9.0
 40
9.0
 40
9.0
 40
10.0
 40
10.0
 40
10.0
 40
11.0
 40
11.0
 40
11.0
 40
12.0
 40
12.0
 40
12.0
 40
13.0
 40
13.0
 40
13.0
 40
14.0
 40
14.0
 40
14.0
 40
15.0
 40
15.0
 40
15.0
 40
16.0
 40
16.0
 40
16.0
 40
17.0
 40
17.0
 40
17.0
 40
18.0
 40
18.0
 40
18.0
 40
19.0
 40
19.0
 40
19.0
 40
19.0
 10
117.8381130347766
 20
-135.6706162855268
 10
117.8381130347766
 20
-135.7722466023417
 10
117.8170979523166
 20
-136.0051350571445
 10
117.6310627961131
 20
-136.1384602524237
 10
117.5187526832939
 20
-136.2176974485845
 10
117.4195339333187
 20
-136.2221760727153
 10
117.3347845843816
 20
-136.2266546968461
 10
117.3347845843816
 20
-136.2266546968461
 10
117.3347845843816
 20
-135.9916991847521
 10
117.3347845843816
 20
-135.9916991847521
 10
117.4088541373145
 20
-135.9892876179124
 10
117.64346513986
 20
-135.9779188028111
 10
117.64346513986
 20
-135.6750949096576
 10
117.64346513986
 20
-135.5279893324374
 10
117.5738742110579
 20
-135.3653808255337
 10
117.3454643803859
 20
-135.3653808255337
 10
117.2290201529844
 20
-135.3653808255337
 10
117.1804443066424
 20
-135.4060329522596
 10
117.1487494281781
 20
-135.4397948880151
 10
117.0746798752452
 20
-135.5190320841758
 10
117.0619330219498
 20
-135.6434000311933
 10
117.0619330219498
 20
-135.7023111639911
 10
117.0619330219498
 20
-135.7226372273541
 10
117.064000079241
 20
-135.7608777872403
 10
117.0681341938233
 20
-135.7905056084135
 10
117.0681341938233
 20
-135.7905056084135
 10
116.8734862989066
 20
-135.7905056084135
 10
116.8734862989066
 20
-135.7905056084135
 10
116.8800319803286
 20
-135.7498534816876
 10
116.8820990376198
 20
-135.7043782212822
 10
116.8820990376198
 20
-135.6978325398603
 10
116.8820990376198
 20
-135.6275525919612
 10
116.8607394456112
 20
-135.4149902005213
 10
116.6240613857745
 20
-135.4149902005213
 10
116.4462944587357
 20
-135.4149902005213
 10
116.3911729309717
 20
-135.5552055867709
 10
116.3911729309717
 20
-135.6726833428179
 10
116.3911729309717
 20
-135.9555256821569
 10
116.6240613857745
 20
-135.9644829304186
 10
116.6957193718677
 20
-135.9689615545494
 10
116.6957193718677
 20
-135.9689615545494
 10
116.6957193718677
 20
-136.1860025701202
 10
116.6957193718677
 20
-136.1860025701202
 10
116.5710069153017
 20
-136.1770453218585
 10
116.1944579787639
 20
-136.1477620102339
 10
116.1944579787639
 20
-135.6592474704255
 10
116.1944579787639
 20
-135.4194688246521
 10
116.3215820021696
 20
-135.1617756823554
 10
116.6175157043526
 20
-135.1617756823554
 10
116.8038953701046
 20
-135.1617756823554
 10
116.8862331522021
 20
-135.2637505087188
 10
116.9475558518395
 20
-135.3698594496645
 10
116.9751166157215
 20
-135.3044026354447
 10
117.0553873405278
 20
-135.1097547405281
 10
117.3327175270904
 20
-135.1097547405281
 10
117.671025903742
 20
-135.1097547405281
 10
117.8381130347766
 20
-135.3743380737953
 10
117.8381130347766
 20
-135.6706162855268
 97
        0
 97
        0
 75
     2
 76
     1
 98
        0
  0
ENDBLK
  5
C5
330
C2
100
AcDbEntity
  8
0
100
AcDbBlockEnd
  0
BLOCK
  5
CA
330
C8
100
AcDbEntity
  8
0
100
AcDbBlockBegin
  2
block 3
 70
     0
 10
0.0
 20
0.0
 30
0.0
  3
block 3
  1

  0
SPLINE
  5
CC
330
C8
100
AcDbEntity
  8
_U+30EC_U+30A4_U+30E4_U+30FC 1
370
     0
100
AcDbSpline
210
0.0
220
0.0
230
1.0
 70
    11
 71
     3
 72
    26
 73
    22
 74
     0
 42
0.0000000001
 43
0.0000000001
 12
1.0
 22
0.0
 32
0.0
 13
1.0
 23
0.0
 33
0.0
 40
0.0
 40
0.0
 40
0.0
 40
0.0
 40
1.0
 40
1.0
 40
1.0
 40
2.0
 40
2.0
 40
2.0
 40
3.0
 40
3.0
 40
3.0
 40
4.0
 40
4.0
 40
4.0
 40
5.0
 40
5.0
 40
5.0
 40
6.0
 40
6.0
 40
6.0
 40
7.0
 40
7.0
 40
7.0
 40
7.0
 10
75.64086098369395
 20
-143.5299126160272
 30
0.0
 10
75.64086098369395
 20
-143.5299126160272
 30
0.0
 10
75.64086098369395
 20
-142.4257595130047
 30
0.0
 10
75.64086098369395
 20
-142.4257595130047
 30
0.0
 10
75.64086098369395
 20
-142.4257595130047
 30
0.0
 10
75.2884277155529
 20
-142.4257595130047
 30
0.0
 10
75.2884277155529
 20
-142.4257595130047
 30
0.0
 10
75.2884277155529
 20
-142.4257595130047
 30
0.0
 10
75.2884277155529
 20
-142.2776204071389
 30
0.0
 10
75.2884277155529
 20
-142.2776204071389
 30
0.0
 10
75.64327255053362
 20
-142.2628064965524
 30
0.0
 10
75.69288192552122
 20
-142.0998534801001
 30
0.0
 10
75.72457680398553
 20
-141.9858208195383
 30
0.0
 10
75.72457680398553
 20
-141.9858208195383
 30
0.0
 10
75.88063962946734
 20
-141.9858208195383
 30
0.0
 10
75.88063962946734
 20
-141.9858208195383
 30
0.0
 10
75.88063962946734
 20
-141.9858208195383
 30
0.0
 10
75.88063962946734
 20
-143.5299126160272
 30
0.0
 10
75.88063962946734
 20
-143.5299126160272
 30
0.0
 10
75.88063962946734
 20
-143.5299126160272
 30
0.0
 10
75.64086098369395
 20
-143.5299126160272
 30
0.0
 10
75.64086098369395
 20
-143.5299126160272
 30
0.0
  0
HATCH
  5
CD
330
C8
100
AcDbEntity
  8
_U+30EC_U+30A4_U+30E4_U+30FC 1
 62
   179
420
  2234388
100
AcDbHatch
 10
0.0
 20
0.0
 30
0.0
210
0.0
220
0.0
230
1.0
  2
SOLID
 70
     1
 71
     0
 91
        1
 92
        1
 93
        1
 72
     4
 94
        3
 73
     0
 74
     1
 95
       26
 96
       22
 40
0.0
 40
0.0
 40
0.0
 40
0.0
 40
1.0
 40
1.0
 40
1.0
 40
2.0
 40
2.0
 40
2.0
 40
3.0
 40
3.0
 40
3.0
 40
4.0
 40
4.0
 40
4.0
 40
5.0
 40
5.0
 40
5.0
 40
6.0
 40
6.0
 40
6.0
 40
7.0
 40
7.0
 40
7.0
 40
7.0
 10
75.64086098369395
 20
-143.5299126160272
 10
75.64086098369395
 20
-143.5299126160272
 10
75.64086098369395
 20
-142.4257595130047
 10
75.64086098369395
 20
-142.4257595130047
 10
75.64086098369395
 20
-142.4257595130047
 10
75.2884277155529
 20
-142.4257595130047
 10
75.2884277155529
 20
-142.4257595130047
 10
75.2884277155529
 20
-142.4257595130047
 10
75.2884277155529
 20
-142.2776204071389
 10
75.2884277155529
 20
-142.2776204071389
 10
75.64327255053362
 20
-142.2628064965524
 10
75.69288192552122
 20
-142.0998534801001
 10
75.72457680398553
 20
-141.9858208195383
 10
75.72457680398553
 20
-141.9858208195383
 10
75.88063962946734
 20
-141.9858208195383
 10
75.88063962946734
 20
-141.9858208195383
 10
75.88063962946734
 20
-141.9858208195383
 10
75.88063962946734
 20
-143.5299126160272
 10
75.88063962946734
 20
-143.5299126160272
 10
75.88063962946734
 20
-143.5299126160272
 10
75.64086098369395
 20
-143.5299126160272
 10
75.64086098369395
 20
-143.5299126160272
 97
        0
 97
        0
 75
     2
 76
     1
 98
        0
  0
SPLINE
  5
CE
330
C8
100
AcDbEntity
  8
_U+30EC_U+30A4_U+30E4_U+30FC 1
370
     0
100
AcDbSpline
210
0.0
220
0.0
230
1.0
 70
    11
 71
     3
 72
    29
 73
    25
 74
     0
 42
0.0000000001
 43
0.0000000001
 12
1.0
 22
0.0
 32
0.0
 13
1.0
 23
0.0
 33
0.0
 40
0.0
 40
0.0
 40
0.0
 40
0.0
 40
1.0
 40
1.0
 40
1.0
 40
2.0
 40
2.0
 40
2.0
 40
3.0
 40
3.0
 40
3.0
 40
4.0
 40
4.0
 40
4.0
 40
5.0
 40
5.0
 40
5.0
 40
6.0
 40
6.0
 40
6.0
 40
7.0
 40
7.0
 40
7.0
 40
8.0
 40
8.0
 40
8.0
 40
8.0
 10
77.37581107006578
 20
-143.3521456889884
 30
0.0
 10
77.2604003713099
 20
-143.5616074944915
 30
0.0
 10
77.07505423420346
 20
-143.5809000292089
 30
0.0
 10
76.95068628718595
 20
-143.5809000292089
 30
0.0
 10
76.7791205320205
 20
-143.5809000292089
 30
0.0
 10
76.62753633066951
 20
-143.5343912401581
 30
0.0
 10
76.52590601385464
 20
-143.3521456889884
 30
0.0
 10
76.4149739392296
 20
-143.1574977940717
 30
0.0
 10
76.39464787586662
 20
-142.9208197342351
 30
0.0
 10
76.39464787586662
 20
-142.7578667177828
 30
0.0
 10
76.39464787586662
 20
-142.6138617264993
 30
0.0
 10
76.41290688193844
 20
-142.3623697560761
 30
0.0
 10
76.52590601385464
 20
-142.1632432370286
 30
0.0
 10
76.64097220306198
 20
-141.9603271129474
 30
0.0
 10
76.81288246777595
 20
-141.9369004636477
 30
0.0
 10
76.95068628718595
 20
-141.9369004636477
 30
0.0
 10
77.12052949460876
 20
-141.9369004636477
 30
0.0
 10
77.2741807532509
 20
-141.9813421954074
 30
0.0
 10
77.37581107006578
 20
-142.1632432370286
 30
0.0
 10
77.48226452056
 20
-142.3558240746541
 30
0.0
 10
77.50706920805379
 20
-142.5842339053262
 30
0.0
 10
77.50706920805379
 20
-142.7578667177828
 30
0.0
 10
77.50706920805379
 20
-142.9290879633997
 30
0.0
 10
77.48433157785114
 20
-143.1599093609114
 30
0.0
 10
77.37581107006578
 20
-143.3521456889884
 30
0.0
  0
SPLINE
  5
CF
330
C8
100
AcDbEntity
  8
_U+30EC_U+30A4_U+30E4_U+30FC 1
370
     0
100
AcDbSpline
210
0.0
220
0.0
230
1.0
 70
    11
 71
     3
 72
    17
 73
    13
 74
     0
 42
0.0000000001
 43
0.0000000001
 12
1.0
 22
0.0
 32
0.0
 13
1.0
 23
0.0
 33
0.0
 40
0.0
 40
0.0
 40
0.0
 40
0.0
 40
1.0
 40
1.0
 40
1.0
 40
2.0
 40
2.0
 40
2.0
 40
3.0
 40
3.0
 40
3.0
 40
4.0
 40
4.0
 40
4.0
 40
4.0
 10
76.95068628718595
 20
-142.1294813012732
 30
0.0
 10
76.6840358966276
 20
-142.1294813012732
 30
0.0
 10
76.63442652164001
 20
-142.4130126597093
 30
0.0
 10
76.63442652164001
 20
-142.7578667177828
 30
0.0
 10
76.63442652164001
 20
-143.0772270692654
 30
0.0
 10
76.67266708152628
 20
-143.3862521342923
 30
0.0
 10
76.95068628718595
 20
-143.3862521342923
 30
0.0
 10
77.21526962045313
 20
-143.3862521342923
 30
0.0
 10
77.26729056228041
 20
-143.1047878331474
 30
0.0
 10
77.26729056228041
 20
-142.7578667177828
 30
0.0
 10
77.26729056228041
 20
-142.4385063663001
 30
0.0
 10
77.22663843555445
 20
-142.1294813012732
 30
0.0
 10
76.95068628718595
 20
-142.1294813012732
 30
0.0
  0
HATCH
  5
D0
330
C8
100
AcDbEntity
  8
_U+30EC_U+30A4_U+30E4_U+30FC 1
 62
   179
420
  2234388
100
AcDbHatch
 10
0.0
 20
0.0
 30
0.0
210
0.0
220
0.0
230
1.0
  2
SOLID
 70
     1
 71
     0
 91
        2
 92
        1
 93
        1
 72
     4
 94
        3
 73
     0
 74
     1
 95
       29
 96
       25
 40
0.0
 40
0.0
 40
0.0
 40
0.0
 40
1.0
 40
1.0
 40
1.0
 40
2.0
 40
2.0
 40
2.0
 40
3.0
 40
3.0
 40
3.0
 40
4.0
 40
4.0
 40
4.0
 40
5.0
 40
5.0
 40
5.0
 40
6.0
 40
6.0
 40
6.0
 40
7.0
 40
7.0
 40
7.0
 40
8.0
 40
8.0
 40
8.0
 40
8.0
 10
77.37581107006578
 20
-143.3521456889884
 10
77.2604003713099
 20
-143.5616074944915
 10
77.07505423420346
 20
-143.5809000292089
 10
76.95068628718595
 20
-143.5809000292089
 10
76.7791205320205
 20
-143.5809000292089
 10
76.62753633066951
 20
-143.5343912401581
 10
76.52590601385464
 20
-143.3521456889884
 10
76.4149739392296
 20
-143.1574977940717
 10
76.39464787586662
 20
-142.9208197342351
 10
76.39464787586662
 20
-142.7578667177828
 10
76.39464787586662
 20
-142.6138617264993
 10
76.41290688193844
 20
-142.3623697560761
 10
76.52590601385464
 20
-142.1632432370286
 10
76.64097220306198
 20
-141.9603271129474
 10
76.81288246777595
 20
-141.9369004636477
 10
76.95068628718595
 20
-141.9369004636477
 10
77.12052949460876
 20
-141.9369004636477
 10
77.2741807532509
 20
-141.9813421954074
 10
77.37581107006578
 20
-142.1632432370286
 10
77.48226452056
 20
-142.3558240746541
 10
77.50706920805379
 20
-142.5842339053262
 10
77.50706920805379
 20
-142.7578667177828
 10
77.50706920805379
 20
-142.9290879633997
 10
77.48433157785114
 20
-143.1599093609114
 10
77.37581107006578
 20
-143.3521456889884
 97
        0
 97
        0
 92
        1
 93
        1
 72
     4
 94
        3
 73
     0
 74
     1
 95
       17
 96
       13
 40
0.0
 40
0.0
 40
0.0
 40
0.0
 40
1.0
 40
1.0
 40
1.0
 40
2.0
 40
2.0
 40
2.0
 40
3.0
 40
3.0
 40
3.0
 40
4.0
 40
4.0
 40
4.0
 40
4.0
 10
76.95068628718595
 20
-142.1294813012732
 10
76.6840358966276
 20
-142.1294813012732
 10
76.63442652164001
 20
-142.4130126597093
 10
76.63442652164001
 20
-142.7578667177828
 10
76.63442652164001
 20
-143.0772270692654
 10
76.67266708152628
 20
-143.3862521342923
 10
76.95068628718595
 20
-143.3862521342923
 10
77.21526962045313
 20
-143.3862521342923
 10
77.26729056228041
 20
-143.1047878331474
 10
77.26729056228041
 20
-142.7578667177828
 10
77.26729056228041
 20
-142.4385063663001
 10
77.22663843555445
 20
-142.1294813012732
 10
76.95068628718595
 20
-142.1294813012732
 97
        0
 97
        0
 75
     2
 76
     1
 98
        0
  0
ENDBLK
  5
CB
330
C8
100
AcDbEntity
  8
0
100
AcDbBlockEnd
  0
BLOCK
  5
D3
330
D1
100
AcDbEntity
  8
0
100
AcDbBlockBegin
  2
block 4
 70
     0
 10
0.0
 20
0.0
 30
0.0
  3
block 4
  1

  0
POLYLINE
  5
D5
330
D1
100
AcDbEntity
  8
_U+30EC_U+30A4_U+30E4_U+30FC 1
370
     0
100
AcDb2dPolyline
 66
     1
 10
0.0
 20
0.0
 30
0.0
  0
VERTEX
  5
D6
330
D5
100
AcDbEntity
  8
_U+30EC_U+30A4_U+30E4_U+30FC 1
370
     0
100
AcDbVertex
100
AcDb2dVertex
 10
91.04836152237681
 20
-116.9151719542782
 30
0.0
  0
VERTEX
  5
D7
330
D5
100
AcDbEntity
  8
_U+30EC_U+30A4_U+30E4_U+30FC 1
370
     0
100
AcDbVertex
100
AcDb2dVertex
 10
91.04836152237681
 20
-117.2620930696428
 30
0.0
  0
VERTEX
  5
D8
330
D5
100
AcDbEntity
  8
_U+30EC_U+30A4_U+30E4_U+30FC 1
370
     0
100
AcDbVertex
100
AcDb2dVertex
 10
90.81547306757392
 20
-117.2620930696428
 30
0.0
  0
VERTEX
  5
D9
330
D5
100
AcDbEntity
  8
_U+30EC_U+30A4_U+30E4_U+30FC 1
370
     0
100
AcDbVertex
100
AcDb2dVertex
 10
90.81547306757392
 20
-116.9151719542782
 30
0.0
  0
VERTEX
  5
DA
330
D5
100
AcDbEntity
  8
_U+30EC_U+30A4_U+30E4_U+30FC 1
370
     0
100
AcDbVertex
100
AcDb2dVertex
 10
90.11439613632557
 20
-116.9151719542782
 30
0.0
  0
VERTEX
  5
DB
330
D5
100
AcDbEntity
  8
_U+30EC_U+30A4_U+30E4_U+30FC 1
370
     0
100
AcDbVertex
100
AcDb2dVertex
 10
90.11439613632557
 20
-116.6908962381884
 30
0.0
  0
VERTEX
  5
DC
330
D5
100
AcDbEntity
  8
_U+30EC_U+30A4_U+30E4_U+30FC 1
370
     0
100
AcDbVertex
100
AcDb2dVertex
 10
90.84027775506772
 20
-115.7176567636053
 30
0.0
  0
VERTEX
  5
DD
330
D5
100
AcDbEntity
  8
_U+30EC_U+30A4_U+30E4_U+30FC 1
370
     0
100
AcDbVertex
100
AcDb2dVertex
 10
91.04836152237681
 20
-115.7176567636053
 30
0.0
  0
VERTEX
  5
DE
330
D5
100
AcDbEntity
  8
_U+30EC_U+30A4_U+30E4_U+30FC 1
370
     0
100
AcDbVertex
100
AcDb2dVertex
 10
91.04836152237681
 20
-116.7163899447792
 30
0.0
  0
VERTEX
  5
DF
330
D5
100
AcDbEntity
  8
_U+30EC_U+30A4_U+30E4_U+30FC 1
370
     0
100
AcDbVertex
100
AcDb2dVertex
 10
91.26988116207836
 20
-116.7163899447792
 30
0.0
  0
VERTEX
  5
E0
330
D5
100
AcDbEntity
  8
_U+30EC_U+30A4_U+30E4_U+30FC 1
370
     0
100
AcDbVertex
100
AcDb2dVertex
 10
91.26988116207836
 20
-116.9151719542782
 30
0.0
  0
VERTEX
  5
E1
330
D5
100
AcDbEntity
  8
_U+30EC_U+30A4_U+30E4_U+30FC 1
370
     0
100
AcDbVertex
100
AcDb2dVertex
 10
91.04836152237681
 20
-116.9151719542782
 30
0.0
  0
SEQEND
  5
E2
330
D5
100
AcDbEntity
  8
_U+30EC_U+30A4_U+30E4_U+30FC 1
370
     0
  0
POLYLINE
  5
E3
330
D1
100
AcDbEntity
  8
_U+30EC_U+30A4_U+30E4_U+30FC 1
370
     0
100
AcDb2dPolyline
 66
     1
 10
0.0
 20
0.0
 30
0.0
  0
VERTEX
  5
E4
330
E3
100
AcDbEntity
  8
_U+30EC_U+30A4_U+30E4_U+30FC 1
370
     0
100
AcDbVertex
100
AcDb2dVertex
 10
90.81547306757392
 20
-116.0604437643877
 30
0.0
  0
VERTEX
  5
E5
330
E3
100
AcDbEntity
  8
_U+30EC_U+30A4_U+30E4_U+30FC 1
370
     0
100
AcDbVertex
100
AcDb2dVertex
 10
90.32695852776548
 20
-116.7163899447792
 30
0.0
  0
VERTEX
  5
E6
330
E3
100
AcDbEntity
  8
_U+30EC_U+30A4_U+30E4_U+30FC 1
370
     0
100
AcDbVertex
100
AcDb2dVertex
 10
90.81547306757392
 20
-116.7163899447792
 30
0.0
  0
VERTEX
  5
E7
330
E3
100
AcDbEntity
  8
_U+30EC_U+30A4_U+30E4_U+30FC 1
370
     0
100
AcDbVertex
100
AcDb2dVertex
 10
90.81547306757392
 20
-116.0604437643877
 30
0.0
  0
SEQEND
  5
E8
330
E3
100
AcDbEntity
  8
_U+30EC_U+30A4_U+30E4_U+30FC 1
370
     0
  0
HATCH
  5
E9
330
D1
100
AcDbEntity
  8
_U+30EC_U+30A4_U+30E4_U+30FC 1
 62
   179
420
  2234388
100
AcDbHatch
 10
0.0
 20
0.0
 30
0.0
210
0.0
220
0.0
230
1.0
  2
SOLID
 70
     1
 71
     0
 91
        2
 92
        1
 93
       11
 72
     1
 10
91.04836152237681
 20
-116.9151719542782
 11
91.04836152237681
 21
-117.2620930696428
 72
     1
 10
91.04836152237681
 20
-117.2620930696428
 11
90.81547306757392
 21
-117.2620930696428
 72
     1
 10
90.81547306757392
 20
-117.2620930696428
 11
90.81547306757392
 21
-116.9151719542782
 72
     1
 10
90.81547306757392
 20
-116.9151719542782
 11
90.11439613632557
 21
-116.9151719542782
 72
     1
 10
90.11439613632557
 20
-116.9151719542782
 11
90.11439613632557
 21
-116.6908962381884
 72
     1
 10
90.11439613632557
 20
-116.6908962381884
 11
90.84027775506772
 21
-115.7176567636053
 72
     1
 10
90.84027775506772
 20
-115.7176567636053
 11
91.04836152237681
 21
-115.7176567636053
 72
     1
 10
91.04836152237681
 20
-115.7176567636053
 11
91.04836152237681
 21
-116.7163899447792
 72
     1
 10
91.04836152237681
 20
-116.7163899447792
 11
91.26988116207836
 21
-116.7163899447792
 72
     1
 10
91.26988116207836
 20
-116.7163899447792
 11
91.26988116207836
 21
-116.9151719542782
 72
     1
 10
91.26988116207836
 20
-116.9151719542782
 11
91.04836152237681
 21
-116.9151719542782
 97
        0
 92
        1
 93
        3
 72
     1
 10
90.81547306757392
 20
-116.0604437643877
 11
90.32695852776548
 21
-116.7163899447792
 72
     1
 10
90.32695852776548
 20
-116.7163899447792
 11
90.81547306757392
 21
-116.7163899447792
 72
     1
 10
90.81547306757392
 20
-116.7163899447792
 11
90.81547306757392
 21
-116.0604437643877
 97
        0
 75
     2
 76
     1
 98
        0
  0
SPLINE
  5
EA
330
D1
100
AcDbEntity
  8
_U+30EC_U+30A4_U+30E4_U+30FC 1
370
     0
100
AcDbSpline
210
0.0
220
0.0
230
1.0
 70
    11
 71
     3
 72
    29
 73
    25
 74
     0
 42
0.0000000001
 43
0.0000000001
 12
1.0
 22
0.0
 32
0.0
 13
1.0
 23
0.0
 33
0.0
 40
0.0
 40
0.0
 40
0.0
 40
0.0
 40
1.0
 40
1.0
 40
1.0
 40
2.0
 40
2.0
 40
2.0
 40
3.0
 40
3.0
 40
3.0
 40
4.0
 40
4.0
 40
4.0
 40
5.0
 40
5.0
 40
5.0
 40
6.0
 40
6.0
 40
6.0
 40
7.0
 40
7.0
 40
7.0
 40
8.0
 40
8.0
 40
8.0
 40
8.0
 10
92.37610132239209
 20
-117.0843261426039
 30
0.0
 10
92.26069062363622
 20
-117.2937879481071
 30
0.0
 10
92.07534448652977
 20
-117.312735973276
 30
0.0
 10
91.95097653951225
 20
-117.312735973276
 30
0.0
 10
91.77941078434682
 20
-117.312735973276
 30
0.0
 10
91.62782658299582
 20
-117.2662271842251
 30
0.0
 10
91.52619626618096
 20
-117.0843261426039
 30
0.0
 10
91.4152641915559
 20
-116.8896782476873
 30
0.0
 10
91.39493812819293
 20
-116.6526556783021
 30
0.0
 10
91.39493812819293
 20
-116.4900471713983
 30
0.0
 10
91.39493812819293
 20
-116.3460421801149
 30
0.0
 10
91.41285262471624
 20
-116.0942057001431
 30
0.0
 10
91.52619626618096
 20
-115.8954236906442
 30
0.0
 10
91.6412624553883
 20
-115.692507566563
 30
0.0
 10
91.81317272010227
 20
-115.6690809172633
 30
0.0
 10
91.95097653951225
 20
-115.6690809172633
 30
0.0
 10
92.12081974693508
 20
-115.6690809172633
 30
0.0
 10
92.27447100557723
 20
-115.713522649023
 30
0.0
 10
92.37610132239209
 20
-115.8954236906442
 30
0.0
 10
92.4825547728863
 20
-116.0880045282697
 30
0.0
 10
92.50735946038012
 20
-116.3164143589417
 30
0.0
 10
92.50735946038012
 20
-116.4900471713983
 30
0.0
 10
92.50735946038012
 20
-116.6612684170153
 30
0.0
 10
92.48462183017746
 20
-116.8917453049785
 30
0.0
 10
92.37610132239209
 20
-117.0843261426039
 30
0.0
  0
SPLINE
  5
EB
330
D1
100
AcDbEntity
  8
_U+30EC_U+30A4_U+30E4_U+30FC 1
370
     0
100
AcDbSpline
210
0.0
220
0.0
230
1.0
 70
    11
 71
     3
 72
    17
 73
    13
 74
     0
 42
0.0000000001
 43
0.0000000001
 12
1.0
 22
0.0
 32
0.0
 13
1.0
 23
0.0
 33
0.0
 40
0.0
 40
0.0
 40
0.0
 40
0.0
 40
1.0
 40
1.0
 40
1.0
 40
2.0
 40
2.0
 40
2.0
 40
3.0
 40
3.0
 40
3.0
 40
4.0
 40
4.0
 40
4.0
 40
4.0
 10
91.95097653951225
 20
-115.8616617548888
 30
0.0
 10
91.68432614895393
 20
-115.8616617548888
 30
0.0
 10
91.63471677396633
 20
-116.1451931133248
 30
0.0
 10
91.63471677396633
 20
-116.4900471713983
 30
0.0
 10
91.63471677396633
 20
-116.809407522881
 30
0.0
 10
91.6729573338526
 20
-117.1180880783594
 30
0.0
 10
91.95097653951225
 20
-117.1180880783594
 30
0.0
 10
92.21555987277945
 20
-117.1180880783594
 30
0.0
 10
92.26758081460672
 20
-116.836968286763
 30
0.0
 10
92.26758081460672
 20
-116.4900471713983
 30
0.0
 10
92.26758081460672
 20
-116.1703423103671
 30
0.0
 10
92.22692868788077
 20
-115.8616617548888
 30
0.0
 10
91.95097653951225
 20
-115.8616617548888
 30
0.0
  0
HATCH
  5
EC
330
D1
100
AcDbEntity
  8
_U+30EC_U+30A4_U+30E4_U+30FC 1
 62
   179
420
  2234388
100
AcDbHatch
 10
0.0
 20
0.0
 30
0.0
210
0.0
220
0.0
230
1.0
  2
SOLID
 70
     1
 71
     0
 91
        2
 92
        1
 93
        1
 72
     4
 94
        3
 73
     0
 74
     1
 95
       29
 96
       25
 40
0.0
 40
0.0
 40
0.0
 40
0.0
 40
1.0
 40
1.0
 40
1.0
 40
2.0
 40
2.0
 40
2.0
 40
3.0
 40
3.0
 40
3.0
 40
4.0
 40
4.0
 40
4.0
 40
5.0
 40
5.0
 40
5.0
 40
6.0
 40
6.0
 40
6.0
 40
7.0
 40
7.0
 40
7.0
 40
8.0
 40
8.0
 40
8.0
 40
8.0
 10
92.37610132239209
 20
-117.0843261426039
 10
92.26069062363622
 20
-117.2937879481071
 10
92.07534448652977
 20
-117.312735973276
 10
91.95097653951225
 20
-117.312735973276
 10
91.77941078434682
 20
-117.312735973276
 10
91.62782658299582
 20
-117.2662271842251
 10
91.52619626618096
 20
-117.0843261426039
 10
91.4152641915559
 20
-116.8896782476873
 10
91.39493812819293
 20
-116.6526556783021
 10
91.39493812819293
 20
-116.4900471713983
 10
91.39493812819293
 20
-116.3460421801149
 10
91.41285262471624
 20
-116.0942057001431
 10
91.52619626618096
 20
-115.8954236906442
 10
91.6412624553883
 20
-115.692507566563
 10
91.81317272010227
 20
-115.6690809172633
 10
91.95097653951225
 20
-115.6690809172633
 10
92.12081974693508
 20
-115.6690809172633
 10
92.27447100557723
 20
-115.713522649023
 10
92.37610132239209
 20
-115.8954236906442
 10
92.4825547728863
 20
-116.0880045282697
 10
92.50735946038012
 20
-116.3164143589417
 10
92.50735946038012
 20
-116.4900471713983
 10
92.50735946038012
 20
-116.6612684170153
 10
92.48462183017746
 20
-116.8917453049785
 10
92.37610132239209
 20
-117.0843261426039
 97
        0
 97
        0
 92
        1
 93
        1
 72
     4
 94
        3
 73
     0
 74
     1
 95
       17
 96
       13
 40
0.0
 40
0.0
 40
0.0
 40
0.0
 40
1.0
 40
1.0
 40
1.0
 40
2.0
 40
2.0
 40
2.0
 40
3.0
 40
3.0
 40
3.0
 40
4.0
 40
4.0
 40
4.0
 40
4.0
 10
91.95097653951225
 20
-115.8616617548888
 10
91.68432614895393
 20
-115.8616617548888
 10
91.63471677396633
 20
-116.1451931133248
 10
91.63471677396633
 20
-116.4900471713983
 10
91.63471677396633
 20
-116.809407522881
 10
91.6729573338526
 20
-117.1180880783594
 10
91.95097653951225
 20
-117.1180880783594
 10
92.21555987277945
 20
-117.1180880783594
 10
92.26758081460672
 20
-116.836968286763
 10
92.26758081460672
 20
-116.4900471713983
 10
92.26758081460672
 20
-116.1703423103671
 10
92.22692868788077
 20
-115.8616617548888
 10
91.95097653951225
 20
-115.8616617548888
 97
        0
 97
        0
 75
     2
 76
     1
 98
        0
  0
ENDBLK
  5
D4
330
D1
100
AcDbEntity
  8
0
100
AcDbBlockEnd
  0
BLOCK
  5
EF
330
ED
100
AcDbEntity
  8
0
100
AcDbBlockBegin
  2
block 5
 70
     0
 10
0.0
 20
0.0
 30
0.0
  3
block 5
  1

  0
SPLINE
  5
F1
330
ED
100
AcDbEntity
  8
_U+30EC_U+30A4_U+30E4_U+30FC 1
370
     0
100
AcDbSpline
210
0.0
220
0.0
230
1.0
 70
    11
 71
     3
 72
    26
 73
    22
 74
     0
 42
0.0000000001
 43
0.0000000001
 12
1.0
 22
0.0
 32
0.0
 13
1.0
 23
0.0
 33
0.0
 40
0.0
 40
0.0
 40
0.0
 40
0.0
 40
1.0
 40
1.0
 40
1.0
 40
2.0
 40
2.0
 40
2.0
 40
3.0
 40
3.0
 40
3.0
 40
4.0
 40
4.0
 40
4.0
 40
5.0
 40
5.0
 40
5.0
 40
6.0
 40
6.0
 40
6.0
 40
7.0
 40
7.0
 40
7.0
 40
7.0
 10
71.77029620601576
 20
-114.6729315577033
 30
0.0
 10
71.77029620601576
 20
-114.6729315577033
 30
0.0
 10
71.77029620601576
 20
-113.5686061999065
 30
0.0
 10
71.77029620601576
 20
-113.5686061999065
 30
0.0
 10
71.77029620601576
 20
-113.5686061999065
 30
0.0
 10
71.41751842832618
 20
-113.5686061999065
 30
0.0
 10
71.41751842832618
 20
-113.5686061999065
 30
0.0
 10
71.41751842832618
 20
-113.5686061999065
 30
0.0
 10
71.41751842832618
 20
-113.4204670940407
 30
0.0
 10
71.41751842832618
 20
-113.4204670940407
 30
0.0
 10
71.77253551808117
 20
-113.4058254382284
 30
0.0
 10
71.82231714784304
 20
-113.2428724217761
 30
0.0
 10
71.85401202630733
 20
-113.1286675064401
 30
0.0
 10
71.85401202630733
 20
-113.1286675064401
 30
0.0
 10
72.00990259701489
 20
-113.1286675064401
 30
0.0
 10
72.00990259701489
 20
-113.1286675064401
 30
0.0
 10
72.00990259701489
 20
-113.1286675064401
 30
0.0
 10
72.00990259701489
 20
-114.6729315577033
 30
0.0
 10
72.00990259701489
 20
-114.6729315577033
 30
0.0
 10
72.00990259701489
 20
-114.6729315577033
 30
0.0
 10
71.77029620601576
 20
-114.6729315577033
 30
0.0
 10
71.77029620601576
 20
-114.6729315577033
 30
0.0
  0
HATCH
  5
F2
330
ED
100
AcDbEntity
  8
_U+30EC_U+30A4_U+30E4_U+30FC 1
 62
   179
420
  2234388
100
AcDbHatch
 10
0.0
 20
0.0
 30
0.0
210
0.0
220
0.0
230
1.0
  2
SOLID
 70
     1
 71
     0
 91
        1
 92
        1
 93
        1
 72
     4
 94
        3
 73
     0
 74
     1
 95
       26
 96
       22
 40
0.0
 40
0.0
 40
0.0
 40
0.0
 40
1.0
 40
1.0
 40
1.0
 40
2.0
 40
2.0
 40
2.0
 40
3.0
 40
3.0
 40
3.0
 40
4.0
 40
4.0
 40
4.0
 40
5.0
 40
5.0
 40
5.0
 40
6.0
 40
6.0
 40
6.0
 40
7.0
 40
7.0
 40
7.0
 40
7.0
 10
71.77029620601576
 20
-114.6729315577033
 10
71.77029620601576
 20
-114.6729315577033
 10
71.77029620601576
 20
-113.5686061999065
 10
71.77029620601576
 20
-113.5686061999065
 10
71.77029620601576
 20
-113.5686061999065
 10
71.41751842832618
 20
-113.5686061999065
 10
71.41751842832618
 20
-113.5686061999065
 10
71.41751842832618
 20
-113.5686061999065
 10
71.41751842832618
 20
-113.4204670940407
 10
71.41751842832618
 20
-113.4204670940407
 10
71.77253551808117
 20
-113.4058254382284
 10
71.82231714784304
 20
-113.2428724217761
 10
71.85401202630733
 20
-113.1286675064401
 10
71.85401202630733
 20
-113.1286675064401
 10
72.00990259701489
 20
-113.1286675064401
 10
72.00990259701489
 20
-113.1286675064401
 10
72.00990259701489
 20
-113.1286675064401
 10
72.00990259701489
 20
-114.6729315577033
 10
72.00990259701489
 20
-114.6729315577033
 10
72.00990259701489
 20
-114.6729315577033
 10
71.77029620601576
 20
-114.6729315577033
 10
71.77029620601576
 20
-114.6729315577033
 97
        0
 97
        0
 75
     2
 76
     1
 98
        0
  0
ENDBLK
  5
F0
330
ED
100
AcDbEntity
  8
0
100
AcDbBlockEnd
  0
BLOCK
  5
F5
330
F3
100
AcDbEntity
  8
0
100
AcDbBlockBegin
  2
block 6
 70
     0
 10
0.0
 20
0.0
 30
0.0
  3
block 6
  1

  0
SPLINE
  5
F7
330
F3
100
AcDbEntity
  8
_U+30EC_U+30A4_U+30E4_U+30FC 1
370
     0
100
AcDbSpline
210
0.0
220
0.0
230
1.0
 70
    11
 71
     3
 72
    32
 73
    28
 74
     0
 42
0.0000000001
 43
0.0000000001
 12
1.0
 22
0.0
 32
0.0
 13
1.0
 23
0.0
 33
0.0
 40
0.0
 40
0.0
 40
0.0
 40
0.0
 40
1.0
 40
1.0
 40
1.0
 40
2.0
 40
2.0
 40
2.0
 40
3.0
 40
3.0
 40
3.0
 40
4.0
 40
4.0
 40
4.0
 40
5.0
 40
5.0
 40
5.0
 40
6.0
 40
6.0
 40
6.0
 40
7.0
 40
7.0
 40
7.0
 40
8.0
 40
8.0
 40
8.0
 40
9.0
 40
9.0
 40
9.0
 40
9.0
 10
117.8381130347766
 20
-131.7235703880761
 30
0.0
 10
117.8381130347766
 20
-132.2751301752646
 30
0.0
 10
117.2834526616514
 20
-132.2840874235262
 30
0.0
 10
117.0698567415659
 20
-132.2840874235262
 30
0.0
 10
116.8393798536027
 20
-132.2840874235262
 30
0.0
 10
116.1920464119242
 20
-132.2641058697118
 30
0.0
 10
116.1920464119242
 20
-131.6829182613501
 30
0.0
 10
116.1920464119242
 20
-131.4975721242437
 30
0.0
 10
116.2616373407263
 20
-131.2354003578162
 30
0.0
 10
116.5937445455044
 20
-131.1947482310902
 30
0.0
 10
116.5937445455044
 20
-131.1947482310902
 30
0.0
 10
116.5937445455044
 20
-131.4228135522137
 30
0.0
 10
116.5937445455044
 20
-131.4228135522137
 30
0.0
 10
116.5369004699977
 20
-131.4341823673151
 30
0.0
 10
116.388761364132
 20
-131.4682888126191
 30
0.0
 10
116.388761364132
 20
-131.6853298281898
 30
0.0
 10
116.388761364132
 20
-131.9971109696049
 30
0.0
 10
116.7167344543278
 20
-132.0401746631705
 30
0.0
 10
116.9217176357001
 20
-132.053610535563
 30
0.0
 10
116.8438584777335
 20
-131.9540472760393
 30
0.0
 10
116.7846028353872
 20
-131.881700270849
 30
0.0
 10
116.7846028353872
 20
-131.6873968854809
 30
0.0
 10
116.7846028353872
 20
-131.495160557404
 30
0.0
 10
116.892089814527
 20
-131.1720106008875
 30
0.0
 10
117.2986110817865
 20
-131.1720106008875
 30
0.0
 10
117.6176269237206
 20
-131.1720106008875
 30
0.0
 10
117.8381130347766
 20
-131.384228482779
 30
0.0
 10
117.8381130347766
 20
-131.7235703880761
 30
0.0
  0
SPLINE
  5
F8
330
F3
100
AcDbEntity
  8
_U+30EC_U+30A4_U+30E4_U+30FC 1
370
     0
100
AcDbSpline
210
0.0
220
0.0
230
1.0
 70
    11
 71
     3
 72
    17
 73
    13
 74
     0
 42
0.0000000001
 43
0.0000000001
 12
1.0
 22
0.0
 32
0.0
 13
1.0
 23
0.0
 33
0.0
 40
0.0
 40
0.0
 40
0.0
 40
0.0
 40
1.0
 40
1.0
 40
1.0
 40
2.0
 40
2.0
 40
2.0
 40
3.0
 40
3.0
 40
3.0
 40
4.0
 40
4.0
 40
4.0
 40
4.0
 10
116.9789062207553
 20
-131.7053113820042
 30
0.0
 10
116.9789062207553
 20
-131.9857421545036
 30
0.0
 10
117.1904350835496
 20
-132.0263942812295
 30
0.0
 10
117.3068793109511
 20
-132.0263942812295
 30
0.0
 10
117.4825791806988
 20
-132.0263942812295
 30
0.0
 10
117.6451876876026
 20
-131.9247639644146
 30
0.0
 10
117.6451876876026
 20
-131.7280490122069
 30
0.0
 10
117.6451876876026
 20
-131.5992024410585
 30
0.0
 10
117.5859320452563
 20
-131.411789246661
 30
0.0
 10
117.3006781390776
 20
-131.411789246661
 30
0.0
 10
117.0760579134393
 20
-131.411789246661
 30
0.0
 10
116.9789062207553
 20
-131.5606173716237
 30
0.0
 10
116.9789062207553
 20
-131.7053113820042
 30
0.0
  0
HATCH
  5
F9
330
F3
100
AcDbEntity
  8
_U+30EC_U+30A4_U+30E4_U+30FC 1
 62
   179
420
  2234388
100
AcDbHatch
 10
0.0
 20
0.0
 30
0.0
210
0.0
220
0.0
230
1.0
  2
SOLID
 70
     1
 71
     0
 91
        2
 92
        1
 93
        1
 72
     4
 94
        3
 73
     0
 74
     1
 95
       32
 96
       28
 40
0.0
 40
0.0
 40
0.0
 40
0.0
 40
1.0
 40
1.0
 40
1.0
 40
2.0
 40
2.0
 40
2.0
 40
3.0
 40
3.0
 40
3.0
 40
4.0
 40
4.0
 40
4.0
 40
5.0
 40
5.0
 40
5.0
 40
6.0
 40
6.0
 40
6.0
 40
7.0
 40
7.0
 40
7.0
 40
8.0
 40
8.0
 40
8.0
 40
9.0
 40
9.0
 40
9.0
 40
9.0
 10
117.8381130347766
 20
-131.7235703880761
 10
117.8381130347766
 20
-132.2751301752646
 10
117.2834526616514
 20
-132.2840874235262
 10
117.0698567415659
 20
-132.2840874235262
 10
116.8393798536027
 20
-132.2840874235262
 10
116.1920464119242
 20
-132.2641058697118
 10
116.1920464119242
 20
-131.6829182613501
 10
116.1920464119242
 20
-131.4975721242437
 10
116.2616373407263
 20
-131.2354003578162
 10
116.5937445455044
 20
-131.1947482310902
 10
116.5937445455044
 20
-131.1947482310902
 10
116.5937445455044
 20
-131.4228135522137
 10
116.5937445455044
 20
-131.4228135522137
 10
116.5369004699977
 20
-131.4341823673151
 10
116.388761364132
 20
-131.4682888126191
 10
116.388761364132
 20
-131.6853298281898
 10
116.388761364132
 20
-131.9971109696049
 10
116.7167344543278
 20
-132.0401746631705
 10
116.9217176357001
 20
-132.053610535563
 10
116.8438584777335
 20
-131.9540472760393
 10
116.7846028353872
 20
-131.881700270849
 10
116.7846028353872
 20
-131.6873968854809
 10
116.7846028353872
 20
-131.495160557404
 10
116.892089814527
 20
-131.1720106008875
 10
117.2986110817865
 20
-131.1720106008875
 10
117.6176269237206
 20
-131.1720106008875
 10
117.8381130347766
 20
-131.384228482779
 10
117.8381130347766
 20
-131.7235703880761
 97
        0
 97
        0
 92
        1
 93
        1
 72
     4
 94
        3
 73
     0
 74
     1
 95
       17
 96
       13
 40
0.0
 40
0.0
 40
0.0
 40
0.0
 40
1.0
 40
1.0
 40
1.0
 40
2.0
 40
2.0
 40
2.0
 40
3.0
 40
3.0
 40
3.0
 40
4.0
 40
4.0
 40
4.0
 40
4.0
 10
116.9789062207553
 20
-131.7053113820042
 10
116.9789062207553
 20
-131.9857421545036
 10
117.1904350835496
 20
-132.0263942812295
 10
117.3068793109511
 20
-132.0263942812295
 10
117.4825791806988
 20
-132.0263942812295
 10
117.6451876876026
 20
-131.9247639644146
 10
117.6451876876026
 20
-131.7280490122069
 10
117.6451876876026
 20
-131.5992024410585
 10
117.5859320452563
 20
-131.411789246661
 10
117.3006781390776
 20
-131.411789246661
 10
117.0760579134393
 20
-131.411789246661
 10
116.9789062207553
 20
-131.5606173716237
 10
116.9789062207553
 20
-131.7053113820042
 97
        0
 97
        0
 75
     2
 76
     1
 98
        0
  0
POLYLINE
  5
FA
330
F3
100
AcDbEntity
  8
_U+30EC_U+30A4_U+30E4_U+30FC 1
370
     0
100
AcDb2dPolyline
 66
     1
 10
0.0
 20
0.0
 30
0.0
  0
VERTEX
  5
FB
330
FA
100
AcDbEntity
  8
_U+30EC_U+30A4_U+30E4_U+30FC 1
370
     0
100
AcDbVertex
100
AcDb2dVertex
 10
117.7871256215949
 20
-130.9405001842788
 30
0.0
  0
VERTEX
  5
FC
330
FA
100
AcDbEntity
  8
_U+30EC_U+30A4_U+30E4_U+30FC 1
370
     0
100
AcDbVertex
100
AcDb2dVertex
 10
117.5356336511717
 20
-130.9405001842788
 30
0.0
  0
VERTEX
  5
FD
330
FA
100
AcDbEntity
  8
_U+30EC_U+30A4_U+30E4_U+30FC 1
370
     0
100
AcDbVertex
100
AcDb2dVertex
 10
117.5356336511717
 20
-130.6714382268808
 30
0.0
  0
VERTEX
  5
FE
330
FA
100
AcDbEntity
  8
_U+30EC_U+30A4_U+30E4_U+30FC 1
370
     0
100
AcDbVertex
100
AcDb2dVertex
 10
117.7871256215949
 20
-130.6714382268808
 30
0.0
  0
VERTEX
  5
FF
330
FA
100
AcDbEntity
  8
_U+30EC_U+30A4_U+30E4_U+30FC 1
370
     0
100
AcDbVertex
100
AcDb2dVertex
 10
117.7871256215949
 20
-130.9405001842788
 30
0.0
  0
SEQEND
  5
100
330
FA
100
AcDbEntity
  8
_U+30EC_U+30A4_U+30E4_U+30FC 1
370
     0
  0
HATCH
  5
101
330
F3
100
AcDbEntity
  8
_U+30EC_U+30A4_U+30E4_U+30FC 1
 62
   179
420
  2234388
100
AcDbHatch
 10
0.0
 20
0.0
 30
0.0
210
0.0
220
0.0
230
1.0
  2
SOLID
 70
     1
 71
     0
 91
        1
 92
        1
 93
        4
 72
     1
 10
117.7871256215949
 20
-130.9405001842788
 11
117.5356336511717
 21
-130.9405001842788
 72
     1
 10
117.5356336511717
 20
-130.9405001842788
 11
117.5356336511717
 21
-130.6714382268808
 72
     1
 10
117.5356336511717
 20
-130.6714382268808
 11
117.7871256215949
 21
-130.6714382268808
 72
     1
 10
117.7871256215949
 20
-130.6714382268808
 11
117.7871256215949
 21
-130.9405001842788
 97
        0
 75
     2
 76
     1
 98
        0
  0
SPLINE
  5
102
330
F3
100
AcDbEntity
  8
_U+30EC_U+30A4_U+30E4_U+30FC 1
370
     0
100
AcDbSpline
210
0.0
220
0.0
230
1.0
 70
    11
 71
     3
 72
    53
 73
    49
 74
     0
 42
0.0000000001
 43
0.0000000001
 12
1.0
 22
0.0
 32
0.0
 13
1.0
 23
0.0
 33
0.0
 40
0.0
 40
0.0
 40
0.0
 40
0.0
 40
1.0
 40
1.0
 40
1.0
 40
2.0
 40
2.0
 40
2.0
 40
3.0
 40
3.0
 40
3.0
 40
4.0
 40
4.0
 40
4.0
 40
5.0
 40
5.0
 40
5.0
 40
6.0
 40
6.0
 40
6.0
 40
7.0
 40
7.0
 40
7.0
 40
8.0
 40
8.0
 40
8.0
 40
9.0
 40
9.0
 40
9.0
 40
10.0
 40
10.0
 40
10.0
 40
11.0
 40
11.0
 40
11.0
 40
12.0
 40
12.0
 40
12.0
 40
13.0
 40
13.0
 40
13.0
 40
14.0
 40
14.0
 40
14.0
 40
15.0
 40
15.0
 40
15.0
 40
16.0
 40
16.0
 40
16.0
 40
16.0
 10
117.8381130347766
 20
-129.9045599718641
 30
0.0
 10
117.8381130347766
 20
-129.9882757921557
 30
0.0
 10
117.8208875573503
 20
-130.0967962999411
 30
0.0
 10
117.7574978004217
 20
-130.2053168077265
 30
0.0
 10
117.6472547448937
 20
-130.3906629448329
 30
0.0
 10
117.5163411164543
 20
-130.4134005750356
 30
0.0
 10
117.4085096277659
 20
-130.4337266383985
 30
0.0
 10
117.4085096277659
 20
-130.4337266383985
 30
0.0
 10
117.4085096277659
 20
-130.1963595594648
 30
0.0
 10
117.4085096277659
 20
-130.1963595594648
 30
0.0
 10
117.6072916372649
 20
-130.137448426667
 30
0.0
 10
117.636919458438
 20
-130.0020561740967
 30
0.0
 10
117.636919458438
 20
-129.9021484050245
 30
0.0
 10
117.636919458438
 20
-129.7533202800617
 30
0.0
 10
117.5377007084628
 20
-129.5903672636094
 30
0.0
 10
117.3048122536599
 20
-129.5903672636094
 30
0.0
 10
117.0488416591058
 20
-129.5903672636094
 30
0.0
 10
116.9789062207553
 20
-129.7826035916863
 30
0.0
 10
116.9789062207553
 20
-129.9114501628347
 30
0.0
 10
116.9789062207553
 20
-129.9455566081386
 30
0.0
 10
116.9789062207553
 20
-130.0967962999411
 30
0.0
 10
117.1080973014521
 20
-130.1915364257854
 30
0.0
 10
117.1080973014521
 20
-130.1915364257854
 30
0.0
 10
117.0891492762833
 20
-130.3796386392801
 30
0.0
 10
117.0891492762833
 20
-130.3796386392801
 30
0.0
 10
117.0891492762833
 20
-130.3796386392801
 30
0.0
 10
116.2430338251059
 20
-130.2504475585832
 30
0.0
 10
116.2430338251059
 20
-130.2504475585832
 30
0.0
 10
116.2430338251059
 20
-130.2504475585832
 30
0.0
 10
116.2430338251059
 20
-129.4184569988954
 30
0.0
 10
116.2430338251059
 20
-129.4184569988954
 30
0.0
 10
116.2430338251059
 20
-129.4184569988954
 30
0.0
 10
116.437337210474
 20
-129.4184569988954
 30
0.0
 10
116.437337210474
 20
-129.4184569988954
 30
0.0
 10
116.437337210474
 20
-129.4184569988954
 30
0.0
 10
116.437337210474
 20
-130.0764702365781
 30
0.0
 10
116.437337210474
 20
-130.0764702365781
 30
0.0
 10
116.437337210474
 20
-130.0764702365781
 30
0.0
 10
116.8603949360627
 20
-130.1467501844772
 30
0.0
 10
116.8603949360627
 20
-130.1467501844772
 30
0.0
 10
116.8266330003072
 20
-130.0809488607089
 30
0.0
 10
116.7866698926783
 20
-129.9927544162865
 30
0.0
 10
116.7866698926783
 20
-129.8663194119779
 30
0.0
 10
116.7866698926783
 20
-129.5948458877402
 30
0.0
 10
116.9727050488818
 20
-129.3416313695743
 30
0.0
 10
117.2855197189425
 20
-129.3416313695743
 30
0.0
 10
117.6031575226826
 20
-129.3416313695743
 30
0.0
 10
117.8381130347766
 20
-129.5814100153477
 30
0.0
 10
117.8381130347766
 20
-129.9045599718641
 30
0.0
  0
HATCH
  5
103
330
F3
100
AcDbEntity
  8
_U+30EC_U+30A4_U+30E4_U+30FC 1
 62
   179
420
  2234388
100
AcDbHatch
 10
0.0
 20
0.0
 30
0.0
210
0.0
220
0.0
230
1.0
  2
SOLID
 70
     1
 71
     0
 91
        1
 92
        1
 93
        1
 72
     4
 94
        3
 73
     0
 74
     1
 95
       53
 96
       49
 40
0.0
 40
0.0
 40
0.0
 40
0.0
 40
1.0
 40
1.0
 40
1.0
 40
2.0
 40
2.0
 40
2.0
 40
3.0
 40
3.0
 40
3.0
 40
4.0
 40
4.0
 40
4.0
 40
5.0
 40
5.0
 40
5.0
 40
6.0
 40
6.0
 40
6.0
 40
7.0
 40
7.0
 40
7.0
 40
8.0
 40
8.0
 40
8.0
 40
9.0
 40
9.0
 40
9.0
 40
10.0
 40
10.0
 40
10.0
 40
11.0
 40
11.0
 40
11.0
 40
12.0
 40
12.0
 40
12.0
 40
13.0
 40
13.0
 40
13.0
 40
14.0
 40
14.0
 40
14.0
 40
15.0
 40
15.0
 40
15.0
 40
16.0
 40
16.0
 40
16.0
 40
16.0
 10
117.8381130347766
 20
-129.9045599718641
 10
117.8381130347766
 20
-129.9882757921557
 10
117.8208875573503
 20
-130.0967962999411
 10
117.7574978004217
 20
-130.2053168077265
 10
117.6472547448937
 20
-130.3906629448329
 10
117.5163411164543
 20
-130.4134005750356
 10
117.4085096277659
 20
-130.4337266383985
 10
117.4085096277659
 20
-130.4337266383985
 10
117.4085096277659
 20
-130.1963595594648
 10
117.4085096277659
 20
-130.1963595594648
 10
117.6072916372649
 20
-130.137448426667
 10
117.636919458438
 20
-130.0020561740967
 10
117.636919458438
 20
-129.9021484050245
 10
117.636919458438
 20
-129.7533202800617
 10
117.5377007084628
 20
-129.5903672636094
 10
117.3048122536599
 20
-129.5903672636094
 10
117.0488416591058
 20
-129.5903672636094
 10
116.9789062207553
 20
-129.7826035916863
 10
116.9789062207553
 20
-129.9114501628347
 10
116.9789062207553
 20
-129.9455566081386
 10
116.9789062207553
 20
-130.0967962999411
 10
117.1080973014521
 20
-130.1915364257854
 10
117.1080973014521
 20
-130.1915364257854
 10
117.0891492762833
 20
-130.3796386392801
 10
117.0891492762833
 20
-130.3796386392801
 10
117.0891492762833
 20
-130.3796386392801
 10
116.2430338251059
 20
-130.2504475585832
 10
116.2430338251059
 20
-130.2504475585832
 10
116.2430338251059
 20
-130.2504475585832
 10
116.2430338251059
 20
-129.4184569988954
 10
116.2430338251059
 20
-129.4184569988954
 10
116.2430338251059
 20
-129.4184569988954
 10
116.437337210474
 20
-129.4184569988954
 10
116.437337210474
 20
-129.4184569988954
 10
116.437337210474
 20
-129.4184569988954
 10
116.437337210474
 20
-130.0764702365781
 10
116.437337210474
 20
-130.0764702365781
 10
116.437337210474
 20
-130.0764702365781
 10
116.8603949360627
 20
-130.1467501844772
 10
116.8603949360627
 20
-130.1467501844772
 10
116.8266330003072
 20
-130.0809488607089
 10
116.7866698926783
 20
-129.9927544162865
 10
116.7866698926783
 20
-129.8663194119779
 10
116.7866698926783
 20
-129.5948458877402
 10
116.9727050488818
 20
-129.3416313695743
 10
117.2855197189425
 20
-129.3416313695743
 10
117.6031575226826
 20
-129.3416313695743
 10
117.8381130347766
 20
-129.5814100153477
 10
117.8381130347766
 20
-129.9045599718641
 97
        0
 97
        0
 75
     2
 76
     1
 98
        0
  0
ENDBLK
  5
F6
330
F3
100
AcDbEntity
  8
0
100
AcDbBlockEnd
  0
BLOCK
  5
106
330
104
100
AcDbEntity
  8
0
100
AcDbBlockBegin
  2
block 7
 70
     0
 10
0.0
 20
0.0
 30
0.0
  3
block 7
  1

  0
SPLINE
  5
108
330
104
100
AcDbEntity
  8
_U+30EC_U+30A4_U+30E4_U+30FC 1
370
     0
100
AcDbSpline
210
0.0
220
0.0
230
1.0
 70
    11
 71
     3
 72
    26
 73
    22
 74
     0
 42
0.0000000001
 43
0.0000000001
 12
1.0
 22
0.0
 32
0.0
 13
1.0
 23
0.0
 33
0.0
 40
0.0
 40
0.0
 40
0.0
 40
0.0
 40
1.0
 40
1.0
 40
1.0
 40
2.0
 40
2.0
 40
2.0
 40
3.0
 40
3.0
 40
3.0
 40
4.0
 40
4.0
 40
4.0
 40
5.0
 40
5.0
 40
5.0
 40
6.0
 40
6.0
 40
6.0
 40
7.0
 40
7.0
 40
7.0
 40
7.0
 10
66.02456595571608
 20
-130.3844617729594
 30
0.0
 10
66.02456595571608
 20
-130.3844617729594
 30
0.0
 10
64.92041285269352
 20
-130.3844617729594
 30
0.0
 10
64.92041285269352
 20
-130.3844617729594
 30
0.0
 10
64.92041285269352
 20
-130.3844617729594
 30
0.0
 10
64.92041285269352
 20
-130.7368950411005
 30
0.0
 10
64.92041285269352
 20
-130.7368950411005
 30
0.0
 10
64.92041285269352
 20
-130.7368950411005
 30
0.0
 10
64.77227374682776
 20
-130.7368950411005
 30
0.0
 10
64.77227374682776
 20
-130.7368950411005
 30
0.0
 10
64.7574598362412
 20
-130.3820502061198
 30
0.0
 10
64.59450681978888
 20
-130.3324408311322
 30
0.0
 10
64.48012964967859
 20
-130.3007459526679
 30
0.0
 10
64.48012964967859
 20
-130.3007459526679
 30
0.0
 10
64.48012964967859
 20
-130.1446831271861
 30
0.0
 10
64.48012964967859
 20
-130.1446831271861
 30
0.0
 10
64.48012964967859
 20
-130.1446831271861
 30
0.0
 10
66.02456595571608
 20
-130.1446831271861
 30
0.0
 10
66.02456595571608
 20
-130.1446831271861
 30
0.0
 10
66.02456595571608
 20
-130.1446831271861
 30
0.0
 10
66.02456595571608
 20
-130.3844617729594
 30
0.0
 10
66.02456595571608
 20
-130.3844617729594
 30
0.0
  0
HATCH
  5
109
330
104
100
AcDbEntity
  8
_U+30EC_U+30A4_U+30E4_U+30FC 1
 62
   179
420
  2234388
100
AcDbHatch
 10
0.0
 20
0.0
 30
0.0
210
0.0
220
0.0
230
1.0
  2
SOLID
 70
     1
 71
     0
 91
        1
 92
        1
 93
        1
 72
     4
 94
        3
 73
     0
 74
     1
 95
       26
 96
       22
 40
0.0
 40
0.0
 40
0.0
 40
0.0
 40
1.0
 40
1.0
 40
1.0
 40
2.0
 40
2.0
 40
2.0
 40
3.0
 40
3.0
 40
3.0
 40
4.0
 40
4.0
 40
4.0
 40
5.0
 40
5.0
 40
5.0
 40
6.0
 40
6.0
 40
6.0
 40
7.0
 40
7.0
 40
7.0
 40
7.0
 10
66.02456595571608
 20
-130.3844617729594
 10
66.02456595571608
 20
-130.3844617729594
 10
64.92041285269352
 20
-130.3844617729594
 10
64.92041285269352
 20
-130.3844617729594
 10
64.92041285269352
 20
-130.3844617729594
 10
64.92041285269352
 20
-130.7368950411005
 10
64.92041285269352
 20
-130.7368950411005
 10
64.92041285269352
 20
-130.7368950411005
 10
64.77227374682776
 20
-130.7368950411005
 10
64.77227374682776
 20
-130.7368950411005
 10
64.7574598362412
 20
-130.3820502061198
 10
64.59450681978888
 20
-130.3324408311322
 10
64.48012964967859
 20
-130.3007459526679
 10
64.48012964967859
 20
-130.3007459526679
 10
64.48012964967859
 20
-130.1446831271861
 10
64.48012964967859
 20
-130.1446831271861
 10
64.48012964967859
 20
-130.1446831271861
 10
66.02456595571608
 20
-130.1446831271861
 10
66.02456595571608
 20
-130.1446831271861
 10
66.02456595571608
 20
-130.1446831271861
 10
66.02456595571608
 20
-130.3844617729594
 10
66.02456595571608
 20
-130.3844617729594
 97
        0
 97
        0
 75
     2
 76
     1
 98
        0
  0
SPLINE
  5
10A
330
104
100
AcDbEntity
  8
_U+30EC_U+30A4_U+30E4_U+30FC 1
370
     0
100
AcDbSpline
210
0.0
220
0.0
230
1.0
 70
    11
 71
     3
 72
    53
 73
    49
 74
     0
 42
0.0000000001
 43
0.0000000001
 12
1.0
 22
0.0
 32
0.0
 13
1.0
 23
0.0
 33
0.0
 40
0.0
 40
0.0
 40
0.0
 40
0.0
 40
1.0
 40
1.0
 40
1.0
 40
2.0
 40
2.0
 40
2.0
 40
3.0
 40
3.0
 40
3.0
 40
4.0
 40
4.0
 40
4.0
 40
5.0
 40
5.0
 40
5.0
 40
6.0
 40
6.0
 40
6.0
 40
7.0
 40
7.0
 40
7.0
 40
8.0
 40
8.0
 40
8.0
 40
9.0
 40
9.0
 40
9.0
 40
10.0
 40
10.0
 40
10.0
 40
11.0
 40
11.0
 40
11.0
 40
12.0
 40
12.0
 40
12.0
 40
13.0
 40
13.0
 40
13.0
 40
14.0
 40
14.0
 40
14.0
 40
15.0
 40
15.0
 40
15.0
 40
16.0
 40
16.0
 40
16.0
 40
16.0
 10
66.07520885934926
 20
-129.0949625328304
 30
0.0
 10
66.07520885934926
 20
-129.178678353122
 30
0.0
 10
66.05832789147154
 20
-129.2868543513588
 30
0.0
 10
65.99493813454293
 20
-129.3957193686927
 30
0.0
 10
65.88503958856346
 20
-129.5810655057992
 30
0.0
 10
65.75378145057545
 20
-129.6034586264533
 30
0.0
 10
65.64594996188713
 20
-129.6237846898163
 30
0.0
 10
65.64594996188713
 20
-129.6237846898163
 30
0.0
 10
65.64594996188713
 20
-129.3864176108826
 30
0.0
 10
65.64594996188713
 20
-129.3864176108826
 30
0.0
 10
65.84473197138604
 20
-129.3278509876333
 30
0.0
 10
65.87435979255919
 20
-129.1921142255145
 30
0.0
 10
65.87435979255919
 20
-129.0925509659908
 30
0.0
 10
65.87435979255919
 20
-128.9433783314794
 30
0.0
 10
65.77479653303547
 20
-128.7804253150271
 30
0.0
 10
65.5422525877811
 20
-128.7804253150271
 30
0.0
 10
65.28628199322705
 20
-128.7804253150271
 30
0.0
 10
65.21634655487647
 20
-128.9726616431041
 30
0.0
 10
65.21634655487647
 20
-129.1015082142524
 30
0.0
 10
65.21634655487647
 20
-129.1356146595564
 30
0.0
 10
65.21634655487647
 20
-129.2868543513588
 30
0.0
 10
65.34553763557334
 20
-129.3819389867517
 30
0.0
 10
65.34553763557334
 20
-129.3819389867517
 30
0.0
 10
65.32658961040447
 20
-129.5696966906979
 30
0.0
 10
65.32658961040447
 20
-129.5696966906979
 30
0.0
 10
65.32658961040447
 20
-129.5696966906979
 30
0.0
 10
64.48012964967859
 20
-129.4408501195495
 30
0.0
 10
64.48012964967859
 20
-129.4408501195495
 30
0.0
 10
64.48012964967859
 20
-129.4408501195495
 30
0.0
 10
64.48012964967859
 20
-128.6088595598617
 30
0.0
 10
64.48012964967859
 20
-128.6088595598617
 30
0.0
 10
64.48012964967859
 20
-128.6088595598617
 30
0.0
 10
64.6747775445952
 20
-128.6088595598617
 30
0.0
 10
64.6747775445952
 20
-128.6088595598617
 30
0.0
 10
64.6747775445952
 20
-128.6088595598617
 30
0.0
 10
64.6747775445952
 20
-129.2665282879959
 30
0.0
 10
64.6747775445952
 20
-129.2665282879959
 30
0.0
 10
64.6747775445952
 20
-129.2665282879959
 30
0.0
 10
65.09783527018388
 20
-129.336808235895
 30
0.0
 10
65.09783527018388
 20
-129.336808235895
 30
0.0
 10
65.06407333442843
 20
-129.2713514216752
 30
0.0
 10
65.02376571725101
 20
-129.1831569772528
 30
0.0
 10
65.02376571725101
 20
-129.0563774633956
 30
0.0
 10
65.02376571725101
 20
-128.7852484487065
 30
0.0
 10
65.21014538300302
 20
-128.5320339305406
 30
0.0
 10
65.52330456261224
 20
-128.5320339305406
 30
0.0
 10
65.84059785680374
 20
-128.5320339305406
 30
0.0
 10
66.07520885934926
 20
-128.7714680667655
 30
0.0
 10
66.07520885934926
 20
-129.0949625328304
 30
0.0
  0
HATCH
  5
10B
330
104
100
AcDbEntity
  8
_U+30EC_U+30A4_U+30E4_U+30FC 1
 62
   179
420
  2234388
100
AcDbHatch
 10
0.0
 20
0.0
 30
0.0
210
0.0
220
0.0
230
1.0
  2
SOLID
 70
     1
 71
     0
 91
        1
 92
        1
 93
        1
 72
     4
 94
        3
 73
     0
 74
     1
 95
       53
 96
       49
 40
0.0
 40
0.0
 40
0.0
 40
0.0
 40
1.0
 40
1.0
 40
1.0
 40
2.0
 40
2.0
 40
2.0
 40
3.0
 40
3.0
 40
3.0
 40
4.0
 40
4.0
 40
4.0
 40
5.0
 40
5.0
 40
5.0
 40
6.0
 40
6.0
 40
6.0
 40
7.0
 40
7.0
 40
7.0
 40
8.0
 40
8.0
 40
8.0
 40
9.0
 40
9.0
 40
9.0
 40
10.0
 40
10.0
 40
10.0
 40
11.0
 40
11.0
 40
11.0
 40
12.0
 40
12.0
 40
12.0
 40
13.0
 40
13.0
 40
13.0
 40
14.0
 40
14.0
 40
14.0
 40
15.0
 40
15.0
 40
15.0
 40
16.0
 40
16.0
 40
16.0
 40
16.0
 10
66.07520885934926
 20
-129.0949625328304
 10
66.07520885934926
 20
-129.178678353122
 10
66.05832789147154
 20
-129.2868543513588
 10
65.99493813454293
 20
-129.3957193686927
 10
65.88503958856346
 20
-129.5810655057992
 10
65.75378145057545
 20
-129.6034586264533
 10
65.64594996188713
 20
-129.6237846898163
 10
65.64594996188713
 20
-129.6237846898163
 10
65.64594996188713
 20
-129.3864176108826
 10
65.64594996188713
 20
-129.3864176108826
 10
65.84473197138604
 20
-129.3278509876333
 10
65.87435979255919
 20
-129.1921142255145
 10
65.87435979255919
 20
-129.0925509659908
 10
65.87435979255919
 20
-128.9433783314794
 10
65.77479653303547
 20
-128.7804253150271
 10
65.5422525877811
 20
-128.7804253150271
 10
65.28628199322705
 20
-128.7804253150271
 10
65.21634655487647
 20
-128.9726616431041
 10
65.21634655487647
 20
-129.1015082142524
 10
65.21634655487647
 20
-129.1356146595564
 10
65.21634655487647
 20
-129.2868543513588
 10
65.34553763557334
 20
-129.3819389867517
 10
65.34553763557334
 20
-129.3819389867517
 10
65.32658961040447
 20
-129.5696966906979
 10
65.32658961040447
 20
-129.5696966906979
 10
65.32658961040447
 20
-129.5696966906979
 10
64.48012964967859
 20
-129.4408501195495
 10
64.48012964967859
 20
-129.4408501195495
 10
64.48012964967859
 20
-129.4408501195495
 10
64.48012964967859
 20
-128.6088595598617
 10
64.48012964967859
 20
-128.6088595598617
 10
64.48012964967859
 20
-128.6088595598617
 10
64.6747775445952
 20
-128.6088595598617
 10
64.6747775445952
 20
-128.6088595598617
 10
64.6747775445952
 20
-128.6088595598617
 10
64.6747775445952
 20
-129.2665282879959
 10
64.6747775445952
 20
-129.2665282879959
 10
64.6747775445952
 20
-129.2665282879959
 10
65.09783527018388
 20
-129.336808235895
 10
65.09783527018388
 20
-129.336808235895
 10
65.06407333442843
 20
-129.2713514216752
 10
65.02376571725101
 20
-129.1831569772528
 10
65.02376571725101
 20
-129.0563774633956
 10
65.02376571725101
 20
-128.7852484487065
 10
65.21014538300302
 20
-128.5320339305406
 10
65.52330456261224
 20
-128.5320339305406
 10
65.84059785680374
 20
-128.5320339305406
 10
66.07520885934926
 20
-128.7714680667655
 10
66.07520885934926
 20
-129.0949625328304
 97
        0
 97
        0
 75
     2
 76
     1
 98
        0
  0
ENDBLK
  5
107
330
104
100
AcDbEntity
  8
0
100
AcDbBlockEnd
  0
ENDSEC
  0
SECTION
  2
ENTITIES
  0
POLYLINE
  5
41
330
1F
100
AcDbEntity
  8
_U+30EC_U+30A4_U+30E4_U+30FC 1
 62
   179
420
  2234388
370
    25
100
AcDb2dPolyline
 66
     1
 10
0.0
 20
0.0
 30
0.0
  0
VERTEX
  5
42
330
41
100
AcDbEntity
  8
_U+30EC_U+30A4_U+30E4_U+30FC 1
 62
   179
420
  2234388
370
    25
100
AcDbVertex
100
AcDb2dVertex
 10
81.32268609078035
 20
-137.2036738545881
 30
0.0
  0
VERTEX
  5
43
330
41
100
AcDbEntity
  8
_U+30EC_U+30A4_U+30E4_U+30FC 1
 62
   179
420
  2234388
370
    25
100
AcDbVertex
100
AcDb2dVertex
 10
71.32277484707109
 20
-137.2036738545881
 30
0.0
  0
SEQEND
  5
44
330
41
100
AcDbEntity
  8
_U+30EC_U+30A4_U+30E4_U+30FC 1
 62
   179
420
  2234388
370
    25
  0
POLYLINE
  5
45
330
1F
100
AcDbEntity
  8
_U+30EC_U+30A4_U+30E4_U+30FC 1
 62
   179
420
  2234388
370
    25
100
AcDb2dPolyline
 66
     1
 10
0.0
 20
0.0
 30
0.0
  0
VERTEX
  5
46
330
45
100
AcDbEntity
  8
_U+30EC_U+30A4_U+30E4_U+30FC 1
 62
   179
420
  2234388
370
    25
100
AcDbVertex
100
AcDb2dVertex
 10
111.3224116043731
 20
-127.7043560791852
 30
0.0
  0
VERTEX
  5
47
330
45
100
AcDbEntity
  8
_U+30EC_U+30A4_U+30E4_U+30FC 1
 62
   179
420
  2234388
370
    25
100
AcDbVertex
100
AcDb2dVertex
 10
111.3224116043731
 20
-126.7038783016574
 30
0.0
  0
SEQEND
  5
48
330
45
100
AcDbEntity
  8
_U+30EC_U+30A4_U+30E4_U+30FC 1
 62
   179
420
  2234388
370
    25
  0
POLYLINE
  5
49
330
1F
100
AcDbEntity
  8
_U+30EC_U+30A4_U+30E4_U+30FC 1
 62
   179
420
  2234388
370
    25
100
AcDb2dPolyline
 66
     1
 10
0.0
 20
0.0
 30
0.0
  0
VERTEX
  5
4A
330
49
100
AcDbEntity
  8
_U+30EC_U+30A4_U+30E4_U+30FC 1
 62
   179
420
  2234388
370
    25
100
AcDbVertex
100
AcDb2dVertex
 10
81.32268609078035
 20
-134.2036869108938
 30
0.0
  0
VERTEX
  5
4B
330
49
100
AcDbEntity
  8
_U+30EC_U+30A4_U+30E4_U+30FC 1
 62
   179
420
  2234388
370
    25
100
AcDbVertex
100
AcDb2dVertex
 10
78.32269716848819
 20
-134.2036869108938
 30
0.0
  0
SEQEND
  5
4C
330
49
100
AcDbEntity
  8
_U+30EC_U+30A4_U+30E4_U+30FC 1
 62
   179
420
  2234388
370
    25
  0
POLYLINE
  5
4D
330
1F
100
AcDbEntity
  8
_U+30EC_U+30A4_U+30E4_U+30FC 1
 62
   179
420
  2234388
370
    25
100
AcDb2dPolyline
 66
     1
 10
0.0
 20
0.0
 30
0.0
  0
VERTEX
  5
4E
330
4D
100
AcDbEntity
  8
_U+30EC_U+30A4_U+30E4_U+30FC 1
 62
   179
420
  2234388
370
    25
100
AcDbVertex
100
AcDb2dVertex
 10
111.3224116043731
 20
-127.7043560791852
 30
0.0
  0
VERTEX
  5
4F
330
4D
100
AcDbEntity
  8
_U+30EC_U+30A4_U+30E4_U+30FC 1
 62
   179
420
  2234388
370
    25
100
AcDbVertex
100
AcDb2dVertex
 10
72.322547043787
 20
-127.7043560791852
 30
0.0
  0
SEQEND
  5
50
330
4D
100
AcDbEntity
  8
_U+30EC_U+30A4_U+30E4_U+30FC 1
 62
   179
420
  2234388
370
    25
  0
POLYLINE
  5
51
330
1F
100
AcDbEntity
  8
_U+30EC_U+30A4_U+30E4_U+30FC 1
 62
   179
420
  2234388
370
    25
100
AcDb2dPolyline
 66
     1
 10
0.0
 20
0.0
 30
0.0
  0
VERTEX
  5
52
330
51
100
AcDbEntity
  8
_U+30EC_U+30A4_U+30E4_U+30FC 1
 62
   179
420
  2234388
370
    25
100
AcDbVertex
100
AcDb2dVertex
 10
111.3224116043731
 20
-126.7038783016574
 30
0.0
  0
VERTEX
  5
53
330
51
100
AcDbEntity
  8
_U+30EC_U+30A4_U+30E4_U+30FC 1
 62
   179
420
  2234388
370
    25
100
AcDbVertex
100
AcDb2dVertex
 10
72.322547043787
 20
-126.7038783016574
 30
0.0
  0
SEQEND
  5
54
330
51
100
AcDbEntity
  8
_U+30EC_U+30A4_U+30E4_U+30FC 1
 62
   179
420
  2234388
370
    25
  0
POLYLINE
  5
55
330
1F
100
AcDbEntity
  8
_U+30EC_U+30A4_U+30E4_U+30FC 1
 62
   179
420
  2234388
370
    25
100
AcDb2dPolyline
 66
     1
 10
0.0
 20
0.0
 30
0.0
  0
VERTEX
  5
56
330
55
100
AcDbEntity
  8
_U+30EC_U+30A4_U+30E4_U+30FC 1
 62
   179
420
  2234388
370
    25
100
AcDbVertex
100
AcDb2dVertex
 10
72.322547043787
 20
-136.2039016326156
 30
0.0
  0
VERTEX
  5
57
330
55
100
AcDbEntity
  8
_U+30EC_U+30A4_U+30E4_U+30FC 1
 62
   179
420
  2234388
370
    25
100
AcDbVertex
100
AcDb2dVertex
 10
72.322547043787
 20
-127.7043560791852
 30
0.0
  0
SEQEND
  5
58
330
55
100
AcDbEntity
  8
_U+30EC_U+30A4_U+30E4_U+30FC 1
 62
   179
420
  2234388
370
    25
  0
POLYLINE
  5
59
330
1F
100
AcDbEntity
  8
_U+30EC_U+30A4_U+30E4_U+30FC 1
 62
   179
420
  2234388
370
    25
100
AcDb2dPolyline
 66
     1
 10
0.0
 20
0.0
 30
0.0
  0
VERTEX
  5
5A
330
59
100
AcDbEntity
  8
_U+30EC_U+30A4_U+30E4_U+30FC 1
 62
   179
420
  2234388
370
    25
100
AcDbVertex
100
AcDb2dVertex
 10
80.32291386880813
 20
-136.2039016326156
 30
0.0
  0
VERTEX
  5
5B
330
59
100
AcDbEntity
  8
_U+30EC_U+30A4_U+30E4_U+30FC 1
 62
   179
420
  2234388
370
    25
100
AcDbVertex
100
AcDb2dVertex
 10
72.322547043787
 20
-136.2039016326156
 30
0.0
  0
SEQEND
  5
5C
330
59
100
AcDbEntity
  8
_U+30EC_U+30A4_U+30E4_U+30FC 1
 62
   179
420
  2234388
370
    25
  0
POLYLINE
  5
5D
330
1F
100
AcDbEntity
  8
_U+30EC_U+30A4_U+30E4_U+30FC 1
 62
   179
420
  2234388
370
    25
100
AcDb2dPolyline
 66
     1
 10
0.0
 20
0.0
 30
0.0
  0
VERTEX
  5
5E
330
5D
100
AcDbEntity
  8
_U+30EC_U+30A4_U+30E4_U+30FC 1
 62
   179
420
  2234388
370
    25
100
AcDbVertex
100
AcDb2dVertex
 10
81.32268609078035
 20
-137.2036738545881
 30
0.0
  0
VERTEX
  5
5F
330
5D
100
AcDbEntity
  8
_U+30EC_U+30A4_U+30E4_U+30FC 1
 62
   179
420
  2234388
370
    25
100
AcDbVertex
100
AcDb2dVertex
 10
81.32268609078035
 20
-134.2036869108938
 30
0.0
  0
SEQEND
  5
60
330
5D
100
AcDbEntity
  8
_U+30EC_U+30A4_U+30E4_U+30FC 1
 62
   179
420
  2234388
370
    25
  0
POLYLINE
  5
61
330
1F
100
AcDbEntity
  8
_U+30EC_U+30A4_U+30E4_U+30FC 1
 62
   179
420
  2234388
370
    25
100
AcDb2dPolyline
 66
     1
 10
0.0
 20
0.0
 30
0.0
  0
VERTEX
  5
62
330
61
100
AcDbEntity
  8
_U+30EC_U+30A4_U+30E4_U+30FC 1
 62
   179
420
  2234388
370
    25
100
AcDbVertex
100
AcDb2dVertex
 10
80.32291386880813
 20
-136.2039016326156
 30
0.0
  0
VERTEX
  5
63
330
61
100
AcDbEntity
  8
_U+30EC_U+30A4_U+30E4_U+30FC 1
 62
   179
420
  2234388
370
    25
100
AcDbVertex
100
AcDb2dVertex
 10
80.32291386880813
 20
-135.2041646884212
 30
0.0
  0
SEQEND
  5
64
330
61
100
AcDbEntity
  8
_U+30EC_U+30A4_U+30E4_U+30FC 1
 62
   179
420
  2234388
370
    25
  0
POLYLINE
  5
65
330
1F
100
AcDbEntity
  8
_U+30EC_U+30A4_U+30E4_U+30FC 1
 62
   179
420
  2234388
370
    25
100
AcDb2dPolyline
 66
     1
 10
0.0
 20
0.0
 30
0.0
  0
VERTEX
  5
66
330
65
100
AcDbEntity
  8
_U+30EC_U+30A4_U+30E4_U+30FC 1
 62
   179
420
  2234388
370
    25
100
AcDbVertex
100
AcDb2dVertex
 10
80.32291386880813
 20
-135.2041646884212
 30
0.0
  0
VERTEX
  5
67
330
65
100
AcDbEntity
  8
_U+30EC_U+30A4_U+30E4_U+30FC 1
 62
   179
420
  2234388
370
    25
100
AcDbVertex
100
AcDb2dVertex
 10
78.32269716848819
 20
-135.2041646884212
 30
0.0
  0
SEQEND
  5
68
330
65
100
AcDbEntity
  8
_U+30EC_U+30A4_U+30E4_U+30FC 1
 62
   179
420
  2234388
370
    25
  0
POLYLINE
  5
69
330
1F
100
AcDbEntity
  8
_U+30EC_U+30A4_U+30E4_U+30FC 1
 62
   179
420
  2234388
370
    25
100
AcDb2dPolyline
 66
     1
 10
0.0
 20
0.0
 30
0.0
  0
VERTEX
  5
6A
330
69
100
AcDbEntity
  8
_U+30EC_U+30A4_U+30E4_U+30FC 1
 62
   179
420
  2234388
370
    25
100
AcDbVertex
100
AcDb2dVertex
 10
78.32269716848819
 20
-135.2041646884212
 30
0.0
  0
VERTEX
  5
6B
330
69
100
AcDbEntity
  8
_U+30EC_U+30A4_U+30E4_U+30FC 1
 62
   179
420
  2234388
370
    25
100
AcDbVertex
100
AcDb2dVertex
 10
78.32269716848819
 20
-134.2036869108938
 30
0.0
  0
SEQEND
  5
6C
330
69
100
AcDbEntity
  8
_U+30EC_U+30A4_U+30E4_U+30FC 1
 62
   179
420
  2234388
370
    25
  0
POLYLINE
  5
6D
330
1F
100
AcDbEntity
  8
_U+30EC_U+30A4_U+30E4_U+30FC 1
 62
   179
420
  2234388
370
    25
100
AcDb2dPolyline
 66
     1
 10
0.0
 20
0.0
 30
0.0
  0
VERTEX
  5
6E
330
6D
100
AcDbEntity
  8
_U+30EC_U+30A4_U+30E4_U+30FC 1
 62
   179
420
  2234388
370
    25
100
AcDbVertex
100
AcDb2dVertex
 10
72.322547043787
 20
-126.7038783016574
 30
0.0
  0
VERTEX
  5
6F
330
6D
100
AcDbEntity
  8
_U+30EC_U+30A4_U+30E4_U+30FC 1
 62
   179
420
  2234388
370
    25
100
AcDbVertex
100
AcDb2dVertex
 10
72.322547043787
 20
-122.2035627472269
 30
0.0
  0
VERTEX
  5
70
330
6D
100
AcDbEntity
  8
_U+30EC_U+30A4_U+30E4_U+30FC 1
 62
   179
420
  2234388
370
    25
100
AcDbVertex
100
AcDb2dVertex
 10
71.32277484707109
 20
-122.2039155250047
 30
0.0
  0
VERTEX
  5
71
330
6D
100
AcDbEntity
  8
_U+30EC_U+30A4_U+30E4_U+30FC 1
 62
   179
420
  2234388
370
    25
100
AcDbVertex
100
AcDb2dVertex
 10
71.32277484707109
 20
-137.2036738545881
 30
0.0
  0
SEQEND
  5
72
330
6D
100
AcDbEntity
  8
_U+30EC_U+30A4_U+30E4_U+30FC 1
 62
   179
420
  2234388
370
    25
  0
SPLINE
  5
73
330
1F
100
AcDbEntity
  8
_U+30EC_U+30A4_U+30E4_U+30FC 1
 62
   179
420
  2234388
370
     9
100
AcDbSpline
210
0.0
220
0.0
230
1.0
 70
    11
 71
     3
 72
    17
 73
    13
 74
     0
 42
0.0000000001
 43
0.0000000001
 12
1.0
 22
0.0
 32
0.0
 13
1.0
 23
0.0
 33
0.0
 40
0.0
 40
0.0
 40
0.0
 40
0.0
 40
1.0
 40
1.0
 40
1.0
 40
2.0
 40
2.0
 40
2.0
 40
3.0
 40
3.0
 40
3.0
 40
4.0
 40
4.0
 40
4.0
 40
4.0
 10
115.3228409467581
 20
-134.1037802442515
 30
0.0
 10
115.3779801120181
 20
-134.1037802442515
 30
0.0
 10
115.4227476108759
 20
-134.1485830220182
 30
0.0
 10
115.4227476108759
 20
-134.2036869108938
 30
0.0
 10
115.4227476108759
 20
-134.2594963553242
 30
0.0
 10
115.3779801120181
 20
-134.3035935775355
 30
0.0
 10
115.3228409467581
 20
-134.3035935775355
 30
0.0
 10
115.2670315037375
 20
-134.3035935775355
 30
0.0
 10
115.2222640048796
 20
-134.2594963553242
 30
0.0
 10
115.2222640048796
 20
-134.2036869108938
 30
0.0
 10
115.2222640048796
 20
-134.1485830220182
 30
0.0
 10
115.2670315037375
 20
-134.1037802442515
 30
0.0
 10
115.3228409467581
 20
-134.1037802442515
 30
0.0
  0
SPLINE
  5
74
330
1F
100
AcDbEntity
  8
_U+30EC_U+30A4_U+30E4_U+30FC 1
 62
   179
420
  2234388
370
     9
100
AcDbSpline
210
0.0
220
0.0
230
1.0
 70
    11
 71
     3
 72
    17
 73
    13
 74
     0
 42
0.0000000001
 43
0.0000000001
 12
1.0
 22
0.0
 32
0.0
 13
1.0
 23
0.0
 33
0.0
 40
0.0
 40
0.0
 40
0.0
 40
0.0
 40
1.0
 40
1.0
 40
1.0
 40
2.0
 40
2.0
 40
2.0
 40
3.0
 40
3.0
 40
3.0
 40
4.0
 40
4.0
 40
4.0
 40
4.0
 10
115.3228409467581
 20
-137.1037671879465
 30
0.0
 10
115.3779801120181
 20
-137.1037671879465
 30
0.0
 10
115.4227476108759
 20
-137.1485699657126
 30
0.0
 10
115.4227476108759
 20
-137.2036738545881
 30
0.0
 10
115.4227476108759
 20
-137.2594832990186
 30
0.0
 10
115.3779801120181
 20
-137.3042860767853
 30
0.0
 10
115.3228409467581
 20
-137.3042860767853
 30
0.0
 10
115.2670315037375
 20
-137.3042860767853
 30
0.0
 10
115.2222640048796
 20
-137.2594832990186
 30
0.0
 10
115.2222640048796
 20
-137.2036738545881
 30
0.0
 10
115.2222640048796
 20
-137.1485699657126
 30
0.0
 10
115.2670315037375
 20
-137.1037671879465
 30
0.0
 10
115.3228409467581
 20
-137.1037671879465
 30
0.0
  0
SPLINE
  5
75
330
1F
100
AcDbEntity
  8
_U+30EC_U+30A4_U+30E4_U+30FC 1
 62
   179
420
  2234388
370
     9
100
AcDbSpline
210
0.0
220
0.0
230
1.0
 70
    11
 71
     3
 72
    17
 73
    13
 74
     0
 42
0.0000000001
 43
0.0000000001
 12
1.0
 22
0.0
 32
0.0
 13
1.0
 23
0.0
 33
0.0
 40
0.0
 40
0.0
 40
0.0
 40
0.0
 40
1.0
 40
1.0
 40
1.0
 40
2.0
 40
2.0
 40
2.0
 40
3.0
 40
3.0
 40
3.0
 40
4.0
 40
4.0
 40
4.0
 40
4.0
 10
115.3228409467581
 20
-127.6044494125432
 30
0.0
 10
115.3779801120181
 20
-127.6044494125432
 30
0.0
 10
115.4227476108759
 20
-127.6492169125321
 30
0.0
 10
115.4227476108759
 20
-127.7043560791852
 30
0.0
 10
115.4227476108759
 20
-127.7594599680601
 30
0.0
 10
115.3779801120181
 20
-127.8042627458268
 30
0.0
 10
115.3228409467581
 20
-127.8042627458268
 30
0.0
 10
115.2670315037375
 20
-127.8042627458268
 30
0.0
 10
115.2222640048796
 20
-127.7594599680601
 30
0.0
 10
115.2222640048796
 20
-127.7043560791852
 30
0.0
 10
115.2222640048796
 20
-127.6492169125321
 30
0.0
 10
115.2670315037375
 20
-127.6044494125432
 30
0.0
 10
115.3228409467581
 20
-127.6044494125432
 30
0.0
  0
SPLINE
  5
76
330
1F
100
AcDbEntity
  8
_U+30EC_U+30A4_U+30E4_U+30FC 1
 62
   179
420
  2234388
370
     9
100
AcDbSpline
210
0.0
220
0.0
230
1.0
 70
    11
 71
     3
 72
    17
 73
    13
 74
     0
 42
0.0000000001
 43
0.0000000001
 12
1.0
 22
0.0
 32
0.0
 13
1.0
 23
0.0
 33
0.0
 40
0.0
 40
0.0
 40
0.0
 40
0.0
 40
1.0
 40
1.0
 40
1.0
 40
2.0
 40
2.0
 40
2.0
 40
3.0
 40
3.0
 40
3.0
 40
4.0
 40
4.0
 40
4.0
 40
4.0
 10
111.3224116043731
 20
-118.1042496926961
 30
0.0
 10
111.3775154918562
 20
-118.1042496926961
 30
0.0
 10
111.422318268491
 20
-118.149017192685
 30
0.0
 10
111.422318268491
 20
-118.2041563593378
 30
0.0
 10
111.422318268491
 20
-118.259260248213
 30
0.0
 10
111.3775154918562
 20
-118.3040630259794
 30
0.0
 10
111.3224116043731
 20
-118.3040630259794
 30
0.0
 10
111.2672724391132
 20
-118.3040630259794
 30
0.0
 10
111.2225049402553
 20
-118.259260248213
 30
0.0
 10
111.2225049402553
 20
-118.2041563593378
 30
0.0
 10
111.2225049402553
 20
-118.149017192685
 30
0.0
 10
111.2672724391132
 20
-118.1042496926961
 30
0.0
 10
111.3224116043731
 20
-118.1042496926961
 30
0.0
  0
SPLINE
  5
77
330
1F
100
AcDbEntity
  8
_U+30EC_U+30A4_U+30E4_U+30FC 1
 62
   179
420
  2234388
370
     9
100
AcDbSpline
210
0.0
220
0.0
230
1.0
 70
    11
 71
     3
 72
    17
 73
    13
 74
     0
 42
0.0000000001
 43
0.0000000001
 12
1.0
 22
0.0
 32
0.0
 13
1.0
 23
0.0
 33
0.0
 40
0.0
 40
0.0
 40
0.0
 40
0.0
 40
1.0
 40
1.0
 40
1.0
 40
2.0
 40
2.0
 40
2.0
 40
3.0
 40
3.0
 40
3.0
 40
4.0
 40
4.0
 40
4.0
 40
4.0
 10
71.32277484707109
 20
-118.1042496926961
 30
0.0
 10
71.37791401233103
 20
-118.1042496926961
 30
0.0
 10
71.42268331547753
 20
-118.149017192685
 30
0.0
 10
71.42268331547753
 20
-118.2041563593378
 30
0.0
 10
71.42268331547753
 20
-118.259260248213
 30
0.0
 10
71.37791401233103
 20
-118.3040630259794
 30
0.0
 10
71.32277484707109
 20
-118.3040630259794
 30
0.0
 10
71.26767095958802
 20
-118.3040630259794
 30
0.0
 10
71.22286818295325
 20
-118.259260248213
 30
0.0
 10
71.22286818295325
 20
-118.2041563593378
 30
0.0
 10
71.22286818295325
 20
-118.149017192685
 30
0.0
 10
71.26767095958802
 20
-118.1042496926961
 30
0.0
 10
71.32277484707109
 20
-118.1042496926961
 30
0.0
  0
SPLINE
  5
78
330
1F
100
AcDbEntity
  8
_U+30EC_U+30A4_U+30E4_U+30FC 1
 62
   179
420
  2234388
370
     9
100
AcDbSpline
210
0.0
220
0.0
230
1.0
 70
    11
 71
     3
 72
    17
 73
    13
 74
     0
 42
0.0000000001
 43
0.0000000001
 12
1.0
 22
0.0
 32
0.0
 13
1.0
 23
0.0
 33
0.0
 40
0.0
 40
0.0
 40
0.0
 40
0.0
 40
1.0
 40
1.0
 40
1.0
 40
2.0
 40
2.0
 40
2.0
 40
3.0
 40
3.0
 40
3.0
 40
4.0
 40
4.0
 40
4.0
 40
4.0
 10
67.32234720539165
 20
-122.104008858363
 30
0.0
 10
67.37815494770673
 20
-122.104008858363
 30
0.0
 10
67.42292244656461
 20
-122.1487763583516
 30
0.0
 10
67.42292244656461
 20
-122.2039155250047
 30
0.0
 10
67.42292244656461
 20
-122.2590194138796
 30
0.0
 10
67.37815494770673
 20
-122.3038221916463
 30
0.0
 10
67.32234720539165
 20
-122.3038221916463
 30
0.0
 10
67.26720633942615
 20
-122.3038221916463
 30
0.0
 10
67.22243884056826
 20
-122.2590194138796
 30
0.0
 10
67.22243884056826
 20
-122.2039155250047
 30
0.0
 10
67.22243884056826
 20
-122.1487763583516
 30
0.0
 10
67.26720633942615
 20
-122.104008858363
 30
0.0
 10
67.32234720539165
 20
-122.104008858363
 30
0.0
  0
SPLINE
  5
79
330
1F
100
AcDbEntity
  8
_U+30EC_U+30A4_U+30E4_U+30FC 1
 62
   179
420
  2234388
370
     9
100
AcDbSpline
210
0.0
220
0.0
230
1.0
 70
    11
 71
     3
 72
    17
 73
    13
 74
     0
 42
0.0000000001
 43
0.0000000001
 12
1.0
 22
0.0
 32
0.0
 13
1.0
 23
0.0
 33
0.0
 40
0.0
 40
0.0
 40
0.0
 40
0.0
 40
1.0
 40
1.0
 40
1.0
 40
2.0
 40
2.0
 40
2.0
 40
3.0
 40
3.0
 40
3.0
 40
4.0
 40
4.0
 40
4.0
 40
4.0
 10
67.32234720539165
 20
-137.1037671879465
 30
0.0
 10
67.37815494770673
 20
-137.1037671879465
 30
0.0
 10
67.42292244656461
 20
-137.1485699657126
 30
0.0
 10
67.42292244656461
 20
-137.2036738545881
 30
0.0
 10
67.42292244656461
 20
-137.2594832990186
 30
0.0
 10
67.37815494770673
 20
-137.3042860767853
 30
0.0
 10
67.32234720539165
 20
-137.3042860767853
 30
0.0
 10
67.26720633942615
 20
-137.3042860767853
 30
0.0
 10
67.22243884056826
 20
-137.2594832990186
 30
0.0
 10
67.22243884056826
 20
-137.2036738545881
 30
0.0
 10
67.22243884056826
 20
-137.1485699657126
 30
0.0
 10
67.26720633942615
 20
-137.1037671879465
 30
0.0
 10
67.32234720539165
 20
-137.1037671879465
 30
0.0
  0
SPLINE
  5
7A
330
1F
100
AcDbEntity
  8
_U+30EC_U+30A4_U+30E4_U+30FC 1
 62
   179
420
  2234388
370
     9
100
AcDbSpline
210
0.0
220
0.0
230
1.0
 70
    11
 71
     3
 72
    17
 73
    13
 74
     0
 42
0.0000000001
 43
0.0000000001
 12
1.0
 22
0.0
 32
0.0
 13
1.0
 23
0.0
 33
0.0
 40
0.0
 40
0.0
 40
0.0
 40
0.0
 40
1.0
 40
1.0
 40
1.0
 40
2.0
 40
2.0
 40
2.0
 40
3.0
 40
3.0
 40
3.0
 40
4.0
 40
4.0
 40
4.0
 40
4.0
 10
71.31003956961821
 20
-115.6857816377453
 30
0.0
 10
71.36584901263885
 20
-115.6857816377453
 30
0.0
 10
71.41061651149673
 20
-115.7305844155117
 30
0.0
 10
71.41061651149673
 20
-115.785688304387
 30
0.0
 10
71.41061651149673
 20
-115.8414977488174
 30
0.0
 10
71.36584901263885
 20
-115.8863005265841
 30
0.0
 10
71.31003956961821
 20
-115.8863005265841
 30
0.0
 10
71.25490040435827
 20
-115.8863005265841
 30
0.0
 10
71.21013290550037
 20
-115.8414977488174
 30
0.0
 10
71.21013290550037
 20
-115.785688304387
 30
0.0
 10
71.21013290550037
 20
-115.7305844155117
 30
0.0
 10
71.25490040435827
 20
-115.6857816377453
 30
0.0
 10
71.31003956961821
 20
-115.6857816377453
 30
0.0
  0
SPLINE
  5
7B
330
1F
100
AcDbEntity
  8
_U+30EC_U+30A4_U+30E4_U+30FC 1
 62
   179
420
  2234388
370
     9
100
AcDbSpline
210
0.0
220
0.0
230
1.0
 70
    11
 71
     3
 72
    17
 73
    13
 74
     0
 42
0.0000000001
 43
0.0000000001
 12
1.0
 22
0.0
 32
0.0
 13
1.0
 23
0.0
 33
0.0
 40
0.0
 40
0.0
 40
0.0
 40
0.0
 40
1.0
 40
1.0
 40
1.0
 40
2.0
 40
2.0
 40
2.0
 40
3.0
 40
3.0
 40
3.0
 40
4.0
 40
4.0
 40
4.0
 40
4.0
 10
72.48482481742472
 20
-115.5858749711037
 30
0.0
 10
72.5406360929761
 20
-115.5858749711037
 30
0.0
 10
72.58540175930324
 20
-115.6306777488701
 30
0.0
 10
72.58540175930324
 20
-115.6857816377453
 30
0.0
 10
72.58540175930324
 20
-115.7409208043981
 30
0.0
 10
72.5406360929761
 20
-115.785688304387
 30
0.0
 10
72.48482481742472
 20
-115.785688304387
 30
0.0
 10
72.42968565216478
 20
-115.785688304387
 30
0.0
 10
72.38488287553001
 20
-115.7409208043981
 30
0.0
 10
72.38488287553001
 20
-115.6857816377453
 30
0.0
 10
72.38488287553001
 20
-115.6306777488701
 30
0.0
 10
72.42968565216478
 20
-115.5858749711037
 30
0.0
 10
72.48482481742472
 20
-115.5858749711037
 30
0.0
  0
SPLINE
  5
7C
330
1F
100
AcDbEntity
  8
_U+30EC_U+30A4_U+30E4_U+30FC 1
 62
   179
420
  2234388
370
     9
100
AcDbSpline
210
0.0
220
0.0
230
1.0
 70
    11
 71
     3
 72
    17
 73
    13
 74
     0
 42
0.0000000001
 43
0.0000000001
 12
1.0
 22
0.0
 32
0.0
 13
1.0
 23
0.0
 33
0.0
 40
0.0
 40
0.0
 40
0.0
 40
0.0
 40
1.0
 40
1.0
 40
1.0
 40
2.0
 40
2.0
 40
2.0
 40
3.0
 40
3.0
 40
3.0
 40
4.0
 40
4.0
 40
4.0
 40
4.0
 10
71.32277484707109
 20
-141.1042319091683
 30
0.0
 10
71.37791401233103
 20
-141.1042319091683
 30
0.0
 10
71.42268331547753
 20
-141.1489994091575
 30
0.0
 10
71.42268331547753
 20
-141.2041385758099
 30
0.0
 10
71.42268331547753
 20
-141.2592424646855
 30
0.0
 10
71.37791401233103
 20
-141.3040452424515
 30
0.0
 10
71.32277484707109
 20
-141.3040452424515
 30
0.0
 10
71.26767095958802
 20
-141.3040452424515
 30
0.0
 10
71.22286818295325
 20
-141.2592424646855
 30
0.0
 10
71.22286818295325
 20
-141.2041385758099
 30
0.0
 10
71.22286818295325
 20
-141.1489994091575
 30
0.0
 10
71.26767095958802
 20
-141.1042319091683
 30
0.0
 10
71.32277484707109
 20
-141.1042319091683
 30
0.0
  0
SPLINE
  5
7D
330
1F
100
AcDbEntity
  8
_U+30EC_U+30A4_U+30E4_U+30FC 1
 62
   179
420
  2234388
370
     9
100
AcDbSpline
210
0.0
220
0.0
230
1.0
 70
    11
 71
     3
 72
    17
 73
    13
 74
     0
 42
0.0000000001
 43
0.0000000001
 12
1.0
 22
0.0
 32
0.0
 13
1.0
 23
0.0
 33
0.0
 40
0.0
 40
0.0
 40
0.0
 40
0.0
 40
1.0
 40
1.0
 40
1.0
 40
2.0
 40
2.0
 40
2.0
 40
3.0
 40
3.0
 40
3.0
 40
4.0
 40
4.0
 40
4.0
 40
4.0
 10
81.32268609078035
 20
-141.1042319091683
 30
0.0
 10
81.37778792387967
 20
-141.1042319091683
 30
0.0
 10
81.42259070051443
 20
-141.1489994091575
 30
0.0
 10
81.42259070051443
 20
-141.2041385758099
 30
0.0
 10
81.42259070051443
 20
-141.2592424646855
 30
0.0
 10
81.37778792387967
 20
-141.3040452424515
 30
0.0
 10
81.32268609078035
 20
-141.3040452424515
 30
0.0
 10
81.26687459337597
 20
-141.3040452424515
 30
0.0
 10
81.22277737227876
 20
-141.2592424646855
 30
0.0
 10
81.22277737227876
 20
-141.2041385758099
 30
0.0
 10
81.22277737227876
 20
-141.1489994091575
 30
0.0
 10
81.26687459337597
 20
-141.1042319091683
 30
0.0
 10
81.32268609078035
 20
-141.1042319091683
 30
0.0
  0
POLYLINE
  5
7E
330
1F
100
AcDbEntity
  8
_U+30EC_U+30A4_U+30E4_U+30FC 1
 62
   179
420
  2234388
370
     9
100
AcDb2dPolyline
 66
     1
 10
0.0
 20
0.0
 30
0.0
  0
VERTEX
  5
7F
330
7E
100
AcDbEntity
  8
_U+30EC_U+30A4_U+30E4_U+30FC 1
 62
   179
420
  2234388
370
     9
100
AcDbVertex
100
AcDb2dVertex
 10
113.862799595118
 20
-127.7043560791852
 30
0.0
  0
VERTEX
  5
80
330
7E
100
AcDbEntity
  8
_U+30EC_U+30A4_U+30E4_U+30FC 1
 62
   179
420
  2234388
370
     9
100
AcDbVertex
100
AcDb2dVertex
 10
116.322613143474
 20
-127.7043560791852
 30
0.0
  0
SEQEND
  5
81
330
7E
100
AcDbEntity
  8
_U+30EC_U+30A4_U+30E4_U+30FC 1
 62
   179
420
  2234388
370
     9
  0
POLYLINE
  5
82
330
1F
100
AcDbEntity
  8
_U+30EC_U+30A4_U+30E4_U+30FC 1
 62
   179
420
  2234388
370
     9
100
AcDb2dPolyline
 66
     1
 10
0.0
 20
0.0
 30
0.0
  0
VERTEX
  5
83
330
82
100
AcDbEntity
  8
_U+30EC_U+30A4_U+30E4_U+30FC 1
 62
   179
420
  2234388
370
     9
100
AcDbVertex
100
AcDb2dVertex
 10
115.3228409467581
 20
-137.2036738545881
 30
0.0
  0
VERTEX
  5
84
330
82
100
AcDbEntity
  8
_U+30EC_U+30A4_U+30E4_U+30FC 1
 62
   179
420
  2234388
370
     9
100
AcDbVertex
100
AcDb2dVertex
 10
115.3228409467581
 20
-134.2036869108938
 30
0.0
  0
SEQEND
  5
85
330
82
100
AcDbEntity
  8
_U+30EC_U+30A4_U+30E4_U+30FC 1
 62
   179
420
  2234388
370
     9
  0
POLYLINE
  5
86
330
1F
100
AcDbEntity
  8
_U+30EC_U+30A4_U+30E4_U+30FC 1
 62
   179
420
  2234388
370
     9
100
AcDb2dPolyline
 66
     1
 10
0.0
 20
0.0
 30
0.0
  0
VERTEX
  5
87
330
86
100
AcDbEntity
  8
_U+30EC_U+30A4_U+30E4_U+30FC 1
 62
   179
420
  2234388
370
     9
100
AcDbVertex
100
AcDb2dVertex
 10
83.86240174938078
 20
-137.2036738545881
 30
0.0
  0
VERTEX
  5
88
330
86
100
AcDbEntity
  8
_U+30EC_U+30A4_U+30E4_U+30FC 1
 62
   179
420
  2234388
370
     9
100
AcDbVertex
100
AcDb2dVertex
 10
116.322613143474
 20
-137.2036738545881
 30
0.0
  0
SEQEND
  5
89
330
86
100
AcDbEntity
  8
_U+30EC_U+30A4_U+30E4_U+30FC 1
 62
   179
420
  2234388
370
     9
  0
POLYLINE
  5
8A
330
1F
100
AcDbEntity
  8
_U+30EC_U+30A4_U+30E4_U+30FC 1
 62
   179
420
  2234388
370
     9
100
AcDb2dPolyline
 66
     1
 10
0.0
 20
0.0
 30
0.0
  0
VERTEX
  5
8B
330
8A
100
AcDbEntity
  8
_U+30EC_U+30A4_U+30E4_U+30FC 1
 62
   179
420
  2234388
370
     9
100
AcDbVertex
100
AcDb2dVertex
 10
81.32268609078035
 20
-141.2041385758099
 30
0.0
  0
VERTEX
  5
8C
330
8A
100
AcDbEntity
  8
_U+30EC_U+30A4_U+30E4_U+30FC 1
 62
   179
420
  2234388
370
     9
100
AcDbVertex
100
AcDb2dVertex
 10
71.32277484707109
 20
-141.2041385758099
 30
0.0
  0
SEQEND
  5
8D
330
8A
100
AcDbEntity
  8
_U+30EC_U+30A4_U+30E4_U+30FC 1
 62
   179
420
  2234388
370
     9
  0
POLYLINE
  5
8E
330
1F
100
AcDbEntity
  8
_U+30EC_U+30A4_U+30E4_U+30FC 1
 62
   179
420
  2234388
370
     9
100
AcDb2dPolyline
 66
     1
 10
0.0
 20
0.0
 30
0.0
  0
VERTEX
  5
8F
330
8E
100
AcDbEntity
  8
_U+30EC_U+30A4_U+30E4_U+30FC 1
 62
   179
420
  2234388
370
     9
100
AcDbVertex
100
AcDb2dVertex
 10
81.32268609078035
 20
-139.7440971872862
 30
0.0
  0
VERTEX
  5
90
330
8E
100
AcDbEntity
  8
_U+30EC_U+30A4_U+30E4_U+30FC 1
 62
   179
420
  2234388
370
     9
100
AcDbVertex
100
AcDb2dVertex
 10
81.32268609078035
 20
-142.2039107977824
 30
0.0
  0
SEQEND
  5
91
330
8E
100
AcDbEntity
  8
_U+30EC_U+30A4_U+30E4_U+30FC 1
 62
   179
420
  2234388
370
     9
  0
POLYLINE
  5
92
330
1F
100
AcDbEntity
  8
_U+30EC_U+30A4_U+30E4_U+30FC 1
 62
   179
420
  2234388
370
     9
100
AcDb2dPolyline
 66
     1
 10
0.0
 20
0.0
 30
0.0
  0
VERTEX
  5
93
330
92
100
AcDbEntity
  8
_U+30EC_U+30A4_U+30E4_U+30FC 1
 62
   179
420
  2234388
370
     9
100
AcDbVertex
100
AcDb2dVertex
 10
71.32277484707109
 20
-139.7440971872862
 30
0.0
  0
VERTEX
  5
94
330
92
100
AcDbEntity
  8
_U+30EC_U+30A4_U+30E4_U+30FC 1
 62
   179
420
  2234388
370
     9
100
AcDbVertex
100
AcDb2dVertex
 10
71.32277484707109
 20
-142.2039107977824
 30
0.0
  0
SEQEND
  5
95
330
92
100
AcDbEntity
  8
_U+30EC_U+30A4_U+30E4_U+30FC 1
 62
   179
420
  2234388
370
     9
  0
POLYLINE
  5
96
330
1F
100
AcDbEntity
  8
_U+30EC_U+30A4_U+30E4_U+30FC 1
 62
   179
420
  2234388
370
     9
100
AcDb2dPolyline
 66
     1
 10
0.0
 20
0.0
 30
0.0
  0
VERTEX
  5
97
330
96
100
AcDbEntity
  8
_U+30EC_U+30A4_U+30E4_U+30FC 1
 62
   179
420
  2234388
370
     9
100
AcDbVertex
100
AcDb2dVertex
 10
71.32277484707109
 20
-118.2041563593378
 30
0.0
  0
VERTEX
  5
98
330
96
100
AcDbEntity
  8
_U+30EC_U+30A4_U+30E4_U+30FC 1
 62
   179
420
  2234388
370
     9
100
AcDbVertex
100
AcDb2dVertex
 10
111.3224116043731
 20
-118.2041563593378
 30
0.0
  0
SEQEND
  5
99
330
96
100
AcDbEntity
  8
_U+30EC_U+30A4_U+30E4_U+30FC 1
 62
   179
420
  2234388
370
     9
  0
POLYLINE
  5
9A
330
1F
100
AcDbEntity
  8
_U+30EC_U+30A4_U+30E4_U+30FC 1
 62
   179
420
  2234388
370
     9
100
AcDb2dPolyline
 66
     1
 10
0.0
 20
0.0
 30
0.0
  0
VERTEX
  5
9B
330
9A
100
AcDbEntity
  8
_U+30EC_U+30A4_U+30E4_U+30FC 1
 62
   179
420
  2234388
370
     9
100
AcDbVertex
100
AcDb2dVertex
 10
71.32277484707109
 20
-119.6641977478618
 30
0.0
  0
VERTEX
  5
9C
330
9A
100
AcDbEntity
  8
_U+30EC_U+30A4_U+30E4_U+30FC 1
 62
   179
420
  2234388
370
     9
100
AcDbVertex
100
AcDb2dVertex
 10
71.32277484707109
 20
-117.2037138595879
 30
0.0
  0
SEQEND
  5
9D
330
9A
100
AcDbEntity
  8
_U+30EC_U+30A4_U+30E4_U+30FC 1
 62
   179
420
  2234388
370
     9
  0
POLYLINE
  5
9E
330
1F
100
AcDbEntity
  8
_U+30EC_U+30A4_U+30E4_U+30FC 1
 62
   179
420
  2234388
370
     9
100
AcDb2dPolyline
 66
     1
 10
0.0
 20
0.0
 30
0.0
  0
VERTEX
  5
9F
330
9E
100
AcDbEntity
  8
_U+30EC_U+30A4_U+30E4_U+30FC 1
 62
   179
420
  2234388
370
     9
100
AcDbVertex
100
AcDb2dVertex
 10
111.3224116043731
 20
-125.1639327464868
 30
0.0
  0
VERTEX
  5
A0
330
9E
100
AcDbEntity
  8
_U+30EC_U+30A4_U+30E4_U+30FC 1
 62
   179
420
  2234388
370
     9
100
AcDbVertex
100
AcDb2dVertex
 10
111.3224116043731
 20
-117.2037138595879
 30
0.0
  0
SEQEND
  5
A1
330
9E
100
AcDbEntity
  8
_U+30EC_U+30A4_U+30E4_U+30FC 1
 62
   179
420
  2234388
370
     9
  0
POLYLINE
  5
A2
330
1F
100
AcDbEntity
  8
_U+30EC_U+30A4_U+30E4_U+30FC 1
 62
   179
420
  2234388
370
     9
100
AcDb2dPolyline
 66
     1
 10
0.0
 20
0.0
 30
0.0
  0
VERTEX
  5
A3
330
A2
100
AcDbEntity
  8
_U+30EC_U+30A4_U+30E4_U+30FC 1
 62
   179
420
  2234388
370
     9
100
AcDbVertex
100
AcDb2dVertex
 10
115.3228409467581
 20
-134.2036869108938
 30
0.0
  0
VERTEX
  5
A4
330
A2
100
AcDbEntity
  8
_U+30EC_U+30A4_U+30E4_U+30FC 1
 62
   179
420
  2234388
370
     9
100
AcDbVertex
100
AcDb2dVertex
 10
115.3228409467581
 20
-127.7043560791852
 30
0.0
  0
SEQEND
  5
A5
330
A2
100
AcDbEntity
  8
_U+30EC_U+30A4_U+30E4_U+30FC 1
 62
   179
420
  2234388
370
     9
  0
POLYLINE
  5
A6
330
1F
100
AcDbEntity
  8
_U+30EC_U+30A4_U+30E4_U+30FC 1
 62
   179
420
  2234388
370
     9
100
AcDb2dPolyline
 66
     1
 10
0.0
 20
0.0
 30
0.0
  0
VERTEX
  5
A7
330
A6
100
AcDbEntity
  8
_U+30EC_U+30A4_U+30E4_U+30FC 1
 62
   179
420
  2234388
370
     9
100
AcDbVertex
100
AcDb2dVertex
 10
83.86240174938078
 20
-134.2036869108938
 30
0.0
  0
VERTEX
  5
A8
330
A6
100
AcDbEntity
  8
_U+30EC_U+30A4_U+30E4_U+30FC 1
 62
   179
420
  2234388
370
     9
100
AcDbVertex
100
AcDb2dVertex
 10
116.322613143474
 20
-134.2036869108938
 30
0.0
  0
SEQEND
  5
A9
330
A6
100
AcDbEntity
  8
_U+30EC_U+30A4_U+30E4_U+30FC 1
 62
   179
420
  2234388
370
     9
  0
POLYLINE
  5
AA
330
1F
100
AcDbEntity
  8
_U+30EC_U+30A4_U+30E4_U+30FC 1
 62
   179
420
  2234388
370
     9
100
AcDb2dPolyline
 66
     1
 10
0.0
 20
0.0
 30
0.0
  0
VERTEX
  5
AB
330
AA
100
AcDbEntity
  8
_U+30EC_U+30A4_U+30E4_U+30FC 1
 62
   179
420
  2234388
370
     9
100
AcDbVertex
100
AcDb2dVertex
 10
67.32234720539165
 20
-137.2036738545881
 30
0.0
  0
VERTEX
  5
AC
330
AA
100
AcDbEntity
  8
_U+30EC_U+30A4_U+30E4_U+30FC 1
 62
   179
420
  2234388
370
     9
100
AcDbVertex
100
AcDb2dVertex
 10
67.32234720539165
 20
-122.2039155250047
 30
0.0
  0
SEQEND
  5
AD
330
AA
100
AcDbEntity
  8
_U+30EC_U+30A4_U+30E4_U+30FC 1
 62
   179
420
  2234388
370
     9
  0
POLYLINE
  5
AE
330
1F
100
AcDbEntity
  8
_U+30EC_U+30A4_U+30E4_U+30FC 1
 62
   179
420
  2234388
370
     9
100
AcDb2dPolyline
 66
     1
 10
0.0
 20
0.0
 30
0.0
  0
VERTEX
  5
AF
330
AE
100
AcDbEntity
  8
_U+30EC_U+30A4_U+30E4_U+30FC 1
 62
   179
420
  2234388
370
     9
100
AcDbVertex
100
AcDb2dVertex
 10
68.78235157854935
 20
-137.2036738545881
 30
0.0
  0
VERTEX
  5
B0
330
AE
100
AcDbEntity
  8
_U+30EC_U+30A4_U+30E4_U+30FC 1
 62
   179
420
  2234388
370
     9
100
AcDbVertex
100
AcDb2dVertex
 10
66.32257498341943
 20
-137.2036738545881
 30
0.0
  0
SEQEND
  5
B1
330
AE
100
AcDbEntity
  8
_U+30EC_U+30A4_U+30E4_U+30FC 1
 62
   179
420
  2234388
370
     9
  0
POLYLINE
  5
B2
330
1F
100
AcDbEntity
  8
_U+30EC_U+30A4_U+30E4_U+30FC 1
 62
   179
420
  2234388
370
     9
100
AcDb2dPolyline
 66
     1
 10
0.0
 20
0.0
 30
0.0
  0
VERTEX
  5
B3
330
B2
100
AcDbEntity
  8
_U+30EC_U+30A4_U+30E4_U+30FC 1
 62
   179
420
  2234388
370
     9
100
AcDbVertex
100
AcDb2dVertex
 10
68.78235157854935
 20
-122.2039155250047
 30
0.0
  0
VERTEX
  5
B4
330
B2
100
AcDbEntity
  8
_U+30EC_U+30A4_U+30E4_U+30FC 1
 62
   179
420
  2234388
370
     9
100
AcDbVertex
100
AcDb2dVertex
 10
66.32257498341943
 20
-122.2039155250047
 30
0.0
  0
SEQEND
  5
B5
330
B2
100
AcDbEntity
  8
_U+30EC_U+30A4_U+30E4_U+30FC 1
 62
   179
420
  2234388
370
     9
  0
POLYLINE
  5
B6
330
1F
100
AcDbEntity
  8
_U+30EC_U+30A4_U+30E4_U+30FC 1
 62
   179
420
  2234388
370
     9
100
AcDb2dPolyline
 66
     1
 10
0.0
 20
0.0
 30
0.0
  0
VERTEX
  5
B7
330
B6
100
AcDbEntity
  8
_U+30EC_U+30A4_U+30E4_U+30FC 1
 62
   179
420
  2234388
370
     9
100
AcDbVertex
100
AcDb2dVertex
 10
72.3966303752303
 20
-116.3913371931245
 30
0.0
  0
VERTEX
  5
B8
330
B6
100
AcDbEntity
  8
_U+30EC_U+30A4_U+30E4_U+30FC 1
 62
   179
420
  2234388
370
     9
100
AcDbVertex
100
AcDb2dVertex
 10
72.3966303752303
 20
-114.9802260823662
 30
0.0
  0
SEQEND
  5
B9
330
B6
100
AcDbEntity
  8
_U+30EC_U+30A4_U+30E4_U+30FC 1
 62
   179
420
  2234388
370
     9
  0
POLYLINE
  5
BA
330
1F
100
AcDbEntity
  8
_U+30EC_U+30A4_U+30E4_U+30FC 1
 62
   179
420
  2234388
370
     9
100
AcDb2dPolyline
 66
     1
 10
0.0
 20
0.0
 30
0.0
  0
VERTEX
  5
BB
330
BA
100
AcDbEntity
  8
_U+30EC_U+30A4_U+30E4_U+30FC 1
 62
   179
420
  2234388
370
     9
100
AcDbVertex
100
AcDb2dVertex
 10
71.39823401181263
 20
-116.3913371931245
 30
0.0
  0
VERTEX
  5
BC
330
BA
100
AcDbEntity
  8
_U+30EC_U+30A4_U+30E4_U+30FC 1
 62
   179
420
  2234388
370
     9
100
AcDbVertex
100
AcDb2dVertex
 10
71.39823401181263
 20
-114.9802260823662
 30
0.0
  0
SEQEND
  5
BD
330
BA
100
AcDbEntity
  8
_U+30EC_U+30A4_U+30E4_U+30FC 1
 62
   179
420
  2234388
370
     9
  0
POLYLINE
  5
BE
330
1F
100
AcDbEntity
  8
_U+30EC_U+30A4_U+30E4_U+30FC 1
 62
   179
420
  2234388
370
     9
100
AcDb2dPolyline
 66
     1
 10
0.0
 20
0.0
 30
0.0
  0
VERTEX
  5
BF
330
BE
100
AcDbEntity
  8
_U+30EC_U+30A4_U+30E4_U+30FC 1
 62
   179
420
  2234388
370
     9
100
AcDbVertex
100
AcDb2dVertex
 10
70.13663015510994
 20
-115.6857816377453
 30
0.0
  0
VERTEX
  5
C0
330
BE
100
AcDbEntity
  8
_U+30EC_U+30A4_U+30E4_U+30FC 1
 62
   179
420
  2234388
370
     9
100
AcDbVertex
100
AcDb2dVertex
 10
73.50523451361413
 20
-115.6857816377453
 30
0.0
  0
SEQEND
  5
C1
330
BE
100
AcDbEntity
  8
_U+30EC_U+30A4_U+30E4_U+30FC 1
 62
   179
420
  2234388
370
     9
  0
INSERT
  5
C3
330
1F
100
AcDbEntity
  8
_U+30EC_U+30A4_U+30E4_U+30FC 1
100
AcDbBlockReference
  2
block 2
 10
0.0
 20
0.0
 30
0.0
  0
INSERT
  5
C9
330
1F
100
AcDbEntity
  8
_U+30EC_U+30A4_U+30E4_U+30FC 1
100
AcDbBlockReference
  2
block 3
 10
0.0
 20
0.0
 30
0.0
  0
INSERT
  5
D2
330
1F
100
AcDbEntity
  8
_U+30EC_U+30A4_U+30E4_U+30FC 1
100
AcDbBlockReference
  2
block 4
 10
0.0
 20
0.0
 30
0.0
  0
INSERT
  5
EE
330
1F
100
AcDbEntity
  8
_U+30EC_U+30A4_U+30E4_U+30FC 1
100
AcDbBlockReference
  2
block 5
 10
0.0
 20
0.0
 30
0.0
  0
INSERT
  5
F4
330
1F
100
AcDbEntity
  8
_U+30EC_U+30A4_U+30E4_U+30FC 1
100
AcDbBlockReference
  2
block 6
 10
0.0
 20
0.0
 30
0.0
  0
INSERT
  5
105
330
1F
100
AcDbEntity
  8
_U+30EC_U+30A4_U+30E4_U+30FC 1
100
AcDbBlockReference
  2
block 7
 10
0.0
 20
0.0
 30
0.0
  0
ENDSEC
  0
SECTION
  2
OBJECTS
  0
DICTIONARY
  5
C
330
0
100
AcDbDictionary
281
     1
  3
ACAD_GROUP
350
D
  3
ACAD_LAYOUT
350
1A
  3
ACAD_MATERIAL
350
3B
  3
ACAD_MLEADERSTYLE
350
10D
  3
ACAD_MLINESTYLE
350
17
  3
ACAD_PLOTSETTINGS
350
19
  3
ACAD_PLOTSTYLENAME
350
E
  3
ACAD_TABLESTYLE
350
10C
  3
ACAD_VISUALSTYLE
350
2A
  0
SUN
  5
3F
330
29
100
AcDbSun
 90
        1
290
     0
 63
     7
421
 16777215
 40
1.0
291
     1
 91
  2455826
 92
 54000000
292
     0
 70
     2
 71
   256
280
     1
  0
DICTIONARY
  5
D
102
{ACAD_REACTORS
330
C
102
}
330
C
100
AcDbDictionary
281
     1
  0
DICTIONARY
  5
1A
102
{ACAD_REACTORS
330
C
102
}
330
C
100
AcDbDictionary
281
     1
  3
Layout1
350
1E
  3
Layout2
350
26
  3
Model
350
22
  0
DICTIONARY
  5
3B
102
{ACAD_REACTORS
330
C
102
}
330
C
100
AcDbDictionary
281
     1
  3
ByBlock
350
3D
  3
ByLayer
350
3C
  3
Global
350
3E
  0
DICTIONARY
  5
10D
102
{ACAD_REACTORS
330
C
102
}
330
C
100
AcDbDictionary
281
     1
  0
DICTIONARY
  5
17
102
{ACAD_REACTORS
330
C
102
}
330
C
100
AcDbDictionary
281
     1
  3
Standard
350
18
  0
DICTIONARY
  5
19
102
{ACAD_REACTORS
330
C
102
}
330
C
100
AcDbDictionary
281
     1
  0
ACDBDICTIONARYWDFLT
  5
E
102
{ACAD_REACTORS
330
C
102
}
330
C
100
AcDbDictionary
281
     1
  3
Normal
350
F
100
AcDbDictionaryWithDefault
340
F
  0
DICTIONARY
  5
10C
102
{ACAD_REACTORS
330
C
102
}
330
C
100
AcDbDictionary
281
     1
  0
DICTIONARY
  5
2A
102
{ACAD_REACTORS
330
C
102
}
330
C
100
AcDbDictionary
281
     1
  3
2dWireframe
350
2F
  3
3D Hidden
350
31
  3
3dWireframe
350
30
  3
Basic
350
32
  3
Brighten
350
36
  3
ColorChange
350
3A
  3
Conceptual
350
34
  3
Dim
350
35
  3
Facepattern
350
39
  3
Flat
350
2B
  3
FlatWithEdges
350
2C
  3
Gouraud
350
2D
  3
GouraudWithEdges
350
2E
  3
Linepattern
350
38
  3
Realistic
350
33
  3
Thicken
350
37
  0
LAYOUT
  5
1E
102
{ACAD_REACTORS
330
1A
102
}
330
1A
100
AcDbPlotSettings
  1

  2
none_device
  4

  6

 40
0.0
 41
0.0
 42
0.0
 43
0.0
 44
0.0
 45
0.0
 46
0.0
 47
0.0
 48
0.0
 49
0.0
140
0.0
141
0.0
142
1.0
143
1.0
 70
   688
 72
     0
 73
     0
 74
     5
  7

 75
    16
 76
     0
 77
     2
 78
   300
147
1.0
148
0.0
149
0.0
100
AcDbLayout
  1
Layout1
 70
     1
 71
     1
 10
0.0
 20
0.0
 11
12.0
 21
9.0
 12
0.0
 22
0.0
 32
0.0
 14
1.000000000000000E+20
 24
1.000000000000000E+20
 34
1.000000000000000E+20
 15
-1.000000000000000E+20
 25
-1.000000000000000E+20
 35
-1.000000000000000E+20
146
0.0
 13
0.0
 23
0.0
 33
0.0
 16
1.0
 26
0.0
 36
0.0
 17
0.0
 27
1.0
 37
0.0
 76
     0
330
1B
  0
LAYOUT
  5
26
102
{ACAD_REACTORS
330
1A
102
}
330
1A
100
AcDbPlotSettings
  1

  2
none_device
  4

  6

 40
0.0
 41
0.0
 42
0.0
 43
0.0
 44
0.0
 45
0.0
 46
0.0
 47
0.0
 48
0.0
 49
0.0
140
0.0
141
0.0
142
1.0
143
1.0
 70
   688
 72
     0
 73
     0
 74
     5
  7

 75
    16
 76
     0
 77
     2
 78
   300
147
1.0
148
0.0
149
0.0
100
AcDbLayout
  1
Layout2
 70
     1
 71
     2
 10
0.0
 20
0.0
 11
0.0
 21
0.0
 12
0.0
 22
0.0
 32
0.0
 14
0.0
 24
0.0
 34
0.0
 15
0.0
 25
0.0
 35
0.0
146
0.0
 13
0.0
 23
0.0
 33
0.0
 16
1.0
 26
0.0
 36
0.0
 17
0.0
 27
1.0
 37
0.0
 76
     0
330
23
  0
LAYOUT
  5
22
102
{ACAD_REACTORS
330
1A
102
}
330
1A
100
AcDbPlotSettings
  1

  2
none_device
  4

  6

 40
0.0
 41
0.0
 42
0.0
 43
0.0
 44
0.0
 45
0.0
 46
0.0
 47
0.0
 48
0.0
 49
0.0
140
0.0
141
0.0
142
1.0
143
1.0
 70
  1712
 72
     0
 73
     0
 74
     0
  7

 75
     0
 76
     0
 77
     2
 78
   300
147
1.0
148
0.0
149
0.0
100
AcDbLayout
  1
Model
 70
     1
 71
     0
 10
0.0
 20
0.0
 11
12.0
 21
9.0
 12
0.0
 22
0.0
 32
0.0
 14
1.000000000000000E+20
 24
1.000000000000000E+20
 34
1.000000000000000E+20
 15
-1.000000000000000E+20
 25
-1.000000000000000E+20
 35
-1.000000000000000E+20
146
0.0
 13
0.0
 23
0.0
 33
0.0
 16
1.0
 26
0.0
 36
0.0
 17
0.0
 27
1.0
 37
0.0
 76
     0
330
1F
331
29
  0
MATERIAL
  5
3D
102
{ACAD_REACTORS
330
3B
102
}
330
3B
100
AcDbMaterial
  1
ByBlock
 72
     1
 94
      127
  0
MATERIAL
  5
3C
102
{ACAD_REACTORS
330
3B
102
}
330
3B
100
AcDbMaterial
  1
ByLayer
 72
     1
 94
      127
  0
MATERIAL
  5
3E
102
{ACAD_REACTORS
330
3B
102
}
330
3B
100
AcDbMaterial
  1
Global
 72
     1
 94
      127
  0
MLINESTYLE
  5
18
102
{ACAD_REACTORS
330
17
102
}
330
17
100
AcDbMlineStyle
  2
Standard
 70
     0
  3

 62
   256
 51
90.0
 52
90.0
 71
     2
 49
0.5
 62
   256
  6
BYLAYER
 49
-0.5
 62
   256
  6
BYLAYER
  0
ACDBPLACEHOLDER
  5
F
102
{ACAD_REACTORS
330
E
102
}
330
E
  0
VISUALSTYLE
  5
2F
102
{ACAD_REACTORS
330
2A
102
}
330
2A
100
AcDbVisualStyle
  2
2dWireframe
 70
     4
177
     2
291
     0
 71
     0
176
     1
 72
     2
176
     1
 73
     0
176
     1
 90
        0
176
     1
 40
-0.6
176
     1
 41
-30.0
176
     1
 62
     5
 63
     7
421
 16777215
176
     1
 74
     1
176
     1
 91
        4
176
     1
 64
     7
176
     1
 65
   257
176
     1
 75
     1
176
     1
175
     1
176
     1
 42
1.0
176
     1
 92
        0
176
     1
 66
   257
176
     1
 43
1.0
176
     1
 76
     1
176
     1
 77
     6
176
     1
 78
     2
176
     1
 67
     7
176
     1
 79
     5
176
     1
170
     0
176
     1
171
     0
176
     1
290
     0
176
     1
 93
        1
176
     1
 44
0.0
176
     1
173
     0
176
     1
  0
VISUALSTYLE
  5
31
102
{ACAD_REACTORS
330
2A
102
}
330
2A
100
AcDbVisualStyle
  2
3D Hidden
 70
     6
177
     2
291
     0
 71
     1
176
     1
 72
     2
176
     1
 73
     2
176
     1
 90
        0
176
     1
 40
-0.6
176
     1
 41
-30.0
176
     1
 62
     5
 63
     7
421
 16777215
176
     1
 74
     2
176
     1
 91
        2
176
     1
 64
     7
176
     1
 65
   257
176
     1
 75
     2
176
     1
175
     1
176
     1
 42
40.0
176
     1
 92
        0
176
     1
 66
   257
176
     1
 43
1.0
176
     1
 76
     1
176
     1
 77
     6
176
     1
 78
     2
176
     1
 67
     7
176
     1
 79
     3
176
     1
170
     0
176
     1
171
     0
176
     1
290
     0
176
     1
 93
        1
176
     1
 44
0.0
176
     1
173
     0
176
     1
  0
VISUALSTYLE
  5
30
102
{ACAD_REACTORS
330
2A
102
}
330
2A
100
AcDbVisualStyle
  2
3dWireframe
 70
     5
177
     2
291
     0
 71
     0
176
     1
 72
     2
176
     1
 73
     0
176
     1
 90
        0
176
     1
 40
-0.6
176
     1
 41
-30.0
176
     1
 62
     5
 63
     7
421
 16777215
176
     1
 74
     1
176
     1
 91
        4
176
     1
 64
     7
176
     1
 65
   257
176
     1
 75
     1
176
     1
175
     1
176
     1
 42
1.0
176
     1
 92
        0
176
     1
 66
   257
176
     1
 43
1.0
176
     1
 76
     1
176
     1
 77
     6
176
     1
 78
     2
176
     1
 67
     7
176
     1
 79
     5
176
     1
170
     0
176
     1
171
     0
176
     1
290
     0
176
     1
 93
        1
176
     1
 44
0.0
176
     1
173
     0
176
     1
  0
VISUALSTYLE
  5
32
102
{ACAD_REACTORS
330
2A
102
}
330
2A
100
AcDbVisualStyle
  2
Basic
 70
     7
177
     2
291
     1
 71
     1
176
     1
 72
     0
176
     1
 73
     1
176
     1
 90
        0
176
     1
 40
-0.6
176
     1
 41
-30.0
176
     1
 62
     5
 63
     7
421
 16777215
176
     1
 74
     0
176
     1
 91
        4
176
     1
 64
     7
176
     1
 65
   257
176
     1
 75
     1
176
     1
175
     1
176
     1
 42
1.0
176
     1
 92
        8
176
     1
 66
     7
176
     1
 43
1.0
176
     1
 76
     1
176
     1
 77
     6
176
     1
 78
     2
176
     1
 67
     7
176
     1
 79
     5
176
     1
170
     0
176
     1
171
     0
176
     1
290
     0
176
     1
 93
        1
176
     1
 44
0.0
176
     1
173
     0
176
     1
  0
VISUALSTYLE
  5
36
102
{ACAD_REACTORS
330
2A
102
}
330
2A
100
AcDbVisualStyle
  2
Brighten
 70
    12
177
     2
291
     1
 71
     2
176
     1
 72
     2
176
     1
 73
     0
176
     1
 90
        0
176
     1
 40
-0.6
176
     1
 41
-30.0
176
     1
 62
     5
 63
     7
421
 16777215
176
     1
 74
     1
176
     1
 91
        4
176
     1
 64
     7
176
     1
 65
   257
176
     1
 75
     1
176
     1
175
     1
176
     1
 42
1.0
176
     1
 92
        8
176
     1
 66
     7
176
     1
 43
1.0
176
     1
 76
     1
176
     1
 77
     6
176
     1
 78
     2
176
     1
 67
     7
176
     1
 79
     5
176
     1
170
     0
176
     1
171
     0
176
     1
290
     0
176
     1
 93
        1
176
     1
 44
50.0
176
     1
173
     0
176
     1
  0
VISUALSTYLE
  5
3A
102
{ACAD_REACTORS
330
2A
102
}
330
2A
100
AcDbVisualStyle
  2
ColorChange
 70
    16
177
     2
291
     1
 71
     2
176
     1
 72
     2
176
     1
 73
     3
176
     1
 90
        0
176
     1
 40
-0.6
176
     1
 41
-30.0
176
     1
 62
     5
 63
     8
421
  8421504
176
     1
 74
     1
176
     1
 91
        4
176
     1
 64
     7
176
     1
 65
   257
176
     1
 75
     1
176
     1
175
     1
176
     1
 42
1.0
176
     1
 92
        8
176
     1
 66
     8
424
  8421504
176
     1
 43
1.0
176
     1
 76
     1
176
     1
 77
     6
176
     1
 78
     2
176
     1
 67
     7
176
     1
 79
     5
176
     1
170
     0
176
     1
171
     0
176
     1
290
     0
176
     1
 93
        1
176
     1
 44
0.0
176
     1
173
     0
176
     1
  0
VISUALSTYLE
  5
34
102
{ACAD_REACTORS
330
2A
102
}
330
2A
100
AcDbVisualStyle
  2
Conceptual
 70
     9
177
     2
291
     0
 71
     3
176
     1
 72
     2
176
     1
 73
     0
176
     1
 90
        0
176
     1
 40
-0.6
176
     1
 41
-30.0
176
     1
 62
     5
 63
     7
421
 16777215
176
     1
 74
     2
176
     1
 91
        2
176
     1
 64
     7
176
     1
 65
   257
176
     1
 75
     1
176
     1
175
     1
176
     1
 42
40.0
176
     1
 92
        8
176
     1
 66
     7
176
     1
 43
1.0
176
     1
 76
     1
176
     1
 77
     6
176
     1
 78
     2
176
     1
 67
     7
176
     1
 79
     3
176
     1
170
     0
176
     1
171
     0
176
     1
290
     0
176
     1
 93
        1
176
     1
 44
0.0
176
     1
173
     0
176
     1
  0
VISUALSTYLE
  5
35
102
{ACAD_REACTORS
330
2A
102
}
330
2A
100
AcDbVisualStyle
  2
Dim
 70
    11
177
     2
291
     1
 71
     2
176
     1
 72
     2
176
     1
 73
     0
176
     1
 90
        0
176
     1
 40
-0.6
176
     1
 41
-30.0
176
     1
 62
     5
 63
     7
421
 16777215
176
     1
 74
     1
176
     1
 91
        4
176
     1
 64
     7
176
     1
 65
   257
176
     1
 75
     1
176
     1
175
     1
176
     1
 42
1.0
176
     1
 92
        8
176
     1
 66
     7
176
     1
 43
1.0
176
     1
 76
     1
176
     1
 77
     6
176
     1
 78
     2
176
     1
 67
     7
176
     1
 79
     5
176
     1
170
     0
176
     1
171
     0
176
     1
290
     0
176
     1
 93
        1
176
     1
 44
-50.0
176
     1
173
     0
176
     1
  0
VISUALSTYLE
  5
39
102
{ACAD_REACTORS
330
2A
102
}
330
2A
100
AcDbVisualStyle
  2
Facepattern
 70
    15
177
     2
291
     1
 71
     2
176
     1
 72
     2
176
     1
 73
     0
176
     1
 90
        0
176
     1
 40
-0.6
176
     1
 41
-30.0
176
     1
 62
     5
 63
     7
421
 16777215
176
     1
 74
     1
176
     1
 91
        4
176
     1
 64
     7
176
     1
 65
   257
176
     1
 75
     1
176
     1
175
     1
176
     1
 42
1.0
176
     1
 92
        8
176
     1
 66
     7
176
     1
 43
1.0
176
     1
 76
     1
176
     1
 77
     6
176
     1
 78
     2
176
     1
 67
     7
176
     1
 79
     5
176
     1
170
     0
176
     1
171
     0
176
     1
290
     0
176
     1
 93
        1
176
     1
 44
0.0
176
     1
173
     0
176
     1
  0
VISUALSTYLE
  5
2B
102
{ACAD_REACTORS
330
2A
102
}
330
2A
100
AcDbVisualStyle
  2
Flat
 70
     0
177
     2
291
     1
 71
     2
176
     1
 72
     1
176
     1
 73
     1
176
     1
 90
        2
176
     1
 40
-0.6
176
     1
 41
30.0
176
     1
 62
     5
 63
     7
421
 16777215
176
     1
 74
     0
176
     1
 91
        4
176
     1
 64
     7
176
     1
 65
   257
176
     1
 75
     1
176
     1
175
     1
176
     1
 42
1.0
176
     1
 92
        8
176
     1
 66
     7
176
     1
 43
1.0
176
     1
 76
     1
176
     1
 77
     6
176
     1
 78
     2
176
     1
 67
     7
176
     1
 79
     5
176
     1
170
     0
176
     1
171
     0
176
     1
290
     0
176
     1
 93
       13
176
     1
 44
0.0
176
     1
173
     0
176
     1
  0
VISUALSTYLE
  5
2C
102
{ACAD_REACTORS
330
2A
102
}
330
2A
100
AcDbVisualStyle
  2
FlatWithEdges
 70
     1
177
     2
291
     1
 71
     2
176
     1
 72
     1
176
     1
 73
     1
176
     1
 90
        2
176
     1
 40
-0.6
176
     1
 41
30.0
176
     1
 62
     5
 63
     7
421
 16777215
176
     1
 74
     1
176
     1
 91
        4
176
     1
 64
     7
176
     1
 65
   257
176
     1
 75
     1
176
     1
175
     1
176
     1
 42
1.0
176
     1
 92
        0
176
     1
 66
   257
176
     1
 43
1.0
176
     1
 76
     1
176
     1
 77
     6
176
     1
 78
     2
176
     1
 67
     7
176
     1
 79
     5
176
     1
170
     0
176
     1
171
     0
176
     1
290
     0
176
     1
 93
       13
176
     1
 44
0.0
176
     1
173
     0
176
     1
  0
VISUALSTYLE
  5
2D
102
{ACAD_REACTORS
330
2A
102
}
330
2A
100
AcDbVisualStyle
  2
Gouraud
 70
     2
177
     2
291
     1
 71
     2
176
     1
 72
     2
176
     1
 73
     1
176
     1
 90
        2
176
     1
 40
-0.6
176
     1
 41
30.0
176
     1
 62
     5
 63
     7
421
 16777215
176
     1
 74
     0
176
     1
 91
        4
176
     1
 64
     7
176
     1
 65
   257
176
     1
 75
     1
176
     1
175
     1
176
     1
 42
1.0
176
     1
 92
        0
176
     1
 66
     7
176
     1
 43
1.0
176
     1
 76
     1
176
     1
 77
     6
176
     1
 78
     2
176
     1
 67
     7
176
     1
 79
     5
176
     1
170
     0
176
     1
171
     0
176
     1
290
     0
176
     1
 93
       13
176
     1
 44
0.0
176
     1
173
     0
176
     1
  0
VISUALSTYLE
  5
2E
102
{ACAD_REACTORS
330
2A
102
}
330
2A
100
AcDbVisualStyle
  2
GouraudWithEdges
 70
     3
177
     2
291
     1
 71
     2
176
     1
 72
     2
176
     1
 73
     1
176
     1
 90
        2
176
     1
 40
-0.6
176
     1
 41
30.0
176
     1
 62
     5
 63
     7
421
 16777215
176
     1
 74
     1
176
     1
 91
        4
176
     1
 64
     7
176
     1
 65
   257
176
     1
 75
     1
176
     1
175
     1
176
     1
 42
1.0
176
     1
 92
        0
176
     1
 66
   257
176
     1
 43
1.0
176
     1
 76
     1
176
     1
 77
     6
176
     1
 78
     2
176
     1
 67
     7
176
     1
 79
     5
176
     1
170
     0
176
     1
171
     0
176
     1
290
     0
176
     1
 93
       13
176
     1
 44
0.0
176
     1
173
     0
176
     1
  0
VISUALSTYLE
  5
38
102
{ACAD_REACTORS
330
2A
102
}
330
2A
100
AcDbVisualStyle
  2
Linepattern
 70
    14
177
     2
291
     1
 71
     2
176
     1
 72
     2
176
     1
 73
     0
176
     1
 90
        0
176
     1
 40
-0.6
176
     1
 41
-30.0
176
     1
 62
     5
 63
     7
421
 16777215
176
     1
 74
     1
176
     1
 91
        4
176
     1
 64
     7
176
     1
 65
   257
176
     1
 75
     7
176
     1
175
     7
176
     1
 42
1.0
176
     1
 92
        8
176
     1
 66
     7
176
     1
 43
1.0
176
     1
 76
     1
176
     1
 77
     6
176
     1
 78
     2
176
     1
 67
     7
176
     1
 79
     5
176
     1
170
     0
176
     1
171
     0
176
     1
290
     0
176
     1
 93
        1
176
     1
 44
0.0
176
     1
173
     0
176
     1
  0
VISUALSTYLE
  5
33
102
{ACAD_REACTORS
330
2A
102
}
330
2A
100
AcDbVisualStyle
  2
Realistic
 70
     8
177
     2
291
     0
 71
     2
176
     1
 72
     2
176
     1
 73
     0
176
     1
 90
        0
176
     1
 40
-0.6
176
     1
 41
-30.0
176
     1
 62
     5
 63
     7
421
 16777215
176
     1
 74
     1
176
     1
 91
        0
176
     1
 64
     7
176
     1
 65
   257
176
     1
 75
     1
176
     1
175
     1
176
     1
 42
1.0
176
     1
 92
        8
176
     1
 66
     8
424
  7895160
176
     1
 43
1.0
176
     1
 76
     1
176
     1
 77
     6
176
     1
 78
     2
176
     1
 67
     7
176
     1
 79
     5
176
     1
170
     0
176
     1
171
     0
176
     1
290
     0
176
     1
 93
       13
176
     1
 44
0.0
176
     1
173
     0
176
     1
  0
VISUALSTYLE
  5
37
102
{ACAD_REACTORS
330
2A
102
}
330
2A
100
AcDbVisualStyle
  2
Thicken
 70
    13
177
     2
291
     1
 71
     2
176
     1
 72
     2
176
     1
 73
     0
176
     1
 90
        0
176
     1
 40
-0.6
176
     1
 41
-30.0
176
     1
 62
     5
 63
     7
421
 16777215
176
     1
 74
     1
176
     1
 91
        4
176
     1
 64
     7
176
     1
 65
   257
176
     1
 75
     1
176
     1
175
     1
176
     1
 42
1.0
176
     1
 92
       12
176
     1
 66
     7
176
     1
 43
1.0
176
     1
 76
     1
176
     1
 77
     6
176
     1
 78
     2
176
     1
 67
     7
176
     1
 79
     5
176
     1
170
     0
176
     1
171
     0
176
     1
290
     0
176
     1
 93
        1
176
     1
 44
0.0
176
     1
173
     0
176
     1
  0
ENDSEC
  0
EOF
