  0
SECTION
  2
HEADER
  9
$ACADVER
  1
AC1024
  9
$ACADMAINTVER
 70
     6
  9
$DWGCODEPAGE
  3
UNDEFINED
  9
$INSBASE
 10
0.0
 20
0.0
 30
0.0
  9
$EXTMIN
 10
1.000000000000000E+20
 20
1.000000000000000E+20
 30
1.000000000000000E+20
  9
$EXTMAX
 10
-1.000000000000000E+20
 20
-1.000000000000000E+20
 30
-1.000000000000000E+20
  9
$LIMMIN
 10
0.0
 20
0.0
  9
$LIMMAX
 10
12.0
 20
9.0
  9
$ORTHOMODE
 70
     0
  9
$REGENMODE
 70
     1
  9
$FILLMODE
 70
     1
  9
$QTEXTMODE
 70
     0
  9
$MIRRTEXT
 70
     1
  9
$LTSCALE
 40
1.0
  9
$ATTMODE
 70
     1
  9
$TEXTSIZE
 40
0.2
  9
$TRACEWID
 40
0.05
  9
$TEXTSTYLE
  7
Standard
  9
$CLAYER
  8
0
  9
$CELTYPE
  6
ByLayer
  9
$CECOLOR
 62
   256
  9
$CELTSCALE
 40
1.0
  9
$DISPSILH
 70
     0
  9
$DIMSCALE
 40
1.0
  9
$DIMASZ
 40
0.18
  9
$DIMEXO
 40
0.0625
  9
$DIMDLI
 40
0.38
  9
$DIMRND
 40
0.0
  9
$DIMDLE
 40
0.0
  9
$DIMEXE
 40
0.18
  9
$DIMTP
 40
0.0
  9
$DIMTM
 40
0.0
  9
$DIMTXT
 40
0.18
  9
$DIMCEN
 40
0.09
  9
$DIMTSZ
 40
0.0
  9
$DIMTOL
 70
     0
  9
$DIMLIM
 70
     0
  9
$DIMTIH
 70
     1
  9
$DIMTOH
 70
     1
  9
$DIMSE1
 70
     0
  9
$DIMSE2
 70
     0
  9
$DIMTAD
 70
     0
  9
$DIMZIN
 70
     0
  9
$DIMBLK
  1

  9
$DIMASO
 70
     1
  9
$DIMSHO
 70
     1
  9
$DIMPOST
  1

  9
$DIMAPOST
  1

  9
$DIMALT
 70
     0
  9
$DIMALTD
 70
     2
  9
$DIMALTF
 40
25.4
  9
$DIMLFAC
 40
1.0
  9
$DIMTOFL
 70
     0
  9
$DIMTVP
 40
0.0
  9
$DIMTIX
 70
     0
  9
$DIMSOXD
 70
     0
  9
$DIMSAH
 70
     0
  9
$DIMBLK1
  1

  9
$DIMBLK2
  1

  9
$DIMSTYLE
  2
Standard
  9
$DIMCLRD
 70
     0
  9
$DIMCLRE
 70
     0
  9
$DIMCLRT
 70
     0
  9
$DIMTFAC
 40
1.0
  9
$DIMGAP
 40
0.09
  9
$DIMJUST
 70
     0
  9
$DIMSD1
 70
     0
  9
$DIMSD2
 70
     0
  9
$DIMTOLJ
 70
     1
  9
$DIMTZIN
 70
     0
  9
$DIMALTZ
 70
     0
  9
$DIMALTTZ
 70
     0
  9
$DIMUPT
 70
     0
  9
$DIMDEC
 70
     4
  9
$DIMTDEC
 70
     4
  9
$DIMALTU
 70
     2
  9
$DIMALTTD
 70
     2
  9
$DIMTXSTY
  7
Standard
  9
$DIMAUNIT
 70
     0
  9
$DIMADEC
 70
     0
  9
$DIMALTRND
 40
0.0
  9
$DIMAZIN
 70
     0
  9
$DIMDSEP
 70
    46
  9
$DIMATFIT
 70
     3
  9
$DIMFRAC
 70
     0
  9
$DIMLDRBLK
  1

  9
$DIMLUNIT
 70
     2
  9
$DIMLWD
 70
    -2
  9
$DIMLWE
 70
    -2
  9
$DIMTMOVE
 70
     0
  9
$DIMFXL
 40
1.0
  9
$DIMFXLON
 70
     0
  9
$DIMJOGANG
 40
0.7853981633974483
  9
$DIMTFILL
 70
     0
  9
$DIMTFILLCLR
 70
     0
  9
$DIMARCSYM
 70
     0
  9
$DIMLTYPE
  6

  9
$DIMLTEX1
  6

  9
$DIMLTEX2
  6

  9
$DIMTXTDIRECTION
 70
     0
  9
$LUNITS
 70
     2
  9
$LUPREC
 70
     4
  9
$SKETCHINC
 40
0.1
  9
$FILLETRAD
 40
0.5
  9
$AUNITS
 70
     0
  9
$AUPREC
 70
     0
  9
$MENU
  1
.
  9
$ELEVATION
 40
0.0
  9
$PELEVATION
 40
0.0
  9
$THICKNESS
 40
0.0
  9
$LIMCHECK
 70
     0
  9
$CHAMFERA
 40
0.5
  9
$CHAMFERB
 40
0.5
  9
$CHAMFERC
 40
1.0
  9
$CHAMFERD
 40
0.0
  9
$SKPOLY
 70
     0
  9
$TDCREATE
 40
2457917.603518519
  9
$TDUCREATE
 40
2457917.228518519
  9
$TDUPDATE
 40
2457917.603518519
  9
$TDUUPDATE
 40
2457917.228518519
  9
$TDINDWG
 40
0.0000000116
  9
$TDUSRTIMER
 40
0.0000000116
  9
$USRTIMER
 70
     1
  9
$ANGBASE
 50
0.0
  9
$ANGDIR
 70
     0
  9
$PDMODE
 70
     0
  9
$PDSIZE
 40
0.0
  9
$PLINEWID
 40
0.0
  9
$SPLFRAME
 70
     0
  9
$SPLINETYPE
 70
     6
  9
$SPLINESEGS
 70
     8
  9
$HANDSEED
  5
EA
  9
$SURFTAB1
 70
     6
  9
$SURFTAB2
 70
     6
  9
$SURFTYPE
 70
     6
  9
$SURFU
 70
     6
  9
$SURFV
 70
     6
  9
$UCSBASE
  2

  9
$UCSNAME
  2

  9
$UCSORG
 10
0.0
 20
0.0
 30
0.0
  9
$UCSXDIR
 10
1.0
 20
0.0
 30
0.0
  9
$UCSYDIR
 10
0.0
 20
1.0
 30
0.0
  9
$UCSORTHOREF
  2

  9
$UCSORTHOVIEW
 70
     0
  9
$UCSORGTOP
 10
0.0
 20
0.0
 30
0.0
  9
$UCSORGBOTTOM
 10
0.0
 20
0.0
 30
0.0
  9
$UCSORGLEFT
 10
0.0
 20
0.0
 30
0.0
  9
$UCSORGRIGHT
 10
0.0
 20
0.0
 30
0.0
  9
$UCSORGFRONT
 10
0.0
 20
0.0
 30
0.0
  9
$UCSORGBACK
 10
0.0
 20
0.0
 30
0.0
  9
$PUCSBASE
  2

  9
$PUCSNAME
  2

  9
$PUCSORG
 10
0.0
 20
0.0
 30
0.0
  9
$PUCSXDIR
 10
1.0
 20
0.0
 30
0.0
  9
$PUCSYDIR
 10
0.0
 20
1.0
 30
0.0
  9
$PUCSORTHOREF
  2

  9
$PUCSORTHOVIEW
 70
     0
  9
$PUCSORGTOP
 10
0.0
 20
0.0
 30
0.0
  9
$PUCSORGBOTTOM
 10
0.0
 20
0.0
 30
0.0
  9
$PUCSORGLEFT
 10
0.0
 20
0.0
 30
0.0
  9
$PUCSORGRIGHT
 10
0.0
 20
0.0
 30
0.0
  9
$PUCSORGFRONT
 10
0.0
 20
0.0
 30
0.0
  9
$PUCSORGBACK
 10
0.0
 20
0.0
 30
0.0
  9
$USERI1
 70
     0
  9
$USERI2
 70
     0
  9
$USERI3
 70
     0
  9
$USERI4
 70
     0
  9
$USERI5
 70
     0
  9
$USERR1
 40
0.0
  9
$USERR2
 40
0.0
  9
$USERR3
 40
0.0
  9
$USERR4
 40
0.0
  9
$USERR5
 40
0.0
  9
$WORLDVIEW
 70
     1
  9
$SHADEDGE
 70
     3
  9
$SHADEDIF
 70
    70
  9
$TILEMODE
 70
     1
  9
$MAXACTVP
 70
    64
  9
$PINSBASE
 10
0.0
 20
0.0
 30
0.0
  9
$PLIMCHECK
 70
     0
  9
$PEXTMIN
 10
1.000000000000000E+20
 20
1.000000000000000E+20
 30
1.000000000000000E+20
  9
$PEXTMAX
 10
-1.000000000000000E+20
 20
-1.000000000000000E+20
 30
-1.000000000000000E+20
  9
$PLIMMIN
 10
0.0
 20
0.0
  9
$PLIMMAX
 10
12.0
 20
9.0
  9
$UNITMODE
 70
     0
  9
$VISRETAIN
 70
     1
  9
$PLINEGEN
 70
     0
  9
$PSLTSCALE
 70
     1
  9
$TREEDEPTH
 70
  3020
  9
$CMLSTYLE
  2
Standard
  9
$CMLJUST
 70
     0
  9
$CMLSCALE
 40
1.0
  9
$PROXYGRAPHICS
 70
     1
  9
$MEASUREMENT
 70
     0
  9
$CELWEIGHT
370
    -1
  9
$ENDCAPS
280
     0
  9
$JOINSTYLE
280
     0
  9
$LWDISPLAY
290
     1
  9
$INSUNITS
 70
     1
  9
$HYPERLINKBASE
  1

  9
$STYLESHEET
  1

  9
$XEDIT
290
     1
  9
$CEPSNTYPE
380
     0
  9
$PSTYLEMODE
290
     1
  9
$FINGERPRINTGUID
  2
{2E281E44-1DAC-2389-4CB5-D42A0C7CFDAE}
  9
$VERSIONGUID
  2
{FAEB1C32-E019-11D5-929B-00C0DF256EC4}
  9
$EXTNAMES
290
     1
  9
$PSVPSCALE
 40
0.0
  9
$OLESTARTUP
290
     0
  9
$SORTENTS
280
   127
  9
$INDEXCTL
280
     0
  9
$HIDETEXT
280
     1
  9
$XCLIPFRAME
280
     2
  9
$HALOGAP
280
     0
  9
$OBSCOLOR
 70
   257
  9
$OBSLTYPE
280
     0
  9
$INTERSECTIONDISPLAY
280
     0
  9
$INTERSECTIONCOLOR
 70
   257
  9
$DIMASSOC
280
     2
  9
$PROJECTNAME
  1

  9
$CAMERADISPLAY
290
     0
  9
$LENSLENGTH
 40
50.0
  9
$CAMERAHEIGHT
 40
0.0
  9
$STEPSPERSEC
 40
2.0
  9
$STEPSIZE
 40
6.0
  9
$3DDWFPREC
 40
2.0
  9
$PSOLWIDTH
 40
0.25
  9
$PSOLHEIGHT
 40
4.0
  9
$LOFTANG1
 40
1.570796326794897
  9
$LOFTANG2
 40
1.570796326794897
  9
$LOFTMAG1
 40
0.0
  9
$LOFTMAG2
 40
0.0
  9
$LOFTPARAM
 70
     7
  9
$LOFTNORMALS
280
     1
  9
$LATITUDE
 40
37.795
  9
$LONGITUDE
 40
-122.394
  9
$NORTHDIRECTION
 40
0.0
  9
$TIMEZONE
 70
 -8000
  9
$LIGHTGLYPHDISPLAY
280
     1
  9
$TILEMODELIGHTSYNCH
280
     1
  9
$CMATERIAL
347
3C
  9
$SOLIDHIST
280
     1
  9
$SHOWHIST
280
     1
  9
$DWFFRAME
280
     2
  9
$DGNFRAME
280
     2
  9
$REALWORLDSCALE
290
     1
  9
$INTERFERECOLOR
 62
   256
  9
$CSHADOW
280
     0
  9
$SHADOWPLANELOCATION
 40
0.0
  0
ENDSEC
  0
SECTION
  2
CLASSES
  0
CLASS
  1
ACDBDICTIONARYWDFLT
  2
AcDbDictionaryWithDefault
  3
ObjectDBX Classes
 90
        0
 91
        4
280
     0
281
     0
  0
CLASS
  1
VISUALSTYLE
  2
AcDbVisualStyle
  3
ObjectDBX Classes
 90
     4095
 91
        4
280
     0
281
     0
  0
CLASS
  1
MATERIAL
  2
AcDbMaterial
  3
ObjectDBX Classes
 90
     1153
 91
        4
280
     0
281
     0
  0
CLASS
  1
SUN
  2
AcDbSun
  3
SCENEOE
 90
     1024
 91
        4
280
     0
281
     0
  0
ENDSEC
  0
SECTION
  2
TABLES
  0
TABLE
  2
VPORT
  5
8
330
0
100
AcDbSymbolTable
 70
     1
  0
VPORT
  5
29
330
8
100
AcDbSymbolTableRecord
100
AcDbViewportTableRecord
  2
*Active
 70
     0
 10
0.0
 20
0.0
 11
1.0
 21
1.0
 12
0.0
 22
0.0
 13
0.0
 23
0.0
 14
0.5
 24
0.5
 15
0.5
 25
0.5
 16
0.0
 26
0.0
 36
1.0
 17
91.00082462281999
 27
-128.4993055234307
 37
0.0
 40
256.9986110468615
 41
0.7081814508812795
 42
50.0
 43
0.0
 44
0.0
 50
0.0
 51
0.0
 71
     0
 72
   100
 73
     1
 74
     3
 75
     0
 76
     0
 77
     0
 78
     0
281
     0
 65
     1
110
0.0
120
0.0
130
0.0
111
1.0
121
0.0
131
0.0
112
0.0
122
1.0
132
0.0
 79
     0
146
0.0
 60
     3
 61
     5
292
     1
282
     1
141
0.0
142
0.0
 63
   250
361
3F
  0
ENDTAB
  0
TABLE
  2
LTYPE
  5
5
330
0
100
AcDbSymbolTable
 70
     1
  0
LTYPE
  5
14
330
5
100
AcDbSymbolTableRecord
100
AcDbLinetypeTableRecord
  2
ByBlock
 70
     0
  3

 72
    65
 73
     0
 40
0.0
  0
LTYPE
  5
15
330
5
100
AcDbSymbolTableRecord
100
AcDbLinetypeTableRecord
  2
ByLayer
 70
     0
  3

 72
    65
 73
     0
 40
0.0
  0
LTYPE
  5
16
330
5
100
AcDbSymbolTableRecord
100
AcDbLinetypeTableRecord
  2
Continuous
 70
     0
  3
Solid line
 72
    65
 73
     0
 40
0.0
  0
ENDTAB
  0
TABLE
  2
LAYER
  5
2
330
0
100
AcDbSymbolTable
 70
     2
  0
LAYER
  5
10
330
2
100
AcDbSymbolTableRecord
100
AcDbLayerTableRecord
  2
0
 70
     0
 62
     7
  6
Continuous
370
    -3
390
F
347
3E
  0
LAYER
  5
40
330
2
100
AcDbSymbolTableRecord
100
AcDbLayerTableRecord
  2
_U+30EC_U+30A4_U+30E4_U+30FC 1
 70
     0
 62
     7
  6
Continuous
370
    -3
390
F
347
3E
  0
ENDTAB
  0
TABLE
  2
STYLE
  5
3
330
0
100
AcDbSymbolTable
 70
     1
  0
STYLE
  5
11
330
3
100
AcDbSymbolTableRecord
100
AcDbTextStyleTableRecord
  2
Standard
 70
     0
 40
0.0
 41
1.0
 50
0.0
 71
     0
 42
0.2
  3
txt
  4

  0
ENDTAB
  0
TABLE
  2
VIEW
  5
6
330
0
100
AcDbSymbolTable
 70
     0
  0
ENDTAB
  0
TABLE
  2
UCS
  5
7
330
0
100
AcDbSymbolTable
 70
     0
  0
ENDTAB
  0
TABLE
  2
APPID
  5
9
330
0
100
AcDbSymbolTable
 70
     1
  0
APPID
  5
12
330
9
100
AcDbSymbolTableRecord
100
AcDbRegAppTableRecord
  2
ACAD
 70
     0
  0
ENDTAB
  0
TABLE
  2
DIMSTYLE
  5
A
330
0
100
AcDbSymbolTable
 70
     1
100
AcDbDimStyleTable
  0
DIMSTYLE
105
27
330
A
100
AcDbSymbolTableRecord
100
AcDbDimStyleTableRecord
  2
Standard
 70
     0
178
     0
340
11
  0
ENDTAB
  0
TABLE
  2
BLOCK_RECORD
  5
1
330
0
100
AcDbSymbolTable
 70
     6
  0
BLOCK_RECORD
  5
1F
330
1
100
AcDbSymbolTableRecord
100
AcDbBlockTableRecord
  2
*Model_Space
340
22
 70
     0
280
     1
281
     0
  0
BLOCK_RECORD
  5
1B
330
1
100
AcDbSymbolTableRecord
100
AcDbBlockTableRecord
  2
*Paper_Space
340
1E
 70
     0
280
     1
281
     0
  0
BLOCK_RECORD
  5
23
330
1
100
AcDbSymbolTableRecord
100
AcDbBlockTableRecord
  2
*Paper_Space0
340
26
 70
     0
280
     1
281
     0
  0
BLOCK_RECORD
  5
A8
330
1
100
AcDbSymbolTableRecord
100
AcDbBlockTableRecord
  2
block 2
340
0
102
{BLKREFS
331
A9
102
}
 70
     0
280
     1
281
     0
  0
BLOCK_RECORD
  5
AE
330
1
100
AcDbSymbolTableRecord
100
AcDbBlockTableRecord
  2
block 3
340
0
102
{BLKREFS
331
AF
102
}
 70
     0
280
     1
281
     0
  0
BLOCK_RECORD
  5
CA
330
1
100
AcDbSymbolTableRecord
100
AcDbBlockTableRecord
  2
block 4
340
0
102
{BLKREFS
331
CB
102
}
 70
     0
280
     1
281
     0
  0
BLOCK_RECORD
  5
D0
330
1
100
AcDbSymbolTableRecord
100
AcDbBlockTableRecord
  2
block 5
340
0
102
{BLKREFS
331
D1
102
}
 70
     0
280
     1
281
     0
  0
BLOCK_RECORD
  5
D9
330
1
100
AcDbSymbolTableRecord
100
AcDbBlockTableRecord
  2
block 6
340
0
102
{BLKREFS
331
DA
102
}
 70
     0
280
     1
281
     0
  0
ENDTAB
  0
ENDSEC
  0
SECTION
  2
BLOCKS
  0
BLOCK
  5
20
330
1F
100
AcDbEntity
  8
0
100
AcDbBlockBegin
  2
*Model_Space
 70
     0
 10
0.0
 20
0.0
 30
0.0
  3
*Model_Space
  1

  0
ENDBLK
  5
21
330
1F
100
AcDbEntity
  8
0
100
AcDbBlockEnd
  0
BLOCK
  5
1C
330
1B
100
AcDbEntity
 67
     1
  8
0
100
AcDbBlockBegin
  2
*Paper_Space
 70
     0
 10
0.0
 20
0.0
 30
0.0
  3
*Paper_Space
  1

  0
ENDBLK
  5
1D
330
1B
100
AcDbEntity
 67
     1
  8
0
100
AcDbBlockEnd
  0
BLOCK
  5
24
330
23
100
AcDbEntity
  8
0
100
AcDbBlockBegin
  2
*Paper_Space0
 70
     0
 10
0.0
 20
0.0
 30
0.0
  3
*Paper_Space0
  1

  0
ENDBLK
  5
25
330
23
100
AcDbEntity
  8
0
100
AcDbBlockEnd
  0
BLOCK
  5
AA
330
A8
100
AcDbEntity
  8
0
100
AcDbBlockBegin
  2
block 2
 70
     0
 10
0.0
 20
0.0
 30
0.0
  3
block 2
  1

  0
SPLINE
  5
AC
330
A8
100
AcDbEntity
  8
_U+30EC_U+30A4_U+30E4_U+30FC 1
370
     0
100
AcDbSpline
210
0.0
220
0.0
230
1.0
 70
    11
 71
     3
 72
    53
 73
    49
 74
     0
 42
0.0000000001
 43
0.0000000001
 12
1.0
 22
0.0
 32
0.0
 13
1.0
 23
0.0
 33
0.0
 40
0.0
 40
0.0
 40
0.0
 40
0.0
 40
1.0
 40
1.0
 40
1.0
 40
2.0
 40
2.0
 40
2.0
 40
3.0
 40
3.0
 40
3.0
 40
4.0
 40
4.0
 40
4.0
 40
5.0
 40
5.0
 40
5.0
 40
6.0
 40
6.0
 40
6.0
 40
7.0
 40
7.0
 40
7.0
 40
8.0
 40
8.0
 40
8.0
 40
9.0
 40
9.0
 40
9.0
 40
10.0
 40
10.0
 40
10.0
 40
11.0
 40
11.0
 40
11.0
 40
12.0
 40
12.0
 40
12.0
 40
13.0
 40
13.0
 40
13.0
 40
14.0
 40
14.0
 40
14.0
 40
15.0
 40
15.0
 40
15.0
 40
16.0
 40
16.0
 40
16.0
 40
16.0
 10
70.61928980439379
 20
-145.9990125503058
 30
0.0
 10
70.53557398410221
 20
-145.9990125503058
 30
0.0
 10
70.42739798586537
 20
-145.9821315824281
 30
0.0
 10
70.31853296853149
 20
-145.9187418254995
 30
0.0
 10
70.13318683142504
 20
-145.8084987699715
 30
0.0
 10
70.11079371077092
 20
-145.677585141532
 30
0.0
 10
70.09046764740795
 20
-145.5697536528437
 30
0.0
 10
70.09046764740795
 20
-145.5697536528437
 30
0.0
 10
70.32783472634165
 20
-145.5697536528437
 30
0.0
 10
70.32783472634165
 20
-145.5697536528437
 30
0.0
 10
70.3864013495909
 20
-145.7685356623426
 30
0.0
 10
70.52213811170975
 20
-145.7981634835157
 30
0.0
 10
70.62170137123347
 20
-145.7981634835157
 30
0.0
 10
70.77087400574479
 20
-145.7981634835157
 30
0.0
 10
70.93382702219711
 20
-145.698600223992
 30
0.0
 10
70.93382702219711
 20
-145.4660562787377
 30
0.0
 10
70.93382702219711
 20
-145.2100856841836
 30
0.0
 10
70.74159069412016
 20
-145.140150245833
 30
0.0
 10
70.61274412297182
 20
-145.140150245833
 30
0.0
 10
70.57863767766784
 20
-145.140150245833
 30
0.0
 10
70.42739798586537
 20
-145.140150245833
 30
0.0
 10
70.33231335047248
 20
-145.2693413265299
 30
0.0
 10
70.33231335047248
 20
-145.2693413265299
 30
0.0
 10
70.14455564652637
 20
-145.2500487918125
 30
0.0
 10
70.14455564652637
 20
-145.2500487918125
 30
0.0
 10
70.14455564652637
 20
-145.2500487918125
 30
0.0
 10
70.27340221767471
 20
-144.4039333406351
 30
0.0
 10
70.27340221767471
 20
-144.4039333406351
 30
0.0
 10
70.27340221767471
 20
-144.4039333406351
 30
0.0
 10
71.10539277736254
 20
-144.4039333406351
 30
0.0
 10
71.10539277736254
 20
-144.4039333406351
 30
0.0
 10
71.10539277736254
 20
-144.4039333406351
 30
0.0
 10
71.10539277736254
 20
-144.5985812355518
 30
0.0
 10
71.10539277736254
 20
-144.5985812355518
 30
0.0
 10
71.10539277736254
 20
-144.5985812355518
 30
0.0
 10
70.44772404922836
 20
-144.5985812355518
 30
0.0
 10
70.44772404922836
 20
-144.5985812355518
 30
0.0
 10
70.44772404922836
 20
-144.5985812355518
 30
0.0
 10
70.37744410132926
 20
-145.0216389611404
 30
0.0
 10
70.37744410132926
 20
-145.0216389611404
 30
0.0
 10
70.442900915549
 20
-144.987877025385
 30
0.0
 10
70.5310953599714
 20
-144.9475694082076
 30
0.0
 10
70.65787487382859
 20
-144.9475694082076
 30
0.0
 10
70.92900388851776
 20
-144.9475694082076
 30
0.0
 10
71.18221840668362
 20
-145.1339490739596
 30
0.0
 10
71.18221840668362
 20
-145.4467637440203
 30
0.0
 10
71.18221840668362
 20
-145.7644015477603
 30
0.0
 10
70.94278427045874
 20
-145.9990125503058
 30
0.0
 10
70.61928980439379
 20
-145.9990125503058
 30
0.0
  0
HATCH
  5
AD
330
A8
100
AcDbEntity
  8
_U+30EC_U+30A4_U+30E4_U+30FC 1
 62
   179
420
  2234388
100
AcDbHatch
 10
0.0
 20
0.0
 30
0.0
210
0.0
220
0.0
230
1.0
  2
SOLID
 70
     1
 71
     0
 91
        1
 92
        1
 93
        1
 72
     4
 94
        3
 73
     0
 74
     1
 95
       53
 96
       49
 40
0.0
 40
0.0
 40
0.0
 40
0.0
 40
1.0
 40
1.0
 40
1.0
 40
2.0
 40
2.0
 40
2.0
 40
3.0
 40
3.0
 40
3.0
 40
4.0
 40
4.0
 40
4.0
 40
5.0
 40
5.0
 40
5.0
 40
6.0
 40
6.0
 40
6.0
 40
7.0
 40
7.0
 40
7.0
 40
8.0
 40
8.0
 40
8.0
 40
9.0
 40
9.0
 40
9.0
 40
10.0
 40
10.0
 40
10.0
 40
11.0
 40
11.0
 40
11.0
 40
12.0
 40
12.0
 40
12.0
 40
13.0
 40
13.0
 40
13.0
 40
14.0
 40
14.0
 40
14.0
 40
15.0
 40
15.0
 40
15.0
 40
16.0
 40
16.0
 40
16.0
 40
16.0
 10
70.61928980439379
 20
-145.9990125503058
 10
70.53557398410221
 20
-145.9990125503058
 10
70.42739798586537
 20
-145.9821315824281
 10
70.31853296853149
 20
-145.9187418254995
 10
70.13318683142504
 20
-145.8084987699715
 10
70.11079371077092
 20
-145.677585141532
 10
70.09046764740795
 20
-145.5697536528437
 10
70.09046764740795
 20
-145.5697536528437
 10
70.32783472634165
 20
-145.5697536528437
 10
70.32783472634165
 20
-145.5697536528437
 10
70.3864013495909
 20
-145.7685356623426
 10
70.52213811170975
 20
-145.7981634835157
 10
70.62170137123347
 20
-145.7981634835157
 10
70.77087400574479
 20
-145.7981634835157
 10
70.93382702219711
 20
-145.698600223992
 10
70.93382702219711
 20
-145.4660562787377
 10
70.93382702219711
 20
-145.2100856841836
 10
70.74159069412016
 20
-145.140150245833
 10
70.61274412297182
 20
-145.140150245833
 10
70.57863767766784
 20
-145.140150245833
 10
70.42739798586537
 20
-145.140150245833
 10
70.33231335047248
 20
-145.2693413265299
 10
70.33231335047248
 20
-145.2693413265299
 10
70.14455564652637
 20
-145.2500487918125
 10
70.14455564652637
 20
-145.2500487918125
 10
70.14455564652637
 20
-145.2500487918125
 10
70.27340221767471
 20
-144.4039333406351
 10
70.27340221767471
 20
-144.4039333406351
 10
70.27340221767471
 20
-144.4039333406351
 10
71.10539277736254
 20
-144.4039333406351
 10
71.10539277736254
 20
-144.4039333406351
 10
71.10539277736254
 20
-144.4039333406351
 10
71.10539277736254
 20
-144.5985812355518
 10
71.10539277736254
 20
-144.5985812355518
 10
71.10539277736254
 20
-144.5985812355518
 10
70.44772404922836
 20
-144.5985812355518
 10
70.44772404922836
 20
-144.5985812355518
 10
70.44772404922836
 20
-144.5985812355518
 10
70.37744410132926
 20
-145.0216389611404
 10
70.37744410132926
 20
-145.0216389611404
 10
70.442900915549
 20
-144.987877025385
 10
70.5310953599714
 20
-144.9475694082076
 10
70.65787487382859
 20
-144.9475694082076
 10
70.92900388851776
 20
-144.9475694082076
 10
71.18221840668362
 20
-145.1339490739596
 10
71.18221840668362
 20
-145.4467637440203
 10
71.18221840668362
 20
-145.7644015477603
 10
70.94278427045874
 20
-145.9990125503058
 10
70.61928980439379
 20
-145.9990125503058
 97
        0
 97
        0
 75
     2
 76
     1
 98
        0
  0
ENDBLK
  5
AB
330
A8
100
AcDbEntity
  8
0
100
AcDbBlockEnd
  0
BLOCK
  5
B0
330
AE
100
AcDbEntity
  8
0
100
AcDbBlockBegin
  2
block 3
 70
     0
 10
0.0
 20
0.0
 30
0.0
  3
block 3
  1

  0
POLYLINE
  5
B2
330
AE
100
AcDbEntity
  8
_U+30EC_U+30A4_U+30E4_U+30FC 1
370
     0
100
AcDb2dPolyline
 66
     1
 10
0.0
 20
0.0
 30
0.0
  0
VERTEX
  5
B3
330
B2
100
AcDbEntity
  8
_U+30EC_U+30A4_U+30E4_U+30FC 1
370
     0
100
AcDbVertex
100
AcDb2dVertex
 10
90.86508244256152
 20
-114.8632730832634
 30
0.0
  0
VERTEX
  5
B4
330
B2
100
AcDbEntity
  8
_U+30EC_U+30A4_U+30E4_U+30FC 1
370
     0
100
AcDbVertex
100
AcDb2dVertex
 10
90.86508244256152
 20
-115.210194198628
 30
0.0
  0
VERTEX
  5
B5
330
B2
100
AcDbEntity
  8
_U+30EC_U+30A4_U+30E4_U+30FC 1
370
     0
100
AcDbVertex
100
AcDb2dVertex
 10
90.63219398775863
 20
-115.210194198628
 30
0.0
  0
VERTEX
  5
B6
330
B2
100
AcDbEntity
  8
_U+30EC_U+30A4_U+30E4_U+30FC 1
370
     0
100
AcDbVertex
100
AcDb2dVertex
 10
90.63219398775863
 20
-114.8632730832634
 30
0.0
  0
VERTEX
  5
B7
330
B2
100
AcDbEntity
  8
_U+30EC_U+30A4_U+30E4_U+30FC 1
370
     0
100
AcDbVertex
100
AcDb2dVertex
 10
89.93111705651027
 20
-114.8632730832634
 30
0.0
  0
VERTEX
  5
B8
330
B2
100
AcDbEntity
  8
_U+30EC_U+30A4_U+30E4_U+30FC 1
370
     0
100
AcDbVertex
100
AcDb2dVertex
 10
89.93111705651027
 20
-114.6389973671736
 30
0.0
  0
VERTEX
  5
B9
330
B2
100
AcDbEntity
  8
_U+30EC_U+30A4_U+30E4_U+30FC 1
370
     0
100
AcDbVertex
100
AcDb2dVertex
 10
90.65699867525242
 20
-113.6657578925905
 30
0.0
  0
VERTEX
  5
BA
330
B2
100
AcDbEntity
  8
_U+30EC_U+30A4_U+30E4_U+30FC 1
370
     0
100
AcDbVertex
100
AcDb2dVertex
 10
90.86508244256152
 20
-113.6657578925905
 30
0.0
  0
VERTEX
  5
BB
330
B2
100
AcDbEntity
  8
_U+30EC_U+30A4_U+30E4_U+30FC 1
370
     0
100
AcDbVertex
100
AcDb2dVertex
 10
90.86508244256152
 20
-114.6644910737644
 30
0.0
  0
VERTEX
  5
BC
330
B2
100
AcDbEntity
  8
_U+30EC_U+30A4_U+30E4_U+30FC 1
370
     0
100
AcDbVertex
100
AcDb2dVertex
 10
91.08660208226307
 20
-114.6644910737644
 30
0.0
  0
VERTEX
  5
BD
330
B2
100
AcDbEntity
  8
_U+30EC_U+30A4_U+30E4_U+30FC 1
370
     0
100
AcDbVertex
100
AcDb2dVertex
 10
91.08660208226307
 20
-114.8632730832634
 30
0.0
  0
VERTEX
  5
BE
330
B2
100
AcDbEntity
  8
_U+30EC_U+30A4_U+30E4_U+30FC 1
370
     0
100
AcDbVertex
100
AcDb2dVertex
 10
90.86508244256152
 20
-114.8632730832634
 30
0.0
  0
SEQEND
  5
BF
330
B2
100
AcDbEntity
  8
_U+30EC_U+30A4_U+30E4_U+30FC 1
370
     0
  0
POLYLINE
  5
C0
330
AE
100
AcDbEntity
  8
_U+30EC_U+30A4_U+30E4_U+30FC 1
370
     0
100
AcDb2dPolyline
 66
     1
 10
0.0
 20
0.0
 30
0.0
  0
VERTEX
  5
C1
330
C0
100
AcDbEntity
  8
_U+30EC_U+30A4_U+30E4_U+30FC 1
370
     0
100
AcDbVertex
100
AcDb2dVertex
 10
90.63219398775863
 20
-114.0085448933729
 30
0.0
  0
VERTEX
  5
C2
330
C0
100
AcDbEntity
  8
_U+30EC_U+30A4_U+30E4_U+30FC 1
370
     0
100
AcDbVertex
100
AcDb2dVertex
 10
90.14367944795019
 20
-114.6644910737644
 30
0.0
  0
VERTEX
  5
C3
330
C0
100
AcDbEntity
  8
_U+30EC_U+30A4_U+30E4_U+30FC 1
370
     0
100
AcDbVertex
100
AcDb2dVertex
 10
90.63219398775863
 20
-114.6644910737644
 30
0.0
  0
VERTEX
  5
C4
330
C0
100
AcDbEntity
  8
_U+30EC_U+30A4_U+30E4_U+30FC 1
370
     0
100
AcDbVertex
100
AcDb2dVertex
 10
90.63219398775863
 20
-114.0085448933729
 30
0.0
  0
SEQEND
  5
C5
330
C0
100
AcDbEntity
  8
_U+30EC_U+30A4_U+30E4_U+30FC 1
370
     0
  0
HATCH
  5
C6
330
AE
100
AcDbEntity
  8
_U+30EC_U+30A4_U+30E4_U+30FC 1
 62
   179
420
  2234388
100
AcDbHatch
 10
0.0
 20
0.0
 30
0.0
210
0.0
220
0.0
230
1.0
  2
SOLID
 70
     1
 71
     0
 91
        2
 92
        1
 93
       11
 72
     1
 10
90.86508244256152
 20
-114.8632730832634
 11
90.86508244256152
 21
-115.210194198628
 72
     1
 10
90.86508244256152
 20
-115.210194198628
 11
90.63219398775863
 21
-115.210194198628
 72
     1
 10
90.63219398775863
 20
-115.210194198628
 11
90.63219398775863
 21
-114.8632730832634
 72
     1
 10
90.63219398775863
 20
-114.8632730832634
 11
89.93111705651027
 21
-114.8632730832634
 72
     1
 10
89.93111705651027
 20
-114.8632730832634
 11
89.93111705651027
 21
-114.6389973671736
 72
     1
 10
89.93111705651027
 20
-114.6389973671736
 11
90.65699867525242
 21
-113.6657578925905
 72
     1
 10
90.65699867525242
 20
-113.6657578925905
 11
90.86508244256152
 21
-113.6657578925905
 72
     1
 10
90.86508244256152
 20
-113.6657578925905
 11
90.86508244256152
 21
-114.6644910737644
 72
     1
 10
90.86508244256152
 20
-114.6644910737644
 11
91.08660208226307
 21
-114.6644910737644
 72
     1
 10
91.08660208226307
 20
-114.6644910737644
 11
91.08660208226307
 21
-114.8632730832634
 72
     1
 10
91.08660208226307
 20
-114.8632730832634
 11
90.86508244256152
 21
-114.8632730832634
 97
        0
 92
        1
 93
        3
 72
     1
 10
90.63219398775863
 20
-114.0085448933729
 11
90.14367944795019
 21
-114.6644910737644
 72
     1
 10
90.14367944795019
 20
-114.6644910737644
 11
90.63219398775863
 21
-114.6644910737644
 72
     1
 10
90.63219398775863
 20
-114.6644910737644
 11
90.63219398775863
 21
-114.0085448933729
 97
        0
 75
     2
 76
     1
 98
        0
  0
SPLINE
  5
C7
330
AE
100
AcDbEntity
  8
_U+30EC_U+30A4_U+30E4_U+30FC 1
370
     0
100
AcDbSpline
210
0.0
220
0.0
230
1.0
 70
    11
 71
     3
 72
    32
 73
    28
 74
     0
 42
0.0000000001
 43
0.0000000001
 12
1.0
 22
0.0
 32
0.0
 13
1.0
 23
0.0
 33
0.0
 40
0.0
 40
0.0
 40
0.0
 40
0.0
 40
1.0
 40
1.0
 40
1.0
 40
2.0
 40
2.0
 40
2.0
 40
3.0
 40
3.0
 40
3.0
 40
4.0
 40
4.0
 40
4.0
 40
5.0
 40
5.0
 40
5.0
 40
6.0
 40
6.0
 40
6.0
 40
7.0
 40
7.0
 40
7.0
 40
8.0
 40
8.0
 40
8.0
 40
9.0
 40
9.0
 40
9.0
 40
9.0
 10
91.77252059337631
 20
-115.2608371022612
 30
0.0
 10
91.22061629663929
 20
-115.2608371022612
 30
0.0
 10
91.21165904837764
 20
-114.706865748233
 30
0.0
 10
91.21165904837764
 20
-114.492925318599
 30
0.0
 10
91.21165904837764
 20
-114.2624484306358
 30
0.0
 10
91.23198511174061
 20
-113.6151149889573
 30
0.0
 10
91.81317272010227
 20
-113.6151149889573
 30
0.0
 10
91.99851885720871
 20
-113.6151149889573
 30
0.0
 10
92.26069062363622
 20
-113.6850504273079
 30
0.0
 10
92.30134275036217
 20
-114.017157632086
 30
0.0
 10
92.30134275036217
 20
-114.017157632086
 30
0.0
 10
92.0729329196901
 20
-114.017157632086
 30
0.0
 10
92.0729329196901
 20
-114.017157632086
 30
0.0
 10
92.06190861413731
 20
-113.9599690470309
 30
0.0
 10
92.02780216883333
 20
-113.8118299411651
 30
0.0
 10
91.81076115326259
 20
-113.8118299411651
 30
0.0
 10
91.49863550229895
 20
-113.8118299411651
 30
0.0
 10
91.45591631828187
 20
-114.1398030313609
 30
0.0
 10
91.44213593634086
 20
-114.3447862127333
 30
0.0
 10
91.54169919586458
 20
-114.2665825452181
 30
0.0
 10
91.61404620105482
 20
-114.2073269028718
 30
0.0
 10
91.80834958642292
 20
-114.2073269028718
 30
0.0
 10
92.00058591449985
 20
-114.2073269028718
 30
0.0
 10
92.32408038056482
 20
-114.3155029011086
 30
0.0
 10
92.32408038056482
 20
-114.7216796588196
 30
0.0
 10
92.32408038056482
 20
-115.0410400103022
 30
0.0
 10
92.1115179891249
 20
-115.2608371022612
 30
0.0
 10
91.77252059337631
 20
-115.2608371022612
 30
0.0
  0
SPLINE
  5
C8
330
AE
100
AcDbEntity
  8
_U+30EC_U+30A4_U+30E4_U+30FC 1
370
     0
100
AcDbSpline
210
0.0
220
0.0
230
1.0
 70
    11
 71
     3
 72
    17
 73
    13
 74
     0
 42
0.0000000001
 43
0.0000000001
 12
1.0
 22
0.0
 32
0.0
 13
1.0
 23
0.0
 33
0.0
 40
0.0
 40
0.0
 40
0.0
 40
0.0
 40
1.0
 40
1.0
 40
1.0
 40
2.0
 40
2.0
 40
2.0
 40
3.0
 40
3.0
 40
3.0
 40
4.0
 40
4.0
 40
4.0
 40
4.0
 10
91.79043508989962
 20
-114.4019747977884
 30
0.0
 10
91.51000431740029
 20
-114.4019747977884
 30
0.0
 10
91.46935219067433
 20
-114.6135036605827
 30
0.0
 10
91.46935219067433
 20
-114.7299478879842
 30
0.0
 10
91.46935219067433
 20
-114.9056477577319
 30
0.0
 10
91.5709825074892
 20
-115.0686007741842
 30
0.0
 10
91.76769745969698
 20
-115.0686007741842
 30
0.0
 10
91.89654403084532
 20
-115.0686007741842
 30
0.0
 10
92.08430173479142
 20
-115.0093451318379
 30
0.0
 10
92.08430173479142
 20
-114.7237467161107
 30
0.0
 10
92.08430173479142
 20
-114.499471000021
 30
0.0
 10
91.93512910028011
 20
-114.4019747977884
 30
0.0
 10
91.79043508989962
 20
-114.4019747977884
 30
0.0
  0
HATCH
  5
C9
330
AE
100
AcDbEntity
  8
_U+30EC_U+30A4_U+30E4_U+30FC 1
 62
   179
420
  2234388
100
AcDbHatch
 10
0.0
 20
0.0
 30
0.0
210
0.0
220
0.0
230
1.0
  2
SOLID
 70
     1
 71
     0
 91
        2
 92
        1
 93
        1
 72
     4
 94
        3
 73
     0
 74
     1
 95
       32
 96
       28
 40
0.0
 40
0.0
 40
0.0
 40
0.0
 40
1.0
 40
1.0
 40
1.0
 40
2.0
 40
2.0
 40
2.0
 40
3.0
 40
3.0
 40
3.0
 40
4.0
 40
4.0
 40
4.0
 40
5.0
 40
5.0
 40
5.0
 40
6.0
 40
6.0
 40
6.0
 40
7.0
 40
7.0
 40
7.0
 40
8.0
 40
8.0
 40
8.0
 40
9.0
 40
9.0
 40
9.0
 40
9.0
 10
91.77252059337631
 20
-115.2608371022612
 10
91.22061629663929
 20
-115.2608371022612
 10
91.21165904837764
 20
-114.706865748233
 10
91.21165904837764
 20
-114.492925318599
 10
91.21165904837764
 20
-114.2624484306358
 10
91.23198511174061
 20
-113.6151149889573
 10
91.81317272010227
 20
-113.6151149889573
 10
91.99851885720871
 20
-113.6151149889573
 10
92.26069062363622
 20
-113.6850504273079
 10
92.30134275036217
 20
-114.017157632086
 10
92.30134275036217
 20
-114.017157632086
 10
92.0729329196901
 20
-114.017157632086
 10
92.0729329196901
 20
-114.017157632086
 10
92.06190861413731
 20
-113.9599690470309
 10
92.02780216883333
 20
-113.8118299411651
 10
91.81076115326259
 20
-113.8118299411651
 10
91.49863550229895
 20
-113.8118299411651
 10
91.45591631828187
 20
-114.1398030313609
 10
91.44213593634086
 20
-114.3447862127333
 10
91.54169919586458
 20
-114.2665825452181
 10
91.61404620105482
 20
-114.2073269028718
 10
91.80834958642292
 20
-114.2073269028718
 10
92.00058591449985
 20
-114.2073269028718
 10
92.32408038056482
 20
-114.3155029011086
 10
92.32408038056482
 20
-114.7216796588196
 10
92.32408038056482
 20
-115.0410400103022
 10
92.1115179891249
 20
-115.2608371022612
 10
91.77252059337631
 20
-115.2608371022612
 97
        0
 97
        0
 92
        1
 93
        1
 72
     4
 94
        3
 73
     0
 74
     1
 95
       17
 96
       13
 40
0.0
 40
0.0
 40
0.0
 40
0.0
 40
1.0
 40
1.0
 40
1.0
 40
2.0
 40
2.0
 40
2.0
 40
3.0
 40
3.0
 40
3.0
 40
4.0
 40
4.0
 40
4.0
 40
4.0
 10
91.79043508989962
 20
-114.4019747977884
 10
91.51000431740029
 20
-114.4019747977884
 10
91.46935219067433
 20
-114.6135036605827
 10
91.46935219067433
 20
-114.7299478879842
 10
91.46935219067433
 20
-114.9056477577319
 10
91.5709825074892
 20
-115.0686007741842
 10
91.76769745969698
 20
-115.0686007741842
 10
91.89654403084532
 20
-115.0686007741842
 10
92.08430173479142
 20
-115.0093451318379
 10
92.08430173479142
 20
-114.7237467161107
 10
92.08430173479142
 20
-114.499471000021
 10
91.93512910028011
 20
-114.4019747977884
 10
91.79043508989962
 20
-114.4019747977884
 97
        0
 97
        0
 75
     2
 76
     1
 98
        0
  0
ENDBLK
  5
B1
330
AE
100
AcDbEntity
  8
0
100
AcDbBlockEnd
  0
BLOCK
  5
CC
330
CA
100
AcDbEntity
  8
0
100
AcDbBlockBegin
  2
block 4
 70
     0
 10
0.0
 20
0.0
 30
0.0
  3
block 4
  1

  0
SPLINE
  5
CE
330
CA
100
AcDbEntity
  8
_U+30EC_U+30A4_U+30E4_U+30FC 1
370
     0
100
AcDbSpline
210
0.0
220
0.0
230
1.0
 70
    11
 71
     3
 72
    26
 73
    22
 74
     0
 42
0.0000000001
 43
0.0000000001
 12
1.0
 22
0.0
 32
0.0
 13
1.0
 23
0.0
 33
0.0
 40
0.0
 40
0.0
 40
0.0
 40
0.0
 40
1.0
 40
1.0
 40
1.0
 40
2.0
 40
2.0
 40
2.0
 40
3.0
 40
3.0
 40
3.0
 40
4.0
 40
4.0
 40
4.0
 40
5.0
 40
5.0
 40
5.0
 40
6.0
 40
6.0
 40
6.0
 40
7.0
 40
7.0
 40
7.0
 40
7.0
 10
68.5847886655795
 20
-112.503210421093
 30
0.0
 10
68.5847886655795
 20
-112.503210421093
 30
0.0
 10
68.5847886655795
 20
-111.3988850632961
 30
0.0
 10
68.5847886655795
 20
-111.3988850632961
 30
0.0
 10
68.5847886655795
 20
-111.3988850632961
 30
0.0
 10
68.23201088788991
 20
-111.3988850632961
 30
0.0
 10
68.23201088788991
 20
-111.3988850632961
 30
0.0
 10
68.23201088788991
 20
-111.3988850632961
 30
0.0
 10
68.23201088788991
 20
-111.2507459574304
 30
0.0
 10
68.23201088788991
 20
-111.2507459574304
 30
0.0
 10
68.58702797764491
 20
-111.2361043016181
 30
0.0
 10
68.63680960740678
 20
-111.0731512851657
 30
0.0
 10
68.66833223109681
 20
-110.9589463698297
 30
0.0
 10
68.66833223109681
 20
-110.9589463698297
 30
0.0
 10
68.82439505657862
 20
-110.9589463698297
 30
0.0
 10
68.82439505657862
 20
-110.9589463698297
 30
0.0
 10
68.82439505657862
 20
-110.9589463698297
 30
0.0
 10
68.82439505657862
 20
-112.503210421093
 30
0.0
 10
68.82439505657862
 20
-112.503210421093
 30
0.0
 10
68.82439505657862
 20
-112.503210421093
 30
0.0
 10
68.5847886655795
 20
-112.503210421093
 30
0.0
 10
68.5847886655795
 20
-112.503210421093
 30
0.0
  0
HATCH
  5
CF
330
CA
100
AcDbEntity
  8
_U+30EC_U+30A4_U+30E4_U+30FC 1
 62
   179
420
  2234388
100
AcDbHatch
 10
0.0
 20
0.0
 30
0.0
210
0.0
220
0.0
230
1.0
  2
SOLID
 70
     1
 71
     0
 91
        1
 92
        1
 93
        1
 72
     4
 94
        3
 73
     0
 74
     1
 95
       26
 96
       22
 40
0.0
 40
0.0
 40
0.0
 40
0.0
 40
1.0
 40
1.0
 40
1.0
 40
2.0
 40
2.0
 40
2.0
 40
3.0
 40
3.0
 40
3.0
 40
4.0
 40
4.0
 40
4.0
 40
5.0
 40
5.0
 40
5.0
 40
6.0
 40
6.0
 40
6.0
 40
7.0
 40
7.0
 40
7.0
 40
7.0
 10
68.5847886655795
 20
-112.503210421093
 10
68.5847886655795
 20
-112.503210421093
 10
68.5847886655795
 20
-111.3988850632961
 10
68.5847886655795
 20
-111.3988850632961
 10
68.5847886655795
 20
-111.3988850632961
 10
68.23201088788991
 20
-111.3988850632961
 10
68.23201088788991
 20
-111.3988850632961
 10
68.23201088788991
 20
-111.3988850632961
 10
68.23201088788991
 20
-111.2507459574304
 10
68.23201088788991
 20
-111.2507459574304
 10
68.58702797764491
 20
-111.2361043016181
 10
68.63680960740678
 20
-111.0731512851657
 10
68.66833223109681
 20
-110.9589463698297
 10
68.66833223109681
 20
-110.9589463698297
 10
68.82439505657862
 20
-110.9589463698297
 10
68.82439505657862
 20
-110.9589463698297
 10
68.82439505657862
 20
-110.9589463698297
 10
68.82439505657862
 20
-112.503210421093
 10
68.82439505657862
 20
-112.503210421093
 10
68.82439505657862
 20
-112.503210421093
 10
68.5847886655795
 20
-112.503210421093
 10
68.5847886655795
 20
-112.503210421093
 97
        0
 97
        0
 75
     2
 76
     1
 98
        0
  0
ENDBLK
  5
CD
330
CA
100
AcDbEntity
  8
0
100
AcDbBlockEnd
  0
BLOCK
  5
D2
330
D0
100
AcDbEntity
  8
0
100
AcDbBlockBegin
  2
block 5
 70
     0
 10
0.0
 20
0.0
 30
0.0
  3
block 5
  1

  0
SPLINE
  5
D4
330
D0
100
AcDbEntity
  8
_U+30EC_U+30A4_U+30E4_U+30FC 1
370
     0
100
AcDbSpline
210
0.0
220
0.0
230
1.0
 70
    11
 71
     3
 72
    26
 73
    22
 74
     0
 42
0.0000000001
 43
0.0000000001
 12
1.0
 22
0.0
 32
0.0
 13
1.0
 23
0.0
 33
0.0
 40
0.0
 40
0.0
 40
0.0
 40
0.0
 40
1.0
 40
1.0
 40
1.0
 40
2.0
 40
2.0
 40
2.0
 40
3.0
 40
3.0
 40
3.0
 40
4.0
 40
4.0
 40
4.0
 40
5.0
 40
5.0
 40
5.0
 40
6.0
 40
6.0
 40
6.0
 40
7.0
 40
7.0
 40
7.0
 40
7.0
 10
120.6000460853014
 20
-133.8705538944837
 30
0.0
 10
120.6000460853014
 20
-133.8705538944837
 30
0.0
 10
119.4958929822788
 20
-133.8705538944837
 30
0.0
 10
119.4958929822788
 20
-133.8705538944837
 30
0.0
 10
119.4958929822788
 20
-133.8705538944837
 30
0.0
 10
119.4958929822788
 20
-134.2233316721733
 30
0.0
 10
119.4958929822788
 20
-134.2233316721733
 30
0.0
 10
119.4958929822788
 20
-134.2233316721733
 30
0.0
 10
119.3477538764131
 20
-134.2233316721733
 30
0.0
 10
119.3477538764131
 20
-134.2233316721733
 30
0.0
 10
119.3329399658265
 20
-133.8681423276441
 30
0.0
 10
119.1699869493742
 20
-133.8185329526565
 30
0.0
 10
119.0556097792639
 20
-133.7868380741922
 30
0.0
 10
119.0556097792639
 20
-133.7868380741922
 30
0.0
 10
119.0556097792639
 20
-133.6311197582589
 30
0.0
 10
119.0556097792639
 20
-133.6311197582589
 30
0.0
 10
119.0556097792639
 20
-133.6311197582589
 30
0.0
 10
120.6000460853014
 20
-133.6311197582589
 30
0.0
 10
120.6000460853014
 20
-133.6311197582589
 30
0.0
 10
120.6000460853014
 20
-133.6311197582589
 30
0.0
 10
120.6000460853014
 20
-133.8705538944837
 30
0.0
 10
120.6000460853014
 20
-133.8705538944837
 30
0.0
  0
HATCH
  5
D5
330
D0
100
AcDbEntity
  8
_U+30EC_U+30A4_U+30E4_U+30FC 1
 62
   179
420
  2234388
100
AcDbHatch
 10
0.0
 20
0.0
 30
0.0
210
0.0
220
0.0
230
1.0
  2
SOLID
 70
     1
 71
     0
 91
        1
 92
        1
 93
        1
 72
     4
 94
        3
 73
     0
 74
     1
 95
       26
 96
       22
 40
0.0
 40
0.0
 40
0.0
 40
0.0
 40
1.0
 40
1.0
 40
1.0
 40
2.0
 40
2.0
 40
2.0
 40
3.0
 40
3.0
 40
3.0
 40
4.0
 40
4.0
 40
4.0
 40
5.0
 40
5.0
 40
5.0
 40
6.0
 40
6.0
 40
6.0
 40
7.0
 40
7.0
 40
7.0
 40
7.0
 10
120.6000460853014
 20
-133.8705538944837
 10
120.6000460853014
 20
-133.8705538944837
 10
119.4958929822788
 20
-133.8705538944837
 10
119.4958929822788
 20
-133.8705538944837
 10
119.4958929822788
 20
-133.8705538944837
 10
119.4958929822788
 20
-134.2233316721733
 10
119.4958929822788
 20
-134.2233316721733
 10
119.4958929822788
 20
-134.2233316721733
 10
119.3477538764131
 20
-134.2233316721733
 10
119.3477538764131
 20
-134.2233316721733
 10
119.3329399658265
 20
-133.8681423276441
 10
119.1699869493742
 20
-133.8185329526565
 10
119.0556097792639
 20
-133.7868380741922
 10
119.0556097792639
 20
-133.7868380741922
 10
119.0556097792639
 20
-133.6311197582589
 10
119.0556097792639
 20
-133.6311197582589
 10
119.0556097792639
 20
-133.6311197582589
 10
120.6000460853014
 20
-133.6311197582589
 10
120.6000460853014
 20
-133.6311197582589
 10
120.6000460853014
 20
-133.6311197582589
 10
120.6000460853014
 20
-133.8705538944837
 10
120.6000460853014
 20
-133.8705538944837
 97
        0
 97
        0
 75
     2
 76
     1
 98
        0
  0
SPLINE
  5
D6
330
D0
100
AcDbEntity
  8
_U+30EC_U+30A4_U+30E4_U+30FC 1
370
     0
100
AcDbSpline
210
0.0
220
0.0
230
1.0
 70
    11
 71
     3
 72
    29
 73
    25
 74
     0
 42
0.0000000001
 43
0.0000000001
 12
1.0
 22
0.0
 32
0.0
 13
1.0
 23
0.0
 33
0.0
 40
0.0
 40
0.0
 40
0.0
 40
0.0
 40
1.0
 40
1.0
 40
1.0
 40
2.0
 40
2.0
 40
2.0
 40
3.0
 40
3.0
 40
3.0
 40
4.0
 40
4.0
 40
4.0
 40
5.0
 40
5.0
 40
5.0
 40
6.0
 40
6.0
 40
6.0
 40
7.0
 40
7.0
 40
7.0
 40
8.0
 40
8.0
 40
8.0
 40
8.0
 10
120.4222791582625
 20
-132.1359483176604
 30
0.0
 10
120.6317409637657
 20
-132.2510145068678
 30
0.0
 10
120.6506889889346
 20
-132.4363606439742
 30
0.0
 10
120.6506889889346
 20
-132.5607285909918
 30
0.0
 10
120.6506889889346
 20
-132.7326388557057
 30
0.0
 10
120.6045247094322
 20
-132.8842230570567
 30
0.0
 10
120.4222791582625
 20
-132.9858533738716
 30
0.0
 10
120.2276312633459
 20
-133.0964409389481
 30
0.0
 10
119.9906086939607
 20
-133.1171115118596
 30
0.0
 10
119.8280001870569
 20
-133.1171115118596
 30
0.0
 10
119.6839951957734
 20
-133.1171115118596
 30
0.0
 10
119.4325032253502
 20
-133.0988525057878
 30
0.0
 10
119.2333767063028
 20
-132.9858533738716
 30
0.0
 10
119.030116072673
 20
-132.8704426751157
 30
0.0
 10
119.0070339329219
 20
-132.6988769199503
 30
0.0
 10
119.0070339329219
 20
-132.5607285909918
 30
0.0
 10
119.0070339329219
 20
-132.3912298931175
 30
0.0
 10
119.0514756646816
 20
-132.2372341249268
 30
0.0
 10
119.2333767063028
 20
-132.1359483176604
 30
0.0
 10
119.4259575439282
 20
-132.0294948671662
 30
0.0
 10
119.6543673746003
 20
-132.0046901796725
 30
0.0
 10
119.8280001870569
 20
-132.0046901796725
 30
0.0
 10
119.9992214326738
 20
-132.0046901796725
 30
0.0
 10
120.229698320637
 20
-132.0270833003266
 30
0.0
 10
120.4222791582625
 20
-132.1359483176604
 30
0.0
  0
SPLINE
  5
D7
330
D0
100
AcDbEntity
  8
_U+30EC_U+30A4_U+30E4_U+30FC 1
370
     0
100
AcDbSpline
210
0.0
220
0.0
230
1.0
 70
    11
 71
     3
 72
    17
 73
    13
 74
     0
 42
0.0000000001
 43
0.0000000001
 12
1.0
 22
0.0
 32
0.0
 13
1.0
 23
0.0
 33
0.0
 40
0.0
 40
0.0
 40
0.0
 40
0.0
 40
1.0
 40
1.0
 40
1.0
 40
2.0
 40
2.0
 40
2.0
 40
3.0
 40
3.0
 40
3.0
 40
4.0
 40
4.0
 40
4.0
 40
4.0
 10
119.1996147705473
 20
-132.5607285909918
 30
0.0
 10
119.1996147705473
 20
-132.8277234910986
 30
0.0
 10
119.4828016194349
 20
-132.8773328660862
 30
0.0
 10
119.8280001870569
 20
-132.8773328660862
 30
0.0
 10
120.1473605385396
 20
-132.8773328660862
 30
0.0
 10
120.4563856035665
 20
-132.8387477966514
 30
0.0
 10
120.4563856035665
 20
-132.5607285909918
 30
0.0
 10
120.4563856035665
 20
-132.2964897672731
 30
0.0
 10
120.174576792873
 20
-132.2441243158973
 30
0.0
 10
119.8280001870569
 20
-132.2441243158973
 30
0.0
 10
119.5082953260257
 20
-132.2441243158973
 30
0.0
 10
119.1996147705473
 20
-132.2847764426233
 30
0.0
 10
119.1996147705473
 20
-132.5607285909918
 30
0.0
  0
HATCH
  5
D8
330
D0
100
AcDbEntity
  8
_U+30EC_U+30A4_U+30E4_U+30FC 1
 62
   179
420
  2234388
100
AcDbHatch
 10
0.0
 20
0.0
 30
0.0
210
0.0
220
0.0
230
1.0
  2
SOLID
 70
     1
 71
     0
 91
        2
 92
        1
 93
        1
 72
     4
 94
        3
 73
     0
 74
     1
 95
       29
 96
       25
 40
0.0
 40
0.0
 40
0.0
 40
0.0
 40
1.0
 40
1.0
 40
1.0
 40
2.0
 40
2.0
 40
2.0
 40
3.0
 40
3.0
 40
3.0
 40
4.0
 40
4.0
 40
4.0
 40
5.0
 40
5.0
 40
5.0
 40
6.0
 40
6.0
 40
6.0
 40
7.0
 40
7.0
 40
7.0
 40
8.0
 40
8.0
 40
8.0
 40
8.0
 10
120.4222791582625
 20
-132.1359483176604
 10
120.6317409637657
 20
-132.2510145068678
 10
120.6506889889346
 20
-132.4363606439742
 10
120.6506889889346
 20
-132.5607285909918
 10
120.6506889889346
 20
-132.7326388557057
 10
120.6045247094322
 20
-132.8842230570567
 10
120.4222791582625
 20
-132.9858533738716
 10
120.2276312633459
 20
-133.0964409389481
 10
119.9906086939607
 20
-133.1171115118596
 10
119.8280001870569
 20
-133.1171115118596
 10
119.6839951957734
 20
-133.1171115118596
 10
119.4325032253502
 20
-133.0988525057878
 10
119.2333767063028
 20
-132.9858533738716
 10
119.030116072673
 20
-132.8704426751157
 10
119.0070339329219
 20
-132.6988769199503
 10
119.0070339329219
 20
-132.5607285909918
 10
119.0070339329219
 20
-132.3912298931175
 10
119.0514756646816
 20
-132.2372341249268
 10
119.2333767063028
 20
-132.1359483176604
 10
119.4259575439282
 20
-132.0294948671662
 10
119.6543673746003
 20
-132.0046901796725
 10
119.8280001870569
 20
-132.0046901796725
 10
119.9992214326738
 20
-132.0046901796725
 10
120.229698320637
 20
-132.0270833003266
 10
120.4222791582625
 20
-132.1359483176604
 97
        0
 97
        0
 92
        1
 93
        1
 72
     4
 94
        3
 73
     0
 74
     1
 95
       17
 96
       13
 40
0.0
 40
0.0
 40
0.0
 40
0.0
 40
1.0
 40
1.0
 40
1.0
 40
2.0
 40
2.0
 40
2.0
 40
3.0
 40
3.0
 40
3.0
 40
4.0
 40
4.0
 40
4.0
 40
4.0
 10
119.1996147705473
 20
-132.5607285909918
 10
119.1996147705473
 20
-132.8277234910986
 10
119.4828016194349
 20
-132.8773328660862
 10
119.8280001870569
 20
-132.8773328660862
 10
120.1473605385396
 20
-132.8773328660862
 10
120.4563856035665
 20
-132.8387477966514
 10
120.4563856035665
 20
-132.5607285909918
 10
120.4563856035665
 20
-132.2964897672731
 10
120.174576792873
 20
-132.2441243158973
 10
119.8280001870569
 20
-132.2441243158973
 10
119.5082953260257
 20
-132.2441243158973
 10
119.1996147705473
 20
-132.2847764426233
 10
119.1996147705473
 20
-132.5607285909918
 97
        0
 97
        0
 75
     2
 76
     1
 98
        0
  0
ENDBLK
  5
D3
330
D0
100
AcDbEntity
  8
0
100
AcDbBlockEnd
  0
BLOCK
  5
DB
330
D9
100
AcDbEntity
  8
0
100
AcDbBlockBegin
  2
block 6
 70
     0
 10
0.0
 20
0.0
 30
0.0
  3
block 6
  1

  0
SPLINE
  5
DD
330
D9
100
AcDbEntity
  8
_U+30EC_U+30A4_U+30E4_U+30FC 1
370
     0
100
AcDbSpline
210
0.0
220
0.0
230
1.0
 70
    11
 71
     3
 72
    26
 73
    22
 74
     0
 42
0.0000000001
 43
0.0000000001
 12
1.0
 22
0.0
 32
0.0
 13
1.0
 23
0.0
 33
0.0
 40
0.0
 40
0.0
 40
0.0
 40
0.0
 40
1.0
 40
1.0
 40
1.0
 40
2.0
 40
2.0
 40
2.0
 40
3.0
 40
3.0
 40
3.0
 40
4.0
 40
4.0
 40
4.0
 40
5.0
 40
5.0
 40
5.0
 40
6.0
 40
6.0
 40
6.0
 40
7.0
 40
7.0
 40
7.0
 40
7.0
 10
63.19063040954957
 20
-130.47541229377
 30
0.0
 10
63.19063040954957
 20
-130.47541229377
 30
0.0
 10
62.08647730652699
 20
-130.47541229377
 30
0.0
 10
62.08647730652699
 20
-130.47541229377
 30
0.0
 10
62.08647730652699
 20
-130.47541229377
 30
0.0
 10
62.08647730652699
 20
-130.8278455619111
 30
0.0
 10
62.08647730652699
 20
-130.8278455619111
 30
0.0
 10
62.08647730652699
 20
-130.8278455619111
 30
0.0
 10
61.93833820066125
 20
-130.8278455619111
 30
0.0
 10
61.93833820066125
 20
-130.8278455619111
 30
0.0
 10
61.92352429007467
 20
-130.4730007269304
 30
0.0
 10
61.76057127362236
 20
-130.4233913519428
 30
0.0
 10
61.64619410351207
 20
-130.3916964734785
 30
0.0
 10
61.64619410351207
 20
-130.3916964734785
 30
0.0
 10
61.64619410351207
 20
-130.2356336479967
 30
0.0
 10
61.64619410351207
 20
-130.2356336479967
 30
0.0
 10
61.64619410351207
 20
-130.2356336479967
 30
0.0
 10
63.19063040954957
 20
-130.2356336479967
 30
0.0
 10
63.19063040954957
 20
-130.2356336479967
 30
0.0
 10
63.19063040954957
 20
-130.2356336479967
 30
0.0
 10
63.19063040954957
 20
-130.47541229377
 30
0.0
 10
63.19063040954957
 20
-130.47541229377
 30
0.0
  0
HATCH
  5
DE
330
D9
100
AcDbEntity
  8
_U+30EC_U+30A4_U+30E4_U+30FC 1
 62
   179
420
  2234388
100
AcDbHatch
 10
0.0
 20
0.0
 30
0.0
210
0.0
220
0.0
230
1.0
  2
SOLID
 70
     1
 71
     0
 91
        1
 92
        1
 93
        1
 72
     4
 94
        3
 73
     0
 74
     1
 95
       26
 96
       22
 40
0.0
 40
0.0
 40
0.0
 40
0.0
 40
1.0
 40
1.0
 40
1.0
 40
2.0
 40
2.0
 40
2.0
 40
3.0
 40
3.0
 40
3.0
 40
4.0
 40
4.0
 40
4.0
 40
5.0
 40
5.0
 40
5.0
 40
6.0
 40
6.0
 40
6.0
 40
7.0
 40
7.0
 40
7.0
 40
7.0
 10
63.19063040954957
 20
-130.47541229377
 10
63.19063040954957
 20
-130.47541229377
 10
62.08647730652699
 20
-130.47541229377
 10
62.08647730652699
 20
-130.47541229377
 10
62.08647730652699
 20
-130.47541229377
 10
62.08647730652699
 20
-130.8278455619111
 10
62.08647730652699
 20
-130.8278455619111
 10
62.08647730652699
 20
-130.8278455619111
 10
61.93833820066125
 20
-130.8278455619111
 10
61.93833820066125
 20
-130.8278455619111
 10
61.92352429007467
 20
-130.4730007269304
 10
61.76057127362236
 20
-130.4233913519428
 10
61.64619410351207
 20
-130.3916964734785
 10
61.64619410351207
 20
-130.3916964734785
 10
61.64619410351207
 20
-130.2356336479967
 10
61.64619410351207
 20
-130.2356336479967
 10
61.64619410351207
 20
-130.2356336479967
 10
63.19063040954957
 20
-130.2356336479967
 10
63.19063040954957
 20
-130.2356336479967
 10
63.19063040954957
 20
-130.2356336479967
 10
63.19063040954957
 20
-130.47541229377
 10
63.19063040954957
 20
-130.47541229377
 97
        0
 97
        0
 75
     2
 76
     1
 98
        0
  0
SPLINE
  5
DF
330
D9
100
AcDbEntity
  8
_U+30EC_U+30A4_U+30E4_U+30FC 1
370
     0
100
AcDbSpline
210
0.0
220
0.0
230
1.0
 70
    11
 71
     3
 72
    32
 73
    28
 74
     0
 42
0.0000000001
 43
0.0000000001
 12
1.0
 22
0.0
 32
0.0
 13
1.0
 23
0.0
 33
0.0
 40
0.0
 40
0.0
 40
0.0
 40
0.0
 40
1.0
 40
1.0
 40
1.0
 40
2.0
 40
2.0
 40
2.0
 40
3.0
 40
3.0
 40
3.0
 40
4.0
 40
4.0
 40
4.0
 40
5.0
 40
5.0
 40
5.0
 40
6.0
 40
6.0
 40
6.0
 40
7.0
 40
7.0
 40
7.0
 40
8.0
 40
8.0
 40
8.0
 40
9.0
 40
9.0
 40
9.0
 40
9.0
 10
63.24127331318274
 20
-129.2107177411348
 30
0.0
 10
63.24127331318274
 20
-129.3960638782413
 30
0.0
 10
63.17168238438069
 20
-129.6582356446688
 30
0.0
 10
62.83957517960261
 20
-129.6988877713947
 30
0.0
 10
62.83957517960261
 20
-129.6988877713947
 30
0.0
 10
62.83957517960261
 20
-129.4708224502712
 30
0.0
 10
62.83957517960261
 20
-129.4708224502712
 30
0.0
 10
62.89883082194891
 20
-129.4594536351699
 30
0.0
 10
63.04662541826612
 20
-129.4253471898659
 30
0.0
 10
63.04662541826612
 20
-129.2083061742952
 30
0.0
 10
63.04662541826612
 20
-128.89652503288
 30
0.0
 10
62.71692978032772
 20
-128.8558729061541
 30
0.0
 10
62.51160208940682
 20
-128.8420925242131
 30
0.0
 10
62.59187281421315
 20
-128.9392442168972
 30
0.0
 10
62.64906139926829
 20
-129.0115912220874
 30
0.0
 10
62.64906139926829
 20
-129.206239117004
 30
0.0
 10
62.64906139926829
 20
-129.3984754450809
 30
0.0
 10
62.54329696787112
 20
-129.7216254015974
 30
0.0
 10
62.13712021016017
 20
-129.7216254015974
 30
0.0
 10
61.8177598586775
 20
-129.7216254015974
 30
0.0
 10
61.59761825717004
 20
-129.5090630101575
 30
0.0
 10
61.59761825717004
 20
-129.1700656144089
 30
0.0
 10
61.59761825717004
 20
-128.6205728845115
 30
0.0
 10
62.15193412074674
 20
-128.6092040694102
 30
0.0
 10
62.36553004083223
 20
-128.6092040694102
 30
0.0
 10
62.59600692879545
 20
-128.6092040694102
 30
0.0
 10
63.24127331318274
 20
-128.6295301327732
 30
0.0
 10
63.24127331318274
 20
-129.2107177411348
 30
0.0
  0
SPLINE
  5
E0
330
D9
100
AcDbEntity
  8
_U+30EC_U+30A4_U+30E4_U+30FC 1
370
     0
100
AcDbSpline
210
0.0
220
0.0
230
1.0
 70
    11
 71
     3
 72
    17
 73
    13
 74
     0
 42
0.0000000001
 43
0.0000000001
 12
1.0
 22
0.0
 32
0.0
 13
1.0
 23
0.0
 33
0.0
 40
0.0
 40
0.0
 40
0.0
 40
0.0
 40
1.0
 40
1.0
 40
1.0
 40
2.0
 40
2.0
 40
2.0
 40
3.0
 40
3.0
 40
3.0
 40
4.0
 40
4.0
 40
4.0
 40
4.0
 10
61.79019909479551
 20
-129.1676540475692
 30
0.0
 10
61.79019909479551
 20
-129.2944335614264
 30
0.0
 10
61.84738767985066
 20
-129.481846755824
 30
0.0
 10
62.13298609557787
 20
-129.481846755824
 30
0.0
 10
62.35932886895878
 20
-129.481846755824
 30
0.0
 10
62.45441350435168
 20
-129.3326741213127
 30
0.0
 10
62.45441350435168
 20
-129.1879801109322
 30
0.0
 10
62.45441350435168
 20
-128.9078938479814
 30
0.0
 10
62.24495169884849
 20
-128.8668972117069
 30
0.0
 10
62.12850747144704
 20
-128.8668972117069
 30
0.0
 10
61.95315211124782
 20
-128.8668972117069
 30
0.0
 10
61.79019909479551
 20
-128.9688720380703
 30
0.0
 10
61.79019909479551
 20
-129.1676540475692
 30
0.0
  0
HATCH
  5
E1
330
D9
100
AcDbEntity
  8
_U+30EC_U+30A4_U+30E4_U+30FC 1
 62
   179
420
  2234388
100
AcDbHatch
 10
0.0
 20
0.0
 30
0.0
210
0.0
220
0.0
230
1.0
  2
SOLID
 70
     1
 71
     0
 91
        2
 92
        1
 93
        1
 72
     4
 94
        3
 73
     0
 74
     1
 95
       32
 96
       28
 40
0.0
 40
0.0
 40
0.0
 40
0.0
 40
1.0
 40
1.0
 40
1.0
 40
2.0
 40
2.0
 40
2.0
 40
3.0
 40
3.0
 40
3.0
 40
4.0
 40
4.0
 40
4.0
 40
5.0
 40
5.0
 40
5.0
 40
6.0
 40
6.0
 40
6.0
 40
7.0
 40
7.0
 40
7.0
 40
8.0
 40
8.0
 40
8.0
 40
9.0
 40
9.0
 40
9.0
 40
9.0
 10
63.24127331318274
 20
-129.2107177411348
 10
63.24127331318274
 20
-129.3960638782413
 10
63.17168238438069
 20
-129.6582356446688
 10
62.83957517960261
 20
-129.6988877713947
 10
62.83957517960261
 20
-129.6988877713947
 10
62.83957517960261
 20
-129.4708224502712
 10
62.83957517960261
 20
-129.4708224502712
 10
62.89883082194891
 20
-129.4594536351699
 10
63.04662541826612
 20
-129.4253471898659
 10
63.04662541826612
 20
-129.2083061742952
 10
63.04662541826612
 20
-128.89652503288
 10
62.71692978032772
 20
-128.8558729061541
 10
62.51160208940682
 20
-128.8420925242131
 10
62.59187281421315
 20
-128.9392442168972
 10
62.64906139926829
 20
-129.0115912220874
 10
62.64906139926829
 20
-129.206239117004
 10
62.64906139926829
 20
-129.3984754450809
 10
62.54329696787112
 20
-129.7216254015974
 10
62.13712021016017
 20
-129.7216254015974
 10
61.8177598586775
 20
-129.7216254015974
 10
61.59761825717004
 20
-129.5090630101575
 10
61.59761825717004
 20
-129.1700656144089
 10
61.59761825717004
 20
-128.6205728845115
 10
62.15193412074674
 20
-128.6092040694102
 10
62.36553004083223
 20
-128.6092040694102
 10
62.59600692879545
 20
-128.6092040694102
 10
63.24127331318274
 20
-128.6295301327732
 10
63.24127331318274
 20
-129.2107177411348
 97
        0
 97
        0
 92
        1
 93
        1
 72
     4
 94
        3
 73
     0
 74
     1
 95
       17
 96
       13
 40
0.0
 40
0.0
 40
0.0
 40
0.0
 40
1.0
 40
1.0
 40
1.0
 40
2.0
 40
2.0
 40
2.0
 40
3.0
 40
3.0
 40
3.0
 40
4.0
 40
4.0
 40
4.0
 40
4.0
 10
61.79019909479551
 20
-129.1676540475692
 10
61.79019909479551
 20
-129.2944335614264
 10
61.84738767985066
 20
-129.481846755824
 10
62.13298609557787
 20
-129.481846755824
 10
62.35932886895878
 20
-129.481846755824
 10
62.45441350435168
 20
-129.3326741213127
 10
62.45441350435168
 20
-129.1879801109322
 10
62.45441350435168
 20
-128.9078938479814
 10
62.24495169884849
 20
-128.8668972117069
 10
62.12850747144704
 20
-128.8668972117069
 10
61.95315211124782
 20
-128.8668972117069
 10
61.79019909479551
 20
-128.9688720380703
 10
61.79019909479551
 20
-129.1676540475692
 97
        0
 97
        0
 75
     2
 76
     1
 98
        0
  0
ENDBLK
  5
DC
330
D9
100
AcDbEntity
  8
0
100
AcDbBlockEnd
  0
ENDSEC
  0
SECTION
  2
ENTITIES
  0
POLYLINE
  5
41
330
1F
100
AcDbEntity
  8
_U+30EC_U+30A4_U+30E4_U+30FC 1
 62
   179
420
  2234388
370
    25
100
AcDb2dPolyline
 66
     1
 10
0.0
 20
0.0
 30
0.0
  0
VERTEX
  5
42
330
41
100
AcDbEntity
  8
_U+30EC_U+30A4_U+30E4_U+30FC 1
 62
   179
420
  2234388
370
    25
100
AcDbVertex
100
AcDb2dVertex
 10
68.13708576167812
 20
-120.2939413588155
 30
0.0
  0
VERTEX
  5
E6
330
41
100
AcDbEntity
  8
0
100
AcDbVertex
100
AcDb2dVertex
 10
68.13708576167812
 20
-120.2939413588155
 30
0.0
  0
SEQEND
  5
43
330
41
100
AcDbEntity
  8
_U+30EC_U+30A4_U+30E4_U+30FC 1
 62
   179
420
  2234388
370
    25
  0
POLYLINE
  5
44
330
1F
100
AcDbEntity
  8
_U+30EC_U+30A4_U+30E4_U+30FC 1
 62
   179
420
  2234388
370
    25
100
AcDb2dPolyline
 66
     1
 10
0.0
 20
0.0
 30
0.0
  0
VERTEX
  5
45
330
44
100
AcDbEntity
  8
_U+30EC_U+30A4_U+30E4_U+30FC 1
 62
   179
420
  2234388
370
    25
100
AcDbVertex
100
AcDb2dVertex
 10
114.13496764373
 20
-128.2944827457041
 30
0.0
  0
VERTEX
  5
46
330
44
100
AcDbEntity
  8
_U+30EC_U+30A4_U+30E4_U+30FC 1
 62
   179
420
  2234388
370
    25
100
AcDbVertex
100
AcDb2dVertex
 10
114.13496764373
 20
-127.2940402459542
 30
0.0
  0
SEQEND
  5
47
330
44
100
AcDbEntity
  8
_U+30EC_U+30A4_U+30E4_U+30FC 1
 62
   179
420
  2234388
370
    25
  0
POLYLINE
  5
48
330
1F
100
AcDbEntity
  8
_U+30EC_U+30A4_U+30E4_U+30FC 1
 62
   179
420
  2234388
370
    25
100
AcDb2dPolyline
 66
     1
 10
0.0
 20
0.0
 30
0.0
  0
VERTEX
  5
49
330
48
100
AcDbEntity
  8
_U+30EC_U+30A4_U+30E4_U+30FC 1
 62
   179
420
  2234388
370
    25
100
AcDbVertex
100
AcDb2dVertex
 10
114.13496764373
 20
-128.2944827457041
 30
0.0
  0
VERTEX
  5
4A
330
48
100
AcDbEntity
  8
_U+30EC_U+30A4_U+30E4_U+30FC 1
 62
   179
420
  2234388
370
    25
100
AcDbVertex
100
AcDb2dVertex
 10
69.13685795839403
 20
-128.2944827457041
 30
0.0
  0
SEQEND
  5
4B
330
48
100
AcDbEntity
  8
_U+30EC_U+30A4_U+30E4_U+30FC 1
 62
   179
420
  2234388
370
    25
  0
POLYLINE
  5
4C
330
1F
100
AcDbEntity
  8
_U+30EC_U+30A4_U+30E4_U+30FC 1
 62
   179
420
  2234388
370
    25
100
AcDb2dPolyline
 66
     1
 10
0.0
 20
0.0
 30
0.0
  0
VERTEX
  5
4D
330
4C
100
AcDbEntity
  8
_U+30EC_U+30A4_U+30E4_U+30FC 1
 62
   179
420
  2234388
370
    25
100
AcDbVertex
100
AcDb2dVertex
 10
114.13496764373
 20
-127.2940402459542
 30
0.0
  0
VERTEX
  5
4E
330
4C
100
AcDbEntity
  8
_U+30EC_U+30A4_U+30E4_U+30FC 1
 62
   179
420
  2234388
370
    25
100
AcDbVertex
100
AcDb2dVertex
 10
69.13685795839403
 20
-127.2940402459542
 30
0.0
  0
SEQEND
  5
4F
330
4C
100
AcDbEntity
  8
_U+30EC_U+30A4_U+30E4_U+30FC 1
 62
   179
420
  2234388
370
    25
  0
POLYLINE
  5
50
330
1F
100
AcDbEntity
  8
_U+30EC_U+30A4_U+30E4_U+30FC 1
 62
   179
420
  2234388
370
    25
100
AcDb2dPolyline
 66
     1
 10
0.0
 20
0.0
 30
0.0
  0
VERTEX
  5
51
330
50
100
AcDbEntity
  8
_U+30EC_U+30A4_U+30E4_U+30FC 1
 62
   179
420
  2234388
370
    25
100
AcDbVertex
100
AcDb2dVertex
 10
69.13685795839403
 20
-138.2937219098708
 30
0.0
  0
VERTEX
  5
52
330
50
100
AcDbEntity
  8
_U+30EC_U+30A4_U+30E4_U+30FC 1
 62
   179
420
  2234388
370
    25
100
AcDbVertex
100
AcDb2dVertex
 10
69.13685795839403
 20
-128.2944827457041
 30
0.0
  0
SEQEND
  5
53
330
50
100
AcDbEntity
  8
_U+30EC_U+30A4_U+30E4_U+30FC 1
 62
   179
420
  2234388
370
    25
  0
POLYLINE
  5
54
330
1F
100
AcDbEntity
  8
_U+30EC_U+30A4_U+30E4_U+30FC 1
 62
   179
420
  2234388
370
    25
100
AcDb2dPolyline
 66
     1
 10
0.0
 20
0.0
 30
0.0
  0
VERTEX
  5
55
330
54
100
AcDbEntity
  8
_U+30EC_U+30A4_U+30E4_U+30FC 1
 62
   179
420
  2234388
370
    25
100
AcDbVertex
100
AcDb2dVertex
 10
69.13685795839403
 20
-121.2944191363429
 30
0.0
  0
VERTEX
  5
E7
330
54
100
AcDbEntity
  8
0
100
AcDbVertex
100
AcDb2dVertex
 10
69.13685795839403
 20
-121.2944191363429
 30
0.0
  0
SEQEND
  5
56
330
54
100
AcDbEntity
  8
_U+30EC_U+30A4_U+30E4_U+30FC 1
 62
   179
420
  2234388
370
    25
  0
POLYLINE
  5
57
330
1F
100
AcDbEntity
  8
_U+30EC_U+30A4_U+30E4_U+30FC 1
 62
   179
420
  2234388
370
    25
100
AcDb2dPolyline
 66
     1
 10
0.0
 20
0.0
 30
0.0
  0
VERTEX
  5
58
330
57
100
AcDbEntity
  8
_U+30EC_U+30A4_U+30E4_U+30FC 1
 62
   179
420
  2234388
370
    25
100
AcDbVertex
100
AcDb2dVertex
 10
73.1373225785559
 20
-138.2937219098708
 30
0.0
  0
VERTEX
  5
59
330
57
100
AcDbEntity
  8
_U+30EC_U+30A4_U+30E4_U+30FC 1
 62
   179
420
  2234388
370
    25
100
AcDbVertex
100
AcDb2dVertex
 10
73.1373225785559
 20
-139.2941644096207
 30
0.0
  0
VERTEX
  5
5A
330
57
100
AcDbEntity
  8
_U+30EC_U+30A4_U+30E4_U+30FC 1
 62
   179
420
  2234388
370
    25
100
AcDbVertex
100
AcDb2dVertex
 10
68.13708576167812
 20
-139.2941644096207
 30
0.0
  0
SEQEND
  5
5B
330
57
100
AcDbEntity
  8
_U+30EC_U+30A4_U+30E4_U+30FC 1
 62
   179
420
  2234388
370
    25
  0
POLYLINE
  5
5C
330
1F
100
AcDbEntity
  8
_U+30EC_U+30A4_U+30E4_U+30FC 1
 62
   179
420
  2234388
370
    25
100
AcDb2dPolyline
 66
     1
 10
0.0
 20
0.0
 30
0.0
  0
VERTEX
  5
5D
330
5C
100
AcDbEntity
  8
_U+30EC_U+30A4_U+30E4_U+30FC 1
 62
   179
420
  2234388
370
    25
100
AcDbVertex
100
AcDb2dVertex
 10
69.13685795839403
 20
-127.2940402459542
 30
0.0
  0
VERTEX
  5
5E
330
5C
100
AcDbEntity
  8
_U+30EC_U+30A4_U+30E4_U+30FC 1
 62
   179
420
  2234388
370
    25
100
AcDbVertex
100
AcDb2dVertex
 10
69.13685795839403
 20
-120.2946469143707
 30
0.0
  0
VERTEX
  5
5F
330
5C
100
AcDbEntity
  8
_U+30EC_U+30A4_U+30E4_U+30FC 1
 62
   179
420
  2234388
370
    25
100
AcDbVertex
100
AcDb2dVertex
 10
68.13708576167812
 20
-120.2939413588155
 30
0.0
  0
VERTEX
  5
60
330
5C
100
AcDbEntity
  8
_U+30EC_U+30A4_U+30E4_U+30FC 1
 62
   179
420
  2234388
370
    25
100
AcDbVertex
100
AcDb2dVertex
 10
68.13708576167812
 20
-139.2941644096207
 30
0.0
  0
SEQEND
  5
61
330
5C
100
AcDbEntity
  8
_U+30EC_U+30A4_U+30E4_U+30FC 1
 62
   179
420
  2234388
370
    25
  0
SPLINE
  5
62
330
1F
100
AcDbEntity
  8
_U+30EC_U+30A4_U+30E4_U+30FC 1
 62
   179
420
  2234388
370
     9
100
AcDbSpline
210
0.0
220
0.0
230
1.0
 70
    11
 71
     3
 72
    17
 73
    13
 74
     0
 42
0.0000000001
 43
0.0000000001
 12
1.0
 22
0.0
 32
0.0
 13
1.0
 23
0.0
 33
0.0
 40
0.0
 40
0.0
 40
0.0
 40
0.0
 40
1.0
 40
1.0
 40
1.0
 40
2.0
 40
2.0
 40
2.0
 40
3.0
 40
3.0
 40
3.0
 40
4.0
 40
4.0
 40
4.0
 40
4.0
 10
118.1347267083543
 20
-138.1145813543603
 30
0.0
 10
118.1898658736142
 20
-138.1145813543603
 30
0.0
 10
118.2346333724721
 20
-138.1593488543488
 30
0.0
 10
118.2346333724721
 20
-138.2144880210019
 30
0.0
 10
118.2346333724721
 20
-138.2695919098769
 30
0.0
 10
118.1898658736142
 20
-138.3143946876436
 30
0.0
 10
118.1347267083543
 20
-138.3143946876436
 30
0.0
 10
118.0796228208712
 20
-138.3143946876436
 30
0.0
 10
118.0348200442364
 20
-138.2695919098769
 30
0.0
 10
118.0348200442364
 20
-138.2144880210019
 30
0.0
 10
118.0348200442364
 20
-138.1593488543488
 30
0.0
 10
118.0796228208712
 20
-138.1145813543603
 30
0.0
 10
118.1347267083543
 20
-138.1145813543603
 30
0.0
  0
SPLINE
  5
63
330
1F
100
AcDbEntity
  8
_U+30EC_U+30A4_U+30E4_U+30FC 1
 62
   179
420
  2234388
370
     9
100
AcDbSpline
210
0.0
220
0.0
230
1.0
 70
    11
 71
     3
 72
    17
 73
    13
 74
     0
 42
0.0000000001
 43
0.0000000001
 12
1.0
 22
0.0
 32
0.0
 13
1.0
 23
0.0
 33
0.0
 40
0.0
 40
0.0
 40
0.0
 40
0.0
 40
1.0
 40
1.0
 40
1.0
 40
2.0
 40
2.0
 40
2.0
 40
3.0
 40
3.0
 40
3.0
 40
4.0
 40
4.0
 40
4.0
 40
4.0
 10
118.1347267083543
 20
-128.1945760790624
 30
0.0
 10
118.1898658736142
 20
-128.1945760790624
 30
0.0
 10
118.2346333724721
 20
-128.2393788568292
 30
0.0
 10
118.2346333724721
 20
-128.2944827457041
 30
0.0
 10
118.2346333724721
 20
-128.3496219123572
 30
0.0
 10
118.1898658736142
 20
-128.3943894123457
 30
0.0
 10
118.1347267083543
 20
-128.3943894123457
 30
0.0
 10
118.0796228208712
 20
-128.3943894123457
 30
0.0
 10
118.0348200442364
 20
-128.3496219123572
 30
0.0
 10
118.0348200442364
 20
-128.2944827457041
 30
0.0
 10
118.0348200442364
 20
-128.2393788568292
 30
0.0
 10
118.0796228208712
 20
-128.1945760790624
 30
0.0
 10
118.1347267083543
 20
-128.1945760790624
 30
0.0
  0
SPLINE
  5
64
330
1F
100
AcDbEntity
  8
_U+30EC_U+30A4_U+30E4_U+30FC 1
 62
   179
420
  2234388
370
     9
100
AcDbSpline
210
0.0
220
0.0
230
1.0
 70
    11
 71
     3
 72
    17
 73
    13
 74
     0
 42
0.0000000001
 43
0.0000000001
 12
1.0
 22
0.0
 32
0.0
 13
1.0
 23
0.0
 33
0.0
 40
0.0
 40
0.0
 40
0.0
 40
0.0
 40
1.0
 40
1.0
 40
1.0
 40
2.0
 40
2.0
 40
2.0
 40
3.0
 40
3.0
 40
3.0
 40
4.0
 40
4.0
 40
4.0
 40
4.0
 10
114.13496764373
 20
-116.194275526507
 30
0.0
 10
114.1901068089899
 20
-116.194275526507
 30
0.0
 10
114.2348743078478
 20
-116.2390783042737
 30
0.0
 10
114.2348743078478
 20
-116.2941821931486
 30
0.0
 10
114.2348743078478
 20
-116.3493213598017
 30
0.0
 10
114.1901068089899
 20
-116.3940888597903
 30
0.0
 10
114.13496764373
 20
-116.3940888597903
 30
0.0
 10
114.0798666381468
 20
-116.3940888597903
 30
0.0
 10
114.0350638603801
 20
-116.3493213598017
 30
0.0
 10
114.0350638603801
 20
-116.2941821931486
 30
0.0
 10
114.0350638603801
 20
-116.2390783042737
 30
0.0
 10
114.0798666381468
 20
-116.194275526507
 30
0.0
 10
114.13496764373
 20
-116.194275526507
 30
0.0
  0
SPLINE
  5
65
330
1F
100
AcDbEntity
  8
_U+30EC_U+30A4_U+30E4_U+30FC 1
 62
   179
420
  2234388
370
     9
100
AcDbSpline
210
0.0
220
0.0
230
1.0
 70
    11
 71
     3
 72
    17
 73
    13
 74
     0
 42
0.0000000001
 43
0.0000000001
 12
1.0
 22
0.0
 32
0.0
 13
1.0
 23
0.0
 33
0.0
 40
0.0
 40
0.0
 40
0.0
 40
0.0
 40
1.0
 40
1.0
 40
1.0
 40
2.0
 40
2.0
 40
2.0
 40
3.0
 40
3.0
 40
3.0
 40
4.0
 40
4.0
 40
4.0
 40
4.0
 10
68.13708576167812
 20
-116.194275526507
 30
0.0
 10
68.19222492693807
 20
-116.194275526507
 30
0.0
 10
68.23699242579596
 20
-116.2390783042737
 30
0.0
 10
68.23699242579596
 20
-116.2941821931486
 30
0.0
 10
68.23699242579596
 20
-116.3493213598017
 30
0.0
 10
68.19222492693807
 20
-116.3940888597903
 30
0.0
 10
68.13708576167812
 20
-116.3940888597903
 30
0.0
 10
68.08198187419505
 20
-116.3940888597903
 30
0.0
 10
68.03717909756028
 20
-116.3493213598017
 30
0.0
 10
68.03717909756028
 20
-116.2941821931486
 30
0.0
 10
68.03717909756028
 20
-116.2390783042737
 30
0.0
 10
68.08198187419505
 20
-116.194275526507
 30
0.0
 10
68.13708576167812
 20
-116.194275526507
 30
0.0
  0
SPLINE
  5
66
330
1F
100
AcDbEntity
  8
_U+30EC_U+30A4_U+30E4_U+30FC 1
 62
   179
420
  2234388
370
     9
100
AcDbSpline
210
0.0
220
0.0
230
1.0
 70
    11
 71
     3
 72
    17
 73
    13
 74
     0
 42
0.0000000001
 43
0.0000000001
 12
1.0
 22
0.0
 32
0.0
 13
1.0
 23
0.0
 33
0.0
 40
0.0
 40
0.0
 40
0.0
 40
0.0
 40
1.0
 40
1.0
 40
1.0
 40
2.0
 40
2.0
 40
2.0
 40
3.0
 40
3.0
 40
3.0
 40
4.0
 40
4.0
 40
4.0
 40
4.0
 10
64.13665641929313
 20
-120.1940346921739
 30
0.0
 10
64.19246586231375
 20
-120.1940346921739
 30
0.0
 10
64.23723336117165
 20
-120.2388374699403
 30
0.0
 10
64.23723336117165
 20
-120.2939413588155
 30
0.0
 10
64.23723336117165
 20
-120.3490805254683
 30
0.0
 10
64.19246586231375
 20
-120.3938480254571
 30
0.0
 10
64.13665641929313
 20
-120.3938480254571
 30
0.0
 10
64.08151725403319
 20
-120.3938480254571
 30
0.0
 10
64.0367497551753
 20
-120.3490805254683
 30
0.0
 10
64.0367497551753
 20
-120.2939413588155
 30
0.0
 10
64.0367497551753
 20
-120.2388374699403
 30
0.0
 10
64.08151725403319
 20
-120.1940346921739
 30
0.0
 10
64.13665641929313
 20
-120.1940346921739
 30
0.0
  0
SPLINE
  5
67
330
1F
100
AcDbEntity
  8
_U+30EC_U+30A4_U+30E4_U+30FC 1
 62
   179
420
  2234388
370
     9
100
AcDbSpline
210
0.0
220
0.0
230
1.0
 70
    11
 71
     3
 72
    17
 73
    13
 74
     0
 42
0.0000000001
 43
0.0000000001
 12
1.0
 22
0.0
 32
0.0
 13
1.0
 23
0.0
 33
0.0
 40
0.0
 40
0.0
 40
0.0
 40
0.0
 40
1.0
 40
1.0
 40
1.0
 40
2.0
 40
2.0
 40
2.0
 40
3.0
 40
3.0
 40
3.0
 40
4.0
 40
4.0
 40
4.0
 40
4.0
 10
64.13665641929313
 20
-139.1942577429791
 30
0.0
 10
64.19246586231375
 20
-139.1942577429791
 30
0.0
 10
64.23723336117165
 20
-139.2383549651903
 30
0.0
 10
64.23723336117165
 20
-139.2941644096207
 30
0.0
 10
64.23723336117165
 20
-139.3493035762738
 30
0.0
 10
64.19246586231375
 20
-139.3940710762624
 30
0.0
 10
64.13665641929313
 20
-139.3940710762624
 30
0.0
 10
64.08151725403319
 20
-139.3940710762624
 30
0.0
 10
64.0367497551753
 20
-139.3493035762738
 30
0.0
 10
64.0367497551753
 20
-139.2941644096207
 30
0.0
 10
64.0367497551753
 20
-139.2383549651903
 30
0.0
 10
64.08151725403319
 20
-139.1942577429791
 30
0.0
 10
64.13665641929313
 20
-139.1942577429791
 30
0.0
  0
SPLINE
  5
68
330
1F
100
AcDbEntity
  8
_U+30EC_U+30A4_U+30E4_U+30FC 1
 62
   179
420
  2234388
370
     9
100
AcDbSpline
210
0.0
220
0.0
230
1.0
 70
    11
 71
     3
 72
    17
 73
    13
 74
     0
 42
0.0000000001
 43
0.0000000001
 12
1.0
 22
0.0
 32
0.0
 13
1.0
 23
0.0
 33
0.0
 40
0.0
 40
0.0
 40
0.0
 40
0.0
 40
1.0
 40
1.0
 40
1.0
 40
2.0
 40
2.0
 40
2.0
 40
3.0
 40
3.0
 40
3.0
 40
4.0
 40
4.0
 40
4.0
 40
4.0
 10
68.22252853727608
 20
-113.6779821938026
 30
0.0
 10
68.2783379802967
 20
-113.6779821938026
 30
0.0
 10
68.32314075693147
 20
-113.7227849715693
 30
0.0
 10
68.32314075693147
 20
-113.7778888604446
 30
0.0
 10
68.32314075693147
 20
-113.8330280270973
 30
0.0
 10
68.2783379802967
 20
-113.8777955270862
 30
0.0
 10
68.22252853727608
 20
-113.8777955270862
 30
0.0
 10
68.167424649793
 20
-113.8777955270862
 30
0.0
 10
68.12262187315824
 20
-113.8330280270973
 30
0.0
 10
68.12262187315824
 20
-113.7778888604446
 30
0.0
 10
68.12262187315824
 20
-113.7227849715693
 30
0.0
 10
68.167424649793
 20
-113.6779821938026
 30
0.0
 10
68.22252853727608
 20
-113.6779821938026
 30
0.0
  0
SPLINE
  5
69
330
1F
100
AcDbEntity
  8
_U+30EC_U+30A4_U+30E4_U+30FC 1
 62
   179
420
  2234388
370
     9
100
AcDbSpline
210
0.0
220
0.0
230
1.0
 70
    11
 71
     3
 72
    17
 73
    13
 74
     0
 42
0.0000000001
 43
0.0000000001
 12
1.0
 22
0.0
 32
0.0
 13
1.0
 23
0.0
 33
0.0
 40
0.0
 40
0.0
 40
0.0
 40
0.0
 40
1.0
 40
1.0
 40
1.0
 40
2.0
 40
2.0
 40
2.0
 40
3.0
 40
3.0
 40
3.0
 40
4.0
 40
4.0
 40
4.0
 40
4.0
 10
69.209882956531
 20
-113.675936082692
 30
0.0
 10
69.26572767732851
 20
-113.675936082692
 30
0.0
 10
69.3104951761864
 20
-113.7207035826809
 30
0.0
 10
69.3104951761864
 20
-113.7758427493337
 30
0.0
 10
69.3104951761864
 20
-113.8309466382089
 30
0.0
 10
69.26572767732851
 20
-113.8757494159756
 30
0.0
 10
69.209882956531
 20
-113.8757494159756
 30
0.0
 10
69.15477906904793
 20
-113.8757494159756
 30
0.0
 10
69.10997629241317
 20
-113.8309466382089
 30
0.0
 10
69.10997629241317
 20
-113.7758427493337
 30
0.0
 10
69.10997629241317
 20
-113.7207035826809
 30
0.0
 10
69.15477906904793
 20
-113.675936082692
 30
0.0
 10
69.209882956531
 20
-113.675936082692
 30
0.0
  0
SPLINE
  5
6A
330
1F
100
AcDbEntity
  8
_U+30EC_U+30A4_U+30E4_U+30FC 1
 62
   179
420
  2234388
370
     9
100
AcDbSpline
210
0.0
220
0.0
230
1.0
 70
    11
 71
     3
 72
    17
 73
    13
 74
     0
 42
0.0000000001
 43
0.0000000001
 12
1.0
 22
0.0
 32
0.0
 13
1.0
 23
0.0
 33
0.0
 40
0.0
 40
0.0
 40
0.0
 40
0.0
 40
1.0
 40
1.0
 40
1.0
 40
2.0
 40
2.0
 40
2.0
 40
3.0
 40
3.0
 40
3.0
 40
4.0
 40
4.0
 40
4.0
 40
4.0
 10
68.13708576167812
 20
-143.194016908646
 30
0.0
 10
68.19222492693807
 20
-143.194016908646
 30
0.0
 10
68.23699242579596
 20
-143.2388196864127
 30
0.0
 10
68.23699242579596
 20
-143.2939235752876
 30
0.0
 10
68.23699242579596
 20
-143.3490627419407
 30
0.0
 10
68.19222492693807
 20
-143.3938302419293
 30
0.0
 10
68.13708576167812
 20
-143.3938302419293
 30
0.0
 10
68.08198187419505
 20
-143.3938302419293
 30
0.0
 10
68.03717909756028
 20
-143.3490627419407
 30
0.0
 10
68.03717909756028
 20
-143.2939235752876
 30
0.0
 10
68.03717909756028
 20
-143.2388196864127
 30
0.0
 10
68.08198187419505
 20
-143.194016908646
 30
0.0
 10
68.13708576167812
 20
-143.194016908646
 30
0.0
  0
SPLINE
  5
6B
330
1F
100
AcDbEntity
  8
_U+30EC_U+30A4_U+30E4_U+30FC 1
 62
   179
420
  2234388
370
     9
100
AcDbSpline
210
0.0
220
0.0
230
1.0
 70
    11
 71
     3
 72
    17
 73
    13
 74
     0
 42
0.0000000001
 43
0.0000000001
 12
1.0
 22
0.0
 32
0.0
 13
1.0
 23
0.0
 33
0.0
 40
0.0
 40
0.0
 40
0.0
 40
0.0
 40
1.0
 40
1.0
 40
1.0
 40
2.0
 40
2.0
 40
2.0
 40
3.0
 40
3.0
 40
3.0
 40
4.0
 40
4.0
 40
4.0
 40
4.0
 10
73.1855472995478
 20
-143.194016908646
 30
0.0
 10
73.24065118703088
 20
-143.194016908646
 30
0.0
 10
73.28545396366565
 20
-143.2388196864127
 30
0.0
 10
73.28545396366565
 20
-143.2939235752876
 30
0.0
 10
73.28545396366565
 20
-143.3490627419407
 30
0.0
 10
73.24065118703088
 20
-143.3938302419293
 30
0.0
 10
73.1855472995478
 20
-143.3938302419293
 30
0.0
 10
73.12973785652717
 20
-143.3938302419293
 30
0.0
 10
73.08564063542997
 20
-143.3490627419407
 30
0.0
 10
73.08564063542997
 20
-143.2939235752876
 30
0.0
 10
73.08564063542997
 20
-143.2388196864127
 30
0.0
 10
73.12973785652717
 20
-143.194016908646
 30
0.0
 10
73.1855472995478
 20
-143.194016908646
 30
0.0
  0
POLYLINE
  5
6C
330
1F
100
AcDbEntity
  8
_U+30EC_U+30A4_U+30E4_U+30FC 1
 62
   179
420
  2234388
370
     9
100
AcDb2dPolyline
 66
     1
 10
0.0
 20
0.0
 30
0.0
  0
VERTEX
  5
6D
330
6C
100
AcDbEntity
  8
_U+30EC_U+30A4_U+30E4_U+30FC 1
 62
   179
420
  2234388
370
     9
100
AcDbVertex
100
AcDb2dVertex
 10
116.6746853567141
 20
-128.2944827457041
 30
0.0
  0
VERTEX
  5
6E
330
6C
100
AcDbEntity
  8
_U+30EC_U+30A4_U+30E4_U+30FC 1
 62
   179
420
  2234388
370
     9
100
AcDbVertex
100
AcDb2dVertex
 10
119.1352044606077
 20
-128.2944827457041
 30
0.0
  0
SEQEND
  5
6F
330
6C
100
AcDbEntity
  8
_U+30EC_U+30A4_U+30E4_U+30FC 1
 62
   179
420
  2234388
370
     9
  0
POLYLINE
  5
70
330
1F
100
AcDbEntity
  8
_U+30EC_U+30A4_U+30E4_U+30FC 1
 62
   179
420
  2234388
370
     9
100
AcDb2dPolyline
 66
     1
 10
0.0
 20
0.0
 30
0.0
  0
VERTEX
  5
71
330
70
100
AcDbEntity
  8
_U+30EC_U+30A4_U+30E4_U+30FC 1
 62
   179
420
  2234388
370
     9
100
AcDbVertex
100
AcDb2dVertex
 10
73.1373225785559
 20
-143.2939235752876
 30
0.0
  0
VERTEX
  5
72
330
70
100
AcDbEntity
  8
_U+30EC_U+30A4_U+30E4_U+30FC 1
 62
   179
420
  2234388
370
     9
100
AcDbVertex
100
AcDb2dVertex
 10
68.13708576167812
 20
-143.2939235752876
 30
0.0
  0
SEQEND
  5
73
330
70
100
AcDbEntity
  8
_U+30EC_U+30A4_U+30E4_U+30FC 1
 62
   179
420
  2234388
370
     9
  0
POLYLINE
  5
74
330
1F
100
AcDbEntity
  8
_U+30EC_U+30A4_U+30E4_U+30FC 1
 62
   179
420
  2234388
370
     9
100
AcDb2dPolyline
 66
     1
 10
0.0
 20
0.0
 30
0.0
  0
VERTEX
  5
75
330
74
100
AcDbEntity
  8
_U+30EC_U+30A4_U+30E4_U+30FC 1
 62
   179
420
  2234388
370
     9
100
AcDbVertex
100
AcDb2dVertex
 10
73.1855472995478
 20
-141.8338821867639
 30
0.0
  0
VERTEX
  5
76
330
74
100
AcDbEntity
  8
_U+30EC_U+30A4_U+30E4_U+30FC 1
 62
   179
420
  2234388
370
     9
100
AcDbVertex
100
AcDb2dVertex
 10
73.1855472995478
 20
-144.2936957972602
 30
0.0
  0
SEQEND
  5
77
330
74
100
AcDbEntity
  8
_U+30EC_U+30A4_U+30E4_U+30FC 1
 62
   179
420
  2234388
370
     9
  0
POLYLINE
  5
78
330
1F
100
AcDbEntity
  8
_U+30EC_U+30A4_U+30E4_U+30FC 1
 62
   179
420
  2234388
370
     9
100
AcDb2dPolyline
 66
     1
 10
0.0
 20
0.0
 30
0.0
  0
VERTEX
  5
79
330
78
100
AcDbEntity
  8
_U+30EC_U+30A4_U+30E4_U+30FC 1
 62
   179
420
  2234388
370
     9
100
AcDbVertex
100
AcDb2dVertex
 10
68.13708576167812
 20
-141.8338821867639
 30
0.0
  0
VERTEX
  5
7A
330
78
100
AcDbEntity
  8
_U+30EC_U+30A4_U+30E4_U+30FC 1
 62
   179
420
  2234388
370
     9
100
AcDbVertex
100
AcDb2dVertex
 10
68.13708576167812
 20
-144.2936957972602
 30
0.0
  0
SEQEND
  5
7B
330
78
100
AcDbEntity
  8
_U+30EC_U+30A4_U+30E4_U+30FC 1
 62
   179
420
  2234388
370
     9
  0
POLYLINE
  5
7C
330
1F
100
AcDbEntity
  8
_U+30EC_U+30A4_U+30E4_U+30FC 1
 62
   179
420
  2234388
370
     9
100
AcDb2dPolyline
 66
     1
 10
0.0
 20
0.0
 30
0.0
  0
VERTEX
  5
7D
330
7C
100
AcDbEntity
  8
_U+30EC_U+30A4_U+30E4_U+30FC 1
 62
   179
420
  2234388
370
     9
100
AcDbVertex
100
AcDb2dVertex
 10
68.13708576167812
 20
-116.2941821931486
 30
0.0
  0
VERTEX
  5
7E
330
7C
100
AcDbEntity
  8
_U+30EC_U+30A4_U+30E4_U+30FC 1
 62
   179
420
  2234388
370
     9
100
AcDbVertex
100
AcDb2dVertex
 10
114.13496764373
 20
-116.2941821931486
 30
0.0
  0
SEQEND
  5
7F
330
7C
100
AcDbEntity
  8
_U+30EC_U+30A4_U+30E4_U+30FC 1
 62
   179
420
  2234388
370
     9
  0
POLYLINE
  5
80
330
1F
100
AcDbEntity
  8
_U+30EC_U+30A4_U+30E4_U+30FC 1
 62
   179
420
  2234388
370
     9
100
AcDb2dPolyline
 66
     1
 10
0.0
 20
0.0
 30
0.0
  0
VERTEX
  5
81
330
80
100
AcDbEntity
  8
_U+30EC_U+30A4_U+30E4_U+30FC 1
 62
   179
420
  2234388
370
     9
100
AcDbVertex
100
AcDb2dVertex
 10
68.13708576167812
 20
-117.7542235816727
 30
0.0
  0
VERTEX
  5
82
330
80
100
AcDbEntity
  8
_U+30EC_U+30A4_U+30E4_U+30FC 1
 62
   179
420
  2234388
370
     9
100
AcDbVertex
100
AcDb2dVertex
 10
68.13708576167812
 20
-115.2937396933987
 30
0.0
  0
SEQEND
  5
83
330
80
100
AcDbEntity
  8
_U+30EC_U+30A4_U+30E4_U+30FC 1
 62
   179
420
  2234388
370
     9
  0
POLYLINE
  5
84
330
1F
100
AcDbEntity
  8
_U+30EC_U+30A4_U+30E4_U+30FC 1
 62
   179
420
  2234388
370
     9
100
AcDb2dPolyline
 66
     1
 10
0.0
 20
0.0
 30
0.0
  0
VERTEX
  5
85
330
84
100
AcDbEntity
  8
_U+30EC_U+30A4_U+30E4_U+30FC 1
 62
   179
420
  2234388
370
     9
100
AcDbVertex
100
AcDb2dVertex
 10
114.13496764373
 20
-125.7540946907839
 30
0.0
  0
VERTEX
  5
86
330
84
100
AcDbEntity
  8
_U+30EC_U+30A4_U+30E4_U+30FC 1
 62
   179
420
  2234388
370
     9
100
AcDbVertex
100
AcDb2dVertex
 10
114.13496764373
 20
-115.2937396933987
 30
0.0
  0
SEQEND
  5
87
330
84
100
AcDbEntity
  8
_U+30EC_U+30A4_U+30E4_U+30FC 1
 62
   179
420
  2234388
370
     9
  0
POLYLINE
  5
88
330
1F
100
AcDbEntity
  8
_U+30EC_U+30A4_U+30E4_U+30FC 1
 62
   179
420
  2234388
370
     9
100
AcDb2dPolyline
 66
     1
 10
0.0
 20
0.0
 30
0.0
  0
VERTEX
  5
89
330
88
100
AcDbEntity
  8
_U+30EC_U+30A4_U+30E4_U+30FC 1
 62
   179
420
  2234388
370
     9
100
AcDbVertex
100
AcDb2dVertex
 10
118.1347267083543
 20
-138.2144880210019
 30
0.0
  0
VERTEX
  5
8A
330
88
100
AcDbEntity
  8
_U+30EC_U+30A4_U+30E4_U+30FC 1
 62
   179
420
  2234388
370
     9
100
AcDbVertex
100
AcDb2dVertex
 10
118.1347267083543
 20
-128.2944827457041
 30
0.0
  0
SEQEND
  5
8B
330
88
100
AcDbEntity
  8
_U+30EC_U+30A4_U+30E4_U+30FC 1
 62
   179
420
  2234388
370
     9
  0
POLYLINE
  5
8C
330
1F
100
AcDbEntity
  8
_U+30EC_U+30A4_U+30E4_U+30FC 1
 62
   179
420
  2234388
370
     9
100
AcDb2dPolyline
 66
     1
 10
0.0
 20
0.0
 30
0.0
  0
VERTEX
  5
8D
330
8C
100
AcDbEntity
  8
_U+30EC_U+30A4_U+30E4_U+30FC 1
 62
   179
420
  2234388
370
     9
100
AcDbVertex
100
AcDb2dVertex
 10
75.80880278817854
 20
-138.2144880210019
 30
0.0
  0
VERTEX
  5
8E
330
8C
100
AcDbEntity
  8
_U+30EC_U+30A4_U+30E4_U+30FC 1
 62
   179
420
  2234388
370
     9
100
AcDbVertex
100
AcDb2dVertex
 10
119.1352044606077
 20
-138.2144880210019
 30
0.0
  0
SEQEND
  5
8F
330
8C
100
AcDbEntity
  8
_U+30EC_U+30A4_U+30E4_U+30FC 1
 62
   179
420
  2234388
370
     9
  0
POLYLINE
  5
90
330
1F
100
AcDbEntity
  8
_U+30EC_U+30A4_U+30E4_U+30FC 1
 62
   179
420
  2234388
370
     9
100
AcDb2dPolyline
 66
     1
 10
0.0
 20
0.0
 30
0.0
  0
VERTEX
  5
91
330
90
100
AcDbEntity
  8
_U+30EC_U+30A4_U+30E4_U+30FC 1
 62
   179
420
  2234388
370
     9
100
AcDbVertex
100
AcDb2dVertex
 10
64.13665641929313
 20
-139.2941644096207
 30
0.0
  0
VERTEX
  5
92
330
90
100
AcDbEntity
  8
_U+30EC_U+30A4_U+30E4_U+30FC 1
 62
   179
420
  2234388
370
     9
100
AcDbVertex
100
AcDb2dVertex
 10
64.13665641929313
 20
-120.2939413588155
 30
0.0
  0
SEQEND
  5
93
330
90
100
AcDbEntity
  8
_U+30EC_U+30A4_U+30E4_U+30FC 1
 62
   179
420
  2234388
370
     9
  0
POLYLINE
  5
94
330
1F
100
AcDbEntity
  8
_U+30EC_U+30A4_U+30E4_U+30FC 1
 62
   179
420
  2234388
370
     9
100
AcDb2dPolyline
 66
     1
 10
0.0
 20
0.0
 30
0.0
  0
VERTEX
  5
95
330
94
100
AcDbEntity
  8
_U+30EC_U+30A4_U+30E4_U+30FC 1
 62
   179
420
  2234388
370
     9
100
AcDbVertex
100
AcDb2dVertex
 10
65.59669777093326
 20
-139.2941644096207
 30
0.0
  0
VERTEX
  5
96
330
94
100
AcDbEntity
  8
_U+30EC_U+30A4_U+30E4_U+30FC 1
 62
   179
420
  2234388
370
     9
100
AcDbVertex
100
AcDb2dVertex
 10
63.13688422257722
 20
-139.2941644096207
 30
0.0
  0
SEQEND
  5
97
330
94
100
AcDbEntity
  8
_U+30EC_U+30A4_U+30E4_U+30FC 1
 62
   179
420
  2234388
370
     9
  0
POLYLINE
  5
98
330
1F
100
AcDbEntity
  8
_U+30EC_U+30A4_U+30E4_U+30FC 1
 62
   179
420
  2234388
370
     9
100
AcDb2dPolyline
 66
     1
 10
0.0
 20
0.0
 30
0.0
  0
VERTEX
  5
99
330
98
100
AcDbEntity
  8
_U+30EC_U+30A4_U+30E4_U+30FC 1
 62
   179
420
  2234388
370
     9
100
AcDbVertex
100
AcDb2dVertex
 10
65.59669777093326
 20
-120.2939413588155
 30
0.0
  0
VERTEX
  5
9A
330
98
100
AcDbEntity
  8
_U+30EC_U+30A4_U+30E4_U+30FC 1
 62
   179
420
  2234388
370
     9
100
AcDbVertex
100
AcDb2dVertex
 10
63.13688422257722
 20
-120.2939413588155
 30
0.0
  0
SEQEND
  5
9B
330
98
100
AcDbEntity
  8
_U+30EC_U+30A4_U+30E4_U+30FC 1
 62
   179
420
  2234388
370
     9
  0
POLYLINE
  5
9C
330
1F
100
AcDbEntity
  8
_U+30EC_U+30A4_U+30E4_U+30FC 1
 62
   179
420
  2234388
370
     9
100
AcDb2dPolyline
 66
     1
 10
0.0
 20
0.0
 30
0.0
  0
VERTEX
  5
9D
330
9C
100
AcDbEntity
  8
_U+30EC_U+30A4_U+30E4_U+30FC 1
 62
   179
420
  2234388
370
     9
100
AcDbVertex
100
AcDb2dVertex
 10
69.21129406760612
 20
-114.4813983047129
 30
0.0
  0
VERTEX
  5
9E
330
9C
100
AcDbEntity
  8
_U+30EC_U+30A4_U+30E4_U+30FC 1
 62
   179
420
  2234388
370
     9
100
AcDbVertex
100
AcDb2dVertex
 10
69.21129406760612
 20
-113.0702871939545
 30
0.0
  0
SEQEND
  5
9F
330
9C
100
AcDbEntity
  8
_U+30EC_U+30A4_U+30E4_U+30FC 1
 62
   179
420
  2234388
370
     9
  0
POLYLINE
  5
A0
330
1F
100
AcDbEntity
  8
_U+30EC_U+30A4_U+30E4_U+30FC 1
 62
   179
420
  2234388
370
     9
100
AcDb2dPolyline
 66
     1
 10
0.0
 20
0.0
 30
0.0
  0
VERTEX
  5
A1
330
A0
100
AcDbEntity
  8
_U+30EC_U+30A4_U+30E4_U+30FC 1
 62
   179
420
  2234388
370
     9
100
AcDbVertex
100
AcDb2dVertex
 10
68.21289770418844
 20
-114.4813983047129
 30
0.0
  0
VERTEX
  5
A2
330
A0
100
AcDbEntity
  8
_U+30EC_U+30A4_U+30E4_U+30FC 1
 62
   179
420
  2234388
370
     9
100
AcDbVertex
100
AcDb2dVertex
 10
68.21289770418844
 20
-113.0702871939545
 30
0.0
  0
SEQEND
  5
A3
330
A0
100
AcDbEntity
  8
_U+30EC_U+30A4_U+30E4_U+30FC 1
 62
   179
420
  2234388
370
     9
  0
POLYLINE
  5
A4
330
1F
100
AcDbEntity
  8
_U+30EC_U+30A4_U+30E4_U+30FC 1
 62
   179
420
  2234388
370
     9
100
AcDb2dPolyline
 66
     1
 10
0.0
 20
0.0
 30
0.0
  0
VERTEX
  5
A5
330
A4
100
AcDbEntity
  8
_U+30EC_U+30A4_U+30E4_U+30FC 1
 62
   179
420
  2234388
370
     9
100
AcDbVertex
100
AcDb2dVertex
 10
66.95129384748574
 20
-113.7758427493337
 30
0.0
  0
VERTEX
  5
A6
330
A4
100
AcDbEntity
  8
_U+30EC_U+30A4_U+30E4_U+30FC 1
 62
   179
420
  2234388
370
     9
100
AcDbVertex
100
AcDb2dVertex
 10
70.31989998242014
 20
-113.7758427493337
 30
0.0
  0
SEQEND
  5
A7
330
A4
100
AcDbEntity
  8
_U+30EC_U+30A4_U+30E4_U+30FC 1
 62
   179
420
  2234388
370
     9
  0
INSERT
  5
A9
330
1F
100
AcDbEntity
  8
_U+30EC_U+30A4_U+30E4_U+30FC 1
100
AcDbBlockReference
  2
block 2
 10
0.0
 20
0.0
 30
0.0
  0
INSERT
  5
AF
330
1F
100
AcDbEntity
  8
_U+30EC_U+30A4_U+30E4_U+30FC 1
100
AcDbBlockReference
  2
block 3
 10
0.0
 20
0.0
 30
0.0
  0
INSERT
  5
CB
330
1F
100
AcDbEntity
  8
_U+30EC_U+30A4_U+30E4_U+30FC 1
100
AcDbBlockReference
  2
block 4
 10
0.0
 20
0.0
 30
0.0
  0
INSERT
  5
D1
330
1F
100
AcDbEntity
  8
_U+30EC_U+30A4_U+30E4_U+30FC 1
100
AcDbBlockReference
  2
block 5
 10
0.0
 20
0.0
 30
0.0
  0
INSERT
  5
DA
330
1F
100
AcDbEntity
  8
_U+30EC_U+30A4_U+30E4_U+30FC 1
100
AcDbBlockReference
  2
block 6
 10
0.0
 20
0.0
 30
0.0
  0
POLYLINE
  5
E2
330
1F
100
AcDbEntity
  8
_U+30EC_U+30A4_U+30E4_U+30FC 1
 62
   179
420
  2234388
370
    25
100
AcDb2dPolyline
 66
     1
 10
0.0
 20
0.0
 30
0.0
  0
VERTEX
  5
E3
330
E2
100
AcDbEntity
  8
_U+30EC_U+30A4_U+30E4_U+30FC 1
 62
   179
420
  2234388
370
    25
100
AcDbVertex
100
AcDb2dVertex
 10
69.13685795839403
 20
-138.2937219098708
 30
0.0
  0
VERTEX
  5
E4
330
E2
100
AcDbEntity
  8
_U+30EC_U+30A4_U+30E4_U+30FC 1
 62
   179
420
  2234388
370
    25
100
AcDbVertex
100
AcDb2dVertex
 10
73.1373225785559
 20
-138.2937219098708
 30
0.0
  0
SEQEND
  5
E5
330
E2
100
AcDbEntity
  8
_U+30EC_U+30A4_U+30E4_U+30FC 1
 62
   179
420
  2234388
370
    25
  0
ENDSEC
  0
SECTION
  2
OBJECTS
  0
DICTIONARY
  5
C
330
0
100
AcDbDictionary
281
     1
  3
ACAD_GROUP
350
D
  3
ACAD_LAYOUT
350
1A
  3
ACAD_MATERIAL
350
3B
  3
ACAD_MLEADERSTYLE
350
E9
  3
ACAD_MLINESTYLE
350
17
  3
ACAD_PLOTSETTINGS
350
19
  3
ACAD_PLOTSTYLENAME
350
E
  3
ACAD_TABLESTYLE
350
E8
  3
ACAD_VISUALSTYLE
350
2A
  0
SUN
  5
3F
330
29
100
AcDbSun
 90
        1
290
     0
 63
     7
421
 16777215
 40
1.0
291
     1
 91
  2455826
 92
 54000000
292
     0
 70
     2
 71
   256
280
     1
  0
DICTIONARY
  5
D
102
{ACAD_REACTORS
330
C
102
}
330
C
100
AcDbDictionary
281
     1
  0
DICTIONARY
  5
1A
102
{ACAD_REACTORS
330
C
102
}
330
C
100
AcDbDictionary
281
     1
  3
Layout1
350
1E
  3
Layout2
350
26
  3
Model
350
22
  0
DICTIONARY
  5
3B
102
{ACAD_REACTORS
330
C
102
}
330
C
100
AcDbDictionary
281
     1
  3
ByBlock
350
3D
  3
ByLayer
350
3C
  3
Global
350
3E
  0
DICTIONARY
  5
E9
102
{ACAD_REACTORS
330
C
102
}
330
C
100
AcDbDictionary
281
     1
  0
DICTIONARY
  5
17
102
{ACAD_REACTORS
330
C
102
}
330
C
100
AcDbDictionary
281
     1
  3
Standard
350
18
  0
DICTIONARY
  5
19
102
{ACAD_REACTORS
330
C
102
}
330
C
100
AcDbDictionary
281
     1
  0
ACDBDICTIONARYWDFLT
  5
E
102
{ACAD_REACTORS
330
C
102
}
330
C
100
AcDbDictionary
281
     1
  3
Normal
350
F
100
AcDbDictionaryWithDefault
340
F
  0
DICTIONARY
  5
E8
102
{ACAD_REACTORS
330
C
102
}
330
C
100
AcDbDictionary
281
     1
  0
DICTIONARY
  5
2A
102
{ACAD_REACTORS
330
C
102
}
330
C
100
AcDbDictionary
281
     1
  3
2dWireframe
350
2F
  3
3D Hidden
350
31
  3
3dWireframe
350
30
  3
Basic
350
32
  3
Brighten
350
36
  3
ColorChange
350
3A
  3
Conceptual
350
34
  3
Dim
350
35
  3
Facepattern
350
39
  3
Flat
350
2B
  3
FlatWithEdges
350
2C
  3
Gouraud
350
2D
  3
GouraudWithEdges
350
2E
  3
Linepattern
350
38
  3
Realistic
350
33
  3
Thicken
350
37
  0
LAYOUT
  5
1E
102
{ACAD_REACTORS
330
1A
102
}
330
1A
100
AcDbPlotSettings
  1

  2
none_device
  4

  6

 40
0.0
 41
0.0
 42
0.0
 43
0.0
 44
0.0
 45
0.0
 46
0.0
 47
0.0
 48
0.0
 49
0.0
140
0.0
141
0.0
142
1.0
143
1.0
 70
   688
 72
     0
 73
     0
 74
     5
  7

 75
    16
 76
     0
 77
     2
 78
   300
147
1.0
148
0.0
149
0.0
100
AcDbLayout
  1
Layout1
 70
     1
 71
     1
 10
0.0
 20
0.0
 11
12.0
 21
9.0
 12
0.0
 22
0.0
 32
0.0
 14
1.000000000000000E+20
 24
1.000000000000000E+20
 34
1.000000000000000E+20
 15
-1.000000000000000E+20
 25
-1.000000000000000E+20
 35
-1.000000000000000E+20
146
0.0
 13
0.0
 23
0.0
 33
0.0
 16
1.0
 26
0.0
 36
0.0
 17
0.0
 27
1.0
 37
0.0
 76
     0
330
1B
  0
LAYOUT
  5
26
102
{ACAD_REACTORS
330
1A
102
}
330
1A
100
AcDbPlotSettings
  1

  2
none_device
  4

  6

 40
0.0
 41
0.0
 42
0.0
 43
0.0
 44
0.0
 45
0.0
 46
0.0
 47
0.0
 48
0.0
 49
0.0
140
0.0
141
0.0
142
1.0
143
1.0
 70
   688
 72
     0
 73
     0
 74
     5
  7

 75
    16
 76
     0
 77
     2
 78
   300
147
1.0
148
0.0
149
0.0
100
AcDbLayout
  1
Layout2
 70
     1
 71
     2
 10
0.0
 20
0.0
 11
0.0
 21
0.0
 12
0.0
 22
0.0
 32
0.0
 14
0.0
 24
0.0
 34
0.0
 15
0.0
 25
0.0
 35
0.0
146
0.0
 13
0.0
 23
0.0
 33
0.0
 16
1.0
 26
0.0
 36
0.0
 17
0.0
 27
1.0
 37
0.0
 76
     0
330
23
  0
LAYOUT
  5
22
102
{ACAD_REACTORS
330
1A
102
}
330
1A
100
AcDbPlotSettings
  1

  2
none_device
  4

  6

 40
0.0
 41
0.0
 42
0.0
 43
0.0
 44
0.0
 45
0.0
 46
0.0
 47
0.0
 48
0.0
 49
0.0
140
0.0
141
0.0
142
1.0
143
1.0
 70
  1712
 72
     0
 73
     0
 74
     0
  7

 75
     0
 76
     0
 77
     2
 78
   300
147
1.0
148
0.0
149
0.0
100
AcDbLayout
  1
Model
 70
     1
 71
     0
 10
0.0
 20
0.0
 11
12.0
 21
9.0
 12
0.0
 22
0.0
 32
0.0
 14
1.000000000000000E+20
 24
1.000000000000000E+20
 34
1.000000000000000E+20
 15
-1.000000000000000E+20
 25
-1.000000000000000E+20
 35
-1.000000000000000E+20
146
0.0
 13
0.0
 23
0.0
 33
0.0
 16
1.0
 26
0.0
 36
0.0
 17
0.0
 27
1.0
 37
0.0
 76
     0
330
1F
331
29
  0
MATERIAL
  5
3D
102
{ACAD_REACTORS
330
3B
102
}
330
3B
100
AcDbMaterial
  1
ByBlock
 72
     1
 94
      127
  0
MATERIAL
  5
3C
102
{ACAD_REACTORS
330
3B
102
}
330
3B
100
AcDbMaterial
  1
ByLayer
 72
     1
 94
      127
  0
MATERIAL
  5
3E
102
{ACAD_REACTORS
330
3B
102
}
330
3B
100
AcDbMaterial
  1
Global
 72
     1
 94
      127
  0
MLINESTYLE
  5
18
102
{ACAD_REACTORS
330
17
102
}
330
17
100
AcDbMlineStyle
  2
Standard
 70
     0
  3

 62
   256
 51
90.0
 52
90.0
 71
     2
 49
0.5
 62
   256
  6
BYLAYER
 49
-0.5
 62
   256
  6
BYLAYER
  0
ACDBPLACEHOLDER
  5
F
102
{ACAD_REACTORS
330
E
102
}
330
E
  0
VISUALSTYLE
  5
2F
102
{ACAD_REACTORS
330
2A
102
}
330
2A
100
AcDbVisualStyle
  2
2dWireframe
 70
     4
177
     2
291
     0
 71
     0
176
     1
 72
     2
176
     1
 73
     0
176
     1
 90
        0
176
     1
 40
-0.6
176
     1
 41
-30.0
176
     1
 62
     5
 63
     7
421
 16777215
176
     1
 74
     1
176
     1
 91
        4
176
     1
 64
     7
176
     1
 65
   257
176
     1
 75
     1
176
     1
175
     1
176
     1
 42
1.0
176
     1
 92
        0
176
     1
 66
   257
176
     1
 43
1.0
176
     1
 76
     1
176
     1
 77
     6
176
     1
 78
     2
176
     1
 67
     7
176
     1
 79
     5
176
     1
170
     0
176
     1
171
     0
176
     1
290
     0
176
     1
 93
        1
176
     1
 44
0.0
176
     1
173
     0
176
     1
  0
VISUALSTYLE
  5
31
102
{ACAD_REACTORS
330
2A
102
}
330
2A
100
AcDbVisualStyle
  2
3D Hidden
 70
     6
177
     2
291
     0
 71
     1
176
     1
 72
     2
176
     1
 73
     2
176
     1
 90
        0
176
     1
 40
-0.6
176
     1
 41
-30.0
176
     1
 62
     5
 63
     7
421
 16777215
176
     1
 74
     2
176
     1
 91
        2
176
     1
 64
     7
176
     1
 65
   257
176
     1
 75
     2
176
     1
175
     1
176
     1
 42
40.0
176
     1
 92
        0
176
     1
 66
   257
176
     1
 43
1.0
176
     1
 76
     1
176
     1
 77
     6
176
     1
 78
     2
176
     1
 67
     7
176
     1
 79
     3
176
     1
170
     0
176
     1
171
     0
176
     1
290
     0
176
     1
 93
        1
176
     1
 44
0.0
176
     1
173
     0
176
     1
  0
VISUALSTYLE
  5
30
102
{ACAD_REACTORS
330
2A
102
}
330
2A
100
AcDbVisualStyle
  2
3dWireframe
 70
     5
177
     2
291
     0
 71
     0
176
     1
 72
     2
176
     1
 73
     0
176
     1
 90
        0
176
     1
 40
-0.6
176
     1
 41
-30.0
176
     1
 62
     5
 63
     7
421
 16777215
176
     1
 74
     1
176
     1
 91
        4
176
     1
 64
     7
176
     1
 65
   257
176
     1
 75
     1
176
     1
175
     1
176
     1
 42
1.0
176
     1
 92
        0
176
     1
 66
   257
176
     1
 43
1.0
176
     1
 76
     1
176
     1
 77
     6
176
     1
 78
     2
176
     1
 67
     7
176
     1
 79
     5
176
     1
170
     0
176
     1
171
     0
176
     1
290
     0
176
     1
 93
        1
176
     1
 44
0.0
176
     1
173
     0
176
     1
  0
VISUALSTYLE
  5
32
102
{ACAD_REACTORS
330
2A
102
}
330
2A
100
AcDbVisualStyle
  2
Basic
 70
     7
177
     2
291
     1
 71
     1
176
     1
 72
     0
176
     1
 73
     1
176
     1
 90
        0
176
     1
 40
-0.6
176
     1
 41
-30.0
176
     1
 62
     5
 63
     7
421
 16777215
176
     1
 74
     0
176
     1
 91
        4
176
     1
 64
     7
176
     1
 65
   257
176
     1
 75
     1
176
     1
175
     1
176
     1
 42
1.0
176
     1
 92
        8
176
     1
 66
     7
176
     1
 43
1.0
176
     1
 76
     1
176
     1
 77
     6
176
     1
 78
     2
176
     1
 67
     7
176
     1
 79
     5
176
     1
170
     0
176
     1
171
     0
176
     1
290
     0
176
     1
 93
        1
176
     1
 44
0.0
176
     1
173
     0
176
     1
  0
VISUALSTYLE
  5
36
102
{ACAD_REACTORS
330
2A
102
}
330
2A
100
AcDbVisualStyle
  2
Brighten
 70
    12
177
     2
291
     1
 71
     2
176
     1
 72
     2
176
     1
 73
     0
176
     1
 90
        0
176
     1
 40
-0.6
176
     1
 41
-30.0
176
     1
 62
     5
 63
     7
421
 16777215
176
     1
 74
     1
176
     1
 91
        4
176
     1
 64
     7
176
     1
 65
   257
176
     1
 75
     1
176
     1
175
     1
176
     1
 42
1.0
176
     1
 92
        8
176
     1
 66
     7
176
     1
 43
1.0
176
     1
 76
     1
176
     1
 77
     6
176
     1
 78
     2
176
     1
 67
     7
176
     1
 79
     5
176
     1
170
     0
176
     1
171
     0
176
     1
290
     0
176
     1
 93
        1
176
     1
 44
50.0
176
     1
173
     0
176
     1
  0
VISUALSTYLE
  5
3A
102
{ACAD_REACTORS
330
2A
102
}
330
2A
100
AcDbVisualStyle
  2
ColorChange
 70
    16
177
     2
291
     1
 71
     2
176
     1
 72
     2
176
     1
 73
     3
176
     1
 90
        0
176
     1
 40
-0.6
176
     1
 41
-30.0
176
     1
 62
     5
 63
     8
421
  8421504
176
     1
 74
     1
176
     1
 91
        4
176
     1
 64
     7
176
     1
 65
   257
176
     1
 75
     1
176
     1
175
     1
176
     1
 42
1.0
176
     1
 92
        8
176
     1
 66
     8
424
  8421504
176
     1
 43
1.0
176
     1
 76
     1
176
     1
 77
     6
176
     1
 78
     2
176
     1
 67
     7
176
     1
 79
     5
176
     1
170
     0
176
     1
171
     0
176
     1
290
     0
176
     1
 93
        1
176
     1
 44
0.0
176
     1
173
     0
176
     1
  0
VISUALSTYLE
  5
34
102
{ACAD_REACTORS
330
2A
102
}
330
2A
100
AcDbVisualStyle
  2
Conceptual
 70
     9
177
     2
291
     0
 71
     3
176
     1
 72
     2
176
     1
 73
     0
176
     1
 90
        0
176
     1
 40
-0.6
176
     1
 41
-30.0
176
     1
 62
     5
 63
     7
421
 16777215
176
     1
 74
     2
176
     1
 91
        2
176
     1
 64
     7
176
     1
 65
   257
176
     1
 75
     1
176
     1
175
     1
176
     1
 42
40.0
176
     1
 92
        8
176
     1
 66
     7
176
     1
 43
1.0
176
     1
 76
     1
176
     1
 77
     6
176
     1
 78
     2
176
     1
 67
     7
176
     1
 79
     3
176
     1
170
     0
176
     1
171
     0
176
     1
290
     0
176
     1
 93
        1
176
     1
 44
0.0
176
     1
173
     0
176
     1
  0
VISUALSTYLE
  5
35
102
{ACAD_REACTORS
330
2A
102
}
330
2A
100
AcDbVisualStyle
  2
Dim
 70
    11
177
     2
291
     1
 71
     2
176
     1
 72
     2
176
     1
 73
     0
176
     1
 90
        0
176
     1
 40
-0.6
176
     1
 41
-30.0
176
     1
 62
     5
 63
     7
421
 16777215
176
     1
 74
     1
176
     1
 91
        4
176
     1
 64
     7
176
     1
 65
   257
176
     1
 75
     1
176
     1
175
     1
176
     1
 42
1.0
176
     1
 92
        8
176
     1
 66
     7
176
     1
 43
1.0
176
     1
 76
     1
176
     1
 77
     6
176
     1
 78
     2
176
     1
 67
     7
176
     1
 79
     5
176
     1
170
     0
176
     1
171
     0
176
     1
290
     0
176
     1
 93
        1
176
     1
 44
-50.0
176
     1
173
     0
176
     1
  0
VISUALSTYLE
  5
39
102
{ACAD_REACTORS
330
2A
102
}
330
2A
100
AcDbVisualStyle
  2
Facepattern
 70
    15
177
     2
291
     1
 71
     2
176
     1
 72
     2
176
     1
 73
     0
176
     1
 90
        0
176
     1
 40
-0.6
176
     1
 41
-30.0
176
     1
 62
     5
 63
     7
421
 16777215
176
     1
 74
     1
176
     1
 91
        4
176
     1
 64
     7
176
     1
 65
   257
176
     1
 75
     1
176
     1
175
     1
176
     1
 42
1.0
176
     1
 92
        8
176
     1
 66
     7
176
     1
 43
1.0
176
     1
 76
     1
176
     1
 77
     6
176
     1
 78
     2
176
     1
 67
     7
176
     1
 79
     5
176
     1
170
     0
176
     1
171
     0
176
     1
290
     0
176
     1
 93
        1
176
     1
 44
0.0
176
     1
173
     0
176
     1
  0
VISUALSTYLE
  5
2B
102
{ACAD_REACTORS
330
2A
102
}
330
2A
100
AcDbVisualStyle
  2
Flat
 70
     0
177
     2
291
     1
 71
     2
176
     1
 72
     1
176
     1
 73
     1
176
     1
 90
        2
176
     1
 40
-0.6
176
     1
 41
30.0
176
     1
 62
     5
 63
     7
421
 16777215
176
     1
 74
     0
176
     1
 91
        4
176
     1
 64
     7
176
     1
 65
   257
176
     1
 75
     1
176
     1
175
     1
176
     1
 42
1.0
176
     1
 92
        8
176
     1
 66
     7
176
     1
 43
1.0
176
     1
 76
     1
176
     1
 77
     6
176
     1
 78
     2
176
     1
 67
     7
176
     1
 79
     5
176
     1
170
     0
176
     1
171
     0
176
     1
290
     0
176
     1
 93
       13
176
     1
 44
0.0
176
     1
173
     0
176
     1
  0
VISUALSTYLE
  5
2C
102
{ACAD_REACTORS
330
2A
102
}
330
2A
100
AcDbVisualStyle
  2
FlatWithEdges
 70
     1
177
     2
291
     1
 71
     2
176
     1
 72
     1
176
     1
 73
     1
176
     1
 90
        2
176
     1
 40
-0.6
176
     1
 41
30.0
176
     1
 62
     5
 63
     7
421
 16777215
176
     1
 74
     1
176
     1
 91
        4
176
     1
 64
     7
176
     1
 65
   257
176
     1
 75
     1
176
     1
175
     1
176
     1
 42
1.0
176
     1
 92
        0
176
     1
 66
   257
176
     1
 43
1.0
176
     1
 76
     1
176
     1
 77
     6
176
     1
 78
     2
176
     1
 67
     7
176
     1
 79
     5
176
     1
170
     0
176
     1
171
     0
176
     1
290
     0
176
     1
 93
       13
176
     1
 44
0.0
176
     1
173
     0
176
     1
  0
VISUALSTYLE
  5
2D
102
{ACAD_REACTORS
330
2A
102
}
330
2A
100
AcDbVisualStyle
  2
Gouraud
 70
     2
177
     2
291
     1
 71
     2
176
     1
 72
     2
176
     1
 73
     1
176
     1
 90
        2
176
     1
 40
-0.6
176
     1
 41
30.0
176
     1
 62
     5
 63
     7
421
 16777215
176
     1
 74
     0
176
     1
 91
        4
176
     1
 64
     7
176
     1
 65
   257
176
     1
 75
     1
176
     1
175
     1
176
     1
 42
1.0
176
     1
 92
        0
176
     1
 66
     7
176
     1
 43
1.0
176
     1
 76
     1
176
     1
 77
     6
176
     1
 78
     2
176
     1
 67
     7
176
     1
 79
     5
176
     1
170
     0
176
     1
171
     0
176
     1
290
     0
176
     1
 93
       13
176
     1
 44
0.0
176
     1
173
     0
176
     1
  0
VISUALSTYLE
  5
2E
102
{ACAD_REACTORS
330
2A
102
}
330
2A
100
AcDbVisualStyle
  2
GouraudWithEdges
 70
     3
177
     2
291
     1
 71
     2
176
     1
 72
     2
176
     1
 73
     1
176
     1
 90
        2
176
     1
 40
-0.6
176
     1
 41
30.0
176
     1
 62
     5
 63
     7
421
 16777215
176
     1
 74
     1
176
     1
 91
        4
176
     1
 64
     7
176
     1
 65
   257
176
     1
 75
     1
176
     1
175
     1
176
     1
 42
1.0
176
     1
 92
        0
176
     1
 66
   257
176
     1
 43
1.0
176
     1
 76
     1
176
     1
 77
     6
176
     1
 78
     2
176
     1
 67
     7
176
     1
 79
     5
176
     1
170
     0
176
     1
171
     0
176
     1
290
     0
176
     1
 93
       13
176
     1
 44
0.0
176
     1
173
     0
176
     1
  0
VISUALSTYLE
  5
38
102
{ACAD_REACTORS
330
2A
102
}
330
2A
100
AcDbVisualStyle
  2
Linepattern
 70
    14
177
     2
291
     1
 71
     2
176
     1
 72
     2
176
     1
 73
     0
176
     1
 90
        0
176
     1
 40
-0.6
176
     1
 41
-30.0
176
     1
 62
     5
 63
     7
421
 16777215
176
     1
 74
     1
176
     1
 91
        4
176
     1
 64
     7
176
     1
 65
   257
176
     1
 75
     7
176
     1
175
     7
176
     1
 42
1.0
176
     1
 92
        8
176
     1
 66
     7
176
     1
 43
1.0
176
     1
 76
     1
176
     1
 77
     6
176
     1
 78
     2
176
     1
 67
     7
176
     1
 79
     5
176
     1
170
     0
176
     1
171
     0
176
     1
290
     0
176
     1
 93
        1
176
     1
 44
0.0
176
     1
173
     0
176
     1
  0
VISUALSTYLE
  5
33
102
{ACAD_REACTORS
330
2A
102
}
330
2A
100
AcDbVisualStyle
  2
Realistic
 70
     8
177
     2
291
     0
 71
     2
176
     1
 72
     2
176
     1
 73
     0
176
     1
 90
        0
176
     1
 40
-0.6
176
     1
 41
-30.0
176
     1
 62
     5
 63
     7
421
 16777215
176
     1
 74
     1
176
     1
 91
        0
176
     1
 64
     7
176
     1
 65
   257
176
     1
 75
     1
176
     1
175
     1
176
     1
 42
1.0
176
     1
 92
        8
176
     1
 66
     8
424
  7895160
176
     1
 43
1.0
176
     1
 76
     1
176
     1
 77
     6
176
     1
 78
     2
176
     1
 67
     7
176
     1
 79
     5
176
     1
170
     0
176
     1
171
     0
176
     1
290
     0
176
     1
 93
       13
176
     1
 44
0.0
176
     1
173
     0
176
     1
  0
VISUALSTYLE
  5
37
102
{ACAD_REACTORS
330
2A
102
}
330
2A
100
AcDbVisualStyle
  2
Thicken
 70
    13
177
     2
291
     1
 71
     2
176
     1
 72
     2
176
     1
 73
     0
176
     1
 90
        0
176
     1
 40
-0.6
176
     1
 41
-30.0
176
     1
 62
     5
 63
     7
421
 16777215
176
     1
 74
     1
176
     1
 91
        4
176
     1
 64
     7
176
     1
 65
   257
176
     1
 75
     1
176
     1
175
     1
176
     1
 42
1.0
176
     1
 92
       12
176
     1
 66
     7
176
     1
 43
1.0
176
     1
 76
     1
176
     1
 77
     6
176
     1
 78
     2
176
     1
 67
     7
176
     1
 79
     5
176
     1
170
     0
176
     1
171
     0
176
     1
290
     0
176
     1
 93
        1
176
     1
 44
0.0
176
     1
173
     0
176
     1
  0
ENDSEC
  0
EOF
