  0
SECTION
  2
HEADER
  9
$ACADVER
  1
AC1024
  9
$ACADMAINTVER
 70
   226
  9
$DWGCODEPAGE
  3
ANSI_932
  9
$INSBASE
 10
0.0
 20
0.0
 30
0.0
  9
$EXTMIN
 10
1.000000000000000E+20
 20
1.000000000000000E+20
 30
1.000000000000000E+20
  9
$EXTMAX
 10
-1.000000000000000E+20
 20
-1.000000000000000E+20
 30
-1.000000000000000E+20
  9
$LIMMIN
 10
0.0
 20
0.0
  9
$LIMMAX
 10
12.0
 20
9.0
  9
$ORTHOMODE
 70
     0
  9
$REGENMODE
 70
     1
  9
$FILLMODE
 70
     1
  9
$QTEXTMODE
 70
     0
  9
$MIRRTEXT
 70
     0
  9
$LTSCALE
 40
1.0
  9
$ATTMODE
 70
     1
  9
$TEXTSIZE
 40
0.2
  9
$TRACEWID
 40
0.05
  9
$TEXTSTYLE
  7
Standard
  9
$CLAYER
  8
0
  9
$CELTYPE
  6
ByLayer
  9
$CECOLOR
 62
   256
  9
$CELTSCALE
 40
1.0
  9
$DISPSILH
 70
     0
  9
$DIMSCALE
 40
1.0
  9
$DIMASZ
 40
0.18
  9
$DIMEXO
 40
0.0625
  9
$DIMDLI
 40
0.38
  9
$DIMRND
 40
0.0
  9
$DIMDLE
 40
0.0
  9
$DIMEXE
 40
0.18
  9
$DIMTP
 40
0.0
  9
$DIMTM
 40
0.0
  9
$DIMTXT
 40
0.18
  9
$DIMCEN
 40
0.09
  9
$DIMTSZ
 40
0.0
  9
$DIMTOL
 70
     0
  9
$DIMLIM
 70
     0
  9
$DIMTIH
 70
     1
  9
$DIMTOH
 70
     1
  9
$DIMSE1
 70
     0
  9
$DIMSE2
 70
     0
  9
$DIMTAD
 70
     0
  9
$DIMZIN
 70
     0
  9
$DIMBLK
  1

  9
$DIMASO
 70
     1
  9
$DIMSHO
 70
     1
  9
$DIMPOST
  1

  9
$DIMAPOST
  1

  9
$DIMALT
 70
     0
  9
$DIMALTD
 70
     2
  9
$DIMALTF
 40
25.4
  9
$DIMLFAC
 40
1.0
  9
$DIMTOFL
 70
     0
  9
$DIMTVP
 40
0.0
  9
$DIMTIX
 70
     0
  9
$DIMSOXD
 70
     0
  9
$DIMSAH
 70
     0
  9
$DIMBLK1
  1

  9
$DIMBLK2
  1

  9
$DIMSTYLE
  2
Standard
  9
$DIMCLRD
 70
     0
  9
$DIMCLRE
 70
     0
  9
$DIMCLRT
 70
     0
  9
$DIMTFAC
 40
1.0
  9
$DIMGAP
 40
0.09
  9
$DIMJUST
 70
     0
  9
$DIMSD1
 70
     0
  9
$DIMSD2
 70
     0
  9
$DIMTOLJ
 70
     1
  9
$DIMTZIN
 70
     0
  9
$DIMALTZ
 70
     0
  9
$DIMALTTZ
 70
     0
  9
$DIMUPT
 70
     0
  9
$DIMDEC
 70
     4
  9
$DIMTDEC
 70
     4
  9
$DIMALTU
 70
     2
  9
$DIMALTTD
 70
     2
  9
$DIMTXSTY
  7
Standard
  9
$DIMAUNIT
 70
     0
  9
$DIMADEC
 70
     0
  9
$DIMALTRND
 40
0.0
  9
$DIMAZIN
 70
     0
  9
$DIMDSEP
 70
    46
  9
$DIMATFIT
 70
     3
  9
$DIMFRAC
 70
     0
  9
$DIMLDRBLK
  1

  9
$DIMLUNIT
 70
     2
  9
$DIMLWD
 70
    -2
  9
$DIMLWE
 70
    -2
  9
$DIMTMOVE
 70
     0
  9
$DIMFXL
 40
1.0
  9
$DIMFXLON
 70
     0
  9
$DIMJOGANG
 40
0.7853981633974483
  9
$DIMTFILL
 70
     0
  9
$DIMTFILLCLR
 70
     0
  9
$DIMARCSYM
 70
     0
  9
$DIMLTYPE
  6

  9
$DIMLTEX1
  6

  9
$DIMLTEX2
  6

  9
$DIMTXTDIRECTION
 70
     0
  9
$LUNITS
 70
     2
  9
$LUPREC
 70
     4
  9
$SKETCHINC
 40
0.1
  9
$FILLETRAD
 40
0.0
  9
$AUNITS
 70
     0
  9
$AUPREC
 70
     0
  9
$MENU
  1
.
  9
$ELEVATION
 40
0.0
  9
$PELEVATION
 40
0.0
  9
$THICKNESS
 40
0.0
  9
$LIMCHECK
 70
     0
  9
$CHAMFERA
 40
0.0
  9
$CHAMFERB
 40
0.0
  9
$CHAMFERC
 40
0.0
  9
$CHAMFERD
 40
0.0
  9
$SKPOLY
 70
     0
  9
$TDCREATE
 40
2459569.503703704
  9
$TDUCREATE
 40
2459569.128703704
  9
$TDUPDATE
 40
2459569.503703704
  9
$TDUUPDATE
 40
2459569.128703704
  9
$TDINDWG
 40
0.0000000000
  9
$TDUSRTIMER
 40
0.0000000000
  9
$USRTIMER
 70
     1
  9
$ANGBASE
 50
0.0
  9
$ANGDIR
 70
     0
  9
$PDMODE
 70
     0
  9
$PDSIZE
 40
0.0
  9
$PLINEWID
 40
0.0
  9
$SPLFRAME
 70
     0
  9
$SPLINETYPE
 70
     6
  9
$SPLINESEGS
 70
     8
  9
$HANDSEED
  5
162
  9
$SURFTAB1
 70
     6
  9
$SURFTAB2
 70
     6
  9
$SURFTYPE
 70
     6
  9
$SURFU
 70
     6
  9
$SURFV
 70
     6
  9
$UCSBASE
  2

  9
$UCSNAME
  2

  9
$UCSORG
 10
0.0
 20
0.0
 30
0.0
  9
$UCSXDIR
 10
1.0
 20
0.0
 30
0.0
  9
$UCSYDIR
 10
0.0
 20
1.0
 30
0.0
  9
$UCSORTHOREF
  2

  9
$UCSORTHOVIEW
 70
     0
  9
$UCSORGTOP
 10
0.0
 20
0.0
 30
0.0
  9
$UCSORGBOTTOM
 10
0.0
 20
0.0
 30
0.0
  9
$UCSORGLEFT
 10
0.0
 20
0.0
 30
0.0
  9
$UCSORGRIGHT
 10
0.0
 20
0.0
 30
0.0
  9
$UCSORGFRONT
 10
0.0
 20
0.0
 30
0.0
  9
$UCSORGBACK
 10
0.0
 20
0.0
 30
0.0
  9
$PUCSBASE
  2

  9
$PUCSNAME
  2

  9
$PUCSORG
 10
0.0
 20
0.0
 30
0.0
  9
$PUCSXDIR
 10
1.0
 20
0.0
 30
0.0
  9
$PUCSYDIR
 10
0.0
 20
1.0
 30
0.0
  9
$PUCSORTHOREF
  2

  9
$PUCSORTHOVIEW
 70
     0
  9
$PUCSORGTOP
 10
0.0
 20
0.0
 30
0.0
  9
$PUCSORGBOTTOM
 10
0.0
 20
0.0
 30
0.0
  9
$PUCSORGLEFT
 10
0.0
 20
0.0
 30
0.0
  9
$PUCSORGRIGHT
 10
0.0
 20
0.0
 30
0.0
  9
$PUCSORGFRONT
 10
0.0
 20
0.0
 30
0.0
  9
$PUCSORGBACK
 10
0.0
 20
0.0
 30
0.0
  9
$USERI1
 70
     0
  9
$USERI2
 70
     0
  9
$USERI3
 70
     0
  9
$USERI4
 70
     0
  9
$USERI5
 70
     0
  9
$USERR1
 40
0.0
  9
$USERR2
 40
0.0
  9
$USERR3
 40
0.0
  9
$USERR4
 40
0.0
  9
$USERR5
 40
0.0
  9
$WORLDVIEW
 70
     1
  9
$SHADEDGE
 70
     3
  9
$SHADEDIF
 70
    70
  9
$TILEMODE
 70
     1
  9
$MAXACTVP
 70
    64
  9
$PINSBASE
 10
0.0
 20
0.0
 30
0.0
  9
$PLIMCHECK
 70
     0
  9
$PEXTMIN
 10
1.000000000000000E+20
 20
1.000000000000000E+20
 30
1.000000000000000E+20
  9
$PEXTMAX
 10
-1.000000000000000E+20
 20
-1.000000000000000E+20
 30
-1.000000000000000E+20
  9
$PLIMMIN
 10
0.0
 20
0.0
  9
$PLIMMAX
 10
12.0
 20
9.0
  9
$UNITMODE
 70
     0
  9
$VISRETAIN
 70
     1
  9
$PLINEGEN
 70
     0
  9
$PSLTSCALE
 70
     1
  9
$TREEDEPTH
 70
  3020
  9
$CMLSTYLE
  2
Standard
  9
$CMLJUST
 70
     0
  9
$CMLSCALE
 40
1.0
  9
$PROXYGRAPHICS
 70
     1
  9
$MEASUREMENT
 70
     0
  9
$CELWEIGHT
370
    -1
  9
$ENDCAPS
280
     0
  9
$JOINSTYLE
280
     0
  9
$LWDISPLAY
290
     1
  9
$INSUNITS
 70
     4
  9
$HYPERLINKBASE
  1

  9
$STYLESHEET
  1

  9
$XEDIT
290
     1
  9
$CEPSNTYPE
380
     0
  9
$PSTYLEMODE
290
     1
  9
$FINGERPRINTGUID
  2
{6F6EF4EC-04C2-B14E-9E42-E86893E8FCE5}
  9
$VERSIONGUID
  2
{988043D5-2285-C342-AA6A-1B2935817C00}
  9
$EXTNAMES
290
     1
  9
$PSVPSCALE
 40
0.0
  9
$OLESTARTUP
290
     0
  9
$SORTENTS
280
   127
  9
$INDEXCTL
280
     0
  9
$HIDETEXT
280
     1
  9
$XCLIPFRAME
280
     2
  9
$HALOGAP
280
     0
  9
$OBSCOLOR
 70
   257
  9
$OBSLTYPE
280
     0
  9
$INTERSECTIONDISPLAY
280
     0
  9
$INTERSECTIONCOLOR
 70
   257
  9
$DIMASSOC
280
     2
  9
$PROJECTNAME
  1

  9
$CAMERADISPLAY
290
     0
  9
$LENSLENGTH
 40
50.0
  9
$CAMERAHEIGHT
 40
0.0
  9
$STEPSPERSEC
 40
2.0
  9
$STEPSIZE
 40
6.0
  9
$3DDWFPREC
 40
2.0
  9
$PSOLWIDTH
 40
0.25
  9
$PSOLHEIGHT
 40
4.0
  9
$LOFTANG1
 40
1.570796326794896
  9
$LOFTANG2
 40
1.570796326794896
  9
$LOFTMAG1
 40
0.0
  9
$LOFTMAG2
 40
0.0
  9
$LOFTPARAM
 70
     7
  9
$LOFTNORMALS
280
     1
  9
$LATITUDE
 40
37.795
  9
$LONGITUDE
 40
-122.394
  9
$NORTHDIRECTION
 40
0.0
  9
$TIMEZONE
 70
 -8000
  9
$LIGHTGLYPHDISPLAY
280
     1
  9
$TILEMODELIGHTSYNCH
280
     1
  9
$CMATERIAL
347
11
  9
$SOLIDHIST
280
     0
  9
$SHOWHIST
280
     1
  9
$DWFFRAME
280
     2
  9
$DGNFRAME
280
     0
  9
$REALWORLDSCALE
290
     1
  9
$INTERFERECOLOR
 62
     1
  9
$INTERFEREOBJVS
345
33
  9
$INTERFEREVPVS
346
30
  9
$CSHADOW
280
     0
  9
$SHADOWPLANELOCATION
 40
0.0
  0
ENDSEC
  0
SECTION
  2
CLASSES
  0
CLASS
  1
ACDBDICTIONARYWDFLT
  2
AcDbDictionaryWithDefault
  3
ObjectDBX Classes
 90
        0
 91
        1
280
     0
281
     0
  0
CLASS
  1
MATERIAL
  2
AcDbMaterial
  3
ObjectDBX Classes
 90
     1153
 91
        3
280
     0
281
     0
  0
CLASS
  1
VISUALSTYLE
  2
AcDbVisualStyle
  3
ObjectDBX Classes
 90
     4095
 91
       24
280
     0
281
     0
  0
CLASS
  1
SCALE
  2
AcDbScale
  3
ObjectDBX Classes
 90
     1153
 91
       17
280
     0
281
     0
  0
CLASS
  1
TABLESTYLE
  2
AcDbTableStyle
  3
ObjectDBX Classes
 90
     4095
 91
        1
280
     0
281
     0
  0
CLASS
  1
MLEADERSTYLE
  2
AcDbMLeaderStyle
  3
ACDB_MLEADERSTYLE_CLASS
 90
     4095
 91
        1
280
     0
281
     0
  0
CLASS
  1
ACDBSECTIONVIEWSTYLE
  2
AcDbSectionViewStyle
  3
ObjectDBX Classes
 90
     1025
 91
        1
280
     0
281
     0
  0
CLASS
  1
ACDBDETAILVIEWSTYLE
  2
AcDbDetailViewStyle
  3
ObjectDBX Classes
 90
     1025
 91
        1
280
     0
281
     0
  0
CLASS
  1
DICTIONARYVAR
  2
AcDbDictionaryVar
  3
ObjectDBX Classes
 90
        0
 91
        5
280
     0
281
     0
  0
CLASS
  1
CELLSTYLEMAP
  2
AcDbCellStyleMap
  3
ObjectDBX Classes
 90
     1152
 91
        1
280
     0
281
     0
  0
ENDSEC
  0
SECTION
  2
TABLES
  0
TABLE
  2
VPORT
  5
8
330
0
100
AcDbSymbolTable
 70
     1
  0
VPORT
  5
57
330
8
100
AcDbSymbolTableRecord
100
AcDbViewportTableRecord
  2
*Active
 70
     0
 10
0.0
 20
0.0
 11
1.0
 21
1.0
 12
0.0
 22
0.0
 13
0.0
 23
0.0
 14
1.0
 24
1.0
 15
0.0
 25
0.0
 16
0.0
 26
0.0
 36
1.0
 17
104.9999999737534
 27
-148.4999999628701
 37
0.0
 40
302.939999924255
 41
0.7070707070707534
 42
50.0
 43
0.0
 44
0.0
 50
0.0
 51
0.0
 71
     0
 72
   100
 73
     1
 74
     0
 75
     1
 76
     0
 77
     0
 78
     0
281
     0
 65
     1
110
0.0
120
0.0
130
0.0
111
1.0
121
0.0
131
0.0
112
0.0
122
1.0
132
0.0
 79
     0
146
0.0
 60
     3
 61
     5
292
     1
282
     1
141
0.0
142
0.0
 63
   250
421
  3355443
  0
ENDTAB
  0
TABLE
  2
LTYPE
  5
5
330
0
100
AcDbSymbolTable
 70
     2
  0
LTYPE
  5
5B
330
5
100
AcDbSymbolTableRecord
100
AcDbLinetypeTableRecord
  2
ByBlock
 70
     0
  3

 72
    65
 73
     0
 40
0.0
  0
LTYPE
  5
5C
330
5
100
AcDbSymbolTableRecord
100
AcDbLinetypeTableRecord
  2
ByLayer
 70
     0
  3

 72
    65
 73
     0
 40
0.0
  0
LTYPE
  5
5D
330
5
100
AcDbSymbolTableRecord
100
AcDbLinetypeTableRecord
  2
Continuous
 70
     0
  3
Solid line
 72
    65
 73
     0
 40
0.0
  0
LTYPE
  5
F5
330
5
100
AcDbSymbolTableRecord
100
AcDbLinetypeTableRecord
  2
AI-Linetype-0
 70
     0
  3
Adobe Illustrator Linetype No. 0
 72
    65
 73
     2
 40
1.411111110758333
 49
0.7055555553791667
 74
     0
 49
-0.7055555553791667
 74
     0
  0
ENDTAB
  0
TABLE
  2
LAYER
  5
2
330
0
100
AcDbSymbolTable
 70
     2
  0
LAYER
  5
54
330
2
100
AcDbSymbolTableRecord
100
AcDbLayerTableRecord
  2
0
 70
     0
 62
     7
  6
Continuous
370
    -3
390
F
347
21
  0
LAYER
  5
78
330
2
100
AcDbSymbolTableRecord
100
AcDbLayerTableRecord
  2
レイヤー 1
 70
     0
 62
     7
  6
Continuous
370
     0
390
F
347
21
  0
ENDTAB
  0
TABLE
  2
STYLE
  5
3
330
0
100
AcDbSymbolTable
 70
     2
  0
STYLE
  5
55
330
3
100
AcDbSymbolTableRecord
100
AcDbTextStyleTableRecord
  2
Standard
 70
     0
 40
0.0
 41
1.0
 50
0.0
 71
     0
 42
0.2
  3
txt
  4

  0
STYLE
  5
5A
330
3
100
AcDbSymbolTableRecord
100
AcDbTextStyleTableRecord
  2
Annotative
 70
     0
 40
0.0
 41
1.0
 50
0.0
 71
     0
 42
0.2
  3
txt
  4

1001
AcadAnnotative
1000
AnnotativeData
1002
{
1070
     1
1070
     1
1002
}
  0
ENDTAB
  0
TABLE
  2
VIEW
  5
6
330
0
100
AcDbSymbolTable
 70
     0
  0
ENDTAB
  0
TABLE
  2
UCS
  5
7
330
0
100
AcDbSymbolTable
 70
     0
  0
ENDTAB
  0
TABLE
  2
APPID
  5
9
330
0
100
AcDbSymbolTable
 70
     2
  0
APPID
  5
56
330
9
100
AcDbSymbolTableRecord
100
AcDbRegAppTableRecord
  2
ACAD
 70
     0
  0
APPID
  5
5E
330
9
100
AcDbSymbolTableRecord
100
AcDbRegAppTableRecord
  2
AcadAnnotative
 70
     0
  0
ENDTAB
  0
TABLE
  2
DIMSTYLE
  5
A
330
0
100
AcDbSymbolTable
 70
     2
100
AcDbDimStyleTable
 71
     0
  0
DIMSTYLE
105
58
330
A
100
AcDbSymbolTableRecord
100
AcDbDimStyleTableRecord
  2
Standard
 70
     0
340
55
  0
DIMSTYLE
105
59
330
A
100
AcDbSymbolTableRecord
100
AcDbDimStyleTableRecord
  2
Annotative
 70
     0
340
55
1001
AcadAnnotative
1000
AnnotativeData
1002
{
1070
     1
1070
     1
1002
}
  0
ENDTAB
  0
TABLE
  2
BLOCK_RECORD
  5
1
330
0
100
AcDbSymbolTable
 70
    14
  0
BLOCK_RECORD
  5
70
330
1
100
AcDbSymbolTableRecord
100
AcDbBlockTableRecord
  2
*Model_Space
340
73
 70
     0
280
     1
281
     0
  0
BLOCK_RECORD
  5
6C
330
1
100
AcDbSymbolTableRecord
100
AcDbBlockTableRecord
  2
*Paper_Space
340
6F
 70
     0
280
     1
281
     0
  0
BLOCK_RECORD
  5
74
330
1
100
AcDbSymbolTableRecord
100
AcDbBlockTableRecord
  2
*Paper_Space0
340
77
 70
     0
280
     1
281
     0
  0
BLOCK_RECORD
  5
79
330
1
100
AcDbSymbolTableRecord
100
AcDbBlockTableRecord
  2
Block_0
340
0
102
{BLKREFS
331
7A
102
}
 70
     0
280
     1
281
     0
  0
BLOCK_RECORD
  5
BA
330
1
100
AcDbSymbolTableRecord
100
AcDbBlockTableRecord
  2
Block_1
340
0
102
{BLKREFS
331
BB
102
}
 70
     0
280
     1
281
     0
  0
BLOCK_RECORD
  5
C3
330
1
100
AcDbSymbolTableRecord
100
AcDbBlockTableRecord
  2
Block_2
340
0
102
{BLKREFS
331
C4
102
}
 70
     0
280
     1
281
     0
  0
BLOCK_RECORD
  5
CD
330
1
100
AcDbSymbolTableRecord
100
AcDbBlockTableRecord
  2
Block_3
340
0
102
{BLKREFS
331
CE
102
}
 70
     0
280
     1
281
     0
  0
BLOCK_RECORD
  5
D1
330
1
100
AcDbSymbolTableRecord
100
AcDbBlockTableRecord
  2
Block_4
340
0
102
{BLKREFS
331
D2
102
}
 70
     0
280
     1
281
     0
  0
BLOCK_RECORD
  5
DE
330
1
100
AcDbSymbolTableRecord
100
AcDbBlockTableRecord
  2
Block_5
340
0
102
{BLKREFS
331
DF
102
}
 70
     0
280
     1
281
     0
  0
BLOCK_RECORD
  5
E2
330
1
100
AcDbSymbolTableRecord
100
AcDbBlockTableRecord
  2
Block_6
340
0
102
{BLKREFS
331
E3
102
}
 70
     0
280
     1
281
     0
  0
BLOCK_RECORD
  5
EC
330
1
100
AcDbSymbolTableRecord
100
AcDbBlockTableRecord
  2
Block_7
340
0
102
{BLKREFS
331
ED
102
}
 70
     0
280
     1
281
     0
  0
BLOCK_RECORD
  5
F7
330
1
100
AcDbSymbolTableRecord
100
AcDbBlockTableRecord
  2
Block_8
340
0
102
{BLKREFS
331
F8
102
}
 70
     0
280
     1
281
     0
  0
BLOCK_RECORD
  5
FD
330
1
100
AcDbSymbolTableRecord
100
AcDbBlockTableRecord
  2
Block_9
340
0
102
{BLKREFS
331
FE
102
}
 70
     0
280
     1
281
     0
  0
BLOCK_RECORD
  5
101
330
1
100
AcDbSymbolTableRecord
100
AcDbBlockTableRecord
  2
Block_10
340
0
102
{BLKREFS
331
102
102
}
 70
     0
280
     1
281
     0
  0
BLOCK_RECORD
  5
108
330
1
100
AcDbSymbolTableRecord
100
AcDbBlockTableRecord
  2
Block_11
340
0
102
{BLKREFS
331
109
102
}
 70
     0
280
     1
281
     0
  0
BLOCK_RECORD
  5
10C
330
1
100
AcDbSymbolTableRecord
100
AcDbBlockTableRecord
  2
Block_12
340
0
102
{BLKREFS
331
10D
102
}
 70
     0
280
     1
281
     0
  0
ENDTAB
  0
ENDSEC
  0
SECTION
  2
BLOCKS
  0
BLOCK
  5
71
330
70
100
AcDbEntity
  8
0
100
AcDbBlockBegin
  2
*Model_Space
 70
     0
 10
0.0
 20
0.0
 30
0.0
  3
*Model_Space
  1

  0
ENDBLK
  5
72
330
70
100
AcDbEntity
  8
0
100
AcDbBlockEnd
  0
BLOCK
  5
6D
330
6C
100
AcDbEntity
 67
     1
  8
0
100
AcDbBlockBegin
  2
*Paper_Space
 70
     0
 10
0.0
 20
0.0
 30
0.0
  3
*Paper_Space
  1

  0
ENDBLK
  5
6E
330
6C
100
AcDbEntity
 67
     1
  8
0
100
AcDbBlockEnd
  0
BLOCK
  5
75
330
74
100
AcDbEntity
 67
     1
  8
0
100
AcDbBlockBegin
  2
*Paper_Space0
 70
     0
 10
0.0
 20
0.0
 30
0.0
  3
*Paper_Space0
  1

  0
ENDBLK
  5
76
330
74
100
AcDbEntity
 67
     1
  8
0
100
AcDbBlockEnd
  0
BLOCK
  5
7B
330
79
100
AcDbEntity
  8
0
100
AcDbBlockBegin
  2
Block_0
 70
     0
 10
0.0
 20
0.0
 30
0.0
  3
Block_0
  1

  0
LINE
  5
7D
330
79
100
AcDbEntity
  8
レイヤー 1
 62
   250
420
  2299925
370
    25
100
AcDbLine
 10
117.7840256037107
 20
-154.2139809511511
 30
0.0
 11
112.783791441452
 21
-154.2139809511511
 31
0.0
  0
LINE
  5
7E
330
79
100
AcDbEntity
  8
レイヤー 1
 62
   250
420
  2299925
370
    25
100
AcDbLine
 10
94.00768593251754
 20
-145.7139062310534
 30
0.0
 11
94.00768593251754
 21
-146.2141098420396
 31
0.0
  0
LINE
  5
7F
330
79
100
AcDbEntity
  8
レイヤー 1
 62
   250
420
  2299925
370
    25
100
AcDbLine
 10
114.0984504199598
 20
-146.2141098420396
 30
0.0
 11
94.00768593251754
 21
-146.2141098420396
 31
0.0
  0
LINE
  5
80
330
79
100
AcDbEntity
  8
レイヤー 1
 62
   250
420
  2299925
370
    25
100
AcDbLine
 10
117.006115345779
 20
-153.2138559514008
 30
0.0
 11
113.6664414412315
 21
-153.2138559514008
 31
0.0
  0
LINE
  5
81
330
79
100
AcDbEntity
  8
レイヤー 1
 62
   250
420
  2299925
370
    25
100
AcDbLine
 10
112.783791441452
 20
-154.2139809511511
 30
0.0
 11
114.0984504199598
 21
-146.2141098420396
 31
0.0
  0
LINE
  5
82
330
79
100
AcDbEntity
  8
レイヤー 1
 62
   250
420
  2299925
370
    25
100
AcDbLine
 10
113.6664414412315
 20
-153.2138559514008
 30
0.0
 11
115.0093226189437
 21
-144.9518356756889
 31
0.0
  0
LINE
  5
83
330
79
100
AcDbEntity
  8
レイヤー 1
 62
   250
420
  2299925
370
    25
100
AcDbLine
 10
94.00768593251754
 20
-145.7139062310534
 30
0.0
 11
94.52136564163472
 21
-146.0959645642914
 31
0.0
  0
LINE
  5
84
330
79
100
AcDbEntity
  8
レイヤー 1
 62
   250
420
  2299925
370
    25
100
AcDbLine
 10
94.52136564163472
 20
-146.0959645642914
 30
0.0
 11
95.00710535146469
 21
-145.6784167866179
 31
0.0
  0
LINE
  5
85
330
79
100
AcDbEntity
  8
レイヤー 1
 62
   250
420
  2299925
370
    25
100
AcDbLine
 10
95.52113783835062
 20
-146.0604751198559
 30
0.0
 11
96.00620727041992
 21
-145.6425745644047
 31
0.0
  0
LINE
  5
86
330
79
100
AcDbEntity
  8
レイヤー 1
 62
   250
420
  2299925
370
    25
100
AcDbLine
 10
95.00710535146469
 20
-145.6784167866179
 30
0.0
 11
95.52113783835062
 21
-146.0604751198559
 31
0.0
  0
LINE
  5
87
330
79
100
AcDbEntity
  8
レイヤー 1
 62
   250
420
  2299925
370
    25
100
AcDbLine
 10
96.00620727041992
 20
-145.6425745644047
 30
0.0
 11
96.5198517017602
 21
-146.0246328976427
 31
0.0
  0
LINE
  5
88
330
79
100
AcDbEntity
  8
レイヤー 1
 62
   250
420
  2299925
370
    25
100
AcDbLine
 10
96.5198517017602
 20
-146.0246328976427
 30
0.0
 11
97.00562668936704
 21
-145.6070851199692
 31
0.0
  0
LINE
  5
89
330
79
100
AcDbEntity
  8
レイヤー 1
 62
   250
420
  2299925
370
    25
100
AcDbLine
 10
97.00562668936704
 20
-145.6070851199692
 30
0.0
 11
97.5196238984761
 21
-145.9888259532069
 31
0.0
  0
LINE
  5
8A
330
79
100
AcDbEntity
  8
レイヤー 1
 62
   250
420
  2299925
370
    25
100
AcDbLine
 10
97.5196238984761
 20
-145.9888259532069
 30
0.0
 11
98.0046933305454
 21
-145.5712781755335
 31
0.0
  0
LINE
  5
8B
330
79
100
AcDbEntity
  8
レイヤー 1
 62
   250
420
  2299925
370
    25
100
AcDbLine
 10
98.0046933305454
 20
-145.5712781755335
 30
0.0
 11
98.51869053965414
 21
-145.9529837309937
 31
0.0
  0
LINE
  5
8C
330
79
100
AcDbEntity
  8
レイヤー 1
 62
   250
420
  2299925
370
    25
100
AcDbLine
 10
98.51869053965414
 20
-145.9529837309937
 30
0.0
 11
99.00446552726164
 21
-145.5354359533205
 31
0.0
  0
LINE
  5
8D
330
79
100
AcDbEntity
  8
レイヤー 1
 62
   250
420
  2299925
370
    25
100
AcDbLine
 10
99.00446552726164
 20
-145.5354359533205
 30
0.0
 11
99.51846273637038
 21
-145.9174942865582
 31
0.0
  0
LINE
  5
8E
330
79
100
AcDbEntity
  8
レイヤー 1
 62
   250
420
  2299925
370
    25
100
AcDbLine
 10
99.51846273637038
 20
-145.9174942865582
 30
0.0
 11
100.0035321684396
 21
-145.4999465088847
 31
0.0
  0
LINE
  5
8F
330
79
100
AcDbEntity
  8
レイヤー 1
 62
   250
420
  2299925
370
    25
100
AcDbLine
 10
100.0035321684396
 20
-145.4999465088847
 30
0.0
 11
100.5175293775487
 21
-145.8820048421227
 31
0.0
  0
LINE
  5
90
330
79
100
AcDbEntity
  8
レイヤー 1
 62
   250
420
  2299925
370
    25
100
AcDbLine
 10
100.5175293775487
 20
-145.8820048421227
 30
0.0
 11
101.002598809618
 21
-145.4641395644496
 31
0.0
  0
LINE
  5
91
330
79
100
AcDbEntity
  8
レイヤー 1
 62
   250
420
  2299925
370
    25
100
AcDbLine
 10
101.5166312965039
 20
-145.846197897687
 30
0.0
 11
102.0023710063342
 21
-145.4286501200142
 31
0.0
  0
LINE
  5
92
330
79
100
AcDbEntity
  8
レイヤー 1
 62
   250
420
  2299925
370
    25
100
AcDbLine
 10
101.002598809618
 20
-145.4641395644496
 30
0.0
 11
101.5166312965039
 21
-145.846197897687
 31
0.0
  0
LINE
  5
93
330
79
100
AcDbEntity
  8
レイヤー 1
 62
   250
420
  2299925
370
    25
100
AcDbLine
 10
102.0023710063342
 20
-145.4286501200142
 30
0.0
 11
102.5164034932201
 21
-145.8103556754737
 31
0.0
  0
LINE
  5
94
330
79
100
AcDbEntity
  8
レイヤー 1
 62
   250
420
  2299925
370
    25
100
AcDbLine
 10
102.5164034932201
 20
-145.8103556754737
 30
0.0
 11
103.0014729252891
 21
-145.3928078978009
 31
0.0
  0
LINE
  5
95
330
79
100
AcDbEntity
  8
レイヤー 1
 62
   250
420
  2299925
370
    25
100
AcDbLine
 10
103.5154701343982
 20
-145.7745134532605
 30
0.0
 11
104.0012098442282
 21
-145.3569656755876
 31
0.0
  0
LINE
  5
96
330
79
100
AcDbEntity
  8
レイヤー 1
 62
   250
420
  2299925
370
    25
100
AcDbLine
 10
103.0014729252891
 20
-145.3928078978009
 30
0.0
 11
103.5154701343982
 21
-145.7745134532605
 31
0.0
  0
LINE
  5
97
330
79
100
AcDbEntity
  8
レイヤー 1
 62
   250
420
  2299925
370
    25
100
AcDbLine
 10
104.5152423311141
 20
-145.739024008825
 30
0.0
 11
105.0003117631834
 21
-145.3215115089297
 31
0.0
  0
LINE
  5
98
330
79
100
AcDbEntity
  8
レイヤー 1
 62
   250
420
  2299925
370
    25
100
AcDbLine
 10
104.0012098442282
 20
-145.3569656755876
 30
0.0
 11
104.5152423311141
 21
-145.739024008825
 31
0.0
  0
LINE
  5
99
330
79
100
AcDbEntity
  8
レイヤー 1
 62
   250
420
  2299925
370
    25
100
AcDbLine
 10
105.0003117631834
 20
-145.3215115089297
 30
0.0
 11
105.5143089722928
 21
-145.7035698421671
 31
0.0
  0
LINE
  5
9A
330
79
100
AcDbEntity
  8
レイヤー 1
 62
   250
420
  2299925
370
    25
100
AcDbLine
 10
105.5143089722928
 20
-145.7035698421671
 30
0.0
 11
106.0000839598996
 21
-145.2856692867164
 31
0.0
  0
LINE
  5
9B
330
79
100
AcDbEntity
  8
レイヤー 1
 62
   250
420
  2299925
370
    25
100
AcDbLine
 10
106.0000839598996
 20
-145.2856692867164
 30
0.0
 11
106.5133756134711
 21
-145.6677276199541
 31
0.0
  0
LINE
  5
9C
330
79
100
AcDbEntity
  8
レイヤー 1
 62
   250
420
  2299925
370
    25
100
AcDbLine
 10
106.5133756134711
 20
-145.6677276199541
 30
0.0
 11
106.999150601078
 21
-145.2501798422809
 31
0.0
  0
LINE
  5
9D
330
79
100
AcDbEntity
  8
レイヤー 1
 62
   250
420
  2299925
370
    25
100
AcDbLine
 10
106.999150601078
 20
-145.2501798422809
 30
0.0
 11
107.513147810187
 21
-145.6318853977405
 31
0.0
  0
LINE
  5
9E
330
79
100
AcDbEntity
  8
レイヤー 1
 62
   250
420
  2299925
370
    25
100
AcDbLine
 10
107.513147810187
 20
-145.6318853977405
 30
0.0
 11
107.9982172422563
 21
-145.2143376200677
 31
0.0
  0
LINE
  5
9F
330
79
100
AcDbEntity
  8
レイヤー 1
 62
   250
420
  2299925
370
    25
100
AcDbLine
 10
107.9982172422563
 20
-145.2143376200677
 30
0.0
 11
108.5122144513654
 21
-145.5960784533055
 31
0.0
  0
LINE
  5
A0
330
79
100
AcDbEntity
  8
レイヤー 1
 62
   250
420
  2299925
370
    25
100
AcDbLine
 10
108.5122144513654
 20
-145.5960784533055
 30
0.0
 11
108.9979894389722
 21
-145.178530675632
 31
0.0
  0
LINE
  5
A1
330
79
100
AcDbEntity
  8
レイヤー 1
 62
   250
420
  2299925
370
    25
100
AcDbLine
 10
108.9979894389722
 20
-145.178530675632
 30
0.0
 11
109.5119866480813
 21
-145.56058900887
 31
0.0
  0
LINE
  5
A2
330
79
100
AcDbEntity
  8
レイヤー 1
 62
   250
420
  2299925
370
    25
100
AcDbLine
 10
109.5119866480813
 20
-145.56058900887
 30
0.0
 11
109.9970560801506
 21
-145.1430412311965
 31
0.0
  0
LINE
  5
A3
330
79
100
AcDbEntity
  8
レイヤー 1
 62
   250
420
  2299925
370
    25
100
AcDbLine
 10
109.9970560801506
 20
-145.1430412311965
 30
0.0
 11
110.5110885670365
 21
-145.5250995644345
 31
0.0
  0
LINE
  5
A4
330
79
100
AcDbEntity
  8
レイヤー 1
 62
   250
420
  2299925
370
    25
100
AcDbLine
 10
110.5110885670365
 20
-145.5250995644345
 30
0.0
 11
110.9968282768665
 21
-145.1071990089832
 31
0.0
  0
LINE
  5
A5
330
79
100
AcDbEntity
  8
レイヤー 1
 62
   250
420
  2299925
370
    25
100
AcDbLine
 10
110.9968282768665
 20
-145.1071990089832
 30
0.0
 11
111.5108254859756
 21
-145.4892573422212
 31
0.0
  0
LINE
  5
A6
330
79
100
AcDbEntity
  8
レイヤー 1
 62
   250
420
  2299925
370
    25
100
AcDbLine
 10
111.5108254859756
 20
-145.4892573422212
 30
0.0
 11
111.9958949180448
 21
-145.0717095645478
 31
0.0
  0
LINE
  5
A7
330
79
100
AcDbEntity
  8
レイヤー 1
 62
   250
420
  2299925
370
    25
100
AcDbLine
 10
111.9958949180448
 20
-145.0717095645478
 30
0.0
 11
112.5099274049308
 21
-145.4534503977855
 31
0.0
  0
LINE
  5
A8
330
79
100
AcDbEntity
  8
レイヤー 1
 62
   250
420
  2299925
370
    25
100
AcDbLine
 10
112.5099274049308
 20
-145.4534503977855
 30
0.0
 11
112.9953496147689
 21
-145.035902620112
 31
0.0
  0
LINE
  5
A9
330
79
100
AcDbEntity
  8
レイヤー 1
 62
   250
420
  2299925
370
    25
100
AcDbLine
 10
112.9953496147689
 20
-145.035902620112
 30
0.0
 11
113.5093468238779
 21
-145.4176081755723
 31
0.0
  0
LINE
  5
AA
330
79
100
AcDbEntity
  8
レイヤー 1
 62
   250
420
  2299925
370
    25
100
AcDbLine
 10
113.5093468238779
 20
-145.4176081755723
 30
0.0
 11
113.9950865337079
 21
-145.0000603978988
 31
0.0
  0
LINE
  5
AB
330
79
100
AcDbEntity
  8
レイヤー 1
 62
   250
420
  2299925
370
    25
100
AcDbLine
 10
114.0691190207028
 20
-144.9518356756889
 30
0.0
 11
115.0093226189437
 21
-144.9518356756889
 31
0.0
  0
LINE
  5
AC
330
79
100
AcDbEntity
  8
レイヤー 1
 62
   250
420
  2299925
370
    25
100
AcDbLine
 10
117.006115345779
 20
-153.2138559514008
 30
0.0
 11
117.006115345779
 21
-144.9518356756889
 31
0.0
  0
LINE
  5
AD
330
79
100
AcDbEntity
  8
レイヤー 1
 62
   250
420
  2299925
370
    25
100
AcDbLine
 10
117.7840256037107
 20
-154.2139809511511
 30
0.0
 11
117.7840256037107
 21
-144.9518356756889
 31
0.0
  0
LINE
  5
AE
330
79
100
AcDbEntity
  8
レイヤー 1
 62
   250
420
  2299925
370
    25
100
AcDbLine
 10
117.006115345779
 20
-144.9518356756889
 30
0.0
 11
117.7840256037107
 21
-144.9518356756889
 31
0.0
  0
SPLINE
  5
AF
330
79
100
AcDbEntity
  8
レイヤー 1
 62
   250
420
  2299925
370
     9
100
AcDbSpline
210
0.0
220
0.0
230
1.0
 70
     9
 71
     3
 72
    17
 73
    13
 74
     0
 42
0.0000000001
 43
0.0000000001
 40
0.0
 40
0.0
 40
0.0
 40
0.0
 40
1.0
 40
1.0
 40
1.0
 40
2.0
 40
2.0
 40
2.0
 40
3.0
 40
3.0
 40
3.0
 40
4.0
 40
4.0
 40
4.0
 40
4.0
 10
94.10759259663571
 20
-140.9515473433554
 30
0.0
 10
94.10759259663571
 20
-140.8964434544801
 30
0.0
 10
94.06282509777751
 20
-140.8516406767137
 30
0.0
 10
94.00768593251754
 20
-140.8516406767137
 30
0.0
 10
93.95222926726601
 20
-140.8516406767137
 30
0.0
 10
93.90742649063094
 20
-140.8964434544801
 30
0.0
 10
93.90742649063094
 20
-140.9515473433554
 30
0.0
 10
93.90742649063094
 20
-141.0070392877859
 30
0.0
 10
93.95222926726601
 20
-141.051454009997
 30
0.0
 10
94.00768593251754
 20
-141.051454009997
 30
0.0
 10
94.06282509777751
 20
-141.051454009997
 30
0.0
 10
94.10759259663571
 20
-141.0070392877859
 30
0.0
 10
94.10759259663571
 20
-140.9515473433554
 30
0.0
  0
SPLINE
  5
B0
330
79
100
AcDbEntity
  8
レイヤー 1
 62
   250
420
  2299925
370
     9
100
AcDbSpline
210
0.0
220
0.0
230
1.0
 70
     9
 71
     3
 72
    17
 73
    13
 74
     0
 42
0.0000000001
 43
0.0000000001
 40
0.0
 40
0.0
 40
0.0
 40
0.0
 40
1.0
 40
1.0
 40
1.0
 40
2.0
 40
2.0
 40
2.0
 40
3.0
 40
3.0
 40
3.0
 40
4.0
 40
4.0
 40
4.0
 40
4.0
 10
90.10751603201917
 20
-145.7139062310534
 30
0.0
 10
90.10751603201917
 20
-145.658767064401
 30
0.0
 10
90.0627132553844
 20
-145.6139995644118
 30
0.0
 10
90.00725659013255
 20
-145.6139995644118
 30
0.0
 10
89.95211742487262
 20
-145.6139995644118
 30
0.0
 10
89.9073499260144
 20
-145.658767064401
 30
0.0
 10
89.9073499260144
 20
-145.7139062310534
 30
0.0
 10
89.9073499260144
 20
-145.769010119929
 30
0.0
 10
89.95211742487262
 20
-145.8138128976951
 30
0.0
 10
90.00725659013255
 20
-145.8138128976951
 30
0.0
 10
90.0627132553844
 20
-145.8138128976951
 30
0.0
 10
90.10751603201917
 20
-145.769010119929
 30
0.0
 10
90.10751603201917
 20
-145.7139062310534
 30
0.0
  0
SPLINE
  5
B1
330
79
100
AcDbEntity
  8
レイヤー 1
 62
   250
420
  2299925
370
     9
100
AcDbSpline
210
0.0
220
0.0
230
1.0
 70
     9
 71
     3
 72
    17
 73
    13
 74
     0
 42
0.0000000001
 43
0.0000000001
 40
0.0
 40
0.0
 40
0.0
 40
0.0
 40
1.0
 40
1.0
 40
1.0
 40
2.0
 40
2.0
 40
2.0
 40
3.0
 40
3.0
 40
3.0
 40
4.0
 40
4.0
 40
4.0
 40
4.0
 10
90.10751603201917
 20
-146.2141098420396
 30
0.0
 10
90.10751603201917
 20
-146.1590059531647
 30
0.0
 10
90.0627132553844
 20
-146.114203175398
 30
0.0
 10
90.00725659013255
 20
-146.114203175398
 30
0.0
 10
89.95211742487262
 20
-146.114203175398
 30
0.0
 10
89.9073499260144
 20
-146.1590059531647
 30
0.0
 10
89.9073499260144
 20
-146.2141098420396
 30
0.0
 10
89.9073499260144
 20
-146.2692490086927
 30
0.0
 10
89.95211742487262
 20
-146.3140165086812
 30
0.0
 10
90.00725659013255
 20
-146.3140165086812
 30
0.0
 10
90.0627132553844
 20
-146.3140165086812
 30
0.0
 10
90.10751603201917
 20
-146.2692490086927
 30
0.0
 10
90.10751603201917
 20
-146.2141098420396
 30
0.0
  0
SPLINE
  5
B2
330
79
100
AcDbEntity
  8
レイヤー 1
 62
   250
420
  2299925
370
     9
100
AcDbSpline
210
0.0
220
0.0
230
1.0
 70
     9
 71
     3
 72
    17
 73
    13
 74
     0
 42
0.0000000001
 43
0.0000000001
 40
0.0
 40
0.0
 40
0.0
 40
0.0
 40
1.0
 40
1.0
 40
1.0
 40
2.0
 40
2.0
 40
2.0
 40
3.0
 40
3.0
 40
3.0
 40
4.0
 40
4.0
 40
4.0
 40
4.0
 10
90.10751603201917
 20
-154.2139809511511
 30
0.0
 10
90.10751603201917
 20
-154.158841784498
 30
0.0
 10
90.0627132553844
 20
-154.1140742845095
 30
0.0
 10
90.00725659013255
 20
-154.1140742845095
 30
0.0
 10
89.95211742487262
 20
-154.1140742845095
 30
0.0
 10
89.9073499260144
 20
-154.158841784498
 30
0.0
 10
89.9073499260144
 20
-154.2139809511511
 30
0.0
 10
89.9073499260144
 20
-154.269084840026
 30
0.0
 10
89.95211742487262
 20
-154.3138876177928
 30
0.0
 10
90.00725659013255
 20
-154.3138876177928
 30
0.0
 10
90.0627132553844
 20
-154.3138876177928
 30
0.0
 10
90.10751603201917
 20
-154.269084840026
 30
0.0
 10
90.10751603201917
 20
-154.2139809511511
 30
0.0
  0
SPLINE
  5
B3
330
79
100
AcDbEntity
  8
レイヤー 1
 62
   250
420
  2299925
370
     9
100
AcDbSpline
210
0.0
220
0.0
230
1.0
 70
     9
 71
     3
 72
    17
 73
    13
 74
     0
 42
0.0000000001
 43
0.0000000001
 40
0.0
 40
0.0
 40
0.0
 40
0.0
 40
1.0
 40
1.0
 40
1.0
 40
2.0
 40
2.0
 40
2.0
 40
3.0
 40
3.0
 40
3.0
 40
4.0
 40
4.0
 40
4.0
 40
4.0
 10
112.8837307287276
 20
-158.2144103945954
 30
0.0
 10
112.8837307287276
 20
-158.1593065057198
 30
0.0
 10
112.8389279520928
 20
-158.1145037279537
 30
0.0
 10
112.783791441452
 20
-158.1145037279537
 30
0.0
 10
112.7286848993498
 20
-158.1145037279537
 30
0.0
 10
112.683882122715
 20
-158.1593065057198
 30
0.0
 10
112.683882122715
 20
-158.2144103945954
 30
0.0
 10
112.683882122715
 20
-158.2695495612478
 30
0.0
 10
112.7286848993498
 20
-158.314317061237
 30
0.0
 10
112.783791441452
 20
-158.314317061237
 30
0.0
 10
112.8389279520928
 20
-158.314317061237
 30
0.0
 10
112.8837307287276
 20
-158.2695495612478
 30
0.0
 10
112.8837307287276
 20
-158.2144103945954
 30
0.0
  0
CIRCLE
  5
B4
330
79
100
AcDbEntity
  8
レイヤー 1
 62
   250
420
  2299925
370
     9
100
AcDbCircle
 10
117.7840256037107
 20
-158.2144103945954
 30
0.0
 40
0.0999066653797365
  0
SPLINE
  5
B5
330
79
100
AcDbEntity
  8
レイヤー 1
 62
   250
420
  2299925
370
     9
100
AcDbSpline
210
0.0
220
0.0
230
1.0
 70
     9
 71
     3
 72
    17
 73
    13
 74
     0
 42
0.0000000001
 43
0.0000000001
 40
0.0
 40
0.0
 40
0.0
 40
0.0
 40
1.0
 40
1.0
 40
1.0
 40
2.0
 40
2.0
 40
2.0
 40
3.0
 40
3.0
 40
3.0
 40
4.0
 40
4.0
 40
4.0
 40
4.0
 10
117.1060247737049
 20
-140.9515473433554
 30
0.0
 10
117.1060247737049
 20
-140.8964434544801
 30
0.0
 10
117.0612219959382
 20
-140.8516406767137
 30
0.0
 10
117.006115345779
 20
-140.8516406767137
 30
0.0
 10
116.9509761805191
 20
-140.8516406767137
 30
0.0
 10
116.9062086816612
 20
-140.8964434544801
 30
0.0
 10
116.9062086816612
 20
-140.9515473433554
 30
0.0
 10
116.9062086816612
 20
-141.0070392877859
 30
0.0
 10
116.9509761805191
 20
-141.051454009997
 30
0.0
 10
117.006115345779
 20
-141.051454009997
 30
0.0
 10
117.0612219959382
 20
-141.051454009997
 30
0.0
 10
117.1060247737049
 20
-141.0070392877859
 30
0.0
 10
117.1060247737049
 20
-140.9515473433554
 30
0.0
  0
SPLINE
  5
B6
330
79
100
AcDbEntity
  8
レイヤー 1
 62
   250
420
  2299925
370
     9
100
AcDbSpline
210
0.0
220
0.0
230
1.0
 70
     9
 71
     3
 72
    17
 73
    13
 74
     0
 42
0.0000000001
 43
0.0000000001
 40
0.0
 40
0.0
 40
0.0
 40
0.0
 40
1.0
 40
1.0
 40
1.0
 40
2.0
 40
2.0
 40
2.0
 40
3.0
 40
3.0
 40
3.0
 40
4.0
 40
4.0
 40
4.0
 40
4.0
 10
115.1092292830615
 20
-140.9515473433554
 30
0.0
 10
115.1092292830615
 20
-140.8964434544801
 30
0.0
 10
115.0644617842036
 20
-140.8516406767137
 30
0.0
 10
115.0093226189437
 20
-140.8516406767137
 30
0.0
 10
114.9535131759231
 20
-140.8516406767137
 30
0.0
 10
114.9087456770652
 20
-140.8964434544801
 30
0.0
 10
114.9087456770652
 20
-140.9515473433554
 30
0.0
 10
114.9087456770652
 20
-141.0070392877859
 30
0.0
 10
114.9535131759231
 20
-141.051454009997
 30
0.0
 10
115.0093226189437
 20
-141.051454009997
 30
0.0
 10
115.0644617842036
 20
-141.051454009997
 30
0.0
 10
115.1092292830615
 20
-141.0070392877859
 30
0.0
 10
115.1092292830615
 20
-140.9515473433554
 30
0.0
  0
LINE
  5
B7
330
79
100
AcDbEntity
  8
レイヤー 1
 62
   250
420
  2299925
370
     9
100
AcDbLine
 10
115.0093226189437
 20
-140.9515473433554
 30
0.0
 11
117.006115345779
 21
-140.9515473433554
 31
0.0
  0
LINE
  5
B8
330
79
100
AcDbEntity
  8
レイヤー 1
 62
   250
420
  2299925
370
     9
100
AcDbLine
 10
115.0093226189437
 20
-142.4115887318791
 30
0.0
 11
115.0093226189437
 21
-139.951810399161
 31
0.0
  0
LINE
  5
B9
330
79
100
AcDbEntity
  8
レイヤー 1
 62
   250
420
  2299925
370
     9
100
AcDbLine
 10
117.006115345779
 20
-142.4115887318791
 30
0.0
 11
117.006115345779
 21
-139.951810399161
 31
0.0
  0
INSERT
  5
BB
330
79
100
AcDbEntity
  8
レイヤー 1
100
AcDbBlockReference
  2
Block_1
 10
0.0
 20
0.0
 30
0.0
  0
LINE
  5
C0
330
79
100
AcDbEntity
  8
レイヤー 1
 62
   250
420
  2299925
370
     9
100
AcDbLine
 10
117.7840256037107
 20
-158.2144103945954
 30
0.0
 11
112.783791441452
 21
-158.2144103945954
 31
0.0
  0
LINE
  5
C1
330
79
100
AcDbEntity
  8
レイヤー 1
 62
   250
420
  2299925
370
     9
100
AcDbLine
 10
117.7840256037107
 20
-156.7544042838492
 30
0.0
 11
117.7840256037107
 21
-159.214535394345
 31
0.0
  0
LINE
  5
C2
330
79
100
AcDbEntity
  8
レイヤー 1
 62
   250
420
  2299925
370
     9
100
AcDbLine
 10
112.783791441452
 20
-156.7544042838492
 30
0.0
 11
112.783791441452
 21
-159.214535394345
 31
0.0
  0
INSERT
  5
C4
330
79
100
AcDbEntity
  8
レイヤー 1
100
AcDbBlockReference
  2
Block_2
 10
0.0
 20
0.0
 30
0.0
  0
LINE
  5
C9
330
79
100
AcDbEntity
  8
レイヤー 1
 62
   250
420
  2299925
370
     9
100
AcDbLine
 10
90.00725659013255
 20
-145.7139062310534
 30
0.0
 11
90.00725659013255
 21
-140.4561415101458
 31
0.0
  0
LINE
  5
CA
330
79
100
AcDbEntity
  8
レイヤー 1
 62
   250
420
  2299925
370
     9
100
AcDbLine
 10
90.00725659013255
 20
-145.7139062310534
 30
0.0
 11
90.00725659013255
 21
-146.2141098420396
 31
0.0
  0
LINE
  5
CB
330
79
100
AcDbEntity
  8
レイヤー 1
 62
   250
420
  2299925
370
     9
100
AcDbLine
 10
91.4672626639958
 20
-145.7139062310534
 30
0.0
 11
89.00748439341665
 21
-145.7139062310534
 31
0.0
  0
LINE
  5
CC
330
79
100
AcDbEntity
  8
レイヤー 1
 62
   250
420
  2299925
370
     9
100
AcDbLine
 10
91.4672626639958
 20
-146.2141098420396
 30
0.0
 11
89.00748439341665
 21
-146.2141098420396
 31
0.0
  0
INSERT
  5
CE
330
79
100
AcDbEntity
  8
レイヤー 1
100
AcDbBlockReference
  2
Block_3
 10
0.0
 20
0.0
 30
0.0
  0
LINE
  5
DC
330
79
100
AcDbEntity
  8
レイヤー 1
 62
   250
420
  2299925
370
     9
100
AcDbLine
 10
94.00768593251754
 20
-140.9515473433554
 30
0.0
 11
115.0093226189437
 21
-140.9515473433554
 31
0.0
  0
LINE
  5
DD
330
79
100
AcDbEntity
  8
レイヤー 1
 62
   250
420
  2299925
370
     9
100
AcDbLine
 10
94.00768593251754
 20
-143.1738356761331
 30
0.0
 11
94.00768593251754
 21
-139.951810399161
 31
0.0
  0
INSERT
  5
DF
330
79
100
AcDbEntity
  8
レイヤー 1
100
AcDbBlockReference
  2
Block_5
 10
0.0
 20
0.0
 30
0.0
  0
LINE
  5
EA
330
79
100
AcDbEntity
  8
レイヤー 1
 62
   250
420
  2299925
370
     9
100
AcDbLine
 10
90.00725659013255
 20
-146.2141098420396
 30
0.0
 11
90.00725659013255
 21
-154.2139809511511
 31
0.0
  0
LINE
  5
EB
330
79
100
AcDbEntity
  8
レイヤー 1
 62
   250
420
  2299925
370
     9
100
AcDbLine
 10
110.7170755062258
 20
-154.2139809511511
 30
0.0
 11
89.00748439341665
 21
-154.2139809511511
 31
0.0
  0
INSERT
  5
ED
330
79
100
AcDbEntity
  8
レイヤー 1
100
AcDbBlockReference
  2
Block_7
 10
0.0
 20
0.0
 30
0.0
  0
LINE
  5
F4
330
79
100
AcDbEntity
  8
レイヤー 1
  6
AI-Linetype-0
 62
   154
420
    23468
370
    25
100
AcDbLine
 10
94.01389700169998
 20
-146.9151851196423
 30
0.0
 11
104.0136276216895
 21
-146.9151851196423
 31
0.0
  0
LINE
  5
F6
330
79
100
AcDbEntity
  8
レイヤー 1
 62
   250
420
  2299925
370
     9
100
AcDbLine
 10
115.6866559349968
 20
-150.6204101187156
 30
0.0
 11
123.6868443420061
 21
-150.6204101187156
 31
0.0
  0
INSERT
  5
F8
330
79
100
AcDbEntity
  8
レイヤー 1
100
AcDbBlockReference
  2
Block_8
 10
0.0
 20
0.0
 30
0.0
  0
INSERT
  5
FE
330
79
100
AcDbEntity
  8
レイヤー 1
100
AcDbBlockReference
  2
Block_9
 10
0.0
 20
0.0
 30
0.0
  0
ENDBLK
  5
7C
330
79
100
AcDbEntity
  8
0
100
AcDbBlockEnd
  0
BLOCK
  5
BC
330
BA
100
AcDbEntity
  8
0
100
AcDbBlockBegin
  2
Block_1
 70
     0
 10
0.0
 20
0.0
 30
0.0
  3
Block_1
  1

  0
SPLINE
  5
BE
330
BA
100
AcDbEntity
  8
レイヤー 1
100
AcDbSpline
210
0.0
220
0.0
230
1.0
 70
     9
 71
     3
 72
    44
 73
    40
 74
     0
 42
0.0000000001
 43
0.0000000001
 40
0.0
 40
0.0
 40
0.0
 40
0.0
 40
1.0
 40
1.0
 40
1.0
 40
2.0
 40
2.0
 40
2.0
 40
3.0
 40
3.0
 40
3.0
 40
4.0
 40
4.0
 40
4.0
 40
5.0
 40
5.0
 40
5.0
 40
6.0
 40
6.0
 40
6.0
 40
7.0
 40
7.0
 40
7.0
 40
8.0
 40
8.0
 40
8.0
 40
9.0
 40
9.0
 40
9.0
 40
10.0
 40
10.0
 40
10.0
 40
11.0
 40
11.0
 40
11.0
 40
12.0
 40
12.0
 40
12.0
 40
13.0
 40
13.0
 40
13.0
 40
13.0
 10
116.1024739293077
 20
-139.6567640167351
 30
0.0
 10
115.8847438946399
 20
-139.8154106638308
 30
0.0
 10
115.7917263165382
 20
-139.8894802167637
 30
0.0
 10
115.7428059606476
 20
-140.0333129532729
 30
0.0
 10
115.7428059606476
 20
-140.0333129532729
 30
0.0
 10
116.5213975403141
 20
-140.0333129532729
 30
0.0
 10
116.5213975403141
 20
-140.0333129532729
 30
0.0
 10
116.5213975403141
 20
-140.0333129532729
 30
0.0
 10
116.5213975403141
 20
-140.2384683894195
 30
0.0
 10
116.5213975403141
 20
-140.2384683894195
 30
0.0
 10
116.5213975403141
 20
-140.2384683894195
 30
0.0
 10
115.4933810475155
 20
-140.2384683894195
 30
0.0
 10
115.4933810475155
 20
-140.2384683894195
 30
0.0
 10
115.5250759259798
 20
-139.8808674780506
 30
0.0
 10
115.5905327401996
 20
-139.8026638105354
 30
0.0
 10
115.9756944154505
 20
-139.5043185415128
 30
0.0
 10
116.2316650100046
 20
-139.3055365320139
 30
0.0
 10
116.2971218242243
 20
-139.2378404057287
 30
0.0
 10
116.2971218242243
 20
-139.1003810958673
 30
0.0
 10
116.2971218242243
 20
-138.9818698111747
 30
0.0
 10
116.2251193285826
 20
-138.8507839279609
 30
0.0
 10
116.0284043763748
 20
-138.8507839279609
 30
0.0
 10
115.7682996672384
 20
-138.8507839279609
 30
0.0
 10
115.7600314380738
 20
-139.0812608159241
 30
0.0
 10
115.755552813943
 20
-139.1977050433256
 30
0.0
 10
115.755552813943
 20
-139.1977050433256
 30
0.0
 10
115.5312770978533
 20
-139.1977050433256
 30
0.0
 10
115.5312770978533
 20
-139.1977050433256
 30
0.0
 10
115.5398898365664
 20
-139.0707532746941
 30
0.0
 10
115.5505696325707
 20
-138.9586154166492
 30
0.0
 10
115.630840357377
 20
-138.8401041319566
 30
0.0
 10
115.7407389033565
 20
-138.6793904275697
 30
0.0
 10
115.9271185691085
 20
-138.64545623704
 30
0.0
 10
116.0432182869614
 20
-138.64545623704
 30
0.0
 10
116.320548473524
 20
-138.64545623704
 30
0.0
 10
116.527943221736
 20
-138.8295965907266
 30
0.0
 10
116.527943221736
 20
-139.1024481531584
 30
0.0
 10
116.527943221736
 20
-139.3308579838305
 30
0.0
 10
116.4114989943346
 20
-139.4304212433542
 30
0.0
 10
116.1024739293077
 20
-139.6567640167351
 30
0.0
  0
HATCH
  5
BF
330
BA
100
AcDbEntity
  8
レイヤー 1
 62
   250
420
  2299925
440
 33554687
100
AcDbHatch
 10
0.0
 20
0.0
 30
0.0
210
0.0
220
0.0
230
1.0
  2
SOLID
 70
     1
 71
     1
 91
        1
 92
        1
 93
        1
 72
     4
 94
        3
 73
     0
 74
     0
 95
       44
 96
       40
 40
0.0
 40
0.0
 40
0.0
 40
0.0
 40
1.0
 40
1.0
 40
1.0
 40
2.0
 40
2.0
 40
2.0
 40
3.0
 40
3.0
 40
3.0
 40
4.0
 40
4.0
 40
4.0
 40
5.0
 40
5.0
 40
5.0
 40
6.0
 40
6.0
 40
6.0
 40
7.0
 40
7.0
 40
7.0
 40
8.0
 40
8.0
 40
8.0
 40
9.0
 40
9.0
 40
9.0
 40
10.0
 40
10.0
 40
10.0
 40
11.0
 40
11.0
 40
11.0
 40
12.0
 40
12.0
 40
12.0
 40
13.0
 40
13.0
 40
13.0
 40
13.0
 10
116.1024739293077
 20
-139.6567640167351
 10
115.8847438946399
 20
-139.8154106638308
 10
115.7917263165382
 20
-139.8894802167637
 10
115.7428059606476
 20
-140.0333129532729
 10
115.7428059606476
 20
-140.0333129532729
 10
116.5213975403141
 20
-140.0333129532729
 10
116.5213975403141
 20
-140.0333129532729
 10
116.5213975403141
 20
-140.0333129532729
 10
116.5213975403141
 20
-140.2384683894195
 10
116.5213975403141
 20
-140.2384683894195
 10
116.5213975403141
 20
-140.2384683894195
 10
115.4933810475155
 20
-140.2384683894195
 10
115.4933810475155
 20
-140.2384683894195
 10
115.5250759259798
 20
-139.8808674780506
 10
115.5905327401996
 20
-139.8026638105354
 10
115.9756944154505
 20
-139.5043185415128
 10
116.2316650100046
 20
-139.3055365320139
 10
116.2971218242243
 20
-139.2378404057287
 10
116.2971218242243
 20
-139.1003810958673
 10
116.2971218242243
 20
-138.9818698111747
 10
116.2251193285826
 20
-138.8507839279609
 10
116.0284043763748
 20
-138.8507839279609
 10
115.7682996672384
 20
-138.8507839279609
 10
115.7600314380738
 20
-139.0812608159241
 10
115.755552813943
 20
-139.1977050433256
 10
115.755552813943
 20
-139.1977050433256
 10
115.5312770978533
 20
-139.1977050433256
 10
115.5312770978533
 20
-139.1977050433256
 10
115.5398898365664
 20
-139.0707532746941
 10
115.5505696325707
 20
-138.9586154166492
 10
115.630840357377
 20
-138.8401041319566
 10
115.7407389033565
 20
-138.6793904275697
 10
115.9271185691085
 20
-138.64545623704
 10
116.0432182869614
 20
-138.64545623704
 10
116.320548473524
 20
-138.64545623704
 10
116.527943221736
 20
-138.8295965907266
 10
116.527943221736
 20
-139.1024481531584
 10
116.527943221736
 20
-139.3308579838305
 10
116.4114989943346
 20
-139.4304212433542
 10
116.1024739293077
 20
-139.6567640167351
 97
        0
 97
        1
330
BE
 75
     2
 76
     1
 98
        1
 10
0.0
 20
0.0
450
        0
451
        0
460
0.0
461
0.0
452
        0
462
0.0
453
        0
470

  0
ENDBLK
  5
BD
330
BA
100
AcDbEntity
  8
0
100
AcDbBlockEnd
  0
BLOCK
  5
C5
330
C3
100
AcDbEntity
  8
0
100
AcDbBlockBegin
  2
Block_2
 70
     0
 10
0.0
 20
0.0
 30
0.0
  3
Block_2
  1

  0
SPLINE
  5
C7
330
C3
100
AcDbEntity
  8
レイヤー 1
100
AcDbSpline
210
0.0
220
0.0
230
1.0
 70
     9
 71
     3
 72
    53
 73
    49
 74
     0
 42
0.0000000001
 43
0.0000000001
 40
0.0
 40
0.0
 40
0.0
 40
0.0
 40
1.0
 40
1.0
 40
1.0
 40
2.0
 40
2.0
 40
2.0
 40
3.0
 40
3.0
 40
3.0
 40
4.0
 40
4.0
 40
4.0
 40
5.0
 40
5.0
 40
5.0
 40
6.0
 40
6.0
 40
6.0
 40
7.0
 40
7.0
 40
7.0
 40
8.0
 40
8.0
 40
8.0
 40
9.0
 40
9.0
 40
9.0
 40
10.0
 40
10.0
 40
10.0
 40
11.0
 40
11.0
 40
11.0
 40
12.0
 40
12.0
 40
12.0
 40
13.0
 40
13.0
 40
13.0
 40
14.0
 40
14.0
 40
14.0
 40
15.0
 40
15.0
 40
15.0
 40
16.0
 40
16.0
 40
16.0
 40
16.0
 10
115.2646267072949
 20
-157.5514512409941
 30
0.0
 10
115.1864230397798
 20
-157.5514512409941
 30
0.0
 10
115.0847927229649
 20
-157.5345702731163
 30
0.0
 10
114.98316240615
 20
-157.4711805161877
 30
0.0
 10
114.809874103242
 20
-157.3612819702083
 30
0.0
 10
114.7885145112334
 20
-157.2300238322202
 30
0.0
 10
114.7695664860645
 20
-157.1221923435319
 30
0.0
 10
114.7695664860645
 20
-157.1221923435319
 30
0.0
 10
114.9917751448631
 20
-157.1221923435319
 30
0.0
 10
114.9917751448631
 20
-157.1221923435319
 30
0.0
 10
115.0465521630786
 20
-157.3209743530308
 30
0.0
 10
115.1736761864843
 20
-157.350602174204
 30
0.0
 10
115.2666937645861
 20
-157.350602174204
 30
0.0
 10
115.4062201317387
 20
-157.350602174204
 30
0.0
 10
115.5584933521867
 20
-157.2510389146803
 30
0.0
 10
115.5584933521867
 20
-157.0184949694259
 30
0.0
 10
115.5584933521867
 20
-156.7625243748719
 30
0.0
 10
115.3786593678567
 20
-156.6925889365213
 30
0.0
 10
115.258081025873
 20
-156.6925889365213
 30
0.0
 10
115.2263861474087
 20
-156.6925889365213
 30
0.0
 10
115.0847927229649
 20
-156.6925889365213
 30
0.0
 10
114.9959092594454
 20
-156.8217800172182
 30
0.0
 10
114.9959092594454
 20
-156.8217800172182
 30
0.0
 10
114.8202093896977
 20
-156.8028319920493
 30
0.0
 10
114.8202093896977
 20
-156.8028319920493
 30
0.0
 10
114.8202093896977
 20
-156.8028319920493
 30
0.0
 10
114.9407877316815
 20
-155.9563720313234
 30
0.0
 10
114.9407877316815
 20
-155.9563720313234
 30
0.0
 10
114.9407877316815
 20
-155.9563720313234
 30
0.0
 10
115.7193793113479
 20
-155.9563720313234
 30
0.0
 10
115.7193793113479
 20
-155.9563720313234
 30
0.0
 10
115.7193793113479
 20
-155.9563720313234
 30
0.0
 10
115.7193793113479
 20
-156.15101992624
 30
0.0
 10
115.7193793113479
 20
-156.15101992624
 30
0.0
 10
115.7193793113479
 20
-156.15101992624
 30
0.0
 10
115.1037407481338
 20
-156.15101992624
 30
0.0
 10
115.1037407481338
 20
-156.15101992624
 30
0.0
 10
115.1037407481338
 20
-156.15101992624
 30
0.0
 10
115.038283933914
 20
-156.5740776518287
 30
0.0
 10
115.038283933914
 20
-156.5740776518287
 30
0.0
 10
115.0996066335515
 20
-156.5403157160732
 30
0.0
 10
115.1819444156489
 20
-156.5000080988958
 30
0.0
 10
115.3004557003415
 20
-156.5000080988958
 30
0.0
 10
115.5543592376044
 20
-156.5000080988958
 30
0.0
 10
115.7913818069896
 20
-156.6863877646478
 30
0.0
 10
115.7913818069896
 20
-156.9995469442571
 30
0.0
 10
115.7913818069896
 20
-157.3168402384486
 30
0.0
 10
115.5671060908999
 20
-157.5514512409941
 30
0.0
 10
115.2646267072949
 20
-157.5514512409941
 30
0.0
  0
HATCH
  5
C8
330
C3
100
AcDbEntity
  8
レイヤー 1
 62
   250
420
  2299925
440
 33554687
100
AcDbHatch
 10
0.0
 20
0.0
 30
0.0
210
0.0
220
0.0
230
1.0
  2
SOLID
 70
     1
 71
     1
 91
        1
 92
        1
 93
        1
 72
     4
 94
        3
 73
     0
 74
     0
 95
       53
 96
       49
 40
0.0
 40
0.0
 40
0.0
 40
0.0
 40
1.0
 40
1.0
 40
1.0
 40
2.0
 40
2.0
 40
2.0
 40
3.0
 40
3.0
 40
3.0
 40
4.0
 40
4.0
 40
4.0
 40
5.0
 40
5.0
 40
5.0
 40
6.0
 40
6.0
 40
6.0
 40
7.0
 40
7.0
 40
7.0
 40
8.0
 40
8.0
 40
8.0
 40
9.0
 40
9.0
 40
9.0
 40
10.0
 40
10.0
 40
10.0
 40
11.0
 40
11.0
 40
11.0
 40
12.0
 40
12.0
 40
12.0
 40
13.0
 40
13.0
 40
13.0
 40
14.0
 40
14.0
 40
14.0
 40
15.0
 40
15.0
 40
15.0
 40
16.0
 40
16.0
 40
16.0
 40
16.0
 10
115.2646267072949
 20
-157.5514512409941
 10
115.1864230397798
 20
-157.5514512409941
 10
115.0847927229649
 20
-157.5345702731163
 10
114.98316240615
 20
-157.4711805161877
 10
114.809874103242
 20
-157.3612819702083
 10
114.7885145112334
 20
-157.2300238322202
 10
114.7695664860645
 20
-157.1221923435319
 10
114.7695664860645
 20
-157.1221923435319
 10
114.9917751448631
 20
-157.1221923435319
 10
114.9917751448631
 20
-157.1221923435319
 10
115.0465521630786
 20
-157.3209743530308
 10
115.1736761864843
 20
-157.350602174204
 10
115.2666937645861
 20
-157.350602174204
 10
115.4062201317387
 20
-157.350602174204
 10
115.5584933521867
 20
-157.2510389146803
 10
115.5584933521867
 20
-157.0184949694259
 10
115.5584933521867
 20
-156.7625243748719
 10
115.3786593678567
 20
-156.6925889365213
 10
115.258081025873
 20
-156.6925889365213
 10
115.2263861474087
 20
-156.6925889365213
 10
115.0847927229649
 20
-156.6925889365213
 10
114.9959092594454
 20
-156.8217800172182
 10
114.9959092594454
 20
-156.8217800172182
 10
114.8202093896977
 20
-156.8028319920493
 10
114.8202093896977
 20
-156.8028319920493
 10
114.8202093896977
 20
-156.8028319920493
 10
114.9407877316815
 20
-155.9563720313234
 10
114.9407877316815
 20
-155.9563720313234
 10
114.9407877316815
 20
-155.9563720313234
 10
115.7193793113479
 20
-155.9563720313234
 10
115.7193793113479
 20
-155.9563720313234
 10
115.7193793113479
 20
-155.9563720313234
 10
115.7193793113479
 20
-156.15101992624
 10
115.7193793113479
 20
-156.15101992624
 10
115.7193793113479
 20
-156.15101992624
 10
115.1037407481338
 20
-156.15101992624
 10
115.1037407481338
 20
-156.15101992624
 10
115.1037407481338
 20
-156.15101992624
 10
115.038283933914
 20
-156.5740776518287
 10
115.038283933914
 20
-156.5740776518287
 10
115.0996066335515
 20
-156.5403157160732
 10
115.1819444156489
 20
-156.5000080988958
 10
115.3004557003415
 20
-156.5000080988958
 10
115.5543592376044
 20
-156.5000080988958
 10
115.7913818069896
 20
-156.6863877646478
 10
115.7913818069896
 20
-156.9995469442571
 10
115.7913818069896
 20
-157.3168402384486
 10
115.5671060908999
 20
-157.5514512409941
 10
115.2646267072949
 20
-157.5514512409941
 97
        0
 97
        1
330
C7
 75
     2
 76
     1
 98
        1
 10
0.0
 20
0.0
450
        0
451
        0
460
0.0
461
0.0
452
        0
462
0.0
453
        0
470

  0
ENDBLK
  5
C6
330
C3
100
AcDbEntity
  8
0
100
AcDbBlockEnd
  0
BLOCK
  5
CF
330
CD
100
AcDbEntity
  8
0
100
AcDbBlockBegin
  2
Block_3
 70
     0
 10
0.0
 20
0.0
 30
0.0
  3
Block_3
  1

  0
INSERT
  5
D2
330
CD
100
AcDbEntity
  8
レイヤー 1
100
AcDbBlockReference
  2
Block_4
 10
0.0
 20
0.0
 30
0.0
  0
ENDBLK
  5
D0
330
CD
100
AcDbEntity
  8
0
100
AcDbBlockEnd
  0
BLOCK
  5
D3
330
D1
100
AcDbEntity
  8
0
100
AcDbBlockBegin
  2
Block_4
 70
     0
 10
0.0
 20
0.0
 30
0.0
  3
Block_4
  1

  0
SPLINE
  5
D5
330
D1
100
AcDbEntity
  8
レイヤー 1
100
AcDbSpline
210
0.0
220
0.0
230
1.0
 70
     9
 71
     3
 72
    17
 73
    13
 74
     0
 42
0.0000000001
 43
0.0000000001
 40
0.0
 40
0.0
 40
0.0
 40
0.0
 40
1.0
 40
1.0
 40
1.0
 40
2.0
 40
2.0
 40
2.0
 40
3.0
 40
3.0
 40
3.0
 40
4.0
 40
4.0
 40
4.0
 40
4.0
 10
87.16298283411203
 20
-146.8690714151056
 30
0.0
 10
87.16298283411203
 20
-147.1188408377862
 30
0.0
 10
87.44634193777384
 20
-147.1653496268371
 30
0.0
 10
87.79119599584735
 20
-147.1653496268371
 30
0.0
 10
88.11072860210426
 20
-147.1653496268371
 30
0.0
 10
88.41958141235691
 20
-147.129176124242
 30
0.0
 10
88.41958141235691
 20
-146.8690714151056
 30
0.0
 10
88.41958141235691
 20
-146.6215413044904
 30
0.0
 10
88.138117111212
 20
-146.5727932033741
 30
0.0
 10
87.79119599584735
 20
-146.5727932033741
 30
0.0
 10
87.47183564436468
 20
-146.5727932033741
 30
0.0
 10
87.16298283411203
 20
-146.6110337632604
 30
0.0
 10
87.16298283411203
 20
-146.8690714151056
 30
0.0
  0
SPLINE
  5
D6
330
D1
100
AcDbEntity
  8
レイヤー 1
100
AcDbSpline
210
0.0
220
0.0
230
1.0
 70
     9
 71
     3
 72
    29
 73
    25
 74
     0
 42
0.0000000001
 43
0.0000000001
 40
0.0
 40
0.0
 40
0.0
 40
0.0
 40
1.0
 40
1.0
 40
1.0
 40
2.0
 40
2.0
 40
2.0
 40
3.0
 40
3.0
 40
3.0
 40
4.0
 40
4.0
 40
4.0
 40
5.0
 40
5.0
 40
5.0
 40
6.0
 40
6.0
 40
6.0
 40
7.0
 40
7.0
 40
7.0
 40
8.0
 40
8.0
 40
8.0
 40
8.0
 10
88.3856472218272
 20
-146.4713351413335
 30
0.0
 10
88.5951090273304
 20
-146.5791666300219
 30
0.0
 10
88.61422930727353
 20
-146.7526271877042
 30
0.0
 10
88.61422930727353
 20
-146.8690714151056
 30
0.0
 10
88.61422930727353
 20
-147.0299573742668
 30
0.0
 10
88.56772051822266
 20
-147.1715507987106
 30
0.0
 10
88.3856472218272
 20
-147.2666354341034
 30
0.0
 10
88.19117158168486
 20
-147.3703328082095
 30
0.0
 10
87.95414901229966
 20
-147.3896253429269
 30
0.0
 10
87.79119599584735
 20
-147.3896253429269
 30
0.0
 10
87.64736325933816
 20
-147.3896253429269
 30
0.0
 10
87.39569903414066
 20
-147.3723998655006
 30
0.0
 10
87.19674476986748
 20
-147.2666354341034
 30
0.0
 10
86.993656391012
 20
-147.1588039454152
 30
0.0
 10
86.97040199648657
 20
-146.997917986254
 30
0.0
 10
86.97040199648657
 20
-146.8690714151056
 30
0.0
 10
86.97040199648657
 20
-146.7102525132356
 30
0.0
 10
87.01484372824628
 20
-146.5665920315007
 30
0.0
 10
87.19674476986748
 20
-146.4713351413335
 30
0.0
 10
87.38932560749296
 20
-146.3719441365841
 30
0.0
 10
87.617735438165
 20
-146.3486897420587
 30
0.0
 10
87.79119599584735
 20
-146.3486897420587
 30
0.0
 10
87.96258949623853
 20
-146.3486897420587
 30
0.0
 10
88.19323863897599
 20
-146.3697048245187
 30
0.0
 10
88.3856472218272
 20
-146.4713351413335
 30
0.0
  0
HATCH
  5
D7
330
D1
100
AcDbEntity
  8
レイヤー 1
 62
   250
420
  2299925
440
 33554687
100
AcDbHatch
 10
0.0
 20
0.0
 30
0.0
210
0.0
220
0.0
230
1.0
  2
SOLID
 70
     1
 71
     1
 91
        2
 92
        1
 93
        1
 72
     4
 94
        3
 73
     0
 74
     0
 95
       17
 96
       13
 40
0.0
 40
0.0
 40
0.0
 40
0.0
 40
1.0
 40
1.0
 40
1.0
 40
2.0
 40
2.0
 40
2.0
 40
3.0
 40
3.0
 40
3.0
 40
4.0
 40
4.0
 40
4.0
 40
4.0
 10
87.16298283411203
 20
-146.8690714151056
 10
87.16298283411203
 20
-147.1188408377862
 10
87.44634193777384
 20
-147.1653496268371
 10
87.79119599584735
 20
-147.1653496268371
 10
88.11072860210426
 20
-147.1653496268371
 10
88.41958141235691
 20
-147.129176124242
 10
88.41958141235691
 20
-146.8690714151056
 10
88.41958141235691
 20
-146.6215413044904
 10
88.138117111212
 20
-146.5727932033741
 10
87.79119599584735
 20
-146.5727932033741
 10
87.47183564436468
 20
-146.5727932033741
 10
87.16298283411203
 20
-146.6110337632604
 10
87.16298283411203
 20
-146.8690714151056
 97
        0
 97
        1
330
D5
 92
        1
 93
        1
 72
     4
 94
        3
 73
     0
 74
     0
 95
       29
 96
       25
 40
0.0
 40
0.0
 40
0.0
 40
0.0
 40
1.0
 40
1.0
 40
1.0
 40
2.0
 40
2.0
 40
2.0
 40
3.0
 40
3.0
 40
3.0
 40
4.0
 40
4.0
 40
4.0
 40
5.0
 40
5.0
 40
5.0
 40
6.0
 40
6.0
 40
6.0
 40
7.0
 40
7.0
 40
7.0
 40
8.0
 40
8.0
 40
8.0
 40
8.0
 10
88.3856472218272
 20
-146.4713351413335
 10
88.5951090273304
 20
-146.5791666300219
 10
88.61422930727353
 20
-146.7526271877042
 10
88.61422930727353
 20
-146.8690714151056
 10
88.61422930727353
 20
-147.0299573742668
 10
88.56772051822266
 20
-147.1715507987106
 10
88.3856472218272
 20
-147.2666354341034
 10
88.19117158168486
 20
-147.3703328082095
 10
87.95414901229966
 20
-147.3896253429269
 10
87.79119599584735
 20
-147.3896253429269
 10
87.64736325933816
 20
-147.3896253429269
 10
87.39569903414066
 20
-147.3723998655006
 10
87.19674476986748
 20
-147.2666354341034
 10
86.993656391012
 20
-147.1588039454152
 10
86.97040199648657
 20
-146.997917986254
 10
86.97040199648657
 20
-146.8690714151056
 10
86.97040199648657
 20
-146.7102525132356
 10
87.01484372824628
 20
-146.5665920315007
 10
87.19674476986748
 20
-146.4713351413335
 10
87.38932560749296
 20
-146.3719441365841
 10
87.617735438165
 20
-146.3486897420587
 10
87.79119599584735
 20
-146.3486897420587
 10
87.96258949623853
 20
-146.3486897420587
 10
88.19323863897599
 20
-146.3697048245187
 10
88.3856472218272
 20
-146.4713351413335
 97
        0
 97
        1
330
D6
 75
     2
 76
     1
 98
        1
 10
0.0
 20
0.0
450
        0
451
        0
460
0.0
461
0.0
452
        0
462
0.0
453
        0
470

  0
SPLINE
  5
D8
330
D1
100
AcDbEntity
  8
レイヤー 1
100
AcDbSpline
210
0.0
220
0.0
230
1.0
 70
    11
 71
     3
 72
    17
 73
    13
 74
     0
 42
0.0000000001
 43
0.0000000001
 40
0.0
 40
0.0
 40
0.0
 40
0.0
 40
1.0
 40
1.0
 40
1.0
 40
2.0
 40
2.0
 40
2.0
 40
3.0
 40
3.0
 40
3.0
 40
4.0
 40
4.0
 40
4.0
 40
4.0
 10
88.5634141488661
 20
-146.1321654908107
 30
0.0
 10
88.5634141488661
 20
-146.1321654908107
 30
0.0
 10
88.31174992366859
 20
-146.1321654908107
 30
0.0
 10
88.31174992366859
 20
-146.1321654908107
 30
0.0
 10
88.31174992366859
 20
-146.1321654908107
 30
0.0
 10
88.31174992366859
 20
-145.8805012656132
 30
0.0
 10
88.31174992366859
 20
-145.8805012656132
 30
0.0
 10
88.31174992366859
 20
-145.8805012656132
 30
0.0
 10
88.5634141488661
 20
-145.8805012656132
 30
0.0
 10
88.5634141488661
 20
-145.8805012656132
 30
0.0
 10
88.5634141488661
 20
-145.8805012656132
 30
0.0
 10
88.5634141488661
 20
-146.1321654908107
 30
0.0
 10
88.5634141488661
 20
-146.1321654908107
 30
0.0
  0
HATCH
  5
D9
330
D1
100
AcDbEntity
  8
レイヤー 1
 62
   250
420
  2299925
440
 33554687
100
AcDbHatch
 10
0.0
 20
0.0
 30
0.0
210
0.0
220
0.0
230
1.0
  2
SOLID
 70
     1
 71
     1
 91
        1
 92
        1
 93
        1
 72
     4
 94
        3
 73
     0
 74
     0
 95
       17
 96
       13
 40
0.0
 40
0.0
 40
0.0
 40
0.0
 40
1.0
 40
1.0
 40
1.0
 40
2.0
 40
2.0
 40
2.0
 40
3.0
 40
3.0
 40
3.0
 40
4.0
 40
4.0
 40
4.0
 40
4.0
 10
88.5634141488661
 20
-146.1321654908107
 10
88.5634141488661
 20
-146.1321654908107
 10
88.31174992366859
 20
-146.1321654908107
 10
88.31174992366859
 20
-146.1321654908107
 10
88.31174992366859
 20
-146.1321654908107
 10
88.31174992366859
 20
-145.8805012656132
 10
88.31174992366859
 20
-145.8805012656132
 10
88.31174992366859
 20
-145.8805012656132
 10
88.5634141488661
 20
-145.8805012656132
 10
88.5634141488661
 20
-145.8805012656132
 10
88.5634141488661
 20
-145.8805012656132
 10
88.5634141488661
 20
-146.1321654908107
 10
88.5634141488661
 20
-146.1321654908107
 97
        0
 97
        1
330
D8
 75
     2
 76
     1
 98
        1
 10
0.0
 20
0.0
450
        0
451
        0
460
0.0
461
0.0
452
        0
462
0.0
453
        0
470

  0
SPLINE
  5
DA
330
D1
100
AcDbEntity
  8
レイヤー 1
100
AcDbSpline
210
0.0
220
0.0
230
1.0
 70
     9
 71
     3
 72
    53
 73
    49
 74
     0
 42
0.0000000001
 43
0.0000000001
 40
0.0
 40
0.0
 40
0.0
 40
0.0
 40
1.0
 40
1.0
 40
1.0
 40
2.0
 40
2.0
 40
2.0
 40
3.0
 40
3.0
 40
3.0
 40
4.0
 40
4.0
 40
4.0
 40
5.0
 40
5.0
 40
5.0
 40
6.0
 40
6.0
 40
6.0
 40
7.0
 40
7.0
 40
7.0
 40
8.0
 40
8.0
 40
8.0
 40
9.0
 40
9.0
 40
9.0
 40
10.0
 40
10.0
 40
10.0
 40
11.0
 40
11.0
 40
11.0
 40
12.0
 40
12.0
 40
12.0
 40
13.0
 40
13.0
 40
13.0
 40
14.0
 40
14.0
 40
14.0
 40
15.0
 40
15.0
 40
15.0
 40
16.0
 40
16.0
 40
16.0
 40
16.0
 10
88.61422930727353
 20
-145.1628878760357
 30
0.0
 10
88.61422930727353
 20
-145.2412637983251
 30
0.0
 10
88.59734833939581
 20
-145.3427218603657
 30
0.0
 10
88.53378632769295
 20
-145.4443521771805
 30
0.0
 10
88.42371552693922
 20
-145.6178127348629
 30
0.0
 10
88.29262964372546
 20
-145.6390000720972
 30
0.0
 10
88.18479815503714
 20
-145.6579480972661
 30
0.0
 10
88.18479815503714
 20
-145.6579480972661
 30
0.0
 10
88.18479815503714
 20
-145.4359116932417
 30
0.0
 10
88.18479815503714
 20
-145.4359116932417
 30
0.0
 10
88.38358016453605
 20
-145.3807901654777
 30
0.0
 10
88.41320798570921
 20
-145.2538383968462
 30
0.0
 10
88.41320798570921
 20
-145.1608208187445
 30
0.0
 10
88.41320798570921
 20
-145.0211221968176
 30
0.0
 10
88.31381698095974
 20
-144.8688489763696
 30
0.0
 10
88.08110078093113
 20
-144.8688489763696
 30
0.0
 10
87.82513018637706
 20
-144.8688489763696
 30
0.0
 10
87.75536700280074
 20
-145.0486829606996
 30
0.0
 10
87.75536700280074
 20
-145.1692613026834
 30
0.0
 10
87.75536700280074
 20
-145.2009561811477
 30
0.0
 10
87.75536700280074
 20
-145.3427218603657
 30
0.0
 10
87.88438582872336
 20
-145.4316053238851
 30
0.0
 10
87.88438582872336
 20
-145.4316053238851
 30
0.0
 10
87.86526554878021
 20
-145.6071329388586
 30
0.0
 10
87.86526554878021
 20
-145.6071329388586
 30
0.0
 10
87.86526554878021
 20
-145.6071329388586
 30
0.0
 10
87.01915009760286
 20
-145.4865545968749
 30
0.0
 10
87.01915009760286
 20
-145.4865545968749
 30
0.0
 10
87.01915009760286
 20
-145.4865545968749
 30
0.0
 10
87.01915009760286
 20
-144.7081352719827
 30
0.0
 10
87.01915009760286
 20
-144.7081352719827
 30
0.0
 10
87.01915009760286
 20
-144.7081352719827
 30
0.0
 10
87.21379799251947
 20
-144.7081352719827
 30
0.0
 10
87.21379799251947
 20
-144.7081352719827
 30
0.0
 10
87.21379799251947
 20
-144.7081352719827
 30
0.0
 10
87.21379799251947
 20
-145.3237738351968
 30
0.0
 10
87.21379799251947
 20
-145.3237738351968
 30
0.0
 10
87.21379799251947
 20
-145.3237738351968
 30
0.0
 10
87.63685571810816
 20
-145.3892306494166
 30
0.0
 10
87.63685571810816
 20
-145.3892306494166
 30
0.0
 10
87.60292152757845
 20
-145.3279079497791
 30
0.0
 10
87.56278616517528
 20
-145.2453979129074
 30
0.0
 10
87.56278616517528
 20
-145.127058882989
 30
0.0
 10
87.56278616517528
 20
-144.8731553457261
 30
0.0
 10
87.74899357615304
 20
-144.636132776341
 30
0.0
 10
88.06198050098798
 20
-144.636132776341
 30
0.0
 10
88.37944604995376
 20
-144.636132776341
 30
0.0
 10
88.61422930727353
 20
-144.8604084924307
 30
0.0
 10
88.61422930727353
 20
-145.1628878760357
 30
0.0
  0
HATCH
  5
DB
330
D1
100
AcDbEntity
  8
レイヤー 1
 62
   250
420
  2299925
440
 33554687
100
AcDbHatch
 10
0.0
 20
0.0
 30
0.0
210
0.0
220
0.0
230
1.0
  2
SOLID
 70
     1
 71
     1
 91
        1
 92
        1
 93
        1
 72
     4
 94
        3
 73
     0
 74
     0
 95
       53
 96
       49
 40
0.0
 40
0.0
 40
0.0
 40
0.0
 40
1.0
 40
1.0
 40
1.0
 40
2.0
 40
2.0
 40
2.0
 40
3.0
 40
3.0
 40
3.0
 40
4.0
 40
4.0
 40
4.0
 40
5.0
 40
5.0
 40
5.0
 40
6.0
 40
6.0
 40
6.0
 40
7.0
 40
7.0
 40
7.0
 40
8.0
 40
8.0
 40
8.0
 40
9.0
 40
9.0
 40
9.0
 40
10.0
 40
10.0
 40
10.0
 40
11.0
 40
11.0
 40
11.0
 40
12.0
 40
12.0
 40
12.0
 40
13.0
 40
13.0
 40
13.0
 40
14.0
 40
14.0
 40
14.0
 40
15.0
 40
15.0
 40
15.0
 40
16.0
 40
16.0
 40
16.0
 40
16.0
 10
88.61422930727353
 20
-145.1628878760357
 10
88.61422930727353
 20
-145.2412637983251
 10
88.59734833939581
 20
-145.3427218603657
 10
88.53378632769295
 20
-145.4443521771805
 10
88.42371552693922
 20
-145.6178127348629
 10
88.29262964372546
 20
-145.6390000720972
 10
88.18479815503714
 20
-145.6579480972661
 10
88.18479815503714
 20
-145.6579480972661
 10
88.18479815503714
 20
-145.4359116932417
 10
88.18479815503714
 20
-145.4359116932417
 10
88.38358016453605
 20
-145.3807901654777
 10
88.41320798570921
 20
-145.2538383968462
 10
88.41320798570921
 20
-145.1608208187445
 10
88.41320798570921
 20
-145.0211221968176
 10
88.31381698095974
 20
-144.8688489763696
 10
88.08110078093113
 20
-144.8688489763696
 10
87.82513018637706
 20
-144.8688489763696
 10
87.75536700280074
 20
-145.0486829606996
 10
87.75536700280074
 20
-145.1692613026834
 10
87.75536700280074
 20
-145.2009561811477
 10
87.75536700280074
 20
-145.3427218603657
 10
87.88438582872336
 20
-145.4316053238851
 10
87.88438582872336
 20
-145.4316053238851
 10
87.86526554878021
 20
-145.6071329388586
 10
87.86526554878021
 20
-145.6071329388586
 10
87.86526554878021
 20
-145.6071329388586
 10
87.01915009760286
 20
-145.4865545968749
 10
87.01915009760286
 20
-145.4865545968749
 10
87.01915009760286
 20
-145.4865545968749
 10
87.01915009760286
 20
-144.7081352719827
 10
87.01915009760286
 20
-144.7081352719827
 10
87.01915009760286
 20
-144.7081352719827
 10
87.21379799251947
 20
-144.7081352719827
 10
87.21379799251947
 20
-144.7081352719827
 10
87.21379799251947
 20
-144.7081352719827
 10
87.21379799251947
 20
-145.3237738351968
 10
87.21379799251947
 20
-145.3237738351968
 10
87.21379799251947
 20
-145.3237738351968
 10
87.63685571810816
 20
-145.3892306494166
 10
87.63685571810816
 20
-145.3892306494166
 10
87.60292152757845
 20
-145.3279079497791
 10
87.56278616517528
 20
-145.2453979129074
 10
87.56278616517528
 20
-145.127058882989
 10
87.56278616517528
 20
-144.8731553457261
 10
87.74899357615304
 20
-144.636132776341
 10
88.06198050098798
 20
-144.636132776341
 10
88.37944604995376
 20
-144.636132776341
 10
88.61422930727353
 20
-144.8604084924307
 10
88.61422930727353
 20
-145.1628878760357
 97
        0
 97
        1
330
DA
 75
     2
 76
     1
 98
        1
 10
0.0
 20
0.0
450
        0
451
        0
460
0.0
461
0.0
452
        0
462
0.0
453
        0
470

  0
ENDBLK
  5
D4
330
D1
100
AcDbEntity
  8
0
100
AcDbBlockEnd
  0
BLOCK
  5
E0
330
DE
100
AcDbEntity
  8
0
100
AcDbBlockBegin
  2
Block_5
 70
     0
 10
0.0
 20
0.0
 30
0.0
  3
Block_5
  1

  0
INSERT
  5
E3
330
DE
100
AcDbEntity
  8
レイヤー 1
100
AcDbBlockReference
  2
Block_6
 10
0.0
 20
0.0
 30
0.0
  0
ENDBLK
  5
E1
330
DE
100
AcDbEntity
  8
0
100
AcDbBlockEnd
  0
BLOCK
  5
E4
330
E2
100
AcDbEntity
  8
0
100
AcDbBlockBegin
  2
Block_6
 70
     0
 10
0.0
 20
0.0
 30
0.0
  3
Block_6
  1

  0
SPLINE
  5
E6
330
E2
100
AcDbEntity
  8
レイヤー 1
100
AcDbSpline
210
0.0
220
0.0
230
1.0
 70
     9
 71
     3
 72
    44
 73
    40
 74
     0
 42
0.0000000001
 43
0.0000000001
 40
0.0
 40
0.0
 40
0.0
 40
0.0
 40
1.0
 40
1.0
 40
1.0
 40
2.0
 40
2.0
 40
2.0
 40
3.0
 40
3.0
 40
3.0
 40
4.0
 40
4.0
 40
4.0
 40
5.0
 40
5.0
 40
5.0
 40
6.0
 40
6.0
 40
6.0
 40
7.0
 40
7.0
 40
7.0
 40
8.0
 40
8.0
 40
8.0
 40
9.0
 40
9.0
 40
9.0
 40
10.0
 40
10.0
 40
10.0
 40
11.0
 40
11.0
 40
11.0
 40
12.0
 40
12.0
 40
12.0
 40
13.0
 40
13.0
 40
13.0
 40
13.0
 10
103.9362914779222
 20
-139.6569362715094
 30
0.0
 10
103.7185614432544
 20
-139.8155829186051
 30
0.0
 10
103.6255438651526
 20
-139.889652471538
 30
0.0
 10
103.5766235092621
 20
-140.0334852080472
 30
0.0
 10
103.5766235092621
 20
-140.0334852080472
 30
0.0
 10
104.3552150889285
 20
-140.0334852080472
 30
0.0
 10
104.3552150889285
 20
-140.0334852080472
 30
0.0
 10
104.3552150889285
 20
-140.0334852080472
 30
0.0
 10
104.3552150889285
 20
-140.2386406441938
 30
0.0
 10
104.3552150889285
 20
-140.2386406441938
 30
0.0
 10
104.3552150889285
 20
-140.2386406441938
 30
0.0
 10
103.32719859613
 20
-140.2386406441938
 30
0.0
 10
103.32719859613
 20
-140.2386406441938
 30
0.0
 10
103.3588934745943
 20
-139.8810397328249
 30
0.0
 10
103.424350288814
 20
-139.8028360653097
 30
0.0
 10
103.809511964065
 20
-139.5044907962871
 30
0.0
 10
104.065482558619
 20
-139.3057087867881
 30
0.0
 10
104.1309393728388
 20
-139.238012660503
 30
0.0
 10
104.1309393728388
 20
-139.1005533506415
 30
0.0
 10
104.1309393728388
 20
-138.9820420659489
 30
0.0
 10
104.058936877197
 20
-138.8509561827352
 30
0.0
 10
103.8622219249893
 20
-138.8509561827352
 30
0.0
 10
103.6021172158529
 20
-138.8509561827352
 30
0.0
 10
103.5935044771398
 20
-139.0814330706984
 30
0.0
 10
103.5893703625575
 20
-139.1978772980998
 30
0.0
 10
103.5893703625575
 20
-139.1978772980998
 30
0.0
 10
103.3650946464677
 20
-139.1978772980998
 30
0.0
 10
103.3650946464677
 20
-139.1978772980998
 30
0.0
 10
103.3737073851809
 20
-139.0709255294684
 30
0.0
 10
103.3843871811851
 20
-138.9587876714235
 30
0.0
 10
103.4646579059914
 20
-138.8402763867309
 30
0.0
 10
103.5745564519709
 20
-138.679562682344
 30
0.0
 10
103.7609361177229
 20
-138.6456284918143
 30
0.0
 10
103.8770358355759
 20
-138.6456284918143
 30
0.0
 10
104.1543660221385
 20
-138.6456284918143
 30
0.0
 10
104.3617607703505
 20
-138.8297688455009
 30
0.0
 10
104.3617607703505
 20
-139.1026204079327
 30
0.0
 10
104.3617607703505
 20
-139.3310302386047
 30
0.0
 10
104.2453165429491
 20
-139.4305934981284
 30
0.0
 10
103.9362914779222
 20
-139.6569362715094
 30
0.0
  0
HATCH
  5
E7
330
E2
100
AcDbEntity
  8
レイヤー 1
 62
   250
420
  2299925
440
 33554687
100
AcDbHatch
 10
0.0
 20
0.0
 30
0.0
210
0.0
220
0.0
230
1.0
  2
SOLID
 70
     1
 71
     1
 91
        1
 92
        1
 93
        1
 72
     4
 94
        3
 73
     0
 74
     0
 95
       44
 96
       40
 40
0.0
 40
0.0
 40
0.0
 40
0.0
 40
1.0
 40
1.0
 40
1.0
 40
2.0
 40
2.0
 40
2.0
 40
3.0
 40
3.0
 40
3.0
 40
4.0
 40
4.0
 40
4.0
 40
5.0
 40
5.0
 40
5.0
 40
6.0
 40
6.0
 40
6.0
 40
7.0
 40
7.0
 40
7.0
 40
8.0
 40
8.0
 40
8.0
 40
9.0
 40
9.0
 40
9.0
 40
10.0
 40
10.0
 40
10.0
 40
11.0
 40
11.0
 40
11.0
 40
12.0
 40
12.0
 40
12.0
 40
13.0
 40
13.0
 40
13.0
 40
13.0
 10
103.9362914779222
 20
-139.6569362715094
 10
103.7185614432544
 20
-139.8155829186051
 10
103.6255438651526
 20
-139.889652471538
 10
103.5766235092621
 20
-140.0334852080472
 10
103.5766235092621
 20
-140.0334852080472
 10
104.3552150889285
 20
-140.0334852080472
 10
104.3552150889285
 20
-140.0334852080472
 10
104.3552150889285
 20
-140.0334852080472
 10
104.3552150889285
 20
-140.2386406441938
 10
104.3552150889285
 20
-140.2386406441938
 10
104.3552150889285
 20
-140.2386406441938
 10
103.32719859613
 20
-140.2386406441938
 10
103.32719859613
 20
-140.2386406441938
 10
103.3588934745943
 20
-139.8810397328249
 10
103.424350288814
 20
-139.8028360653097
 10
103.809511964065
 20
-139.5044907962871
 10
104.065482558619
 20
-139.3057087867881
 10
104.1309393728388
 20
-139.238012660503
 10
104.1309393728388
 20
-139.1005533506415
 10
104.1309393728388
 20
-138.9820420659489
 10
104.058936877197
 20
-138.8509561827352
 10
103.8622219249893
 20
-138.8509561827352
 10
103.6021172158529
 20
-138.8509561827352
 10
103.5935044771398
 20
-139.0814330706984
 10
103.5893703625575
 20
-139.1978772980998
 10
103.5893703625575
 20
-139.1978772980998
 10
103.3650946464677
 20
-139.1978772980998
 10
103.3650946464677
 20
-139.1978772980998
 10
103.3737073851809
 20
-139.0709255294684
 10
103.3843871811851
 20
-138.9587876714235
 10
103.4646579059914
 20
-138.8402763867309
 10
103.5745564519709
 20
-138.679562682344
 10
103.7609361177229
 20
-138.6456284918143
 10
103.8770358355759
 20
-138.6456284918143
 10
104.1543660221385
 20
-138.6456284918143
 10
104.3617607703505
 20
-138.8297688455009
 10
104.3617607703505
 20
-139.1026204079327
 10
104.3617607703505
 20
-139.3310302386047
 10
104.2453165429491
 20
-139.4305934981284
 10
103.9362914779222
 20
-139.6569362715094
 97
        0
 97
        1
330
E6
 75
     2
 76
     1
 98
        1
 10
0.0
 20
0.0
450
        0
451
        0
460
0.0
461
0.0
452
        0
462
0.0
453
        0
470

  0
SPLINE
  5
E8
330
E2
100
AcDbEntity
  8
レイヤー 1
100
AcDbSpline
210
0.0
220
0.0
230
1.0
 70
    11
 71
     3
 72
    26
 73
    22
 74
     0
 42
0.0000000001
 43
0.0000000001
 40
0.0
 40
0.0
 40
0.0
 40
0.0
 40
1.0
 40
1.0
 40
1.0
 40
2.0
 40
2.0
 40
2.0
 40
3.0
 40
3.0
 40
3.0
 40
4.0
 40
4.0
 40
4.0
 40
5.0
 40
5.0
 40
5.0
 40
6.0
 40
6.0
 40
6.0
 40
7.0
 40
7.0
 40
7.0
 40
7.0
 10
104.9715426712397
 20
-140.2386406441938
 30
0.0
 10
104.9715426712397
 20
-140.2386406441938
 30
0.0
 10
104.9715426712397
 20
-139.1343152863969
 30
0.0
 10
104.9715426712397
 20
-139.1343152863969
 30
0.0
 10
104.9715426712397
 20
-139.1343152863969
 30
0.0
 10
104.6415025237528
 20
-139.1343152863969
 30
0.0
 10
104.6415025237528
 20
-139.1343152863969
 30
0.0
 10
104.6415025237528
 20
-139.1343152863969
 30
0.0
 10
104.6415025237528
 20
-138.9863484353055
 30
0.0
 10
104.6415025237528
 20
-138.9863484353055
 30
0.0
 10
104.9736097285309
 20
-138.9715345247189
 30
0.0
 10
105.0201185175817
 20
-138.8085815082666
 30
0.0
 10
105.0497463387549
 20
-138.6943765929306
 30
0.0
 10
105.0497463387549
 20
-138.6943765929306
 30
0.0
 10
105.1958183873295
 20
-138.6943765929306
 30
0.0
 10
105.1958183873295
 20
-138.6943765929306
 30
0.0
 10
105.1958183873295
 20
-138.6943765929306
 30
0.0
 10
105.1958183873295
 20
-140.2386406441938
 30
0.0
 10
105.1958183873295
 20
-140.2386406441938
 30
0.0
 10
105.1958183873295
 20
-140.2386406441938
 30
0.0
 10
104.9715426712397
 20
-140.2386406441938
 30
0.0
 10
104.9715426712397
 20
-140.2386406441938
 30
0.0
  0
HATCH
  5
E9
330
E2
100
AcDbEntity
  8
レイヤー 1
 62
   250
420
  2299925
440
 33554687
100
AcDbHatch
 10
0.0
 20
0.0
 30
0.0
210
0.0
220
0.0
230
1.0
  2
SOLID
 70
     1
 71
     1
 91
        1
 92
        1
 93
        1
 72
     4
 94
        3
 73
     0
 74
     0
 95
       26
 96
       22
 40
0.0
 40
0.0
 40
0.0
 40
0.0
 40
1.0
 40
1.0
 40
1.0
 40
2.0
 40
2.0
 40
2.0
 40
3.0
 40
3.0
 40
3.0
 40
4.0
 40
4.0
 40
4.0
 40
5.0
 40
5.0
 40
5.0
 40
6.0
 40
6.0
 40
6.0
 40
7.0
 40
7.0
 40
7.0
 40
7.0
 10
104.9715426712397
 20
-140.2386406441938
 10
104.9715426712397
 20
-140.2386406441938
 10
104.9715426712397
 20
-139.1343152863969
 10
104.9715426712397
 20
-139.1343152863969
 10
104.9715426712397
 20
-139.1343152863969
 10
104.6415025237528
 20
-139.1343152863969
 10
104.6415025237528
 20
-139.1343152863969
 10
104.6415025237528
 20
-139.1343152863969
 10
104.6415025237528
 20
-138.9863484353055
 10
104.6415025237528
 20
-138.9863484353055
 10
104.9736097285309
 20
-138.9715345247189
 10
105.0201185175817
 20
-138.8085815082666
 10
105.0497463387549
 20
-138.6943765929306
 10
105.0497463387549
 20
-138.6943765929306
 10
105.1958183873295
 20
-138.6943765929306
 10
105.1958183873295
 20
-138.6943765929306
 10
105.1958183873295
 20
-138.6943765929306
 10
105.1958183873295
 20
-140.2386406441938
 10
105.1958183873295
 20
-140.2386406441938
 10
105.1958183873295
 20
-140.2386406441938
 10
104.9715426712397
 20
-140.2386406441938
 10
104.9715426712397
 20
-140.2386406441938
 97
        0
 97
        1
330
E8
 75
     2
 76
     1
 98
        1
 10
0.0
 20
0.0
450
        0
451
        0
460
0.0
461
0.0
452
        0
462
0.0
453
        0
470

  0
ENDBLK
  5
E5
330
E2
100
AcDbEntity
  8
0
100
AcDbBlockEnd
  0
BLOCK
  5
EE
330
EC
100
AcDbEntity
  8
0
100
AcDbBlockBegin
  2
Block_7
 70
     0
 10
0.0
 20
0.0
 30
0.0
  3
Block_7
  1

  0
SPLINE
  5
F0
330
EC
100
AcDbEntity
  8
レイヤー 1
100
AcDbSpline
210
0.0
220
0.0
230
1.0
 70
     9
 71
     3
 72
    17
 73
    13
 74
     0
 42
0.0000000001
 43
0.0000000001
 40
0.0
 40
0.0
 40
0.0
 40
0.0
 40
1.0
 40
1.0
 40
1.0
 40
2.0
 40
2.0
 40
2.0
 40
3.0
 40
3.0
 40
3.0
 40
4.0
 40
4.0
 40
4.0
 40
4.0
 10
88.5537678815074
 20
-150.2123643287663
 30
0.0
 10
88.5537678815074
 20
-150.3560248105013
 30
0.0
 10
88.64041203296144
 20
-150.5086425404978
 30
0.0
 10
88.8435004118169
 20
-150.5086425404978
 30
0.0
 10
89.04865584796352
 20
-150.5086425404978
 30
0.0
 10
89.1502861647784
 20
-150.3815185170921
 30
0.0
 10
89.1502861647784
 20
-150.2123643287663
 30
0.0
 10
89.1502861647784
 20
-150.0263291725628
 30
0.0
 10
89.02764076550351
 20
-149.9160861170348
 30
0.0
 10
88.84987383846462
 20
-149.9160861170348
 30
0.0
 10
88.62766517966601
 20
-149.9160861170348
 30
0.0
 10
88.5537678815074
 20
-150.0790391334872
 30
0.0
 10
88.5537678815074
 20
-150.2123643287663
 30
0.0
  0
SPLINE
  5
F1
330
EC
100
AcDbEntity
  8
レイヤー 1
100
AcDbSpline
210
0.0
220
0.0
230
1.0
 70
     9
 71
     3
 72
    17
 73
    13
 74
     0
 42
0.0000000001
 43
0.0000000001
 40
0.0
 40
0.0
 40
0.0
 40
0.0
 40
1.0
 40
1.0
 40
1.0
 40
2.0
 40
2.0
 40
2.0
 40
3.0
 40
3.0
 40
3.0
 40
4.0
 40
4.0
 40
4.0
 40
4.0
 10
87.89368758653353
 20
-150.2123643287663
 30
0.0
 10
87.89368758653353
 20
-150.3773844025098
 30
0.0
 10
87.98877222192642
 20
-150.4617892418984
 30
0.0
 10
88.12416447449674
 20
-150.4617892418984
 30
0.0
 10
88.2469821285459
 20
-150.4617892418984
 30
0.0
 10
88.3654934132385
 20
-150.3901312558052
 30
0.0
 10
88.3654934132385
 20
-150.2123643287663
 30
0.0
 10
88.3654934132385
 20
-150.0345974017274
 30
0.0
 10
88.2469821285459
 20
-149.9625949060857
 30
0.0
 10
88.12416447449674
 20
-149.9625949060857
 30
0.0
 10
87.98877222192642
 20
-149.9625949060857
 30
0.0
 10
87.89368758653353
 20
-150.049411312314
 30
0.0
 10
87.89368758653353
 20
-150.2123643287663
 30
0.0
  0
SPLINE
  5
F2
330
EC
100
AcDbEntity
  8
レイヤー 1
100
AcDbSpline
210
0.0
220
0.0
230
1.0
 70
     9
 71
     3
 72
    29
 73
    25
 74
     0
 42
0.0000000001
 43
0.0000000001
 40
0.0
 40
0.0
 40
0.0
 40
0.0
 40
1.0
 40
1.0
 40
1.0
 40
2.0
 40
2.0
 40
2.0
 40
3.0
 40
3.0
 40
3.0
 40
4.0
 40
4.0
 40
4.0
 40
5.0
 40
5.0
 40
5.0
 40
6.0
 40
6.0
 40
6.0
 40
7.0
 40
7.0
 40
7.0
 40
8.0
 40
8.0
 40
8.0
 40
8.0
 10
89.34493405969503
 20
-150.2123643287663
 30
0.0
 10
89.34493405969503
 20
-150.4790147193247
 30
0.0
 10
89.20730249505929
 20
-150.7325737470391
 30
0.0
 10
88.85831432240349
 20
-150.7325737470391
 30
0.0
 10
88.60234372784942
 20
-150.7325737470391
 30
0.0
 10
88.50708683768226
 20
-150.5909803225953
 30
0.0
 10
88.4457641380448
 20
-150.4852158911981
 30
0.0
 10
88.38650849569852
 20
-150.6099283477642
 30
0.0
 10
88.27230358036249
 20
-150.6860649579882
 30
0.0
 10
88.11158987597558
 20
-150.6860649579882
 30
0.0
 10
87.83649900147837
 20
-150.6860649579882
 30
0.0
 10
87.70110674890807
 20
-150.4872829484893
 30
0.0
 10
87.70110674890807
 20
-150.2123643287663
 30
0.0
 10
87.70110674890807
 20
-149.9288329703303
 30
0.0
 10
87.84493948541724
 20
-149.738319189996
 30
0.0
 10
88.11158987597558
 20
-149.738319189996
 30
0.0
 10
88.27230358036249
 20
-149.738319189996
 30
0.0
 10
88.38650849569852
 20
-149.8168673670597
 30
0.0
 10
88.4457641380448
 20
-149.9415798236257
 30
0.0
 10
88.49657929645225
 20
-149.8526963601062
 30
0.0
 10
88.59183618661941
 20
-149.6938774582362
 30
0.0
 10
88.85418020782118
 20
-149.6938774582362
 30
0.0
 10
89.22848983229357
 20
-149.6938774582362
 30
0.0
 10
89.34493405969503
 20
-149.97327470209
 30
0.0
 10
89.34493405969503
 20
-150.2123643287663
 30
0.0
  0
HATCH
  5
F3
330
EC
100
AcDbEntity
  8
レイヤー 1
 62
   250
420
  2299925
440
 33554687
100
AcDbHatch
 10
0.0
 20
0.0
 30
0.0
210
0.0
220
0.0
230
1.0
  2
SOLID
 70
     1
 71
     1
 91
        3
 92
        1
 93
        1
 72
     4
 94
        3
 73
     0
 74
     0
 95
       17
 96
       13
 40
0.0
 40
0.0
 40
0.0
 40
0.0
 40
1.0
 40
1.0
 40
1.0
 40
2.0
 40
2.0
 40
2.0
 40
3.0
 40
3.0
 40
3.0
 40
4.0
 40
4.0
 40
4.0
 40
4.0
 10
88.5537678815074
 20
-150.2123643287663
 10
88.5537678815074
 20
-150.3560248105013
 10
88.64041203296144
 20
-150.5086425404978
 10
88.8435004118169
 20
-150.5086425404978
 10
89.04865584796352
 20
-150.5086425404978
 10
89.1502861647784
 20
-150.3815185170921
 10
89.1502861647784
 20
-150.2123643287663
 10
89.1502861647784
 20
-150.0263291725628
 10
89.02764076550351
 20
-149.9160861170348
 10
88.84987383846462
 20
-149.9160861170348
 10
88.62766517966601
 20
-149.9160861170348
 10
88.5537678815074
 20
-150.0790391334872
 10
88.5537678815074
 20
-150.2123643287663
 97
        0
 97
        1
330
F0
 92
        1
 93
        1
 72
     4
 94
        3
 73
     0
 74
     0
 95
       17
 96
       13
 40
0.0
 40
0.0
 40
0.0
 40
0.0
 40
1.0
 40
1.0
 40
1.0
 40
2.0
 40
2.0
 40
2.0
 40
3.0
 40
3.0
 40
3.0
 40
4.0
 40
4.0
 40
4.0
 40
4.0
 10
87.89368758653353
 20
-150.2123643287663
 10
87.89368758653353
 20
-150.3773844025098
 10
87.98877222192642
 20
-150.4617892418984
 10
88.12416447449674
 20
-150.4617892418984
 10
88.2469821285459
 20
-150.4617892418984
 10
88.3654934132385
 20
-150.3901312558052
 10
88.3654934132385
 20
-150.2123643287663
 10
88.3654934132385
 20
-150.0345974017274
 10
88.2469821285459
 20
-149.9625949060857
 10
88.12416447449674
 20
-149.9625949060857
 10
87.98877222192642
 20
-149.9625949060857
 10
87.89368758653353
 20
-150.049411312314
 10
87.89368758653353
 20
-150.2123643287663
 97
        0
 97
        1
330
F1
 92
        1
 93
        1
 72
     4
 94
        3
 73
     0
 74
     0
 95
       29
 96
       25
 40
0.0
 40
0.0
 40
0.0
 40
0.0
 40
1.0
 40
1.0
 40
1.0
 40
2.0
 40
2.0
 40
2.0
 40
3.0
 40
3.0
 40
3.0
 40
4.0
 40
4.0
 40
4.0
 40
5.0
 40
5.0
 40
5.0
 40
6.0
 40
6.0
 40
6.0
 40
7.0
 40
7.0
 40
7.0
 40
8.0
 40
8.0
 40
8.0
 40
8.0
 10
89.34493405969503
 20
-150.2123643287663
 10
89.34493405969503
 20
-150.4790147193247
 10
89.20730249505929
 20
-150.7325737470391
 10
88.85831432240349
 20
-150.7325737470391
 10
88.60234372784942
 20
-150.7325737470391
 10
88.50708683768226
 20
-150.5909803225953
 10
88.4457641380448
 20
-150.4852158911981
 10
88.38650849569852
 20
-150.6099283477642
 10
88.27230358036249
 20
-150.6860649579882
 10
88.11158987597558
 20
-150.6860649579882
 10
87.83649900147837
 20
-150.6860649579882
 10
87.70110674890807
 20
-150.4872829484893
 10
87.70110674890807
 20
-150.2123643287663
 10
87.70110674890807
 20
-149.9288329703303
 10
87.84493948541724
 20
-149.738319189996
 10
88.11158987597558
 20
-149.738319189996
 10
88.27230358036249
 20
-149.738319189996
 10
88.38650849569852
 20
-149.8168673670597
 10
88.4457641380448
 20
-149.9415798236257
 10
88.49657929645225
 20
-149.8526963601062
 10
88.59183618661941
 20
-149.6938774582362
 10
88.85418020782118
 20
-149.6938774582362
 10
89.22848983229357
 20
-149.6938774582362
 10
89.34493405969503
 20
-149.97327470209
 10
89.34493405969503
 20
-150.2123643287663
 97
        0
 97
        1
330
F2
 75
     2
 76
     1
 98
        1
 10
0.0
 20
0.0
450
        0
451
        0
460
0.0
461
0.0
452
        0
462
0.0
453
        0
470

  0
ENDBLK
  5
EF
330
EC
100
AcDbEntity
  8
0
100
AcDbBlockEnd
  0
BLOCK
  5
F9
330
F7
100
AcDbEntity
  8
0
100
AcDbBlockBegin
  2
Block_8
 70
     0
 10
0.0
 20
0.0
 30
0.0
  3
Block_8
  1

  0
SPLINE
  5
FB
330
F7
100
AcDbEntity
  8
レイヤー 1
100
AcDbSpline
210
0.0
220
0.0
230
1.0
 70
    11
 71
     3
 72
    26
 73
    22
 74
     0
 42
0.0000000001
 43
0.0000000001
 40
0.0
 40
0.0
 40
0.0
 40
0.0
 40
1.0
 40
1.0
 40
1.0
 40
2.0
 40
2.0
 40
2.0
 40
3.0
 40
3.0
 40
3.0
 40
4.0
 40
4.0
 40
4.0
 40
5.0
 40
5.0
 40
5.0
 40
6.0
 40
6.0
 40
6.0
 40
7.0
 40
7.0
 40
7.0
 40
7.0
 10
120.6465548743522
 20
-149.8530408696548
 30
0.0
 10
120.6465548743522
 20
-149.8530408696548
 30
0.0
 10
120.6465548743522
 20
-148.7487155118579
 30
0.0
 10
120.6465548743522
 20
-148.7487155118579
 30
0.0
 10
120.6465548743522
 20
-148.7487155118579
 30
0.0
 10
120.3165147268653
 20
-148.7487155118579
 30
0.0
 10
120.3165147268653
 20
-148.7487155118579
 30
0.0
 10
120.3165147268653
 20
-148.7487155118579
 30
0.0
 10
120.3165147268653
 20
-148.6005764059922
 30
0.0
 10
120.3165147268653
 20
-148.6005764059922
 30
0.0
 10
120.6486219316434
 20
-148.5859347501799
 30
0.0
 10
120.6951307206943
 20
-148.4229817337276
 30
0.0
 10
120.7247585418674
 20
-148.3087768183915
 30
0.0
 10
120.7247585418674
 20
-148.3087768183915
 30
0.0
 10
120.870830590442
 20
-148.3087768183915
 30
0.0
 10
120.870830590442
 20
-148.3087768183915
 30
0.0
 10
120.870830590442
 20
-148.3087768183915
 30
0.0
 10
120.870830590442
 20
-149.8530408696548
 30
0.0
 10
120.870830590442
 20
-149.8530408696548
 30
0.0
 10
120.870830590442
 20
-149.8530408696548
 30
0.0
 10
120.6465548743522
 20
-149.8530408696548
 30
0.0
 10
120.6465548743522
 20
-149.8530408696548
 30
0.0
  0
HATCH
  5
FC
330
F7
100
AcDbEntity
  8
レイヤー 1
 62
   250
420
  2299925
440
 33554687
100
AcDbHatch
 10
0.0
 20
0.0
 30
0.0
210
0.0
220
0.0
230
1.0
  2
SOLID
 70
     1
 71
     1
 91
        1
 92
        1
 93
        1
 72
     4
 94
        3
 73
     0
 74
     0
 95
       26
 96
       22
 40
0.0
 40
0.0
 40
0.0
 40
0.0
 40
1.0
 40
1.0
 40
1.0
 40
2.0
 40
2.0
 40
2.0
 40
3.0
 40
3.0
 40
3.0
 40
4.0
 40
4.0
 40
4.0
 40
5.0
 40
5.0
 40
5.0
 40
6.0
 40
6.0
 40
6.0
 40
7.0
 40
7.0
 40
7.0
 40
7.0
 10
120.6465548743522
 20
-149.8530408696548
 10
120.6465548743522
 20
-149.8530408696548
 10
120.6465548743522
 20
-148.7487155118579
 10
120.6465548743522
 20
-148.7487155118579
 10
120.6465548743522
 20
-148.7487155118579
 10
120.3165147268653
 20
-148.7487155118579
 10
120.3165147268653
 20
-148.7487155118579
 10
120.3165147268653
 20
-148.7487155118579
 10
120.3165147268653
 20
-148.6005764059922
 10
120.3165147268653
 20
-148.6005764059922
 10
120.6486219316434
 20
-148.5859347501799
 10
120.6951307206943
 20
-148.4229817337276
 10
120.7247585418674
 20
-148.3087768183915
 10
120.7247585418674
 20
-148.3087768183915
 10
120.870830590442
 20
-148.3087768183915
 10
120.870830590442
 20
-148.3087768183915
 10
120.870830590442
 20
-148.3087768183915
 10
120.870830590442
 20
-149.8530408696548
 10
120.870830590442
 20
-149.8530408696548
 10
120.870830590442
 20
-149.8530408696548
 10
120.6465548743522
 20
-149.8530408696548
 10
120.6465548743522
 20
-149.8530408696548
 97
        0
 97
        1
330
FB
 75
     2
 76
     1
 98
        1
 10
0.0
 20
0.0
450
        0
451
        0
460
0.0
461
0.0
452
        0
462
0.0
453
        0
470

  0
ENDBLK
  5
FA
330
F7
100
AcDbEntity
  8
0
100
AcDbBlockEnd
  0
BLOCK
  5
FF
330
FD
100
AcDbEntity
  8
0
100
AcDbBlockBegin
  2
Block_9
 70
     0
 10
0.0
 20
0.0
 30
0.0
  3
Block_9
  1

  0
INSERT
  5
102
330
FD
100
AcDbEntity
  8
レイヤー 1
100
AcDbBlockReference
  2
Block_10
 10
0.0
 20
0.0
 30
0.0
  0
INSERT
  5
109
330
FD
100
AcDbEntity
  8
レイヤー 1
100
AcDbBlockReference
  2
Block_11
 10
0.0
 20
0.0
 30
0.0
  0
ENDBLK
  5
100
330
FD
100
AcDbEntity
  8
0
100
AcDbBlockEnd
  0
BLOCK
  5
103
330
101
100
AcDbEntity
  8
0
100
AcDbBlockBegin
  2
Block_10
 70
     0
 10
0.0
 20
0.0
 30
0.0
  3
Block_10
  1

  0
LINE
  5
105
330
101
100
AcDbEntity
  8
レイヤー 1
 62
    18
420
        0
370
     9
100
AcDbLine
 10
98.50613165108597
 20
-147.0884695640436
 30
0.0
 11
99.31709718595207
 21
-147.6734456750084
 31
0.0
  0
LINE
  5
106
330
101
100
AcDbEntity
  8
レイヤー 1
 62
    18
420
        0
370
     9
100
AcDbLine
 10
98.50613165108597
 20
-147.0884695640436
 30
0.0
 11
101.0837376964372
 21
-150.2455837299204
 31
0.0
  0
LINE
  5
107
330
101
100
AcDbEntity
  8
レイヤー 1
 62
    18
420
        0
370
     9
100
AcDbLine
 10
98.50613165108597
 20
-147.0884695640436
 30
0.0
 11
98.91609700047467
 21
-148.0007528971486
 31
0.0
  0
ENDBLK
  5
104
330
101
100
AcDbEntity
  8
0
100
AcDbBlockEnd
  0
BLOCK
  5
10A
330
108
100
AcDbEntity
  8
0
100
AcDbBlockBegin
  2
Block_11
 70
     0
 10
0.0
 20
0.0
 30
0.0
  3
Block_11
  1

  0
INSERT
  5
10D
330
108
100
AcDbEntity
  8
レイヤー 1
100
AcDbBlockReference
  2
Block_12
 10
0.0
 20
0.0
 30
0.0
  0
ENDBLK
  5
10B
330
108
100
AcDbEntity
  8
0
100
AcDbBlockEnd
  0
BLOCK
  5
10E
330
10C
100
AcDbEntity
  8
0
100
AcDbBlockBegin
  2
Block_12
 70
     0
 10
0.0
 20
0.0
 30
0.0
  3
Block_12
  1

  0
SPLINE
  5
110
330
10C
100
AcDbEntity
  8
レイヤー 1
100
AcDbSpline
210
0.0
220
0.0
230
1.0
 70
     9
 71
     3
 72
    17
 73
    13
 74
     0
 42
0.0000000001
 43
0.0000000001
 40
0.0
 40
0.0
 40
0.0
 40
0.0
 40
1.0
 40
1.0
 40
1.0
 40
2.0
 40
2.0
 40
2.0
 40
3.0
 40
3.0
 40
3.0
 40
4.0
 40
4.0
 40
4.0
 40
4.0
 10
102.7501451023506
 20
-150.6929551489587
 30
0.0
 10
102.7332641344729
 20
-150.7225829701319
 30
0.0
 10
102.6824489760655
 20
-150.8159450577821
 30
0.0
 10
102.6719414348355
 20
-150.834893082951
 30
0.0
 10
102.8622829603955
 20
-150.8941487252973
 30
0.0
 10
102.8834702976298
 20
-150.9003498971707
 30
0.0
 10
102.9554727932715
 20
-150.9279106610527
 30
0.0
 10
103.0104220662612
 20
-150.8410942548245
 30
0.0
 10
103.0336764607867
 20
-150.7670247018916
 30
0.0
 10
103.0484903713733
 20
-150.6929551489587
 30
0.0
 10
103.0484903713733
 20
-150.6929551489587
 30
0.0
 10
102.7501451023506
 20
-150.6929551489587
 30
0.0
 10
102.7501451023506
 20
-150.6929551489587
 30
0.0
  0
SPLINE
  5
111
330
10C
100
AcDbEntity
  8
レイヤー 1
100
AcDbSpline
210
0.0
220
0.0
230
1.0
 70
    11
 71
     3
 72
    20
 73
    16
 74
     0
 42
0.0000000001
 43
0.0000000001
 40
0.0
 40
0.0
 40
0.0
 40
0.0
 40
1.0
 40
1.0
 40
1.0
 40
2.0
 40
2.0
 40
2.0
 40
3.0
 40
3.0
 40
3.0
 40
4.0
 40
4.0
 40
4.0
 40
5.0
 40
5.0
 40
5.0
 40
5.0
 10
102.686755345422
 20
-149.842705583199
 30
0.0
 10
102.686755345422
 20
-149.842705583199
 30
0.0
 10
102.6550604669577
 20
-149.842705583199
 30
0.0
 10
102.6550604669577
 20
-149.842705583199
 30
0.0
 10
102.7015692560086
 20
-149.9419243331742
 30
0.0
 10
102.7332641344729
 20
-150.0225395675291
 30
0.0
 10
102.7671983250026
 20
-150.1493190813863
 30
0.0
 10
102.7671983250026
 20
-150.1493190813863
 30
0.0
 10
102.9744208184404
 20
-150.1493190813863
 30
0.0
 10
102.9744208184404
 20
-150.1493190813863
 30
0.0
 10
103.0061156969047
 20
-150.0563015032845
 30
0.0
 10
103.0293700914301
 20
-149.9715521543474
 30
0.0
 10
103.0527967407298
 20
-149.842705583199
 30
0.0
 10
103.0527967407298
 20
-149.842705583199
 30
0.0
 10
102.686755345422
 20
-149.842705583199
 30
0.0
 10
102.686755345422
 20
-149.842705583199
 30
0.0
  0
SPLINE
  5
112
330
10C
100
AcDbEntity
  8
レイヤー 1
100
AcDbSpline
210
0.0
220
0.0
230
1.0
 70
     9
 71
     3
 72
   242
 73
   238
 74
     0
 42
0.0000000001
 43
0.0000000001
 40
0.0
 40
0.0
 40
0.0
 40
0.0
 40
1.0
 40
1.0
 40
1.0
 40
2.0
 40
2.0
 40
2.0
 40
3.0
 40
3.0
 40
3.0
 40
4.0
 40
4.0
 40
4.0
 40
5.0
 40
5.0
 40
5.0
 40
6.0
 40
6.0
 40
6.0
 40
7.0
 40
7.0
 40
7.0
 40
8.0
 40
8.0
 40
8.0
 40
9.0
 40
9.0
 40
9.0
 40
10.0
 40
10.0
 40
10.0
 40
11.0
 40
11.0
 40
11.0
 40
12.0
 40
12.0
 40
12.0
 40
13.0
 40
13.0
 40
13.0
 40
14.0
 40
14.0
 40
14.0
 40
15.0
 40
15.0
 40
15.0
 40
16.0
 40
16.0
 40
16.0
 40
17.0
 40
17.0
 40
17.0
 40
18.0
 40
18.0
 40
18.0
 40
19.0
 40
19.0
 40
19.0
 40
20.0
 40
20.0
 40
20.0
 40
21.0
 40
21.0
 40
21.0
 40
22.0
 40
22.0
 40
22.0
 40
23.0
 40
23.0
 40
23.0
 40
24.0
 40
24.0
 40
24.0
 40
25.0
 40
25.0
 40
25.0
 40
26.0
 40
26.0
 40
26.0
 40
27.0
 40
27.0
 40
27.0
 40
28.0
 40
28.0
 40
28.0
 40
29.0
 40
29.0
 40
29.0
 40
30.0
 40
30.0
 40
30.0
 40
31.0
 40
31.0
 40
31.0
 40
32.0
 40
32.0
 40
32.0
 40
33.0
 40
33.0
 40
33.0
 40
34.0
 40
34.0
 40
34.0
 40
35.0
 40
35.0
 40
35.0
 40
36.0
 40
36.0
 40
36.0
 40
37.0
 40
37.0
 40
37.0
 40
38.0
 40
38.0
 40
38.0
 40
39.0
 40
39.0
 40
39.0
 40
40.0
 40
40.0
 40
40.0
 40
41.0
 40
41.0
 40
41.0
 40
42.0
 40
42.0
 40
42.0
 40
43.0
 40
43.0
 40
43.0
 40
44.0
 40
44.0
 40
44.0
 40
45.0
 40
45.0
 40
45.0
 40
46.0
 40
46.0
 40
46.0
 40
47.0
 40
47.0
 40
47.0
 40
48.0
 40
48.0
 40
48.0
 40
49.0
 40
49.0
 40
49.0
 40
50.0
 40
50.0
 40
50.0
 40
51.0
 40
51.0
 40
51.0
 40
52.0
 40
52.0
 40
52.0
 40
53.0
 40
53.0
 40
53.0
 40
54.0
 40
54.0
 40
54.0
 40
55.0
 40
55.0
 40
55.0
 40
56.0
 40
56.0
 40
56.0
 40
57.0
 40
57.0
 40
57.0
 40
58.0
 40
58.0
 40
58.0
 40
59.0
 40
59.0
 40
59.0
 40
60.0
 40
60.0
 40
60.0
 40
61.0
 40
61.0
 40
61.0
 40
62.0
 40
62.0
 40
62.0
 40
63.0
 40
63.0
 40
63.0
 40
64.0
 40
64.0
 40
64.0
 40
65.0
 40
65.0
 40
65.0
 40
66.0
 40
66.0
 40
66.0
 40
67.0
 40
67.0
 40
67.0
 40
68.0
 40
68.0
 40
68.0
 40
69.0
 40
69.0
 40
69.0
 40
70.0
 40
70.0
 40
70.0
 40
71.0
 40
71.0
 40
71.0
 40
72.0
 40
72.0
 40
72.0
 40
73.0
 40
73.0
 40
73.0
 40
74.0
 40
74.0
 40
74.0
 40
75.0
 40
75.0
 40
75.0
 40
76.0
 40
76.0
 40
76.0
 40
77.0
 40
77.0
 40
77.0
 40
78.0
 40
78.0
 40
78.0
 40
79.0
 40
79.0
 40
79.0
 40
79.0
 10
103.3149685071574
 20
-150.3081379832563
 30
0.0
 10
103.3149685071574
 20
-150.3081379832563
 30
0.0
 10
103.0612372246687
 20
-150.3081379832563
 30
0.0
 10
103.0612372246687
 20
-150.3081379832563
 30
0.0
 10
103.0612372246687
 20
-150.3081379832563
 30
0.0
 10
102.7840792928804
 20
-150.3081379832563
 30
0.0
 10
102.7840792928804
 20
-150.3081379832563
 30
0.0
 10
102.7840792928804
 20
-150.3081379832563
 30
0.0
 10
102.9110310615118
 20
-150.3505126577249
 30
0.0
 10
102.9110310615118
 20
-150.3505126577249
 30
0.0
 10
102.9215386027418
 20
-150.3546467723072
 30
0.0
 10
102.9342854560372
 20
-150.3608479441806
 30
0.0
 10
102.9342854560372
 20
-150.373594797476
 30
0.0
 10
102.9342854560372
 20
-150.3949543894846
 30
0.0
 10
102.9025905775729
 20
-150.401155561358
 30
0.0
 10
102.8814032403386
 20
-150.4052896759403
 30
0.0
 10
102.8707234443344
 20
-150.42871632524
 30
0.0
 10
102.8410956231612
 20
-150.4941731394598
 30
0.0
 10
102.8221475979923
 20
-150.5386148712195
 30
0.0
 10
102.8221475979923
 20
-150.5386148712195
 30
0.0
 10
103.092932103133
 20
-150.5386148712195
 30
0.0
 10
103.092932103133
 20
-150.5386148712195
 30
0.0
 10
103.1838826239436
 20
-150.5386148712195
 30
0.0
 10
103.3805975761514
 20
-150.5344807566372
 30
0.0
 10
103.5223632553694
 20
-150.5258680179241
 30
0.0
 10
103.5223632553694
 20
-150.5258680179241
 30
0.0
 10
103.5223632553694
 20
-150.703634944963
 30
0.0
 10
103.5223632553694
 20
-150.703634944963
 30
0.0
 10
103.4398532184976
 20
-150.6995008303807
 30
0.0
 10
103.4186658812634
 20
-150.6995008303807
 30
0.0
 10
103.2388318969333
 20
-150.6953667157984
 30
0.0
 10
103.207137018469
 20
-150.8497069935376
 30
0.0
 10
103.1626952867093
 20
-150.9299777183439
 30
0.0
 10
103.1182535549496
 20
-150.9999131566944
 30
0.0
 10
103.2388318969333
 20
-151.0591687990407
 30
0.0
 10
103.3445963283305
 20
-151.1266926705516
 30
0.0
 10
103.4482937024365
 20
-151.2093749621977
 30
0.0
 10
103.4482937024365
 20
-151.2093749621977
 30
0.0
 10
103.3297824177439
 20
-151.3764620932323
 30
0.0
 10
103.3297824177439
 20
-151.3764620932323
 30
0.0
 10
103.3065280232185
 20
-151.3575140680634
 30
0.0
 10
103.2939534246973
 20
-151.3489013293503
 30
0.0
 10
103.1818155666524
 20
-151.2641519804131
 30
0.0
 10
103.1330674655362
 20
-151.2262559300754
 30
0.0
 10
103.0738118231899
 20
-151.1900824274802
 30
0.0
 10
102.9935410983835
 20
-151.1456406957205
 30
0.0
 10
102.7820122355892
 20
-151.3320203614725
 30
0.0
 10
102.5766845446683
 20
-151.3551025012237
 30
0.0
 10
102.2869520143588
 20
-151.3847303223968
 30
0.0
 10
102.2869520143588
 20
-151.3847303223968
 30
0.0
 10
102.1832546402528
 20
-151.2048963380668
 30
0.0
 10
102.1832546402528
 20
-151.2048963380668
 30
0.0
 10
102.5005479344443
 20
-151.2007622234845
 30
0.0
 10
102.6760755494178
 20
-151.1752685168937
 30
0.0
 10
102.8285210246401
 20
-151.0653699709142
 30
0.0
 10
102.7100097399475
 20
-151.014727067281
 30
0.0
 10
102.621126276428
 20
-150.987166303399
 30
0.0
 10
102.5851250286072
 20
-150.9744194501036
 30
0.0
 10
102.5661770034383
 20
-151.0019802139856
 30
0.0
 10
102.5513630928517
 20
-151.0209282391545
 30
0.0
 10
102.5238023289697
 20
-151.0546901749099
 30
0.0
 10
102.5238023289697
 20
-151.0546901749099
 30
0.0
 10
102.3270873767619
 20
-150.9723523928125
 30
0.0
 10
102.3270873767619
 20
-150.9723523928125
 30
0.0
 10
102.4095974136337
 20
-150.8920816680061
 30
0.0
 10
102.4709201132711
 20
-150.7966525230647
 30
0.0
 10
102.5281086983263
 20
-150.6953667157984
 30
0.0
 10
102.337594917992
 20
-150.6995008303807
 30
0.0
 10
102.3165798355319
 20
-150.6995008303807
 30
0.0
 10
102.2340697986602
 20
-150.703634944963
 30
0.0
 10
102.2340697986602
 20
-150.703634944963
 30
0.0
 10
102.2340697986602
 20
-150.5258680179241
 30
0.0
 10
102.2340697986602
 20
-150.5258680179241
 30
0.0
 10
102.3735961658128
 20
-150.5324136993461
 30
0.0
 10
102.583057971316
 20
-150.5365478139284
 30
0.0
 10
102.6083794231326
 20
-150.5365478139284
 30
0.0
 10
102.6254326457846
 20
-150.5027858781729
 30
0.0
 10
102.6803819187743
 20
-150.3822075361892
 30
0.0
 10
102.6995021987175
 20
-150.3081379832563
 30
0.0
 10
102.6803819187743
 20
-150.3081379832563
 30
0.0
 10
102.5026149917354
 20
-150.3143391551297
 30
0.0
 10
102.3079670968188
 20
-150.3270860084251
 30
0.0
 10
102.3079670968188
 20
-150.3270860084251
 30
0.0
 10
102.3079670968188
 20
-150.4604112037043
 30
0.0
 10
102.3079670968188
 20
-150.4604112037043
 30
0.0
 10
102.2593912504768
 20
-150.4859049102952
 30
0.0
 10
102.2001356081305
 20
-150.5175997887595
 30
0.0
 10
102.0668104128513
 20
-150.5830566029792
 30
0.0
 10
102.0668104128513
 20
-150.5830566029792
 30
0.0
 10
102.0668104128513
 20
-150.7291286515538
 30
0.0
 10
102.0668104128513
 20
-150.7291286515538
 30
0.0
 10
102.0668104128513
 20
-150.7291286515538
 30
0.0
 10
102.0668104128513
 20
-151.1966281089022
 30
0.0
 10
102.0668104128513
 20
-151.1966281089022
 30
0.0
 10
102.0668104128513
 20
-151.3234076227594
 30
0.0
 10
102.0309814198047
 20
-151.3826632651057
 30
0.0
 10
101.7474500613687
 20
-151.3743950359411
 30
0.0
 10
101.7474500613687
 20
-151.3743950359411
 30
0.0
 10
101.6437526872626
 20
-151.1670002877291
 30
0.0
 10
101.6437526872626
 20
-151.1670002877291
 30
0.0
 10
101.7073146989655
 20
-151.1797471410245
 30
0.0
 10
101.7558905453075
 20
-151.1838812556068
 30
0.0
 10
101.7960259077107
 20
-151.1838812556068
 30
0.0
 10
101.872334772709
 20
-151.1838812556068
 30
0.0
 10
101.882842313939
 20
-151.1604546063071
 30
0.0
 10
101.882842313939
 20
-151.0949977920873
 30
0.0
 10
101.882842313939
 20
-151.0949977920873
 30
0.0
 10
101.882842313939
 20
-150.6657388946252
 30
0.0
 10
101.882842313939
 20
-150.6657388946252
 30
0.0
 10
101.7855183664807
 20
-150.7057020022541
 30
0.0
 10
101.768637398603
 20
-150.7122476836761
 30
0.0
 10
101.7221286095521
 20
-150.731195708845
 30
0.0
 10
101.7178222401955
 20
-150.752210791305
 30
0.0
 10
101.713515870839
 20
-150.7818386124782
 30
0.0
 10
101.6945678456701
 20
-150.7818386124782
 30
0.0
 10
101.6861273617312
 20
-150.7818386124782
 30
0.0
 10
101.6754475657269
 20
-150.7777044978958
 30
0.0
 10
101.6692463938535
 20
-150.7542778485961
 30
0.0
 10
101.6692463938535
 20
-150.7542778485961
 30
0.0
 10
101.6163641781549
 20
-150.5620415205192
 30
0.0
 10
101.6163641781549
 20
-150.5620415205192
 30
0.0
 10
101.7622639719552
 20
-150.5155327314683
 30
0.0
 10
101.8278930409493
 20
-150.4921060821686
 30
0.0
 10
101.882842313939
 20
-150.4710909997086
 30
0.0
 10
101.882842313939
 20
-150.4710909997086
 30
0.0
 10
101.882842313939
 20
-150.0583685605757
 30
0.0
 10
101.882842313939
 20
-150.0583685605757
 30
0.0
 10
101.882842313939
 20
-150.0583685605757
 30
0.0
 10
101.8299600982404
 20
-150.0583685605757
 30
0.0
 10
101.8299600982404
 20
-150.0583685605757
 30
0.0
 10
101.8299600982404
 20
-150.0583685605757
 30
0.0
 10
101.7517564307252
 20
-150.0583685605757
 30
0.0
 10
101.7517564307252
 20
-150.0583685605757
 30
0.0
 10
101.6840603044401
 20
-150.0583685605757
 30
0.0
 10
101.6754475657269
 20
-150.0583685605757
 30
0.0
 10
101.6396185726804
 20
-150.0649142419976
 30
0.0
 10
101.6396185726804
 20
-150.0649142419976
 30
0.0
 10
101.6396185726804
 20
-149.870266347081
 30
0.0
 10
101.6396185726804
 20
-149.870266347081
 30
0.0
 10
101.6670070817881
 20
-149.8764675189545
 30
0.0
 10
101.6754475657269
 20
-149.8764675189545
 30
0.0
 10
101.7453830040775
 20
-149.8764675189545
 30
0.0
 10
101.7453830040775
 20
-149.8764675189545
 30
0.0
 10
101.8785359445824
 20
-149.8764675189545
 30
0.0
 10
101.8785359445824
 20
-149.8764675189545
 30
0.0
 10
101.8785359445824
 20
-149.8065320806039
 30
0.0
 10
101.8785359445824
 20
-149.7241942985064
 30
0.0
 10
101.8764688872913
 20
-149.7200601839241
 30
0.0
 10
101.8680284033524
 20
-149.5402261995941
 30
0.0
 10
101.8680284033524
 20
-149.5209336648767
 30
0.0
 10
101.8659613460613
 20
-149.4744248758258
 30
0.0
 10
101.8659613460613
 20
-149.4744248758258
 30
0.0
 10
102.0816243234379
 20
-149.483037614539
 30
0.0
 10
102.0816243234379
 20
-149.483037614539
 30
0.0
 10
102.0923041194422
 20
-149.483037614539
 30
0.0
 10
102.1134914566765
 20
-149.4851046718301
 30
0.0
 10
102.1134914566765
 20
-149.5019856397078
 30
0.0
 10
102.1134914566765
 20
-149.5209336648767
 30
0.0
 10
102.0986775460899
 20
-149.531613460881
 30
0.0
 10
102.073183839499
 20
-149.5505614860499
 30
0.0
 10
102.073183839499
 20
-149.6015488992316
 30
0.0
 10
102.0668104128513
 20
-149.8299587299036
 30
0.0
 10
102.0690497249167
 20
-149.8764675189545
 30
0.0
 10
102.1980685508393
 20
-149.8764675189545
 30
0.0
 10
102.2108154041348
 20
-149.8764675189545
 30
0.0
 10
102.3079670968188
 20
-149.8681992897899
 30
0.0
 10
102.3079670968188
 20
-149.8681992897899
 30
0.0
 10
102.3079670968188
 20
-150.062502675158
 30
0.0
 10
102.3079670968188
 20
-150.062502675158
 30
0.0
 10
102.2698987917068
 20
-150.0604356178668
 30
0.0
 10
102.2022026654217
 20
-150.0563015032845
 30
0.0
 10
102.0668104128513
 20
-150.0583685605757
 30
0.0
 10
102.0668104128513
 20
-150.0583685605757
 30
0.0
 10
102.0668104128513
 20
-150.3970214467757
 30
0.0
 10
102.0668104128513
 20
-150.3970214467757
 30
0.0
 10
102.1219319406153
 20
-150.373594797476
 30
0.0
 10
102.1873887548351
 20
-150.3460340335941
 30
0.0
 10
102.2361368559514
 20
-150.3229518938429
 30
0.0
 10
102.2361368559514
 20
-150.3229518938429
 30
0.0
 10
102.2361368559514
 20
-150.145184966804
 30
0.0
 10
102.2361368559514
 20
-150.145184966804
 30
0.0
 10
102.3503417712874
 20
-150.1579318200994
 30
0.0
 10
102.46885305598
 20
-150.1579318200994
 30
0.0
 10
102.5851250286072
 20
-150.1579318200994
 30
0.0
 10
102.5618706340817
 20
-150.062502675158
 30
0.0
 10
102.534482124974
 20
-149.9801648930605
 30
0.0
 10
102.4709201132711
 20
-149.8468396977813
 30
0.0
 10
102.4264783815114
 20
-149.8489067550725
 30
0.0
 10
102.3439683446397
 20
-149.8533853792033
 30
0.0
 10
102.3059000395277
 20
-149.8554524364945
 30
0.0
 10
102.3059000395277
 20
-149.8554524364945
 30
0.0
 10
102.3059000395277
 20
-149.6756184521644
 30
0.0
 10
102.3059000395277
 20
-149.6756184521644
 30
0.0
 10
102.430784750868
 20
-149.683886681329
 30
0.0
 10
102.6042453085503
 20
-149.6883653054598
 30
0.0
 10
102.686755345422
 20
-149.6883653054598
 30
0.0
 10
102.686755345422
 20
-149.6883653054598
 30
0.0
 10
102.7692653822938
 20
-149.6883653054598
 30
0.0
 10
102.7692653822938
 20
-149.6883653054598
 30
0.0
 10
102.7692653822938
 20
-149.5254122890075
 30
0.0
 10
102.7692653822938
 20
-149.5147324930032
 30
0.0
 10
102.7671983250026
 20
-149.4596109652392
 30
0.0
 10
102.7671983250026
 20
-149.4596109652392
 30
0.0
 10
102.9913017863181
 20
-149.4851046718301
 30
0.0
 10
102.9913017863181
 20
-149.4851046718301
 30
0.0
 10
102.9956081556747
 20
-149.4851046718301
 30
0.0
 10
103.016795492909
 20
-149.4871717291212
 30
0.0
 10
103.016795492909
 20
-149.504052696999
 30
0.0
 10
103.016795492909
 20
-149.5188666075855
 30
0.0
 10
103.0061156969047
 20
-149.5274793462987
 30
0.0
 10
102.978727187797
 20
-149.5422932568853
 30
0.0
 10
102.9723537611493
 20
-149.607750071105
 30
0.0
 10
102.9702867038581
 20
-149.6291096631135
 30
0.0
 10
102.9702867038581
 20
-149.6883653054598
 30
0.0
 10
102.9702867038581
 20
-149.6883653054598
 30
0.0
 10
103.065371339251
 20
-149.6883653054598
 30
0.0
 10
103.065371339251
 20
-149.6883653054598
 30
0.0
 10
103.1478813761227
 20
-149.6883653054598
 30
0.0
 10
103.3213419338051
 20
-149.683886681329
 30
0.0
 10
103.4462266451454
 20
-149.6756184521644
 30
0.0
 10
103.4462266451454
 20
-149.6756184521644
 30
0.0
 10
103.4462266451454
 20
-149.8554524364945
 30
0.0
 10
103.4462266451454
 20
-149.8554524364945
 30
0.0
 10
103.4165988239722
 20
-149.8533853792033
 30
0.0
 10
103.2980875392796
 20
-149.8489067550725
 30
0.0
 10
103.2579521768764
 20
-149.8468396977813
 30
0.0
 10
103.2431382662899
 20
-149.8974826014145
 30
0.0
 10
103.2092040757602
 20
-150.0097927142336
 30
0.0
 10
103.1437472615404
 20
-150.1493190813863
 30
0.0
 10
103.1859496812348
 20
-150.1493190813863
 30
0.0
 10
103.4631076130231
 20
-150.1303710562174
 30
0.0
 10
103.5244303126605
 20
-150.1283039989262
 30
0.0
 10
103.5244303126605
 20
-150.1283039989262
 30
0.0
 10
103.5244303126605
 20
-150.3122720978386
 30
0.0
 10
103.5244303126605
 20
-150.3122720978386
 30
0.0
 10
103.4948024914874
 20
-150.3122720978386
 30
0.0
 10
103.4779215236097
 20
-150.3081379832563
 30
0.0
 10
103.3149685071574
 20
-150.3081379832563
 30
0.0
  0
HATCH
  5
113
330
10C
100
AcDbEntity
  8
レイヤー 1
 62
    18
420
        0
440
 33554687
100
AcDbHatch
 10
0.0
 20
0.0
 30
0.0
210
0.0
220
0.0
230
1.0
  2
SOLID
 70
     1
 71
     1
 91
        3
 92
        1
 93
        1
 72
     4
 94
        3
 73
     0
 74
     0
 95
       17
 96
       13
 40
0.0
 40
0.0
 40
0.0
 40
0.0
 40
1.0
 40
1.0
 40
1.0
 40
2.0
 40
2.0
 40
2.0
 40
3.0
 40
3.0
 40
3.0
 40
4.0
 40
4.0
 40
4.0
 40
4.0
 10
102.7501451023506
 20
-150.6929551489587
 10
102.7332641344729
 20
-150.7225829701319
 10
102.6824489760655
 20
-150.8159450577821
 10
102.6719414348355
 20
-150.834893082951
 10
102.8622829603955
 20
-150.8941487252973
 10
102.8834702976298
 20
-150.9003498971707
 10
102.9554727932715
 20
-150.9279106610527
 10
103.0104220662612
 20
-150.8410942548245
 10
103.0336764607867
 20
-150.7670247018916
 10
103.0484903713733
 20
-150.6929551489587
 10
103.0484903713733
 20
-150.6929551489587
 10
102.7501451023506
 20
-150.6929551489587
 10
102.7501451023506
 20
-150.6929551489587
 97
        0
 97
        1
330
110
 92
        1
 93
        1
 72
     4
 94
        3
 73
     0
 74
     0
 95
       20
 96
       16
 40
0.0
 40
0.0
 40
0.0
 40
0.0
 40
1.0
 40
1.0
 40
1.0
 40
2.0
 40
2.0
 40
2.0
 40
3.0
 40
3.0
 40
3.0
 40
4.0
 40
4.0
 40
4.0
 40
5.0
 40
5.0
 40
5.0
 40
5.0
 10
102.686755345422
 20
-149.842705583199
 10
102.686755345422
 20
-149.842705583199
 10
102.6550604669577
 20
-149.842705583199
 10
102.6550604669577
 20
-149.842705583199
 10
102.7015692560086
 20
-149.9419243331742
 10
102.7332641344729
 20
-150.0225395675291
 10
102.7671983250026
 20
-150.1493190813863
 10
102.7671983250026
 20
-150.1493190813863
 10
102.9744208184404
 20
-150.1493190813863
 10
102.9744208184404
 20
-150.1493190813863
 10
103.0061156969047
 20
-150.0563015032845
 10
103.0293700914301
 20
-149.9715521543474
 10
103.0527967407298
 20
-149.842705583199
 10
103.0527967407298
 20
-149.842705583199
 10
102.686755345422
 20
-149.842705583199
 10
102.686755345422
 20
-149.842705583199
 97
        0
 97
        1
330
111
 92
        1
 93
        1
 72
     4
 94
        3
 73
     0
 74
     0
 95
      242
 96
      238
 40
0.0
 40
0.0
 40
0.0
 40
0.0
 40
1.0
 40
1.0
 40
1.0
 40
2.0
 40
2.0
 40
2.0
 40
3.0
 40
3.0
 40
3.0
 40
4.0
 40
4.0
 40
4.0
 40
5.0
 40
5.0
 40
5.0
 40
6.0
 40
6.0
 40
6.0
 40
7.0
 40
7.0
 40
7.0
 40
8.0
 40
8.0
 40
8.0
 40
9.0
 40
9.0
 40
9.0
 40
10.0
 40
10.0
 40
10.0
 40
11.0
 40
11.0
 40
11.0
 40
12.0
 40
12.0
 40
12.0
 40
13.0
 40
13.0
 40
13.0
 40
14.0
 40
14.0
 40
14.0
 40
15.0
 40
15.0
 40
15.0
 40
16.0
 40
16.0
 40
16.0
 40
17.0
 40
17.0
 40
17.0
 40
18.0
 40
18.0
 40
18.0
 40
19.0
 40
19.0
 40
19.0
 40
20.0
 40
20.0
 40
20.0
 40
21.0
 40
21.0
 40
21.0
 40
22.0
 40
22.0
 40
22.0
 40
23.0
 40
23.0
 40
23.0
 40
24.0
 40
24.0
 40
24.0
 40
25.0
 40
25.0
 40
25.0
 40
26.0
 40
26.0
 40
26.0
 40
27.0
 40
27.0
 40
27.0
 40
28.0
 40
28.0
 40
28.0
 40
29.0
 40
29.0
 40
29.0
 40
30.0
 40
30.0
 40
30.0
 40
31.0
 40
31.0
 40
31.0
 40
32.0
 40
32.0
 40
32.0
 40
33.0
 40
33.0
 40
33.0
 40
34.0
 40
34.0
 40
34.0
 40
35.0
 40
35.0
 40
35.0
 40
36.0
 40
36.0
 40
36.0
 40
37.0
 40
37.0
 40
37.0
 40
38.0
 40
38.0
 40
38.0
 40
39.0
 40
39.0
 40
39.0
 40
40.0
 40
40.0
 40
40.0
 40
41.0
 40
41.0
 40
41.0
 40
42.0
 40
42.0
 40
42.0
 40
43.0
 40
43.0
 40
43.0
 40
44.0
 40
44.0
 40
44.0
 40
45.0
 40
45.0
 40
45.0
 40
46.0
 40
46.0
 40
46.0
 40
47.0
 40
47.0
 40
47.0
 40
48.0
 40
48.0
 40
48.0
 40
49.0
 40
49.0
 40
49.0
 40
50.0
 40
50.0
 40
50.0
 40
51.0
 40
51.0
 40
51.0
 40
52.0
 40
52.0
 40
52.0
 40
53.0
 40
53.0
 40
53.0
 40
54.0
 40
54.0
 40
54.0
 40
55.0
 40
55.0
 40
55.0
 40
56.0
 40
56.0
 40
56.0
 40
57.0
 40
57.0
 40
57.0
 40
58.0
 40
58.0
 40
58.0
 40
59.0
 40
59.0
 40
59.0
 40
60.0
 40
60.0
 40
60.0
 40
61.0
 40
61.0
 40
61.0
 40
62.0
 40
62.0
 40
62.0
 40
63.0
 40
63.0
 40
63.0
 40
64.0
 40
64.0
 40
64.0
 40
65.0
 40
65.0
 40
65.0
 40
66.0
 40
66.0
 40
66.0
 40
67.0
 40
67.0
 40
67.0
 40
68.0
 40
68.0
 40
68.0
 40
69.0
 40
69.0
 40
69.0
 40
70.0
 40
70.0
 40
70.0
 40
71.0
 40
71.0
 40
71.0
 40
72.0
 40
72.0
 40
72.0
 40
73.0
 40
73.0
 40
73.0
 40
74.0
 40
74.0
 40
74.0
 40
75.0
 40
75.0
 40
75.0
 40
76.0
 40
76.0
 40
76.0
 40
77.0
 40
77.0
 40
77.0
 40
78.0
 40
78.0
 40
78.0
 40
79.0
 40
79.0
 40
79.0
 40
79.0
 10
103.3149685071574
 20
-150.3081379832563
 10
103.3149685071574
 20
-150.3081379832563
 10
103.0612372246687
 20
-150.3081379832563
 10
103.0612372246687
 20
-150.3081379832563
 10
103.0612372246687
 20
-150.3081379832563
 10
102.7840792928804
 20
-150.3081379832563
 10
102.7840792928804
 20
-150.3081379832563
 10
102.7840792928804
 20
-150.3081379832563
 10
102.9110310615118
 20
-150.3505126577249
 10
102.9110310615118
 20
-150.3505126577249
 10
102.9215386027418
 20
-150.3546467723072
 10
102.9342854560372
 20
-150.3608479441806
 10
102.9342854560372
 20
-150.373594797476
 10
102.9342854560372
 20
-150.3949543894846
 10
102.9025905775729
 20
-150.401155561358
 10
102.8814032403386
 20
-150.4052896759403
 10
102.8707234443344
 20
-150.42871632524
 10
102.8410956231612
 20
-150.4941731394598
 10
102.8221475979923
 20
-150.5386148712195
 10
102.8221475979923
 20
-150.5386148712195
 10
103.092932103133
 20
-150.5386148712195
 10
103.092932103133
 20
-150.5386148712195
 10
103.1838826239436
 20
-150.5386148712195
 10
103.3805975761514
 20
-150.5344807566372
 10
103.5223632553694
 20
-150.5258680179241
 10
103.5223632553694
 20
-150.5258680179241
 10
103.5223632553694
 20
-150.703634944963
 10
103.5223632553694
 20
-150.703634944963
 10
103.4398532184976
 20
-150.6995008303807
 10
103.4186658812634
 20
-150.6995008303807
 10
103.2388318969333
 20
-150.6953667157984
 10
103.207137018469
 20
-150.8497069935376
 10
103.1626952867093
 20
-150.9299777183439
 10
103.1182535549496
 20
-150.9999131566944
 10
103.2388318969333
 20
-151.0591687990407
 10
103.3445963283305
 20
-151.1266926705516
 10
103.4482937024365
 20
-151.2093749621977
 10
103.4482937024365
 20
-151.2093749621977
 10
103.3297824177439
 20
-151.3764620932323
 10
103.3297824177439
 20
-151.3764620932323
 10
103.3065280232185
 20
-151.3575140680634
 10
103.2939534246973
 20
-151.3489013293503
 10
103.1818155666524
 20
-151.2641519804131
 10
103.1330674655362
 20
-151.2262559300754
 10
103.0738118231899
 20
-151.1900824274802
 10
102.9935410983835
 20
-151.1456406957205
 10
102.7820122355892
 20
-151.3320203614725
 10
102.5766845446683
 20
-151.3551025012237
 10
102.2869520143588
 20
-151.3847303223968
 10
102.2869520143588
 20
-151.3847303223968
 10
102.1832546402528
 20
-151.2048963380668
 10
102.1832546402528
 20
-151.2048963380668
 10
102.5005479344443
 20
-151.2007622234845
 10
102.6760755494178
 20
-151.1752685168937
 10
102.8285210246401
 20
-151.0653699709142
 10
102.7100097399475
 20
-151.014727067281
 10
102.621126276428
 20
-150.987166303399
 10
102.5851250286072
 20
-150.9744194501036
 10
102.5661770034383
 20
-151.0019802139856
 10
102.5513630928517
 20
-151.0209282391545
 10
102.5238023289697
 20
-151.0546901749099
 10
102.5238023289697
 20
-151.0546901749099
 10
102.3270873767619
 20
-150.9723523928125
 10
102.3270873767619
 20
-150.9723523928125
 10
102.4095974136337
 20
-150.8920816680061
 10
102.4709201132711
 20
-150.7966525230647
 10
102.5281086983263
 20
-150.6953667157984
 10
102.337594917992
 20
-150.6995008303807
 10
102.3165798355319
 20
-150.6995008303807
 10
102.2340697986602
 20
-150.703634944963
 10
102.2340697986602
 20
-150.703634944963
 10
102.2340697986602
 20
-150.5258680179241
 10
102.2340697986602
 20
-150.5258680179241
 10
102.3735961658128
 20
-150.5324136993461
 10
102.583057971316
 20
-150.5365478139284
 10
102.6083794231326
 20
-150.5365478139284
 10
102.6254326457846
 20
-150.5027858781729
 10
102.6803819187743
 20
-150.3822075361892
 10
102.6995021987175
 20
-150.3081379832563
 10
102.6803819187743
 20
-150.3081379832563
 10
102.5026149917354
 20
-150.3143391551297
 10
102.3079670968188
 20
-150.3270860084251
 10
102.3079670968188
 20
-150.3270860084251
 10
102.3079670968188
 20
-150.4604112037043
 10
102.3079670968188
 20
-150.4604112037043
 10
102.2593912504768
 20
-150.4859049102952
 10
102.2001356081305
 20
-150.5175997887595
 10
102.0668104128513
 20
-150.5830566029792
 10
102.0668104128513
 20
-150.5830566029792
 10
102.0668104128513
 20
-150.7291286515538
 10
102.0668104128513
 20
-150.7291286515538
 10
102.0668104128513
 20
-150.7291286515538
 10
102.0668104128513
 20
-151.1966281089022
 10
102.0668104128513
 20
-151.1966281089022
 10
102.0668104128513
 20
-151.3234076227594
 10
102.0309814198047
 20
-151.3826632651057
 10
101.7474500613687
 20
-151.3743950359411
 10
101.7474500613687
 20
-151.3743950359411
 10
101.6437526872626
 20
-151.1670002877291
 10
101.6437526872626
 20
-151.1670002877291
 10
101.7073146989655
 20
-151.1797471410245
 10
101.7558905453075
 20
-151.1838812556068
 10
101.7960259077107
 20
-151.1838812556068
 10
101.872334772709
 20
-151.1838812556068
 10
101.882842313939
 20
-151.1604546063071
 10
101.882842313939
 20
-151.0949977920873
 10
101.882842313939
 20
-151.0949977920873
 10
101.882842313939
 20
-150.6657388946252
 10
101.882842313939
 20
-150.6657388946252
 10
101.7855183664807
 20
-150.7057020022541
 10
101.768637398603
 20
-150.7122476836761
 10
101.7221286095521
 20
-150.731195708845
 10
101.7178222401955
 20
-150.752210791305
 10
101.713515870839
 20
-150.7818386124782
 10
101.6945678456701
 20
-150.7818386124782
 10
101.6861273617312
 20
-150.7818386124782
 10
101.6754475657269
 20
-150.7777044978958
 10
101.6692463938535
 20
-150.7542778485961
 10
101.6692463938535
 20
-150.7542778485961
 10
101.6163641781549
 20
-150.5620415205192
 10
101.6163641781549
 20
-150.5620415205192
 10
101.7622639719552
 20
-150.5155327314683
 10
101.8278930409493
 20
-150.4921060821686
 10
101.882842313939
 20
-150.4710909997086
 10
101.882842313939
 20
-150.4710909997086
 10
101.882842313939
 20
-150.0583685605757
 10
101.882842313939
 20
-150.0583685605757
 10
101.882842313939
 20
-150.0583685605757
 10
101.8299600982404
 20
-150.0583685605757
 10
101.8299600982404
 20
-150.0583685605757
 10
101.8299600982404
 20
-150.0583685605757
 10
101.7517564307252
 20
-150.0583685605757
 10
101.7517564307252
 20
-150.0583685605757
 10
101.6840603044401
 20
-150.0583685605757
 10
101.6754475657269
 20
-150.0583685605757
 10
101.6396185726804
 20
-150.0649142419976
 10
101.6396185726804
 20
-150.0649142419976
 10
101.6396185726804
 20
-149.870266347081
 10
101.6396185726804
 20
-149.870266347081
 10
101.6670070817881
 20
-149.8764675189545
 10
101.6754475657269
 20
-149.8764675189545
 10
101.7453830040775
 20
-149.8764675189545
 10
101.7453830040775
 20
-149.8764675189545
 10
101.8785359445824
 20
-149.8764675189545
 10
101.8785359445824
 20
-149.8764675189545
 10
101.8785359445824
 20
-149.8065320806039
 10
101.8785359445824
 20
-149.7241942985064
 10
101.8764688872913
 20
-149.7200601839241
 10
101.8680284033524
 20
-149.5402261995941
 10
101.8680284033524
 20
-149.5209336648767
 10
101.8659613460613
 20
-149.4744248758258
 10
101.8659613460613
 20
-149.4744248758258
 10
102.0816243234379
 20
-149.483037614539
 10
102.0816243234379
 20
-149.483037614539
 10
102.0923041194422
 20
-149.483037614539
 10
102.1134914566765
 20
-149.4851046718301
 10
102.1134914566765
 20
-149.5019856397078
 10
102.1134914566765
 20
-149.5209336648767
 10
102.0986775460899
 20
-149.531613460881
 10
102.073183839499
 20
-149.5505614860499
 10
102.073183839499
 20
-149.6015488992316
 10
102.0668104128513
 20
-149.8299587299036
 10
102.0690497249167
 20
-149.8764675189545
 10
102.1980685508393
 20
-149.8764675189545
 10
102.2108154041348
 20
-149.8764675189545
 10
102.3079670968188
 20
-149.8681992897899
 10
102.3079670968188
 20
-149.8681992897899
 10
102.3079670968188
 20
-150.062502675158
 10
102.3079670968188
 20
-150.062502675158
 10
102.2698987917068
 20
-150.0604356178668
 10
102.2022026654217
 20
-150.0563015032845
 10
102.0668104128513
 20
-150.0583685605757
 10
102.0668104128513
 20
-150.0583685605757
 10
102.0668104128513
 20
-150.3970214467757
 10
102.0668104128513
 20
-150.3970214467757
 10
102.1219319406153
 20
-150.373594797476
 10
102.1873887548351
 20
-150.3460340335941
 10
102.2361368559514
 20
-150.3229518938429
 10
102.2361368559514
 20
-150.3229518938429
 10
102.2361368559514
 20
-150.145184966804
 10
102.2361368559514
 20
-150.145184966804
 10
102.3503417712874
 20
-150.1579318200994
 10
102.46885305598
 20
-150.1579318200994
 10
102.5851250286072
 20
-150.1579318200994
 10
102.5618706340817
 20
-150.062502675158
 10
102.534482124974
 20
-149.9801648930605
 10
102.4709201132711
 20
-149.8468396977813
 10
102.4264783815114
 20
-149.8489067550725
 10
102.3439683446397
 20
-149.8533853792033
 10
102.3059000395277
 20
-149.8554524364945
 10
102.3059000395277
 20
-149.8554524364945
 10
102.3059000395277
 20
-149.6756184521644
 10
102.3059000395277
 20
-149.6756184521644
 10
102.430784750868
 20
-149.683886681329
 10
102.6042453085503
 20
-149.6883653054598
 10
102.686755345422
 20
-149.6883653054598
 10
102.686755345422
 20
-149.6883653054598
 10
102.7692653822938
 20
-149.6883653054598
 10
102.7692653822938
 20
-149.6883653054598
 10
102.7692653822938
 20
-149.5254122890075
 10
102.7692653822938
 20
-149.5147324930032
 10
102.7671983250026
 20
-149.4596109652392
 10
102.7671983250026
 20
-149.4596109652392
 10
102.9913017863181
 20
-149.4851046718301
 10
102.9913017863181
 20
-149.4851046718301
 10
102.9956081556747
 20
-149.4851046718301
 10
103.016795492909
 20
-149.4871717291212
 10
103.016795492909
 20
-149.504052696999
 10
103.016795492909
 20
-149.5188666075855
 10
103.0061156969047
 20
-149.5274793462987
 10
102.978727187797
 20
-149.5422932568853
 10
102.9723537611493
 20
-149.607750071105
 10
102.9702867038581
 20
-149.6291096631135
 10
102.9702867038581
 20
-149.6883653054598
 10
102.9702867038581
 20
-149.6883653054598
 10
103.065371339251
 20
-149.6883653054598
 10
103.065371339251
 20
-149.6883653054598
 10
103.1478813761227
 20
-149.6883653054598
 10
103.3213419338051
 20
-149.683886681329
 10
103.4462266451454
 20
-149.6756184521644
 10
103.4462266451454
 20
-149.6756184521644
 10
103.4462266451454
 20
-149.8554524364945
 10
103.4462266451454
 20
-149.8554524364945
 10
103.4165988239722
 20
-149.8533853792033
 10
103.2980875392796
 20
-149.8489067550725
 10
103.2579521768764
 20
-149.8468396977813
 10
103.2431382662899
 20
-149.8974826014145
 10
103.2092040757602
 20
-150.0097927142336
 10
103.1437472615404
 20
-150.1493190813863
 10
103.1859496812348
 20
-150.1493190813863
 10
103.4631076130231
 20
-150.1303710562174
 10
103.5244303126605
 20
-150.1283039989262
 10
103.5244303126605
 20
-150.1283039989262
 10
103.5244303126605
 20
-150.3122720978386
 10
103.5244303126605
 20
-150.3122720978386
 10
103.4948024914874
 20
-150.3122720978386
 10
103.4779215236097
 20
-150.3081379832563
 10
103.3149685071574
 20
-150.3081379832563
 97
        0
 97
        1
330
112
 75
     2
 76
     1
 98
        1
 10
0.0
 20
0.0
450
        0
451
        0
460
0.0
461
0.0
452
        0
462
0.0
453
        0
470

  0
SPLINE
  5
114
330
10C
100
AcDbEntity
  8
レイヤー 1
100
AcDbSpline
210
0.0
220
0.0
230
1.0
 70
    11
 71
     3
 72
    17
 73
    13
 74
     0
 42
0.0000000001
 43
0.0000000001
 40
0.0
 40
0.0
 40
0.0
 40
0.0
 40
1.0
 40
1.0
 40
1.0
 40
2.0
 40
2.0
 40
2.0
 40
3.0
 40
3.0
 40
3.0
 40
4.0
 40
4.0
 40
4.0
 40
4.0
 10
105.1715304641585
 20
-151.1077446453828
 30
0.0
 10
105.1715304641585
 20
-151.1077446453828
 30
0.0
 10
104.4649413801337
 20
-151.1077446453828
 30
0.0
 10
104.4649413801337
 20
-151.1077446453828
 30
0.0
 10
104.4649413801337
 20
-151.1077446453828
 30
0.0
 10
104.4649413801337
 20
-151.2221218154931
 30
0.0
 10
104.4649413801337
 20
-151.2221218154931
 30
0.0
 10
104.4649413801337
 20
-151.2221218154931
 30
0.0
 10
105.1715304641585
 20
-151.2221218154931
 30
0.0
 10
105.1715304641585
 20
-151.2221218154931
 30
0.0
 10
105.1715304641585
 20
-151.2221218154931
 30
0.0
 10
105.1715304641585
 20
-151.1077446453828
 30
0.0
 10
105.1715304641585
 20
-151.1077446453828
 30
0.0
  0
SPLINE
  5
115
330
10C
100
AcDbEntity
  8
レイヤー 1
100
AcDbSpline
210
0.0
220
0.0
230
1.0
 70
    11
 71
     3
 72
    17
 73
    13
 74
     0
 42
0.0000000001
 43
0.0000000001
 40
0.0
 40
0.0
 40
0.0
 40
0.0
 40
1.0
 40
1.0
 40
1.0
 40
2.0
 40
2.0
 40
2.0
 40
3.0
 40
3.0
 40
3.0
 40
4.0
 40
4.0
 40
4.0
 40
4.0
 10
105.1715304641585
 20
-150.8645209041241
 30
0.0
 10
105.1715304641585
 20
-150.8645209041241
 30
0.0
 10
104.4649413801337
 20
-150.8645209041241
 30
0.0
 10
104.4649413801337
 20
-150.8645209041241
 30
0.0
 10
104.4649413801337
 20
-150.8645209041241
 30
0.0
 10
104.4649413801337
 20
-150.9785535646859
 30
0.0
 10
104.4649413801337
 20
-150.9785535646859
 30
0.0
 10
104.4649413801337
 20
-150.9785535646859
 30
0.0
 10
105.1715304641585
 20
-150.9785535646859
 30
0.0
 10
105.1715304641585
 20
-150.9785535646859
 30
0.0
 10
105.1715304641585
 20
-150.9785535646859
 30
0.0
 10
105.1715304641585
 20
-150.8645209041241
 30
0.0
 10
105.1715304641585
 20
-150.8645209041241
 30
0.0
  0
SPLINE
  5
116
330
10C
100
AcDbEntity
  8
レイヤー 1
100
AcDbSpline
210
0.0
220
0.0
230
1.0
 70
    11
 71
     3
 72
    17
 73
    13
 74
     0
 42
0.0000000001
 43
0.0000000001
 40
0.0
 40
0.0
 40
0.0
 40
0.0
 40
1.0
 40
1.0
 40
1.0
 40
2.0
 40
2.0
 40
2.0
 40
3.0
 40
3.0
 40
3.0
 40
4.0
 40
4.0
 40
4.0
 40
4.0
 10
105.1715304641585
 20
-150.6316324493212
 30
0.0
 10
105.1715304641585
 20
-150.6316324493212
 30
0.0
 10
104.4649413801337
 20
-150.6316324493212
 30
0.0
 10
104.4649413801337
 20
-150.6316324493212
 30
0.0
 10
104.4649413801337
 20
-150.6316324493212
 30
0.0
 10
104.4649413801337
 20
-150.7394639380096
 30
0.0
 10
104.4649413801337
 20
-150.7394639380096
 30
0.0
 10
104.4649413801337
 20
-150.7394639380096
 30
0.0
 10
105.1715304641585
 20
-150.7394639380096
 30
0.0
 10
105.1715304641585
 20
-150.7394639380096
 30
0.0
 10
105.1715304641585
 20
-150.7394639380096
 30
0.0
 10
105.1715304641585
 20
-150.6316324493212
 30
0.0
 10
105.1715304641585
 20
-150.6316324493212
 30
0.0
  0
SPLINE
  5
117
330
10C
100
AcDbEntity
  8
レイヤー 1
100
AcDbSpline
210
0.0
220
0.0
230
1.0
 70
     9
 71
     3
 72
   203
 73
   199
 74
     0
 42
0.0000000001
 43
0.0000000001
 40
0.0
 40
0.0
 40
0.0
 40
0.0
 40
1.0
 40
1.0
 40
1.0
 40
2.0
 40
2.0
 40
2.0
 40
3.0
 40
3.0
 40
3.0
 40
4.0
 40
4.0
 40
4.0
 40
5.0
 40
5.0
 40
5.0
 40
6.0
 40
6.0
 40
6.0
 40
7.0
 40
7.0
 40
7.0
 40
8.0
 40
8.0
 40
8.0
 40
9.0
 40
9.0
 40
9.0
 40
10.0
 40
10.0
 40
10.0
 40
11.0
 40
11.0
 40
11.0
 40
12.0
 40
12.0
 40
12.0
 40
13.0
 40
13.0
 40
13.0
 40
14.0
 40
14.0
 40
14.0
 40
15.0
 40
15.0
 40
15.0
 40
16.0
 40
16.0
 40
16.0
 40
17.0
 40
17.0
 40
17.0
 40
18.0
 40
18.0
 40
18.0
 40
19.0
 40
19.0
 40
19.0
 40
20.0
 40
20.0
 40
20.0
 40
21.0
 40
21.0
 40
21.0
 40
22.0
 40
22.0
 40
22.0
 40
23.0
 40
23.0
 40
23.0
 40
24.0
 40
24.0
 40
24.0
 40
25.0
 40
25.0
 40
25.0
 40
26.0
 40
26.0
 40
26.0
 40
27.0
 40
27.0
 40
27.0
 40
28.0
 40
28.0
 40
28.0
 40
29.0
 40
29.0
 40
29.0
 40
30.0
 40
30.0
 40
30.0
 40
31.0
 40
31.0
 40
31.0
 40
32.0
 40
32.0
 40
32.0
 40
33.0
 40
33.0
 40
33.0
 40
34.0
 40
34.0
 40
34.0
 40
35.0
 40
35.0
 40
35.0
 40
36.0
 40
36.0
 40
36.0
 40
37.0
 40
37.0
 40
37.0
 40
38.0
 40
38.0
 40
38.0
 40
39.0
 40
39.0
 40
39.0
 40
40.0
 40
40.0
 40
40.0
 40
41.0
 40
41.0
 40
41.0
 40
42.0
 40
42.0
 40
42.0
 40
43.0
 40
43.0
 40
43.0
 40
44.0
 40
44.0
 40
44.0
 40
45.0
 40
45.0
 40
45.0
 40
46.0
 40
46.0
 40
46.0
 40
47.0
 40
47.0
 40
47.0
 40
48.0
 40
48.0
 40
48.0
 40
49.0
 40
49.0
 40
49.0
 40
50.0
 40
50.0
 40
50.0
 40
51.0
 40
51.0
 40
51.0
 40
52.0
 40
52.0
 40
52.0
 40
53.0
 40
53.0
 40
53.0
 40
54.0
 40
54.0
 40
54.0
 40
55.0
 40
55.0
 40
55.0
 40
56.0
 40
56.0
 40
56.0
 40
57.0
 40
57.0
 40
57.0
 40
58.0
 40
58.0
 40
58.0
 40
59.0
 40
59.0
 40
59.0
 40
60.0
 40
60.0
 40
60.0
 40
61.0
 40
61.0
 40
61.0
 40
62.0
 40
62.0
 40
62.0
 40
63.0
 40
63.0
 40
63.0
 40
64.0
 40
64.0
 40
64.0
 40
65.0
 40
65.0
 40
65.0
 40
66.0
 40
66.0
 40
66.0
 40
66.0
 10
105.006510390415
 20
-150.3756618547672
 30
0.0
 10
105.006510390415
 20
-150.3756618547672
 30
0.0
 10
104.448060412256
 20
-150.3756618547672
 30
0.0
 10
104.448060412256
 20
-150.3756618547672
 30
0.0
 10
104.4373806162518
 20
-150.4201035865269
 30
0.0
 10
104.4289401323129
 20
-150.4517984649912
 30
0.0
 10
104.4161932790174
 20
-150.4900390248775
 30
0.0
 10
104.4416869856083
 20
-150.4900390248775
 30
0.0
 10
104.4565008961949
 20
-150.4921060821686
 30
0.0
 10
104.4628743228426
 20
-150.4921060821686
 30
0.0
 10
104.4628743228426
 20
-150.4921060821686
 30
0.0
 10
104.6511487911115
 20
-150.4921060821686
 30
0.0
 10
104.6511487911115
 20
-150.4921060821686
 30
0.0
 10
104.6511487911115
 20
-150.4921060821686
 30
0.0
 10
105.0254584155839
 20
-150.4921060821686
 30
0.0
 10
105.0254584155839
 20
-150.4921060821686
 30
0.0
 10
105.0762735739913
 20
-150.4921060821686
 30
0.0
 10
105.3598049324274
 20
-150.4793592288732
 30
0.0
 10
105.3914998108917
 20
-150.4793592288732
 30
0.0
 10
105.3894327536005
 20
-150.5069199927552
 30
0.0
 10
105.3871934415351
 20
-150.5258680179241
 30
0.0
 10
105.3871934415351
 20
-150.5554958390972
 30
0.0
 10
105.385126384244
 20
-150.5871907175615
 30
0.0
 10
105.385126384244
 20
-150.7225829701319
 30
0.0
 10
105.385126384244
 20
-150.7501437340138
 30
0.0
 10
105.385126384244
 20
-150.7501437340138
 30
0.0
 10
105.385126384244
 20
-150.9954345325636
 30
0.0
 10
105.385126384244
 20
-150.9954345325636
 30
0.0
 10
105.385126384244
 20
-151.0398762643234
 30
0.0
 10
105.3894327536005
 20
-151.2369357260796
 30
0.0
 10
105.3935668681828
 20
-151.3892089465277
 30
0.0
 10
105.3935668681828
 20
-151.3892089465277
 30
0.0
 10
105.1672240948019
 20
-151.3892089465277
 30
0.0
 10
105.1672240948019
 20
-151.3892089465277
 30
0.0
 10
105.1672240948019
 20
-151.3892089465277
 30
0.0
 10
105.1694634068673
 20
-151.3551025012237
 30
0.0
 10
105.1694634068673
 20
-151.3551025012237
 30
0.0
 10
105.1694634068673
 20
-151.3551025012237
 30
0.0
 10
104.4670084374249
 20
-151.3551025012237
 30
0.0
 10
104.4670084374249
 20
-151.3551025012237
 30
0.0
 10
104.4670084374249
 20
-151.3551025012237
 30
0.0
 10
104.469075494716
 20
-151.3892089465277
 30
0.0
 10
104.469075494716
 20
-151.3892089465277
 30
0.0
 10
104.469075494716
 20
-151.3892089465277
 30
0.0
 10
104.251173205274
 20
-151.3892089465277
 30
0.0
 10
104.251173205274
 20
-151.3892089465277
 30
0.0
 10
104.2554795746306
 20
-151.3340874187637
 30
0.0
 10
104.2554795746306
 20
-151.3213405654683
 30
0.0
 10
104.2618530012783
 20
-151.2073079049065
 30
0.0
 10
104.2639200585694
 20
-151.1797471410245
 30
0.0
 10
104.2659871158606
 20
-151.0464219457453
 30
0.0
 10
104.2659871158606
 20
-151.0274739205765
 30
0.0
 10
104.2659871158606
 20
-151.0274739205765
 30
0.0
 10
104.2659871158606
 20
-150.8242132869467
 30
0.0
 10
104.2659871158606
 20
-150.8242132869467
 30
0.0
 10
104.1264607487079
 20
-151.0739827096273
 30
0.0
 10
103.9571343056079
 20
-151.2048963380668
 30
0.0
 10
103.8513698742107
 20
-151.2706976618351
 30
0.0
 10
103.8513698742107
 20
-151.2706976618351
 30
0.0
 10
103.6779093165284
 20
-151.1308267851339
 30
0.0
 10
103.6779093165284
 20
-151.1308267851339
 30
0.0
 10
103.7667927800479
 20
-151.0801838815008
 30
0.0
 10
103.910625516557
 20
-150.9933674752725
 30
0.0
 10
104.0480848264185
 20
-150.7987195803559
 30
0.0
 10
104.1392076020034
 20
-150.6719400664987
 30
0.0
 10
104.2046644162231
 20
-150.5279350752152
 30
0.0
 10
104.2385986067528
 20
-150.3756618547672
 30
0.0
 10
104.0100165213065
 20
-150.3777289120583
 30
0.0
 10
103.8301825369765
 20
-150.3842745934803
 30
0.0
 10
103.7350979015836
 20
-150.3863416507714
 30
0.0
 10
103.7350979015836
 20
-150.3863416507714
 30
0.0
 10
103.7350979015836
 20
-150.2085747237326
 30
0.0
 10
103.7350979015836
 20
-150.2085747237326
 30
0.0
 10
103.9318128537913
 20
-150.2151204051545
 30
0.0
 10
104.2153442122274
 20
-150.2192545197369
 30
0.0
 10
104.3655503753843
 20
-150.2192545197369
 30
0.0
 10
104.3655503753843
 20
-150.2192545197369
 30
0.0
 10
104.5791462954698
 20
-150.2192545197369
 30
0.0
 10
104.5791462954698
 20
-150.2192545197369
 30
0.0
 10
104.5791462954698
 20
-150.2192545197369
 30
0.0
 10
104.5791462954698
 20
-150.1114230310485
 30
0.0
 10
104.5791462954698
 20
-150.1114230310485
 30
0.0
 10
104.5791462954698
 20
-150.1114230310485
 30
0.0
 10
104.4332465016694
 20
-150.1114230310485
 30
0.0
 10
104.4332465016694
 20
-150.1114230310485
 30
0.0
 10
104.2639200585694
 20
-150.1114230310485
 30
0.0
 10
104.0947658702437
 20
-150.1155571456308
 30
0.0
 10
103.9275064844348
 20
-150.1217583175043
 30
0.0
 10
103.9275064844348
 20
-150.1217583175043
 30
0.0
 10
103.9275064844348
 20
-149.9505370718873
 30
0.0
 10
103.9275064844348
 20
-149.9505370718873
 30
0.0
 10
104.0820190169482
 20
-149.9612168678916
 30
0.0
 10
104.268226427926
 20
-149.9612168678916
 30
0.0
 10
104.4332465016694
 20
-149.9612168678916
 30
0.0
 10
104.4332465016694
 20
-149.9612168678916
 30
0.0
 10
104.5791462954698
 20
-149.9612168678916
 30
0.0
 10
104.5791462954698
 20
-149.9612168678916
 30
0.0
 10
104.5791462954698
 20
-149.9612168678916
 30
0.0
 10
104.5791462954698
 20
-149.842705583199
 30
0.0
 10
104.5791462954698
 20
-149.842705583199
 30
0.0
 10
104.5791462954698
 20
-149.842705583199
 30
0.0
 10
104.448060412256
 20
-149.842705583199
 30
0.0
 10
104.448060412256
 20
-149.842705583199
 30
0.0
 10
104.4013793684309
 20
-149.842705583199
 30
0.0
 10
104.1982909895754
 20
-149.8509738123637
 30
0.0
 10
104.1560885698811
 20
-149.8509738123637
 30
0.0
 10
103.9530001910256
 20
-149.8554524364945
 30
0.0
 10
103.8768635808016
 20
-149.8575194937856
 30
0.0
 10
103.7984876585122
 20
-149.8595865510768
 30
0.0
 10
103.7984876585122
 20
-149.8595865510768
 30
0.0
 10
103.7984876585122
 20
-149.6756184521644
 30
0.0
 10
103.7984876585122
 20
-149.6756184521644
 30
0.0
 10
103.9126925738482
 20
-149.683886681329
 30
0.0
 10
103.9571343056079
 20
-149.683886681329
 30
0.0
 10
104.3400566687934
 20
-149.6924994200421
 30
0.0
 10
104.2766669118648
 20
-149.5974147846492
 30
0.0
 10
104.2491061479829
 20
-149.5698540207672
 30
0.0
 10
104.213104900162
 20
-149.5336805181721
 30
0.0
 10
104.213104900162
 20
-149.5336805181721
 30
0.0
 10
104.3888047699097
 20
-149.4513427360747
 30
0.0
 10
104.3888047699097
 20
-149.4513427360747
 30
0.0
 10
104.4289401323129
 20
-149.4871717291212
 30
0.0
 10
104.4733818640726
 20
-149.5295464035898
 30
0.0
 10
104.5474514170055
 20
-149.6394449495693
 30
0.0
 10
104.5474514170055
 20
-149.6394449495693
 30
0.0
 10
104.4332465016694
 20
-149.6945664773333
 30
0.0
 10
104.4332465016694
 20
-149.6945664773333
 30
0.0
 10
104.4332465016694
 20
-149.6945664773333
 30
0.0
 10
104.4437540428995
 20
-149.6945664773333
 30
0.0
 10
104.4437540428995
 20
-149.6945664773333
 30
0.0
 10
104.4437540428995
 20
-149.6945664773333
 30
0.0
 10
104.9662027732376
 20
-149.6945664773333
 30
0.0
 10
104.9662027732376
 20
-149.6945664773333
 30
0.0
 10
104.9662027732376
 20
-149.6945664773333
 30
0.0
 10
104.8711181378447
 20
-149.6501247455736
 30
0.0
 10
104.8711181378447
 20
-149.6501247455736
 30
0.0
 10
104.8986789017267
 20
-149.6122286952358
 30
0.0
 10
104.9556952320076
 20
-149.531613460881
 30
0.0
 10
104.9705091425942
 20
-149.4575439079481
 30
0.0
 10
104.9705091425942
 20
-149.4575439079481
 30
0.0
 10
105.1841050626797
 20
-149.5209336648767
 30
0.0
 10
105.1841050626797
 20
-149.5209336648767
 30
0.0
 10
105.1927178013928
 20
-149.5233452317164
 30
0.0
 10
105.2137328838528
 20
-149.5336805181721
 30
0.0
 10
105.2137328838528
 20
-149.5550401101807
 30
0.0
 10
105.2137328838528
 20
-149.5929361605184
 30
0.0
 10
105.148276069633
 20
-149.5929361605184
 30
0.0
 10
105.1291557896899
 20
-149.5929361605184
 30
0.0
 10
105.1186482484599
 20
-149.6122286952358
 30
0.0
 10
105.0953938539345
 20
-149.6521918028647
 30
0.0
 10
105.0657660327613
 20
-149.6924994200421
 30
0.0
 10
105.4655693638246
 20
-149.6859537386202
 30
0.0
 10
105.4950249302234
 20
-149.683886681329
 30
0.0
 10
105.5711615404475
 20
-149.6776855094556
 30
0.0
 10
105.5711615404475
 20
-149.6776855094556
 30
0.0
 10
105.5711615404475
 20
-149.8595865510768
 30
0.0
 10
105.5711615404475
 20
-149.8595865510768
 30
0.0
 10
105.5522135152786
 20
-149.8595865510768
 30
0.0
 10
105.5270643182363
 20
-149.8575194937856
 30
0.0
 10
105.3069227167288
 20
-149.8489067550725
 30
0.0
 10
105.2561075583214
 20
-149.8468396977813
 30
0.0
 10
105.0361382115882
 20
-149.842705583199
 30
0.0
 10
104.9916964798285
 20
-149.842705583199
 30
0.0
 10
104.9916964798285
 20
-149.842705583199
 30
0.0
 10
104.7758612476775
 20
-149.842705583199
 30
0.0
 10
104.7758612476775
 20
-149.842705583199
 30
0.0
 10
104.7758612476775
 20
-149.842705583199
 30
0.0
 10
104.7758612476775
 20
-149.9612168678916
 30
0.0
 10
104.7758612476775
 20
-149.9612168678916
 30
0.0
 10
104.7758612476775
 20
-149.9612168678916
 30
0.0
 10
104.9493218053599
 20
-149.9612168678916
 30
0.0
 10
104.9493218053599
 20
-149.9612168678916
 30
0.0
 10
105.1122748218122
 20
-149.9612168678916
 30
0.0
 10
105.3026163473722
 20
-149.9612168678916
 30
0.0
 10
105.4591959371768
 20
-149.9505370718873
 30
0.0
 10
105.4591959371768
 20
-149.9505370718873
 30
0.0
 10
105.4591959371768
 20
-150.1217583175043
 30
0.0
 10
105.4591959371768
 20
-150.1217583175043
 30
0.0
 10
105.2497341316737
 20
-150.1134900883397
 30
0.0
 10
105.0530191794659
 20
-150.1114230310485
 30
0.0
 10
104.9493218053599
 20
-150.1114230310485
 30
0.0
 10
104.9493218053599
 20
-150.1114230310485
 30
0.0
 10
104.7758612476775
 20
-150.1114230310485
 30
0.0
 10
104.7758612476775
 20
-150.1114230310485
 30
0.0
 10
104.7758612476775
 20
-150.1114230310485
 30
0.0
 10
104.7758612476775
 20
-150.2192545197369
 30
0.0
 10
104.7758612476775
 20
-150.2192545197369
 30
0.0
 10
104.7758612476775
 20
-150.2192545197369
 30
0.0
 10
105.006510390415
 20
-150.2192545197369
 30
0.0
 10
105.006510390415
 20
-150.2192545197369
 30
0.0
 10
105.1398355856942
 20
-150.2192545197369
 30
0.0
 10
105.4275010587126
 20
-150.2151204051545
 30
0.0
 10
105.6369628642157
 20
-150.2085747237326
 30
0.0
 10
105.6369628642157
 20
-150.2085747237326
 30
0.0
 10
105.6369628642157
 20
-150.3863416507714
 30
0.0
 10
105.6369628642157
 20
-150.3863416507714
 30
0.0
 10
105.4443820265903
 20
-150.380140478898
 30
0.0
 10
105.1312228469811
 20
-150.3756618547672
 30
0.0
 10
105.006510390415
 20
-150.3756618547672
 30
0.0
  0
HATCH
  5
118
330
10C
100
AcDbEntity
  8
レイヤー 1
 62
    18
420
        0
440
 33554687
100
AcDbHatch
 10
0.0
 20
0.0
 30
0.0
210
0.0
220
0.0
230
1.0
  2
SOLID
 70
     1
 71
     1
 91
        4
 92
        1
 93
        1
 72
     4
 94
        3
 73
     0
 74
     0
 95
       17
 96
       13
 40
0.0
 40
0.0
 40
0.0
 40
0.0
 40
1.0
 40
1.0
 40
1.0
 40
2.0
 40
2.0
 40
2.0
 40
3.0
 40
3.0
 40
3.0
 40
4.0
 40
4.0
 40
4.0
 40
4.0
 10
105.1715304641585
 20
-151.1077446453828
 10
105.1715304641585
 20
-151.1077446453828
 10
104.4649413801337
 20
-151.1077446453828
 10
104.4649413801337
 20
-151.1077446453828
 10
104.4649413801337
 20
-151.1077446453828
 10
104.4649413801337
 20
-151.2221218154931
 10
104.4649413801337
 20
-151.2221218154931
 10
104.4649413801337
 20
-151.2221218154931
 10
105.1715304641585
 20
-151.2221218154931
 10
105.1715304641585
 20
-151.2221218154931
 10
105.1715304641585
 20
-151.2221218154931
 10
105.1715304641585
 20
-151.1077446453828
 10
105.1715304641585
 20
-151.1077446453828
 97
        0
 97
        1
330
114
 92
        1
 93
        1
 72
     4
 94
        3
 73
     0
 74
     0
 95
       17
 96
       13
 40
0.0
 40
0.0
 40
0.0
 40
0.0
 40
1.0
 40
1.0
 40
1.0
 40
2.0
 40
2.0
 40
2.0
 40
3.0
 40
3.0
 40
3.0
 40
4.0
 40
4.0
 40
4.0
 40
4.0
 10
105.1715304641585
 20
-150.8645209041241
 10
105.1715304641585
 20
-150.8645209041241
 10
104.4649413801337
 20
-150.8645209041241
 10
104.4649413801337
 20
-150.8645209041241
 10
104.4649413801337
 20
-150.8645209041241
 10
104.4649413801337
 20
-150.9785535646859
 10
104.4649413801337
 20
-150.9785535646859
 10
104.4649413801337
 20
-150.9785535646859
 10
105.1715304641585
 20
-150.9785535646859
 10
105.1715304641585
 20
-150.9785535646859
 10
105.1715304641585
 20
-150.9785535646859
 10
105.1715304641585
 20
-150.8645209041241
 10
105.1715304641585
 20
-150.8645209041241
 97
        0
 97
        1
330
115
 92
        1
 93
        1
 72
     4
 94
        3
 73
     0
 74
     0
 95
       17
 96
       13
 40
0.0
 40
0.0
 40
0.0
 40
0.0
 40
1.0
 40
1.0
 40
1.0
 40
2.0
 40
2.0
 40
2.0
 40
3.0
 40
3.0
 40
3.0
 40
4.0
 40
4.0
 40
4.0
 40
4.0
 10
105.1715304641585
 20
-150.6316324493212
 10
105.1715304641585
 20
-150.6316324493212
 10
104.4649413801337
 20
-150.6316324493212
 10
104.4649413801337
 20
-150.6316324493212
 10
104.4649413801337
 20
-150.6316324493212
 10
104.4649413801337
 20
-150.7394639380096
 10
104.4649413801337
 20
-150.7394639380096
 10
104.4649413801337
 20
-150.7394639380096
 10
105.1715304641585
 20
-150.7394639380096
 10
105.1715304641585
 20
-150.7394639380096
 10
105.1715304641585
 20
-150.7394639380096
 10
105.1715304641585
 20
-150.6316324493212
 10
105.1715304641585
 20
-150.6316324493212
 97
        0
 97
        1
330
116
 92
        1
 93
        1
 72
     4
 94
        3
 73
     0
 74
     0
 95
      203
 96
      199
 40
0.0
 40
0.0
 40
0.0
 40
0.0
 40
1.0
 40
1.0
 40
1.0
 40
2.0
 40
2.0
 40
2.0
 40
3.0
 40
3.0
 40
3.0
 40
4.0
 40
4.0
 40
4.0
 40
5.0
 40
5.0
 40
5.0
 40
6.0
 40
6.0
 40
6.0
 40
7.0
 40
7.0
 40
7.0
 40
8.0
 40
8.0
 40
8.0
 40
9.0
 40
9.0
 40
9.0
 40
10.0
 40
10.0
 40
10.0
 40
11.0
 40
11.0
 40
11.0
 40
12.0
 40
12.0
 40
12.0
 40
13.0
 40
13.0
 40
13.0
 40
14.0
 40
14.0
 40
14.0
 40
15.0
 40
15.0
 40
15.0
 40
16.0
 40
16.0
 40
16.0
 40
17.0
 40
17.0
 40
17.0
 40
18.0
 40
18.0
 40
18.0
 40
19.0
 40
19.0
 40
19.0
 40
20.0
 40
20.0
 40
20.0
 40
21.0
 40
21.0
 40
21.0
 40
22.0
 40
22.0
 40
22.0
 40
23.0
 40
23.0
 40
23.0
 40
24.0
 40
24.0
 40
24.0
 40
25.0
 40
25.0
 40
25.0
 40
26.0
 40
26.0
 40
26.0
 40
27.0
 40
27.0
 40
27.0
 40
28.0
 40
28.0
 40
28.0
 40
29.0
 40
29.0
 40
29.0
 40
30.0
 40
30.0
 40
30.0
 40
31.0
 40
31.0
 40
31.0
 40
32.0
 40
32.0
 40
32.0
 40
33.0
 40
33.0
 40
33.0
 40
34.0
 40
34.0
 40
34.0
 40
35.0
 40
35.0
 40
35.0
 40
36.0
 40
36.0
 40
36.0
 40
37.0
 40
37.0
 40
37.0
 40
38.0
 40
38.0
 40
38.0
 40
39.0
 40
39.0
 40
39.0
 40
40.0
 40
40.0
 40
40.0
 40
41.0
 40
41.0
 40
41.0
 40
42.0
 40
42.0
 40
42.0
 40
43.0
 40
43.0
 40
43.0
 40
44.0
 40
44.0
 40
44.0
 40
45.0
 40
45.0
 40
45.0
 40
46.0
 40
46.0
 40
46.0
 40
47.0
 40
47.0
 40
47.0
 40
48.0
 40
48.0
 40
48.0
 40
49.0
 40
49.0
 40
49.0
 40
50.0
 40
50.0
 40
50.0
 40
51.0
 40
51.0
 40
51.0
 40
52.0
 40
52.0
 40
52.0
 40
53.0
 40
53.0
 40
53.0
 40
54.0
 40
54.0
 40
54.0
 40
55.0
 40
55.0
 40
55.0
 40
56.0
 40
56.0
 40
56.0
 40
57.0
 40
57.0
 40
57.0
 40
58.0
 40
58.0
 40
58.0
 40
59.0
 40
59.0
 40
59.0
 40
60.0
 40
60.0
 40
60.0
 40
61.0
 40
61.0
 40
61.0
 40
62.0
 40
62.0
 40
62.0
 40
63.0
 40
63.0
 40
63.0
 40
64.0
 40
64.0
 40
64.0
 40
65.0
 40
65.0
 40
65.0
 40
66.0
 40
66.0
 40
66.0
 40
66.0
 10
105.006510390415
 20
-150.3756618547672
 10
105.006510390415
 20
-150.3756618547672
 10
104.448060412256
 20
-150.3756618547672
 10
104.448060412256
 20
-150.3756618547672
 10
104.4373806162518
 20
-150.4201035865269
 10
104.4289401323129
 20
-150.4517984649912
 10
104.4161932790174
 20
-150.4900390248775
 10
104.4416869856083
 20
-150.4900390248775
 10
104.4565008961949
 20
-150.4921060821686
 10
104.4628743228426
 20
-150.4921060821686
 10
104.4628743228426
 20
-150.4921060821686
 10
104.6511487911115
 20
-150.4921060821686
 10
104.6511487911115
 20
-150.4921060821686
 10
104.6511487911115
 20
-150.4921060821686
 10
105.0254584155839
 20
-150.4921060821686
 10
105.0254584155839
 20
-150.4921060821686
 10
105.0762735739913
 20
-150.4921060821686
 10
105.3598049324274
 20
-150.4793592288732
 10
105.3914998108917
 20
-150.4793592288732
 10
105.3894327536005
 20
-150.5069199927552
 10
105.3871934415351
 20
-150.5258680179241
 10
105.3871934415351
 20
-150.5554958390972
 10
105.385126384244
 20
-150.5871907175615
 10
105.385126384244
 20
-150.7225829701319
 10
105.385126384244
 20
-150.7501437340138
 10
105.385126384244
 20
-150.7501437340138
 10
105.385126384244
 20
-150.9954345325636
 10
105.385126384244
 20
-150.9954345325636
 10
105.385126384244
 20
-151.0398762643234
 10
105.3894327536005
 20
-151.2369357260796
 10
105.3935668681828
 20
-151.3892089465277
 10
105.3935668681828
 20
-151.3892089465277
 10
105.1672240948019
 20
-151.3892089465277
 10
105.1672240948019
 20
-151.3892089465277
 10
105.1672240948019
 20
-151.3892089465277
 10
105.1694634068673
 20
-151.3551025012237
 10
105.1694634068673
 20
-151.3551025012237
 10
105.1694634068673
 20
-151.3551025012237
 10
104.4670084374249
 20
-151.3551025012237
 10
104.4670084374249
 20
-151.3551025012237
 10
104.4670084374249
 20
-151.3551025012237
 10
104.469075494716
 20
-151.3892089465277
 10
104.469075494716
 20
-151.3892089465277
 10
104.469075494716
 20
-151.3892089465277
 10
104.251173205274
 20
-151.3892089465277
 10
104.251173205274
 20
-151.3892089465277
 10
104.2554795746306
 20
-151.3340874187637
 10
104.2554795746306
 20
-151.3213405654683
 10
104.2618530012783
 20
-151.2073079049065
 10
104.2639200585694
 20
-151.1797471410245
 10
104.2659871158606
 20
-151.0464219457453
 10
104.2659871158606
 20
-151.0274739205765
 10
104.2659871158606
 20
-151.0274739205765
 10
104.2659871158606
 20
-150.8242132869467
 10
104.2659871158606
 20
-150.8242132869467
 10
104.1264607487079
 20
-151.0739827096273
 10
103.9571343056079
 20
-151.2048963380668
 10
103.8513698742107
 20
-151.2706976618351
 10
103.8513698742107
 20
-151.2706976618351
 10
103.6779093165284
 20
-151.1308267851339
 10
103.6779093165284
 20
-151.1308267851339
 10
103.7667927800479
 20
-151.0801838815008
 10
103.910625516557
 20
-150.9933674752725
 10
104.0480848264185
 20
-150.7987195803559
 10
104.1392076020034
 20
-150.6719400664987
 10
104.2046644162231
 20
-150.5279350752152
 10
104.2385986067528
 20
-150.3756618547672
 10
104.0100165213065
 20
-150.3777289120583
 10
103.8301825369765
 20
-150.3842745934803
 10
103.7350979015836
 20
-150.3863416507714
 10
103.7350979015836
 20
-150.3863416507714
 10
103.7350979015836
 20
-150.2085747237326
 10
103.7350979015836
 20
-150.2085747237326
 10
103.9318128537913
 20
-150.2151204051545
 10
104.2153442122274
 20
-150.2192545197369
 10
104.3655503753843
 20
-150.2192545197369
 10
104.3655503753843
 20
-150.2192545197369
 10
104.5791462954698
 20
-150.2192545197369
 10
104.5791462954698
 20
-150.2192545197369
 10
104.5791462954698
 20
-150.2192545197369
 10
104.5791462954698
 20
-150.1114230310485
 10
104.5791462954698
 20
-150.1114230310485
 10
104.5791462954698
 20
-150.1114230310485
 10
104.4332465016694
 20
-150.1114230310485
 10
104.4332465016694
 20
-150.1114230310485
 10
104.2639200585694
 20
-150.1114230310485
 10
104.0947658702437
 20
-150.1155571456308
 10
103.9275064844348
 20
-150.1217583175043
 10
103.9275064844348
 20
-150.1217583175043
 10
103.9275064844348
 20
-149.9505370718873
 10
103.9275064844348
 20
-149.9505370718873
 10
104.0820190169482
 20
-149.9612168678916
 10
104.268226427926
 20
-149.9612168678916
 10
104.4332465016694
 20
-149.9612168678916
 10
104.4332465016694
 20
-149.9612168678916
 10
104.5791462954698
 20
-149.9612168678916
 10
104.5791462954698
 20
-149.9612168678916
 10
104.5791462954698
 20
-149.9612168678916
 10
104.5791462954698
 20
-149.842705583199
 10
104.5791462954698
 20
-149.842705583199
 10
104.5791462954698
 20
-149.842705583199
 10
104.448060412256
 20
-149.842705583199
 10
104.448060412256
 20
-149.842705583199
 10
104.4013793684309
 20
-149.842705583199
 10
104.1982909895754
 20
-149.8509738123637
 10
104.1560885698811
 20
-149.8509738123637
 10
103.9530001910256
 20
-149.8554524364945
 10
103.8768635808016
 20
-149.8575194937856
 10
103.7984876585122
 20
-149.8595865510768
 10
103.7984876585122
 20
-149.8595865510768
 10
103.7984876585122
 20
-149.6756184521644
 10
103.7984876585122
 20
-149.6756184521644
 10
103.9126925738482
 20
-149.683886681329
 10
103.9571343056079
 20
-149.683886681329
 10
104.3400566687934
 20
-149.6924994200421
 10
104.2766669118648
 20
-149.5974147846492
 10
104.2491061479829
 20
-149.5698540207672
 10
104.213104900162
 20
-149.5336805181721
 10
104.213104900162
 20
-149.5336805181721
 10
104.3888047699097
 20
-149.4513427360747
 10
104.3888047699097
 20
-149.4513427360747
 10
104.4289401323129
 20
-149.4871717291212
 10
104.4733818640726
 20
-149.5295464035898
 10
104.5474514170055
 20
-149.6394449495693
 10
104.5474514170055
 20
-149.6394449495693
 10
104.4332465016694
 20
-149.6945664773333
 10
104.4332465016694
 20
-149.6945664773333
 10
104.4332465016694
 20
-149.6945664773333
 10
104.4437540428995
 20
-149.6945664773333
 10
104.4437540428995
 20
-149.6945664773333
 10
104.4437540428995
 20
-149.6945664773333
 10
104.9662027732376
 20
-149.6945664773333
 10
104.9662027732376
 20
-149.6945664773333
 10
104.9662027732376
 20
-149.6945664773333
 10
104.8711181378447
 20
-149.6501247455736
 10
104.8711181378447
 20
-149.6501247455736
 10
104.8986789017267
 20
-149.6122286952358
 10
104.9556952320076
 20
-149.531613460881
 10
104.9705091425942
 20
-149.4575439079481
 10
104.9705091425942
 20
-149.4575439079481
 10
105.1841050626797
 20
-149.5209336648767
 10
105.1841050626797
 20
-149.5209336648767
 10
105.1927178013928
 20
-149.5233452317164
 10
105.2137328838528
 20
-149.5336805181721
 10
105.2137328838528
 20
-149.5550401101807
 10
105.2137328838528
 20
-149.5929361605184
 10
105.148276069633
 20
-149.5929361605184
 10
105.1291557896899
 20
-149.5929361605184
 10
105.1186482484599
 20
-149.6122286952358
 10
105.0953938539345
 20
-149.6521918028647
 10
105.0657660327613
 20
-149.6924994200421
 10
105.4655693638246
 20
-149.6859537386202
 10
105.4950249302234
 20
-149.683886681329
 10
105.5711615404475
 20
-149.6776855094556
 10
105.5711615404475
 20
-149.6776855094556
 10
105.5711615404475
 20
-149.8595865510768
 10
105.5711615404475
 20
-149.8595865510768
 10
105.5522135152786
 20
-149.8595865510768
 10
105.5270643182363
 20
-149.8575194937856
 10
105.3069227167288
 20
-149.8489067550725
 10
105.2561075583214
 20
-149.8468396977813
 10
105.0361382115882
 20
-149.842705583199
 10
104.9916964798285
 20
-149.842705583199
 10
104.9916964798285
 20
-149.842705583199
 10
104.7758612476775
 20
-149.842705583199
 10
104.7758612476775
 20
-149.842705583199
 10
104.7758612476775
 20
-149.842705583199
 10
104.7758612476775
 20
-149.9612168678916
 10
104.7758612476775
 20
-149.9612168678916
 10
104.7758612476775
 20
-149.9612168678916
 10
104.9493218053599
 20
-149.9612168678916
 10
104.9493218053599
 20
-149.9612168678916
 10
105.1122748218122
 20
-149.9612168678916
 10
105.3026163473722
 20
-149.9612168678916
 10
105.4591959371768
 20
-149.9505370718873
 10
105.4591959371768
 20
-149.9505370718873
 10
105.4591959371768
 20
-150.1217583175043
 10
105.4591959371768
 20
-150.1217583175043
 10
105.2497341316737
 20
-150.1134900883397
 10
105.0530191794659
 20
-150.1114230310485
 10
104.9493218053599
 20
-150.1114230310485
 10
104.9493218053599
 20
-150.1114230310485
 10
104.7758612476775
 20
-150.1114230310485
 10
104.7758612476775
 20
-150.1114230310485
 10
104.7758612476775
 20
-150.1114230310485
 10
104.7758612476775
 20
-150.2192545197369
 10
104.7758612476775
 20
-150.2192545197369
 10
104.7758612476775
 20
-150.2192545197369
 10
105.006510390415
 20
-150.2192545197369
 10
105.006510390415
 20
-150.2192545197369
 10
105.1398355856942
 20
-150.2192545197369
 10
105.4275010587126
 20
-150.2151204051545
 10
105.6369628642157
 20
-150.2085747237326
 10
105.6369628642157
 20
-150.2085747237326
 10
105.6369628642157
 20
-150.3863416507714
 10
105.6369628642157
 20
-150.3863416507714
 10
105.4443820265903
 20
-150.380140478898
 10
105.1312228469811
 20
-150.3756618547672
 10
105.006510390415
 20
-150.3756618547672
 97
        0
 97
        1
330
117
 75
     2
 76
     1
 98
        1
 10
0.0
 20
0.0
450
        0
451
        0
460
0.0
461
0.0
452
        0
462
0.0
453
        0
470

  0
SPLINE
  5
119
330
10C
100
AcDbEntity
  8
レイヤー 1
100
AcDbSpline
210
0.0
220
0.0
230
1.0
 70
     9
 71
     3
 72
    29
 73
    25
 74
     0
 42
0.0000000001
 43
0.0000000001
 40
0.0
 40
0.0
 40
0.0
 40
0.0
 40
1.0
 40
1.0
 40
1.0
 40
2.0
 40
2.0
 40
2.0
 40
3.0
 40
3.0
 40
3.0
 40
4.0
 40
4.0
 40
4.0
 40
5.0
 40
5.0
 40
5.0
 40
6.0
 40
6.0
 40
6.0
 40
7.0
 40
7.0
 40
7.0
 40
8.0
 40
8.0
 40
8.0
 40
8.0
 10
106.882020372585
 20
-149.8237575580301
 30
0.0
 10
106.882020372585
 20
-149.8237575580301
 30
0.0
 10
106.5285535757984
 20
-149.8237575580301
 30
0.0
 10
106.5285535757984
 20
-149.8237575580301
 30
0.0
 10
106.4165879725278
 20
-149.8237575580301
 30
0.0
 10
106.2770616053752
 20
-149.8299587299036
 30
0.0
 10
106.1688856071383
 20
-149.842705583199
 30
0.0
 10
106.1688856071383
 20
-149.842705583199
 30
0.0
 10
106.1688856071383
 20
-149.607750071105
 30
0.0
 10
106.1688856071383
 20
-149.607750071105
 30
0.0
 10
106.2873968918309
 20
-149.6225639816916
 30
0.0
 10
106.4717095002918
 20
-149.6266980962739
 30
0.0
 10
106.5285535757984
 20
-149.6266980962739
 30
0.0
 10
106.5285535757984
 20
-149.6266980962739
 30
0.0
 10
106.882020372585
 20
-149.6266980962739
 30
0.0
 10
106.882020372585
 20
-149.6266980962739
 30
0.0
 10
106.9009683977539
 20
-149.6266980962739
 30
0.0
 10
107.1042290313837
 20
-149.6266980962739
 30
0.0
 10
107.2458224558274
 20
-149.607750071105
 30
0.0
 10
107.2458224558274
 20
-149.607750071105
 30
0.0
 10
107.2458224558274
 20
-149.842705583199
 30
0.0
 10
107.2458224558274
 20
-149.842705583199
 30
0.0
 10
107.0894151207971
 20
-149.8237575580301
 30
0.0
 10
106.8989013404628
 20
-149.8237575580301
 30
0.0
 10
106.882020372585
 20
-149.8237575580301
 30
0.0
  0
SPLINE
  5
11A
330
10C
100
AcDbEntity
  8
レイヤー 1
100
AcDbSpline
210
0.0
220
0.0
230
1.0
 70
     9
 71
     3
 72
    47
 73
    43
 74
     0
 42
0.0000000001
 43
0.0000000001
 40
0.0
 40
0.0
 40
0.0
 40
0.0
 40
1.0
 40
1.0
 40
1.0
 40
2.0
 40
2.0
 40
2.0
 40
3.0
 40
3.0
 40
3.0
 40
4.0
 40
4.0
 40
4.0
 40
5.0
 40
5.0
 40
5.0
 40
6.0
 40
6.0
 40
6.0
 40
7.0
 40
7.0
 40
7.0
 40
8.0
 40
8.0
 40
8.0
 40
9.0
 40
9.0
 40
9.0
 40
10.0
 40
10.0
 40
10.0
 40
11.0
 40
11.0
 40
11.0
 40
12.0
 40
12.0
 40
12.0
 40
13.0
 40
13.0
 40
13.0
 40
14.0
 40
14.0
 40
14.0
 40
14.0
 10
106.9836506893999
 20
-150.352579715016
 30
0.0
 10
106.9836506893999
 20
-150.352579715016
 30
0.0
 10
106.882020372585
 20
-150.352579715016
 30
0.0
 10
106.882020372585
 20
-150.352579715016
 30
0.0
 10
106.882020372585
 20
-150.4390516116958
 30
0.0
 10
106.8606607805765
 20
-150.828347401529
 30
0.0
 10
106.6639458283687
 20
-151.0484890030365
 30
0.0
 10
106.5116726079207
 20
-151.2176431913623
 30
0.0
 10
106.3042778597086
 20
-151.2875786297128
 30
0.0
 10
106.21987302032
 20
-151.3151393935948
 30
0.0
 10
106.21987302032
 20
-151.3151393935948
 30
0.0
 10
106.0252251254034
 20
-151.1480522625602
 30
0.0
 10
106.0252251254034
 20
-151.1480522625602
 30
0.0
 10
106.1223768180874
 20
-151.1353054092648
 30
0.0
 10
106.2980766878352
 20
-151.1118787599651
 30
0.0
 10
106.4865234108784
 20
-150.9237765464704
 30
0.0
 10
106.5602484542627
 20
-150.8517740508287
 30
0.0
 10
106.6639458283687
 20
-150.7122476836761
 30
0.0
 10
106.6639458283687
 20
-150.352579715016
 30
0.0
 10
106.6639458283687
 20
-150.352579715016
 30
0.0
 10
106.4334689404055
 20
-150.352579715016
 30
0.0
 10
106.4334689404055
 20
-150.352579715016
 30
0.0
 10
106.247433784202
 20
-150.352579715016
 30
0.0
 10
106.06105411845
 20
-150.3567138295983
 30
0.0
 10
105.8750189622465
 20
-150.3715277401849
 30
0.0
 10
105.8750189622465
 20
-150.3715277401849
 30
0.0
 10
105.8750189622465
 20
-150.1513861386774
 30
0.0
 10
105.8750189622465
 20
-150.1513861386774
 30
0.0
 10
106.0631211757411
 20
-150.166200049264
 30
0.0
 10
106.3487195914684
 20
-150.1706786733948
 30
0.0
 10
106.4334689404055
 20
-150.1706786733948
 30
0.0
 10
106.4334689404055
 20
-150.1706786733948
 30
0.0
 10
106.9836506893999
 20
-150.1706786733948
 30
0.0
 10
106.9836506893999
 20
-150.1706786733948
 30
0.0
 10
107.0025987145688
 20
-150.1706786733948
 30
0.0
 10
107.3198920087603
 20
-150.1706786733948
 30
0.0
 10
107.5483018394324
 20
-150.1513861386774
 30
0.0
 10
107.5483018394324
 20
-150.1513861386774
 30
0.0
 10
107.5483018394324
 20
-150.3715277401849
 30
0.0
 10
107.5483018394324
 20
-150.3715277401849
 30
0.0
 10
107.3601996259377
 20
-150.3567138295983
 30
0.0
 10
107.1717529028946
 20
-150.352579715016
 30
0.0
 10
106.9836506893999
 20
-150.352579715016
 30
0.0
  0
HATCH
  5
11B
330
10C
100
AcDbEntity
  8
レイヤー 1
 62
    18
420
        0
440
 33554687
100
AcDbHatch
 10
0.0
 20
0.0
 30
0.0
210
0.0
220
0.0
230
1.0
  2
SOLID
 70
     1
 71
     1
 91
        2
 92
        1
 93
        1
 72
     4
 94
        3
 73
     0
 74
     0
 95
       29
 96
       25
 40
0.0
 40
0.0
 40
0.0
 40
0.0
 40
1.0
 40
1.0
 40
1.0
 40
2.0
 40
2.0
 40
2.0
 40
3.0
 40
3.0
 40
3.0
 40
4.0
 40
4.0
 40
4.0
 40
5.0
 40
5.0
 40
5.0
 40
6.0
 40
6.0
 40
6.0
 40
7.0
 40
7.0
 40
7.0
 40
8.0
 40
8.0
 40
8.0
 40
8.0
 10
106.882020372585
 20
-149.8237575580301
 10
106.882020372585
 20
-149.8237575580301
 10
106.5285535757984
 20
-149.8237575580301
 10
106.5285535757984
 20
-149.8237575580301
 10
106.4165879725278
 20
-149.8237575580301
 10
106.2770616053752
 20
-149.8299587299036
 10
106.1688856071383
 20
-149.842705583199
 10
106.1688856071383
 20
-149.842705583199
 10
106.1688856071383
 20
-149.607750071105
 10
106.1688856071383
 20
-149.607750071105
 10
106.2873968918309
 20
-149.6225639816916
 10
106.4717095002918
 20
-149.6266980962739
 10
106.5285535757984
 20
-149.6266980962739
 10
106.5285535757984
 20
-149.6266980962739
 10
106.882020372585
 20
-149.6266980962739
 10
106.882020372585
 20
-149.6266980962739
 10
106.9009683977539
 20
-149.6266980962739
 10
107.1042290313837
 20
-149.6266980962739
 10
107.2458224558274
 20
-149.607750071105
 10
107.2458224558274
 20
-149.607750071105
 10
107.2458224558274
 20
-149.842705583199
 10
107.2458224558274
 20
-149.842705583199
 10
107.0894151207971
 20
-149.8237575580301
 10
106.8989013404628
 20
-149.8237575580301
 10
106.882020372585
 20
-149.8237575580301
 97
        0
 97
        1
330
119
 92
        1
 93
        1
 72
     4
 94
        3
 73
     0
 74
     0
 95
       47
 96
       43
 40
0.0
 40
0.0
 40
0.0
 40
0.0
 40
1.0
 40
1.0
 40
1.0
 40
2.0
 40
2.0
 40
2.0
 40
3.0
 40
3.0
 40
3.0
 40
4.0
 40
4.0
 40
4.0
 40
5.0
 40
5.0
 40
5.0
 40
6.0
 40
6.0
 40
6.0
 40
7.0
 40
7.0
 40
7.0
 40
8.0
 40
8.0
 40
8.0
 40
9.0
 40
9.0
 40
9.0
 40
10.0
 40
10.0
 40
10.0
 40
11.0
 40
11.0
 40
11.0
 40
12.0
 40
12.0
 40
12.0
 40
13.0
 40
13.0
 40
13.0
 40
14.0
 40
14.0
 40
14.0
 40
14.0
 10
106.9836506893999
 20
-150.352579715016
 10
106.9836506893999
 20
-150.352579715016
 10
106.882020372585
 20
-150.352579715016
 10
106.882020372585
 20
-150.352579715016
 10
106.882020372585
 20
-150.4390516116958
 10
106.8606607805765
 20
-150.828347401529
 10
106.6639458283687
 20
-151.0484890030365
 10
106.5116726079207
 20
-151.2176431913623
 10
106.3042778597086
 20
-151.2875786297128
 10
106.21987302032
 20
-151.3151393935948
 10
106.21987302032
 20
-151.3151393935948
 10
106.0252251254034
 20
-151.1480522625602
 10
106.0252251254034
 20
-151.1480522625602
 10
106.1223768180874
 20
-151.1353054092648
 10
106.2980766878352
 20
-151.1118787599651
 10
106.4865234108784
 20
-150.9237765464704
 10
106.5602484542627
 20
-150.8517740508287
 10
106.6639458283687
 20
-150.7122476836761
 10
106.6639458283687
 20
-150.352579715016
 10
106.6639458283687
 20
-150.352579715016
 10
106.4334689404055
 20
-150.352579715016
 10
106.4334689404055
 20
-150.352579715016
 10
106.247433784202
 20
-150.352579715016
 10
106.06105411845
 20
-150.3567138295983
 10
105.8750189622465
 20
-150.3715277401849
 10
105.8750189622465
 20
-150.3715277401849
 10
105.8750189622465
 20
-150.1513861386774
 10
105.8750189622465
 20
-150.1513861386774
 10
106.0631211757411
 20
-150.166200049264
 10
106.3487195914684
 20
-150.1706786733948
 10
106.4334689404055
 20
-150.1706786733948
 10
106.4334689404055
 20
-150.1706786733948
 10
106.9836506893999
 20
-150.1706786733948
 10
106.9836506893999
 20
-150.1706786733948
 10
107.0025987145688
 20
-150.1706786733948
 10
107.3198920087603
 20
-150.1706786733948
 10
107.5483018394324
 20
-150.1513861386774
 10
107.5483018394324
 20
-150.1513861386774
 10
107.5483018394324
 20
-150.3715277401849
 10
107.5483018394324
 20
-150.3715277401849
 10
107.3601996259377
 20
-150.3567138295983
 10
107.1717529028946
 20
-150.352579715016
 10
106.9836506893999
 20
-150.352579715016
 97
        0
 97
        1
330
11A
 75
     2
 76
     1
 98
        1
 10
0.0
 20
0.0
450
        0
451
        0
460
0.0
461
0.0
452
        0
462
0.0
453
        0
470

  0
SPLINE
  5
11C
330
10C
100
AcDbEntity
  8
レイヤー 1
100
AcDbSpline
210
0.0
220
0.0
230
1.0
 70
     9
 71
     3
 72
    29
 73
    25
 74
     0
 42
0.0000000001
 43
0.0000000001
 40
0.0
 40
0.0
 40
0.0
 40
0.0
 40
1.0
 40
1.0
 40
1.0
 40
2.0
 40
2.0
 40
2.0
 40
3.0
 40
3.0
 40
3.0
 40
4.0
 40
4.0
 40
4.0
 40
5.0
 40
5.0
 40
5.0
 40
6.0
 40
6.0
 40
6.0
 40
7.0
 40
7.0
 40
7.0
 40
8.0
 40
8.0
 40
8.0
 40
8.0
 10
108.8291883408482
 20
-150.5155327314683
 30
0.0
 10
108.8291883408482
 20
-150.5155327314683
 30
0.0
 10
108.3448079156221
 20
-150.5155327314683
 30
0.0
 10
108.3448079156221
 20
-150.5155327314683
 30
0.0
 10
108.3172471517401
 20
-150.5155327314683
 30
0.0
 10
107.9999538575486
 20
-150.5155327314683
 30
0.0
 10
107.7884249947543
 20
-150.5406819285107
 30
0.0
 10
107.7884249947543
 20
-150.5406819285107
 30
0.0
 10
107.7884249947543
 20
-150.3102050405474
 30
0.0
 10
107.7884249947543
 20
-150.3102050405474
 30
0.0
 10
107.9472438966243
 20
-150.3332871802986
 30
0.0
 10
108.1374131674101
 20
-150.3356987471383
 30
0.0
 10
108.3448079156221
 20
-150.3356987471383
 30
0.0
 10
108.3448079156221
 20
-150.3356987471383
 30
0.0
 10
108.8291883408482
 20
-150.3356987471383
 30
0.0
 10
108.8291883408482
 20
-150.3356987471383
 30
0.0
 10
109.0155680066003
 20
-150.3356987471383
 30
0.0
 10
109.2016031628037
 20
-150.3332871802986
 30
0.0
 10
109.3855712617161
 20
-150.3102050405474
 30
0.0
 10
109.3855712617161
 20
-150.3102050405474
 30
0.0
 10
109.3855712617161
 20
-150.5406819285107
 30
0.0
 10
109.3855712617161
 20
-150.5406819285107
 30
0.0
 10
109.2016031628037
 20
-150.5175997887595
 30
0.0
 10
108.9542453069628
 20
-150.5155327314683
 30
0.0
 10
108.8291883408482
 20
-150.5155327314683
 30
0.0
  0
HATCH
  5
11D
330
10C
100
AcDbEntity
  8
レイヤー 1
 62
    18
420
        0
440
 33554687
100
AcDbHatch
 10
0.0
 20
0.0
 30
0.0
210
0.0
220
0.0
230
1.0
  2
SOLID
 70
     1
 71
     1
 91
        1
 92
        1
 93
        1
 72
     4
 94
        3
 73
     0
 74
     0
 95
       29
 96
       25
 40
0.0
 40
0.0
 40
0.0
 40
0.0
 40
1.0
 40
1.0
 40
1.0
 40
2.0
 40
2.0
 40
2.0
 40
3.0
 40
3.0
 40
3.0
 40
4.0
 40
4.0
 40
4.0
 40
5.0
 40
5.0
 40
5.0
 40
6.0
 40
6.0
 40
6.0
 40
7.0
 40
7.0
 40
7.0
 40
8.0
 40
8.0
 40
8.0
 40
8.0
 10
108.8291883408482
 20
-150.5155327314683
 10
108.8291883408482
 20
-150.5155327314683
 10
108.3448079156221
 20
-150.5155327314683
 10
108.3448079156221
 20
-150.5155327314683
 10
108.3172471517401
 20
-150.5155327314683
 10
107.9999538575486
 20
-150.5155327314683
 10
107.7884249947543
 20
-150.5406819285107
 10
107.7884249947543
 20
-150.5406819285107
 10
107.7884249947543
 20
-150.3102050405474
 10
107.7884249947543
 20
-150.3102050405474
 10
107.9472438966243
 20
-150.3332871802986
 10
108.1374131674101
 20
-150.3356987471383
 10
108.3448079156221
 20
-150.3356987471383
 10
108.3448079156221
 20
-150.3356987471383
 10
108.8291883408482
 20
-150.3356987471383
 10
108.8291883408482
 20
-150.3356987471383
 10
109.0155680066003
 20
-150.3356987471383
 10
109.2016031628037
 20
-150.3332871802986
 10
109.3855712617161
 20
-150.3102050405474
 10
109.3855712617161
 20
-150.3102050405474
 10
109.3855712617161
 20
-150.5406819285107
 10
109.3855712617161
 20
-150.5406819285107
 10
109.2016031628037
 20
-150.5175997887595
 10
108.9542453069628
 20
-150.5155327314683
 10
108.8291883408482
 20
-150.5155327314683
 97
        0
 97
        1
330
11C
 75
     2
 76
     1
 98
        1
 10
0.0
 20
0.0
450
        0
451
        0
460
0.0
461
0.0
452
        0
462
0.0
453
        0
470

  0
SPLINE
  5
11E
330
10C
100
AcDbEntity
  8
レイヤー 1
100
AcDbSpline
210
0.0
220
0.0
230
1.0
 70
     9
 71
     3
 72
    47
 73
    43
 74
     0
 42
0.0000000001
 43
0.0000000001
 40
0.0
 40
0.0
 40
0.0
 40
0.0
 40
1.0
 40
1.0
 40
1.0
 40
2.0
 40
2.0
 40
2.0
 40
3.0
 40
3.0
 40
3.0
 40
4.0
 40
4.0
 40
4.0
 40
5.0
 40
5.0
 40
5.0
 40
6.0
 40
6.0
 40
6.0
 40
7.0
 40
7.0
 40
7.0
 40
8.0
 40
8.0
 40
8.0
 40
9.0
 40
9.0
 40
9.0
 40
10.0
 40
10.0
 40
10.0
 40
11.0
 40
11.0
 40
11.0
 40
12.0
 40
12.0
 40
12.0
 40
13.0
 40
13.0
 40
13.0
 40
14.0
 40
14.0
 40
14.0
 40
14.0
 10
111.0495523810918
 20
-149.9209092507142
 30
0.0
 10
110.9796169427412
 20
-150.200306494568
 30
0.0
 10
110.9034803325172
 20
-150.504852935464
 30
0.0
 10
110.590321152908
 20
-150.8369601402421
 30
0.0
 10
110.3532985835228
 20
-151.0867295629227
 30
0.0
 10
110.108007784973
 20
-151.1859483128979
 30
0.0
 10
110.0022433535758
 20
-151.2283229873665
 30
0.0
 10
110.0022433535758
 20
-151.2283229873665
 30
0.0
 10
109.8075954586592
 20
-151.0464219457453
 30
0.0
 10
109.8075954586592
 20
-151.0464219457453
 30
0.0
 10
109.9936306148627
 20
-150.9999131566944
 30
0.0
 10
110.3557101503624
 20
-150.9068955785927
 30
0.0
 10
110.6516438525454
 20
-150.4118353573623
 30
0.0
 10
110.8125298117066
 20
-150.145184966804
 30
0.0
 10
110.825276665002
 20
-149.9715521543474
 30
0.0
 10
110.8335448941666
 20
-149.8806016335368
 30
0.0
 10
110.8335448941666
 20
-149.8806016335368
 30
0.0
 10
110.3281493864804
 20
-149.8806016335368
 30
0.0
 10
110.3281493864804
 20
-149.8806016335368
 30
0.0
 10
110.2096381017878
 20
-149.8806016335368
 30
0.0
 10
109.7886474334903
 20
-149.8998941682542
 30
0.0
 10
109.6363742130423
 20
-149.91022945471
 30
0.0
 10
109.6363742130423
 20
-149.91022945471
 30
0.0
 10
109.6363742130423
 20
-149.7007676492067
 30
0.0
 10
109.6363742130423
 20
-149.7007676492067
 30
0.0
 10
109.7779676374861
 20
-149.7135145025022
 30
0.0
 10
110.0552978240487
 20
-149.717993126633
 30
0.0
 10
110.1713975419016
 20
-149.717993126633
 30
0.0
 10
110.1713975419016
 20
-149.717993126633
 30
0.0
 10
110.5269313959794
 20
-149.717993126633
 30
0.0
 10
110.5269313959794
 20
-149.717993126633
 30
0.0
 10
110.5544921598614
 20
-149.717993126633
 30
0.0
 10
110.715033609474
 20
-149.7155815597933
 30
0.0
 10
110.825276665002
 20
-149.7007676492067
 30
0.0
 10
110.8824652500571
 20
-149.6945664773333
 30
0.0
 10
110.8993462179349
 20
-149.6756184521644
 30
0.0
 10
110.922428357686
 20
-149.6521918028647
 30
0.0
 10
110.922428357686
 20
-149.6521918028647
 30
0.0
 10
111.1108750807292
 20
-149.8023979660216
 30
0.0
 10
111.1108750807292
 20
-149.8023979660216
 30
0.0
 10
111.0960611701426
 20
-149.8320257871947
 30
0.0
 10
111.0853813741384
 20
-149.8509738123637
 30
0.0
 10
111.0495523810918
 20
-149.9209092507142
 30
0.0
  0
HATCH
  5
11F
330
10C
100
AcDbEntity
  8
レイヤー 1
 62
    18
420
        0
440
 33554687
100
AcDbHatch
 10
0.0
 20
0.0
 30
0.0
210
0.0
220
0.0
230
1.0
  2
SOLID
 70
     1
 71
     1
 91
        1
 92
        1
 93
        1
 72
     4
 94
        3
 73
     0
 74
     0
 95
       47
 96
       43
 40
0.0
 40
0.0
 40
0.0
 40
0.0
 40
1.0
 40
1.0
 40
1.0
 40
2.0
 40
2.0
 40
2.0
 40
3.0
 40
3.0
 40
3.0
 40
4.0
 40
4.0
 40
4.0
 40
5.0
 40
5.0
 40
5.0
 40
6.0
 40
6.0
 40
6.0
 40
7.0
 40
7.0
 40
7.0
 40
8.0
 40
8.0
 40
8.0
 40
9.0
 40
9.0
 40
9.0
 40
10.0
 40
10.0
 40
10.0
 40
11.0
 40
11.0
 40
11.0
 40
12.0
 40
12.0
 40
12.0
 40
13.0
 40
13.0
 40
13.0
 40
14.0
 40
14.0
 40
14.0
 40
14.0
 10
111.0495523810918
 20
-149.9209092507142
 10
110.9796169427412
 20
-150.200306494568
 10
110.9034803325172
 20
-150.504852935464
 10
110.590321152908
 20
-150.8369601402421
 10
110.3532985835228
 20
-151.0867295629227
 10
110.108007784973
 20
-151.1859483128979
 10
110.0022433535758
 20
-151.2283229873665
 10
110.0022433535758
 20
-151.2283229873665
 10
109.8075954586592
 20
-151.0464219457453
 10
109.8075954586592
 20
-151.0464219457453
 10
109.9936306148627
 20
-150.9999131566944
 10
110.3557101503624
 20
-150.9068955785927
 10
110.6516438525454
 20
-150.4118353573623
 10
110.8125298117066
 20
-150.145184966804
 10
110.825276665002
 20
-149.9715521543474
 10
110.8335448941666
 20
-149.8806016335368
 10
110.8335448941666
 20
-149.8806016335368
 10
110.3281493864804
 20
-149.8806016335368
 10
110.3281493864804
 20
-149.8806016335368
 10
110.2096381017878
 20
-149.8806016335368
 10
109.7886474334903
 20
-149.8998941682542
 10
109.6363742130423
 20
-149.91022945471
 10
109.6363742130423
 20
-149.91022945471
 10
109.6363742130423
 20
-149.7007676492067
 10
109.6363742130423
 20
-149.7007676492067
 10
109.7779676374861
 20
-149.7135145025022
 10
110.0552978240487
 20
-149.717993126633
 10
110.1713975419016
 20
-149.717993126633
 10
110.1713975419016
 20
-149.717993126633
 10
110.5269313959794
 20
-149.717993126633
 10
110.5269313959794
 20
-149.717993126633
 10
110.5544921598614
 20
-149.717993126633
 10
110.715033609474
 20
-149.7155815597933
 10
110.825276665002
 20
-149.7007676492067
 10
110.8824652500571
 20
-149.6945664773333
 10
110.8993462179349
 20
-149.6756184521644
 10
110.922428357686
 20
-149.6521918028647
 10
110.922428357686
 20
-149.6521918028647
 10
111.1108750807292
 20
-149.8023979660216
 10
111.1108750807292
 20
-149.8023979660216
 10
111.0960611701426
 20
-149.8320257871947
 10
111.0853813741384
 20
-149.8509738123637
 10
111.0495523810918
 20
-149.9209092507142
 97
        0
 97
        1
330
11E
 75
     2
 76
     1
 98
        1
 10
0.0
 20
0.0
450
        0
451
        0
460
0.0
461
0.0
452
        0
462
0.0
453
        0
470

  0
SPLINE
  5
120
330
10C
100
AcDbEntity
  8
レイヤー 1
100
AcDbSpline
210
0.0
220
0.0
230
1.0
 70
    11
 71
     3
 72
    17
 73
    13
 74
     0
 42
0.0000000001
 43
0.0000000001
 40
0.0
 40
0.0
 40
0.0
 40
0.0
 40
1.0
 40
1.0
 40
1.0
 40
2.0
 40
2.0
 40
2.0
 40
3.0
 40
3.0
 40
3.0
 40
4.0
 40
4.0
 40
4.0
 40
4.0
 10
111.439537190022
 20
-149.7031792160464
 30
0.0
 10
111.439537190022
 20
-149.7624348583927
 30
0.0
 10
111.4863904886215
 20
-149.8089436474436
 30
0.0
 10
111.5453016214192
 20
-149.8089436474436
 30
0.0
 10
111.6045572637655
 20
-149.8089436474436
 30
0.0
 10
111.6534776196561
 20
-149.7624348583927
 30
0.0
 10
111.6534776196561
 20
-149.7031792160464
 30
0.0
 10
111.6534776196561
 20
-149.6439235737001
 30
0.0
 10
111.6045572637655
 20
-149.5950032178096
 30
0.0
 10
111.5453016214192
 20
-149.5950032178096
 30
0.0
 10
111.4863904886215
 20
-149.5950032178096
 30
0.0
 10
111.439537190022
 20
-149.6439235737001
 30
0.0
 10
111.439537190022
 20
-149.7031792160464
 30
0.0
  0
SPLINE
  5
121
330
10C
100
AcDbEntity
  8
レイヤー 1
100
AcDbSpline
210
0.0
220
0.0
230
1.0
 70
     9
 71
     3
 72
    17
 73
    13
 74
     0
 42
0.0000000001
 43
0.0000000001
 40
0.0
 40
0.0
 40
0.0
 40
0.0
 40
1.0
 40
1.0
 40
1.0
 40
2.0
 40
2.0
 40
2.0
 40
3.0
 40
3.0
 40
3.0
 40
4.0
 40
4.0
 40
4.0
 40
4.0
 10
111.7547634269224
 20
-149.7031792160464
 30
0.0
 10
111.7547634269224
 20
-149.8172118766082
 30
0.0
 10
111.6617458488207
 20
-149.9122965120011
 30
0.0
 10
111.5453016214192
 20
-149.9122965120011
 30
0.0
 10
111.4312689608574
 20
-149.9122965120011
 30
0.0
 10
111.3361843254645
 20
-149.8172118766082
 30
0.0
 10
111.3361843254645
 20
-149.7031792160464
 30
0.0
 10
111.3361843254645
 20
-149.586734988645
 30
0.0
 10
111.4312689608574
 20
-149.4937174105432
 30
0.0
 10
111.5453016214192
 20
-149.4937174105432
 30
0.0
 10
111.6596787915295
 20
-149.4937174105432
 30
0.0
 10
111.7547634269224
 20
-149.586734988645
 30
0.0
 10
111.7547634269224
 20
-149.7031792160464
 30
0.0
  0
HATCH
  5
122
330
10C
100
AcDbEntity
  8
レイヤー 1
 62
    18
420
        0
440
 33554687
100
AcDbHatch
 10
0.0
 20
0.0
 30
0.0
210
0.0
220
0.0
230
1.0
  2
SOLID
 70
     1
 71
     1
 91
        2
 92
        1
 93
        1
 72
     4
 94
        3
 73
     0
 74
     0
 95
       17
 96
       13
 40
0.0
 40
0.0
 40
0.0
 40
0.0
 40
1.0
 40
1.0
 40
1.0
 40
2.0
 40
2.0
 40
2.0
 40
3.0
 40
3.0
 40
3.0
 40
4.0
 40
4.0
 40
4.0
 40
4.0
 10
111.439537190022
 20
-149.7031792160464
 10
111.439537190022
 20
-149.7624348583927
 10
111.4863904886215
 20
-149.8089436474436
 10
111.5453016214192
 20
-149.8089436474436
 10
111.6045572637655
 20
-149.8089436474436
 10
111.6534776196561
 20
-149.7624348583927
 10
111.6534776196561
 20
-149.7031792160464
 10
111.6534776196561
 20
-149.6439235737001
 10
111.6045572637655
 20
-149.5950032178096
 10
111.5453016214192
 20
-149.5950032178096
 10
111.4863904886215
 20
-149.5950032178096
 10
111.439537190022
 20
-149.6439235737001
 10
111.439537190022
 20
-149.7031792160464
 97
        0
 97
        1
330
120
 92
        1
 93
        1
 72
     4
 94
        3
 73
     0
 74
     0
 95
       17
 96
       13
 40
0.0
 40
0.0
 40
0.0
 40
0.0
 40
1.0
 40
1.0
 40
1.0
 40
2.0
 40
2.0
 40
2.0
 40
3.0
 40
3.0
 40
3.0
 40
4.0
 40
4.0
 40
4.0
 40
4.0
 10
111.7547634269224
 20
-149.7031792160464
 10
111.7547634269224
 20
-149.8172118766082
 10
111.6617458488207
 20
-149.9122965120011
 10
111.5453016214192
 20
-149.9122965120011
 10
111.4312689608574
 20
-149.9122965120011
 10
111.3361843254645
 20
-149.8172118766082
 10
111.3361843254645
 20
-149.7031792160464
 10
111.3361843254645
 20
-149.586734988645
 10
111.4312689608574
 20
-149.4937174105432
 10
111.5453016214192
 20
-149.4937174105432
 10
111.6596787915295
 20
-149.4937174105432
 10
111.7547634269224
 20
-149.586734988645
 10
111.7547634269224
 20
-149.7031792160464
 97
        0
 97
        1
330
121
 75
     2
 76
     1
 98
        1
 10
0.0
 20
0.0
450
        0
451
        0
460
0.0
461
0.0
452
        0
462
0.0
453
        0
470

  0
ENDBLK
  5
10F
330
10C
100
AcDbEntity
  8
0
100
AcDbBlockEnd
  0
ENDSEC
  0
SECTION
  2
ENTITIES
  0
INSERT
  5
7A
330
70
100
AcDbEntity
  8
レイヤー 1
100
AcDbBlockReference
  2
Block_0
 10
0.0
 20
0.0
 30
0.0
  0
ENDSEC
  0
SECTION
  2
OBJECTS
  0
DICTIONARY
  5
C
330
0
100
AcDbDictionary
281
     1
  3
ACAD_COLOR
350
63
  3
ACAD_DETAILVIEWSTYLE
350
6A
  3
ACAD_GROUP
350
D
  3
ACAD_LAYOUT
350
62
  3
ACAD_MATERIAL
350
10
  3
ACAD_MLEADERSTYLE
350
66
  3
ACAD_MLINESTYLE
350
5F
  3
ACAD_PLOTSETTINGS
350
61
  3
ACAD_PLOTSTYLENAME
350
E
  3
ACAD_SCALELIST
350
42
  3
ACAD_SECTIONVIEWSTYLE
350
68
  3
ACAD_TABLESTYLE
350
64
  3
ACAD_VISUALSTYLE
350
29
  3
ACDB_RECOMPOSE_DATA
350
12B
  3
AcDbVariableDictionary
350
123
  0
DICTIONARY
  5
63
102
{ACAD_REACTORS
330
C
102
}
330
C
100
AcDbDictionary
281
     1
  0
DICTIONARY
  5
6A
102
{ACAD_REACTORS
330
C
102
}
330
C
100
AcDbDictionary
281
     1
  3
Imperial24
350
6B
  0
DICTIONARY
  5
D
102
{ACAD_REACTORS
330
C
102
}
330
C
100
AcDbDictionary
281
     1
  0
DICTIONARY
  5
62
102
{ACAD_REACTORS
330
C
102
}
330
C
100
AcDbDictionary
281
     1
  3
Layout1
350
6F
  3
Layout2
350
77
  3
Model
350
73
  0
DICTIONARY
  5
10
102
{ACAD_REACTORS
330
C
102
}
330
C
100
AcDbDictionary
281
     1
  3
ByBlock
350
19
  3
ByLayer
350
11
  3
Global
350
21
  0
DICTIONARY
  5
66
102
{ACAD_REACTORS
330
C
102
}
330
C
100
AcDbDictionary
281
     1
  3
Standard
350
67
  0
DICTIONARY
  5
5F
102
{ACAD_REACTORS
330
C
102
}
330
C
100
AcDbDictionary
281
     1
  3
Standard
350
60
  0
DICTIONARY
  5
61
102
{ACAD_REACTORS
330
C
102
}
330
C
100
AcDbDictionary
281
     1
  0
ACDBDICTIONARYWDFLT
  5
E
102
{ACAD_REACTORS
330
C
102
}
330
C
100
AcDbDictionary
281
     1
  3
Normal
350
F
100
AcDbDictionaryWithDefault
340
F
  0
DICTIONARY
  5
42
102
{ACAD_REACTORS
330
C
102
}
330
C
100
AcDbDictionary
281
     1
  3
A0
350
43
  3
A1
350
44
  3
A2
350
45
  3
A3
350
46
  3
A4
350
47
  3
A5
350
48
  3
A6
350
49
  3
A7
350
4A
  3
A8
350
4B
  3
A9
350
4C
  3
B0
350
4D
  3
B1
350
4E
  3
B2
350
4F
  3
B3
350
50
  3
B4
350
51
  3
B5
350
52
  3
B6
350
53
  0
DICTIONARY
  5
68
102
{ACAD_REACTORS
330
C
102
}
330
C
100
AcDbDictionary
281
     1
  3
Imperial24
350
69
  0
DICTIONARY
  5
64
102
{ACAD_REACTORS
330
C
102
}
330
C
100
AcDbDictionary
281
     1
  3
Standard
350
65
  0
DICTIONARY
  5
29
102
{ACAD_REACTORS
330
C
102
}
330
C
100
AcDbDictionary
281
     1
  3
2dWireframe
350
2F
  3
Basic
350
2E
  3
Brighten
350
35
  3
ColorChange
350
39
  3
Conceptual
350
32
  3
Dim
350
34
  3
EdgeColorOff
350
41
  3
Facepattern
350
38
  3
Flat
350
2A
  3
FlatWithEdges
350
2B
  3
Gouraud
350
2C
  3
GouraudWithEdges
350
2D
  3
Hidden
350
31
  3
JitterOff
350
3F
  3
Linepattern
350
37
  3
OverhangOff
350
40
  3
Realistic
350
33
  3
Shaded
350
3E
  3
Shaded with edges
350
3D
  3
Shades of Gray
350
3A
  3
Sketchy
350
3B
  3
Thicken
350
36
  3
Wireframe
350
30
  3
X-Ray
350
3C
  0
XRECORD
  5
12B
102
{ACAD_REACTORS
330
C
102
}
330
C
100
AcDbXrecord
280
     1
 90
        1
330
65
  0
DICTIONARY
  5
123
102
{ACAD_REACTORS
330
C
102
}
330
C
100
AcDbDictionary
281
     1
  3
CANNOSCALE
350
128
  3
CMLEADERSTYLE
350
125
  3
CTABLESTYLE
350
124
  3
CVIEWDETAILSTYLE
350
126
  3
CVIEWSECTIONSTYLE
350
127
  0
ACDBDETAILVIEWSTYLE
  5
6B
102
{ACAD_XDICTIONARY
360
160
102
}
102
{ACAD_REACTORS
330
6A
102
}
330
6A
100
AcDbModelDocViewStyle
 70
     0
  3
Imperial24
290
     0
100
AcDbDetailViewStyle
 70
     0
 71
     0
 90
        3
 71
     1
340
55
 62
   256
 40
0.24
340
0
 62
   256
 40
0.24
300

 40
0.36
280
     3
 71
     2
340
5D
 90
       25
 62
   256
 71
     3
340
55
 62
   256
 40
0.24
 90
        1
 40
0.75
 90
        1
300
%<\AcVar ViewType \f "%tc1">% %<\AcVar ViewDetailId>%\PSCALE %<\AcVar ViewScale \f "%sn">%
 71
     4
340
5D
 90
       25
 62
   256
340
5D
 90
       25
 62
   256
280
     0
  0
LAYOUT
  5
6F
102
{ACAD_REACTORS
330
62
102
}
330
62
100
AcDbPlotSettings
  1

  2

  4

  6

 40
0.0
 41
0.0
 42
0.0
 43
0.0
 44
0.0
 45
0.0
 46
0.0
 47
0.0
 48
0.0
 49
0.0
140
0.0
141
0.0
142
1.0
143
1.0
 70
   688
 72
     0
 73
     0
 74
     5
  7

 75
    16
147
1.0
 76
     0
 77
     2
 78
   300
148
0.0
149
0.0
100
AcDbLayout
  1
Layout1
 70
     1
 71
     1
 10
0.0
 20
0.0
 11
12.0
 21
9.0
 12
0.0
 22
0.0
 32
0.0
 14
0.0
 24
0.0
 34
0.0
 15
0.0
 25
0.0
 35
0.0
146
0.0
 13
0.0
 23
0.0
 33
0.0
 16
1.0
 26
0.0
 36
0.0
 17
0.0
 27
1.0
 37
0.0
 76
     0
330
6C
  0
LAYOUT
  5
77
102
{ACAD_REACTORS
330
62
102
}
330
62
100
AcDbPlotSettings
  1

  2

  4

  6

 40
0.0
 41
0.0
 42
0.0
 43
0.0
 44
0.0
 45
0.0
 46
0.0
 47
0.0
 48
0.0
 49
0.0
140
0.0
141
0.0
142
1.0
143
1.0
 70
   688
 72
     0
 73
     0
 74
     5
  7

 75
    16
147
1.0
 76
     0
 77
     2
 78
   300
148
0.0
149
0.0
100
AcDbLayout
  1
Layout2
 70
     1
 71
     2
 10
0.0
 20
0.0
 11
12.0
 21
9.0
 12
0.0
 22
0.0
 32
0.0
 14
0.0
 24
0.0
 34
0.0
 15
0.0
 25
0.0
 35
0.0
146
0.0
 13
0.0
 23
0.0
 33
0.0
 16
1.0
 26
0.0
 36
0.0
 17
0.0
 27
1.0
 37
0.0
 76
     0
330
74
  0
LAYOUT
  5
73
102
{ACAD_REACTORS
330
62
102
}
330
62
100
AcDbPlotSettings
  1

  2

  4

  6

 40
0.0
 41
0.0
 42
0.0
 43
0.0
 44
0.0
 45
0.0
 46
0.0
 47
0.0
 48
0.0
 49
0.0
140
0.0
141
0.0
142
1.0
143
1.0
 70
  1712
 72
     0
 73
     0
 74
     0
  7

 75
     0
147
1.0
 76
     0
 77
     2
 78
   300
148
0.0
149
0.0
100
AcDbLayout
  1
Model
 70
     1
 71
     0
 10
0.0
 20
0.0
 11
12.0
 21
9.0
 12
0.0
 22
0.0
 32
0.0
 14
0.0
 24
0.0
 34
0.0
 15
0.0
 25
0.0
 35
0.0
146
0.0
 13
0.0
 23
0.0
 33
0.0
 16
1.0
 26
0.0
 36
0.0
 17
0.0
 27
1.0
 37
0.0
 76
     0
330
70
  0
MATERIAL
  5
19
102
{ACAD_XDICTIONARY
360
1A
102
}
102
{ACAD_REACTORS
330
10
102
}
330
10
100
AcDbMaterial
  1
ByBlock
 72
     0
 43
0.0208333333333333
 43
0.0
 43
0.0
 43
0.0
 43
0.0
 43
0.0208333333333333
 43
0.0
 43
0.0
 43
0.0
 43
0.0
 43
1.0
 43
0.0
 43
0.0
 43
0.0
 43
0.0
 43
1.0
 77
     0
 47
0.0208333333333333
 47
0.0
 47
0.0
 47
0.0
 47
0.0
 47
0.0208333333333333
 47
0.0
 47
0.0
 47
0.0
 47
0.0
 47
1.0
 47
0.0
 47
0.0
 47
0.0
 47
0.0
 47
1.0
171
     0
 49
0.0208333333333333
 49
0.0
 49
0.0
 49
0.0
 49
0.0
 49
0.0208333333333333
 49
0.0
 49
0.0
 49
0.0
 49
0.0
 49
1.0
 49
0.0
 49
0.0
 49
0.0
 49
0.0
 49
1.0
175
     0
142
0.0208333333333333
142
0.0
142
0.0
142
0.0
142
0.0
142
0.0208333333333333
142
0.0
142
0.0
142
0.0
142
0.0
142
1.0
142
0.0
142
0.0
142
0.0
142
0.0
142
1.0
179
     0
144
0.0208333333333333
144
0.0
144
0.0
144
0.0
144
0.0
144
0.0208333333333333
144
0.0
144
0.0
144
0.0
144
0.0
144
1.0
144
0.0
144
0.0
144
0.0
144
0.0
144
1.0
147
0.0208333333333333
147
0.0
147
0.0
147
0.0
147
0.0
147
0.0208333333333333
147
0.0
147
0.0
147
0.0
147
0.0
147
1.0
147
0.0
147
0.0
147
0.0
147
0.0
147
1.0
  0
MATERIAL
  5
11
102
{ACAD_XDICTIONARY
360
12
102
}
102
{ACAD_REACTORS
330
10
102
}
330
10
100
AcDbMaterial
  1
ByLayer
 72
     0
 43
0.0208333333333333
 43
0.0
 43
0.0
 43
0.0
 43
0.0
 43
0.0208333333333333
 43
0.0
 43
0.0
 43
0.0
 43
0.0
 43
1.0
 43
0.0
 43
0.0
 43
0.0
 43
0.0
 43
1.0
 77
     0
 47
0.0208333333333333
 47
0.0
 47
0.0
 47
0.0
 47
0.0
 47
0.0208333333333333
 47
0.0
 47
0.0
 47
0.0
 47
0.0
 47
1.0
 47
0.0
 47
0.0
 47
0.0
 47
0.0
 47
1.0
171
     0
 49
0.0208333333333333
 49
0.0
 49
0.0
 49
0.0
 49
0.0
 49
0.0208333333333333
 49
0.0
 49
0.0
 49
0.0
 49
0.0
 49
1.0
 49
0.0
 49
0.0
 49
0.0
 49
0.0
 49
1.0
175
     0
142
0.0208333333333333
142
0.0
142
0.0
142
0.0
142
0.0
142
0.0208333333333333
142
0.0
142
0.0
142
0.0
142
0.0
142
1.0
142
0.0
142
0.0
142
0.0
142
0.0
142
1.0
179
     0
144
0.0208333333333333
144
0.0
144
0.0
144
0.0
144
0.0
144
0.0208333333333333
144
0.0
144
0.0
144
0.0
144
0.0
144
1.0
144
0.0
144
0.0
144
0.0
144
0.0
144
1.0
147
0.0208333333333333
147
0.0
147
0.0
147
0.0
147
0.0
147
0.0208333333333333
147
0.0
147
0.0
147
0.0
147
0.0
147
1.0
147
0.0
147
0.0
147
0.0
147
0.0
147
1.0
  0
MATERIAL
  5
21
102
{ACAD_XDICTIONARY
360
22
102
}
102
{ACAD_REACTORS
330
10
102
}
330
10
100
AcDbMaterial
  1
Global
 72
     0
 43
0.0208333333333333
 43
0.0
 43
0.0
 43
0.0
 43
0.0
 43
0.0208333333333333
 43
0.0
 43
0.0
 43
0.0
 43
0.0
 43
1.0
 43
0.0
 43
0.0
 43
0.0
 43
0.0
 43
1.0
 77
     0
 47
0.0208333333333333
 47
0.0
 47
0.0
 47
0.0
 47
0.0
 47
0.0208333333333333
 47
0.0
 47
0.0
 47
0.0
 47
0.0
 47
1.0
 47
0.0
 47
0.0
 47
0.0
 47
0.0
 47
1.0
171
     0
 49
0.0208333333333333
 49
0.0
 49
0.0
 49
0.0
 49
0.0
 49
0.0208333333333333
 49
0.0
 49
0.0
 49
0.0
 49
0.0
 49
1.0
 49
0.0
 49
0.0
 49
0.0
 49
0.0
 49
1.0
175
     0
142
0.0208333333333333
142
0.0
142
0.0
142
0.0
142
0.0
142
0.0208333333333333
142
0.0
142
0.0
142
0.0
142
0.0
142
1.0
142
0.0
142
0.0
142
0.0
142
0.0
142
1.0
179
     0
144
0.0208333333333333
144
0.0
144
0.0
144
0.0
144
0.0
144
0.0208333333333333
144
0.0
144
0.0
144
0.0
144
0.0
144
1.0
144
0.0
144
0.0
144
0.0
144
0.0
144
1.0
147
0.0208333333333333
147
0.0
147
0.0
147
0.0
147
0.0
147
0.0208333333333333
147
0.0
147
0.0
147
0.0
147
0.0
147
1.0
147
0.0
147
0.0
147
0.0
147
0.0
147
1.0
  0
MLEADERSTYLE
  5
67
102
{ACAD_XDICTIONARY
360
15C
102
}
102
{ACAD_REACTORS
330
66
102
}
330
66
100
AcDbMLeaderStyle
179
     2
170
     2
171
     1
172
     0
 90
        2
 40
0.0
 41
0.0
173
     1
 91
-1056964608
340
5B
 92
       -2
290
     1
 42
0.09
291
     1
 43
0.36
  3
Standard
 44
0.18
300

342
55
174
     1
178
     6
175
     1
176
     0
 93
-1056964608
 45
0.18
292
     0
297
     0
 46
0.18
 94
-1056964608
 47
1.0
 49
1.0
140
1.0
293
     1
141
0.0
294
     1
177
     0
142
1.0
295
     0
296
     0
143
0.125
271
     0
272
     9
273
     9
  0
MLINESTYLE
  5
60
102
{ACAD_REACTORS
330
5F
102
}
330
5F
100
AcDbMlineStyle
  2
STANDARD
 70
     0
  3

 62
   256
 51
90.0
 52
90.0
 71
     2
 49
0.5
 62
   256
  6
BYLAYER
 49
-0.5
 62
   256
  6
BYLAYER
  0
ACDBPLACEHOLDER
  5
F
102
{ACAD_REACTORS
330
E
102
}
330
E
  0
SCALE
  5
43
102
{ACAD_REACTORS
330
42
102
}
330
42
100
AcDbScale
 70
     0
300
1:1
140
1.0
141
1.0
290
     1
  0
SCALE
  5
44
102
{ACAD_REACTORS
330
42
102
}
330
42
100
AcDbScale
 70
     0
300
1/128" = 1'-0"
140
0.0078125
141
12.0
290
     0
  0
SCALE
  5
45
102
{ACAD_REACTORS
330
42
102
}
330
42
100
AcDbScale
 70
     0
300
1/64" = 1'-0"
140
0.015625
141
12.0
290
     0
  0
SCALE
  5
46
102
{ACAD_REACTORS
330
42
102
}
330
42
100
AcDbScale
 70
     0
300
1/32" = 1'-0"
140
0.03125
141
12.0
290
     0
  0
SCALE
  5
47
102
{ACAD_REACTORS
330
42
102
}
330
42
100
AcDbScale
 70
     0
300
1/16" = 1'-0"
140
0.0625
141
12.0
290
     0
  0
SCALE
  5
48
102
{ACAD_REACTORS
330
42
102
}
330
42
100
AcDbScale
 70
     0
300
3/32" = 1'-0"
140
0.09375
141
12.0
290
     0
  0
SCALE
  5
49
102
{ACAD_REACTORS
330
42
102
}
330
42
100
AcDbScale
 70
     0
300
1/8" = 1'-0"
140
0.125
141
12.0
290
     0
  0
SCALE
  5
4A
102
{ACAD_REACTORS
330
42
102
}
330
42
100
AcDbScale
 70
     0
300
3/16" = 1'-0"
140
0.1875
141
12.0
290
     0
  0
SCALE
  5
4B
102
{ACAD_REACTORS
330
42
102
}
330
42
100
AcDbScale
 70
     0
300
1/4" = 1'-0"
140
0.25
141
12.0
290
     0
  0
SCALE
  5
4C
102
{ACAD_REACTORS
330
42
102
}
330
42
100
AcDbScale
 70
     0
300
3/8" = 1'-0"
140
0.375
141
12.0
290
     0
  0
SCALE
  5
4D
102
{ACAD_REACTORS
330
42
102
}
330
42
100
AcDbScale
 70
     0
300
1/2" = 1'-0"
140
0.5
141
12.0
290
     0
  0
SCALE
  5
4E
102
{ACAD_REACTORS
330
42
102
}
330
42
100
AcDbScale
 70
     0
300
3/4" = 1'-0"
140
0.75
141
12.0
290
     0
  0
SCALE
  5
4F
102
{ACAD_REACTORS
330
42
102
}
330
42
100
AcDbScale
 70
     0
300
1" = 1'-0"
140
1.0
141
12.0
290
     0
  0
SCALE
  5
50
102
{ACAD_REACTORS
330
42
102
}
330
42
100
AcDbScale
 70
     0
300
1-1/2" = 1'-0"
140
1.5
141
12.0
290
     0
  0
SCALE
  5
51
102
{ACAD_REACTORS
330
42
102
}
330
42
100
AcDbScale
 70
     0
300
3" = 1'-0"
140
3.0
141
12.0
290
     0
  0
SCALE
  5
52
102
{ACAD_REACTORS
330
42
102
}
330
42
100
AcDbScale
 70
     0
300
6" = 1'-0"
140
6.0
141
12.0
290
     0
  0
SCALE
  5
53
102
{ACAD_REACTORS
330
42
102
}
330
42
100
AcDbScale
 70
     0
300
1'-0" = 1'-0"
140
12.0
141
12.0
290
     0
  0
ACDBSECTIONVIEWSTYLE
  5
69
102
{ACAD_XDICTIONARY
360
15E
102
}
102
{ACAD_REACTORS
330
68
102
}
330
68
100
AcDbModelDocViewStyle
 70
     0
  3
Imperial24
290
     0
100
AcDbSectionViewStyle
 70
     0
 71
     0
 90
       78
 71
     1
340
55
 62
   256
 40
0.24
340
0
340
0
 62
   256
 40
0.24
300
I, O, Q, S, X, Z
 40
0.48
 90
        3
 40
0.18
 90
        1
 71
     2
340
5D
 90
       25
 62
   256
340
5D
 90
       50
 62
   256
 40
0.24
 40
0.0
 40
0.24
 71
     3
340
55
 62
   256
 40
0.24
 90
        1
 40
0.75
 90
        1
300
%<\AcVar ViewType \f "%tc1">% %<\AcVar ViewSectionStartId>%-%<\AcVar ViewSectionEndId>%\PSCALE %<\AcVar ViewScale \f "%sn">%
 71
     4
 62
   256
 62
   257
300
ANSI31
 40
1.0
 90
        0
290
     0
290
     0
 90
        6
 40
0.0
 40
1.570796326794896
 40
0.2617993877991494
 40
1.308996938995747
 40
-0.2617993877991494
 40
1.832595714594046
  0
TABLESTYLE
  5
65
102
{ACAD_XDICTIONARY
360
129
102
}
102
{ACAD_REACTORS
330
64
102
}
330
64
100
AcDbTableStyle
280
     0
  3
Standard
 70
     0
 71
     0
 40
0.06
 41
0.06
280
     0
281
     0
  7
Standard
140
0.18
170
     2
 62
     0
 63
     7
283
     0
 90
      512
 91
        0
  1

274
    -2
284
     1
 64
     0
275
    -2
285
     1
 65
     0
276
    -2
286
     1
 66
     0
277
    -2
287
     1
 67
     0
278
    -2
288
     1
 68
     0
279
    -2
289
     1
 69
     0
  7
Standard
140
0.25
170
     5
 62
     0
 63
     7
283
     0
 90
      512
 91
        0
  1

274
    -2
284
     1
 64
     0
275
    -2
285
     1
 65
     0
276
    -2
286
     1
 66
     0
277
    -2
287
     1
 67
     0
278
    -2
288
     1
 68
     0
279
    -2
289
     1
 69
     0
  7
Standard
140
0.18
170
     5
 62
     0
 63
     7
283
     0
 90
      512
 91
        0
  1

274
    -2
284
     1
 64
     0
275
    -2
285
     1
 65
     0
276
    -2
286
     1
 66
     0
277
    -2
287
     1
 67
     0
278
    -2
288
     1
 68
     0
279
    -2
289
     1
 69
     0
  0
VISUALSTYLE
  5
2F
102
{ACAD_XDICTIONARY
360
136
102
}
102
{ACAD_REACTORS
330
29
102
}
330
29
100
AcDbVisualStyle
  2
2dWireframe
 70
     4
177
     2
291
     0
 71
     0
176
     1
 72
     2
176
     1
 73
     0
176
     1
 90
        0
176
     1
 40
0.6
176
     1
 41
30.0
176
     1
 63
     7
421
 16777215
176
     1
 74
     1
176
     1
 91
        4
176
     1
 64
     7
176
     1
 65
   257
176
     1
 75
     1
176
     1
175
     1
176
     1
 42
1.0
176
     1
 92
        0
176
     1
 66
   257
176
     1
 43
1.0
176
     1
 76
     1
176
     1
 77
     6
176
     1
 78
     2
176
     1
 67
     7
176
     1
 79
     5
176
     1
170
     0
176
     1
171
     0
176
     1
290
     0
176
     1
 93
        1
176
     1
 44
0.0
176
     1
173
     0
176
     1
1001
ACAD
1000
AcDbSavedByObjectVersion
1070
     0
  0
VISUALSTYLE
  5
2E
102
{ACAD_XDICTIONARY
360
134
102
}
102
{ACAD_REACTORS
330
29
102
}
330
29
100
AcDbVisualStyle
  2
Basic
 70
     7
177
     2
291
     1
 71
     1
176
     1
 72
     0
176
     1
 73
     1
176
     1
 90
        0
176
     1
 40
0.6
176
     1
 41
30.0
176
     1
 63
     7
421
 16777215
176
     1
 74
     0
176
     1
 91
        4
176
     1
 64
     7
176
     1
 65
   257
176
     1
 75
     1
176
     1
175
     1
176
     1
 42
1.0
176
     1
 92
        8
176
     1
 66
     7
176
     1
 43
1.0
176
     1
 76
     1
176
     1
 77
     6
176
     1
 78
     2
176
     1
 67
     7
176
     1
 79
     5
176
     1
170
     0
176
     1
171
     0
176
     1
290
     0
176
     1
 93
        1
176
     1
 44
0.0
176
     1
173
     0
176
     1
1001
ACAD
1000
AcDbSavedByObjectVersion
1070
     0
  0
VISUALSTYLE
  5
35
102
{ACAD_XDICTIONARY
360
142
102
}
102
{ACAD_REACTORS
330
29
102
}
330
29
100
AcDbVisualStyle
  2
Brighten
 70
    12
177
     2
291
     1
 71
     2
176
     1
 72
     2
176
     1
 73
     0
176
     1
 90
        0
176
     1
 40
0.6
176
     1
 41
30.0
176
     1
 63
     7
421
 16777215
176
     1
 74
     1
176
     1
 91
        4
176
     1
 64
     7
176
     1
 65
   257
176
     1
 75
     1
176
     1
175
     1
176
     1
 42
1.0
176
     1
 92
        8
176
     1
 66
     7
176
     1
 43
1.0
176
     1
 76
     1
176
     1
 77
     6
176
     1
 78
     2
176
     1
 67
     7
176
     1
 79
     5
176
     1
170
     0
176
     1
171
     0
176
     1
290
     0
176
     1
 93
        1
176
     1
 44
50.0
176
     1
173
     0
176
     1
1001
ACAD
1000
AcDbSavedByObjectVersion
1070
     0
  0
VISUALSTYLE
  5
39
102
{ACAD_XDICTIONARY
360
14A
102
}
102
{ACAD_REACTORS
330
29
102
}
330
29
100
AcDbVisualStyle
  2
ColorChange
 70
    16
177
     2
291
     1
 71
     2
176
     1
 72
     2
176
     1
 73
     3
176
     1
 90
        0
176
     1
 40
0.6
176
     1
 41
30.0
176
     1
 63
     8
421
  8421504
176
     1
 74
     1
176
     1
 91
        4
176
     1
 64
     7
176
     1
 65
   257
176
     1
 75
     1
176
     1
175
     1
176
     1
 42
1.0
176
     1
 92
        8
176
     1
 66
     8
424
  8421504
176
     1
 43
1.0
176
     1
 76
     1
176
     1
 77
     6
176
     1
 78
     2
176
     1
 67
     7
176
     1
 79
     5
176
     1
170
     0
176
     1
171
     0
176
     1
290
     0
176
     1
 93
        1
176
     1
 44
0.0
176
     1
173
     0
176
     1
1001
ACAD
1000
AcDbSavedByObjectVersion
1070
     0
  0
VISUALSTYLE
  5
32
102
{ACAD_XDICTIONARY
360
13C
102
}
102
{ACAD_REACTORS
330
29
102
}
330
29
100
AcDbVisualStyle
  2
Conceptual
 70
     9
177
     2
291
     0
 71
     3
176
     1
 72
     2
176
     1
 73
     0
176
     1
 90
        0
176
     1
 40
0.6
176
     1
 41
30.0
176
     1
 63
     7
421
 16777215
176
     1
 74
     2
176
     1
 91
        2
176
     1
 64
     7
176
     1
 65
   257
176
     1
 75
     1
176
     1
175
     1
176
     1
 42
179.0
176
     1
 92
        8
176
     1
 66
     7
176
     1
 43
1.0
176
     1
 76
     1
176
     1
 77
     6
176
     1
 78
     2
176
     1
 67
     7
176
     1
 79
     3
176
     1
170
     0
176
     1
171
     0
176
     1
290
     0
176
     1
 93
        1
176
     1
 44
0.0
176
     1
173
     0
176
     1
1001
ACAD
1000
AcDbSavedByObjectVersion
1070
     0
  0
VISUALSTYLE
  5
34
102
{ACAD_XDICTIONARY
360
140
102
}
102
{ACAD_REACTORS
330
29
102
}
330
29
100
AcDbVisualStyle
  2
Dim
 70
    11
177
     2
291
     1
 71
     2
176
     1
 72
     2
176
     1
 73
     0
176
     1
 90
        0
176
     1
 40
0.6
176
     1
 41
30.0
176
     1
 63
     7
421
 16777215
176
     1
 74
     1
176
     1
 91
        4
176
     1
 64
     7
176
     1
 65
   257
176
     1
 75
     1
176
     1
175
     1
176
     1
 42
1.0
176
     1
 92
        8
176
     1
 66
     7
176
     1
 43
1.0
176
     1
 76
     1
176
     1
 77
     6
176
     1
 78
     2
176
     1
 67
     7
176
     1
 79
     5
176
     1
170
     0
176
     1
171
     0
176
     1
290
     0
176
     1
 93
        1
176
     1
 44
-50.0
176
     1
173
     0
176
     1
1001
ACAD
1000
AcDbSavedByObjectVersion
1070
     0
  0
VISUALSTYLE
  5
41
102
{ACAD_XDICTIONARY
360
15A
102
}
102
{ACAD_REACTORS
330
29
102
}
330
29
100
AcDbVisualStyle
  2
EdgeColorOff
 70
    22
177
     2
291
     1
 71
     2
176
     0
 72
     2
176
     0
 73
     0
176
     0
 90
        0
176
     0
 40
0.6
176
     0
 41
30.0
176
     0
 63
     7
421
 16777215
176
     0
 74
     1
176
     0
 91
        4
176
     0
 64
     7
176
     0
 65
   257
176
     0
 75
     1
176
     0
175
     1
176
     0
 42
1.0
176
     0
 92
        8
176
     2
 66
     7
176
     0
 43
1.0
176
     0
 76
     1
176
     0
 77
     6
176
     0
 78
     2
176
     0
 67
     7
176
     0
 79
     5
176
     0
170
     0
176
     0
171
     0
176
     0
290
     0
176
     0
 93
        1
176
     0
 44
0.0
176
     0
173
     0
176
     0
1001
ACAD
1000
AcDbSavedByObjectVersion
1070
     0
  0
VISUALSTYLE
  5
38
102
{ACAD_XDICTIONARY
360
148
102
}
102
{ACAD_REACTORS
330
29
102
}
330
29
100
AcDbVisualStyle
  2
Facepattern
 70
    15
177
     2
291
     1
 71
     2
176
     1
 72
     2
176
     1
 73
     0
176
     1
 90
        0
176
     1
 40
0.6
176
     1
 41
30.0
176
     1
 63
     7
421
 16777215
176
     1
 74
     1
176
     1
 91
        4
176
     1
 64
     7
176
     1
 65
   257
176
     1
 75
     1
176
     1
175
     1
176
     1
 42
1.0
176
     1
 92
        8
176
     1
 66
     7
176
     1
 43
1.0
176
     1
 76
     1
176
     1
 77
     6
176
     1
 78
     2
176
     1
 67
     7
176
     1
 79
     5
176
     1
170
     0
176
     1
171
     0
176
     1
290
     0
176
     1
 93
        1
176
     1
 44
0.0
176
     1
173
     0
176
     1
1001
ACAD
1000
AcDbSavedByObjectVersion
1070
     0
  0
VISUALSTYLE
  5
2A
102
{ACAD_XDICTIONARY
360
12C
102
}
102
{ACAD_REACTORS
330
29
102
}
330
29
100
AcDbVisualStyle
  2
Flat
 70
     0
177
     2
291
     1
 71
     2
176
     1
 72
     1
176
     1
 73
     1
176
     1
 90
        2
176
     1
 40
0.6
176
     1
 41
30.0
176
     1
 63
     7
421
 16777215
176
     1
 74
     0
176
     1
 91
        0
176
     1
 64
     7
176
     1
 65
   257
176
     1
 75
     1
176
     1
175
     1
176
     1
 42
1.0
176
     1
 92
        8
176
     1
 66
     7
176
     1
 43
1.0
176
     1
 76
     1
176
     1
 77
     6
176
     1
 78
     2
176
     1
 67
     7
176
     1
 79
     5
176
     1
170
     0
176
     1
171
     0
176
     1
290
     0
176
     1
 93
       13
176
     1
 44
0.0
176
     1
173
     0
176
     1
1001
ACAD
1000
AcDbSavedByObjectVersion
1070
     0
  0
VISUALSTYLE
  5
2B
102
{ACAD_XDICTIONARY
360
12E
102
}
102
{ACAD_REACTORS
330
29
102
}
330
29
100
AcDbVisualStyle
  2
FlatWithEdges
 70
     1
177
     2
291
     1
 71
     2
176
     1
 72
     1
176
     1
 73
     1
176
     1
 90
        2
176
     1
 40
0.6
176
     1
 41
30.0
176
     1
 63
     7
421
 16777215
176
     1
 74
     1
176
     1
 91
        0
176
     1
 64
     7
176
     1
 65
   257
176
     1
 75
     1
176
     1
175
     1
176
     1
 42
1.0
176
     1
 92
        0
176
     1
 66
   257
176
     1
 43
1.0
176
     1
 76
     1
176
     1
 77
     6
176
     1
 78
     2
176
     1
 67
     7
176
     1
 79
     5
176
     1
170
     0
176
     1
171
     0
176
     1
290
     0
176
     1
 93
       13
176
     1
 44
0.0
176
     1
173
     0
176
     1
1001
ACAD
1000
AcDbSavedByObjectVersion
1070
     0
  0
VISUALSTYLE
  5
2C
102
{ACAD_XDICTIONARY
360
130
102
}
102
{ACAD_REACTORS
330
29
102
}
330
29
100
AcDbVisualStyle
  2
Gouraud
 70
     2
177
     2
291
     1
 71
     2
176
     1
 72
     2
176
     1
 73
     1
176
     1
 90
        2
176
     1
 40
0.6
176
     1
 41
30.0
176
     1
 63
     7
421
 16777215
176
     1
 74
     0
176
     1
 91
        0
176
     1
 64
     7
176
     1
 65
   257
176
     1
 75
     1
176
     1
175
     1
176
     1
 42
1.0
176
     1
 92
        0
176
     1
 66
     7
176
     1
 43
1.0
176
     1
 76
     1
176
     1
 77
     6
176
     1
 78
     2
176
     1
 67
     7
176
     1
 79
     5
176
     1
170
     0
176
     1
171
     0
176
     1
290
     0
176
     1
 93
       13
176
     1
 44
0.0
176
     1
173
     0
176
     1
1001
ACAD
1000
AcDbSavedByObjectVersion
1070
     0
  0
VISUALSTYLE
  5
2D
102
{ACAD_XDICTIONARY
360
132
102
}
102
{ACAD_REACTORS
330
29
102
}
330
29
100
AcDbVisualStyle
  2
GouraudWithEdges
 70
     3
177
     2
291
     1
 71
     2
176
     1
 72
     2
176
     1
 73
     1
176
     1
 90
        2
176
     1
 40
0.6
176
     1
 41
30.0
176
     1
 63
     7
421
 16777215
176
     1
 74
     1
176
     1
 91
        0
176
     1
 64
     7
176
     1
 65
   257
176
     1
 75
     1
176
     1
175
     1
176
     1
 42
1.0
176
     1
 92
        0
176
     1
 66
   257
176
     1
 43
1.0
176
     1
 76
     1
176
     1
 77
     6
176
     1
 78
     2
176
     1
 67
     7
176
     1
 79
     5
176
     1
170
     0
176
     1
171
     0
176
     1
290
     0
176
     1
 93
       13
176
     1
 44
0.0
176
     1
173
     0
176
     1
1001
ACAD
1000
AcDbSavedByObjectVersion
1070
     0
  0
VISUALSTYLE
  5
31
102
{ACAD_XDICTIONARY
360
13A
102
}
102
{ACAD_REACTORS
330
29
102
}
330
29
100
AcDbVisualStyle
  2
Hidden
 70
     6
177
     2
291
     0
 71
     1
176
     1
 72
     2
176
     1
 73
     2
176
     1
 90
        0
176
     1
 40
0.6
176
     1
 41
30.0
176
     1
 63
     7
421
 16777215
176
     1
 74
     2
176
     1
 91
        2
176
     1
 64
     7
176
     1
 65
   257
176
     1
 75
     2
176
     1
175
     1
176
     1
 42
40.0
176
     1
 92
        0
176
     1
 66
   257
176
     1
 43
1.0
176
     1
 76
     1
176
     1
 77
     6
176
     1
 78
     2
176
     1
 67
     7
176
     1
 79
     3
176
     1
170
     0
176
     1
171
     0
176
     1
290
     0
176
     1
 93
        1
176
     1
 44
0.0
176
     1
173
     0
176
     1
1001
ACAD
1000
AcDbSavedByObjectVersion
1070
     0
  0
VISUALSTYLE
  5
3F
102
{ACAD_XDICTIONARY
360
156
102
}
102
{ACAD_REACTORS
330
29
102
}
330
29
100
AcDbVisualStyle
  2
JitterOff
 70
    20
177
     2
291
     1
 71
     2
176
     0
 72
     2
176
     0
 73
     0
176
     0
 90
        0
176
     0
 40
0.6
176
     0
 41
30.0
176
     0
 63
     7
421
 16777215
176
     0
 74
     1
176
     0
 91
        4
176
     0
 64
     7
176
     0
 65
   257
176
     0
 75
     1
176
     0
175
     1
176
     0
 42
1.0
176
     0
 92
       10
176
     2
 66
     7
176
     0
 43
1.0
176
     0
 76
     1
176
     0
 77
     6
176
     0
 78
     2
176
     0
 67
     7
176
     0
 79
     5
176
     0
170
     0
176
     0
171
     0
176
     0
290
     0
176
     0
 93
        1
176
     0
 44
0.0
176
     0
173
     0
176
     0
1001
ACAD
1000
AcDbSavedByObjectVersion
1070
     0
  0
VISUALSTYLE
  5
37
102
{ACAD_XDICTIONARY
360
146
102
}
102
{ACAD_REACTORS
330
29
102
}
330
29
100
AcDbVisualStyle
  2
Linepattern
 70
    14
177
     2
291
     1
 71
     2
176
     1
 72
     2
176
     1
 73
     0
176
     1
 90
        0
176
     1
 40
0.6
176
     1
 41
30.0
176
     1
 63
     7
421
 16777215
176
     1
 74
     1
176
     1
 91
        4
176
     1
 64
     7
176
     1
 65
   257
176
     1
 75
     7
176
     1
175
     7
176
     1
 42
1.0
176
     1
 92
        8
176
     1
 66
     7
176
     1
 43
1.0
176
     1
 76
     1
176
     1
 77
     6
176
     1
 78
     2
176
     1
 67
     7
176
     1
 79
     5
176
     1
170
     0
176
     1
171
     0
176
     1
290
     0
176
     1
 93
        1
176
     1
 44
0.0
176
     1
173
     0
176
     1
1001
ACAD
1000
AcDbSavedByObjectVersion
1070
     0
  0
VISUALSTYLE
  5
40
102
{ACAD_XDICTIONARY
360
158
102
}
102
{ACAD_REACTORS
330
29
102
}
330
29
100
AcDbVisualStyle
  2
OverhangOff
 70
    21
177
     2
291
     1
 71
     2
176
     0
 72
     2
176
     0
 73
     0
176
     0
 90
        0
176
     0
 40
0.6
176
     0
 41
30.0
176
     0
 63
     7
421
 16777215
176
     0
 74
     1
176
     0
 91
        4
176
     0
 64
     7
176
     0
 65
   257
176
     0
 75
     1
176
     0
175
     1
176
     0
 42
1.0
176
     0
 92
        9
176
     2
 66
     7
176
     0
 43
1.0
176
     0
 76
     1
176
     0
 77
     6
176
     0
 78
     2
176
     0
 67
     7
176
     0
 79
     5
176
     0
170
     0
176
     0
171
     0
176
     0
290
     0
176
     0
 93
        1
176
     0
 44
0.0
176
     0
173
     0
176
     0
1001
ACAD
1000
AcDbSavedByObjectVersion
1070
     0
  0
VISUALSTYLE
  5
33
102
{ACAD_XDICTIONARY
360
13E
102
}
102
{ACAD_REACTORS
330
29
102
}
330
29
100
AcDbVisualStyle
  2
Realistic
 70
     8
177
     2
291
     0
 71
     2
176
     1
 72
     3
176
     1
 73
     0
176
     1
 90
        2
176
     1
 40
0.6
176
     1
 41
30.0
176
     1
 63
     7
421
 16777215
176
     1
 74
     0
176
     1
 91
        0
176
     1
 64
     7
176
     1
 65
   257
176
     1
 75
     1
176
     1
175
     1
176
     1
 42
1.0
176
     1
 92
        8
176
     1
 66
   257
176
     1
 43
1.0
176
     1
 76
     1
176
     1
 77
     6
176
     1
 78
     2
176
     1
 67
     7
176
     1
 79
     3
176
     1
170
     0
176
     1
171
     0
176
     1
290
     0
176
     1
 93
       13
176
     1
 44
0.0
176
     1
173
     0
176
     1
1001
ACAD
1000
AcDbSavedByObjectVersion
1070
     0
  0
VISUALSTYLE
  5
3E
102
{ACAD_XDICTIONARY
360
154
102
}
102
{ACAD_REACTORS
330
29
102
}
330
29
100
AcDbVisualStyle
  2
Shaded
 70
    27
177
     2
291
     0
 71
     2
176
     1
 72
     2
176
     1
 73
     1
176
     1
 90
        2
176
     1
 40
0.6
176
     1
 41
30.0
176
     1
 63
     7
421
 16777215
176
     1
 74
     0
176
     1
 91
        4
176
     1
 64
     7
176
     1
 65
   257
176
     1
 75
     1
176
     1
175
     1
176
     1
 42
1.0
176
     1
 92
        8
176
     1
 66
   257
176
     1
 43
1.0
176
     1
 76
     1
176
     1
 77
     6
176
     1
 78
     2
176
     1
 67
     8
425
  7895160
176
     1
 79
     3
176
     1
170
     0
176
     1
171
     0
176
     1
290
     0
176
     1
 93
        5
176
     1
 44
0.0
176
     1
173
     0
176
     1
1001
ACAD
1000
AcDbSavedByObjectVersion
1070
     0
  0
VISUALSTYLE
  5
3D
102
{ACAD_XDICTIONARY
360
152
102
}
102
{ACAD_REACTORS
330
29
102
}
330
29
100
AcDbVisualStyle
  2
Shaded with edges
 70
    26
177
     2
291
     0
 71
     2
176
     1
 72
     2
176
     1
 73
     1
176
     1
 90
        2
176
     1
 40
0.6
176
     1
 41
30.0
176
     1
 63
     7
421
 16777215
176
     1
 74
     1
176
     1
 91
        2
176
     1
 64
     7
176
     1
 65
   257
176
     1
 75
     2
176
     1
175
     1
176
     1
 42
1.0
176
     1
 92
        8
176
     1
 66
   257
176
     1
 43
1.0
176
     1
 76
     1
176
     1
 77
     6
176
     1
 78
     2
176
     1
 67
     7
176
     1
 79
     3
176
     1
170
     0
176
     1
171
     0
176
     1
290
     0
176
     1
 93
        5
176
     1
 44
0.0
176
     1
173
     0
176
     1
1001
ACAD
1000
AcDbSavedByObjectVersion
1070
     0
  0
VISUALSTYLE
  5
3A
102
{ACAD_XDICTIONARY
360
14C
102
}
102
{ACAD_REACTORS
330
29
102
}
330
29
100
AcDbVisualStyle
  2
Shades of Gray
 70
    23
177
     2
291
     0
 71
     2
176
     1
 72
     2
176
     1
 73
     3
176
     1
 90
        0
176
     1
 40
0.6
176
     1
 41
30.0
176
     1
 63
     7
421
 16777215
176
     1
 74
     2
176
     1
 91
        2
176
     1
 64
     7
176
     1
 65
     7
176
     1
 75
     1
176
     1
175
     1
176
     1
 42
40.0
176
     1
 92
        8
176
     1
 66
     7
176
     1
 43
1.0
176
     1
 76
     1
176
     1
 77
     6
176
     1
 78
     2
176
     1
 67
     7
176
     1
 79
     3
176
     1
170
     0
176
     1
171
     0
176
     1
290
     0
176
     1
 93
        1
176
     1
 44
0.0
176
     1
173
     0
176
     1
1001
ACAD
1000
AcDbSavedByObjectVersion
1070
     0
  0
VISUALSTYLE
  5
3B
102
{ACAD_XDICTIONARY
360
14E
102
}
102
{ACAD_REACTORS
330
29
102
}
330
29
100
AcDbVisualStyle
  2
Sketchy
 70
    24
177
     2
291
     0
 71
     1
176
     1
 72
     2
176
     1
 73
     2
176
     1
 90
        0
176
     1
 40
0.6
176
     1
 41
30.0
176
     1
 63
     7
421
 16777215
176
     1
 74
     2
176
     1
 91
        2
176
     1
 64
     7
176
     1
 65
     7
176
     1
 75
     1
176
     1
175
     1
176
     1
 42
40.0
176
     1
 92
       11
176
     1
 66
     7
176
     1
 43
1.0
176
     1
 76
     1
176
     1
 77
     6
176
     1
 78
     2
176
     1
 67
     7
176
     1
 79
     6
176
     1
170
     0
176
     1
171
     0
176
     1
290
     0
176
     1
 93
        1
176
     1
 44
0.0
176
     1
173
     0
176
     1
1001
ACAD
1000
AcDbSavedByObjectVersion
1070
     0
  0
VISUALSTYLE
  5
36
102
{ACAD_XDICTIONARY
360
144
102
}
102
{ACAD_REACTORS
330
29
102
}
330
29
100
AcDbVisualStyle
  2
Thicken
 70
    13
177
     2
291
     1
 71
     2
176
     1
 72
     2
176
     1
 73
     0
176
     1
 90
        0
176
     1
 40
0.6
176
     1
 41
30.0
176
     1
 63
     7
421
 16777215
176
     1
 74
     1
176
     1
 91
        4
176
     1
 64
     7
176
     1
 65
   257
176
     1
 75
     1
176
     1
175
     1
176
     1
 42
1.0
176
     1
 92
       12
176
     1
 66
     7
176
     1
 43
1.0
176
     1
 76
     1
176
     1
 77
     6
176
     1
 78
     2
176
     1
 67
     7
176
     1
 79
     5
176
     1
170
     0
176
     1
171
     0
176
     1
290
     0
176
     1
 93
        1
176
     1
 44
0.0
176
     1
173
     0
176
     1
1001
ACAD
1000
AcDbSavedByObjectVersion
1070
     0
  0
VISUALSTYLE
  5
30
102
{ACAD_XDICTIONARY
360
138
102
}
102
{ACAD_REACTORS
330
29
102
}
330
29
100
AcDbVisualStyle
  2
Wireframe
 70
     5
177
     2
291
     0
 71
     0
176
     1
 72
     2
176
     1
 73
     0
176
     1
 90
        0
176
     1
 40
0.6
176
     1
 41
30.0
176
     1
 63
     7
421
 16777215
176
     1
 74
     1
176
     1
 91
        4
176
     1
 64
     7
176
     1
 65
   257
176
     1
 75
     1
176
     1
175
     1
176
     1
 42
1.0
176
     1
 92
        0
176
     1
 66
   257
176
     1
 43
1.0
176
     1
 76
     1
176
     1
 77
     6
176
     1
 78
     2
176
     1
 67
     7
176
     1
 79
     3
176
     1
170
     0
176
     1
171
     0
176
     1
290
     0
176
     1
 93
        1
176
     1
 44
0.0
176
     1
173
     0
176
     1
1001
ACAD
1000
AcDbSavedByObjectVersion
1070
     0
  0
VISUALSTYLE
  5
3C
102
{ACAD_XDICTIONARY
360
150
102
}
102
{ACAD_REACTORS
330
29
102
}
330
29
100
AcDbVisualStyle
  2
X-Ray
 70
    25
177
     2
291
     0
 71
     2
176
     1
 72
     2
176
     1
 73
     1
176
     1
 90
        1
176
     1
 40
0.5
176
     1
 41
30.0
176
     1
 63
     7
421
 16777215
176
     1
 74
     1
176
     1
 91
        0
176
     1
 64
     7
176
     1
 65
   257
176
     1
 75
     1
176
     1
175
     1
176
     1
 42
1.0
176
     1
 92
        8
176
     1
 66
     7
176
     1
 43
1.0
176
     1
 76
     1
176
     1
 77
     6
176
     1
 78
     2
176
     1
 67
     7
176
     1
 79
     3
176
     1
170
     0
176
     1
171
     0
176
     1
290
     0
176
     1
 93
       13
176
     1
 44
0.0
176
     1
173
     0
176
     1
1001
ACAD
1000
AcDbSavedByObjectVersion
1070
     0
  0
DICTIONARYVAR
  5
128
102
{ACAD_REACTORS
330
123
102
}
330
123
100
DictionaryVariables
280
     0
  1
1:1
  0
DICTIONARYVAR
  5
125
102
{ACAD_REACTORS
330
123
102
}
330
123
100
DictionaryVariables
280
     0
  1
STANDARD
  0
DICTIONARYVAR
  5
124
102
{ACAD_REACTORS
330
123
102
}
330
123
100
DictionaryVariables
280
     0
  1
STANDARD
  0
DICTIONARYVAR
  5
126
102
{ACAD_REACTORS
330
123
102
}
330
123
100
DictionaryVariables
280
     0
  1
Imperial24
  0
DICTIONARYVAR
  5
127
102
{ACAD_REACTORS
330
123
102
}
330
123
100
DictionaryVariables
280
     0
  1
Imperial24
  0
DICTIONARY
  5
160
330
6B
100
AcDbDictionary
280
     1
281
     1
  3
ACAD_XREC_ROUNDTRIP
360
161
  0
DICTIONARY
  5
1A
330
19
100
AcDbDictionary
280
     1
281
     1
  3
BUMPTILE
360
1C
  3
DIFFUSETILE
360
1B
  3
OPACITYTILE
360
1F
  3
REFLECTIONTILE
360
1E
  3
REFRACTIONTILE
360
20
  3
SPECULARTILE
360
1D
  0
DICTIONARY
  5
12
330
11
100
AcDbDictionary
280
     1
281
     1
  3
BUMPTILE
360
14
  3
DIFFUSETILE
360
13
  3
OPACITYTILE
360
17
  3
REFLECTIONTILE
360
16
  3
REFRACTIONTILE
360
18
  3
SPECULARTILE
360
15
  0
DICTIONARY
  5
22
330
21
100
AcDbDictionary
280
     1
281
     1
  3
BUMPTILE
360
24
  3
DIFFUSETILE
360
23
  3
OPACITYTILE
360
27
  3
REFLECTIONTILE
360
26
  3
REFRACTIONTILE
360
28
  3
SPECULARTILE
360
25
  0
DICTIONARY
  5
15C
330
67
100
AcDbDictionary
280
     1
281
     1
  3
ACAD_XREC_ROUNDTRIP
360
15D
  0
DICTIONARY
  5
15E
330
69
100
AcDbDictionary
280
     1
281
     1
  3
ACAD_XREC_ROUNDTRIP
360
15F
  0
DICTIONARY
  5
129
330
65
100
AcDbDictionary
280
     1
281
     1
  3
ACAD_ROUNDTRIP_2008_TABLESTYLE_CELLSTYLEMAP
360
12A
  0
DICTIONARY
  5
136
330
2F
100
AcDbDictionary
280
     1
281
     1
  3
ACAD_XREC_ROUNDTRIP
360
137
  0
DICTIONARY
  5
134
330
2E
100
AcDbDictionary
280
     1
281
     1
  3
ACAD_XREC_ROUNDTRIP
360
135
  0
DICTIONARY
  5
142
330
35
100
AcDbDictionary
280
     1
281
     1
  3
ACAD_XREC_ROUNDTRIP
360
143
  0
DICTIONARY
  5
14A
330
39
100
AcDbDictionary
280
     1
281
     1
  3
ACAD_XREC_ROUNDTRIP
360
14B
  0
DICTIONARY
  5
13C
330
32
100
AcDbDictionary
280
     1
281
     1
  3
ACAD_XREC_ROUNDTRIP
360
13D
  0
DICTIONARY
  5
140
330
34
100
AcDbDictionary
280
     1
281
     1
  3
ACAD_XREC_ROUNDTRIP
360
141
  0
DICTIONARY
  5
15A
330
41
100
AcDbDictionary
280
     1
281
     1
  3
ACAD_XREC_ROUNDTRIP
360
15B
  0
DICTIONARY
  5
148
330
38
100
AcDbDictionary
280
     1
281
     1
  3
ACAD_XREC_ROUNDTRIP
360
149
  0
DICTIONARY
  5
12C
330
2A
100
AcDbDictionary
280
     1
281
     1
  3
ACAD_XREC_ROUNDTRIP
360
12D
  0
DICTIONARY
  5
12E
330
2B
100
AcDbDictionary
280
     1
281
     1
  3
ACAD_XREC_ROUNDTRIP
360
12F
  0
DICTIONARY
  5
130
330
2C
100
AcDbDictionary
280
     1
281
     1
  3
ACAD_XREC_ROUNDTRIP
360
131
  0
DICTIONARY
  5
132
330
2D
100
AcDbDictionary
280
     1
281
     1
  3
ACAD_XREC_ROUNDTRIP
360
133
  0
DICTIONARY
  5
13A
330
31
100
AcDbDictionary
280
     1
281
     1
  3
ACAD_XREC_ROUNDTRIP
360
13B
  0
DICTIONARY
  5
156
330
3F
100
AcDbDictionary
280
     1
281
     1
  3
ACAD_XREC_ROUNDTRIP
360
157
  0
DICTIONARY
  5
146
330
37
100
AcDbDictionary
280
     1
281
     1
  3
ACAD_XREC_ROUNDTRIP
360
147
  0
DICTIONARY
  5
158
330
40
100
AcDbDictionary
280
     1
281
     1
  3
ACAD_XREC_ROUNDTRIP
360
159
  0
DICTIONARY
  5
13E
330
33
100
AcDbDictionary
280
     1
281
     1
  3
ACAD_XREC_ROUNDTRIP
360
13F
  0
DICTIONARY
  5
154
330
3E
100
AcDbDictionary
280
     1
281
     1
  3
ACAD_XREC_ROUNDTRIP
360
155
  0
DICTIONARY
  5
152
330
3D
100
AcDbDictionary
280
     1
281
     1
  3
ACAD_XREC_ROUNDTRIP
360
153
  0
DICTIONARY
  5
14C
330
3A
100
AcDbDictionary
280
     1
281
     1
  3
ACAD_XREC_ROUNDTRIP
360
14D
  0
DICTIONARY
  5
14E
330
3B
100
AcDbDictionary
280
     1
281
     1
  3
ACAD_XREC_ROUNDTRIP
360
14F
  0
DICTIONARY
  5
144
330
36
100
AcDbDictionary
280
     1
281
     1
  3
ACAD_XREC_ROUNDTRIP
360
145
  0
DICTIONARY
  5
138
330
30
100
AcDbDictionary
280
     1
281
     1
  3
ACAD_XREC_ROUNDTRIP
360
139
  0
DICTIONARY
  5
150
330
3C
100
AcDbDictionary
280
     1
281
     1
  3
ACAD_XREC_ROUNDTRIP
360
151
  0
XRECORD
  5
161
102
{ACAD_REACTORS
330
160
102
}
330
160
100
AcDbXrecord
280
     1
102
DISPLAYNAME
  1
Imperial24
102
FLAGS
 90
        0
  0
XRECORD
  5
1C
102
{ACAD_REACTORS
330
1A
102
}
330
1A
100
AcDbXrecord
280
     1
270
     1
271
     1
  0
XRECORD
  5
1B
102
{ACAD_REACTORS
330
1A
102
}
330
1A
100
AcDbXrecord
280
     1
270
     1
271
     1
  0
XRECORD
  5
1F
102
{ACAD_REACTORS
330
1A
102
}
330
1A
100
AcDbXrecord
280
     1
270
     1
271
     1
  0
XRECORD
  5
1E
102
{ACAD_REACTORS
330
1A
102
}
330
1A
100
AcDbXrecord
280
     1
270
     1
271
     1
  0
XRECORD
  5
20
102
{ACAD_REACTORS
330
1A
102
}
330
1A
100
AcDbXrecord
280
     1
270
     1
271
     1
  0
XRECORD
  5
1D
102
{ACAD_REACTORS
330
1A
102
}
330
1A
100
AcDbXrecord
280
     1
270
     1
271
     1
  0
XRECORD
  5
14
102
{ACAD_REACTORS
330
12
102
}
330
12
100
AcDbXrecord
280
     1
270
     1
271
     1
  0
XRECORD
  5
13
102
{ACAD_REACTORS
330
12
102
}
330
12
100
AcDbXrecord
280
     1
270
     1
271
     1
  0
XRECORD
  5
17
102
{ACAD_REACTORS
330
12
102
}
330
12
100
AcDbXrecord
280
     1
270
     1
271
     1
  0
XRECORD
  5
16
102
{ACAD_REACTORS
330
12
102
}
330
12
100
AcDbXrecord
280
     1
270
     1
271
     1
  0
XRECORD
  5
18
102
{ACAD_REACTORS
330
12
102
}
330
12
100
AcDbXrecord
280
     1
270
     1
271
     1
  0
XRECORD
  5
15
102
{ACAD_REACTORS
330
12
102
}
330
12
100
AcDbXrecord
280
     1
270
     1
271
     1
  0
XRECORD
  5
24
102
{ACAD_REACTORS
330
22
102
}
330
22
100
AcDbXrecord
280
     1
270
     1
271
     1
  0
XRECORD
  5
23
102
{ACAD_REACTORS
330
22
102
}
330
22
100
AcDbXrecord
280
     1
270
     1
271
     1
  0
XRECORD
  5
27
102
{ACAD_REACTORS
330
22
102
}
330
22
100
AcDbXrecord
280
     1
270
     1
271
     1
  0
XRECORD
  5
26
102
{ACAD_REACTORS
330
22
102
}
330
22
100
AcDbXrecord
280
     1
270
     1
271
     1
  0
XRECORD
  5
28
102
{ACAD_REACTORS
330
22
102
}
330
22
100
AcDbXrecord
280
     1
270
     1
271
     1
  0
XRECORD
  5
25
102
{ACAD_REACTORS
330
22
102
}
330
22
100
AcDbXrecord
280
     1
270
     1
271
     1
  0
XRECORD
  5
15D
102
{ACAD_REACTORS
330
15C
102
}
330
15C
100
AcDbXrecord
280
     1
102
ACAD_ROUNDTRIP_2012_MLEADER_STYLE
298
     1
  0
XRECORD
  5
15F
102
{ACAD_REACTORS
330
15E
102
}
330
15E
100
AcDbXrecord
280
     1
102
DISPLAYNAME
  1
Imperial24
102
FLAGS
 90
        0
  0
CELLSTYLEMAP
  5
12A
102
{ACAD_REACTORS
330
129
102
}
330
129
100
AcDbCellStyleMap
 90
        3
300
CELLSTYLE
  1
TABLEFORMAT_BEGIN
 90
        5
170
     1
 91
        0
 92
    32768
 62
   257
 93
        1
300
CONTENTFORMAT
  1
CONTENTFORMAT_BEGIN
 90
        0
 91
        0
 92
      512
 93
        0
300

 40
0.0
140
1.0
 94
        5
 62
     0
340
55
144
0.25
309
CONTENTFORMAT_END
171
     0
 94
        0
309
TABLEFORMAT_END
  1
CELLSTYLE_BEGIN
 90
        1
 91
        1
300
_TITLE
309
CELLSTYLE_END
300
CELLSTYLE
  1
TABLEFORMAT_BEGIN
 90
        5
170
     1
 91
        0
 92
        0
 62
   257
 93
        1
300
CONTENTFORMAT
  1
CONTENTFORMAT_BEGIN
 90
        0
 91
        0
 92
      512
 93
        0
300

 40
0.0
140
1.0
 94
        5
 62
     0
340
55
144
0.18
309
CONTENTFORMAT_END
171
     0
 94
        0
309
TABLEFORMAT_END
  1
CELLSTYLE_BEGIN
 90
        2
 91
        1
300
_HEADER
309
CELLSTYLE_END
300
CELLSTYLE
  1
TABLEFORMAT_BEGIN
 90
        5
170
     1
 91
        0
 92
        0
 62
   257
 93
        1
300
CONTENTFORMAT
  1
CONTENTFORMAT_BEGIN
 90
        0
 91
        0
 92
      512
 93
        0
300

 40
0.0
140
1.0
 94
        2
 62
     0
340
55
144
0.18
309
CONTENTFORMAT_END
171
     0
 94
        0
309
TABLEFORMAT_END
  1
CELLSTYLE_BEGIN
 90
        3
 91
        2
300
_DATA
309
CELLSTYLE_END
  0
XRECORD
  5
137
102
{ACAD_REACTORS
330
136
102
}
330
136
100
AcDbXrecord
280
     1
102
RTVSPost2010Prop28
280
     1
102
RTVSPost2010PropOp28
 70
     1
102
RTVSPost2010Prop29
280
     1
102
RTVSPost2010PropOp29
 70
     1
102
RTVSPost2010Prop30
280
     0
102
RTVSPost2010PropOp30
 70
     1
102
RTVSPost2010Prop31
280
     0
102
RTVSPost2010PropOp31
 70
     1
102
RTVSPost2010Prop32
280
     0
102
RTVSPost2010PropOp32
 70
     1
102
RTVSPost2010Prop33
280
     0
102
RTVSPost2010PropOp33
 70
     1
102
RTVSPost2010Prop34
280
     0
102
RTVSPost2010PropOp34
 70
     1
102
RTVSPost2010Prop35
280
     0
102
RTVSPost2010PropOp35
 70
     1
102
RTVSPost2010Prop36
280
     0
102
RTVSPost2010PropOp36
 70
     1
102
RTVSPost2010Prop37
 90
       50
102
RTVSPost2010PropOp37
 70
     1
102
RTVSPost2010Prop38
140
0.0
102
RTVSPost2010PropOp38
 70
     1
102
RTVSPost2010Prop39
140
1.0
102
RTVSPost2010PropOp39
 70
     1
102
RTVSPost2010Prop40
 90
        0
102
RTVSPost2010PropOp40
 70
     1
102
RTVSPost2010Prop41ColorIndex
 90
       18
102
RTVSPost2010Prop41ColorRGB
 90
        0
102
RTVSPost2010PropOp41
 70
     1
102
RTVSPost2010Prop42
 90
       50
102
RTVSPost2010PropOp42
 70
     1
102
RTVSPost2010Prop43
 90
        3
102
RTVSPost2010PropOp43
 70
     1
102
RTVSPost2010Prop44ColorIndex
 90
        5
102
RTVSPost2010Prop44ColorRGB
 90
      255
102
RTVSPost2010PropOp44
 70
     1
102
RTVSPost2010Prop45
280
     0
102
RTVSPost2010PropOp45
 70
     1
102
RTVSPost2010Prop46
 90
       50
102
RTVSPost2010PropOp46
 70
     1
102
RTVSPost2010Prop47
 90
       50
102
RTVSPost2010PropOp47
 70
     1
102
RTVSPost2010Prop48
 90
       50
102
RTVSPost2010PropOp48
 70
     1
102
RTVSPost2010Prop49
280
     0
102
RTVSPost2010PropOp49
 70
     1
102
RTVSPost2010Prop50
 90
       50
102
RTVSPost2010PropOp50
 70
     1
102
RTVSPost2010Prop51ColorIndex
 90
      256
102
RTVSPost2010Prop51ColorRGB
 90
-16777216
102
RTVSPost2010PropOp51
 70
     0
102
RTVSPost2010Prop52
140
1.0
102
RTVSPost2010PropOp52
 70
     0
102
RTVSPost2010Prop53
 90
        2
102
RTVSPost2010PropOp53
 70
     1
102
RTVSPost2010Prop54
  1
strokes_ogs.tif
102
RTVSPost2010PropOp54
 70
     1
102
RTVSPost2010Prop55
280
     0
102
RTVSPost2010PropOp55
 70
     1
102
RTVSPost2010Prop56
140
1.0
102
RTVSPost2010PropOp56
 70
     1
102
RTVSPost2010Prop57
140
1.0
102
RTVSPost2010PropOp57
 70
     1
  0
XRECORD
  5
135
102
{ACAD_REACTORS
330
134
102
}
330
134
100
AcDbXrecord
280
     1
102
RTVSPost2010Prop28
280
     0
102
RTVSPost2010PropOp28
 70
     1
102
RTVSPost2010Prop29
280
     1
102
RTVSPost2010PropOp29
 70
     1
102
RTVSPost2010Prop30
280
     1
102
RTVSPost2010PropOp30
 70
     1
102
RTVSPost2010Prop31
280
     0
102
RTVSPost2010PropOp31
 70
     1
102
RTVSPost2010Prop32
280
     0
102
RTVSPost2010PropOp32
 70
     1
102
RTVSPost2010Prop33
280
     0
102
RTVSPost2010PropOp33
 70
     1
102
RTVSPost2010Prop34
280
     0
102
RTVSPost2010PropOp34
 70
     1
102
RTVSPost2010Prop35
280
     0
102
RTVSPost2010PropOp35
 70
     1
102
RTVSPost2010Prop36
280
     0
102
RTVSPost2010PropOp36
 70
     1
102
RTVSPost2010Prop37
 90
       50
102
RTVSPost2010PropOp37
 70
     1
102
RTVSPost2010Prop38
140
0.0
102
RTVSPost2010PropOp38
 70
     1
102
RTVSPost2010Prop39
140
1.0
102
RTVSPost2010PropOp39
 70
     1
102
RTVSPost2010Prop40
 90
        0
102
RTVSPost2010PropOp40
 70
     1
102
RTVSPost2010Prop41ColorIndex
 90
       18
102
RTVSPost2010Prop41ColorRGB
 90
        0
102
RTVSPost2010PropOp41
 70
     1
102
RTVSPost2010Prop42
 90
       50
102
RTVSPost2010PropOp42
 70
     1
102
RTVSPost2010Prop43
 90
        3
102
RTVSPost2010PropOp43
 70
     1
102
RTVSPost2010Prop44ColorIndex
 90
        5
102
RTVSPost2010Prop44ColorRGB
 90
      255
102
RTVSPost2010PropOp44
 70
     1
102
RTVSPost2010Prop45
280
     0
102
RTVSPost2010PropOp45
 70
     1
102
RTVSPost2010Prop46
 90
       50
102
RTVSPost2010PropOp46
 70
     1
102
RTVSPost2010Prop47
 90
       50
102
RTVSPost2010PropOp47
 70
     1
102
RTVSPost2010Prop48
 90
       50
102
RTVSPost2010PropOp48
 70
     1
102
RTVSPost2010Prop49
280
     0
102
RTVSPost2010PropOp49
 70
     1
102
RTVSPost2010Prop50
 90
       50
102
RTVSPost2010PropOp50
 70
     1
102
RTVSPost2010Prop51ColorIndex
 90
      256
102
RTVSPost2010Prop51ColorRGB
 90
-16777216
102
RTVSPost2010PropOp51
 70
     0
102
RTVSPost2010Prop52
140
1.0
102
RTVSPost2010PropOp52
 70
     0
102
RTVSPost2010Prop53
 90
        2
102
RTVSPost2010PropOp53
 70
     1
102
RTVSPost2010Prop54
  1
strokes_ogs.tif
102
RTVSPost2010PropOp54
 70
     1
102
RTVSPost2010Prop55
280
     0
102
RTVSPost2010PropOp55
 70
     1
102
RTVSPost2010Prop56
140
1.0
102
RTVSPost2010PropOp56
 70
     1
102
RTVSPost2010Prop57
140
1.0
102
RTVSPost2010PropOp57
 70
     1
  0
XRECORD
  5
143
102
{ACAD_REACTORS
330
142
102
}
330
142
100
AcDbXrecord
280
     1
102
RTVSPost2010Prop28
280
     0
102
RTVSPost2010PropOp28
 70
     1
102
RTVSPost2010Prop29
280
     1
102
RTVSPost2010PropOp29
 70
     1
102
RTVSPost2010Prop30
280
     1
102
RTVSPost2010PropOp30
 70
     1
102
RTVSPost2010Prop31
280
     0
102
RTVSPost2010PropOp31
 70
     1
102
RTVSPost2010Prop32
280
     0
102
RTVSPost2010PropOp32
 70
     1
102
RTVSPost2010Prop33
280
     0
102
RTVSPost2010PropOp33
 70
     1
102
RTVSPost2010Prop34
280
     0
102
RTVSPost2010PropOp34
 70
     1
102
RTVSPost2010Prop35
280
     0
102
RTVSPost2010PropOp35
 70
     1
102
RTVSPost2010Prop36
280
     0
102
RTVSPost2010PropOp36
 70
     1
102
RTVSPost2010Prop37
 90
       50
102
RTVSPost2010PropOp37
 70
     1
102
RTVSPost2010Prop38
140
0.0
102
RTVSPost2010PropOp38
 70
     1
102
RTVSPost2010Prop39
140
1.0
102
RTVSPost2010PropOp39
 70
     1
102
RTVSPost2010Prop40
 90
        0
102
RTVSPost2010PropOp40
 70
     1
102
RTVSPost2010Prop41ColorIndex
 90
       18
102
RTVSPost2010Prop41ColorRGB
 90
        0
102
RTVSPost2010PropOp41
 70
     1
102
RTVSPost2010Prop42
 90
       50
102
RTVSPost2010PropOp42
 70
     1
102
RTVSPost2010Prop43
 90
        3
102
RTVSPost2010PropOp43
 70
     1
102
RTVSPost2010Prop44ColorIndex
 90
        5
102
RTVSPost2010Prop44ColorRGB
 90
      255
102
RTVSPost2010PropOp44
 70
     1
102
RTVSPost2010Prop45
280
     0
102
RTVSPost2010PropOp45
 70
     1
102
RTVSPost2010Prop46
 90
       50
102
RTVSPost2010PropOp46
 70
     1
102
RTVSPost2010Prop47
 90
       50
102
RTVSPost2010PropOp47
 70
     1
102
RTVSPost2010Prop48
 90
       50
102
RTVSPost2010PropOp48
 70
     1
102
RTVSPost2010Prop49
280
     0
102
RTVSPost2010PropOp49
 70
     1
102
RTVSPost2010Prop50
 90
       50
102
RTVSPost2010PropOp50
 70
     1
102
RTVSPost2010Prop51ColorIndex
 90
      256
102
RTVSPost2010Prop51ColorRGB
 90
-16777216
102
RTVSPost2010PropOp51
 70
     0
102
RTVSPost2010Prop52
140
1.0
102
RTVSPost2010PropOp52
 70
     0
102
RTVSPost2010Prop53
 90
        2
102
RTVSPost2010PropOp53
 70
     1
102
RTVSPost2010Prop54
  1
strokes_ogs.tif
102
RTVSPost2010PropOp54
 70
     1
102
RTVSPost2010Prop55
280
     0
102
RTVSPost2010PropOp55
 70
     1
102
RTVSPost2010Prop56
140
1.0
102
RTVSPost2010PropOp56
 70
     1
102
RTVSPost2010Prop57
140
1.0
102
RTVSPost2010PropOp57
 70
     1
  0
XRECORD
  5
14B
102
{ACAD_REACTORS
330
14A
102
}
330
14A
100
AcDbXrecord
280
     1
102
RTVSPost2010Prop28
280
     0
102
RTVSPost2010PropOp28
 70
     1
102
RTVSPost2010Prop29
280
     1
102
RTVSPost2010PropOp29
 70
     1
102
RTVSPost2010Prop30
280
     1
102
RTVSPost2010PropOp30
 70
     1
102
RTVSPost2010Prop31
280
     0
102
RTVSPost2010PropOp31
 70
     1
102
RTVSPost2010Prop32
280
     0
102
RTVSPost2010PropOp32
 70
     1
102
RTVSPost2010Prop33
280
     0
102
RTVSPost2010PropOp33
 70
     1
102
RTVSPost2010Prop34
280
     0
102
RTVSPost2010PropOp34
 70
     1
102
RTVSPost2010Prop35
280
     0
102
RTVSPost2010PropOp35
 70
     1
102
RTVSPost2010Prop36
280
     0
102
RTVSPost2010PropOp36
 70
     1
102
RTVSPost2010Prop37
 90
       50
102
RTVSPost2010PropOp37
 70
     1
102
RTVSPost2010Prop38
140
0.0
102
RTVSPost2010PropOp38
 70
     1
102
RTVSPost2010Prop39
140
1.0
102
RTVSPost2010PropOp39
 70
     1
102
RTVSPost2010Prop40
 90
        0
102
RTVSPost2010PropOp40
 70
     1
102
RTVSPost2010Prop41ColorIndex
 90
       18
102
RTVSPost2010Prop41ColorRGB
 90
        0
102
RTVSPost2010PropOp41
 70
     1
102
RTVSPost2010Prop42
 90
       50
102
RTVSPost2010PropOp42
 70
     1
102
RTVSPost2010Prop43
 90
        3
102
RTVSPost2010PropOp43
 70
     1
102
RTVSPost2010Prop44ColorIndex
 90
        5
102
RTVSPost2010Prop44ColorRGB
 90
      255
102
RTVSPost2010PropOp44
 70
     1
102
RTVSPost2010Prop45
280
     0
102
RTVSPost2010PropOp45
 70
     1
102
RTVSPost2010Prop46
 90
       50
102
RTVSPost2010PropOp46
 70
     1
102
RTVSPost2010Prop47
 90
       50
102
RTVSPost2010PropOp47
 70
     1
102
RTVSPost2010Prop48
 90
       50
102
RTVSPost2010PropOp48
 70
     1
102
RTVSPost2010Prop49
280
     0
102
RTVSPost2010PropOp49
 70
     1
102
RTVSPost2010Prop50
 90
       50
102
RTVSPost2010PropOp50
 70
     1
102
RTVSPost2010Prop51ColorIndex
 90
      256
102
RTVSPost2010Prop51ColorRGB
 90
-16777216
102
RTVSPost2010PropOp51
 70
     0
102
RTVSPost2010Prop52
140
1.0
102
RTVSPost2010PropOp52
 70
     0
102
RTVSPost2010Prop53
 90
        2
102
RTVSPost2010PropOp53
 70
     1
102
RTVSPost2010Prop54
  1
strokes_ogs.tif
102
RTVSPost2010PropOp54
 70
     1
102
RTVSPost2010Prop55
280
     0
102
RTVSPost2010PropOp55
 70
     1
102
RTVSPost2010Prop56
140
1.0
102
RTVSPost2010PropOp56
 70
     1
102
RTVSPost2010Prop57
140
1.0
102
RTVSPost2010PropOp57
 70
     1
  0
XRECORD
  5
13D
102
{ACAD_REACTORS
330
13C
102
}
330
13C
100
AcDbXrecord
280
     1
102
RTVSPost2010Prop28
280
     0
102
RTVSPost2010PropOp28
 70
     1
102
RTVSPost2010Prop29
280
     1
102
RTVSPost2010PropOp29
 70
     1
102
RTVSPost2010Prop30
280
     1
102
RTVSPost2010PropOp30
 70
     1
102
RTVSPost2010Prop31
280
     0
102
RTVSPost2010PropOp31
 70
     1
102
RTVSPost2010Prop32
280
     0
102
RTVSPost2010PropOp32
 70
     1
102
RTVSPost2010Prop33
280
     0
102
RTVSPost2010PropOp33
 70
     1
102
RTVSPost2010Prop34
280
     0
102
RTVSPost2010PropOp34
 70
     1
102
RTVSPost2010Prop35
280
     0
102
RTVSPost2010PropOp35
 70
     1
102
RTVSPost2010Prop36
280
     0
102
RTVSPost2010PropOp36
 70
     1
102
RTVSPost2010Prop37
 90
       50
102
RTVSPost2010PropOp37
 70
     1
102
RTVSPost2010Prop38
140
0.0
102
RTVSPost2010PropOp38
 70
     1
102
RTVSPost2010Prop39
140
1.0
102
RTVSPost2010PropOp39
 70
     1
102
RTVSPost2010Prop40
 90
        0
102
RTVSPost2010PropOp40
 70
     1
102
RTVSPost2010Prop41ColorIndex
 90
       18
102
RTVSPost2010Prop41ColorRGB
 90
        0
102
RTVSPost2010PropOp41
 70
     1
102
RTVSPost2010Prop42
 90
       50
102
RTVSPost2010PropOp42
 70
     1
102
RTVSPost2010Prop43
 90
        3
102
RTVSPost2010PropOp43
 70
     1
102
RTVSPost2010Prop44ColorIndex
 90
        5
102
RTVSPost2010Prop44ColorRGB
 90
      255
102
RTVSPost2010PropOp44
 70
     1
102
RTVSPost2010Prop45
280
     0
102
RTVSPost2010PropOp45
 70
     1
102
RTVSPost2010Prop46
 90
       50
102
RTVSPost2010PropOp46
 70
     1
102
RTVSPost2010Prop47
 90
       50
102
RTVSPost2010PropOp47
 70
     1
102
RTVSPost2010Prop48
 90
       50
102
RTVSPost2010PropOp48
 70
     1
102
RTVSPost2010Prop49
280
     0
102
RTVSPost2010PropOp49
 70
     1
102
RTVSPost2010Prop50
 90
       50
102
RTVSPost2010PropOp50
 70
     1
102
RTVSPost2010Prop51ColorIndex
 90
      256
102
RTVSPost2010Prop51ColorRGB
 90
-16777216
102
RTVSPost2010PropOp51
 70
     0
102
RTVSPost2010Prop52
140
1.0
102
RTVSPost2010PropOp52
 70
     0
102
RTVSPost2010Prop53
 90
        2
102
RTVSPost2010PropOp53
 70
     1
102
RTVSPost2010Prop54
  1
strokes_ogs.tif
102
RTVSPost2010PropOp54
 70
     1
102
RTVSPost2010Prop55
280
     0
102
RTVSPost2010PropOp55
 70
     1
102
RTVSPost2010Prop56
140
1.0
102
RTVSPost2010PropOp56
 70
     1
102
RTVSPost2010Prop57
140
1.0
102
RTVSPost2010PropOp57
 70
     1
  0
XRECORD
  5
141
102
{ACAD_REACTORS
330
140
102
}
330
140
100
AcDbXrecord
280
     1
102
RTVSPost2010Prop28
280
     0
102
RTVSPost2010PropOp28
 70
     1
102
RTVSPost2010Prop29
280
     1
102
RTVSPost2010PropOp29
 70
     1
102
RTVSPost2010Prop30
280
     1
102
RTVSPost2010PropOp30
 70
     1
102
RTVSPost2010Prop31
280
     0
102
RTVSPost2010PropOp31
 70
     1
102
RTVSPost2010Prop32
280
     0
102
RTVSPost2010PropOp32
 70
     1
102
RTVSPost2010Prop33
280
     0
102
RTVSPost2010PropOp33
 70
     1
102
RTVSPost2010Prop34
280
     0
102
RTVSPost2010PropOp34
 70
     1
102
RTVSPost2010Prop35
280
     0
102
RTVSPost2010PropOp35
 70
     1
102
RTVSPost2010Prop36
280
     0
102
RTVSPost2010PropOp36
 70
     1
102
RTVSPost2010Prop37
 90
       50
102
RTVSPost2010PropOp37
 70
     1
102
RTVSPost2010Prop38
140
0.0
102
RTVSPost2010PropOp38
 70
     1
102
RTVSPost2010Prop39
140
1.0
102
RTVSPost2010PropOp39
 70
     1
102
RTVSPost2010Prop40
 90
        0
102
RTVSPost2010PropOp40
 70
     1
102
RTVSPost2010Prop41ColorIndex
 90
       18
102
RTVSPost2010Prop41ColorRGB
 90
        0
102
RTVSPost2010PropOp41
 70
     1
102
RTVSPost2010Prop42
 90
       50
102
RTVSPost2010PropOp42
 70
     1
102
RTVSPost2010Prop43
 90
        3
102
RTVSPost2010PropOp43
 70
     1
102
RTVSPost2010Prop44ColorIndex
 90
        5
102
RTVSPost2010Prop44ColorRGB
 90
      255
102
RTVSPost2010PropOp44
 70
     1
102
RTVSPost2010Prop45
280
     0
102
RTVSPost2010PropOp45
 70
     1
102
RTVSPost2010Prop46
 90
       50
102
RTVSPost2010PropOp46
 70
     1
102
RTVSPost2010Prop47
 90
       50
102
RTVSPost2010PropOp47
 70
     1
102
RTVSPost2010Prop48
 90
       50
102
RTVSPost2010PropOp48
 70
     1
102
RTVSPost2010Prop49
280
     0
102
RTVSPost2010PropOp49
 70
     1
102
RTVSPost2010Prop50
 90
       50
102
RTVSPost2010PropOp50
 70
     1
102
RTVSPost2010Prop51ColorIndex
 90
      256
102
RTVSPost2010Prop51ColorRGB
 90
-16777216
102
RTVSPost2010PropOp51
 70
     0
102
RTVSPost2010Prop52
140
1.0
102
RTVSPost2010PropOp52
 70
     0
102
RTVSPost2010Prop53
 90
        2
102
RTVSPost2010PropOp53
 70
     1
102
RTVSPost2010Prop54
  1
strokes_ogs.tif
102
RTVSPost2010PropOp54
 70
     1
102
RTVSPost2010Prop55
280
     0
102
RTVSPost2010PropOp55
 70
     1
102
RTVSPost2010Prop56
140
1.0
102
RTVSPost2010PropOp56
 70
     1
102
RTVSPost2010Prop57
140
1.0
102
RTVSPost2010PropOp57
 70
     1
  0
XRECORD
  5
15B
102
{ACAD_REACTORS
330
15A
102
}
330
15A
100
AcDbXrecord
280
     1
102
RTVSPost2010Prop28
280
     0
102
RTVSPost2010PropOp28
 70
     0
102
RTVSPost2010Prop29
280
     1
102
RTVSPost2010PropOp29
 70
     0
102
RTVSPost2010Prop30
280
     1
102
RTVSPost2010PropOp30
 70
     0
102
RTVSPost2010Prop31
280
     0
102
RTVSPost2010PropOp31
 70
     0
102
RTVSPost2010Prop32
280
     0
102
RTVSPost2010PropOp32
 70
     0
102
RTVSPost2010Prop33
280
     0
102
RTVSPost2010PropOp33
 70
     0
102
RTVSPost2010Prop34
280
     0
102
RTVSPost2010PropOp34
 70
     0
102
RTVSPost2010Prop35
280
     0
102
RTVSPost2010PropOp35
 70
     0
102
RTVSPost2010Prop36
280
     0
102
RTVSPost2010PropOp36
 70
     0
102
RTVSPost2010Prop37
 90
       50
102
RTVSPost2010PropOp37
 70
     0
102
RTVSPost2010Prop38
140
0.0
102
RTVSPost2010PropOp38
 70
     0
102
RTVSPost2010Prop39
140
1.0
102
RTVSPost2010PropOp39
 70
     0
102
RTVSPost2010Prop40
 90
        0
102
RTVSPost2010PropOp40
 70
     0
102
RTVSPost2010Prop41ColorIndex
 90
       18
102
RTVSPost2010Prop41ColorRGB
 90
        0
102
RTVSPost2010PropOp41
 70
     0
102
RTVSPost2010Prop42
 90
       50
102
RTVSPost2010PropOp42
 70
     0
102
RTVSPost2010Prop43
 90
        3
102
RTVSPost2010PropOp43
 70
     0
102
RTVSPost2010Prop44ColorIndex
 90
        5
102
RTVSPost2010Prop44ColorRGB
 90
      255
102
RTVSPost2010PropOp44
 70
     0
102
RTVSPost2010Prop45
280
     0
102
RTVSPost2010PropOp45
 70
     0
102
RTVSPost2010Prop46
 90
       50
102
RTVSPost2010PropOp46
 70
     0
102
RTVSPost2010Prop47
 90
       50
102
RTVSPost2010PropOp47
 70
     0
102
RTVSPost2010Prop48
 90
       50
102
RTVSPost2010PropOp48
 70
     0
102
RTVSPost2010Prop49
280
     0
102
RTVSPost2010PropOp49
 70
     0
102
RTVSPost2010Prop50
 90
       50
102
RTVSPost2010PropOp50
 70
     0
102
RTVSPost2010Prop51ColorIndex
 90
      256
102
RTVSPost2010Prop51ColorRGB
 90
-16777216
102
RTVSPost2010PropOp51
 70
     0
102
RTVSPost2010Prop52
140
1.0
102
RTVSPost2010PropOp52
 70
     0
102
RTVSPost2010Prop53
 90
        2
102
RTVSPost2010PropOp53
 70
     0
102
RTVSPost2010Prop54
  1
strokes_ogs.tif
102
RTVSPost2010PropOp54
 70
     0
102
RTVSPost2010Prop55
280
     0
102
RTVSPost2010PropOp55
 70
     0
102
RTVSPost2010Prop56
140
1.0
102
RTVSPost2010PropOp56
 70
     0
102
RTVSPost2010Prop57
140
1.0
102
RTVSPost2010PropOp57
 70
     0
  0
XRECORD
  5
149
102
{ACAD_REACTORS
330
148
102
}
330
148
100
AcDbXrecord
280
     1
102
RTVSPost2010Prop28
280
     0
102
RTVSPost2010PropOp28
 70
     1
102
RTVSPost2010Prop29
280
     1
102
RTVSPost2010PropOp29
 70
     1
102
RTVSPost2010Prop30
280
     1
102
RTVSPost2010PropOp30
 70
     1
102
RTVSPost2010Prop31
280
     0
102
RTVSPost2010PropOp31
 70
     1
102
RTVSPost2010Prop32
280
     0
102
RTVSPost2010PropOp32
 70
     1
102
RTVSPost2010Prop33
280
     0
102
RTVSPost2010PropOp33
 70
     1
102
RTVSPost2010Prop34
280
     0
102
RTVSPost2010PropOp34
 70
     1
102
RTVSPost2010Prop35
280
     0
102
RTVSPost2010PropOp35
 70
     1
102
RTVSPost2010Prop36
280
     0
102
RTVSPost2010PropOp36
 70
     1
102
RTVSPost2010Prop37
 90
       50
102
RTVSPost2010PropOp37
 70
     1
102
RTVSPost2010Prop38
140
0.0
102
RTVSPost2010PropOp38
 70
     1
102
RTVSPost2010Prop39
140
1.0
102
RTVSPost2010PropOp39
 70
     1
102
RTVSPost2010Prop40
 90
        0
102
RTVSPost2010PropOp40
 70
     1
102
RTVSPost2010Prop41ColorIndex
 90
       18
102
RTVSPost2010Prop41ColorRGB
 90
        0
102
RTVSPost2010PropOp41
 70
     1
102
RTVSPost2010Prop42
 90
       50
102
RTVSPost2010PropOp42
 70
     1
102
RTVSPost2010Prop43
 90
        3
102
RTVSPost2010PropOp43
 70
     1
102
RTVSPost2010Prop44ColorIndex
 90
        5
102
RTVSPost2010Prop44ColorRGB
 90
      255
102
RTVSPost2010PropOp44
 70
     1
102
RTVSPost2010Prop45
280
     0
102
RTVSPost2010PropOp45
 70
     1
102
RTVSPost2010Prop46
 90
       50
102
RTVSPost2010PropOp46
 70
     1
102
RTVSPost2010Prop47
 90
       50
102
RTVSPost2010PropOp47
 70
     1
102
RTVSPost2010Prop48
 90
       50
102
RTVSPost2010PropOp48
 70
     1
102
RTVSPost2010Prop49
280
     0
102
RTVSPost2010PropOp49
 70
     1
102
RTVSPost2010Prop50
 90
       50
102
RTVSPost2010PropOp50
 70
     1
102
RTVSPost2010Prop51ColorIndex
 90
      256
102
RTVSPost2010Prop51ColorRGB
 90
-16777216
102
RTVSPost2010PropOp51
 70
     0
102
RTVSPost2010Prop52
140
1.0
102
RTVSPost2010PropOp52
 70
     0
102
RTVSPost2010Prop53
 90
        2
102
RTVSPost2010PropOp53
 70
     1
102
RTVSPost2010Prop54
  1
strokes_ogs.tif
102
RTVSPost2010PropOp54
 70
     1
102
RTVSPost2010Prop55
280
     0
102
RTVSPost2010PropOp55
 70
     1
102
RTVSPost2010Prop56
140
1.0
102
RTVSPost2010PropOp56
 70
     1
102
RTVSPost2010Prop57
140
1.0
102
RTVSPost2010PropOp57
 70
     1
  0
XRECORD
  5
12D
102
{ACAD_REACTORS
330
12C
102
}
330
12C
100
AcDbXrecord
280
     1
102
RTVSPost2010Prop28
280
     0
102
RTVSPost2010PropOp28
 70
     1
102
RTVSPost2010Prop29
280
     1
102
RTVSPost2010PropOp29
 70
     1
102
RTVSPost2010Prop30
280
     1
102
RTVSPost2010PropOp30
 70
     1
102
RTVSPost2010Prop31
280
     0
102
RTVSPost2010PropOp31
 70
     1
102
RTVSPost2010Prop32
280
     0
102
RTVSPost2010PropOp32
 70
     1
102
RTVSPost2010Prop33
280
     0
102
RTVSPost2010PropOp33
 70
     1
102
RTVSPost2010Prop34
280
     0
102
RTVSPost2010PropOp34
 70
     1
102
RTVSPost2010Prop35
280
     0
102
RTVSPost2010PropOp35
 70
     1
102
RTVSPost2010Prop36
280
     0
102
RTVSPost2010PropOp36
 70
     1
102
RTVSPost2010Prop37
 90
       50
102
RTVSPost2010PropOp37
 70
     1
102
RTVSPost2010Prop38
140
0.0
102
RTVSPost2010PropOp38
 70
     1
102
RTVSPost2010Prop39
140
1.0
102
RTVSPost2010PropOp39
 70
     1
102
RTVSPost2010Prop40
 90
        0
102
RTVSPost2010PropOp40
 70
     1
102
RTVSPost2010Prop41ColorIndex
 90
       18
102
RTVSPost2010Prop41ColorRGB
 90
        0
102
RTVSPost2010PropOp41
 70
     1
102
RTVSPost2010Prop42
 90
       50
102
RTVSPost2010PropOp42
 70
     1
102
RTVSPost2010Prop43
 90
        3
102
RTVSPost2010PropOp43
 70
     1
102
RTVSPost2010Prop44ColorIndex
 90
        5
102
RTVSPost2010Prop44ColorRGB
 90
      255
102
RTVSPost2010PropOp44
 70
     1
102
RTVSPost2010Prop45
280
     0
102
RTVSPost2010PropOp45
 70
     1
102
RTVSPost2010Prop46
 90
       50
102
RTVSPost2010PropOp46
 70
     1
102
RTVSPost2010Prop47
 90
       50
102
RTVSPost2010PropOp47
 70
     1
102
RTVSPost2010Prop48
 90
       50
102
RTVSPost2010PropOp48
 70
     1
102
RTVSPost2010Prop49
280
     0
102
RTVSPost2010PropOp49
 70
     1
102
RTVSPost2010Prop50
 90
       50
102
RTVSPost2010PropOp50
 70
     1
102
RTVSPost2010Prop51ColorIndex
 90
      256
102
RTVSPost2010Prop51ColorRGB
 90
-16777216
102
RTVSPost2010PropOp51
 70
     0
102
RTVSPost2010Prop52
140
1.0
102
RTVSPost2010PropOp52
 70
     0
102
RTVSPost2010Prop53
 90
        2
102
RTVSPost2010PropOp53
 70
     1
102
RTVSPost2010Prop54
  1
strokes_ogs.tif
102
RTVSPost2010PropOp54
 70
     1
102
RTVSPost2010Prop55
280
     0
102
RTVSPost2010PropOp55
 70
     1
102
RTVSPost2010Prop56
140
1.0
102
RTVSPost2010PropOp56
 70
     1
102
RTVSPost2010Prop57
140
1.0
102
RTVSPost2010PropOp57
 70
     1
  0
XRECORD
  5
12F
102
{ACAD_REACTORS
330
12E
102
}
330
12E
100
AcDbXrecord
280
     1
102
RTVSPost2010Prop28
280
     0
102
RTVSPost2010PropOp28
 70
     1
102
RTVSPost2010Prop29
280
     1
102
RTVSPost2010PropOp29
 70
     1
102
RTVSPost2010Prop30
280
     1
102
RTVSPost2010PropOp30
 70
     1
102
RTVSPost2010Prop31
280
     0
102
RTVSPost2010PropOp31
 70
     1
102
RTVSPost2010Prop32
280
     0
102
RTVSPost2010PropOp32
 70
     1
102
RTVSPost2010Prop33
280
     0
102
RTVSPost2010PropOp33
 70
     1
102
RTVSPost2010Prop34
280
     0
102
RTVSPost2010PropOp34
 70
     1
102
RTVSPost2010Prop35
280
     0
102
RTVSPost2010PropOp35
 70
     1
102
RTVSPost2010Prop36
280
     0
102
RTVSPost2010PropOp36
 70
     1
102
RTVSPost2010Prop37
 90
       50
102
RTVSPost2010PropOp37
 70
     1
102
RTVSPost2010Prop38
140
0.0
102
RTVSPost2010PropOp38
 70
     1
102
RTVSPost2010Prop39
140
1.0
102
RTVSPost2010PropOp39
 70
     1
102
RTVSPost2010Prop40
 90
        0
102
RTVSPost2010PropOp40
 70
     1
102
RTVSPost2010Prop41ColorIndex
 90
       18
102
RTVSPost2010Prop41ColorRGB
 90
        0
102
RTVSPost2010PropOp41
 70
     1
102
RTVSPost2010Prop42
 90
       50
102
RTVSPost2010PropOp42
 70
     1
102
RTVSPost2010Prop43
 90
        3
102
RTVSPost2010PropOp43
 70
     1
102
RTVSPost2010Prop44ColorIndex
 90
        5
102
RTVSPost2010Prop44ColorRGB
 90
      255
102
RTVSPost2010PropOp44
 70
     1
102
RTVSPost2010Prop45
280
     0
102
RTVSPost2010PropOp45
 70
     1
102
RTVSPost2010Prop46
 90
       50
102
RTVSPost2010PropOp46
 70
     1
102
RTVSPost2010Prop47
 90
       50
102
RTVSPost2010PropOp47
 70
     1
102
RTVSPost2010Prop48
 90
       50
102
RTVSPost2010PropOp48
 70
     1
102
RTVSPost2010Prop49
280
     0
102
RTVSPost2010PropOp49
 70
     1
102
RTVSPost2010Prop50
 90
       50
102
RTVSPost2010PropOp50
 70
     1
102
RTVSPost2010Prop51ColorIndex
 90
      256
102
RTVSPost2010Prop51ColorRGB
 90
-16777216
102
RTVSPost2010PropOp51
 70
     0
102
RTVSPost2010Prop52
140
1.0
102
RTVSPost2010PropOp52
 70
     0
102
RTVSPost2010Prop53
 90
        2
102
RTVSPost2010PropOp53
 70
     1
102
RTVSPost2010Prop54
  1
strokes_ogs.tif
102
RTVSPost2010PropOp54
 70
     1
102
RTVSPost2010Prop55
280
     0
102
RTVSPost2010PropOp55
 70
     1
102
RTVSPost2010Prop56
140
1.0
102
RTVSPost2010PropOp56
 70
     1
102
RTVSPost2010Prop57
140
1.0
102
RTVSPost2010PropOp57
 70
     1
  0
XRECORD
  5
131
102
{ACAD_REACTORS
330
130
102
}
330
130
100
AcDbXrecord
280
     1
102
RTVSPost2010Prop28
280
     0
102
RTVSPost2010PropOp28
 70
     1
102
RTVSPost2010Prop29
280
     1
102
RTVSPost2010PropOp29
 70
     1
102
RTVSPost2010Prop30
280
     1
102
RTVSPost2010PropOp30
 70
     1
102
RTVSPost2010Prop31
280
     0
102
RTVSPost2010PropOp31
 70
     1
102
RTVSPost2010Prop32
280
     0
102
RTVSPost2010PropOp32
 70
     1
102
RTVSPost2010Prop33
280
     0
102
RTVSPost2010PropOp33
 70
     1
102
RTVSPost2010Prop34
280
     0
102
RTVSPost2010PropOp34
 70
     1
102
RTVSPost2010Prop35
280
     0
102
RTVSPost2010PropOp35
 70
     1
102
RTVSPost2010Prop36
280
     0
102
RTVSPost2010PropOp36
 70
     1
102
RTVSPost2010Prop37
 90
       50
102
RTVSPost2010PropOp37
 70
     1
102
RTVSPost2010Prop38
140
0.0
102
RTVSPost2010PropOp38
 70
     1
102
RTVSPost2010Prop39
140
1.0
102
RTVSPost2010PropOp39
 70
     1
102
RTVSPost2010Prop40
 90
        0
102
RTVSPost2010PropOp40
 70
     1
102
RTVSPost2010Prop41ColorIndex
 90
       18
102
RTVSPost2010Prop41ColorRGB
 90
        0
102
RTVSPost2010PropOp41
 70
     1
102
RTVSPost2010Prop42
 90
       50
102
RTVSPost2010PropOp42
 70
     1
102
RTVSPost2010Prop43
 90
        3
102
RTVSPost2010PropOp43
 70
     1
102
RTVSPost2010Prop44ColorIndex
 90
        5
102
RTVSPost2010Prop44ColorRGB
 90
      255
102
RTVSPost2010PropOp44
 70
     1
102
RTVSPost2010Prop45
280
     0
102
RTVSPost2010PropOp45
 70
     1
102
RTVSPost2010Prop46
 90
       50
102
RTVSPost2010PropOp46
 70
     1
102
RTVSPost2010Prop47
 90
       50
102
RTVSPost2010PropOp47
 70
     1
102
RTVSPost2010Prop48
 90
       50
102
RTVSPost2010PropOp48
 70
     1
102
RTVSPost2010Prop49
280
     0
102
RTVSPost2010PropOp49
 70
     1
102
RTVSPost2010Prop50
 90
       50
102
RTVSPost2010PropOp50
 70
     1
102
RTVSPost2010Prop51ColorIndex
 90
      256
102
RTVSPost2010Prop51ColorRGB
 90
-16777216
102
RTVSPost2010PropOp51
 70
     0
102
RTVSPost2010Prop52
140
1.0
102
RTVSPost2010PropOp52
 70
     0
102
RTVSPost2010Prop53
 90
        2
102
RTVSPost2010PropOp53
 70
     1
102
RTVSPost2010Prop54
  1
strokes_ogs.tif
102
RTVSPost2010PropOp54
 70
     1
102
RTVSPost2010Prop55
280
     0
102
RTVSPost2010PropOp55
 70
     1
102
RTVSPost2010Prop56
140
1.0
102
RTVSPost2010PropOp56
 70
     1
102
RTVSPost2010Prop57
140
1.0
102
RTVSPost2010PropOp57
 70
     1
  0
XRECORD
  5
133
102
{ACAD_REACTORS
330
132
102
}
330
132
100
AcDbXrecord
280
     1
102
RTVSPost2010Prop28
280
     0
102
RTVSPost2010PropOp28
 70
     1
102
RTVSPost2010Prop29
280
     1
102
RTVSPost2010PropOp29
 70
     1
102
RTVSPost2010Prop30
280
     1
102
RTVSPost2010PropOp30
 70
     1
102
RTVSPost2010Prop31
280
     0
102
RTVSPost2010PropOp31
 70
     1
102
RTVSPost2010Prop32
280
     0
102
RTVSPost2010PropOp32
 70
     1
102
RTVSPost2010Prop33
280
     0
102
RTVSPost2010PropOp33
 70
     1
102
RTVSPost2010Prop34
280
     0
102
RTVSPost2010PropOp34
 70
     1
102
RTVSPost2010Prop35
280
     0
102
RTVSPost2010PropOp35
 70
     1
102
RTVSPost2010Prop36
280
     0
102
RTVSPost2010PropOp36
 70
     1
102
RTVSPost2010Prop37
 90
       50
102
RTVSPost2010PropOp37
 70
     1
102
RTVSPost2010Prop38
140
0.0
102
RTVSPost2010PropOp38
 70
     1
102
RTVSPost2010Prop39
140
1.0
102
RTVSPost2010PropOp39
 70
     1
102
RTVSPost2010Prop40
 90
        0
102
RTVSPost2010PropOp40
 70
     1
102
RTVSPost2010Prop41ColorIndex
 90
       18
102
RTVSPost2010Prop41ColorRGB
 90
        0
102
RTVSPost2010PropOp41
 70
     1
102
RTVSPost2010Prop42
 90
       50
102
RTVSPost2010PropOp42
 70
     1
102
RTVSPost2010Prop43
 90
        3
102
RTVSPost2010PropOp43
 70
     1
102
RTVSPost2010Prop44ColorIndex
 90
        5
102
RTVSPost2010Prop44ColorRGB
 90
      255
102
RTVSPost2010PropOp44
 70
     1
102
RTVSPost2010Prop45
280
     0
102
RTVSPost2010PropOp45
 70
     1
102
RTVSPost2010Prop46
 90
       50
102
RTVSPost2010PropOp46
 70
     1
102
RTVSPost2010Prop47
 90
       50
102
RTVSPost2010PropOp47
 70
     1
102
RTVSPost2010Prop48
 90
       50
102
RTVSPost2010PropOp48
 70
     1
102
RTVSPost2010Prop49
280
     0
102
RTVSPost2010PropOp49
 70
     1
102
RTVSPost2010Prop50
 90
       50
102
RTVSPost2010PropOp50
 70
     1
102
RTVSPost2010Prop51ColorIndex
 90
      256
102
RTVSPost2010Prop51ColorRGB
 90
-16777216
102
RTVSPost2010PropOp51
 70
     0
102
RTVSPost2010Prop52
140
1.0
102
RTVSPost2010PropOp52
 70
     0
102
RTVSPost2010Prop53
 90
        2
102
RTVSPost2010PropOp53
 70
     1
102
RTVSPost2010Prop54
  1
strokes_ogs.tif
102
RTVSPost2010PropOp54
 70
     1
102
RTVSPost2010Prop55
280
     0
102
RTVSPost2010PropOp55
 70
     1
102
RTVSPost2010Prop56
140
1.0
102
RTVSPost2010PropOp56
 70
     1
102
RTVSPost2010Prop57
140
1.0
102
RTVSPost2010PropOp57
 70
     1
  0
XRECORD
  5
13B
102
{ACAD_REACTORS
330
13A
102
}
330
13A
100
AcDbXrecord
280
     1
102
RTVSPost2010Prop28
280
     0
102
RTVSPost2010PropOp28
 70
     1
102
RTVSPost2010Prop29
280
     1
102
RTVSPost2010PropOp29
 70
     1
102
RTVSPost2010Prop30
280
     1
102
RTVSPost2010PropOp30
 70
     1
102
RTVSPost2010Prop31
280
     0
102
RTVSPost2010PropOp31
 70
     1
102
RTVSPost2010Prop32
280
     0
102
RTVSPost2010PropOp32
 70
     1
102
RTVSPost2010Prop33
280
     0
102
RTVSPost2010PropOp33
 70
     1
102
RTVSPost2010Prop34
280
     0
102
RTVSPost2010PropOp34
 70
     1
102
RTVSPost2010Prop35
280
     0
102
RTVSPost2010PropOp35
 70
     1
102
RTVSPost2010Prop36
280
     0
102
RTVSPost2010PropOp36
 70
     1
102
RTVSPost2010Prop37
 90
       50
102
RTVSPost2010PropOp37
 70
     1
102
RTVSPost2010Prop38
140
0.0
102
RTVSPost2010PropOp38
 70
     1
102
RTVSPost2010Prop39
140
1.0
102
RTVSPost2010PropOp39
 70
     1
102
RTVSPost2010Prop40
 90
        0
102
RTVSPost2010PropOp40
 70
     1
102
RTVSPost2010Prop41ColorIndex
 90
       18
102
RTVSPost2010Prop41ColorRGB
 90
        0
102
RTVSPost2010PropOp41
 70
     1
102
RTVSPost2010Prop42
 90
       50
102
RTVSPost2010PropOp42
 70
     1
102
RTVSPost2010Prop43
 90
        3
102
RTVSPost2010PropOp43
 70
     1
102
RTVSPost2010Prop44ColorIndex
 90
        5
102
RTVSPost2010Prop44ColorRGB
 90
      255
102
RTVSPost2010PropOp44
 70
     1
102
RTVSPost2010Prop45
280
     0
102
RTVSPost2010PropOp45
 70
     1
102
RTVSPost2010Prop46
 90
       50
102
RTVSPost2010PropOp46
 70
     1
102
RTVSPost2010Prop47
 90
       50
102
RTVSPost2010PropOp47
 70
     1
102
RTVSPost2010Prop48
 90
       50
102
RTVSPost2010PropOp48
 70
     1
102
RTVSPost2010Prop49
280
     0
102
RTVSPost2010PropOp49
 70
     1
102
RTVSPost2010Prop50
 90
       50
102
RTVSPost2010PropOp50
 70
     1
102
RTVSPost2010Prop51ColorIndex
 90
      256
102
RTVSPost2010Prop51ColorRGB
 90
-16777216
102
RTVSPost2010PropOp51
 70
     0
102
RTVSPost2010Prop52
140
1.0
102
RTVSPost2010PropOp52
 70
     0
102
RTVSPost2010Prop53
 90
        2
102
RTVSPost2010PropOp53
 70
     1
102
RTVSPost2010Prop54
  1
strokes_ogs.tif
102
RTVSPost2010PropOp54
 70
     1
102
RTVSPost2010Prop55
280
     0
102
RTVSPost2010PropOp55
 70
     1
102
RTVSPost2010Prop56
140
1.0
102
RTVSPost2010PropOp56
 70
     1
102
RTVSPost2010Prop57
140
1.0
102
RTVSPost2010PropOp57
 70
     1
  0
XRECORD
  5
157
102
{ACAD_REACTORS
330
156
102
}
330
156
100
AcDbXrecord
280
     1
102
RTVSPost2010Prop28
280
     0
102
RTVSPost2010PropOp28
 70
     0
102
RTVSPost2010Prop29
280
     1
102
RTVSPost2010PropOp29
 70
     0
102
RTVSPost2010Prop30
280
     1
102
RTVSPost2010PropOp30
 70
     0
102
RTVSPost2010Prop31
280
     0
102
RTVSPost2010PropOp31
 70
     0
102
RTVSPost2010Prop32
280
     0
102
RTVSPost2010PropOp32
 70
     0
102
RTVSPost2010Prop33
280
     0
102
RTVSPost2010PropOp33
 70
     0
102
RTVSPost2010Prop34
280
     0
102
RTVSPost2010PropOp34
 70
     0
102
RTVSPost2010Prop35
280
     0
102
RTVSPost2010PropOp35
 70
     0
102
RTVSPost2010Prop36
280
     0
102
RTVSPost2010PropOp36
 70
     0
102
RTVSPost2010Prop37
 90
       50
102
RTVSPost2010PropOp37
 70
     0
102
RTVSPost2010Prop38
140
0.0
102
RTVSPost2010PropOp38
 70
     0
102
RTVSPost2010Prop39
140
1.0
102
RTVSPost2010PropOp39
 70
     0
102
RTVSPost2010Prop40
 90
        0
102
RTVSPost2010PropOp40
 70
     0
102
RTVSPost2010Prop41ColorIndex
 90
       18
102
RTVSPost2010Prop41ColorRGB
 90
        0
102
RTVSPost2010PropOp41
 70
     0
102
RTVSPost2010Prop42
 90
       50
102
RTVSPost2010PropOp42
 70
     0
102
RTVSPost2010Prop43
 90
        3
102
RTVSPost2010PropOp43
 70
     0
102
RTVSPost2010Prop44ColorIndex
 90
        5
102
RTVSPost2010Prop44ColorRGB
 90
      255
102
RTVSPost2010PropOp44
 70
     0
102
RTVSPost2010Prop45
280
     0
102
RTVSPost2010PropOp45
 70
     0
102
RTVSPost2010Prop46
 90
       50
102
RTVSPost2010PropOp46
 70
     0
102
RTVSPost2010Prop47
 90
       50
102
RTVSPost2010PropOp47
 70
     0
102
RTVSPost2010Prop48
 90
       50
102
RTVSPost2010PropOp48
 70
     0
102
RTVSPost2010Prop49
280
     0
102
RTVSPost2010PropOp49
 70
     0
102
RTVSPost2010Prop50
 90
       50
102
RTVSPost2010PropOp50
 70
     0
102
RTVSPost2010Prop51ColorIndex
 90
      256
102
RTVSPost2010Prop51ColorRGB
 90
-16777216
102
RTVSPost2010PropOp51
 70
     0
102
RTVSPost2010Prop52
140
1.0
102
RTVSPost2010PropOp52
 70
     0
102
RTVSPost2010Prop53
 90
        2
102
RTVSPost2010PropOp53
 70
     0
102
RTVSPost2010Prop54
  1
strokes_ogs.tif
102
RTVSPost2010PropOp54
 70
     0
102
RTVSPost2010Prop55
280
     0
102
RTVSPost2010PropOp55
 70
     0
102
RTVSPost2010Prop56
140
1.0
102
RTVSPost2010PropOp56
 70
     0
102
RTVSPost2010Prop57
140
1.0
102
RTVSPost2010PropOp57
 70
     0
  0
XRECORD
  5
147
102
{ACAD_REACTORS
330
146
102
}
330
146
100
AcDbXrecord
280
     1
102
RTVSPost2010Prop28
280
     0
102
RTVSPost2010PropOp28
 70
     1
102
RTVSPost2010Prop29
280
     1
102
RTVSPost2010PropOp29
 70
     1
102
RTVSPost2010Prop30
280
     1
102
RTVSPost2010PropOp30
 70
     1
102
RTVSPost2010Prop31
280
     0
102
RTVSPost2010PropOp31
 70
     1
102
RTVSPost2010Prop32
280
     0
102
RTVSPost2010PropOp32
 70
     1
102
RTVSPost2010Prop33
280
     0
102
RTVSPost2010PropOp33
 70
     1
102
RTVSPost2010Prop34
280
     0
102
RTVSPost2010PropOp34
 70
     1
102
RTVSPost2010Prop35
280
     0
102
RTVSPost2010PropOp35
 70
     1
102
RTVSPost2010Prop36
280
     0
102
RTVSPost2010PropOp36
 70
     1
102
RTVSPost2010Prop37
 90
       50
102
RTVSPost2010PropOp37
 70
     1
102
RTVSPost2010Prop38
140
0.0
102
RTVSPost2010PropOp38
 70
     1
102
RTVSPost2010Prop39
140
1.0
102
RTVSPost2010PropOp39
 70
     1
102
RTVSPost2010Prop40
 90
        0
102
RTVSPost2010PropOp40
 70
     1
102
RTVSPost2010Prop41ColorIndex
 90
       18
102
RTVSPost2010Prop41ColorRGB
 90
        0
102
RTVSPost2010PropOp41
 70
     1
102
RTVSPost2010Prop42
 90
       50
102
RTVSPost2010PropOp42
 70
     1
102
RTVSPost2010Prop43
 90
        3
102
RTVSPost2010PropOp43
 70
     1
102
RTVSPost2010Prop44ColorIndex
 90
        5
102
RTVSPost2010Prop44ColorRGB
 90
      255
102
RTVSPost2010PropOp44
 70
     1
102
RTVSPost2010Prop45
280
     0
102
RTVSPost2010PropOp45
 70
     1
102
RTVSPost2010Prop46
 90
       50
102
RTVSPost2010PropOp46
 70
     1
102
RTVSPost2010Prop47
 90
       50
102
RTVSPost2010PropOp47
 70
     1
102
RTVSPost2010Prop48
 90
       50
102
RTVSPost2010PropOp48
 70
     1
102
RTVSPost2010Prop49
280
     0
102
RTVSPost2010PropOp49
 70
     1
102
RTVSPost2010Prop50
 90
       50
102
RTVSPost2010PropOp50
 70
     1
102
RTVSPost2010Prop51ColorIndex
 90
      256
102
RTVSPost2010Prop51ColorRGB
 90
-16777216
102
RTVSPost2010PropOp51
 70
     0
102
RTVSPost2010Prop52
140
1.0
102
RTVSPost2010PropOp52
 70
     0
102
RTVSPost2010Prop53
 90
        2
102
RTVSPost2010PropOp53
 70
     1
102
RTVSPost2010Prop54
  1
strokes_ogs.tif
102
RTVSPost2010PropOp54
 70
     1
102
RTVSPost2010Prop55
280
     0
102
RTVSPost2010PropOp55
 70
     1
102
RTVSPost2010Prop56
140
1.0
102
RTVSPost2010PropOp56
 70
     1
102
RTVSPost2010Prop57
140
1.0
102
RTVSPost2010PropOp57
 70
     1
  0
XRECORD
  5
159
102
{ACAD_REACTORS
330
158
102
}
330
158
100
AcDbXrecord
280
     1
102
RTVSPost2010Prop28
280
     0
102
RTVSPost2010PropOp28
 70
     0
102
RTVSPost2010Prop29
280
     1
102
RTVSPost2010PropOp29
 70
     0
102
RTVSPost2010Prop30
280
     1
102
RTVSPost2010PropOp30
 70
     0
102
RTVSPost2010Prop31
280
     0
102
RTVSPost2010PropOp31
 70
     0
102
RTVSPost2010Prop32
280
     0
102
RTVSPost2010PropOp32
 70
     0
102
RTVSPost2010Prop33
280
     0
102
RTVSPost2010PropOp33
 70
     0
102
RTVSPost2010Prop34
280
     0
102
RTVSPost2010PropOp34
 70
     0
102
RTVSPost2010Prop35
280
     0
102
RTVSPost2010PropOp35
 70
     0
102
RTVSPost2010Prop36
280
     0
102
RTVSPost2010PropOp36
 70
     0
102
RTVSPost2010Prop37
 90
       50
102
RTVSPost2010PropOp37
 70
     0
102
RTVSPost2010Prop38
140
0.0
102
RTVSPost2010PropOp38
 70
     0
102
RTVSPost2010Prop39
140
1.0
102
RTVSPost2010PropOp39
 70
     0
102
RTVSPost2010Prop40
 90
        0
102
RTVSPost2010PropOp40
 70
     0
102
RTVSPost2010Prop41ColorIndex
 90
       18
102
RTVSPost2010Prop41ColorRGB
 90
        0
102
RTVSPost2010PropOp41
 70
     0
102
RTVSPost2010Prop42
 90
       50
102
RTVSPost2010PropOp42
 70
     0
102
RTVSPost2010Prop43
 90
        3
102
RTVSPost2010PropOp43
 70
     0
102
RTVSPost2010Prop44ColorIndex
 90
        5
102
RTVSPost2010Prop44ColorRGB
 90
      255
102
RTVSPost2010PropOp44
 70
     0
102
RTVSPost2010Prop45
280
     0
102
RTVSPost2010PropOp45
 70
     0
102
RTVSPost2010Prop46
 90
       50
102
RTVSPost2010PropOp46
 70
     0
102
RTVSPost2010Prop47
 90
       50
102
RTVSPost2010PropOp47
 70
     0
102
RTVSPost2010Prop48
 90
       50
102
RTVSPost2010PropOp48
 70
     0
102
RTVSPost2010Prop49
280
     0
102
RTVSPost2010PropOp49
 70
     0
102
RTVSPost2010Prop50
 90
       50
102
RTVSPost2010PropOp50
 70
     0
102
RTVSPost2010Prop51ColorIndex
 90
      256
102
RTVSPost2010Prop51ColorRGB
 90
-16777216
102
RTVSPost2010PropOp51
 70
     0
102
RTVSPost2010Prop52
140
1.0
102
RTVSPost2010PropOp52
 70
     0
102
RTVSPost2010Prop53
 90
        2
102
RTVSPost2010PropOp53
 70
     0
102
RTVSPost2010Prop54
  1
strokes_ogs.tif
102
RTVSPost2010PropOp54
 70
     0
102
RTVSPost2010Prop55
280
     0
102
RTVSPost2010PropOp55
 70
     0
102
RTVSPost2010Prop56
140
1.0
102
RTVSPost2010PropOp56
 70
     0
102
RTVSPost2010Prop57
140
1.0
102
RTVSPost2010PropOp57
 70
     0
  0
XRECORD
  5
13F
102
{ACAD_REACTORS
330
13E
102
}
330
13E
100
AcDbXrecord
280
     1
102
RTVSPost2010Prop28
280
     0
102
RTVSPost2010PropOp28
 70
     1
102
RTVSPost2010Prop29
280
     1
102
RTVSPost2010PropOp29
 70
     1
102
RTVSPost2010Prop30
280
     1
102
RTVSPost2010PropOp30
 70
     1
102
RTVSPost2010Prop31
280
     0
102
RTVSPost2010PropOp31
 70
     1
102
RTVSPost2010Prop32
280
     0
102
RTVSPost2010PropOp32
 70
     1
102
RTVSPost2010Prop33
280
     0
102
RTVSPost2010PropOp33
 70
     1
102
RTVSPost2010Prop34
280
     0
102
RTVSPost2010PropOp34
 70
     1
102
RTVSPost2010Prop35
280
     0
102
RTVSPost2010PropOp35
 70
     1
102
RTVSPost2010Prop36
280
     0
102
RTVSPost2010PropOp36
 70
     1
102
RTVSPost2010Prop37
 90
       50
102
RTVSPost2010PropOp37
 70
     1
102
RTVSPost2010Prop38
140
0.0
102
RTVSPost2010PropOp38
 70
     1
102
RTVSPost2010Prop39
140
1.0
102
RTVSPost2010PropOp39
 70
     1
102
RTVSPost2010Prop40
 90
        0
102
RTVSPost2010PropOp40
 70
     1
102
RTVSPost2010Prop41ColorIndex
 90
       18
102
RTVSPost2010Prop41ColorRGB
 90
        0
102
RTVSPost2010PropOp41
 70
     1
102
RTVSPost2010Prop42
 90
       50
102
RTVSPost2010PropOp42
 70
     1
102
RTVSPost2010Prop43
 90
        3
102
RTVSPost2010PropOp43
 70
     1
102
RTVSPost2010Prop44ColorIndex
 90
        5
102
RTVSPost2010Prop44ColorRGB
 90
      255
102
RTVSPost2010PropOp44
 70
     1
102
RTVSPost2010Prop45
280
     0
102
RTVSPost2010PropOp45
 70
     1
102
RTVSPost2010Prop46
 90
       50
102
RTVSPost2010PropOp46
 70
     1
102
RTVSPost2010Prop47
 90
       50
102
RTVSPost2010PropOp47
 70
     1
102
RTVSPost2010Prop48
 90
       50
102
RTVSPost2010PropOp48
 70
     1
102
RTVSPost2010Prop49
280
     0
102
RTVSPost2010PropOp49
 70
     1
102
RTVSPost2010Prop50
 90
       50
102
RTVSPost2010PropOp50
 70
     1
102
RTVSPost2010Prop51ColorIndex
 90
      256
102
RTVSPost2010Prop51ColorRGB
 90
-16777216
102
RTVSPost2010PropOp51
 70
     0
102
RTVSPost2010Prop52
140
1.0
102
RTVSPost2010PropOp52
 70
     0
102
RTVSPost2010Prop53
 90
        2
102
RTVSPost2010PropOp53
 70
     1
102
RTVSPost2010Prop54
  1
strokes_ogs.tif
102
RTVSPost2010PropOp54
 70
     1
102
RTVSPost2010Prop55
280
     0
102
RTVSPost2010PropOp55
 70
     1
102
RTVSPost2010Prop56
140
1.0
102
RTVSPost2010PropOp56
 70
     1
102
RTVSPost2010Prop57
140
1.0
102
RTVSPost2010PropOp57
 70
     1
  0
XRECORD
  5
155
102
{ACAD_REACTORS
330
154
102
}
330
154
100
AcDbXrecord
280
     1
102
RTVSPost2010Prop28
280
     0
102
RTVSPost2010PropOp28
 70
     1
102
RTVSPost2010Prop29
280
     1
102
RTVSPost2010PropOp29
 70
     1
102
RTVSPost2010Prop30
280
     1
102
RTVSPost2010PropOp30
 70
     1
102
RTVSPost2010Prop31
280
     0
102
RTVSPost2010PropOp31
 70
     1
102
RTVSPost2010Prop32
280
     0
102
RTVSPost2010PropOp32
 70
     1
102
RTVSPost2010Prop33
280
     0
102
RTVSPost2010PropOp33
 70
     1
102
RTVSPost2010Prop34
280
     0
102
RTVSPost2010PropOp34
 70
     1
102
RTVSPost2010Prop35
280
     0
102
RTVSPost2010PropOp35
 70
     1
102
RTVSPost2010Prop36
280
     0
102
RTVSPost2010PropOp36
 70
     1
102
RTVSPost2010Prop37
 90
       50
102
RTVSPost2010PropOp37
 70
     1
102
RTVSPost2010Prop38
140
0.0
102
RTVSPost2010PropOp38
 70
     1
102
RTVSPost2010Prop39
140
1.0
102
RTVSPost2010PropOp39
 70
     1
102
RTVSPost2010Prop40
 90
        0
102
RTVSPost2010PropOp40
 70
     1
102
RTVSPost2010Prop41ColorIndex
 90
       18
102
RTVSPost2010Prop41ColorRGB
 90
        0
102
RTVSPost2010PropOp41
 70
     1
102
RTVSPost2010Prop42
 90
       50
102
RTVSPost2010PropOp42
 70
     1
102
RTVSPost2010Prop43
 90
        3
102
RTVSPost2010PropOp43
 70
     1
102
RTVSPost2010Prop44ColorIndex
 90
        5
102
RTVSPost2010Prop44ColorRGB
 90
      255
102
RTVSPost2010PropOp44
 70
     1
102
RTVSPost2010Prop45
280
     0
102
RTVSPost2010PropOp45
 70
     1
102
RTVSPost2010Prop46
 90
       50
102
RTVSPost2010PropOp46
 70
     1
102
RTVSPost2010Prop47
 90
       50
102
RTVSPost2010PropOp47
 70
     1
102
RTVSPost2010Prop48
 90
       50
102
RTVSPost2010PropOp48
 70
     1
102
RTVSPost2010Prop49
280
     0
102
RTVSPost2010PropOp49
 70
     1
102
RTVSPost2010Prop50
 90
       50
102
RTVSPost2010PropOp50
 70
     1
102
RTVSPost2010Prop51ColorIndex
 90
      256
102
RTVSPost2010Prop51ColorRGB
 90
-16777216
102
RTVSPost2010PropOp51
 70
     0
102
RTVSPost2010Prop52
140
1.0
102
RTVSPost2010PropOp52
 70
     0
102
RTVSPost2010Prop53
 90
        2
102
RTVSPost2010PropOp53
 70
     1
102
RTVSPost2010Prop54
  1
strokes_ogs.tif
102
RTVSPost2010PropOp54
 70
     1
102
RTVSPost2010Prop55
280
     0
102
RTVSPost2010PropOp55
 70
     1
102
RTVSPost2010Prop56
140
1.0
102
RTVSPost2010PropOp56
 70
     1
102
RTVSPost2010Prop57
140
1.0
102
RTVSPost2010PropOp57
 70
     1
  0
XRECORD
  5
153
102
{ACAD_REACTORS
330
152
102
}
330
152
100
AcDbXrecord
280
     1
102
RTVSPost2010Prop28
280
     0
102
RTVSPost2010PropOp28
 70
     1
102
RTVSPost2010Prop29
280
     1
102
RTVSPost2010PropOp29
 70
     1
102
RTVSPost2010Prop30
280
     1
102
RTVSPost2010PropOp30
 70
     1
102
RTVSPost2010Prop31
280
     0
102
RTVSPost2010PropOp31
 70
     1
102
RTVSPost2010Prop32
280
     0
102
RTVSPost2010PropOp32
 70
     1
102
RTVSPost2010Prop33
280
     0
102
RTVSPost2010PropOp33
 70
     1
102
RTVSPost2010Prop34
280
     0
102
RTVSPost2010PropOp34
 70
     1
102
RTVSPost2010Prop35
280
     0
102
RTVSPost2010PropOp35
 70
     1
102
RTVSPost2010Prop36
280
     0
102
RTVSPost2010PropOp36
 70
     1
102
RTVSPost2010Prop37
 90
       50
102
RTVSPost2010PropOp37
 70
     1
102
RTVSPost2010Prop38
140
0.0
102
RTVSPost2010PropOp38
 70
     1
102
RTVSPost2010Prop39
140
1.0
102
RTVSPost2010PropOp39
 70
     1
102
RTVSPost2010Prop40
 90
        0
102
RTVSPost2010PropOp40
 70
     1
102
RTVSPost2010Prop41ColorIndex
 90
       18
102
RTVSPost2010Prop41ColorRGB
 90
        0
102
RTVSPost2010PropOp41
 70
     1
102
RTVSPost2010Prop42
 90
       50
102
RTVSPost2010PropOp42
 70
     1
102
RTVSPost2010Prop43
 90
        3
102
RTVSPost2010PropOp43
 70
     1
102
RTVSPost2010Prop44ColorIndex
 90
        5
102
RTVSPost2010Prop44ColorRGB
 90
      255
102
RTVSPost2010PropOp44
 70
     1
102
RTVSPost2010Prop45
280
     0
102
RTVSPost2010PropOp45
 70
     1
102
RTVSPost2010Prop46
 90
       50
102
RTVSPost2010PropOp46
 70
     1
102
RTVSPost2010Prop47
 90
       50
102
RTVSPost2010PropOp47
 70
     1
102
RTVSPost2010Prop48
 90
       50
102
RTVSPost2010PropOp48
 70
     1
102
RTVSPost2010Prop49
280
     0
102
RTVSPost2010PropOp49
 70
     1
102
RTVSPost2010Prop50
 90
       50
102
RTVSPost2010PropOp50
 70
     1
102
RTVSPost2010Prop51ColorIndex
 90
      256
102
RTVSPost2010Prop51ColorRGB
 90
-16777216
102
RTVSPost2010PropOp51
 70
     0
102
RTVSPost2010Prop52
140
1.0
102
RTVSPost2010PropOp52
 70
     0
102
RTVSPost2010Prop53
 90
        2
102
RTVSPost2010PropOp53
 70
     1
102
RTVSPost2010Prop54
  1
strokes_ogs.tif
102
RTVSPost2010PropOp54
 70
     1
102
RTVSPost2010Prop55
280
     0
102
RTVSPost2010PropOp55
 70
     1
102
RTVSPost2010Prop56
140
1.0
102
RTVSPost2010PropOp56
 70
     1
102
RTVSPost2010Prop57
140
1.0
102
RTVSPost2010PropOp57
 70
     1
  0
XRECORD
  5
14D
102
{ACAD_REACTORS
330
14C
102
}
330
14C
100
AcDbXrecord
280
     1
102
RTVSPost2010Prop28
280
     0
102
RTVSPost2010PropOp28
 70
     1
102
RTVSPost2010Prop29
280
     1
102
RTVSPost2010PropOp29
 70
     1
102
RTVSPost2010Prop30
280
     1
102
RTVSPost2010PropOp30
 70
     1
102
RTVSPost2010Prop31
280
     0
102
RTVSPost2010PropOp31
 70
     1
102
RTVSPost2010Prop32
280
     0
102
RTVSPost2010PropOp32
 70
     1
102
RTVSPost2010Prop33
280
     0
102
RTVSPost2010PropOp33
 70
     1
102
RTVSPost2010Prop34
280
     0
102
RTVSPost2010PropOp34
 70
     1
102
RTVSPost2010Prop35
280
     0
102
RTVSPost2010PropOp35
 70
     1
102
RTVSPost2010Prop36
280
     0
102
RTVSPost2010PropOp36
 70
     1
102
RTVSPost2010Prop37
 90
       50
102
RTVSPost2010PropOp37
 70
     1
102
RTVSPost2010Prop38
140
0.0
102
RTVSPost2010PropOp38
 70
     1
102
RTVSPost2010Prop39
140
1.0
102
RTVSPost2010PropOp39
 70
     1
102
RTVSPost2010Prop40
 90
        0
102
RTVSPost2010PropOp40
 70
     1
102
RTVSPost2010Prop41ColorIndex
 90
       18
102
RTVSPost2010Prop41ColorRGB
 90
        0
102
RTVSPost2010PropOp41
 70
     1
102
RTVSPost2010Prop42
 90
       50
102
RTVSPost2010PropOp42
 70
     1
102
RTVSPost2010Prop43
 90
        3
102
RTVSPost2010PropOp43
 70
     1
102
RTVSPost2010Prop44ColorIndex
 90
        5
102
RTVSPost2010Prop44ColorRGB
 90
      255
102
RTVSPost2010PropOp44
 70
     1
102
RTVSPost2010Prop45
280
     0
102
RTVSPost2010PropOp45
 70
     1
102
RTVSPost2010Prop46
 90
       50
102
RTVSPost2010PropOp46
 70
     1
102
RTVSPost2010Prop47
 90
       50
102
RTVSPost2010PropOp47
 70
     1
102
RTVSPost2010Prop48
 90
       50
102
RTVSPost2010PropOp48
 70
     1
102
RTVSPost2010Prop49
280
     0
102
RTVSPost2010PropOp49
 70
     1
102
RTVSPost2010Prop50
 90
       50
102
RTVSPost2010PropOp50
 70
     1
102
RTVSPost2010Prop51ColorIndex
 90
      256
102
RTVSPost2010Prop51ColorRGB
 90
-16777216
102
RTVSPost2010PropOp51
 70
     0
102
RTVSPost2010Prop52
140
1.0
102
RTVSPost2010PropOp52
 70
     0
102
RTVSPost2010Prop53
 90
        2
102
RTVSPost2010PropOp53
 70
     1
102
RTVSPost2010Prop54
  1
strokes_ogs.tif
102
RTVSPost2010PropOp54
 70
     1
102
RTVSPost2010Prop55
280
     0
102
RTVSPost2010PropOp55
 70
     1
102
RTVSPost2010Prop56
140
1.0
102
RTVSPost2010PropOp56
 70
     1
102
RTVSPost2010Prop57
140
1.0
102
RTVSPost2010PropOp57
 70
     1
  0
XRECORD
  5
14F
102
{ACAD_REACTORS
330
14E
102
}
330
14E
100
AcDbXrecord
280
     1
102
RTVSPost2010Prop28
280
     0
102
RTVSPost2010PropOp28
 70
     1
102
RTVSPost2010Prop29
280
     1
102
RTVSPost2010PropOp29
 70
     1
102
RTVSPost2010Prop30
280
     1
102
RTVSPost2010PropOp30
 70
     1
102
RTVSPost2010Prop31
280
     0
102
RTVSPost2010PropOp31
 70
     1
102
RTVSPost2010Prop32
280
     0
102
RTVSPost2010PropOp32
 70
     1
102
RTVSPost2010Prop33
280
     0
102
RTVSPost2010PropOp33
 70
     1
102
RTVSPost2010Prop34
280
     0
102
RTVSPost2010PropOp34
 70
     1
102
RTVSPost2010Prop35
280
     0
102
RTVSPost2010PropOp35
 70
     1
102
RTVSPost2010Prop36
280
     0
102
RTVSPost2010PropOp36
 70
     1
102
RTVSPost2010Prop37
 90
       50
102
RTVSPost2010PropOp37
 70
     1
102
RTVSPost2010Prop38
140
0.0
102
RTVSPost2010PropOp38
 70
     1
102
RTVSPost2010Prop39
140
1.0
102
RTVSPost2010PropOp39
 70
     1
102
RTVSPost2010Prop40
 90
        0
102
RTVSPost2010PropOp40
 70
     1
102
RTVSPost2010Prop41ColorIndex
 90
       18
102
RTVSPost2010Prop41ColorRGB
 90
        0
102
RTVSPost2010PropOp41
 70
     1
102
RTVSPost2010Prop42
 90
       50
102
RTVSPost2010PropOp42
 70
     1
102
RTVSPost2010Prop43
 90
        3
102
RTVSPost2010PropOp43
 70
     1
102
RTVSPost2010Prop44ColorIndex
 90
        5
102
RTVSPost2010Prop44ColorRGB
 90
      255
102
RTVSPost2010PropOp44
 70
     1
102
RTVSPost2010Prop45
280
     0
102
RTVSPost2010PropOp45
 70
     1
102
RTVSPost2010Prop46
 90
       50
102
RTVSPost2010PropOp46
 70
     1
102
RTVSPost2010Prop47
 90
       50
102
RTVSPost2010PropOp47
 70
     1
102
RTVSPost2010Prop48
 90
       50
102
RTVSPost2010PropOp48
 70
     1
102
RTVSPost2010Prop49
280
     0
102
RTVSPost2010PropOp49
 70
     1
102
RTVSPost2010Prop50
 90
       50
102
RTVSPost2010PropOp50
 70
     1
102
RTVSPost2010Prop51ColorIndex
 90
      256
102
RTVSPost2010Prop51ColorRGB
 90
-16777216
102
RTVSPost2010PropOp51
 70
     0
102
RTVSPost2010Prop52
140
1.0
102
RTVSPost2010PropOp52
 70
     0
102
RTVSPost2010Prop53
 90
        2
102
RTVSPost2010PropOp53
 70
     1
102
RTVSPost2010Prop54
  1
strokes_ogs.tif
102
RTVSPost2010PropOp54
 70
     1
102
RTVSPost2010Prop55
280
     0
102
RTVSPost2010PropOp55
 70
     1
102
RTVSPost2010Prop56
140
1.0
102
RTVSPost2010PropOp56
 70
     1
102
RTVSPost2010Prop57
140
1.0
102
RTVSPost2010PropOp57
 70
     1
  0
XRECORD
  5
145
102
{ACAD_REACTORS
330
144
102
}
330
144
100
AcDbXrecord
280
     1
102
RTVSPost2010Prop28
280
     0
102
RTVSPost2010PropOp28
 70
     1
102
RTVSPost2010Prop29
280
     1
102
RTVSPost2010PropOp29
 70
     1
102
RTVSPost2010Prop30
280
     1
102
RTVSPost2010PropOp30
 70
     1
102
RTVSPost2010Prop31
280
     0
102
RTVSPost2010PropOp31
 70
     1
102
RTVSPost2010Prop32
280
     0
102
RTVSPost2010PropOp32
 70
     1
102
RTVSPost2010Prop33
280
     0
102
RTVSPost2010PropOp33
 70
     1
102
RTVSPost2010Prop34
280
     0
102
RTVSPost2010PropOp34
 70
     1
102
RTVSPost2010Prop35
280
     0
102
RTVSPost2010PropOp35
 70
     1
102
RTVSPost2010Prop36
280
     0
102
RTVSPost2010PropOp36
 70
     1
102
RTVSPost2010Prop37
 90
       50
102
RTVSPost2010PropOp37
 70
     1
102
RTVSPost2010Prop38
140
0.0
102
RTVSPost2010PropOp38
 70
     1
102
RTVSPost2010Prop39
140
1.0
102
RTVSPost2010PropOp39
 70
     1
102
RTVSPost2010Prop40
 90
        0
102
RTVSPost2010PropOp40
 70
     1
102
RTVSPost2010Prop41ColorIndex
 90
       18
102
RTVSPost2010Prop41ColorRGB
 90
        0
102
RTVSPost2010PropOp41
 70
     1
102
RTVSPost2010Prop42
 90
       50
102
RTVSPost2010PropOp42
 70
     1
102
RTVSPost2010Prop43
 90
        3
102
RTVSPost2010PropOp43
 70
     1
102
RTVSPost2010Prop44ColorIndex
 90
        5
102
RTVSPost2010Prop44ColorRGB
 90
      255
102
RTVSPost2010PropOp44
 70
     1
102
RTVSPost2010Prop45
280
     0
102
RTVSPost2010PropOp45
 70
     1
102
RTVSPost2010Prop46
 90
       50
102
RTVSPost2010PropOp46
 70
     1
102
RTVSPost2010Prop47
 90
       50
102
RTVSPost2010PropOp47
 70
     1
102
RTVSPost2010Prop48
 90
       50
102
RTVSPost2010PropOp48
 70
     1
102
RTVSPost2010Prop49
280
     0
102
RTVSPost2010PropOp49
 70
     1
102
RTVSPost2010Prop50
 90
       50
102
RTVSPost2010PropOp50
 70
     1
102
RTVSPost2010Prop51ColorIndex
 90
      256
102
RTVSPost2010Prop51ColorRGB
 90
-16777216
102
RTVSPost2010PropOp51
 70
     0
102
RTVSPost2010Prop52
140
1.0
102
RTVSPost2010PropOp52
 70
     0
102
RTVSPost2010Prop53
 90
        2
102
RTVSPost2010PropOp53
 70
     1
102
RTVSPost2010Prop54
  1
strokes_ogs.tif
102
RTVSPost2010PropOp54
 70
     1
102
RTVSPost2010Prop55
280
     0
102
RTVSPost2010PropOp55
 70
     1
102
RTVSPost2010Prop56
140
1.0
102
RTVSPost2010PropOp56
 70
     1
102
RTVSPost2010Prop57
140
1.0
102
RTVSPost2010PropOp57
 70
     1
  0
XRECORD
  5
139
102
{ACAD_REACTORS
330
138
102
}
330
138
100
AcDbXrecord
280
     1
102
RTVSPost2010Prop28
280
     0
102
RTVSPost2010PropOp28
 70
     1
102
RTVSPost2010Prop29
280
     1
102
RTVSPost2010PropOp29
 70
     1
102
RTVSPost2010Prop30
280
     1
102
RTVSPost2010PropOp30
 70
     1
102
RTVSPost2010Prop31
280
     0
102
RTVSPost2010PropOp31
 70
     1
102
RTVSPost2010Prop32
280
     0
102
RTVSPost2010PropOp32
 70
     1
102
RTVSPost2010Prop33
280
     0
102
RTVSPost2010PropOp33
 70
     1
102
RTVSPost2010Prop34
280
     0
102
RTVSPost2010PropOp34
 70
     1
102
RTVSPost2010Prop35
280
     0
102
RTVSPost2010PropOp35
 70
     1
102
RTVSPost2010Prop36
280
     0
102
RTVSPost2010PropOp36
 70
     1
102
RTVSPost2010Prop37
 90
       50
102
RTVSPost2010PropOp37
 70
     1
102
RTVSPost2010Prop38
140
0.0
102
RTVSPost2010PropOp38
 70
     1
102
RTVSPost2010Prop39
140
1.0
102
RTVSPost2010PropOp39
 70
     1
102
RTVSPost2010Prop40
 90
        0
102
RTVSPost2010PropOp40
 70
     1
102
RTVSPost2010Prop41ColorIndex
 90
       18
102
RTVSPost2010Prop41ColorRGB
 90
        0
102
RTVSPost2010PropOp41
 70
     1
102
RTVSPost2010Prop42
 90
       50
102
RTVSPost2010PropOp42
 70
     1
102
RTVSPost2010Prop43
 90
        3
102
RTVSPost2010PropOp43
 70
     1
102
RTVSPost2010Prop44ColorIndex
 90
        5
102
RTVSPost2010Prop44ColorRGB
 90
      255
102
RTVSPost2010PropOp44
 70
     1
102
RTVSPost2010Prop45
280
     0
102
RTVSPost2010PropOp45
 70
     1
102
RTVSPost2010Prop46
 90
       50
102
RTVSPost2010PropOp46
 70
     1
102
RTVSPost2010Prop47
 90
       50
102
RTVSPost2010PropOp47
 70
     1
102
RTVSPost2010Prop48
 90
       50
102
RTVSPost2010PropOp48
 70
     1
102
RTVSPost2010Prop49
280
     0
102
RTVSPost2010PropOp49
 70
     1
102
RTVSPost2010Prop50
 90
       50
102
RTVSPost2010PropOp50
 70
     1
102
RTVSPost2010Prop51ColorIndex
 90
      256
102
RTVSPost2010Prop51ColorRGB
 90
-16777216
102
RTVSPost2010PropOp51
 70
     0
102
RTVSPost2010Prop52
140
1.0
102
RTVSPost2010PropOp52
 70
     0
102
RTVSPost2010Prop53
 90
        2
102
RTVSPost2010PropOp53
 70
     1
102
RTVSPost2010Prop54
  1
strokes_ogs.tif
102
RTVSPost2010PropOp54
 70
     1
102
RTVSPost2010Prop55
280
     0
102
RTVSPost2010PropOp55
 70
     1
102
RTVSPost2010Prop56
140
1.0
102
RTVSPost2010PropOp56
 70
     1
102
RTVSPost2010Prop57
140
1.0
102
RTVSPost2010PropOp57
 70
     1
  0
XRECORD
  5
151
102
{ACAD_REACTORS
330
150
102
}
330
150
100
AcDbXrecord
280
     1
102
RTVSPost2010Prop28
280
     0
102
RTVSPost2010PropOp28
 70
     1
102
RTVSPost2010Prop29
280
     1
102
RTVSPost2010PropOp29
 70
     1
102
RTVSPost2010Prop30
280
     1
102
RTVSPost2010PropOp30
 70
     1
102
RTVSPost2010Prop31
280
     0
102
RTVSPost2010PropOp31
 70
     1
102
RTVSPost2010Prop32
280
     0
102
RTVSPost2010PropOp32
 70
     1
102
RTVSPost2010Prop33
280
     0
102
RTVSPost2010PropOp33
 70
     1
102
RTVSPost2010Prop34
280
     0
102
RTVSPost2010PropOp34
 70
     1
102
RTVSPost2010Prop35
280
     0
102
RTVSPost2010PropOp35
 70
     1
102
RTVSPost2010Prop36
280
     0
102
RTVSPost2010PropOp36
 70
     1
102
RTVSPost2010Prop37
 90
       50
102
RTVSPost2010PropOp37
 70
     1
102
RTVSPost2010Prop38
140
0.0
102
RTVSPost2010PropOp38
 70
     1
102
RTVSPost2010Prop39
140
1.0
102
RTVSPost2010PropOp39
 70
     1
102
RTVSPost2010Prop40
 90
        0
102
RTVSPost2010PropOp40
 70
     1
102
RTVSPost2010Prop41ColorIndex
 90
       18
102
RTVSPost2010Prop41ColorRGB
 90
        0
102
RTVSPost2010PropOp41
 70
     1
102
RTVSPost2010Prop42
 90
       50
102
RTVSPost2010PropOp42
 70
     1
102
RTVSPost2010Prop43
 90
        3
102
RTVSPost2010PropOp43
 70
     1
102
RTVSPost2010Prop44ColorIndex
 90
        5
102
RTVSPost2010Prop44ColorRGB
 90
      255
102
RTVSPost2010PropOp44
 70
     1
102
RTVSPost2010Prop45
280
     0
102
RTVSPost2010PropOp45
 70
     1
102
RTVSPost2010Prop46
 90
       50
102
RTVSPost2010PropOp46
 70
     1
102
RTVSPost2010Prop47
 90
       50
102
RTVSPost2010PropOp47
 70
     1
102
RTVSPost2010Prop48
 90
       50
102
RTVSPost2010PropOp48
 70
     1
102
RTVSPost2010Prop49
280
     0
102
RTVSPost2010PropOp49
 70
     1
102
RTVSPost2010Prop50
 90
       50
102
RTVSPost2010PropOp50
 70
     1
102
RTVSPost2010Prop51ColorIndex
 90
      256
102
RTVSPost2010Prop51ColorRGB
 90
-16777216
102
RTVSPost2010PropOp51
 70
     0
102
RTVSPost2010Prop52
140
1.0
102
RTVSPost2010PropOp52
 70
     0
102
RTVSPost2010Prop53
 90
        2
102
RTVSPost2010PropOp53
 70
     1
102
RTVSPost2010Prop54
  1
strokes_ogs.tif
102
RTVSPost2010PropOp54
 70
     1
102
RTVSPost2010Prop55
280
     0
102
RTVSPost2010PropOp55
 70
     1
102
RTVSPost2010Prop56
140
1.0
102
RTVSPost2010PropOp56
 70
     1
102
RTVSPost2010Prop57
140
1.0
102
RTVSPost2010PropOp57
 70
     1
  0
ENDSEC
  0
EOF
