  0
SECTION
  2
HEADER
  9
$ACADVER
  1
AC1024
  9
$ACADMAINTVER
 70
   226
  9
$DWGCODEPAGE
  3
ANSI_932
  9
$INSBASE
 10
0.0
 20
0.0
 30
0.0
  9
$EXTMIN
 10
1.000000000000000E+20
 20
1.000000000000000E+20
 30
1.000000000000000E+20
  9
$EXTMAX
 10
-1.000000000000000E+20
 20
-1.000000000000000E+20
 30
-1.000000000000000E+20
  9
$LIMMIN
 10
0.0
 20
0.0
  9
$LIMMAX
 10
12.0
 20
9.0
  9
$ORTHOMODE
 70
     0
  9
$REGENMODE
 70
     1
  9
$FILLMODE
 70
     1
  9
$QTEXTMODE
 70
     0
  9
$MIRRTEXT
 70
     0
  9
$LTSCALE
 40
1.0
  9
$ATTMODE
 70
     1
  9
$TEXTSIZE
 40
0.2
  9
$TRACEWID
 40
0.05
  9
$TEXTSTYLE
  7
Standard
  9
$CLAYER
  8
0
  9
$CELTYPE
  6
ByLayer
  9
$CECOLOR
 62
   256
  9
$CELTSCALE
 40
1.0
  9
$DISPSILH
 70
     0
  9
$DIMSCALE
 40
1.0
  9
$DIMASZ
 40
0.18
  9
$DIMEXO
 40
0.0625
  9
$DIMDLI
 40
0.38
  9
$DIMRND
 40
0.0
  9
$DIMDLE
 40
0.0
  9
$DIMEXE
 40
0.18
  9
$DIMTP
 40
0.0
  9
$DIMTM
 40
0.0
  9
$DIMTXT
 40
0.18
  9
$DIMCEN
 40
0.09
  9
$DIMTSZ
 40
0.0
  9
$DIMTOL
 70
     0
  9
$DIMLIM
 70
     0
  9
$DIMTIH
 70
     1
  9
$DIMTOH
 70
     1
  9
$DIMSE1
 70
     0
  9
$DIMSE2
 70
     0
  9
$DIMTAD
 70
     0
  9
$DIMZIN
 70
     0
  9
$DIMBLK
  1

  9
$DIMASO
 70
     1
  9
$DIMSHO
 70
     1
  9
$DIMPOST
  1

  9
$DIMAPOST
  1

  9
$DIMALT
 70
     0
  9
$DIMALTD
 70
     2
  9
$DIMALTF
 40
25.4
  9
$DIMLFAC
 40
1.0
  9
$DIMTOFL
 70
     0
  9
$DIMTVP
 40
0.0
  9
$DIMTIX
 70
     0
  9
$DIMSOXD
 70
     0
  9
$DIMSAH
 70
     0
  9
$DIMBLK1
  1

  9
$DIMBLK2
  1

  9
$DIMSTYLE
  2
Standard
  9
$DIMCLRD
 70
     0
  9
$DIMCLRE
 70
     0
  9
$DIMCLRT
 70
     0
  9
$DIMTFAC
 40
1.0
  9
$DIMGAP
 40
0.09
  9
$DIMJUST
 70
     0
  9
$DIMSD1
 70
     0
  9
$DIMSD2
 70
     0
  9
$DIMTOLJ
 70
     1
  9
$DIMTZIN
 70
     0
  9
$DIMALTZ
 70
     0
  9
$DIMALTTZ
 70
     0
  9
$DIMUPT
 70
     0
  9
$DIMDEC
 70
     4
  9
$DIMTDEC
 70
     4
  9
$DIMALTU
 70
     2
  9
$DIMALTTD
 70
     2
  9
$DIMTXSTY
  7
Standard
  9
$DIMAUNIT
 70
     0
  9
$DIMADEC
 70
     0
  9
$DIMALTRND
 40
0.0
  9
$DIMAZIN
 70
     0
  9
$DIMDSEP
 70
    46
  9
$DIMATFIT
 70
     3
  9
$DIMFRAC
 70
     0
  9
$DIMLDRBLK
  1

  9
$DIMLUNIT
 70
     2
  9
$DIMLWD
 70
    -2
  9
$DIMLWE
 70
    -2
  9
$DIMTMOVE
 70
     0
  9
$DIMFXL
 40
1.0
  9
$DIMFXLON
 70
     0
  9
$DIMJOGANG
 40
0.7853981633974483
  9
$DIMTFILL
 70
     0
  9
$DIMTFILLCLR
 70
     0
  9
$DIMARCSYM
 70
     0
  9
$DIMLTYPE
  6

  9
$DIMLTEX1
  6

  9
$DIMLTEX2
  6

  9
$DIMTXTDIRECTION
 70
     0
  9
$LUNITS
 70
     2
  9
$LUPREC
 70
     4
  9
$SKETCHINC
 40
0.1
  9
$FILLETRAD
 40
0.0
  9
$AUNITS
 70
     0
  9
$AUPREC
 70
     0
  9
$MENU
  1
.
  9
$ELEVATION
 40
0.0
  9
$PELEVATION
 40
0.0
  9
$THICKNESS
 40
0.0
  9
$LIMCHECK
 70
     0
  9
$CHAMFERA
 40
0.0
  9
$CHAMFERB
 40
0.0
  9
$CHAMFERC
 40
0.0
  9
$CHAMFERD
 40
0.0
  9
$SKPOLY
 70
     0
  9
$TDCREATE
 40
2459569.489328704
  9
$TDUCREATE
 40
2459569.114328704
  9
$TDUPDATE
 40
2459569.489328704
  9
$TDUUPDATE
 40
2459569.114328704
  9
$TDINDWG
 40
0.0000000000
  9
$TDUSRTIMER
 40
0.0000000000
  9
$USRTIMER
 70
     1
  9
$ANGBASE
 50
0.0
  9
$ANGDIR
 70
     0
  9
$PDMODE
 70
     0
  9
$PDSIZE
 40
0.0
  9
$PLINEWID
 40
0.0
  9
$SPLFRAME
 70
     0
  9
$SPLINETYPE
 70
     6
  9
$SPLINESEGS
 70
     8
  9
$HANDSEED
  5
151
  9
$SURFTAB1
 70
     6
  9
$SURFTAB2
 70
     6
  9
$SURFTYPE
 70
     6
  9
$SURFU
 70
     6
  9
$SURFV
 70
     6
  9
$UCSBASE
  2

  9
$UCSNAME
  2

  9
$UCSORG
 10
0.0
 20
0.0
 30
0.0
  9
$UCSXDIR
 10
1.0
 20
0.0
 30
0.0
  9
$UCSYDIR
 10
0.0
 20
1.0
 30
0.0
  9
$UCSORTHOREF
  2

  9
$UCSORTHOVIEW
 70
     0
  9
$UCSORGTOP
 10
0.0
 20
0.0
 30
0.0
  9
$UCSORGBOTTOM
 10
0.0
 20
0.0
 30
0.0
  9
$UCSORGLEFT
 10
0.0
 20
0.0
 30
0.0
  9
$UCSORGRIGHT
 10
0.0
 20
0.0
 30
0.0
  9
$UCSORGFRONT
 10
0.0
 20
0.0
 30
0.0
  9
$UCSORGBACK
 10
0.0
 20
0.0
 30
0.0
  9
$PUCSBASE
  2

  9
$PUCSNAME
  2

  9
$PUCSORG
 10
0.0
 20
0.0
 30
0.0
  9
$PUCSXDIR
 10
1.0
 20
0.0
 30
0.0
  9
$PUCSYDIR
 10
0.0
 20
1.0
 30
0.0
  9
$PUCSORTHOREF
  2

  9
$PUCSORTHOVIEW
 70
     0
  9
$PUCSORGTOP
 10
0.0
 20
0.0
 30
0.0
  9
$PUCSORGBOTTOM
 10
0.0
 20
0.0
 30
0.0
  9
$PUCSORGLEFT
 10
0.0
 20
0.0
 30
0.0
  9
$PUCSORGRIGHT
 10
0.0
 20
0.0
 30
0.0
  9
$PUCSORGFRONT
 10
0.0
 20
0.0
 30
0.0
  9
$PUCSORGBACK
 10
0.0
 20
0.0
 30
0.0
  9
$USERI1
 70
     0
  9
$USERI2
 70
     0
  9
$USERI3
 70
     0
  9
$USERI4
 70
     0
  9
$USERI5
 70
     0
  9
$USERR1
 40
0.0
  9
$USERR2
 40
0.0
  9
$USERR3
 40
0.0
  9
$USERR4
 40
0.0
  9
$USERR5
 40
0.0
  9
$WORLDVIEW
 70
     1
  9
$SHADEDGE
 70
     3
  9
$SHADEDIF
 70
    70
  9
$TILEMODE
 70
     1
  9
$MAXACTVP
 70
    64
  9
$PINSBASE
 10
0.0
 20
0.0
 30
0.0
  9
$PLIMCHECK
 70
     0
  9
$PEXTMIN
 10
1.000000000000000E+20
 20
1.000000000000000E+20
 30
1.000000000000000E+20
  9
$PEXTMAX
 10
-1.000000000000000E+20
 20
-1.000000000000000E+20
 30
-1.000000000000000E+20
  9
$PLIMMIN
 10
0.0
 20
0.0
  9
$PLIMMAX
 10
12.0
 20
9.0
  9
$UNITMODE
 70
     0
  9
$VISRETAIN
 70
     1
  9
$PLINEGEN
 70
     0
  9
$PSLTSCALE
 70
     1
  9
$TREEDEPTH
 70
  3020
  9
$CMLSTYLE
  2
Standard
  9
$CMLJUST
 70
     0
  9
$CMLSCALE
 40
1.0
  9
$PROXYGRAPHICS
 70
     1
  9
$MEASUREMENT
 70
     0
  9
$CELWEIGHT
370
    -1
  9
$ENDCAPS
280
     0
  9
$JOINSTYLE
280
     0
  9
$LWDISPLAY
290
     1
  9
$INSUNITS
 70
     4
  9
$HYPERLINKBASE
  1

  9
$STYLESHEET
  1

  9
$XEDIT
290
     1
  9
$CEPSNTYPE
380
     0
  9
$PSTYLEMODE
290
     1
  9
$FINGERPRINTGUID
  2
{90388024-286D-BF46-96A3-445BF158BADC}
  9
$VERSIONGUID
  2
{008566C2-3862-8647-A38A-1AF5A0902137}
  9
$EXTNAMES
290
     1
  9
$PSVPSCALE
 40
0.0
  9
$OLESTARTUP
290
     0
  9
$SORTENTS
280
   127
  9
$INDEXCTL
280
     0
  9
$HIDETEXT
280
     1
  9
$XCLIPFRAME
280
     2
  9
$HALOGAP
280
     0
  9
$OBSCOLOR
 70
   257
  9
$OBSLTYPE
280
     0
  9
$INTERSECTIONDISPLAY
280
     0
  9
$INTERSECTIONCOLOR
 70
   257
  9
$DIMASSOC
280
     2
  9
$PROJECTNAME
  1

  9
$CAMERADISPLAY
290
     0
  9
$LENSLENGTH
 40
50.0
  9
$CAMERAHEIGHT
 40
0.0
  9
$STEPSPERSEC
 40
2.0
  9
$STEPSIZE
 40
6.0
  9
$3DDWFPREC
 40
2.0
  9
$PSOLWIDTH
 40
0.25
  9
$PSOLHEIGHT
 40
4.0
  9
$LOFTANG1
 40
1.570796326794896
  9
$LOFTANG2
 40
1.570796326794896
  9
$LOFTMAG1
 40
0.0
  9
$LOFTMAG2
 40
0.0
  9
$LOFTPARAM
 70
     7
  9
$LOFTNORMALS
280
     1
  9
$LATITUDE
 40
37.795
  9
$LONGITUDE
 40
-122.394
  9
$NORTHDIRECTION
 40
0.0
  9
$TIMEZONE
 70
 -8000
  9
$LIGHTGLYPHDISPLAY
280
     1
  9
$TILEMODELIGHTSYNCH
280
     1
  9
$CMATERIAL
347
11
  9
$SOLIDHIST
280
     0
  9
$SHOWHIST
280
     1
  9
$DWFFRAME
280
     2
  9
$DGNFRAME
280
     0
  9
$REALWORLDSCALE
290
     1
  9
$INTERFERECOLOR
 62
     1
  9
$INTERFEREOBJVS
345
33
  9
$INTERFEREVPVS
346
30
  9
$CSHADOW
280
     0
  9
$SHADOWPLANELOCATION
 40
0.0
  0
ENDSEC
  0
SECTION
  2
CLASSES
  0
CLASS
  1
ACDBDICTIONARYWDFLT
  2
AcDbDictionaryWithDefault
  3
ObjectDBX Classes
 90
        0
 91
        1
280
     0
281
     0
  0
CLASS
  1
MATERIAL
  2
AcDbMaterial
  3
ObjectDBX Classes
 90
     1153
 91
        3
280
     0
281
     0
  0
CLASS
  1
VISUALSTYLE
  2
AcDbVisualStyle
  3
ObjectDBX Classes
 90
     4095
 91
       24
280
     0
281
     0
  0
CLASS
  1
SCALE
  2
AcDbScale
  3
ObjectDBX Classes
 90
     1153
 91
       17
280
     0
281
     0
  0
CLASS
  1
TABLESTYLE
  2
AcDbTableStyle
  3
ObjectDBX Classes
 90
     4095
 91
        1
280
     0
281
     0
  0
CLASS
  1
MLEADERSTYLE
  2
AcDbMLeaderStyle
  3
ACDB_MLEADERSTYLE_CLASS
 90
     4095
 91
        1
280
     0
281
     0
  0
CLASS
  1
ACDBSECTIONVIEWSTYLE
  2
AcDbSectionViewStyle
  3
ObjectDBX Classes
 90
     1025
 91
        1
280
     0
281
     0
  0
CLASS
  1
ACDBDETAILVIEWSTYLE
  2
AcDbDetailViewStyle
  3
ObjectDBX Classes
 90
     1025
 91
        1
280
     0
281
     0
  0
CLASS
  1
DICTIONARYVAR
  2
AcDbDictionaryVar
  3
ObjectDBX Classes
 90
        0
 91
        5
280
     0
281
     0
  0
CLASS
  1
CELLSTYLEMAP
  2
AcDbCellStyleMap
  3
ObjectDBX Classes
 90
     1152
 91
        1
280
     0
281
     0
  0
ENDSEC
  0
SECTION
  2
TABLES
  0
TABLE
  2
VPORT
  5
8
330
0
100
AcDbSymbolTable
 70
     1
  0
VPORT
  5
57
330
8
100
AcDbSymbolTableRecord
100
AcDbViewportTableRecord
  2
*Active
 70
     0
 10
0.0
 20
0.0
 11
1.0
 21
1.0
 12
0.0
 22
0.0
 13
0.0
 23
0.0
 14
1.0
 24
1.0
 15
0.0
 25
0.0
 16
0.0
 26
0.0
 36
1.0
 17
104.9999999737534
 27
-148.4999999628701
 37
0.0
 40
302.939999924255
 41
0.7070707070707534
 42
50.0
 43
0.0
 44
0.0
 50
0.0
 51
0.0
 71
     0
 72
   100
 73
     1
 74
     0
 75
     1
 76
     0
 77
     0
 78
     0
281
     0
 65
     1
110
0.0
120
0.0
130
0.0
111
1.0
121
0.0
131
0.0
112
0.0
122
1.0
132
0.0
 79
     0
146
0.0
 60
     3
 61
     5
292
     1
282
     1
141
0.0
142
0.0
 63
   250
421
  3355443
  0
ENDTAB
  0
TABLE
  2
LTYPE
  5
5
330
0
100
AcDbSymbolTable
 70
     2
  0
LTYPE
  5
5B
330
5
100
AcDbSymbolTableRecord
100
AcDbLinetypeTableRecord
  2
ByBlock
 70
     0
  3

 72
    65
 73
     0
 40
0.0
  0
LTYPE
  5
5C
330
5
100
AcDbSymbolTableRecord
100
AcDbLinetypeTableRecord
  2
ByLayer
 70
     0
  3

 72
    65
 73
     0
 40
0.0
  0
LTYPE
  5
5D
330
5
100
AcDbSymbolTableRecord
100
AcDbLinetypeTableRecord
  2
Continuous
 70
     0
  3
Solid line
 72
    65
 73
     0
 40
0.0
  0
LTYPE
  5
F5
330
5
100
AcDbSymbolTableRecord
100
AcDbLinetypeTableRecord
  2
AI-Linetype-0
 70
     0
  3
Adobe Illustrator Linetype No. 0
 72
    65
 73
     2
 40
1.411111110758333
 49
0.7055555553791667
 74
     0
 49
-0.7055555553791667
 74
     0
  0
ENDTAB
  0
TABLE
  2
LAYER
  5
2
330
0
100
AcDbSymbolTable
 70
     2
  0
LAYER
  5
54
330
2
100
AcDbSymbolTableRecord
100
AcDbLayerTableRecord
  2
0
 70
     0
 62
     7
  6
Continuous
370
    -3
390
F
347
21
  0
LAYER
  5
78
330
2
100
AcDbSymbolTableRecord
100
AcDbLayerTableRecord
  2
レイヤー 1
 70
     0
 62
     7
  6
Continuous
370
     0
390
F
347
21
  0
ENDTAB
  0
TABLE
  2
STYLE
  5
3
330
0
100
AcDbSymbolTable
 70
     2
  0
STYLE
  5
55
330
3
100
AcDbSymbolTableRecord
100
AcDbTextStyleTableRecord
  2
Standard
 70
     0
 40
0.0
 41
1.0
 50
0.0
 71
     0
 42
0.2
  3
txt
  4

  0
STYLE
  5
5A
330
3
100
AcDbSymbolTableRecord
100
AcDbTextStyleTableRecord
  2
Annotative
 70
     0
 40
0.0
 41
1.0
 50
0.0
 71
     0
 42
0.2
  3
txt
  4

1001
AcadAnnotative
1000
AnnotativeData
1002
{
1070
     1
1070
     1
1002
}
  0
ENDTAB
  0
TABLE
  2
VIEW
  5
6
330
0
100
AcDbSymbolTable
 70
     0
  0
ENDTAB
  0
TABLE
  2
UCS
  5
7
330
0
100
AcDbSymbolTable
 70
     0
  0
ENDTAB
  0
TABLE
  2
APPID
  5
9
330
0
100
AcDbSymbolTable
 70
     2
  0
APPID
  5
56
330
9
100
AcDbSymbolTableRecord
100
AcDbRegAppTableRecord
  2
ACAD
 70
     0
  0
APPID
  5
5E
330
9
100
AcDbSymbolTableRecord
100
AcDbRegAppTableRecord
  2
AcadAnnotative
 70
     0
  0
ENDTAB
  0
TABLE
  2
DIMSTYLE
  5
A
330
0
100
AcDbSymbolTable
 70
     2
100
AcDbDimStyleTable
 71
     0
  0
DIMSTYLE
105
58
330
A
100
AcDbSymbolTableRecord
100
AcDbDimStyleTableRecord
  2
Standard
 70
     0
340
55
  0
DIMSTYLE
105
59
330
A
100
AcDbSymbolTableRecord
100
AcDbDimStyleTableRecord
  2
Annotative
 70
     0
340
55
1001
AcadAnnotative
1000
AnnotativeData
1002
{
1070
     1
1070
     1
1002
}
  0
ENDTAB
  0
TABLE
  2
BLOCK_RECORD
  5
1
330
0
100
AcDbSymbolTable
 70
    16
  0
BLOCK_RECORD
  5
70
330
1
100
AcDbSymbolTableRecord
100
AcDbBlockTableRecord
  2
*Model_Space
340
73
 70
     0
280
     1
281
     0
  0
BLOCK_RECORD
  5
6C
330
1
100
AcDbSymbolTableRecord
100
AcDbBlockTableRecord
  2
*Paper_Space
340
6F
 70
     0
280
     1
281
     0
  0
BLOCK_RECORD
  5
74
330
1
100
AcDbSymbolTableRecord
100
AcDbBlockTableRecord
  2
*Paper_Space0
340
77
 70
     0
280
     1
281
     0
  0
BLOCK_RECORD
  5
7C
330
1
100
AcDbSymbolTableRecord
100
AcDbBlockTableRecord
  2
Block_0
340
0
102
{BLKREFS
331
7D
102
}
 70
     0
280
     1
281
     0
  0
BLOCK_RECORD
  5
80
330
1
100
AcDbSymbolTableRecord
100
AcDbBlockTableRecord
  2
Block_1
340
0
102
{BLKREFS
331
81
102
}
 70
     0
280
     1
281
     0
  0
BLOCK_RECORD
  5
8A
330
1
100
AcDbSymbolTableRecord
100
AcDbBlockTableRecord
  2
Block_2
340
0
102
{BLKREFS
331
8B
102
}
 70
     0
280
     1
281
     0
  0
BLOCK_RECORD
  5
8E
330
1
100
AcDbSymbolTableRecord
100
AcDbBlockTableRecord
  2
Block_3
340
0
102
{BLKREFS
331
8F
102
}
 70
     0
280
     1
281
     0
  0
BLOCK_RECORD
  5
A1
330
1
100
AcDbSymbolTableRecord
100
AcDbBlockTableRecord
  2
Block_4
340
0
102
{BLKREFS
331
A2
102
}
 70
     0
280
     1
281
     0
  0
BLOCK_RECORD
  5
AB
330
1
100
AcDbSymbolTableRecord
100
AcDbBlockTableRecord
  2
Block_5
340
0
102
{BLKREFS
331
AC
102
}
 70
     0
280
     1
281
     0
  0
BLOCK_RECORD
  5
B1
330
1
100
AcDbSymbolTableRecord
100
AcDbBlockTableRecord
  2
Block_6
340
0
102
{BLKREFS
331
B2
102
}
 70
     0
280
     1
281
     0
  0
BLOCK_RECORD
  5
B5
330
1
100
AcDbSymbolTableRecord
100
AcDbBlockTableRecord
  2
Block_7
340
0
102
{BLKREFS
331
B6
102
}
 70
     0
280
     1
281
     0
  0
BLOCK_RECORD
  5
C3
330
1
100
AcDbSymbolTableRecord
100
AcDbBlockTableRecord
  2
Block_8
340
0
102
{BLKREFS
331
C4
102
}
 70
     0
280
     1
281
     0
  0
BLOCK_RECORD
  5
C7
330
1
100
AcDbSymbolTableRecord
100
AcDbBlockTableRecord
  2
Block_9
340
0
102
{BLKREFS
331
C8
102
}
 70
     0
280
     1
281
     0
  0
BLOCK_RECORD
  5
D0
330
1
100
AcDbSymbolTableRecord
100
AcDbBlockTableRecord
  2
Block_10
340
0
102
{BLKREFS
331
D1
102
}
 70
     0
280
     1
281
     0
  0
BLOCK_RECORD
  5
DE
330
1
100
AcDbSymbolTableRecord
100
AcDbBlockTableRecord
  2
Block_11
340
0
102
{BLKREFS
331
DF
102
}
 70
     0
280
     1
281
     0
  0
BLOCK_RECORD
  5
F0
330
1
100
AcDbSymbolTableRecord
100
AcDbBlockTableRecord
  2
Block_12
340
0
102
{BLKREFS
331
F1
102
}
 70
     0
280
     1
281
     0
  0
BLOCK_RECORD
  5
F8
330
1
100
AcDbSymbolTableRecord
100
AcDbBlockTableRecord
  2
Block_13
340
0
102
{BLKREFS
331
F9
102
}
 70
     0
280
     1
281
     0
  0
BLOCK_RECORD
  5
FC
330
1
100
AcDbSymbolTableRecord
100
AcDbBlockTableRecord
  2
Block_14
340
0
102
{BLKREFS
331
FD
102
}
 70
     0
280
     1
281
     0
  0
ENDTAB
  0
ENDSEC
  0
SECTION
  2
BLOCKS
  0
BLOCK
  5
71
330
70
100
AcDbEntity
  8
0
100
AcDbBlockBegin
  2
*Model_Space
 70
     0
 10
0.0
 20
0.0
 30
0.0
  3
*Model_Space
  1

  0
ENDBLK
  5
72
330
70
100
AcDbEntity
  8
0
100
AcDbBlockEnd
  0
BLOCK
  5
6D
330
6C
100
AcDbEntity
 67
     1
  8
0
100
AcDbBlockBegin
  2
*Paper_Space
 70
     0
 10
0.0
 20
0.0
 30
0.0
  3
*Paper_Space
  1

  0
ENDBLK
  5
6E
330
6C
100
AcDbEntity
 67
     1
  8
0
100
AcDbBlockEnd
  0
BLOCK
  5
75
330
74
100
AcDbEntity
 67
     1
  8
0
100
AcDbBlockBegin
  2
*Paper_Space0
 70
     0
 10
0.0
 20
0.0
 30
0.0
  3
*Paper_Space0
  1

  0
ENDBLK
  5
76
330
74
100
AcDbEntity
 67
     1
  8
0
100
AcDbBlockEnd
  0
BLOCK
  5
7E
330
7C
100
AcDbEntity
  8
0
100
AcDbBlockBegin
  2
Block_0
 70
     0
 10
0.0
 20
0.0
 30
0.0
  3
Block_0
  1

  0
INSERT
  5
81
330
7C
100
AcDbEntity
  8
レイヤー 1
100
AcDbBlockReference
  2
Block_1
 10
0.0
 20
0.0
 30
0.0
  0
ENDBLK
  5
7F
330
7C
100
AcDbEntity
  8
0
100
AcDbBlockEnd
  0
BLOCK
  5
82
330
80
100
AcDbEntity
  8
0
100
AcDbBlockBegin
  2
Block_1
 70
     0
 10
0.0
 20
0.0
 30
0.0
  3
Block_1
  1

  0
SPLINE
  5
84
330
80
100
AcDbEntity
  8
レイヤー 1
100
AcDbSpline
210
0.0
220
0.0
230
1.0
 70
    11
 71
     3
 72
    14
 73
    10
 74
     0
 42
0.0000000001
 43
0.0000000001
 40
0.0
 40
0.0
 40
0.0
 40
0.0
 40
1.0
 40
1.0
 40
1.0
 40
2.0
 40
2.0
 40
2.0
 40
3.0
 40
3.0
 40
3.0
 40
3.0
 10
104.9186604555411
 20
-133.0035956156206
 30
0.0
 10
104.9186604555411
 20
-133.0035956156206
 30
0.0
 10
104.4301459157327
 20
-133.6595417960122
 30
0.0
 10
104.4301459157327
 20
-133.6595417960122
 30
0.0
 10
104.4301459157327
 20
-133.6595417960122
 30
0.0
 10
104.9186604555411
 20
-133.6595417960122
 30
0.0
 10
104.9186604555411
 20
-133.6595417960122
 30
0.0
 10
104.9186604555411
 20
-133.6595417960122
 30
0.0
 10
104.9186604555411
 20
-133.0035956156206
 30
0.0
 10
104.9186604555411
 20
-133.0035956156206
 30
0.0
  0
SPLINE
  5
85
330
80
100
AcDbEntity
  8
レイヤー 1
100
AcDbSpline
210
0.0
220
0.0
230
1.0
 70
    11
 71
     3
 72
    38
 73
    34
 74
     0
 42
0.0000000001
 43
0.0000000001
 40
0.0
 40
0.0
 40
0.0
 40
0.0
 40
1.0
 40
1.0
 40
1.0
 40
2.0
 40
2.0
 40
2.0
 40
3.0
 40
3.0
 40
3.0
 40
4.0
 40
4.0
 40
4.0
 40
5.0
 40
5.0
 40
5.0
 40
6.0
 40
6.0
 40
6.0
 40
7.0
 40
7.0
 40
7.0
 40
8.0
 40
8.0
 40
8.0
 40
9.0
 40
9.0
 40
9.0
 40
10.0
 40
10.0
 40
10.0
 40
11.0
 40
11.0
 40
11.0
 40
11.0
 10
105.1513766555698
 20
-133.8583238055111
 30
0.0
 10
105.1513766555698
 20
-133.8583238055111
 30
0.0
 10
105.1513766555698
 20
-134.2052449208757
 30
0.0
 10
105.1513766555698
 20
-134.2052449208757
 30
0.0
 10
105.1513766555698
 20
-134.2052449208757
 30
0.0
 10
104.9186604555411
 20
-134.2052449208757
 30
0.0
 10
104.9186604555411
 20
-134.2052449208757
 30
0.0
 10
104.9186604555411
 20
-134.2052449208757
 30
0.0
 10
104.9186604555411
 20
-133.8583238055111
 30
0.0
 10
104.9186604555411
 20
-133.8583238055111
 30
0.0
 10
104.9186604555411
 20
-133.8583238055111
 30
0.0
 10
104.2177557790671
 20
-133.8583238055111
 30
0.0
 10
104.2177557790671
 20
-133.8583238055111
 30
0.0
 10
104.2177557790671
 20
-133.8583238055111
 30
0.0
 10
104.2177557790671
 20
-133.6340480894213
 30
0.0
 10
104.2177557790671
 20
-133.6340480894213
 30
0.0
 10
104.2177557790671
 20
-133.6340480894213
 30
0.0
 10
104.9434651430349
 20
-132.6608086148383
 30
0.0
 10
104.9434651430349
 20
-132.6608086148383
 30
0.0
 10
104.9434651430349
 20
-132.6608086148383
 30
0.0
 10
105.1513766555698
 20
-132.6608086148383
 30
0.0
 10
105.1513766555698
 20
-132.6608086148383
 30
0.0
 10
105.1513766555698
 20
-132.6608086148383
 30
0.0
 10
105.1513766555698
 20
-133.6595417960122
 30
0.0
 10
105.1513766555698
 20
-133.6595417960122
 30
0.0
 10
105.1513766555698
 20
-133.6595417960122
 30
0.0
 10
105.3730685500456
 20
-133.6595417960122
 30
0.0
 10
105.3730685500456
 20
-133.6595417960122
 30
0.0
 10
105.3730685500456
 20
-133.6595417960122
 30
0.0
 10
105.3730685500456
 20
-133.8583238055111
 30
0.0
 10
105.3730685500456
 20
-133.8583238055111
 30
0.0
 10
105.3730685500456
 20
-133.8583238055111
 30
0.0
 10
105.1513766555698
 20
-133.8583238055111
 30
0.0
 10
105.1513766555698
 20
-133.8583238055111
 30
0.0
  0
HATCH
  5
86
330
80
100
AcDbEntity
  8
レイヤー 1
 62
   250
420
  2299925
440
 33554687
100
AcDbHatch
 10
0.0
 20
0.0
 30
0.0
210
0.0
220
0.0
230
1.0
  2
SOLID
 70
     1
 71
     1
 91
        2
 92
        1
 93
        1
 72
     4
 94
        3
 73
     0
 74
     0
 95
       14
 96
       10
 40
0.0
 40
0.0
 40
0.0
 40
0.0
 40
1.0
 40
1.0
 40
1.0
 40
2.0
 40
2.0
 40
2.0
 40
3.0
 40
3.0
 40
3.0
 40
3.0
 10
104.9186604555411
 20
-133.0035956156206
 10
104.9186604555411
 20
-133.0035956156206
 10
104.4301459157327
 20
-133.6595417960122
 10
104.4301459157327
 20
-133.6595417960122
 10
104.4301459157327
 20
-133.6595417960122
 10
104.9186604555411
 20
-133.6595417960122
 10
104.9186604555411
 20
-133.6595417960122
 10
104.9186604555411
 20
-133.6595417960122
 10
104.9186604555411
 20
-133.0035956156206
 10
104.9186604555411
 20
-133.0035956156206
 97
        0
 97
        1
330
84
 92
        1
 93
        1
 72
     4
 94
        3
 73
     0
 74
     0
 95
       38
 96
       34
 40
0.0
 40
0.0
 40
0.0
 40
0.0
 40
1.0
 40
1.0
 40
1.0
 40
2.0
 40
2.0
 40
2.0
 40
3.0
 40
3.0
 40
3.0
 40
4.0
 40
4.0
 40
4.0
 40
5.0
 40
5.0
 40
5.0
 40
6.0
 40
6.0
 40
6.0
 40
7.0
 40
7.0
 40
7.0
 40
8.0
 40
8.0
 40
8.0
 40
9.0
 40
9.0
 40
9.0
 40
10.0
 40
10.0
 40
10.0
 40
11.0
 40
11.0
 40
11.0
 40
11.0
 10
105.1513766555698
 20
-133.8583238055111
 10
105.1513766555698
 20
-133.8583238055111
 10
105.1513766555698
 20
-134.2052449208757
 10
105.1513766555698
 20
-134.2052449208757
 10
105.1513766555698
 20
-134.2052449208757
 10
104.9186604555411
 20
-134.2052449208757
 10
104.9186604555411
 20
-134.2052449208757
 10
104.9186604555411
 20
-134.2052449208757
 10
104.9186604555411
 20
-133.8583238055111
 10
104.9186604555411
 20
-133.8583238055111
 10
104.9186604555411
 20
-133.8583238055111
 10
104.2177557790671
 20
-133.8583238055111
 10
104.2177557790671
 20
-133.8583238055111
 10
104.2177557790671
 20
-133.8583238055111
 10
104.2177557790671
 20
-133.6340480894213
 10
104.2177557790671
 20
-133.6340480894213
 10
104.2177557790671
 20
-133.6340480894213
 10
104.9434651430349
 20
-132.6608086148383
 10
104.9434651430349
 20
-132.6608086148383
 10
104.9434651430349
 20
-132.6608086148383
 10
105.1513766555698
 20
-132.6608086148383
 10
105.1513766555698
 20
-132.6608086148383
 10
105.1513766555698
 20
-132.6608086148383
 10
105.1513766555698
 20
-133.6595417960122
 10
105.1513766555698
 20
-133.6595417960122
 10
105.1513766555698
 20
-133.6595417960122
 10
105.3730685500456
 20
-133.6595417960122
 10
105.3730685500456
 20
-133.6595417960122
 10
105.3730685500456
 20
-133.6595417960122
 10
105.3730685500456
 20
-133.8583238055111
 10
105.3730685500456
 20
-133.8583238055111
 10
105.3730685500456
 20
-133.8583238055111
 10
105.1513766555698
 20
-133.8583238055111
 10
105.1513766555698
 20
-133.8583238055111
 97
        0
 97
        1
330
85
 75
     2
 76
     1
 98
        1
 10
0.0
 20
0.0
450
        0
451
        0
460
0.0
461
0.0
452
        0
462
0.0
453
        0
470

  0
SPLINE
  5
87
330
80
100
AcDbEntity
  8
レイヤー 1
100
AcDbSpline
210
0.0
220
0.0
230
1.0
 70
     9
 71
     3
 72
    17
 73
    13
 74
     0
 42
0.0000000001
 43
0.0000000001
 40
0.0
 40
0.0
 40
0.0
 40
0.0
 40
1.0
 40
1.0
 40
1.0
 40
2.0
 40
2.0
 40
2.0
 40
3.0
 40
3.0
 40
3.0
 40
4.0
 40
4.0
 40
4.0
 40
4.0
 10
106.054508437028
 20
-132.8048136061217
 30
0.0
 10
105.7875135369211
 20
-132.8048136061217
 30
0.0
 10
105.7379041619336
 20
-133.0883449645578
 30
0.0
 10
105.7379041619336
 20
-133.4331990226313
 30
0.0
 10
105.7379041619336
 20
-133.7525593741139
 30
0.0
 10
105.7761447218198
 20
-134.0612399295923
 30
0.0
 10
106.054508437028
 20
-134.0612399295923
 30
0.0
 10
106.3187472607467
 20
-134.0612399295923
 30
0.0
 10
106.370768202574
 20
-133.7801201379959
 30
0.0
 10
106.370768202574
 20
-133.4331990226313
 30
0.0
 10
106.370768202574
 20
-133.1134941616001
 30
0.0
 10
106.330116075848
 20
-132.8048136061217
 30
0.0
 10
106.054508437028
 20
-132.8048136061217
 30
0.0
  0
SPLINE
  5
88
330
80
100
AcDbEntity
  8
レイヤー 1
100
AcDbSpline
210
0.0
220
0.0
230
1.0
 70
     9
 71
     3
 72
    29
 73
    25
 74
     0
 42
0.0000000001
 43
0.0000000001
 40
0.0
 40
0.0
 40
0.0
 40
0.0
 40
1.0
 40
1.0
 40
1.0
 40
2.0
 40
2.0
 40
2.0
 40
3.0
 40
3.0
 40
3.0
 40
4.0
 40
4.0
 40
4.0
 40
5.0
 40
5.0
 40
5.0
 40
6.0
 40
6.0
 40
6.0
 40
7.0
 40
7.0
 40
7.0
 40
8.0
 40
8.0
 40
8.0
 40
8.0
 10
106.4792887103593
 20
-134.0274779938369
 30
0.0
 10
106.364222521152
 20
-134.23693979934
 30
0.0
 10
106.1788763840455
 20
-134.2558878245089
 30
0.0
 10
106.054508437028
 20
-134.2558878245089
 30
0.0
 10
105.882598172314
 20
-134.2558878245089
 30
0.0
 10
105.7310139709631
 20
-134.2093790354581
 30
0.0
 10
105.6293836541482
 20
-134.0274779938369
 30
0.0
 10
105.5184515795231
 20
-133.8328300989203
 30
0.0
 10
105.4981255161602
 20
-133.5958075295351
 30
0.0
 10
105.4981255161602
 20
-133.4331990226313
 30
0.0
 10
105.4981255161602
 20
-133.2891940313478
 30
0.0
 10
105.516384522232
 20
-133.0373575513761
 30
0.0
 10
105.6293836541482
 20
-132.8385755418771
 30
0.0
 10
105.7447943529041
 20
-132.6356594177959
 30
0.0
 10
105.9163601080695
 20
-132.6122327684962
 30
0.0
 10
106.054508437028
 20
-132.6122327684962
 30
0.0
 10
106.2240071349023
 20
-132.6122327684962
 30
0.0
 10
106.3776583935444
 20
-132.6566745002559
 30
0.0
 10
106.4792887103593
 20
-132.8385755418771
 30
0.0
 10
106.5857421608535
 20
-133.0311563795026
 30
0.0
 10
106.6105468483473
 20
-133.2595662101747
 30
0.0
 10
106.6105468483473
 20
-133.4331990226313
 30
0.0
 10
106.6105468483473
 20
-133.6044202682482
 30
0.0
 10
106.5878092181447
 20
-133.8348971562114
 30
0.0
 10
106.4792887103593
 20
-134.0274779938369
 30
0.0
  0
HATCH
  5
89
330
80
100
AcDbEntity
  8
レイヤー 1
 62
   250
420
  2299925
440
 33554687
100
AcDbHatch
 10
0.0
 20
0.0
 30
0.0
210
0.0
220
0.0
230
1.0
  2
SOLID
 70
     1
 71
     1
 91
        2
 92
        1
 93
        1
 72
     4
 94
        3
 73
     0
 74
     0
 95
       17
 96
       13
 40
0.0
 40
0.0
 40
0.0
 40
0.0
 40
1.0
 40
1.0
 40
1.0
 40
2.0
 40
2.0
 40
2.0
 40
3.0
 40
3.0
 40
3.0
 40
4.0
 40
4.0
 40
4.0
 40
4.0
 10
106.054508437028
 20
-132.8048136061217
 10
105.7875135369211
 20
-132.8048136061217
 10
105.7379041619336
 20
-133.0883449645578
 10
105.7379041619336
 20
-133.4331990226313
 10
105.7379041619336
 20
-133.7525593741139
 10
105.7761447218198
 20
-134.0612399295923
 10
106.054508437028
 20
-134.0612399295923
 10
106.3187472607467
 20
-134.0612399295923
 10
106.370768202574
 20
-133.7801201379959
 10
106.370768202574
 20
-133.4331990226313
 10
106.370768202574
 20
-133.1134941616001
 10
106.330116075848
 20
-132.8048136061217
 10
106.054508437028
 20
-132.8048136061217
 97
        0
 97
        1
330
87
 92
        1
 93
        1
 72
     4
 94
        3
 73
     0
 74
     0
 95
       29
 96
       25
 40
0.0
 40
0.0
 40
0.0
 40
0.0
 40
1.0
 40
1.0
 40
1.0
 40
2.0
 40
2.0
 40
2.0
 40
3.0
 40
3.0
 40
3.0
 40
4.0
 40
4.0
 40
4.0
 40
5.0
 40
5.0
 40
5.0
 40
6.0
 40
6.0
 40
6.0
 40
7.0
 40
7.0
 40
7.0
 40
8.0
 40
8.0
 40
8.0
 40
8.0
 10
106.4792887103593
 20
-134.0274779938369
 10
106.364222521152
 20
-134.23693979934
 10
106.1788763840455
 20
-134.2558878245089
 10
106.054508437028
 20
-134.2558878245089
 10
105.882598172314
 20
-134.2558878245089
 10
105.7310139709631
 20
-134.2093790354581
 10
105.6293836541482
 20
-134.0274779938369
 10
105.5184515795231
 20
-133.8328300989203
 10
105.4981255161602
 20
-133.5958075295351
 10
105.4981255161602
 20
-133.4331990226313
 10
105.4981255161602
 20
-133.2891940313478
 10
105.516384522232
 20
-133.0373575513761
 10
105.6293836541482
 20
-132.8385755418771
 10
105.7447943529041
 20
-132.6356594177959
 10
105.9163601080695
 20
-132.6122327684962
 10
106.054508437028
 20
-132.6122327684962
 10
106.2240071349023
 20
-132.6122327684962
 10
106.3776583935444
 20
-132.6566745002559
 10
106.4792887103593
 20
-132.8385755418771
 10
106.5857421608535
 20
-133.0311563795026
 10
106.6105468483473
 20
-133.2595662101747
 10
106.6105468483473
 20
-133.4331990226313
 10
106.6105468483473
 20
-133.6044202682482
 10
106.5878092181447
 20
-133.8348971562114
 10
106.4792887103593
 20
-134.0274779938369
 97
        0
 97
        1
330
88
 75
     2
 76
     1
 98
        1
 10
0.0
 20
0.0
450
        0
451
        0
460
0.0
461
0.0
452
        0
462
0.0
453
        0
470

  0
ENDBLK
  5
83
330
80
100
AcDbEntity
  8
0
100
AcDbBlockEnd
  0
BLOCK
  5
8C
330
8A
100
AcDbEntity
  8
0
100
AcDbBlockBegin
  2
Block_2
 70
     0
 10
0.0
 20
0.0
 30
0.0
  3
Block_2
  1

  0
INSERT
  5
8F
330
8A
100
AcDbEntity
  8
レイヤー 1
100
AcDbBlockReference
  2
Block_3
 10
0.0
 20
0.0
 30
0.0
  0
ENDBLK
  5
8D
330
8A
100
AcDbEntity
  8
0
100
AcDbBlockEnd
  0
BLOCK
  5
90
330
8E
100
AcDbEntity
  8
0
100
AcDbBlockBegin
  2
Block_3
 70
     0
 10
0.0
 20
0.0
 30
0.0
  3
Block_3
  1

  0
SPLINE
  5
92
330
8E
100
AcDbEntity
  8
レイヤー 1
100
AcDbSpline
210
0.0
220
0.0
230
1.0
 70
    11
 71
     3
 72
    26
 73
    22
 74
     0
 42
0.0000000001
 43
0.0000000001
 40
0.0
 40
0.0
 40
0.0
 40
0.0
 40
1.0
 40
1.0
 40
1.0
 40
2.0
 40
2.0
 40
2.0
 40
3.0
 40
3.0
 40
3.0
 40
4.0
 40
4.0
 40
4.0
 40
5.0
 40
5.0
 40
5.0
 40
6.0
 40
6.0
 40
6.0
 40
7.0
 40
7.0
 40
7.0
 40
7.0
 10
89.39867754926492
 20
-167.0881645632627
 30
0.0
 10
89.39867754926492
 20
-167.0881645632627
 30
0.0
 10
89.39867754926492
 20
-165.9840114602401
 30
0.0
 10
89.39867754926492
 20
-165.9840114602401
 30
0.0
 10
89.39867754926492
 20
-165.9840114602401
 30
0.0
 10
89.04589977157533
 20
-165.9840114602401
 30
0.0
 10
89.04589977157533
 20
-165.9840114602401
 30
0.0
 10
89.04589977157533
 20
-165.9840114602401
 30
0.0
 10
89.04589977157533
 20
-165.8358723543743
 30
0.0
 10
89.04589977157533
 20
-165.8358723543743
 30
0.0
 10
89.40091686133033
 20
-165.8210584437878
 30
0.0
 10
89.4506984910922
 20
-165.6581054273354
 30
0.0
 10
89.48222111478221
 20
-165.5437282572252
 30
0.0
 10
89.48222111478221
 20
-165.5437282572252
 30
0.0
 10
89.63828394026405
 20
-165.5437282572252
 30
0.0
 10
89.63828394026405
 20
-165.5437282572252
 30
0.0
 10
89.63828394026405
 20
-165.5437282572252
 30
0.0
 10
89.63828394026405
 20
-167.0881645632627
 30
0.0
 10
89.63828394026405
 20
-167.0881645632627
 30
0.0
 10
89.63828394026405
 20
-167.0881645632627
 30
0.0
 10
89.39867754926492
 20
-167.0881645632627
 30
0.0
 10
89.39867754926492
 20
-167.0881645632627
 30
0.0
  0
HATCH
  5
93
330
8E
100
AcDbEntity
  8
レイヤー 1
 62
   250
420
  2299925
440
 33554687
100
AcDbHatch
 10
0.0
 20
0.0
 30
0.0
210
0.0
220
0.0
230
1.0
  2
SOLID
 70
     1
 71
     1
 91
        1
 92
        1
 93
        1
 72
     4
 94
        3
 73
     0
 74
     0
 95
       26
 96
       22
 40
0.0
 40
0.0
 40
0.0
 40
0.0
 40
1.0
 40
1.0
 40
1.0
 40
2.0
 40
2.0
 40
2.0
 40
3.0
 40
3.0
 40
3.0
 40
4.0
 40
4.0
 40
4.0
 40
5.0
 40
5.0
 40
5.0
 40
6.0
 40
6.0
 40
6.0
 40
7.0
 40
7.0
 40
7.0
 40
7.0
 10
89.39867754926492
 20
-167.0881645632627
 10
89.39867754926492
 20
-167.0881645632627
 10
89.39867754926492
 20
-165.9840114602401
 10
89.39867754926492
 20
-165.9840114602401
 10
89.39867754926492
 20
-165.9840114602401
 10
89.04589977157533
 20
-165.9840114602401
 10
89.04589977157533
 20
-165.9840114602401
 10
89.04589977157533
 20
-165.9840114602401
 10
89.04589977157533
 20
-165.8358723543743
 10
89.04589977157533
 20
-165.8358723543743
 10
89.40091686133033
 20
-165.8210584437878
 10
89.4506984910922
 20
-165.6581054273354
 10
89.48222111478221
 20
-165.5437282572252
 10
89.48222111478221
 20
-165.5437282572252
 10
89.63828394026405
 20
-165.5437282572252
 10
89.63828394026405
 20
-165.5437282572252
 10
89.63828394026405
 20
-165.5437282572252
 10
89.63828394026405
 20
-167.0881645632627
 10
89.63828394026405
 20
-167.0881645632627
 10
89.63828394026405
 20
-167.0881645632627
 10
89.39867754926492
 20
-167.0881645632627
 10
89.39867754926492
 20
-167.0881645632627
 97
        0
 97
        1
330
92
 75
     2
 76
     1
 98
        1
 10
0.0
 20
0.0
450
        0
451
        0
460
0.0
461
0.0
452
        0
462
0.0
453
        0
470

  0
SPLINE
  5
94
330
8E
100
AcDbEntity
  8
レイヤー 1
100
AcDbSpline
210
0.0
220
0.0
230
1.0
 70
     9
 71
     3
 72
    17
 73
    13
 74
     0
 42
0.0000000001
 43
0.0000000001
 40
0.0
 40
0.0
 40
0.0
 40
0.0
 40
1.0
 40
1.0
 40
1.0
 40
2.0
 40
2.0
 40
2.0
 40
3.0
 40
3.0
 40
3.0
 40
4.0
 40
4.0
 40
4.0
 40
4.0
 10
90.70850285275691
 20
-165.6877332485086
 30
0.0
 10
90.4416802074243
 20
-165.6877332485086
 30
0.0
 10
90.39189857766244
 20
-165.9712646069447
 30
0.0
 10
90.39189857766244
 20
-166.3161186650182
 30
0.0
 10
90.39189857766244
 20
-166.6354790165008
 30
0.0
 10
90.43031139232297
 20
-166.9441595719792
 30
0.0
 10
90.70850285275691
 20
-166.9441595719792
 30
0.0
 10
90.97291393124983
 20
-166.9441595719792
 30
0.0
 10
91.02493487307709
 20
-166.6630397803828
 30
0.0
 10
91.02493487307709
 20
-166.3161186650182
 30
0.0
 10
91.02493487307709
 20
-165.996413803987
 30
0.0
 10
90.98428274635116
 20
-165.6877332485086
 30
0.0
 10
90.70850285275691
 20
-165.6877332485086
 30
0.0
  0
SPLINE
  5
95
330
8E
100
AcDbEntity
  8
レイヤー 1
100
AcDbSpline
210
0.0
220
0.0
230
1.0
 70
     9
 71
     3
 72
    29
 73
    25
 74
     0
 42
0.0000000001
 43
0.0000000001
 40
0.0
 40
0.0
 40
0.0
 40
0.0
 40
1.0
 40
1.0
 40
1.0
 40
2.0
 40
2.0
 40
2.0
 40
3.0
 40
3.0
 40
3.0
 40
4.0
 40
4.0
 40
4.0
 40
5.0
 40
5.0
 40
5.0
 40
6.0
 40
6.0
 40
6.0
 40
7.0
 40
7.0
 40
7.0
 40
8.0
 40
8.0
 40
8.0
 40
8.0
 10
91.13345538086248
 20
-166.9103976362238
 30
0.0
 10
91.01821693688085
 20
-167.119859441727
 30
0.0
 10
90.83287079977443
 20
-167.1388074668958
 30
0.0
 10
90.70850285275691
 20
-167.1388074668958
 30
0.0
 10
90.53659258804293
 20
-167.1388074668958
 30
0.0
 10
90.3851806414662
 20
-167.092298677845
 30
0.0
 10
90.28337806987707
 20
-166.9103976362238
 30
0.0
 10
90.17261825002629
 20
-166.7157497413072
 30
0.0
 10
90.15229218666332
 20
-166.478727171922
 30
0.0
 10
90.15229218666332
 20
-166.3161186650182
 30
0.0
 10
90.15229218666332
 20
-166.1721136737347
 30
0.0
 10
90.17037893796087
 20
-165.920277193763
 30
0.0
 10
90.28337806987707
 20
-165.7214951842641
 30
0.0
 10
90.39878876863294
 20
-165.5185790601828
 30
0.0
 10
90.57052677857265
 20
-165.4951524108831
 30
0.0
 10
90.70850285275691
 20
-165.4951524108831
 30
0.0
 10
90.87800155063119
 20
-165.4951524108831
 30
0.0
 10
91.03182506404762
 20
-165.5395941426429
 30
0.0
 10
91.13345538086248
 20
-165.7214951842641
 30
0.0
 10
91.23973657658243
 20
-165.9140760218895
 30
0.0
 10
91.26471351885049
 20
-166.1424858525616
 30
0.0
 10
91.26471351885049
 20
-166.3161186650182
 30
0.0
 10
91.26471351885049
 20
-166.4873399106351
 30
0.0
 10
91.24197588864785
 20
-166.7178167985983
 30
0.0
 10
91.13345538086248
 20
-166.9103976362238
 30
0.0
  0
HATCH
  5
96
330
8E
100
AcDbEntity
  8
レイヤー 1
 62
   250
420
  2299925
440
 33554687
100
AcDbHatch
 10
0.0
 20
0.0
 30
0.0
210
0.0
220
0.0
230
1.0
  2
SOLID
 70
     1
 71
     1
 91
        2
 92
        1
 93
        1
 72
     4
 94
        3
 73
     0
 74
     0
 95
       17
 96
       13
 40
0.0
 40
0.0
 40
0.0
 40
0.0
 40
1.0
 40
1.0
 40
1.0
 40
2.0
 40
2.0
 40
2.0
 40
3.0
 40
3.0
 40
3.0
 40
4.0
 40
4.0
 40
4.0
 40
4.0
 10
90.70850285275691
 20
-165.6877332485086
 10
90.4416802074243
 20
-165.6877332485086
 10
90.39189857766244
 20
-165.9712646069447
 10
90.39189857766244
 20
-166.3161186650182
 10
90.39189857766244
 20
-166.6354790165008
 10
90.43031139232297
 20
-166.9441595719792
 10
90.70850285275691
 20
-166.9441595719792
 10
90.97291393124983
 20
-166.9441595719792
 10
91.02493487307709
 20
-166.6630397803828
 10
91.02493487307709
 20
-166.3161186650182
 10
91.02493487307709
 20
-165.996413803987
 10
90.98428274635116
 20
-165.6877332485086
 10
90.70850285275691
 20
-165.6877332485086
 97
        0
 97
        1
330
94
 92
        1
 93
        1
 72
     4
 94
        3
 73
     0
 74
     0
 95
       29
 96
       25
 40
0.0
 40
0.0
 40
0.0
 40
0.0
 40
1.0
 40
1.0
 40
1.0
 40
2.0
 40
2.0
 40
2.0
 40
3.0
 40
3.0
 40
3.0
 40
4.0
 40
4.0
 40
4.0
 40
5.0
 40
5.0
 40
5.0
 40
6.0
 40
6.0
 40
6.0
 40
7.0
 40
7.0
 40
7.0
 40
8.0
 40
8.0
 40
8.0
 40
8.0
 10
91.13345538086248
 20
-166.9103976362238
 10
91.01821693688085
 20
-167.119859441727
 10
90.83287079977443
 20
-167.1388074668958
 10
90.70850285275691
 20
-167.1388074668958
 10
90.53659258804293
 20
-167.1388074668958
 10
90.3851806414662
 20
-167.092298677845
 10
90.28337806987707
 20
-166.9103976362238
 10
90.17261825002629
 20
-166.7157497413072
 10
90.15229218666332
 20
-166.478727171922
 10
90.15229218666332
 20
-166.3161186650182
 10
90.15229218666332
 20
-166.1721136737347
 10
90.17037893796087
 20
-165.920277193763
 10
90.28337806987707
 20
-165.7214951842641
 10
90.39878876863294
 20
-165.5185790601828
 10
90.57052677857265
 20
-165.4951524108831
 10
90.70850285275691
 20
-165.4951524108831
 10
90.87800155063119
 20
-165.4951524108831
 10
91.03182506404762
 20
-165.5395941426429
 10
91.13345538086248
 20
-165.7214951842641
 10
91.23973657658243
 20
-165.9140760218895
 10
91.26471351885049
 20
-166.1424858525616
 10
91.26471351885049
 20
-166.3161186650182
 10
91.26471351885049
 20
-166.4873399106351
 10
91.24197588864785
 20
-166.7178167985983
 10
91.13345538086248
 20
-166.9103976362238
 97
        0
 97
        1
330
95
 75
     2
 76
     1
 98
        1
 10
0.0
 20
0.0
450
        0
451
        0
460
0.0
461
0.0
452
        0
462
0.0
453
        0
470

  0
ENDBLK
  5
91
330
8E
100
AcDbEntity
  8
0
100
AcDbBlockEnd
  0
BLOCK
  5
A3
330
A1
100
AcDbEntity
  8
0
100
AcDbBlockBegin
  2
Block_4
 70
     0
 10
0.0
 20
0.0
 30
0.0
  3
Block_4
  1

  0
SPLINE
  5
A5
330
A1
100
AcDbEntity
  8
レイヤー 1
100
AcDbSpline
210
0.0
220
0.0
230
1.0
 70
     9
 71
     3
 72
    62
 73
    58
 74
     0
 42
0.0000000001
 43
0.0000000001
 40
0.0
 40
0.0
 40
0.0
 40
0.0
 40
1.0
 40
1.0
 40
1.0
 40
2.0
 40
2.0
 40
2.0
 40
3.0
 40
3.0
 40
3.0
 40
4.0
 40
4.0
 40
4.0
 40
5.0
 40
5.0
 40
5.0
 40
6.0
 40
6.0
 40
6.0
 40
7.0
 40
7.0
 40
7.0
 40
8.0
 40
8.0
 40
8.0
 40
9.0
 40
9.0
 40
9.0
 40
10.0
 40
10.0
 40
10.0
 40
11.0
 40
11.0
 40
11.0
 40
12.0
 40
12.0
 40
12.0
 40
13.0
 40
13.0
 40
13.0
 40
14.0
 40
14.0
 40
14.0
 40
15.0
 40
15.0
 40
15.0
 40
16.0
 40
16.0
 40
16.0
 40
17.0
 40
17.0
 40
17.0
 40
18.0
 40
18.0
 40
18.0
 40
19.0
 40
19.0
 40
19.0
 40
19.0
 10
94.68724362867193
 20
-139.837803784485
 30
0.0
 10
94.68724362867193
 20
-139.9394341012998
 30
0.0
 10
94.66622854621192
 20
-140.1723225561027
 30
0.0
 10
94.48019339000842
 20
-140.3058200061562
 30
0.0
 10
94.36788327718927
 20
-140.3848849475426
 30
0.0
 10
94.26866452721409
 20
-140.3893635716735
 30
0.0
 10
94.18391517827695
 20
-140.3938421958043
 30
0.0
 10
94.18391517827695
 20
-140.3938421958043
 30
0.0
 10
94.18391517827695
 20
-140.1588866837102
 30
0.0
 10
94.18391517827695
 20
-140.1588866837102
 30
0.0
 10
94.25798473120982
 20
-140.1564751168706
 30
0.0
 10
94.49259573375533
 20
-140.1452785565435
 30
0.0
 10
94.49259573375533
 20
-139.8422824086158
 30
0.0
 10
94.49259573375533
 20
-139.6953490861699
 30
0.0
 10
94.42300480495328
 20
-139.5325683244919
 30
0.0
 10
94.19459497428121
 20
-139.5325683244919
 30
0.0
 10
94.07815074687977
 20
-139.5325683244919
 30
0.0
 10
94.02957490053776
 20
-139.5732204512178
 30
0.0
 10
93.99788002207344
 20
-139.6071546417475
 30
0.0
 10
93.92381046914058
 20
-139.686219583134
 30
0.0
 10
93.91106361584515
 20
-139.8105875301515
 30
0.0
 10
93.91106361584515
 20
-139.8694986629493
 30
0.0
 10
93.91106361584515
 20
-139.8898247263122
 30
0.0
 10
93.9131306731363
 20
-139.9282375409728
 30
0.0
 10
93.91726478771861
 20
-139.9575208525974
 30
0.0
 10
93.91726478771861
 20
-139.9575208525974
 30
0.0
 10
93.72261689280199
 20
-139.9575208525974
 30
0.0
 10
93.72261689280199
 20
-139.9575208525974
 30
0.0
 10
93.72916257422396
 20
-139.9168687258715
 30
0.0
 10
93.73122963151512
 20
-139.8717379750147
 30
0.0
 10
93.73122963151512
 20
-139.8648477840442
 30
0.0
 10
93.73122963151512
 20
-139.7947400909194
 30
0.0
 10
93.70987003950657
 20
-139.5823499542537
 30
0.0
 10
93.4731919796699
 20
-139.5823499542537
 30
0.0
 10
93.295425052631
 20
-139.5823499542537
 30
0.0
 10
93.24030352486701
 20
-139.7223930857291
 30
0.0
 10
93.24030352486701
 20
-139.8400430965504
 30
0.0
 10
93.24030352486701
 20
-140.1227131811151
 30
0.0
 10
93.4731919796699
 20
-140.1316704293768
 30
0.0
 10
93.54484996576308
 20
-140.1361490535076
 30
0.0
 10
93.54484996576308
 20
-140.1361490535076
 30
0.0
 10
93.54484996576308
 20
-140.3531900690784
 30
0.0
 10
93.54484996576308
 20
-140.3531900690784
 30
0.0
 10
93.42013750919704
 20
-140.3442328208167
 30
0.0
 10
93.04358857265924
 20
-140.3147772544178
 30
0.0
 10
93.04358857265924
 20
-139.8264349693837
 30
0.0
 10
93.04358857265924
 20
-139.5868285783845
 30
0.0
 10
93.17071259606496
 20
-139.3291354360878
 30
0.0
 10
93.46664629824791
 20
-139.3291354360878
 30
0.0
 10
93.65302596399994
 20
-139.3291354360878
 30
0.0
 10
93.73536374609741
 20
-139.4307657529027
 30
0.0
 10
93.79668644573486
 20
-139.5370469486227
 30
0.0
 10
93.82424720961685
 20
-139.4715901344029
 30
0.0
 10
93.90451793442318
 20
-139.2771144942606
 30
0.0
 10
94.18184812098578
 20
-139.2771144942606
 30
0.0
 10
94.52015649763733
 20
-139.2771144942606
 30
0.0
 10
94.68724362867193
 20
-139.5415255727535
 30
0.0
 10
94.68724362867193
 20
-139.837803784485
 30
0.0
  0
HATCH
  5
A6
330
A1
100
AcDbEntity
  8
レイヤー 1
 62
   250
420
  2299925
440
 33554687
100
AcDbHatch
 10
0.0
 20
0.0
 30
0.0
210
0.0
220
0.0
230
1.0
  2
SOLID
 70
     1
 71
     1
 91
        1
 92
        1
 93
        1
 72
     4
 94
        3
 73
     0
 74
     0
 95
       62
 96
       58
 40
0.0
 40
0.0
 40
0.0
 40
0.0
 40
1.0
 40
1.0
 40
1.0
 40
2.0
 40
2.0
 40
2.0
 40
3.0
 40
3.0
 40
3.0
 40
4.0
 40
4.0
 40
4.0
 40
5.0
 40
5.0
 40
5.0
 40
6.0
 40
6.0
 40
6.0
 40
7.0
 40
7.0
 40
7.0
 40
8.0
 40
8.0
 40
8.0
 40
9.0
 40
9.0
 40
9.0
 40
10.0
 40
10.0
 40
10.0
 40
11.0
 40
11.0
 40
11.0
 40
12.0
 40
12.0
 40
12.0
 40
13.0
 40
13.0
 40
13.0
 40
14.0
 40
14.0
 40
14.0
 40
15.0
 40
15.0
 40
15.0
 40
16.0
 40
16.0
 40
16.0
 40
17.0
 40
17.0
 40
17.0
 40
18.0
 40
18.0
 40
18.0
 40
19.0
 40
19.0
 40
19.0
 40
19.0
 10
94.68724362867193
 20
-139.837803784485
 10
94.68724362867193
 20
-139.9394341012998
 10
94.66622854621192
 20
-140.1723225561027
 10
94.48019339000842
 20
-140.3058200061562
 10
94.36788327718927
 20
-140.3848849475426
 10
94.26866452721409
 20
-140.3893635716735
 10
94.18391517827695
 20
-140.3938421958043
 10
94.18391517827695
 20
-140.3938421958043
 10
94.18391517827695
 20
-140.1588866837102
 10
94.18391517827695
 20
-140.1588866837102
 10
94.25798473120982
 20
-140.1564751168706
 10
94.49259573375533
 20
-140.1452785565435
 10
94.49259573375533
 20
-139.8422824086158
 10
94.49259573375533
 20
-139.6953490861699
 10
94.42300480495328
 20
-139.5325683244919
 10
94.19459497428121
 20
-139.5325683244919
 10
94.07815074687977
 20
-139.5325683244919
 10
94.02957490053776
 20
-139.5732204512178
 10
93.99788002207344
 20
-139.6071546417475
 10
93.92381046914058
 20
-139.686219583134
 10
93.91106361584515
 20
-139.8105875301515
 10
93.91106361584515
 20
-139.8694986629493
 10
93.91106361584515
 20
-139.8898247263122
 10
93.9131306731363
 20
-139.9282375409728
 10
93.91726478771861
 20
-139.9575208525974
 10
93.91726478771861
 20
-139.9575208525974
 10
93.72261689280199
 20
-139.9575208525974
 10
93.72261689280199
 20
-139.9575208525974
 10
93.72916257422396
 20
-139.9168687258715
 10
93.73122963151512
 20
-139.8717379750147
 10
93.73122963151512
 20
-139.8648477840442
 10
93.73122963151512
 20
-139.7947400909194
 10
93.70987003950657
 20
-139.5823499542537
 10
93.4731919796699
 20
-139.5823499542537
 10
93.295425052631
 20
-139.5823499542537
 10
93.24030352486701
 20
-139.7223930857291
 10
93.24030352486701
 20
-139.8400430965504
 10
93.24030352486701
 20
-140.1227131811151
 10
93.4731919796699
 20
-140.1316704293768
 10
93.54484996576308
 20
-140.1361490535076
 10
93.54484996576308
 20
-140.1361490535076
 10
93.54484996576308
 20
-140.3531900690784
 10
93.54484996576308
 20
-140.3531900690784
 10
93.42013750919704
 20
-140.3442328208167
 10
93.04358857265924
 20
-140.3147772544178
 10
93.04358857265924
 20
-139.8264349693837
 10
93.04358857265924
 20
-139.5868285783845
 10
93.17071259606496
 20
-139.3291354360878
 10
93.46664629824791
 20
-139.3291354360878
 10
93.65302596399994
 20
-139.3291354360878
 10
93.73536374609741
 20
-139.4307657529027
 10
93.79668644573486
 20
-139.5370469486227
 10
93.82424720961685
 20
-139.4715901344029
 10
93.90451793442318
 20
-139.2771144942606
 10
94.18184812098578
 20
-139.2771144942606
 10
94.52015649763733
 20
-139.2771144942606
 10
94.68724362867193
 20
-139.5415255727535
 10
94.68724362867193
 20
-139.837803784485
 97
        0
 97
        1
330
A5
 75
     2
 76
     1
 98
        1
 10
0.0
 20
0.0
450
        0
451
        0
460
0.0
461
0.0
452
        0
462
0.0
453
        0
470

  0
ENDBLK
  5
A4
330
A1
100
AcDbEntity
  8
0
100
AcDbBlockEnd
  0
BLOCK
  5
AD
330
AB
100
AcDbEntity
  8
0
100
AcDbBlockBegin
  2
Block_5
 70
     0
 10
0.0
 20
0.0
 30
0.0
  3
Block_5
  1

  0
SPLINE
  5
AF
330
AB
100
AcDbEntity
  8
レイヤー 1
100
AcDbSpline
210
0.0
220
0.0
230
1.0
 70
     9
 71
     3
 72
    62
 73
    58
 74
     0
 42
0.0000000001
 43
0.0000000001
 40
0.0
 40
0.0
 40
0.0
 40
0.0
 40
1.0
 40
1.0
 40
1.0
 40
2.0
 40
2.0
 40
2.0
 40
3.0
 40
3.0
 40
3.0
 40
4.0
 40
4.0
 40
4.0
 40
5.0
 40
5.0
 40
5.0
 40
6.0
 40
6.0
 40
6.0
 40
7.0
 40
7.0
 40
7.0
 40
8.0
 40
8.0
 40
8.0
 40
9.0
 40
9.0
 40
9.0
 40
10.0
 40
10.0
 40
10.0
 40
11.0
 40
11.0
 40
11.0
 40
12.0
 40
12.0
 40
12.0
 40
13.0
 40
13.0
 40
13.0
 40
14.0
 40
14.0
 40
14.0
 40
15.0
 40
15.0
 40
15.0
 40
16.0
 40
16.0
 40
16.0
 40
17.0
 40
17.0
 40
17.0
 40
18.0
 40
18.0
 40
18.0
 40
19.0
 40
19.0
 40
19.0
 40
19.0
 10
129.9148952583199
 20
-160.9603732236488
 30
0.0
 10
129.9148952583199
 20
-161.0620035404636
 30
0.0
 10
129.8938801758598
 20
-161.2948919952665
 30
0.0
 10
129.7078450196564
 20
-161.4282171905457
 30
0.0
 10
129.5955349068372
 20
-161.5074543867065
 30
0.0
 10
129.496316156862
 20
-161.5119330108373
 30
0.0
 10
129.4115668079249
 20
-161.5164116349681
 30
0.0
 10
129.4115668079249
 20
-161.5164116349681
 30
0.0
 10
129.4115668079249
 20
-161.2814561228741
 30
0.0
 10
129.4115668079249
 20
-161.2814561228741
 30
0.0
 10
129.4856363608577
 20
-161.2790445560344
 30
0.0
 10
129.7202473634033
 20
-161.2676757409331
 30
0.0
 10
129.7202473634033
 20
-160.9648518477796
 30
0.0
 10
129.7202473634033
 20
-160.8177462705594
 30
0.0
 10
129.6506564346012
 20
-160.6551377636556
 30
0.0
 10
129.4222466039291
 20
-160.6551377636556
 30
0.0
 10
129.3058023765277
 20
-160.6551377636556
 30
0.0
 10
129.2572265301857
 20
-160.6957898903816
 30
0.0
 10
129.2255316517214
 20
-160.729551826137
 30
0.0
 10
129.1514620987885
 20
-160.8087890222978
 30
0.0
 10
129.1387152454931
 20
-160.9331569693153
 30
0.0
 10
129.1387152454931
 20
-160.9920681021131
 30
0.0
 10
129.1387152454931
 20
-161.0123941654761
 30
0.0
 10
129.1407823027842
 20
-161.0506347253623
 30
0.0
 10
129.1449164173665
 20
-161.0802625465355
 30
0.0
 10
129.1449164173665
 20
-161.0802625465355
 30
0.0
 10
128.9502685224499
 20
-161.0802625465355
 30
0.0
 10
128.9502685224499
 20
-161.0802625465355
 30
0.0
 10
128.9568142038719
 20
-161.0396104198095
 30
0.0
 10
128.9588812611631
 20
-160.9941351594042
 30
0.0
 10
128.9588812611631
 20
-160.9872449684337
 30
0.0
 10
128.9588812611631
 20
-160.9173095300832
 30
0.0
 10
128.9375216691545
 20
-160.7047471386432
 30
0.0
 10
128.7008436093178
 20
-160.7047471386432
 30
0.0
 10
128.523076682279
 20
-160.7047471386432
 30
0.0
 10
128.4679551545149
 20
-160.8449625248929
 30
0.0
 10
128.4679551545149
 20
-160.9624402809399
 30
0.0
 10
128.4679551545149
 20
-161.2452826202789
 30
0.0
 10
128.7008436093178
 20
-161.2542398685406
 30
0.0
 10
128.772501595411
 20
-161.2587184926714
 30
0.0
 10
128.772501595411
 20
-161.2587184926714
 30
0.0
 10
128.772501595411
 20
-161.4757595082422
 30
0.0
 10
128.772501595411
 20
-161.4757595082422
 30
0.0
 10
128.647789138845
 20
-161.4668022599805
 30
0.0
 10
128.2712402023072
 20
-161.4371744388074
 30
0.0
 10
128.2712402023072
 20
-160.9490044085474
 30
0.0
 10
128.2712402023072
 20
-160.7095702723226
 30
0.0
 10
128.3983642257129
 20
-160.4518771300259
 30
0.0
 10
128.6942979278959
 20
-160.4518771300259
 30
0.0
 10
128.8806775936479
 20
-160.4518771300259
 30
0.0
 10
128.9630153757453
 20
-160.5531629372923
 30
0.0
 10
129.0243380753828
 20
-160.6596163877865
 30
0.0
 10
129.0518988392648
 20
-160.5941595735667
 30
0.0
 10
129.1321695640711
 20
-160.3995116786501
 30
0.0
 10
129.4094997506337
 20
-160.3995116786501
 30
0.0
 10
129.7478081272853
 20
-160.3995116786501
 30
0.0
 10
129.9148952583199
 20
-160.6640950119173
 30
0.0
 10
129.9148952583199
 20
-160.9603732236488
 30
0.0
  0
HATCH
  5
B0
330
AB
100
AcDbEntity
  8
レイヤー 1
 62
   250
420
  2299925
440
 33554687
100
AcDbHatch
 10
0.0
 20
0.0
 30
0.0
210
0.0
220
0.0
230
1.0
  2
SOLID
 70
     1
 71
     1
 91
        1
 92
        1
 93
        1
 72
     4
 94
        3
 73
     0
 74
     0
 95
       62
 96
       58
 40
0.0
 40
0.0
 40
0.0
 40
0.0
 40
1.0
 40
1.0
 40
1.0
 40
2.0
 40
2.0
 40
2.0
 40
3.0
 40
3.0
 40
3.0
 40
4.0
 40
4.0
 40
4.0
 40
5.0
 40
5.0
 40
5.0
 40
6.0
 40
6.0
 40
6.0
 40
7.0
 40
7.0
 40
7.0
 40
8.0
 40
8.0
 40
8.0
 40
9.0
 40
9.0
 40
9.0
 40
10.0
 40
10.0
 40
10.0
 40
11.0
 40
11.0
 40
11.0
 40
12.0
 40
12.0
 40
12.0
 40
13.0
 40
13.0
 40
13.0
 40
14.0
 40
14.0
 40
14.0
 40
15.0
 40
15.0
 40
15.0
 40
16.0
 40
16.0
 40
16.0
 40
17.0
 40
17.0
 40
17.0
 40
18.0
 40
18.0
 40
18.0
 40
19.0
 40
19.0
 40
19.0
 40
19.0
 10
129.9148952583199
 20
-160.9603732236488
 10
129.9148952583199
 20
-161.0620035404636
 10
129.8938801758598
 20
-161.2948919952665
 10
129.7078450196564
 20
-161.4282171905457
 10
129.5955349068372
 20
-161.5074543867065
 10
129.496316156862
 20
-161.5119330108373
 10
129.4115668079249
 20
-161.5164116349681
 10
129.4115668079249
 20
-161.5164116349681
 10
129.4115668079249
 20
-161.2814561228741
 10
129.4115668079249
 20
-161.2814561228741
 10
129.4856363608577
 20
-161.2790445560344
 10
129.7202473634033
 20
-161.2676757409331
 10
129.7202473634033
 20
-160.9648518477796
 10
129.7202473634033
 20
-160.8177462705594
 10
129.6506564346012
 20
-160.6551377636556
 10
129.4222466039291
 20
-160.6551377636556
 10
129.3058023765277
 20
-160.6551377636556
 10
129.2572265301857
 20
-160.6957898903816
 10
129.2255316517214
 20
-160.729551826137
 10
129.1514620987885
 20
-160.8087890222978
 10
129.1387152454931
 20
-160.9331569693153
 10
129.1387152454931
 20
-160.9920681021131
 10
129.1387152454931
 20
-161.0123941654761
 10
129.1407823027842
 20
-161.0506347253623
 10
129.1449164173665
 20
-161.0802625465355
 10
129.1449164173665
 20
-161.0802625465355
 10
128.9502685224499
 20
-161.0802625465355
 10
128.9502685224499
 20
-161.0802625465355
 10
128.9568142038719
 20
-161.0396104198095
 10
128.9588812611631
 20
-160.9941351594042
 10
128.9588812611631
 20
-160.9872449684337
 10
128.9588812611631
 20
-160.9173095300832
 10
128.9375216691545
 20
-160.7047471386432
 10
128.7008436093178
 20
-160.7047471386432
 10
128.523076682279
 20
-160.7047471386432
 10
128.4679551545149
 20
-160.8449625248929
 10
128.4679551545149
 20
-160.9624402809399
 10
128.4679551545149
 20
-161.2452826202789
 10
128.7008436093178
 20
-161.2542398685406
 10
128.772501595411
 20
-161.2587184926714
 10
128.772501595411
 20
-161.2587184926714
 10
128.772501595411
 20
-161.4757595082422
 10
128.772501595411
 20
-161.4757595082422
 10
128.647789138845
 20
-161.4668022599805
 10
128.2712402023072
 20
-161.4371744388074
 10
128.2712402023072
 20
-160.9490044085474
 10
128.2712402023072
 20
-160.7095702723226
 10
128.3983642257129
 20
-160.4518771300259
 10
128.6942979278959
 20
-160.4518771300259
 10
128.8806775936479
 20
-160.4518771300259
 10
128.9630153757453
 20
-160.5531629372923
 10
129.0243380753828
 20
-160.6596163877865
 10
129.0518988392648
 20
-160.5941595735667
 10
129.1321695640711
 20
-160.3995116786501
 10
129.4094997506337
 20
-160.3995116786501
 10
129.7478081272853
 20
-160.3995116786501
 10
129.9148952583199
 20
-160.6640950119173
 10
129.9148952583199
 20
-160.9603732236488
 97
        0
 97
        1
330
AF
 75
     2
 76
     1
 98
        1
 10
0.0
 20
0.0
450
        0
451
        0
460
0.0
461
0.0
452
        0
462
0.0
453
        0
470

  0
ENDBLK
  5
AE
330
AB
100
AcDbEntity
  8
0
100
AcDbBlockEnd
  0
BLOCK
  5
B3
330
B1
100
AcDbEntity
  8
0
100
AcDbBlockBegin
  2
Block_6
 70
     0
 10
0.0
 20
0.0
 30
0.0
  3
Block_6
  1

  0
INSERT
  5
B6
330
B1
100
AcDbEntity
  8
レイヤー 1
100
AcDbBlockReference
  2
Block_7
 10
0.0
 20
0.0
 30
0.0
  0
ENDBLK
  5
B4
330
B1
100
AcDbEntity
  8
0
100
AcDbBlockEnd
  0
BLOCK
  5
B7
330
B5
100
AcDbEntity
  8
0
100
AcDbBlockBegin
  2
Block_7
 70
     0
 10
0.0
 20
0.0
 30
0.0
  3
Block_7
  1

  0
SPLINE
  5
B9
330
B5
100
AcDbEntity
  8
レイヤー 1
100
AcDbSpline
210
0.0
220
0.0
230
1.0
 70
    11
 71
     3
 72
    26
 73
    22
 74
     0
 42
0.0000000001
 43
0.0000000001
 40
0.0
 40
0.0
 40
0.0
 40
0.0
 40
1.0
 40
1.0
 40
1.0
 40
2.0
 40
2.0
 40
2.0
 40
3.0
 40
3.0
 40
3.0
 40
4.0
 40
4.0
 40
4.0
 40
5.0
 40
5.0
 40
5.0
 40
6.0
 40
6.0
 40
6.0
 40
7.0
 40
7.0
 40
7.0
 40
7.0
 10
129.8642523546867
 20
-154.4911729214466
 30
0.0
 10
129.8642523546867
 20
-154.4911729214466
 30
0.0
 10
128.7600992516641
 20
-154.4911729214466
 30
0.0
 10
128.7600992516641
 20
-154.4911729214466
 30
0.0
 10
128.7600992516641
 20
-154.4911729214466
 30
0.0
 10
128.7600992516641
 20
-154.8439506991362
 30
0.0
 10
128.7600992516641
 20
-154.8439506991362
 30
0.0
 10
128.7600992516641
 20
-154.8439506991362
 30
0.0
 10
128.6119601457984
 20
-154.8439506991362
 30
0.0
 10
128.6119601457984
 20
-154.8439506991362
 30
0.0
 10
128.5971462352118
 20
-154.4891058641555
 30
0.0
 10
128.4341932187595
 20
-154.4394964891679
 30
0.0
 10
128.3198160486492
 20
-154.4078016107036
 30
0.0
 10
128.3198160486492
 20
-154.4078016107036
 30
0.0
 10
128.3198160486492
 20
-154.2517387852218
 30
0.0
 10
128.3198160486492
 20
-154.2517387852218
 30
0.0
 10
128.3198160486492
 20
-154.2517387852218
 30
0.0
 10
129.8642523546867
 20
-154.2517387852218
 30
0.0
 10
129.8642523546867
 20
-154.2517387852218
 30
0.0
 10
129.8642523546867
 20
-154.2517387852218
 30
0.0
 10
129.8642523546867
 20
-154.4911729214466
 30
0.0
 10
129.8642523546867
 20
-154.4911729214466
 30
0.0
  0
HATCH
  5
BA
330
B5
100
AcDbEntity
  8
レイヤー 1
 62
   250
420
  2299925
440
 33554687
100
AcDbHatch
 10
0.0
 20
0.0
 30
0.0
210
0.0
220
0.0
230
1.0
  2
SOLID
 70
     1
 71
     1
 91
        1
 92
        1
 93
        1
 72
     4
 94
        3
 73
     0
 74
     0
 95
       26
 96
       22
 40
0.0
 40
0.0
 40
0.0
 40
0.0
 40
1.0
 40
1.0
 40
1.0
 40
2.0
 40
2.0
 40
2.0
 40
3.0
 40
3.0
 40
3.0
 40
4.0
 40
4.0
 40
4.0
 40
5.0
 40
5.0
 40
5.0
 40
6.0
 40
6.0
 40
6.0
 40
7.0
 40
7.0
 40
7.0
 40
7.0
 10
129.8642523546867
 20
-154.4911729214466
 10
129.8642523546867
 20
-154.4911729214466
 10
128.7600992516641
 20
-154.4911729214466
 10
128.7600992516641
 20
-154.4911729214466
 10
128.7600992516641
 20
-154.4911729214466
 10
128.7600992516641
 20
-154.8439506991362
 10
128.7600992516641
 20
-154.8439506991362
 10
128.7600992516641
 20
-154.8439506991362
 10
128.6119601457984
 20
-154.8439506991362
 10
128.6119601457984
 20
-154.8439506991362
 10
128.5971462352118
 20
-154.4891058641555
 10
128.4341932187595
 20
-154.4394964891679
 10
128.3198160486492
 20
-154.4078016107036
 10
128.3198160486492
 20
-154.4078016107036
 10
128.3198160486492
 20
-154.2517387852218
 10
128.3198160486492
 20
-154.2517387852218
 10
128.3198160486492
 20
-154.2517387852218
 10
129.8642523546867
 20
-154.2517387852218
 10
129.8642523546867
 20
-154.2517387852218
 10
129.8642523546867
 20
-154.2517387852218
 10
129.8642523546867
 20
-154.4911729214466
 10
129.8642523546867
 20
-154.4911729214466
 97
        0
 97
        1
330
B9
 75
     2
 76
     1
 98
        1
 10
0.0
 20
0.0
450
        0
451
        0
460
0.0
461
0.0
452
        0
462
0.0
453
        0
470

  0
SPLINE
  5
BB
330
B5
100
AcDbEntity
  8
レイヤー 1
100
AcDbSpline
210
0.0
220
0.0
230
1.0
 70
     9
 71
     3
 72
    44
 73
    40
 74
     0
 42
0.0000000001
 43
0.0000000001
 40
0.0
 40
0.0
 40
0.0
 40
0.0
 40
1.0
 40
1.0
 40
1.0
 40
2.0
 40
2.0
 40
2.0
 40
3.0
 40
3.0
 40
3.0
 40
4.0
 40
4.0
 40
4.0
 40
5.0
 40
5.0
 40
5.0
 40
6.0
 40
6.0
 40
6.0
 40
7.0
 40
7.0
 40
7.0
 40
8.0
 40
8.0
 40
8.0
 40
9.0
 40
9.0
 40
9.0
 40
10.0
 40
10.0
 40
10.0
 40
11.0
 40
11.0
 40
11.0
 40
12.0
 40
12.0
 40
12.0
 40
13.0
 40
13.0
 40
13.0
 40
13.0
 10
129.282375727228
 20
-153.0821288679794
 30
0.0
 10
129.441194629098
 20
-153.3150173227823
 30
0.0
 10
129.5152641820309
 20
-153.4142360727575
 30
0.0
 10
129.6589246637658
 20
-153.4666015241333
 30
0.0
 10
129.6589246637658
 20
-153.4666015241333
 30
0.0
 10
129.6589246637658
 20
-152.634266454897
 30
0.0
 10
129.6589246637658
 20
-152.634266454897
 30
0.0
 10
129.6589246637658
 20
-152.634266454897
 30
0.0
 10
129.8642523546867
 20
-152.634266454897
 30
0.0
 10
129.8642523546867
 20
-152.634266454897
 30
0.0
 10
129.8642523546867
 20
-152.634266454897
 30
0.0
 10
129.8642523546867
 20
-153.7332519146917
 30
0.0
 10
129.8642523546867
 20
-153.7332519146917
 30
0.0
 10
129.5066514433178
 20
-153.6994899789362
 30
0.0
 10
129.4284477758026
 20
-153.6292100310371
 30
0.0
 10
129.13010250678
 20
-153.2178656300983
 30
0.0
 10
128.931320497281
 20
-152.9443250485695
 30
0.0
 10
128.8634521162216
 20
-152.8740451006703
 30
0.0
 10
128.7259928063602
 20
-152.8740451006703
 30
0.0
 10
128.6074815216676
 20
-152.8740451006703
 30
0.0
 10
128.4765678932281
 20
-152.9508707299914
 30
0.0
 10
128.4765678932281
 20
-153.1613660641402
 30
0.0
 10
128.4765678932281
 20
-153.4393852697999
 30
0.0
 10
128.7070447811913
 20
-153.4483425180615
 30
0.0
 10
128.8234890085927
 20
-153.4528211421923
 30
0.0
 10
128.8234890085927
 20
-153.4528211421923
 30
0.0
 10
128.8234890085927
 20
-153.6925997879657
 30
0.0
 10
128.8234890085927
 20
-153.6925997879657
 30
0.0
 10
128.696364985187
 20
-153.6836425397041
 30
0.0
 10
128.5843993819164
 20
-153.6719292150542
 30
0.0
 10
128.4658880972238
 20
-153.58649084702
 30
0.0
 10
128.3050021380626
 20
-153.4686685814245
 30
0.0
 10
128.2712402023072
 20
-153.2695420623771
 30
0.0
 10
128.2712402023072
 20
-153.1455186249081
 30
0.0
 10
128.2712402023072
 20
-152.8492404131766
 30
0.0
 10
128.4552083012195
 20
-152.627720773475
 30
0.0
 10
128.7280598636513
 20
-152.627720773475
 30
0.0
 10
128.9568142038719
 20
-152.627720773475
 30
0.0
 10
129.0560329538471
 20
-152.7520887204925
 30
0.0
 10
129.282375727228
 20
-153.0821288679794
 30
0.0
  0
HATCH
  5
BC
330
B5
100
AcDbEntity
  8
レイヤー 1
 62
   250
420
  2299925
440
 33554687
100
AcDbHatch
 10
0.0
 20
0.0
 30
0.0
210
0.0
220
0.0
230
1.0
  2
SOLID
 70
     1
 71
     1
 91
        1
 92
        1
 93
        1
 72
     4
 94
        3
 73
     0
 74
     0
 95
       44
 96
       40
 40
0.0
 40
0.0
 40
0.0
 40
0.0
 40
1.0
 40
1.0
 40
1.0
 40
2.0
 40
2.0
 40
2.0
 40
3.0
 40
3.0
 40
3.0
 40
4.0
 40
4.0
 40
4.0
 40
5.0
 40
5.0
 40
5.0
 40
6.0
 40
6.0
 40
6.0
 40
7.0
 40
7.0
 40
7.0
 40
8.0
 40
8.0
 40
8.0
 40
9.0
 40
9.0
 40
9.0
 40
10.0
 40
10.0
 40
10.0
 40
11.0
 40
11.0
 40
11.0
 40
12.0
 40
12.0
 40
12.0
 40
13.0
 40
13.0
 40
13.0
 40
13.0
 10
129.282375727228
 20
-153.0821288679794
 10
129.441194629098
 20
-153.3150173227823
 10
129.5152641820309
 20
-153.4142360727575
 10
129.6589246637658
 20
-153.4666015241333
 10
129.6589246637658
 20
-153.4666015241333
 10
129.6589246637658
 20
-152.634266454897
 10
129.6589246637658
 20
-152.634266454897
 10
129.6589246637658
 20
-152.634266454897
 10
129.8642523546867
 20
-152.634266454897
 10
129.8642523546867
 20
-152.634266454897
 10
129.8642523546867
 20
-152.634266454897
 10
129.8642523546867
 20
-153.7332519146917
 10
129.8642523546867
 20
-153.7332519146917
 10
129.5066514433178
 20
-153.6994899789362
 10
129.4284477758026
 20
-153.6292100310371
 10
129.13010250678
 20
-153.2178656300983
 10
128.931320497281
 20
-152.9443250485695
 10
128.8634521162216
 20
-152.8740451006703
 10
128.7259928063602
 20
-152.8740451006703
 10
128.6074815216676
 20
-152.8740451006703
 10
128.4765678932281
 20
-152.9508707299914
 10
128.4765678932281
 20
-153.1613660641402
 10
128.4765678932281
 20
-153.4393852697999
 10
128.7070447811913
 20
-153.4483425180615
 10
128.8234890085927
 20
-153.4528211421923
 10
128.8234890085927
 20
-153.4528211421923
 10
128.8234890085927
 20
-153.6925997879657
 10
128.8234890085927
 20
-153.6925997879657
 10
128.696364985187
 20
-153.6836425397041
 10
128.5843993819164
 20
-153.6719292150542
 10
128.4658880972238
 20
-153.58649084702
 10
128.3050021380626
 20
-153.4686685814245
 10
128.2712402023072
 20
-153.2695420623771
 10
128.2712402023072
 20
-153.1455186249081
 10
128.2712402023072
 20
-152.8492404131766
 10
128.4552083012195
 20
-152.627720773475
 10
128.7280598636513
 20
-152.627720773475
 10
128.9568142038719
 20
-152.627720773475
 10
129.0560329538471
 20
-152.7520887204925
 10
129.282375727228
 20
-153.0821288679794
 97
        0
 97
        1
330
BB
 75
     2
 76
     1
 98
        1
 10
0.0
 20
0.0
450
        0
451
        0
460
0.0
461
0.0
452
        0
462
0.0
453
        0
470

  0
SPLINE
  5
BD
330
B5
100
AcDbEntity
  8
レイヤー 1
100
AcDbSpline
210
0.0
220
0.0
230
1.0
 70
    11
 71
     3
 72
    17
 73
    13
 74
     0
 42
0.0000000001
 43
0.0000000001
 40
0.0
 40
0.0
 40
0.0
 40
0.0
 40
1.0
 40
1.0
 40
1.0
 40
2.0
 40
2.0
 40
2.0
 40
3.0
 40
3.0
 40
3.0
 40
4.0
 40
4.0
 40
4.0
 40
4.0
 10
129.8642523546867
 20
-152.3937987900265
 30
0.0
 10
129.8642523546867
 20
-152.3937987900265
 30
0.0
 10
129.6124158747149
 20
-152.3937987900265
 30
0.0
 10
129.6124158747149
 20
-152.3937987900265
 30
0.0
 10
129.6124158747149
 20
-152.3937987900265
 30
0.0
 10
129.6124158747149
 20
-152.1250813421771
 30
0.0
 10
129.6124158747149
 20
-152.1250813421771
 30
0.0
 10
129.6124158747149
 20
-152.1250813421771
 30
0.0
 10
129.8642523546867
 20
-152.1250813421771
 30
0.0
 10
129.8642523546867
 20
-152.1250813421771
 30
0.0
 10
129.8642523546867
 20
-152.1250813421771
 30
0.0
 10
129.8642523546867
 20
-152.3937987900265
 30
0.0
 10
129.8642523546867
 20
-152.3937987900265
 30
0.0
  0
HATCH
  5
BE
330
B5
100
AcDbEntity
  8
レイヤー 1
 62
   250
420
  2299925
440
 33554687
100
AcDbHatch
 10
0.0
 20
0.0
 30
0.0
210
0.0
220
0.0
230
1.0
  2
SOLID
 70
     1
 71
     1
 91
        1
 92
        1
 93
        1
 72
     4
 94
        3
 73
     0
 74
     0
 95
       17
 96
       13
 40
0.0
 40
0.0
 40
0.0
 40
0.0
 40
1.0
 40
1.0
 40
1.0
 40
2.0
 40
2.0
 40
2.0
 40
3.0
 40
3.0
 40
3.0
 40
4.0
 40
4.0
 40
4.0
 40
4.0
 10
129.8642523546867
 20
-152.3937987900265
 10
129.8642523546867
 20
-152.3937987900265
 10
129.6124158747149
 20
-152.3937987900265
 10
129.6124158747149
 20
-152.3937987900265
 10
129.6124158747149
 20
-152.3937987900265
 10
129.6124158747149
 20
-152.1250813421771
 10
129.6124158747149
 20
-152.1250813421771
 10
129.6124158747149
 20
-152.1250813421771
 10
129.8642523546867
 20
-152.1250813421771
 10
129.8642523546867
 20
-152.1250813421771
 10
129.8642523546867
 20
-152.1250813421771
 10
129.8642523546867
 20
-152.3937987900265
 10
129.8642523546867
 20
-152.3937987900265
 97
        0
 97
        1
330
BD
 75
     2
 76
     1
 98
        1
 10
0.0
 20
0.0
450
        0
451
        0
460
0.0
461
0.0
452
        0
462
0.0
453
        0
470

  0
SPLINE
  5
BF
330
B5
100
AcDbEntity
  8
レイヤー 1
100
AcDbSpline
210
0.0
220
0.0
230
1.0
 70
     9
 71
     3
 72
    17
 73
    13
 74
     0
 42
0.0000000001
 43
0.0000000001
 40
0.0
 40
0.0
 40
0.0
 40
0.0
 40
1.0
 40
1.0
 40
1.0
 40
2.0
 40
2.0
 40
2.0
 40
3.0
 40
3.0
 40
3.0
 40
4.0
 40
4.0
 40
4.0
 40
4.0
 10
129.1239013349065
 20
-151.3378770237975
 30
0.0
 10
129.1239013349065
 20
-151.4918727919881
 30
0.0
 10
129.2107177411348
 20
-151.6544812988919
 30
0.0
 10
129.413633865216
 20
-151.6544812988919
 30
0.0
 10
129.6189615561369
 20
-151.6544812988919
 30
0.0
 10
129.7202473634033
 20
-151.5187445367731
 30
0.0
 10
129.7202473634033
 20
-151.3378770237975
 30
0.0
 10
129.7202473634033
 20
-151.1390950142985
 30
0.0
 10
129.5976019641284
 20
-151.021272748703
 30
0.0
 10
129.4198350370895
 20
-151.021272748703
 30
0.0
 10
129.1979708878394
 20
-151.021272748703
 30
0.0
 10
129.1239013349065
 20
-151.1955945802566
 30
0.0
 10
129.1239013349065
 20
-151.3378770237975
 30
0.0
  0
SPLINE
  5
C0
330
B5
100
AcDbEntity
  8
レイヤー 1
100
AcDbSpline
210
0.0
220
0.0
230
1.0
 70
     9
 71
     3
 72
    17
 73
    13
 74
     0
 42
0.0000000001
 43
0.0000000001
 40
0.0
 40
0.0
 40
0.0
 40
0.0
 40
1.0
 40
1.0
 40
1.0
 40
2.0
 40
2.0
 40
2.0
 40
3.0
 40
3.0
 40
3.0
 40
4.0
 40
4.0
 40
4.0
 40
4.0
 10
128.4638210399327
 20
-151.3378770237975
 30
0.0
 10
128.4638210399327
 20
-151.5142659126423
 30
0.0
 10
128.5589056753255
 20
-151.6048719239043
 30
0.0
 10
128.6942979278959
 20
-151.6048719239043
 30
0.0
 10
128.8169433271707
 20
-151.6048719239043
 30
0.0
 10
128.9354546118633
 20
-151.5277017850347
 30
0.0
 10
128.9354546118633
 20
-151.3378770237975
 30
0.0
 10
128.9354546118633
 20
-151.1480522625602
 30
0.0
 10
128.8169433271707
 20
-151.0712266332391
 30
0.0
 10
128.6942979278959
 20
-151.0712266332391
 30
0.0
 10
128.5589056753255
 20
-151.0712266332391
 30
0.0
 10
128.4638210399327
 20
-151.1638997017923
 30
0.0
 10
128.4638210399327
 20
-151.3378770237975
 30
0.0
  0
SPLINE
  5
C1
330
B5
100
AcDbEntity
  8
レイヤー 1
100
AcDbSpline
210
0.0
220
0.0
230
1.0
 70
     9
 71
     3
 72
    29
 73
    25
 74
     0
 42
0.0000000001
 43
0.0000000001
 40
0.0
 40
0.0
 40
0.0
 40
0.0
 40
1.0
 40
1.0
 40
1.0
 40
2.0
 40
2.0
 40
2.0
 40
3.0
 40
3.0
 40
3.0
 40
4.0
 40
4.0
 40
4.0
 40
5.0
 40
5.0
 40
5.0
 40
6.0
 40
6.0
 40
6.0
 40
7.0
 40
7.0
 40
7.0
 40
8.0
 40
8.0
 40
8.0
 40
8.0
 10
129.9148952583199
 20
-151.3378770237975
 30
0.0
 10
129.9148952583199
 20
-151.6227864204276
 30
0.0
 10
129.7774359484584
 20
-151.8942599446653
 30
0.0
 10
129.4284477758026
 20
-151.8942599446653
 30
0.0
 10
129.1724771812485
 20
-151.8942599446653
 30
0.0
 10
129.0773925458556
 20
-151.7426757433143
 30
0.0
 10
129.0160698462182
 20
-151.6296766113981
 30
0.0
 10
128.9568142038719
 20
-151.7630018066773
 30
0.0
 10
128.8424370337616
 20
-151.8443060601292
 30
0.0
 10
128.6815510746004
 20
-151.8443060601292
 30
0.0
 10
128.4066324548775
 20
-151.8443060601292
 30
0.0
 10
128.2712402023072
 20
-151.6317436686893
 30
0.0
 10
128.2712402023072
 20
-151.3378770237975
 30
0.0
 10
128.2712402023072
 20
-151.035053130644
 30
0.0
 10
128.4152451935906
 20
-150.8314479874657
 30
0.0
 10
128.6815510746004
 20
-150.8314479874657
 30
0.0
 10
128.8424370337616
 20
-150.8314479874657
 30
0.0
 10
128.9568142038719
 20
-150.9151638077573
 30
0.0
 10
129.0160698462182
 20
-151.0484890030365
 30
0.0
 10
129.0667127498513
 20
-150.9537488771921
 30
0.0
 10
129.1617973852443
 20
-150.7842501793178
 30
0.0
 10
129.4243136612203
 20
-150.7842501793178
 30
0.0
 10
129.798795540467
 20
-150.7842501793178
 30
0.0
 10
129.9148952583199
 20
-151.0825954483405
 30
0.0
 10
129.9148952583199
 20
-151.3378770237975
 30
0.0
  0
HATCH
  5
C2
330
B5
100
AcDbEntity
  8
レイヤー 1
 62
   250
420
  2299925
440
 33554687
100
AcDbHatch
 10
0.0
 20
0.0
 30
0.0
210
0.0
220
0.0
230
1.0
  2
SOLID
 70
     1
 71
     1
 91
        3
 92
        1
 93
        1
 72
     4
 94
        3
 73
     0
 74
     0
 95
       17
 96
       13
 40
0.0
 40
0.0
 40
0.0
 40
0.0
 40
1.0
 40
1.0
 40
1.0
 40
2.0
 40
2.0
 40
2.0
 40
3.0
 40
3.0
 40
3.0
 40
4.0
 40
4.0
 40
4.0
 40
4.0
 10
129.1239013349065
 20
-151.3378770237975
 10
129.1239013349065
 20
-151.4918727919881
 10
129.2107177411348
 20
-151.6544812988919
 10
129.413633865216
 20
-151.6544812988919
 10
129.6189615561369
 20
-151.6544812988919
 10
129.7202473634033
 20
-151.5187445367731
 10
129.7202473634033
 20
-151.3378770237975
 10
129.7202473634033
 20
-151.1390950142985
 10
129.5976019641284
 20
-151.021272748703
 10
129.4198350370895
 20
-151.021272748703
 10
129.1979708878394
 20
-151.021272748703
 10
129.1239013349065
 20
-151.1955945802566
 10
129.1239013349065
 20
-151.3378770237975
 97
        0
 97
        1
330
BF
 92
        1
 93
        1
 72
     4
 94
        3
 73
     0
 74
     0
 95
       17
 96
       13
 40
0.0
 40
0.0
 40
0.0
 40
0.0
 40
1.0
 40
1.0
 40
1.0
 40
2.0
 40
2.0
 40
2.0
 40
3.0
 40
3.0
 40
3.0
 40
4.0
 40
4.0
 40
4.0
 40
4.0
 10
128.4638210399327
 20
-151.3378770237975
 10
128.4638210399327
 20
-151.5142659126423
 10
128.5589056753255
 20
-151.6048719239043
 10
128.6942979278959
 20
-151.6048719239043
 10
128.8169433271707
 20
-151.6048719239043
 10
128.9354546118633
 20
-151.5277017850347
 10
128.9354546118633
 20
-151.3378770237975
 10
128.9354546118633
 20
-151.1480522625602
 10
128.8169433271707
 20
-151.0712266332391
 10
128.6942979278959
 20
-151.0712266332391
 10
128.5589056753255
 20
-151.0712266332391
 10
128.4638210399327
 20
-151.1638997017923
 10
128.4638210399327
 20
-151.3378770237975
 97
        0
 97
        1
330
C0
 92
        1
 93
        1
 72
     4
 94
        3
 73
     0
 74
     0
 95
       29
 96
       25
 40
0.0
 40
0.0
 40
0.0
 40
0.0
 40
1.0
 40
1.0
 40
1.0
 40
2.0
 40
2.0
 40
2.0
 40
3.0
 40
3.0
 40
3.0
 40
4.0
 40
4.0
 40
4.0
 40
5.0
 40
5.0
 40
5.0
 40
6.0
 40
6.0
 40
6.0
 40
7.0
 40
7.0
 40
7.0
 40
8.0
 40
8.0
 40
8.0
 40
8.0
 10
129.9148952583199
 20
-151.3378770237975
 10
129.9148952583199
 20
-151.6227864204276
 10
129.7774359484584
 20
-151.8942599446653
 10
129.4284477758026
 20
-151.8942599446653
 10
129.1724771812485
 20
-151.8942599446653
 10
129.0773925458556
 20
-151.7426757433143
 10
129.0160698462182
 20
-151.6296766113981
 10
128.9568142038719
 20
-151.7630018066773
 10
128.8424370337616
 20
-151.8443060601292
 10
128.6815510746004
 20
-151.8443060601292
 10
128.4066324548775
 20
-151.8443060601292
 10
128.2712402023072
 20
-151.6317436686893
 10
128.2712402023072
 20
-151.3378770237975
 10
128.2712402023072
 20
-151.035053130644
 10
128.4152451935906
 20
-150.8314479874657
 10
128.6815510746004
 20
-150.8314479874657
 10
128.8424370337616
 20
-150.8314479874657
 10
128.9568142038719
 20
-150.9151638077573
 10
129.0160698462182
 20
-151.0484890030365
 10
129.0667127498513
 20
-150.9537488771921
 10
129.1617973852443
 20
-150.7842501793178
 10
129.4243136612203
 20
-150.7842501793178
 10
129.798795540467
 20
-150.7842501793178
 10
129.9148952583199
 20
-151.0825954483405
 10
129.9148952583199
 20
-151.3378770237975
 97
        0
 97
        1
330
C1
 75
     2
 76
     1
 98
        1
 10
0.0
 20
0.0
450
        0
451
        0
460
0.0
461
0.0
452
        0
462
0.0
453
        0
470

  0
ENDBLK
  5
B8
330
B5
100
AcDbEntity
  8
0
100
AcDbBlockEnd
  0
BLOCK
  5
C5
330
C3
100
AcDbEntity
  8
0
100
AcDbBlockBegin
  2
Block_8
 70
     0
 10
0.0
 20
0.0
 30
0.0
  3
Block_8
  1

  0
INSERT
  5
C8
330
C3
100
AcDbEntity
  8
レイヤー 1
100
AcDbBlockReference
  2
Block_9
 10
0.0
 20
0.0
 30
0.0
  0
ENDBLK
  5
C6
330
C3
100
AcDbEntity
  8
0
100
AcDbBlockEnd
  0
BLOCK
  5
C9
330
C7
100
AcDbEntity
  8
0
100
AcDbBlockBegin
  2
Block_9
 70
     0
 10
0.0
 20
0.0
 30
0.0
  3
Block_9
  1

  0
SPLINE
  5
CB
330
C7
100
AcDbEntity
  8
レイヤー 1
100
AcDbSpline
210
0.0
220
0.0
230
1.0
 70
     9
 71
     3
 72
    44
 73
    40
 74
     0
 42
0.0000000001
 43
0.0000000001
 40
0.0
 40
0.0
 40
0.0
 40
0.0
 40
1.0
 40
1.0
 40
1.0
 40
2.0
 40
2.0
 40
2.0
 40
3.0
 40
3.0
 40
3.0
 40
4.0
 40
4.0
 40
4.0
 40
5.0
 40
5.0
 40
5.0
 40
6.0
 40
6.0
 40
6.0
 40
7.0
 40
7.0
 40
7.0
 40
8.0
 40
8.0
 40
8.0
 40
9.0
 40
9.0
 40
9.0
 40
10.0
 40
10.0
 40
10.0
 40
11.0
 40
11.0
 40
11.0
 40
12.0
 40
12.0
 40
12.0
 40
13.0
 40
13.0
 40
13.0
 40
13.0
 10
80.16547713924683
 20
-150.7501437340138
 30
0.0
 10
80.32429604111685
 20
-150.9830321888167
 30
0.0
 10
80.39836559404973
 20
-151.0825954483405
 30
0.0
 10
80.54202607578464
 20
-151.1342718806192
 30
0.0
 10
80.54202607578464
 20
-151.1342718806192
 30
0.0
 10
80.54202607578464
 20
-150.3026258304799
 30
0.0
 10
80.54202607578464
 20
-150.3026258304799
 30
0.0
 10
80.54202607578464
 20
-150.3026258304799
 30
0.0
 10
80.74735376670552
 20
-150.3026258304799
 30
0.0
 10
80.74735376670552
 20
-150.3026258304799
 30
0.0
 10
80.74735376670552
 20
-150.3026258304799
 30
0.0
 10
80.74735376670552
 20
-151.4012667807261
 30
0.0
 10
80.74735376670552
 20
-151.4012667807261
 30
0.0
 10
80.38975285533659
 20
-151.3671603354221
 30
0.0
 10
80.31154918782142
 20
-151.2972248970715
 30
0.0
 10
80.01320391879877
 20
-150.8855359865842
 30
0.0
 10
79.81442190929986
 20
-150.6119954050553
 30
0.0
 10
79.74655352824045
 20
-150.5420599667047
 30
0.0
 10
79.60909421837898
 20
-150.5420599667047
 30
0.0
 10
79.49058293368638
 20
-150.5420599667047
 30
0.0
 10
79.35966930524689
 20
-150.6188855960258
 30
0.0
 10
79.35966930524689
 20
-150.829036420626
 30
0.0
 10
79.35966930524689
 20
-151.1074001358343
 30
0.0
 10
79.5901461932101
 20
-151.1163573840959
 30
0.0
 10
79.70659042061154
 20
-151.1208360082267
 30
0.0
 10
79.70659042061154
 20
-151.1208360082267
 30
0.0
 10
79.70659042061154
 20
-151.3606146540001
 30
0.0
 10
79.70659042061154
 20
-151.3606146540001
 30
0.0
 10
79.57946639720583
 20
-151.3513128961899
 30
0.0
 10
79.46750079393521
 20
-151.3402885906371
 30
0.0
 10
79.34898950924261
 20
-151.2541612035059
 30
0.0
 10
79.18810355008145
 20
-151.1366834474589
 30
0.0
 10
79.154341614326
 20
-150.9379014379599
 30
0.0
 10
79.154341614326
 20
-150.8131889813939
 30
0.0
 10
79.154341614326
 20
-150.5172552792109
 30
0.0
 10
79.33830971323835
 20
-150.2957356395094
 30
0.0
 10
79.61116127567013
 20
-150.2957356395094
 30
0.0
 10
79.83991561589071
 20
-150.2957356395094
 30
0.0
 10
79.93913436586591
 20
-150.4201035865269
 30
0.0
 10
80.16547713924683
 20
-150.7501437340138
 30
0.0
  0
HATCH
  5
CC
330
C7
100
AcDbEntity
  8
レイヤー 1
 62
   250
420
  2299925
440
 33554687
100
AcDbHatch
 10
0.0
 20
0.0
 30
0.0
210
0.0
220
0.0
230
1.0
  2
SOLID
 70
     1
 71
     1
 91
        1
 92
        1
 93
        1
 72
     4
 94
        3
 73
     0
 74
     0
 95
       44
 96
       40
 40
0.0
 40
0.0
 40
0.0
 40
0.0
 40
1.0
 40
1.0
 40
1.0
 40
2.0
 40
2.0
 40
2.0
 40
3.0
 40
3.0
 40
3.0
 40
4.0
 40
4.0
 40
4.0
 40
5.0
 40
5.0
 40
5.0
 40
6.0
 40
6.0
 40
6.0
 40
7.0
 40
7.0
 40
7.0
 40
8.0
 40
8.0
 40
8.0
 40
9.0
 40
9.0
 40
9.0
 40
10.0
 40
10.0
 40
10.0
 40
11.0
 40
11.0
 40
11.0
 40
12.0
 40
12.0
 40
12.0
 40
13.0
 40
13.0
 40
13.0
 40
13.0
 10
80.16547713924683
 20
-150.7501437340138
 10
80.32429604111685
 20
-150.9830321888167
 10
80.39836559404973
 20
-151.0825954483405
 10
80.54202607578464
 20
-151.1342718806192
 10
80.54202607578464
 20
-151.1342718806192
 10
80.54202607578464
 20
-150.3026258304799
 10
80.54202607578464
 20
-150.3026258304799
 10
80.54202607578464
 20
-150.3026258304799
 10
80.74735376670552
 20
-150.3026258304799
 10
80.74735376670552
 20
-150.3026258304799
 10
80.74735376670552
 20
-150.3026258304799
 10
80.74735376670552
 20
-151.4012667807261
 10
80.74735376670552
 20
-151.4012667807261
 10
80.38975285533659
 20
-151.3671603354221
 10
80.31154918782142
 20
-151.2972248970715
 10
80.01320391879877
 20
-150.8855359865842
 10
79.81442190929986
 20
-150.6119954050553
 10
79.74655352824045
 20
-150.5420599667047
 10
79.60909421837898
 20
-150.5420599667047
 10
79.49058293368638
 20
-150.5420599667047
 10
79.35966930524689
 20
-150.6188855960258
 10
79.35966930524689
 20
-150.829036420626
 10
79.35966930524689
 20
-151.1074001358343
 10
79.5901461932101
 20
-151.1163573840959
 10
79.70659042061154
 20
-151.1208360082267
 10
79.70659042061154
 20
-151.1208360082267
 10
79.70659042061154
 20
-151.3606146540001
 10
79.70659042061154
 20
-151.3606146540001
 10
79.57946639720583
 20
-151.3513128961899
 10
79.46750079393521
 20
-151.3402885906371
 10
79.34898950924261
 20
-151.2541612035059
 10
79.18810355008145
 20
-151.1366834474589
 10
79.154341614326
 20
-150.9379014379599
 10
79.154341614326
 20
-150.8131889813939
 10
79.154341614326
 20
-150.5172552792109
 10
79.33830971323835
 20
-150.2957356395094
 10
79.61116127567013
 20
-150.2957356395094
 10
79.83991561589071
 20
-150.2957356395094
 10
79.93913436586591
 20
-150.4201035865269
 10
80.16547713924683
 20
-150.7501437340138
 97
        0
 97
        1
330
CB
 75
     2
 76
     1
 98
        1
 10
0.0
 20
0.0
450
        0
451
        0
460
0.0
461
0.0
452
        0
462
0.0
453
        0
470

  0
SPLINE
  5
CD
330
C7
100
AcDbEntity
  8
レイヤー 1
100
AcDbSpline
210
0.0
220
0.0
230
1.0
 70
    11
 71
     3
 72
    14
 73
    10
 74
     0
 42
0.0000000001
 43
0.0000000001
 40
0.0
 40
0.0
 40
0.0
 40
0.0
 40
1.0
 40
1.0
 40
1.0
 40
2.0
 40
2.0
 40
2.0
 40
3.0
 40
3.0
 40
3.0
 40
3.0
 10
79.54570446145038
 20
-149.4696017421465
 30
0.0
 10
79.54570446145038
 20
-149.4696017421465
 30
0.0
 10
80.20165064184196
 20
-149.9581162819549
 30
0.0
 10
80.20165064184196
 20
-149.9581162819549
 30
0.0
 10
80.20165064184196
 20
-149.9581162819549
 30
0.0
 10
80.20165064184196
 20
-149.4696017421465
 30
0.0
 10
80.20165064184196
 20
-149.4696017421465
 30
0.0
 10
80.20165064184196
 20
-149.4696017421465
 30
0.0
 10
79.54570446145038
 20
-149.4696017421465
 30
0.0
 10
79.54570446145038
 20
-149.4696017421465
 30
0.0
  0
SPLINE
  5
CE
330
C7
100
AcDbEntity
  8
レイヤー 1
100
AcDbSpline
210
0.0
220
0.0
230
1.0
 70
    11
 71
     3
 72
    38
 73
    34
 74
     0
 42
0.0000000001
 43
0.0000000001
 40
0.0
 40
0.0
 40
0.0
 40
0.0
 40
1.0
 40
1.0
 40
1.0
 40
2.0
 40
2.0
 40
2.0
 40
3.0
 40
3.0
 40
3.0
 40
4.0
 40
4.0
 40
4.0
 40
5.0
 40
5.0
 40
5.0
 40
6.0
 40
6.0
 40
6.0
 40
7.0
 40
7.0
 40
7.0
 40
8.0
 40
8.0
 40
8.0
 40
9.0
 40
9.0
 40
9.0
 40
10.0
 40
10.0
 40
10.0
 40
11.0
 40
11.0
 40
11.0
 40
11.0
 10
80.40043265134086
 20
-149.2367132873436
 30
0.0
 10
80.40043265134086
 20
-149.2367132873436
 30
0.0
 10
80.74735376670552
 20
-149.2367132873436
 30
0.0
 10
80.74735376670552
 20
-149.2367132873436
 30
0.0
 10
80.74735376670552
 20
-149.2367132873436
 30
0.0
 10
80.74735376670552
 20
-149.4696017421465
 30
0.0
 10
80.74735376670552
 20
-149.4696017421465
 30
0.0
 10
80.74735376670552
 20
-149.4696017421465
 30
0.0
 10
80.40043265134086
 20
-149.4696017421465
 30
0.0
 10
80.40043265134086
 20
-149.4696017421465
 30
0.0
 10
80.40043265134086
 20
-149.4696017421465
 30
0.0
 10
80.40043265134086
 20
-150.1703341638463
 30
0.0
 10
80.40043265134086
 20
-150.1703341638463
 30
0.0
 10
80.40043265134086
 20
-150.1703341638463
 30
0.0
 10
80.1761569352511
 20
-150.1703341638463
 30
0.0
 10
80.1761569352511
 20
-150.1703341638463
 30
0.0
 10
80.1761569352511
 20
-150.1703341638463
 30
0.0
 10
79.20291746066801
 20
-149.4447970546527
 30
0.0
 10
79.20291746066801
 20
-149.4447970546527
 30
0.0
 10
79.20291746066801
 20
-149.4447970546527
 30
0.0
 10
79.20291746066801
 20
-149.2367132873436
 30
0.0
 10
79.20291746066801
 20
-149.2367132873436
 30
0.0
 10
79.20291746066801
 20
-149.2367132873436
 30
0.0
 10
80.20165064184196
 20
-149.2367132873436
 30
0.0
 10
80.20165064184196
 20
-149.2367132873436
 30
0.0
 10
80.20165064184196
 20
-149.2367132873436
 30
0.0
 10
80.20165064184196
 20
-149.015193647642
 30
0.0
 10
80.20165064184196
 20
-149.015193647642
 30
0.0
 10
80.20165064184196
 20
-149.015193647642
 30
0.0
 10
80.40043265134086
 20
-149.015193647642
 30
0.0
 10
80.40043265134086
 20
-149.015193647642
 30
0.0
 10
80.40043265134086
 20
-149.015193647642
 30
0.0
 10
80.40043265134086
 20
-149.2367132873436
 30
0.0
 10
80.40043265134086
 20
-149.2367132873436
 30
0.0
  0
HATCH
  5
CF
330
C7
100
AcDbEntity
  8
レイヤー 1
 62
   250
420
  2299925
440
 33554687
100
AcDbHatch
 10
0.0
 20
0.0
 30
0.0
210
0.0
220
0.0
230
1.0
  2
SOLID
 70
     1
 71
     1
 91
        2
 92
        1
 93
        1
 72
     4
 94
        3
 73
     0
 74
     0
 95
       14
 96
       10
 40
0.0
 40
0.0
 40
0.0
 40
0.0
 40
1.0
 40
1.0
 40
1.0
 40
2.0
 40
2.0
 40
2.0
 40
3.0
 40
3.0
 40
3.0
 40
3.0
 10
79.54570446145038
 20
-149.4696017421465
 10
79.54570446145038
 20
-149.4696017421465
 10
80.20165064184196
 20
-149.9581162819549
 10
80.20165064184196
 20
-149.9581162819549
 10
80.20165064184196
 20
-149.9581162819549
 10
80.20165064184196
 20
-149.4696017421465
 10
80.20165064184196
 20
-149.4696017421465
 10
80.20165064184196
 20
-149.4696017421465
 10
79.54570446145038
 20
-149.4696017421465
 10
79.54570446145038
 20
-149.4696017421465
 97
        0
 97
        1
330
CD
 92
        1
 93
        1
 72
     4
 94
        3
 73
     0
 74
     0
 95
       38
 96
       34
 40
0.0
 40
0.0
 40
0.0
 40
0.0
 40
1.0
 40
1.0
 40
1.0
 40
2.0
 40
2.0
 40
2.0
 40
3.0
 40
3.0
 40
3.0
 40
4.0
 40
4.0
 40
4.0
 40
5.0
 40
5.0
 40
5.0
 40
6.0
 40
6.0
 40
6.0
 40
7.0
 40
7.0
 40
7.0
 40
8.0
 40
8.0
 40
8.0
 40
9.0
 40
9.0
 40
9.0
 40
10.0
 40
10.0
 40
10.0
 40
11.0
 40
11.0
 40
11.0
 40
11.0
 10
80.40043265134086
 20
-149.2367132873436
 10
80.40043265134086
 20
-149.2367132873436
 10
80.74735376670552
 20
-149.2367132873436
 10
80.74735376670552
 20
-149.2367132873436
 10
80.74735376670552
 20
-149.2367132873436
 10
80.74735376670552
 20
-149.4696017421465
 10
80.74735376670552
 20
-149.4696017421465
 10
80.74735376670552
 20
-149.4696017421465
 10
80.40043265134086
 20
-149.4696017421465
 10
80.40043265134086
 20
-149.4696017421465
 10
80.40043265134086
 20
-149.4696017421465
 10
80.40043265134086
 20
-150.1703341638463
 10
80.40043265134086
 20
-150.1703341638463
 10
80.40043265134086
 20
-150.1703341638463
 10
80.1761569352511
 20
-150.1703341638463
 10
80.1761569352511
 20
-150.1703341638463
 10
80.1761569352511
 20
-150.1703341638463
 10
79.20291746066801
 20
-149.4447970546527
 10
79.20291746066801
 20
-149.4447970546527
 10
79.20291746066801
 20
-149.4447970546527
 10
79.20291746066801
 20
-149.2367132873436
 10
79.20291746066801
 20
-149.2367132873436
 10
79.20291746066801
 20
-149.2367132873436
 10
80.20165064184196
 20
-149.2367132873436
 10
80.20165064184196
 20
-149.2367132873436
 10
80.20165064184196
 20
-149.2367132873436
 10
80.20165064184196
 20
-149.015193647642
 10
80.20165064184196
 20
-149.015193647642
 10
80.20165064184196
 20
-149.015193647642
 10
80.40043265134086
 20
-149.015193647642
 10
80.40043265134086
 20
-149.015193647642
 10
80.40043265134086
 20
-149.015193647642
 10
80.40043265134086
 20
-149.2367132873436
 10
80.40043265134086
 20
-149.2367132873436
 97
        0
 97
        1
330
CE
 75
     2
 76
     1
 98
        1
 10
0.0
 20
0.0
450
        0
451
        0
460
0.0
461
0.0
452
        0
462
0.0
453
        0
470

  0
ENDBLK
  5
CA
330
C7
100
AcDbEntity
  8
0
100
AcDbBlockEnd
  0
BLOCK
  5
D2
330
D0
100
AcDbEntity
  8
0
100
AcDbBlockBegin
  2
Block_10
 70
     0
 10
0.0
 20
0.0
 30
0.0
  3
Block_10
  1

  0
SPLINE
  5
D4
330
D0
100
AcDbEntity
  8
レイヤー 1
100
AcDbSpline
210
0.0
220
0.0
230
1.0
 70
    11
 71
     3
 72
    26
 73
    22
 74
     0
 42
0.0000000001
 43
0.0000000001
 40
0.0
 40
0.0
 40
0.0
 40
0.0
 40
1.0
 40
1.0
 40
1.0
 40
2.0
 40
2.0
 40
2.0
 40
3.0
 40
3.0
 40
3.0
 40
4.0
 40
4.0
 40
4.0
 40
5.0
 40
5.0
 40
5.0
 40
6.0
 40
6.0
 40
6.0
 40
7.0
 40
7.0
 40
7.0
 40
7.0
 10
129.8642523546867
 20
-144.3786118888185
 30
0.0
 10
129.8642523546867
 20
-144.3786118888185
 30
0.0
 10
128.7600992516641
 20
-144.3786118888185
 30
0.0
 10
128.7600992516641
 20
-144.3786118888185
 30
0.0
 10
128.7600992516641
 20
-144.3786118888185
 30
0.0
 10
128.7600992516641
 20
-144.7313896665081
 30
0.0
 10
128.7600992516641
 20
-144.7313896665081
 30
0.0
 10
128.7600992516641
 20
-144.7313896665081
 30
0.0
 10
128.6119601457984
 20
-144.7313896665081
 30
0.0
 10
128.6119601457984
 20
-144.7313896665081
 30
0.0
 10
128.5971462352118
 20
-144.3763725767531
 30
0.0
 10
128.4341932187595
 20
-144.3265909469912
 30
0.0
 10
128.3198160486492
 20
-144.2950683233012
 30
0.0
 10
128.3198160486492
 20
-144.2950683233012
 30
0.0
 10
128.3198160486492
 20
-144.1390054978194
 30
0.0
 10
128.3198160486492
 20
-144.1390054978194
 30
0.0
 10
128.3198160486492
 20
-144.1390054978194
 30
0.0
 10
129.8642523546867
 20
-144.1390054978194
 30
0.0
 10
129.8642523546867
 20
-144.1390054978194
 30
0.0
 10
129.8642523546867
 20
-144.1390054978194
 30
0.0
 10
129.8642523546867
 20
-144.3786118888185
 30
0.0
 10
129.8642523546867
 20
-144.3786118888185
 30
0.0
  0
HATCH
  5
D5
330
D0
100
AcDbEntity
  8
レイヤー 1
 62
   250
420
  2299925
440
 33554687
100
AcDbHatch
 10
0.0
 20
0.0
 30
0.0
210
0.0
220
0.0
230
1.0
  2
SOLID
 70
     1
 71
     1
 91
        1
 92
        1
 93
        1
 72
     4
 94
        3
 73
     0
 74
     0
 95
       26
 96
       22
 40
0.0
 40
0.0
 40
0.0
 40
0.0
 40
1.0
 40
1.0
 40
1.0
 40
2.0
 40
2.0
 40
2.0
 40
3.0
 40
3.0
 40
3.0
 40
4.0
 40
4.0
 40
4.0
 40
5.0
 40
5.0
 40
5.0
 40
6.0
 40
6.0
 40
6.0
 40
7.0
 40
7.0
 40
7.0
 40
7.0
 10
129.8642523546867
 20
-144.3786118888185
 10
129.8642523546867
 20
-144.3786118888185
 10
128.7600992516641
 20
-144.3786118888185
 10
128.7600992516641
 20
-144.3786118888185
 10
128.7600992516641
 20
-144.3786118888185
 10
128.7600992516641
 20
-144.7313896665081
 10
128.7600992516641
 20
-144.7313896665081
 10
128.7600992516641
 20
-144.7313896665081
 10
128.6119601457984
 20
-144.7313896665081
 10
128.6119601457984
 20
-144.7313896665081
 10
128.5971462352118
 20
-144.3763725767531
 10
128.4341932187595
 20
-144.3265909469912
 10
128.3198160486492
 20
-144.2950683233012
 10
128.3198160486492
 20
-144.2950683233012
 10
128.3198160486492
 20
-144.1390054978194
 10
128.3198160486492
 20
-144.1390054978194
 10
128.3198160486492
 20
-144.1390054978194
 10
129.8642523546867
 20
-144.1390054978194
 10
129.8642523546867
 20
-144.1390054978194
 10
129.8642523546867
 20
-144.1390054978194
 10
129.8642523546867
 20
-144.3786118888185
 10
129.8642523546867
 20
-144.3786118888185
 97
        0
 97
        1
330
D4
 75
     2
 76
     1
 98
        1
 10
0.0
 20
0.0
450
        0
451
        0
460
0.0
461
0.0
452
        0
462
0.0
453
        0
470

  0
ENDBLK
  5
D3
330
D0
100
AcDbEntity
  8
0
100
AcDbBlockEnd
  0
BLOCK
  5
E0
330
DE
100
AcDbEntity
  8
0
100
AcDbBlockBegin
  2
Block_11
 70
     0
 10
0.0
 20
0.0
 30
0.0
  3
Block_11
  1

  0
SPLINE
  5
E2
330
DE
100
AcDbEntity
  8
レイヤー 1
100
AcDbSpline
210
0.0
220
0.0
230
1.0
 70
     9
 71
     3
 72
    62
 73
    58
 74
     0
 42
0.0000000001
 43
0.0000000001
 40
0.0
 40
0.0
 40
0.0
 40
0.0
 40
1.0
 40
1.0
 40
1.0
 40
2.0
 40
2.0
 40
2.0
 40
3.0
 40
3.0
 40
3.0
 40
4.0
 40
4.0
 40
4.0
 40
5.0
 40
5.0
 40
5.0
 40
6.0
 40
6.0
 40
6.0
 40
7.0
 40
7.0
 40
7.0
 40
8.0
 40
8.0
 40
8.0
 40
9.0
 40
9.0
 40
9.0
 40
10.0
 40
10.0
 40
10.0
 40
11.0
 40
11.0
 40
11.0
 40
12.0
 40
12.0
 40
12.0
 40
13.0
 40
13.0
 40
13.0
 40
14.0
 40
14.0
 40
14.0
 40
15.0
 40
15.0
 40
15.0
 40
16.0
 40
16.0
 40
16.0
 40
17.0
 40
17.0
 40
17.0
 40
18.0
 40
18.0
 40
18.0
 40
19.0
 40
19.0
 40
19.0
 40
19.0
 10
86.95455455725442
 20
-131.2455633894976
 30
0.0
 10
86.85292424043955
 20
-131.2455633894976
 30
0.0
 10
86.62003578563666
 20
-131.2245483070376
 30
0.0
 10
86.48653833558324
 20
-131.0385131508341
 30
0.0
 10
86.40747339419673
 20
-130.926203038015
 30
0.0
 10
86.40299477006591
 20
-130.8269842880398
 30
0.0
 10
86.39851614593508
 20
-130.7422349391026
 30
0.0
 10
86.39851614593508
 20
-130.7422349391026
 30
0.0
 10
86.63347165802914
 20
-130.7422349391026
 30
0.0
 10
86.63347165802914
 20
-130.7422349391026
 30
0.0
 10
86.6358832248688
 20
-130.8163044920355
 30
0.0
 10
86.64707978519587
 20
-131.050915494581
 30
0.0
 10
86.95007593312359
 20
-131.050915494581
 30
0.0
 10
87.09700925556949
 20
-131.050915494581
 30
0.0
 10
87.25979001724756
 20
-130.981324565779
 30
0.0
 10
87.25979001724756
 20
-130.7529147351069
 30
0.0
 10
87.25979001724756
 20
-130.6364705077054
 30
0.0
 10
87.21913789052161
 20
-130.5878946613634
 30
0.0
 10
87.1852036999919
 20
-130.5561997828991
 30
0.0
 10
87.10613875860541
 20
-130.4821302299663
 30
0.0
 10
86.98177081158789
 20
-130.4693833766708
 30
0.0
 10
86.92285967879012
 20
-130.4693833766708
 30
0.0
 10
86.90253361542714
 20
-130.4693833766708
 30
0.0
 10
86.86412080076662
 20
-130.471450433962
 30
0.0
 10
86.83483748914198
 20
-130.4755845485443
 30
0.0
 10
86.83483748914198
 20
-130.4755845485443
 30
0.0
 10
86.83483748914198
 20
-130.2809366536277
 30
0.0
 10
86.83483748914198
 20
-130.2809366536277
 30
0.0
 10
86.87548961586793
 20
-130.2874823350496
 30
0.0
 10
86.92062036672471
 20
-130.2895493923408
 30
0.0
 10
86.92751055769521
 20
-130.2895493923408
 30
0.0
 10
86.99761825082005
 20
-130.2895493923408
 30
0.0
 10
87.21000838748571
 20
-130.2681898003323
 30
0.0
 10
87.21000838748571
 20
-130.0315117404956
 30
0.0
 10
87.21000838748571
 20
-129.8537448134567
 30
0.0
 10
87.06996525601029
 20
-129.7986232856927
 30
0.0
 10
86.952315245189
 20
-129.7986232856927
 30
0.0
 10
86.66964516062426
 20
-129.7986232856927
 30
0.0
 10
86.66068791236261
 20
-130.0315117404956
 30
0.0
 10
86.65620928823178
 20
-130.1031697265888
 30
0.0
 10
86.65620928823178
 20
-130.1031697265888
 30
0.0
 10
86.43916827266105
 20
-130.1031697265888
 30
0.0
 10
86.43916827266105
 20
-130.1031697265888
 30
0.0
 10
86.4481255209227
 20
-129.9784572700227
 30
0.0
 10
86.47758108732158
 20
-129.6019083334849
 30
0.0
 10
86.96592337235575
 20
-129.6019083334849
 30
0.0
 10
87.20552976335488
 20
-129.6019083334849
 30
0.0
 10
87.46322290565156
 20
-129.7290323568906
 30
0.0
 10
87.46322290565156
 20
-130.0249660590736
 30
0.0
 10
87.46322290565156
 20
-130.2113457248256
 30
0.0
 10
87.36159258883668
 20
-130.2936835069231
 30
0.0
 10
87.25531139311673
 20
-130.3550062065605
 30
0.0
 10
87.32076820733649
 20
-130.3825669704425
 30
0.0
 10
87.51524384747883
 20
-130.4628376952489
 30
0.0
 10
87.51524384747883
 20
-130.7401678818115
 30
0.0
 10
87.51524384747883
 20
-131.078476258463
 30
0.0
 10
87.2508327689859
 20
-131.2455633894976
 30
0.0
 10
86.95455455725442
 20
-131.2455633894976
 30
0.0
  0
HATCH
  5
E3
330
DE
100
AcDbEntity
  8
レイヤー 1
 62
   250
420
  2299925
440
 33554687
100
AcDbHatch
 10
0.0
 20
0.0
 30
0.0
210
0.0
220
0.0
230
1.0
  2
SOLID
 70
     1
 71
     1
 91
        1
 92
        1
 93
        1
 72
     4
 94
        3
 73
     0
 74
     0
 95
       62
 96
       58
 40
0.0
 40
0.0
 40
0.0
 40
0.0
 40
1.0
 40
1.0
 40
1.0
 40
2.0
 40
2.0
 40
2.0
 40
3.0
 40
3.0
 40
3.0
 40
4.0
 40
4.0
 40
4.0
 40
5.0
 40
5.0
 40
5.0
 40
6.0
 40
6.0
 40
6.0
 40
7.0
 40
7.0
 40
7.0
 40
8.0
 40
8.0
 40
8.0
 40
9.0
 40
9.0
 40
9.0
 40
10.0
 40
10.0
 40
10.0
 40
11.0
 40
11.0
 40
11.0
 40
12.0
 40
12.0
 40
12.0
 40
13.0
 40
13.0
 40
13.0
 40
14.0
 40
14.0
 40
14.0
 40
15.0
 40
15.0
 40
15.0
 40
16.0
 40
16.0
 40
16.0
 40
17.0
 40
17.0
 40
17.0
 40
18.0
 40
18.0
 40
18.0
 40
19.0
 40
19.0
 40
19.0
 40
19.0
 10
86.95455455725442
 20
-131.2455633894976
 10
86.85292424043955
 20
-131.2455633894976
 10
86.62003578563666
 20
-131.2245483070376
 10
86.48653833558324
 20
-131.0385131508341
 10
86.40747339419673
 20
-130.926203038015
 10
86.40299477006591
 20
-130.8269842880398
 10
86.39851614593508
 20
-130.7422349391026
 10
86.39851614593508
 20
-130.7422349391026
 10
86.63347165802914
 20
-130.7422349391026
 10
86.63347165802914
 20
-130.7422349391026
 10
86.6358832248688
 20
-130.8163044920355
 10
86.64707978519587
 20
-131.050915494581
 10
86.95007593312359
 20
-131.050915494581
 10
87.09700925556949
 20
-131.050915494581
 10
87.25979001724756
 20
-130.981324565779
 10
87.25979001724756
 20
-130.7529147351069
 10
87.25979001724756
 20
-130.6364705077054
 10
87.21913789052161
 20
-130.5878946613634
 10
87.1852036999919
 20
-130.5561997828991
 10
87.10613875860541
 20
-130.4821302299663
 10
86.98177081158789
 20
-130.4693833766708
 10
86.92285967879012
 20
-130.4693833766708
 10
86.90253361542714
 20
-130.4693833766708
 10
86.86412080076662
 20
-130.471450433962
 10
86.83483748914198
 20
-130.4755845485443
 10
86.83483748914198
 20
-130.4755845485443
 10
86.83483748914198
 20
-130.2809366536277
 10
86.83483748914198
 20
-130.2809366536277
 10
86.87548961586793
 20
-130.2874823350496
 10
86.92062036672471
 20
-130.2895493923408
 10
86.92751055769521
 20
-130.2895493923408
 10
86.99761825082005
 20
-130.2895493923408
 10
87.21000838748571
 20
-130.2681898003323
 10
87.21000838748571
 20
-130.0315117404956
 10
87.21000838748571
 20
-129.8537448134567
 10
87.06996525601029
 20
-129.7986232856927
 10
86.952315245189
 20
-129.7986232856927
 10
86.66964516062426
 20
-129.7986232856927
 10
86.66068791236261
 20
-130.0315117404956
 10
86.65620928823178
 20
-130.1031697265888
 10
86.65620928823178
 20
-130.1031697265888
 10
86.43916827266105
 20
-130.1031697265888
 10
86.43916827266105
 20
-130.1031697265888
 10
86.4481255209227
 20
-129.9784572700227
 10
86.47758108732158
 20
-129.6019083334849
 10
86.96592337235575
 20
-129.6019083334849
 10
87.20552976335488
 20
-129.6019083334849
 10
87.46322290565156
 20
-129.7290323568906
 10
87.46322290565156
 20
-130.0249660590736
 10
87.46322290565156
 20
-130.2113457248256
 10
87.36159258883668
 20
-130.2936835069231
 10
87.25531139311673
 20
-130.3550062065605
 10
87.32076820733649
 20
-130.3825669704425
 10
87.51524384747883
 20
-130.4628376952489
 10
87.51524384747883
 20
-130.7401678818115
 10
87.51524384747883
 20
-131.078476258463
 10
87.2508327689859
 20
-131.2455633894976
 10
86.95455455725442
 20
-131.2455633894976
 97
        0
 97
        1
330
E2
 75
     2
 76
     1
 98
        1
 10
0.0
 20
0.0
450
        0
451
        0
460
0.0
461
0.0
452
        0
462
0.0
453
        0
470

  0
ENDBLK
  5
E1
330
DE
100
AcDbEntity
  8
0
100
AcDbBlockEnd
  0
BLOCK
  5
F2
330
F0
100
AcDbEntity
  8
0
100
AcDbBlockBegin
  2
Block_12
 70
     0
 10
0.0
 20
0.0
 30
0.0
  3
Block_12
  1

  0
LINE
  5
F4
330
F0
100
AcDbEntity
  8
レイヤー 1
  6
AI-Linetype-0
 62
   154
420
    23468
370
    25
100
AcDbLine
 10
124.2622216692178
 20
-144.8870203283374
 30
0.0
 11
104.2585155436231
 21
-144.8870203283374
 31
0.0
  0
LINE
  5
F6
330
F0
100
AcDbEntity
  8
レイヤー 1
 62
   250
420
  2299925
370
     9
100
AcDbLine
 10
114.6388513438368
 20
-144.5198661787498
 30
0.0
 11
116.4982161031096
 21
-142.7529798561979
 31
0.0
  0
LWPOLYLINE
  5
F7
330
F0
100
AcDbEntity
  8
レイヤー 1
 62
   250
420
  2299925
370
     9
100
AcDbPolyline
 90
        3
 70
     0
 43
0.0
 10
115.1619121339488
 20
-143.6771729043633
 10
114.6616732577444
 20
-144.5432776044444
 10
115.5277798210584
 20
-144.0430387283953
  0
INSERT
  5
F9
330
F0
100
AcDbEntity
  8
レイヤー 1
100
AcDbBlockReference
  2
Block_13
 10
0.0
 20
0.0
 30
0.0
  0
ENDBLK
  5
F3
330
F0
100
AcDbEntity
  8
0
100
AcDbBlockEnd
  0
BLOCK
  5
FA
330
F8
100
AcDbEntity
  8
0
100
AcDbBlockBegin
  2
Block_13
 70
     0
 10
0.0
 20
0.0
 30
0.0
  3
Block_13
  1

  0
INSERT
  5
FD
330
F8
100
AcDbEntity
  8
レイヤー 1
100
AcDbBlockReference
  2
Block_14
 10
0.0
 20
0.0
 30
0.0
  0
ENDBLK
  5
FB
330
F8
100
AcDbEntity
  8
0
100
AcDbBlockEnd
  0
BLOCK
  5
FE
330
FC
100
AcDbEntity
  8
0
100
AcDbBlockBegin
  2
Block_14
 70
     0
 10
0.0
 20
0.0
 30
0.0
  3
Block_14
  1

  0
SPLINE
  5
100
330
FC
100
AcDbEntity
  8
レイヤー 1
100
AcDbSpline
210
0.0
220
0.0
230
1.0
 70
     9
 71
     3
 72
    17
 73
    13
 74
     0
 42
0.0000000001
 43
0.0000000001
 40
0.0
 40
0.0
 40
0.0
 40
0.0
 40
1.0
 40
1.0
 40
1.0
 40
2.0
 40
2.0
 40
2.0
 40
3.0
 40
3.0
 40
3.0
 40
4.0
 40
4.0
 40
4.0
 40
4.0
 10
115.1492160085391
 20
-141.8523233694848
 30
0.0
 10
115.1323350406613
 20
-141.8817789358837
 30
0.0
 10
115.0816921370282
 20
-141.9749687687597
 30
0.0
 10
115.0710123410239
 20
-141.9939167939286
 30
0.0
 10
115.2615261213582
 20
-142.0531724362749
 30
0.0
 10
115.2825412038182
 20
-142.0595458629226
 30
0.0
 10
115.35454369946
 20
-142.0871066268046
 30
0.0
 10
115.409665227224
 20
-142.0002902205763
 30
0.0
 10
115.4327473669751
 20
-141.9262206676434
 30
0.0
 10
115.4475612775617
 20
-141.8523233694848
 30
0.0
 10
115.4475612775617
 20
-141.8523233694848
 30
0.0
 10
115.1492160085391
 20
-141.8523233694848
 30
0.0
 10
115.1492160085391
 20
-141.8523233694848
 30
0.0
  0
SPLINE
  5
101
330
FC
100
AcDbEntity
  8
レイヤー 1
100
AcDbSpline
210
0.0
220
0.0
230
1.0
 70
    11
 71
     3
 72
    20
 73
    16
 74
     0
 42
0.0000000001
 43
0.0000000001
 40
0.0
 40
0.0
 40
0.0
 40
0.0
 40
1.0
 40
1.0
 40
1.0
 40
2.0
 40
2.0
 40
2.0
 40
3.0
 40
3.0
 40
3.0
 40
4.0
 40
4.0
 40
4.0
 40
5.0
 40
5.0
 40
5.0
 40
5.0
 10
115.0858262516105
 20
-141.0019015489509
 30
0.0
 10
115.0858262516105
 20
-141.0019015489509
 30
0.0
 10
115.0541313731462
 20
-141.0019015489509
 30
0.0
 10
115.0541313731462
 20
-141.0019015489509
 30
0.0
 10
115.100640162197
 20
-141.1012925537004
 30
0.0
 10
115.1323350406613
 20
-141.1815632785067
 30
0.0
 10
115.1660969764168
 20
-141.3085150471381
 30
0.0
 10
115.1660969764168
 20
-141.3085150471381
 30
0.0
 10
115.3734917246288
 20
-141.3085150471381
 30
0.0
 10
115.3734917246288
 20
-141.3085150471381
 30
0.0
 10
115.4051866030931
 20
-141.2154974690364
 30
0.0
 10
115.4286132523928
 20
-141.1309203748735
 30
0.0
 10
115.451695392144
 20
-141.0019015489509
 30
0.0
 10
115.451695392144
 20
-141.0019015489509
 30
0.0
 10
115.0858262516105
 20
-141.0019015489509
 30
0.0
 10
115.0858262516105
 20
-141.0019015489509
 30
0.0
  0
SPLINE
  5
102
330
FC
100
AcDbEntity
  8
レイヤー 1
100
AcDbSpline
210
0.0
220
0.0
230
1.0
 70
     9
 71
     3
 72
   242
 73
   238
 74
     0
 42
0.0000000001
 43
0.0000000001
 40
0.0
 40
0.0
 40
0.0
 40
0.0
 40
1.0
 40
1.0
 40
1.0
 40
2.0
 40
2.0
 40
2.0
 40
3.0
 40
3.0
 40
3.0
 40
4.0
 40
4.0
 40
4.0
 40
5.0
 40
5.0
 40
5.0
 40
6.0
 40
6.0
 40
6.0
 40
7.0
 40
7.0
 40
7.0
 40
8.0
 40
8.0
 40
8.0
 40
9.0
 40
9.0
 40
9.0
 40
10.0
 40
10.0
 40
10.0
 40
11.0
 40
11.0
 40
11.0
 40
12.0
 40
12.0
 40
12.0
 40
13.0
 40
13.0
 40
13.0
 40
14.0
 40
14.0
 40
14.0
 40
15.0
 40
15.0
 40
15.0
 40
16.0
 40
16.0
 40
16.0
 40
17.0
 40
17.0
 40
17.0
 40
18.0
 40
18.0
 40
18.0
 40
19.0
 40
19.0
 40
19.0
 40
20.0
 40
20.0
 40
20.0
 40
21.0
 40
21.0
 40
21.0
 40
22.0
 40
22.0
 40
22.0
 40
23.0
 40
23.0
 40
23.0
 40
24.0
 40
24.0
 40
24.0
 40
25.0
 40
25.0
 40
25.0
 40
26.0
 40
26.0
 40
26.0
 40
27.0
 40
27.0
 40
27.0
 40
28.0
 40
28.0
 40
28.0
 40
29.0
 40
29.0
 40
29.0
 40
30.0
 40
30.0
 40
30.0
 40
31.0
 40
31.0
 40
31.0
 40
32.0
 40
32.0
 40
32.0
 40
33.0
 40
33.0
 40
33.0
 40
34.0
 40
34.0
 40
34.0
 40
35.0
 40
35.0
 40
35.0
 40
36.0
 40
36.0
 40
36.0
 40
37.0
 40
37.0
 40
37.0
 40
38.0
 40
38.0
 40
38.0
 40
39.0
 40
39.0
 40
39.0
 40
40.0
 40
40.0
 40
40.0
 40
41.0
 40
41.0
 40
41.0
 40
42.0
 40
42.0
 40
42.0
 40
43.0
 40
43.0
 40
43.0
 40
44.0
 40
44.0
 40
44.0
 40
45.0
 40
45.0
 40
45.0
 40
46.0
 40
46.0
 40
46.0
 40
47.0
 40
47.0
 40
47.0
 40
48.0
 40
48.0
 40
48.0
 40
49.0
 40
49.0
 40
49.0
 40
50.0
 40
50.0
 40
50.0
 40
51.0
 40
51.0
 40
51.0
 40
52.0
 40
52.0
 40
52.0
 40
53.0
 40
53.0
 40
53.0
 40
54.0
 40
54.0
 40
54.0
 40
55.0
 40
55.0
 40
55.0
 40
56.0
 40
56.0
 40
56.0
 40
57.0
 40
57.0
 40
57.0
 40
58.0
 40
58.0
 40
58.0
 40
59.0
 40
59.0
 40
59.0
 40
60.0
 40
60.0
 40
60.0
 40
61.0
 40
61.0
 40
61.0
 40
62.0
 40
62.0
 40
62.0
 40
63.0
 40
63.0
 40
63.0
 40
64.0
 40
64.0
 40
64.0
 40
65.0
 40
65.0
 40
65.0
 40
66.0
 40
66.0
 40
66.0
 40
67.0
 40
67.0
 40
67.0
 40
68.0
 40
68.0
 40
68.0
 40
69.0
 40
69.0
 40
69.0
 40
70.0
 40
70.0
 40
70.0
 40
71.0
 40
71.0
 40
71.0
 40
72.0
 40
72.0
 40
72.0
 40
73.0
 40
73.0
 40
73.0
 40
74.0
 40
74.0
 40
74.0
 40
75.0
 40
75.0
 40
75.0
 40
76.0
 40
76.0
 40
76.0
 40
77.0
 40
77.0
 40
77.0
 40
78.0
 40
78.0
 40
78.0
 40
79.0
 40
79.0
 40
79.0
 40
79.0
 10
115.71421166812
 20
-141.4671616942339
 30
0.0
 10
115.71421166812
 20
-141.4671616942339
 30
0.0
 10
115.4603081308571
 20
-141.4671616942339
 30
0.0
 10
115.4603081308571
 20
-141.4671616942339
 30
0.0
 10
115.4603081308571
 20
-141.4671616942339
 30
0.0
 10
115.183322453843
 20
-141.4671616942339
 30
0.0
 10
115.183322453843
 20
-141.4671616942339
 30
0.0
 10
115.183322453843
 20
-141.4671616942339
 30
0.0
 10
115.3101019677002
 20
-141.5095363687024
 30
0.0
 10
115.3101019677002
 20
-141.5095363687024
 30
0.0
 10
115.3207817637045
 20
-141.513842738059
 30
0.0
 10
115.3335286169999
 20
-141.5200439099325
 30
0.0
 10
115.3335286169999
 20
-141.5327907632279
 30
0.0
 10
115.3335286169999
 20
-141.5539781004622
 30
0.0
 10
115.3014892289871
 20
-141.5603515271099
 30
0.0
 10
115.2804741465271
 20
-141.5644856416922
 30
0.0
 10
115.2697943505228
 20
-141.5877400362177
 30
0.0
 10
115.2401665293496
 20
-141.6533691052116
 30
0.0
 10
115.2212185041808
 20
-141.6978108369714
 30
0.0
 10
115.2212185041808
 20
-141.6978108369714
 30
0.0
 10
115.4920030093214
 20
-141.6978108369714
 30
0.0
 10
115.4920030093214
 20
-141.6978108369714
 30
0.0
 10
115.582953530132
 20
-141.6978108369714
 30
0.0
 10
115.7796684823398
 20
-141.6935044676148
 30
0.0
 10
115.9216064163321
 20
-141.6850639836759
 30
0.0
 10
115.9216064163321
 20
-141.6850639836759
 30
0.0
 10
115.9216064163321
 20
-141.8628309107148
 30
0.0
 10
115.9216064163321
 20
-141.8628309107148
 30
0.0
 10
115.8389241246861
 20
-141.8585245413583
 30
0.0
 10
115.8179090422261
 20
-141.8585245413583
 30
0.0
 10
115.638075057896
 20
-141.854390426776
 30
0.0
 10
115.6063801794317
 20
-142.0087307045152
 30
0.0
 10
115.561938447672
 20
-142.0891736840957
 30
0.0
 10
115.5174967159123
 20
-142.1589368676721
 30
0.0
 10
115.638075057896
 20
-142.2181925100184
 30
0.0
 10
115.7438394892932
 20
-142.2858886363035
 30
0.0
 10
115.8475368633992
 20
-142.3683986731752
 30
0.0
 10
115.8475368633992
 20
-142.3683986731752
 30
0.0
 10
115.7290255787066
 20
-142.5354858042099
 30
0.0
 10
115.7290255787066
 20
-142.5354858042099
 30
0.0
 10
115.7055989294069
 20
-142.516537779041
 30
0.0
 10
115.6928520761115
 20
-142.5080972951021
 30
0.0
 10
115.5808864728409
 20
-142.423347946165
 30
0.0
 10
115.5323106264988
 20
-142.385279641053
 30
0.0
 10
115.4730549841525
 20
-142.3494506480064
 30
0.0
 10
115.3924397497977
 20
-142.3050089162466
 30
0.0
 10
115.1809108870034
 20
-142.4912163272244
 30
0.0
 10
114.975927705631
 20
-142.5144707217498
 30
0.0
 10
114.685850665773
 20
-142.544098542923
 30
0.0
 10
114.685850665773
 20
-142.544098542923
 30
0.0
 10
114.5824978012155
 20
-142.3642645585929
 30
0.0
 10
114.5824978012155
 20
-142.3642645585929
 30
0.0
 10
114.899791095407
 20
-142.3599581892364
 30
0.0
 10
115.0751464556062
 20
-142.3346367374198
 30
0.0
 10
115.2274196760542
 20
-142.2245659366661
 30
0.0
 10
115.1092529009102
 20
-142.1737507782586
 30
0.0
 10
115.0203694373907
 20
-142.1463622691509
 30
0.0
 10
114.9841959347956
 20
-142.1336154158555
 30
0.0
 10
114.9652479096267
 20
-142.1611761797375
 30
0.0
 10
114.9504339990401
 20
-142.1801242049063
 30
0.0
 10
114.9228732351581
 20
-142.2140583954361
 30
0.0
 10
114.9228732351581
 20
-142.2140583954361
 30
0.0
 10
114.7261582829504
 20
-142.1315483585643
 30
0.0
 10
114.7261582829504
 20
-142.1315483585643
 30
0.0
 10
114.8088405745964
 20
-142.0511053789837
 30
0.0
 10
114.8701632742338
 20
-141.9558484888166
 30
0.0
 10
114.9270073497405
 20
-141.854390426776
 30
0.0
 10
114.7368380789547
 20
-141.8585245413583
 30
0.0
 10
114.7154784869461
 20
-141.8585245413583
 30
0.0
 10
114.6331407048486
 20
-141.8628309107148
 30
0.0
 10
114.6331407048486
 20
-141.8628309107148
 30
0.0
 10
114.6331407048486
 20
-141.6850639836759
 30
0.0
 10
114.6331407048486
 20
-141.6850639836759
 30
0.0
 10
114.7726670720013
 20
-141.6914374103237
 30
0.0
 10
114.9821288775044
 20
-141.6957437796802
 30
0.0
 10
115.0076225840953
 20
-141.6957437796802
 30
0.0
 10
115.024503551973
 20
-141.6618095891505
 30
0.0
 10
115.079625079737
 20
-141.5412312471668
 30
0.0
 10
115.0985731049059
 20
-141.4671616942339
 30
0.0
 10
115.079625079737
 20
-141.4671616942339
 30
0.0
 10
114.9018581526981
 20
-141.4735351208816
 30
0.0
 10
114.7072102577815
 20
-141.486281974177
 30
0.0
 10
114.7072102577815
 20
-141.486281974177
 30
0.0
 10
114.7072102577815
 20
-141.6196071694562
 30
0.0
 10
114.7072102577815
 20
-141.6196071694562
 30
0.0
 10
114.6586344114395
 20
-141.6449286212728
 30
0.0
 10
114.5993787690932
 20
-141.6766234997371
 30
0.0
 10
114.466053573814
 20
-141.7422525687311
 30
0.0
 10
114.466053573814
 20
-141.7422525687311
 30
0.0
 10
114.466053573814
 20
-141.8881523625314
 30
0.0
 10
114.466053573814
 20
-141.8881523625314
 30
0.0
 10
114.466053573814
 20
-141.8881523625314
 30
0.0
 10
114.466053573814
 20
-142.3558240746541
 30
0.0
 10
114.466053573814
 20
-142.3558240746541
 30
0.0
 10
114.466053573814
 20
-142.4826035885113
 30
0.0
 10
114.4298800712189
 20
-142.5418592308576
 30
0.0
 10
114.1466932223314
 20
-142.5334187469187
 30
0.0
 10
114.1466932223314
 20
-142.5334187469187
 30
0.0
 10
114.0429958482253
 20
-142.3261962534809
 30
0.0
 10
114.0429958482253
 20
-142.3261962534809
 30
0.0
 10
114.1063856051539
 20
-142.3387708520021
 30
0.0
 10
114.154961451496
 20
-142.3430772213587
 30
0.0
 10
114.1952690686734
 20
-142.3430772213587
 30
0.0
 10
114.2714056788974
 20
-142.3430772213587
 30
0.0
 10
114.2820854749017
 20
-142.3198228268332
 30
0.0
 10
114.2820854749017
 20
-142.2541937578392
 30
0.0
 10
114.2820854749017
 20
-142.2541937578392
 30
0.0
 10
114.2820854749017
 20
-141.8247626056028
 30
0.0
 10
114.2820854749017
 20
-141.8247626056028
 30
0.0
 10
114.1845892726691
 20
-141.864897968006
 30
0.0
 10
114.1677083047914
 20
-141.8712713946537
 30
0.0
 10
114.1211995157405
 20
-141.8903916745968
 30
0.0
 10
114.1170654011582
 20
-141.9114067570569
 30
0.0
 10
114.1125867770274
 20
-141.94103457823
 30
0.0
 10
114.0936387518585
 20
-141.94103457823
 30
0.0
 10
114.0853705226939
 20
-141.94103457823
 30
0.0
 10
114.0746907266896
 20
-141.9369004636477
 30
0.0
 10
114.0681450452676
 20
-141.9136460691223
 30
0.0
 10
114.0681450452676
 20
-141.9136460691223
 30
0.0
 10
114.0154350843433
 20
-141.7210652314968
 30
0.0
 10
114.0154350843433
 20
-141.7210652314968
 30
0.0
 10
114.1615071329179
 20
-141.6745564424459
 30
0.0
 10
114.2269639471377
 20
-141.6513020479205
 30
0.0
 10
114.2820854749017
 20
-141.6301147106862
 30
0.0
 10
114.2820854749017
 20
-141.6301147106862
 30
0.0
 10
114.2820854749017
 20
-141.2175645263275
 30
0.0
 10
114.2820854749017
 20
-141.2175645263275
 30
0.0
 10
114.2820854749017
 20
-141.2175645263275
 30
0.0
 10
114.2290310044288
 20
-141.2175645263275
 30
0.0
 10
114.2290310044288
 20
-141.2175645263275
 30
0.0
 10
114.2290310044288
 20
-141.2175645263275
 30
0.0
 10
114.1508273369137
 20
-141.2175645263275
 30
0.0
 10
114.1508273369137
 20
-141.2175645263275
 30
0.0
 10
114.0829589558542
 20
-141.2175645263275
 30
0.0
 10
114.0746907266896
 20
-141.2175645263275
 30
0.0
 10
114.0385172240945
 20
-141.2239379529752
 30
0.0
 10
114.0385172240945
 20
-141.2239379529752
 30
0.0
 10
114.0385172240945
 20
-141.0292900580586
 30
0.0
 10
114.0385172240945
 20
-141.0292900580586
 30
0.0
 10
114.0660779879765
 20
-141.0356634847063
 30
0.0
 10
114.0746907266896
 20
-141.0356634847063
 30
0.0
 10
114.1442816554917
 20
-141.0356634847063
 30
0.0
 10
114.1442816554917
 20
-141.0356634847063
 30
0.0
 10
114.2776068507709
 20
-141.0356634847063
 30
0.0
 10
114.2776068507709
 20
-141.0356634847063
 30
0.0
 10
114.2776068507709
 20
-140.96590030113
 30
0.0
 10
114.2776068507709
 20
-140.8833902642583
 30
0.0
 10
114.2755397934797
 20
-140.8790838949017
 30
0.0
 10
114.2672715643151
 20
-140.6992499105717
 30
0.0
 10
114.2672715643151
 20
-140.6803018854028
 30
0.0
 10
114.2648599974754
 20
-140.633793096352
 30
0.0
 10
114.2648599974754
 20
-140.633793096352
 30
0.0
 10
114.4808674844006
 20
-140.6422335802908
 30
0.0
 10
114.4808674844006
 20
-140.6422335802908
 30
0.0
 10
114.4915472804049
 20
-140.6422335802908
 30
0.0
 10
114.5125623628649
 20
-140.644300637582
 30
0.0
 10
114.5125623628649
 20
-140.6611816054597
 30
0.0
 10
114.5125623628649
 20
-140.6803018854028
 30
0.0
 10
114.4977484522783
 20
-140.6908094266328
 30
0.0
 10
114.4722547456875
 20
-140.709929706576
 30
0.0
 10
114.4722547456875
 20
-140.7605726102092
 30
0.0
 10
114.466053573814
 20
-140.9891546956555
 30
0.0
 10
114.4681206311052
 20
-141.0356634847063
 30
0.0
 10
114.597311711802
 20
-141.0356634847063
 30
0.0
 10
114.6097140555489
 20
-141.0356634847063
 30
0.0
 10
114.7072102577815
 20
-141.0272230007675
 30
0.0
 10
114.7072102577815
 20
-141.0272230007675
 30
0.0
 10
114.7072102577815
 20
-141.2218708956841
 30
0.0
 10
114.7072102577815
 20
-141.2218708956841
 30
0.0
 10
114.6689696978952
 20
-141.2196315836187
 30
0.0
 10
114.6014458263843
 20
-141.2154974690364
 30
0.0
 10
114.466053573814
 20
-141.2175645263275
 30
0.0
 10
114.466053573814
 20
-141.2175645263275
 30
0.0
 10
114.466053573814
 20
-141.5560451577533
 30
0.0
 10
114.466053573814
 20
-141.5560451577533
 30
0.0
 10
114.521175101578
 20
-141.5327907632279
 30
0.0
 10
114.5866319157978
 20
-141.5052299993459
 30
0.0
 10
114.6352077621398
 20
-141.4819756048205
 30
0.0
 10
114.6352077621398
 20
-141.4819756048205
 30
0.0
 10
114.6352077621398
 20
-141.3043809325558
 30
0.0
 10
114.6352077621398
 20
-141.3043809325558
 30
0.0
 10
114.7495849322501
 20
-141.316955531077
 30
0.0
 10
114.8680962169427
 20
-141.316955531077
 30
0.0
 10
114.9841959347956
 20
-141.316955531077
 30
0.0
 10
114.9611137950444
 20
-141.2218708956841
 30
0.0
 10
114.9335530311624
 20
-141.1393608588124
 30
0.0
 10
114.8701632742338
 20
-141.0060356635332
 30
0.0
 10
114.8257215424741
 20
-141.0081027208244
 30
0.0
 10
114.7430392508281
 20
-141.0124090901809
 30
0.0
 10
114.7051432004904
 20
-141.0144761474721
 30
0.0
 10
114.7051432004904
 20
-141.0144761474721
 30
0.0
 10
114.7051432004904
 20
-140.834642163142
 30
0.0
 10
114.7051432004904
 20
-140.834642163142
 30
0.0
 10
114.8298556570564
 20
-140.8430826470809
 30
0.0
 10
115.003488469513
 20
-140.8473890164374
 30
0.0
 10
115.0858262516105
 20
-140.8473890164374
 30
0.0
 10
115.0858262516105
 20
-140.8473890164374
 30
0.0
 10
115.1685085432565
 20
-140.8473890164374
 30
0.0
 10
115.1685085432565
 20
-140.8473890164374
 30
0.0
 10
115.1685085432565
 20
-140.6844359999851
 30
0.0
 10
115.1685085432565
 20
-140.6739284587551
 30
0.0
 10
115.1660969764168
 20
-140.6189791857654
 30
0.0
 10
115.1660969764168
 20
-140.6189791857654
 30
0.0
 10
115.3903726925066
 20
-140.644300637582
 30
0.0
 10
115.3903726925066
 20
-140.644300637582
 30
0.0
 10
115.3948513166374
 20
-140.644300637582
 30
0.0
 10
115.4158663990974
 20
-140.6463676948731
 30
0.0
 10
115.4158663990974
 20
-140.6632486627509
 30
0.0
 10
115.4158663990974
 20
-140.6780625733374
 30
0.0
 10
115.4051866030931
 20
-140.6866753120505
 30
0.0
 10
115.3776258392111
 20
-140.7014892226371
 30
0.0
 10
115.3714246673377
 20
-140.7669460368569
 30
0.0
 10
115.3693576100465
 20
-140.7881333740911
 30
0.0
 10
115.3693576100465
 20
-140.8473890164374
 30
0.0
 10
115.3693576100465
 20
-140.8473890164374
 30
0.0
 10
115.4644422454394
 20
-140.8473890164374
 30
0.0
 10
115.4644422454394
 20
-140.8473890164374
 30
0.0
 10
115.5471245370854
 20
-140.8473890164374
 30
0.0
 10
115.7204128399935
 20
-140.8430826470809
 30
0.0
 10
115.8454698061081
 20
-140.834642163142
 30
0.0
 10
115.8454698061081
 20
-140.834642163142
 30
0.0
 10
115.8454698061081
 20
-141.0144761474721
 30
0.0
 10
115.8454698061081
 20
-141.0144761474721
 30
0.0
 10
115.8158419849349
 20
-141.0124090901809
 30
0.0
 10
115.6973307002423
 20
-141.0081027208244
 30
0.0
 10
115.6570230830649
 20
-141.0060356635332
 30
0.0
 10
115.6422091724783
 20
-141.0568508219406
 30
0.0
 10
115.6084472367229
 20
-141.1689886799855
 30
0.0
 10
115.5426459129546
 20
-141.3085150471381
 30
0.0
 10
115.5850205874232
 20
-141.3085150471381
 30
0.0
 10
115.8623507739858
 20
-141.2895670219693
 30
0.0
 10
115.9236734736232
 20
-141.2873277099039
 30
0.0
 10
115.9236734736232
 20
-141.2873277099039
 30
0.0
 10
115.9236734736232
 20
-141.4714680635904
 30
0.0
 10
115.9236734736232
 20
-141.4714680635904
 30
0.0
 10
115.8940456524501
 20
-141.4714680635904
 30
0.0
 10
115.8771646845724
 20
-141.4671616942339
 30
0.0
 10
115.71421166812
 20
-141.4671616942339
 30
0.0
  0
HATCH
  5
103
330
FC
100
AcDbEntity
  8
レイヤー 1
 62
   250
420
  2299925
440
 33554687
100
AcDbHatch
 10
0.0
 20
0.0
 30
0.0
210
0.0
220
0.0
230
1.0
  2
SOLID
 70
     1
 71
     1
 91
        3
 92
        1
 93
        1
 72
     4
 94
        3
 73
     0
 74
     0
 95
       17
 96
       13
 40
0.0
 40
0.0
 40
0.0
 40
0.0
 40
1.0
 40
1.0
 40
1.0
 40
2.0
 40
2.0
 40
2.0
 40
3.0
 40
3.0
 40
3.0
 40
4.0
 40
4.0
 40
4.0
 40
4.0
 10
115.1492160085391
 20
-141.8523233694848
 10
115.1323350406613
 20
-141.8817789358837
 10
115.0816921370282
 20
-141.9749687687597
 10
115.0710123410239
 20
-141.9939167939286
 10
115.2615261213582
 20
-142.0531724362749
 10
115.2825412038182
 20
-142.0595458629226
 10
115.35454369946
 20
-142.0871066268046
 10
115.409665227224
 20
-142.0002902205763
 10
115.4327473669751
 20
-141.9262206676434
 10
115.4475612775617
 20
-141.8523233694848
 10
115.4475612775617
 20
-141.8523233694848
 10
115.1492160085391
 20
-141.8523233694848
 10
115.1492160085391
 20
-141.8523233694848
 97
        0
 97
        1
330
100
 92
        1
 93
        1
 72
     4
 94
        3
 73
     0
 74
     0
 95
       20
 96
       16
 40
0.0
 40
0.0
 40
0.0
 40
0.0
 40
1.0
 40
1.0
 40
1.0
 40
2.0
 40
2.0
 40
2.0
 40
3.0
 40
3.0
 40
3.0
 40
4.0
 40
4.0
 40
4.0
 40
5.0
 40
5.0
 40
5.0
 40
5.0
 10
115.0858262516105
 20
-141.0019015489509
 10
115.0858262516105
 20
-141.0019015489509
 10
115.0541313731462
 20
-141.0019015489509
 10
115.0541313731462
 20
-141.0019015489509
 10
115.100640162197
 20
-141.1012925537004
 10
115.1323350406613
 20
-141.1815632785067
 10
115.1660969764168
 20
-141.3085150471381
 10
115.1660969764168
 20
-141.3085150471381
 10
115.3734917246288
 20
-141.3085150471381
 10
115.3734917246288
 20
-141.3085150471381
 10
115.4051866030931
 20
-141.2154974690364
 10
115.4286132523928
 20
-141.1309203748735
 10
115.451695392144
 20
-141.0019015489509
 10
115.451695392144
 20
-141.0019015489509
 10
115.0858262516105
 20
-141.0019015489509
 10
115.0858262516105
 20
-141.0019015489509
 97
        0
 97
        1
330
101
 92
        1
 93
        1
 72
     4
 94
        3
 73
     0
 74
     0
 95
      242
 96
      238
 40
0.0
 40
0.0
 40
0.0
 40
0.0
 40
1.0
 40
1.0
 40
1.0
 40
2.0
 40
2.0
 40
2.0
 40
3.0
 40
3.0
 40
3.0
 40
4.0
 40
4.0
 40
4.0
 40
5.0
 40
5.0
 40
5.0
 40
6.0
 40
6.0
 40
6.0
 40
7.0
 40
7.0
 40
7.0
 40
8.0
 40
8.0
 40
8.0
 40
9.0
 40
9.0
 40
9.0
 40
10.0
 40
10.0
 40
10.0
 40
11.0
 40
11.0
 40
11.0
 40
12.0
 40
12.0
 40
12.0
 40
13.0
 40
13.0
 40
13.0
 40
14.0
 40
14.0
 40
14.0
 40
15.0
 40
15.0
 40
15.0
 40
16.0
 40
16.0
 40
16.0
 40
17.0
 40
17.0
 40
17.0
 40
18.0
 40
18.0
 40
18.0
 40
19.0
 40
19.0
 40
19.0
 40
20.0
 40
20.0
 40
20.0
 40
21.0
 40
21.0
 40
21.0
 40
22.0
 40
22.0
 40
22.0
 40
23.0
 40
23.0
 40
23.0
 40
24.0
 40
24.0
 40
24.0
 40
25.0
 40
25.0
 40
25.0
 40
26.0
 40
26.0
 40
26.0
 40
27.0
 40
27.0
 40
27.0
 40
28.0
 40
28.0
 40
28.0
 40
29.0
 40
29.0
 40
29.0
 40
30.0
 40
30.0
 40
30.0
 40
31.0
 40
31.0
 40
31.0
 40
32.0
 40
32.0
 40
32.0
 40
33.0
 40
33.0
 40
33.0
 40
34.0
 40
34.0
 40
34.0
 40
35.0
 40
35.0
 40
35.0
 40
36.0
 40
36.0
 40
36.0
 40
37.0
 40
37.0
 40
37.0
 40
38.0
 40
38.0
 40
38.0
 40
39.0
 40
39.0
 40
39.0
 40
40.0
 40
40.0
 40
40.0
 40
41.0
 40
41.0
 40
41.0
 40
42.0
 40
42.0
 40
42.0
 40
43.0
 40
43.0
 40
43.0
 40
44.0
 40
44.0
 40
44.0
 40
45.0
 40
45.0
 40
45.0
 40
46.0
 40
46.0
 40
46.0
 40
47.0
 40
47.0
 40
47.0
 40
48.0
 40
48.0
 40
48.0
 40
49.0
 40
49.0
 40
49.0
 40
50.0
 40
50.0
 40
50.0
 40
51.0
 40
51.0
 40
51.0
 40
52.0
 40
52.0
 40
52.0
 40
53.0
 40
53.0
 40
53.0
 40
54.0
 40
54.0
 40
54.0
 40
55.0
 40
55.0
 40
55.0
 40
56.0
 40
56.0
 40
56.0
 40
57.0
 40
57.0
 40
57.0
 40
58.0
 40
58.0
 40
58.0
 40
59.0
 40
59.0
 40
59.0
 40
60.0
 40
60.0
 40
60.0
 40
61.0
 40
61.0
 40
61.0
 40
62.0
 40
62.0
 40
62.0
 40
63.0
 40
63.0
 40
63.0
 40
64.0
 40
64.0
 40
64.0
 40
65.0
 40
65.0
 40
65.0
 40
66.0
 40
66.0
 40
66.0
 40
67.0
 40
67.0
 40
67.0
 40
68.0
 40
68.0
 40
68.0
 40
69.0
 40
69.0
 40
69.0
 40
70.0
 40
70.0
 40
70.0
 40
71.0
 40
71.0
 40
71.0
 40
72.0
 40
72.0
 40
72.0
 40
73.0
 40
73.0
 40
73.0
 40
74.0
 40
74.0
 40
74.0
 40
75.0
 40
75.0
 40
75.0
 40
76.0
 40
76.0
 40
76.0
 40
77.0
 40
77.0
 40
77.0
 40
78.0
 40
78.0
 40
78.0
 40
79.0
 40
79.0
 40
79.0
 40
79.0
 10
115.71421166812
 20
-141.4671616942339
 10
115.71421166812
 20
-141.4671616942339
 10
115.4603081308571
 20
-141.4671616942339
 10
115.4603081308571
 20
-141.4671616942339
 10
115.4603081308571
 20
-141.4671616942339
 10
115.183322453843
 20
-141.4671616942339
 10
115.183322453843
 20
-141.4671616942339
 10
115.183322453843
 20
-141.4671616942339
 10
115.3101019677002
 20
-141.5095363687024
 10
115.3101019677002
 20
-141.5095363687024
 10
115.3207817637045
 20
-141.513842738059
 10
115.3335286169999
 20
-141.5200439099325
 10
115.3335286169999
 20
-141.5327907632279
 10
115.3335286169999
 20
-141.5539781004622
 10
115.3014892289871
 20
-141.5603515271099
 10
115.2804741465271
 20
-141.5644856416922
 10
115.2697943505228
 20
-141.5877400362177
 10
115.2401665293496
 20
-141.6533691052116
 10
115.2212185041808
 20
-141.6978108369714
 10
115.2212185041808
 20
-141.6978108369714
 10
115.4920030093214
 20
-141.6978108369714
 10
115.4920030093214
 20
-141.6978108369714
 10
115.582953530132
 20
-141.6978108369714
 10
115.7796684823398
 20
-141.6935044676148
 10
115.9216064163321
 20
-141.6850639836759
 10
115.9216064163321
 20
-141.6850639836759
 10
115.9216064163321
 20
-141.8628309107148
 10
115.9216064163321
 20
-141.8628309107148
 10
115.8389241246861
 20
-141.8585245413583
 10
115.8179090422261
 20
-141.8585245413583
 10
115.638075057896
 20
-141.854390426776
 10
115.6063801794317
 20
-142.0087307045152
 10
115.561938447672
 20
-142.0891736840957
 10
115.5174967159123
 20
-142.1589368676721
 10
115.638075057896
 20
-142.2181925100184
 10
115.7438394892932
 20
-142.2858886363035
 10
115.8475368633992
 20
-142.3683986731752
 10
115.8475368633992
 20
-142.3683986731752
 10
115.7290255787066
 20
-142.5354858042099
 10
115.7290255787066
 20
-142.5354858042099
 10
115.7055989294069
 20
-142.516537779041
 10
115.6928520761115
 20
-142.5080972951021
 10
115.5808864728409
 20
-142.423347946165
 10
115.5323106264988
 20
-142.385279641053
 10
115.4730549841525
 20
-142.3494506480064
 10
115.3924397497977
 20
-142.3050089162466
 10
115.1809108870034
 20
-142.4912163272244
 10
114.975927705631
 20
-142.5144707217498
 10
114.685850665773
 20
-142.544098542923
 10
114.685850665773
 20
-142.544098542923
 10
114.5824978012155
 20
-142.3642645585929
 10
114.5824978012155
 20
-142.3642645585929
 10
114.899791095407
 20
-142.3599581892364
 10
115.0751464556062
 20
-142.3346367374198
 10
115.2274196760542
 20
-142.2245659366661
 10
115.1092529009102
 20
-142.1737507782586
 10
115.0203694373907
 20
-142.1463622691509
 10
114.9841959347956
 20
-142.1336154158555
 10
114.9652479096267
 20
-142.1611761797375
 10
114.9504339990401
 20
-142.1801242049063
 10
114.9228732351581
 20
-142.2140583954361
 10
114.9228732351581
 20
-142.2140583954361
 10
114.7261582829504
 20
-142.1315483585643
 10
114.7261582829504
 20
-142.1315483585643
 10
114.8088405745964
 20
-142.0511053789837
 10
114.8701632742338
 20
-141.9558484888166
 10
114.9270073497405
 20
-141.854390426776
 10
114.7368380789547
 20
-141.8585245413583
 10
114.7154784869461
 20
-141.8585245413583
 10
114.6331407048486
 20
-141.8628309107148
 10
114.6331407048486
 20
-141.8628309107148
 10
114.6331407048486
 20
-141.6850639836759
 10
114.6331407048486
 20
-141.6850639836759
 10
114.7726670720013
 20
-141.6914374103237
 10
114.9821288775044
 20
-141.6957437796802
 10
115.0076225840953
 20
-141.6957437796802
 10
115.024503551973
 20
-141.6618095891505
 10
115.079625079737
 20
-141.5412312471668
 10
115.0985731049059
 20
-141.4671616942339
 10
115.079625079737
 20
-141.4671616942339
 10
114.9018581526981
 20
-141.4735351208816
 10
114.7072102577815
 20
-141.486281974177
 10
114.7072102577815
 20
-141.486281974177
 10
114.7072102577815
 20
-141.6196071694562
 10
114.7072102577815
 20
-141.6196071694562
 10
114.6586344114395
 20
-141.6449286212728
 10
114.5993787690932
 20
-141.6766234997371
 10
114.466053573814
 20
-141.7422525687311
 10
114.466053573814
 20
-141.7422525687311
 10
114.466053573814
 20
-141.8881523625314
 10
114.466053573814
 20
-141.8881523625314
 10
114.466053573814
 20
-141.8881523625314
 10
114.466053573814
 20
-142.3558240746541
 10
114.466053573814
 20
-142.3558240746541
 10
114.466053573814
 20
-142.4826035885113
 10
114.4298800712189
 20
-142.5418592308576
 10
114.1466932223314
 20
-142.5334187469187
 10
114.1466932223314
 20
-142.5334187469187
 10
114.0429958482253
 20
-142.3261962534809
 10
114.0429958482253
 20
-142.3261962534809
 10
114.1063856051539
 20
-142.3387708520021
 10
114.154961451496
 20
-142.3430772213587
 10
114.1952690686734
 20
-142.3430772213587
 10
114.2714056788974
 20
-142.3430772213587
 10
114.2820854749017
 20
-142.3198228268332
 10
114.2820854749017
 20
-142.2541937578392
 10
114.2820854749017
 20
-142.2541937578392
 10
114.2820854749017
 20
-141.8247626056028
 10
114.2820854749017
 20
-141.8247626056028
 10
114.1845892726691
 20
-141.864897968006
 10
114.1677083047914
 20
-141.8712713946537
 10
114.1211995157405
 20
-141.8903916745968
 10
114.1170654011582
 20
-141.9114067570569
 10
114.1125867770274
 20
-141.94103457823
 10
114.0936387518585
 20
-141.94103457823
 10
114.0853705226939
 20
-141.94103457823
 10
114.0746907266896
 20
-141.9369004636477
 10
114.0681450452676
 20
-141.9136460691223
 10
114.0681450452676
 20
-141.9136460691223
 10
114.0154350843433
 20
-141.7210652314968
 10
114.0154350843433
 20
-141.7210652314968
 10
114.1615071329179
 20
-141.6745564424459
 10
114.2269639471377
 20
-141.6513020479205
 10
114.2820854749017
 20
-141.6301147106862
 10
114.2820854749017
 20
-141.6301147106862
 10
114.2820854749017
 20
-141.2175645263275
 10
114.2820854749017
 20
-141.2175645263275
 10
114.2820854749017
 20
-141.2175645263275
 10
114.2290310044288
 20
-141.2175645263275
 10
114.2290310044288
 20
-141.2175645263275
 10
114.2290310044288
 20
-141.2175645263275
 10
114.1508273369137
 20
-141.2175645263275
 10
114.1508273369137
 20
-141.2175645263275
 10
114.0829589558542
 20
-141.2175645263275
 10
114.0746907266896
 20
-141.2175645263275
 10
114.0385172240945
 20
-141.2239379529752
 10
114.0385172240945
 20
-141.2239379529752
 10
114.0385172240945
 20
-141.0292900580586
 10
114.0385172240945
 20
-141.0292900580586
 10
114.0660779879765
 20
-141.0356634847063
 10
114.0746907266896
 20
-141.0356634847063
 10
114.1442816554917
 20
-141.0356634847063
 10
114.1442816554917
 20
-141.0356634847063
 10
114.2776068507709
 20
-141.0356634847063
 10
114.2776068507709
 20
-141.0356634847063
 10
114.2776068507709
 20
-140.96590030113
 10
114.2776068507709
 20
-140.8833902642583
 10
114.2755397934797
 20
-140.8790838949017
 10
114.2672715643151
 20
-140.6992499105717
 10
114.2672715643151
 20
-140.6803018854028
 10
114.2648599974754
 20
-140.633793096352
 10
114.2648599974754
 20
-140.633793096352
 10
114.4808674844006
 20
-140.6422335802908
 10
114.4808674844006
 20
-140.6422335802908
 10
114.4915472804049
 20
-140.6422335802908
 10
114.5125623628649
 20
-140.644300637582
 10
114.5125623628649
 20
-140.6611816054597
 10
114.5125623628649
 20
-140.6803018854028
 10
114.4977484522783
 20
-140.6908094266328
 10
114.4722547456875
 20
-140.709929706576
 10
114.4722547456875
 20
-140.7605726102092
 10
114.466053573814
 20
-140.9891546956555
 10
114.4681206311052
 20
-141.0356634847063
 10
114.597311711802
 20
-141.0356634847063
 10
114.6097140555489
 20
-141.0356634847063
 10
114.7072102577815
 20
-141.0272230007675
 10
114.7072102577815
 20
-141.0272230007675
 10
114.7072102577815
 20
-141.2218708956841
 10
114.7072102577815
 20
-141.2218708956841
 10
114.6689696978952
 20
-141.2196315836187
 10
114.6014458263843
 20
-141.2154974690364
 10
114.466053573814
 20
-141.2175645263275
 10
114.466053573814
 20
-141.2175645263275
 10
114.466053573814
 20
-141.5560451577533
 10
114.466053573814
 20
-141.5560451577533
 10
114.521175101578
 20
-141.5327907632279
 10
114.5866319157978
 20
-141.5052299993459
 10
114.6352077621398
 20
-141.4819756048205
 10
114.6352077621398
 20
-141.4819756048205
 10
114.6352077621398
 20
-141.3043809325558
 10
114.6352077621398
 20
-141.3043809325558
 10
114.7495849322501
 20
-141.316955531077
 10
114.8680962169427
 20
-141.316955531077
 10
114.9841959347956
 20
-141.316955531077
 10
114.9611137950444
 20
-141.2218708956841
 10
114.9335530311624
 20
-141.1393608588124
 10
114.8701632742338
 20
-141.0060356635332
 10
114.8257215424741
 20
-141.0081027208244
 10
114.7430392508281
 20
-141.0124090901809
 10
114.7051432004904
 20
-141.0144761474721
 10
114.7051432004904
 20
-141.0144761474721
 10
114.7051432004904
 20
-140.834642163142
 10
114.7051432004904
 20
-140.834642163142
 10
114.8298556570564
 20
-140.8430826470809
 10
115.003488469513
 20
-140.8473890164374
 10
115.0858262516105
 20
-140.8473890164374
 10
115.0858262516105
 20
-140.8473890164374
 10
115.1685085432565
 20
-140.8473890164374
 10
115.1685085432565
 20
-140.8473890164374
 10
115.1685085432565
 20
-140.6844359999851
 10
115.1685085432565
 20
-140.6739284587551
 10
115.1660969764168
 20
-140.6189791857654
 10
115.1660969764168
 20
-140.6189791857654
 10
115.3903726925066
 20
-140.644300637582
 10
115.3903726925066
 20
-140.644300637582
 10
115.3948513166374
 20
-140.644300637582
 10
115.4158663990974
 20
-140.6463676948731
 10
115.4158663990974
 20
-140.6632486627509
 10
115.4158663990974
 20
-140.6780625733374
 10
115.4051866030931
 20
-140.6866753120505
 10
115.3776258392111
 20
-140.7014892226371
 10
115.3714246673377
 20
-140.7669460368569
 10
115.3693576100465
 20
-140.7881333740911
 10
115.3693576100465
 20
-140.8473890164374
 10
115.3693576100465
 20
-140.8473890164374
 10
115.4644422454394
 20
-140.8473890164374
 10
115.4644422454394
 20
-140.8473890164374
 10
115.5471245370854
 20
-140.8473890164374
 10
115.7204128399935
 20
-140.8430826470809
 10
115.8454698061081
 20
-140.834642163142
 10
115.8454698061081
 20
-140.834642163142
 10
115.8454698061081
 20
-141.0144761474721
 10
115.8454698061081
 20
-141.0144761474721
 10
115.8158419849349
 20
-141.0124090901809
 10
115.6973307002423
 20
-141.0081027208244
 10
115.6570230830649
 20
-141.0060356635332
 10
115.6422091724783
 20
-141.0568508219406
 10
115.6084472367229
 20
-141.1689886799855
 10
115.5426459129546
 20
-141.3085150471381
 10
115.5850205874232
 20
-141.3085150471381
 10
115.8623507739858
 20
-141.2895670219693
 10
115.9236734736232
 20
-141.2873277099039
 10
115.9236734736232
 20
-141.2873277099039
 10
115.9236734736232
 20
-141.4714680635904
 10
115.9236734736232
 20
-141.4714680635904
 10
115.8940456524501
 20
-141.4714680635904
 10
115.8771646845724
 20
-141.4671616942339
 10
115.71421166812
 20
-141.4671616942339
 97
        0
 97
        1
330
102
 75
     2
 76
     1
 98
        1
 10
0.0
 20
0.0
450
        0
451
        0
460
0.0
461
0.0
452
        0
462
0.0
453
        0
470

  0
SPLINE
  5
104
330
FC
100
AcDbEntity
  8
レイヤー 1
100
AcDbSpline
210
0.0
220
0.0
230
1.0
 70
    11
 71
     3
 72
    17
 73
    13
 74
     0
 42
0.0000000001
 43
0.0000000001
 40
0.0
 40
0.0
 40
0.0
 40
0.0
 40
1.0
 40
1.0
 40
1.0
 40
2.0
 40
2.0
 40
2.0
 40
3.0
 40
3.0
 40
3.0
 40
4.0
 40
4.0
 40
4.0
 40
4.0
 10
117.5707736251212
 20
-142.2669406111346
 30
0.0
 10
117.5707736251212
 20
-142.2669406111346
 30
0.0
 10
116.8641845410964
 20
-142.2669406111346
 30
0.0
 10
116.8641845410964
 20
-142.2669406111346
 30
0.0
 10
116.8641845410964
 20
-142.2669406111346
 30
0.0
 10
116.8641845410964
 20
-142.3811455264707
 30
0.0
 10
116.8641845410964
 20
-142.3811455264707
 30
0.0
 10
116.8641845410964
 20
-142.3811455264707
 30
0.0
 10
117.5707736251212
 20
-142.3811455264707
 30
0.0
 10
117.5707736251212
 20
-142.3811455264707
 30
0.0
 10
117.5707736251212
 20
-142.3811455264707
 30
0.0
 10
117.5707736251212
 20
-142.2669406111346
 30
0.0
 10
117.5707736251212
 20
-142.2669406111346
 30
0.0
  0
SPLINE
  5
105
330
FC
100
AcDbEntity
  8
レイヤー 1
100
AcDbSpline
210
0.0
220
0.0
230
1.0
 70
    11
 71
     3
 72
    17
 73
    13
 74
     0
 42
0.0000000001
 43
0.0000000001
 40
0.0
 40
0.0
 40
0.0
 40
0.0
 40
1.0
 40
1.0
 40
1.0
 40
2.0
 40
2.0
 40
2.0
 40
3.0
 40
3.0
 40
3.0
 40
4.0
 40
4.0
 40
4.0
 40
4.0
 10
117.5707736251212
 20
-142.0235446151018
 30
0.0
 10
117.5707736251212
 20
-142.0235446151018
 30
0.0
 10
116.8641845410964
 20
-142.0235446151018
 30
0.0
 10
116.8641845410964
 20
-142.0235446151018
 30
0.0
 10
116.8641845410964
 20
-142.0235446151018
 30
0.0
 10
116.8641845410964
 20
-142.137921785212
 30
0.0
 10
116.8641845410964
 20
-142.137921785212
 30
0.0
 10
116.8641845410964
 20
-142.137921785212
 30
0.0
 10
117.5707736251212
 20
-142.137921785212
 30
0.0
 10
117.5707736251212
 20
-142.137921785212
 30
0.0
 10
117.5707736251212
 20
-142.137921785212
 30
0.0
 10
117.5707736251212
 20
-142.0235446151018
 30
0.0
 10
117.5707736251212
 20
-142.0235446151018
 30
0.0
  0
SPLINE
  5
106
330
FC
100
AcDbEntity
  8
レイヤー 1
100
AcDbSpline
210
0.0
220
0.0
230
1.0
 70
    11
 71
     3
 72
    17
 73
    13
 74
     0
 42
0.0000000001
 43
0.0000000001
 40
0.0
 40
0.0
 40
0.0
 40
0.0
 40
1.0
 40
1.0
 40
1.0
 40
2.0
 40
2.0
 40
2.0
 40
3.0
 40
3.0
 40
3.0
 40
4.0
 40
4.0
 40
4.0
 40
4.0
 10
117.5707736251212
 20
-141.7908284150731
 30
0.0
 10
117.5707736251212
 20
-141.7908284150731
 30
0.0
 10
116.8641845410964
 20
-141.7908284150731
 30
0.0
 10
116.8641845410964
 20
-141.7908284150731
 30
0.0
 10
116.8641845410964
 20
-141.7908284150731
 30
0.0
 10
116.8641845410964
 20
-141.8988321585357
 30
0.0
 10
116.8641845410964
 20
-141.8988321585357
 30
0.0
 10
116.8641845410964
 20
-141.8988321585357
 30
0.0
 10
117.5707736251212
 20
-141.8988321585357
 30
0.0
 10
117.5707736251212
 20
-141.8988321585357
 30
0.0
 10
117.5707736251212
 20
-141.8988321585357
 30
0.0
 10
117.5707736251212
 20
-141.7908284150731
 30
0.0
 10
117.5707736251212
 20
-141.7908284150731
 30
0.0
  0
SPLINE
  5
107
330
FC
100
AcDbEntity
  8
レイヤー 1
100
AcDbSpline
210
0.0
220
0.0
230
1.0
 70
     9
 71
     3
 72
   203
 73
   199
 74
     0
 42
0.0000000001
 43
0.0000000001
 40
0.0
 40
0.0
 40
0.0
 40
0.0
 40
1.0
 40
1.0
 40
1.0
 40
2.0
 40
2.0
 40
2.0
 40
3.0
 40
3.0
 40
3.0
 40
4.0
 40
4.0
 40
4.0
 40
5.0
 40
5.0
 40
5.0
 40
6.0
 40
6.0
 40
6.0
 40
7.0
 40
7.0
 40
7.0
 40
8.0
 40
8.0
 40
8.0
 40
9.0
 40
9.0
 40
9.0
 40
10.0
 40
10.0
 40
10.0
 40
11.0
 40
11.0
 40
11.0
 40
12.0
 40
12.0
 40
12.0
 40
13.0
 40
13.0
 40
13.0
 40
14.0
 40
14.0
 40
14.0
 40
15.0
 40
15.0
 40
15.0
 40
16.0
 40
16.0
 40
16.0
 40
17.0
 40
17.0
 40
17.0
 40
18.0
 40
18.0
 40
18.0
 40
19.0
 40
19.0
 40
19.0
 40
20.0
 40
20.0
 40
20.0
 40
21.0
 40
21.0
 40
21.0
 40
22.0
 40
22.0
 40
22.0
 40
23.0
 40
23.0
 40
23.0
 40
24.0
 40
24.0
 40
24.0
 40
25.0
 40
25.0
 40
25.0
 40
26.0
 40
26.0
 40
26.0
 40
27.0
 40
27.0
 40
27.0
 40
28.0
 40
28.0
 40
28.0
 40
29.0
 40
29.0
 40
29.0
 40
30.0
 40
30.0
 40
30.0
 40
31.0
 40
31.0
 40
31.0
 40
32.0
 40
32.0
 40
32.0
 40
33.0
 40
33.0
 40
33.0
 40
34.0
 40
34.0
 40
34.0
 40
35.0
 40
35.0
 40
35.0
 40
36.0
 40
36.0
 40
36.0
 40
37.0
 40
37.0
 40
37.0
 40
38.0
 40
38.0
 40
38.0
 40
39.0
 40
39.0
 40
39.0
 40
40.0
 40
40.0
 40
40.0
 40
41.0
 40
41.0
 40
41.0
 40
42.0
 40
42.0
 40
42.0
 40
43.0
 40
43.0
 40
43.0
 40
44.0
 40
44.0
 40
44.0
 40
45.0
 40
45.0
 40
45.0
 40
46.0
 40
46.0
 40
46.0
 40
47.0
 40
47.0
 40
47.0
 40
48.0
 40
48.0
 40
48.0
 40
49.0
 40
49.0
 40
49.0
 40
50.0
 40
50.0
 40
50.0
 40
51.0
 40
51.0
 40
51.0
 40
52.0
 40
52.0
 40
52.0
 40
53.0
 40
53.0
 40
53.0
 40
54.0
 40
54.0
 40
54.0
 40
55.0
 40
55.0
 40
55.0
 40
56.0
 40
56.0
 40
56.0
 40
57.0
 40
57.0
 40
57.0
 40
58.0
 40
58.0
 40
58.0
 40
59.0
 40
59.0
 40
59.0
 40
60.0
 40
60.0
 40
60.0
 40
61.0
 40
61.0
 40
61.0
 40
62.0
 40
62.0
 40
62.0
 40
63.0
 40
63.0
 40
63.0
 40
64.0
 40
64.0
 40
64.0
 40
65.0
 40
65.0
 40
65.0
 40
66.0
 40
66.0
 40
66.0
 40
66.0
 10
117.4057535513777
 20
-141.5348578205191
 30
0.0
 10
117.4057535513777
 20
-141.5348578205191
 30
0.0
 10
116.8469590636702
 20
-141.5348578205191
 30
0.0
 10
116.8469590636702
 20
-141.5348578205191
 30
0.0
 10
116.8366237772144
 20
-141.5792995522788
 30
0.0
 10
116.8280110385013
 20
-141.6109944307431
 30
0.0
 10
116.8152641852059
 20
-141.6492349906294
 30
0.0
 10
116.8407578917967
 20
-141.6492349906294
 30
0.0
 10
116.8555718023833
 20
-141.6513020479205
 30
0.0
 10
116.8617729742567
 20
-141.6513020479205
 30
0.0
 10
116.8617729742567
 20
-141.6513020479205
 30
0.0
 10
117.0502196972999
 20
-141.6513020479205
 30
0.0
 10
117.0502196972999
 20
-141.6513020479205
 30
0.0
 10
117.0502196972999
 20
-141.6513020479205
 30
0.0
 10
117.4247015765466
 20
-141.6513020479205
 30
0.0
 10
117.4247015765466
 20
-141.6513020479205
 30
0.0
 10
117.4753444801797
 20
-141.6513020479205
 30
0.0
 10
117.7588758386158
 20
-141.6385551946251
 30
0.0
 10
117.7905707170801
 20
-141.6385551946251
 30
0.0
 10
117.788503659789
 20
-141.6661159585071
 30
0.0
 10
117.7864366024978
 20
-141.6850639836759
 30
0.0
 10
117.7864366024978
 20
-141.7146918048491
 30
0.0
 10
117.7843695452067
 20
-141.7463866833134
 30
0.0
 10
117.7843695452067
 20
-141.8817789358837
 30
0.0
 10
117.7843695452067
 20
-141.9093396997657
 30
0.0
 10
117.7843695452067
 20
-141.9093396997657
 30
0.0
 10
117.7843695452067
 20
-142.1548027530898
 30
0.0
 10
117.7843695452067
 20
-142.1548027530898
 30
0.0
 10
117.7843695452067
 20
-142.1992444848495
 30
0.0
 10
117.788503659789
 20
-142.3959594370572
 30
0.0
 10
117.7926377743713
 20
-142.5482326575053
 30
0.0
 10
117.7926377743713
 20
-142.5482326575053
 30
0.0
 10
117.5662950009904
 20
-142.5482326575053
 30
0.0
 10
117.5662950009904
 20
-142.5482326575053
 30
0.0
 10
117.5662950009904
 20
-142.5482326575053
 30
0.0
 10
117.5683620582815
 20
-142.5144707217498
 30
0.0
 10
117.5683620582815
 20
-142.5144707217498
 30
0.0
 10
117.5683620582815
 20
-142.5144707217498
 30
0.0
 10
116.8662515983876
 20
-142.5144707217498
 30
0.0
 10
116.8662515983876
 20
-142.5144707217498
 30
0.0
 10
116.8662515983876
 20
-142.5144707217498
 30
0.0
 10
116.8683186556787
 20
-142.5482326575053
 30
0.0
 10
116.8683186556787
 20
-142.5482326575053
 30
0.0
 10
116.8683186556787
 20
-142.5482326575053
 30
0.0
 10
116.6502441114624
 20
-142.5482326575053
 30
0.0
 10
116.6502441114624
 20
-142.5482326575053
 30
0.0
 10
116.6547227355932
 20
-142.4932833845155
 30
0.0
 10
116.6547227355932
 20
-142.4805365312201
 30
0.0
 10
116.6609239074667
 20
-142.3663316158841
 30
0.0
 10
116.6629909647578
 20
-142.3387708520021
 30
0.0
 10
116.665058022049
 20
-142.2056179114972
 30
0.0
 10
116.665058022049
 20
-142.1864976315541
 30
0.0
 10
116.665058022049
 20
-142.1864976315541
 30
0.0
 10
116.665058022049
 20
-141.9834092526986
 30
0.0
 10
116.665058022049
 20
-141.9834092526986
 30
0.0
 10
116.5255316548964
 20
-142.2330064206049
 30
0.0
 10
116.3563774665706
 20
-142.3642645585929
 30
0.0
 10
116.2506130351734
 20
-142.4297213728127
 30
0.0
 10
116.2506130351734
 20
-142.4297213728127
 30
0.0
 10
116.0769802227168
 20
-142.2901950056601
 30
0.0
 10
116.0769802227168
 20
-142.2901950056601
 30
0.0
 10
116.1658636862363
 20
-142.2393798472526
 30
0.0
 10
116.3098686775197
 20
-142.1525634410244
 30
0.0
 10
116.4473279873812
 20
-141.958087800882
 30
0.0
 10
116.5382785081918
 20
-141.8311360322505
 30
0.0
 10
116.6037353224115
 20
-141.6873032957413
 30
0.0
 10
116.6378417677155
 20
-141.5348578205191
 30
0.0
 10
116.4090874274949
 20
-141.5370971325845
 30
0.0
 10
116.2292534431649
 20
-141.5434705592322
 30
0.0
 10
116.134168807772
 20
-141.5455376165233
 30
0.0
 10
116.134168807772
 20
-141.5455376165233
 30
0.0
 10
116.134168807772
 20
-141.3677706894844
 30
0.0
 10
116.134168807772
 20
-141.3677706894844
 30
0.0
 10
116.3308837599798
 20
-141.3741441161321
 30
0.0
 10
116.6144151184158
 20
-141.3784504854887
 30
0.0
 10
116.7646212815727
 20
-141.3784504854887
 30
0.0
 10
116.7646212815727
 20
-141.3784504854887
 30
0.0
 10
116.9782172016582
 20
-141.3784504854887
 30
0.0
 10
116.9782172016582
 20
-141.3784504854887
 30
0.0
 10
116.9782172016582
 20
-141.3784504854887
 30
0.0
 10
116.9782172016582
 20
-141.2704467420261
 30
0.0
 10
116.9782172016582
 20
-141.2704467420261
 30
0.0
 10
116.9782172016582
 20
-141.2704467420261
 30
0.0
 10
116.8321451530836
 20
-141.2704467420261
 30
0.0
 10
116.8321451530836
 20
-141.2704467420261
 30
0.0
 10
116.6629909647578
 20
-141.2704467420261
 30
0.0
 10
116.4938367764321
 20
-141.2747531113827
 30
0.0
 10
116.3267496453975
 20
-141.2811265380304
 30
0.0
 10
116.3267496453975
 20
-141.2811265380304
 30
0.0
 10
116.3267496453975
 20
-141.1097330376392
 30
0.0
 10
116.3267496453975
 20
-141.1097330376392
 30
0.0
 10
116.4810899231367
 20
-141.1202405788692
 30
0.0
 10
116.6671250793401
 20
-141.1202405788692
 30
0.0
 10
116.8321451530836
 20
-141.1202405788692
 30
0.0
 10
116.8321451530836
 20
-141.1202405788692
 30
0.0
 10
116.9782172016582
 20
-141.1202405788692
 30
0.0
 10
116.9782172016582
 20
-141.1202405788692
 30
0.0
 10
116.9782172016582
 20
-141.1202405788692
 30
0.0
 10
116.9782172016582
 20
-141.0019015489509
 30
0.0
 10
116.9782172016582
 20
-141.0019015489509
 30
0.0
 10
116.9782172016582
 20
-141.0019015489509
 30
0.0
 10
116.8469590636702
 20
-141.0019015489509
 30
0.0
 10
116.8469590636702
 20
-141.0019015489509
 30
0.0
 10
116.8004502746193
 20
-141.0019015489509
 30
0.0
 10
116.5975341505381
 20
-141.0103420328898
 30
0.0
 10
116.5551594760695
 20
-141.0103420328898
 30
0.0
 10
116.3522433519883
 20
-141.0144761474721
 30
0.0
 10
116.2757622322158
 20
-141.0165432047632
 30
0.0
 10
116.1975585647006
 20
-141.0187825168286
 30
0.0
 10
116.1975585647006
 20
-141.0187825168286
 30
0.0
 10
116.1975585647006
 20
-140.834642163142
 30
0.0
 10
116.1975585647006
 20
-140.834642163142
 30
0.0
 10
116.3119357348109
 20
-140.8430826470809
 30
0.0
 10
116.3563774665706
 20
-140.8430826470809
 30
0.0
 10
116.7391275749819
 20
-140.851695385794
 30
0.0
 10
116.6757378180533
 20
-140.7564384956268
 30
0.0
 10
116.6481770541713
 20
-140.7288777317448
 30
0.0
 10
116.6123480611247
 20
-140.692876483924
 30
0.0
 10
116.6123480611247
 20
-140.692876483924
 30
0.0
 10
116.7877034213239
 20
-140.6103664470523
 30
0.0
 10
116.7877034213239
 20
-140.6103664470523
 30
0.0
 10
116.8280110385013
 20
-140.6463676948731
 30
0.0
 10
116.872452770261
 20
-140.6887423693417
 30
0.0
 10
116.9465223231939
 20
-140.7986409153212
 30
0.0
 10
116.9465223231939
 20
-140.7986409153212
 30
0.0
 10
116.8321451530836
 20
-140.8537624430852
 30
0.0
 10
116.8321451530836
 20
-140.8537624430852
 30
0.0
 10
116.8321451530836
 20
-140.8537624430852
 30
0.0
 10
116.8428249490879
 20
-140.8537624430852
 30
0.0
 10
116.8428249490879
 20
-140.8537624430852
 30
0.0
 10
116.8428249490879
 20
-140.8537624430852
 30
0.0
 10
117.3654459342003
 20
-140.8537624430852
 30
0.0
 10
117.3654459342003
 20
-140.8537624430852
 30
0.0
 10
117.3654459342003
 20
-140.8537624430852
 30
0.0
 10
117.2703612988074
 20
-140.8093207113254
 30
0.0
 10
117.2703612988074
 20
-140.8093207113254
 30
0.0
 10
117.2975775531408
 20
-140.7712524062134
 30
0.0
 10
117.354766138196
 20
-140.6908094266328
 30
0.0
 10
117.3695800487826
 20
-140.6167398737
 30
0.0
 10
117.3695800487826
 20
-140.6167398737
 30
0.0
 10
117.5831759688681
 20
-140.6803018854028
 30
0.0
 10
117.5831759688681
 20
-140.6803018854028
 30
0.0
 10
117.5917887075812
 20
-140.682368942694
 30
0.0
 10
117.6128037900412
 20
-140.692876483924
 30
0.0
 10
117.6128037900412
 20
-140.7140638211583
 30
0.0
 10
117.6128037900412
 20
-140.7521321262703
 30
0.0
 10
117.5473469758215
 20
-140.7521321262703
 30
0.0
 10
117.5283989506526
 20
-140.7521321262703
 30
0.0
 10
117.5177191546483
 20
-140.7712524062134
 30
0.0
 10
117.4942925053486
 20
-140.8113877686166
 30
0.0
 10
117.4646646841755
 20
-140.851695385794
 30
0.0
 10
117.864640270013
 20
-140.8453219591463
 30
0.0
 10
117.8942680911861
 20
-140.8430826470809
 30
0.0
 10
117.9704047014102
 20
-140.8368814752074
 30
0.0
 10
117.9704047014102
 20
-140.8368814752074
 30
0.0
 10
117.9704047014102
 20
-141.0187825168286
 30
0.0
 10
117.9704047014102
 20
-141.0187825168286
 30
0.0
 10
117.9514566762413
 20
-141.0187825168286
 30
0.0
 10
117.9259629696504
 20
-141.0165432047632
 30
0.0
 10
117.7061658776915
 20
-141.0081027208244
 30
0.0
 10
117.6551784645098
 20
-141.0060356635332
 30
0.0
 10
117.4353813725508
 20
-141.0019015489509
 30
0.0
 10
117.3909396407911
 20
-141.0019015489509
 30
0.0
 10
117.3909396407911
 20
-141.0019015489509
 30
0.0
 10
117.174932153866
 20
-141.0019015489509
 30
0.0
 10
117.174932153866
 20
-141.0019015489509
 30
0.0
 10
117.174932153866
 20
-141.0019015489509
 30
0.0
 10
117.174932153866
 20
-141.1202405788692
 30
0.0
 10
117.174932153866
 20
-141.1202405788692
 30
0.0
 10
117.174932153866
 20
-141.1202405788692
 30
0.0
 10
117.3485649663225
 20
-141.1202405788692
 30
0.0
 10
117.3485649663225
 20
-141.1202405788692
 30
0.0
 10
117.5115179827749
 20
-141.1202405788692
 30
0.0
 10
117.7016872535607
 20
-141.1202405788692
 30
0.0
 10
117.8584390981395
 20
-141.1097330376392
 30
0.0
 10
117.8584390981395
 20
-141.1097330376392
 30
0.0
 10
117.8584390981395
 20
-141.2811265380304
 30
0.0
 10
117.8584390981395
 20
-141.2811265380304
 30
0.0
 10
117.6489772926363
 20
-141.2726860540916
 30
0.0
 10
117.4522623404286
 20
-141.2704467420261
 30
0.0
 10
117.3485649663225
 20
-141.2704467420261
 30
0.0
 10
117.3485649663225
 20
-141.2704467420261
 30
0.0
 10
117.174932153866
 20
-141.2704467420261
 30
0.0
 10
117.174932153866
 20
-141.2704467420261
 30
0.0
 10
117.174932153866
 20
-141.2704467420261
 30
0.0
 10
117.174932153866
 20
-141.3784504854887
 30
0.0
 10
117.174932153866
 20
-141.3784504854887
 30
0.0
 10
117.174932153866
 20
-141.3784504854887
 30
0.0
 10
117.4057535513777
 20
-141.3784504854887
 30
0.0
 10
117.4057535513777
 20
-141.3784504854887
 30
0.0
 10
117.5387342371083
 20
-141.3784504854887
 30
0.0
 10
117.8267442196752
 20
-141.3741441161321
 30
0.0
 10
118.0358615156299
 20
-141.3677706894844
 30
0.0
 10
118.0358615156299
 20
-141.3677706894844
 30
0.0
 10
118.0358615156299
 20
-141.5455376165233
 30
0.0
 10
118.0358615156299
 20
-141.5455376165233
 30
0.0
 10
117.843625187553
 20
-141.5391641898756
 30
0.0
 10
117.5304660079437
 20
-141.5348578205191
 30
0.0
 10
117.4057535513777
 20
-141.5348578205191
 30
0.0
  0
HATCH
  5
108
330
FC
100
AcDbEntity
  8
レイヤー 1
 62
   250
420
  2299925
440
 33554687
100
AcDbHatch
 10
0.0
 20
0.0
 30
0.0
210
0.0
220
0.0
230
1.0
  2
SOLID
 70
     1
 71
     1
 91
        4
 92
        1
 93
        1
 72
     4
 94
        3
 73
     0
 74
     0
 95
       17
 96
       13
 40
0.0
 40
0.0
 40
0.0
 40
0.0
 40
1.0
 40
1.0
 40
1.0
 40
2.0
 40
2.0
 40
2.0
 40
3.0
 40
3.0
 40
3.0
 40
4.0
 40
4.0
 40
4.0
 40
4.0
 10
117.5707736251212
 20
-142.2669406111346
 10
117.5707736251212
 20
-142.2669406111346
 10
116.8641845410964
 20
-142.2669406111346
 10
116.8641845410964
 20
-142.2669406111346
 10
116.8641845410964
 20
-142.2669406111346
 10
116.8641845410964
 20
-142.3811455264707
 10
116.8641845410964
 20
-142.3811455264707
 10
116.8641845410964
 20
-142.3811455264707
 10
117.5707736251212
 20
-142.3811455264707
 10
117.5707736251212
 20
-142.3811455264707
 10
117.5707736251212
 20
-142.3811455264707
 10
117.5707736251212
 20
-142.2669406111346
 10
117.5707736251212
 20
-142.2669406111346
 97
        0
 97
        1
330
104
 92
        1
 93
        1
 72
     4
 94
        3
 73
     0
 74
     0
 95
       17
 96
       13
 40
0.0
 40
0.0
 40
0.0
 40
0.0
 40
1.0
 40
1.0
 40
1.0
 40
2.0
 40
2.0
 40
2.0
 40
3.0
 40
3.0
 40
3.0
 40
4.0
 40
4.0
 40
4.0
 40
4.0
 10
117.5707736251212
 20
-142.0235446151018
 10
117.5707736251212
 20
-142.0235446151018
 10
116.8641845410964
 20
-142.0235446151018
 10
116.8641845410964
 20
-142.0235446151018
 10
116.8641845410964
 20
-142.0235446151018
 10
116.8641845410964
 20
-142.137921785212
 10
116.8641845410964
 20
-142.137921785212
 10
116.8641845410964
 20
-142.137921785212
 10
117.5707736251212
 20
-142.137921785212
 10
117.5707736251212
 20
-142.137921785212
 10
117.5707736251212
 20
-142.137921785212
 10
117.5707736251212
 20
-142.0235446151018
 10
117.5707736251212
 20
-142.0235446151018
 97
        0
 97
        1
330
105
 92
        1
 93
        1
 72
     4
 94
        3
 73
     0
 74
     0
 95
       17
 96
       13
 40
0.0
 40
0.0
 40
0.0
 40
0.0
 40
1.0
 40
1.0
 40
1.0
 40
2.0
 40
2.0
 40
2.0
 40
3.0
 40
3.0
 40
3.0
 40
4.0
 40
4.0
 40
4.0
 40
4.0
 10
117.5707736251212
 20
-141.7908284150731
 10
117.5707736251212
 20
-141.7908284150731
 10
116.8641845410964
 20
-141.7908284150731
 10
116.8641845410964
 20
-141.7908284150731
 10
116.8641845410964
 20
-141.7908284150731
 10
116.8641845410964
 20
-141.8988321585357
 10
116.8641845410964
 20
-141.8988321585357
 10
116.8641845410964
 20
-141.8988321585357
 10
117.5707736251212
 20
-141.8988321585357
 10
117.5707736251212
 20
-141.8988321585357
 10
117.5707736251212
 20
-141.8988321585357
 10
117.5707736251212
 20
-141.7908284150731
 10
117.5707736251212
 20
-141.7908284150731
 97
        0
 97
        1
330
106
 92
        1
 93
        1
 72
     4
 94
        3
 73
     0
 74
     0
 95
      203
 96
      199
 40
0.0
 40
0.0
 40
0.0
 40
0.0
 40
1.0
 40
1.0
 40
1.0
 40
2.0
 40
2.0
 40
2.0
 40
3.0
 40
3.0
 40
3.0
 40
4.0
 40
4.0
 40
4.0
 40
5.0
 40
5.0
 40
5.0
 40
6.0
 40
6.0
 40
6.0
 40
7.0
 40
7.0
 40
7.0
 40
8.0
 40
8.0
 40
8.0
 40
9.0
 40
9.0
 40
9.0
 40
10.0
 40
10.0
 40
10.0
 40
11.0
 40
11.0
 40
11.0
 40
12.0
 40
12.0
 40
12.0
 40
13.0
 40
13.0
 40
13.0
 40
14.0
 40
14.0
 40
14.0
 40
15.0
 40
15.0
 40
15.0
 40
16.0
 40
16.0
 40
16.0
 40
17.0
 40
17.0
 40
17.0
 40
18.0
 40
18.0
 40
18.0
 40
19.0
 40
19.0
 40
19.0
 40
20.0
 40
20.0
 40
20.0
 40
21.0
 40
21.0
 40
21.0
 40
22.0
 40
22.0
 40
22.0
 40
23.0
 40
23.0
 40
23.0
 40
24.0
 40
24.0
 40
24.0
 40
25.0
 40
25.0
 40
25.0
 40
26.0
 40
26.0
 40
26.0
 40
27.0
 40
27.0
 40
27.0
 40
28.0
 40
28.0
 40
28.0
 40
29.0
 40
29.0
 40
29.0
 40
30.0
 40
30.0
 40
30.0
 40
31.0
 40
31.0
 40
31.0
 40
32.0
 40
32.0
 40
32.0
 40
33.0
 40
33.0
 40
33.0
 40
34.0
 40
34.0
 40
34.0
 40
35.0
 40
35.0
 40
35.0
 40
36.0
 40
36.0
 40
36.0
 40
37.0
 40
37.0
 40
37.0
 40
38.0
 40
38.0
 40
38.0
 40
39.0
 40
39.0
 40
39.0
 40
40.0
 40
40.0
 40
40.0
 40
41.0
 40
41.0
 40
41.0
 40
42.0
 40
42.0
 40
42.0
 40
43.0
 40
43.0
 40
43.0
 40
44.0
 40
44.0
 40
44.0
 40
45.0
 40
45.0
 40
45.0
 40
46.0
 40
46.0
 40
46.0
 40
47.0
 40
47.0
 40
47.0
 40
48.0
 40
48.0
 40
48.0
 40
49.0
 40
49.0
 40
49.0
 40
50.0
 40
50.0
 40
50.0
 40
51.0
 40
51.0
 40
51.0
 40
52.0
 40
52.0
 40
52.0
 40
53.0
 40
53.0
 40
53.0
 40
54.0
 40
54.0
 40
54.0
 40
55.0
 40
55.0
 40
55.0
 40
56.0
 40
56.0
 40
56.0
 40
57.0
 40
57.0
 40
57.0
 40
58.0
 40
58.0
 40
58.0
 40
59.0
 40
59.0
 40
59.0
 40
60.0
 40
60.0
 40
60.0
 40
61.0
 40
61.0
 40
61.0
 40
62.0
 40
62.0
 40
62.0
 40
63.0
 40
63.0
 40
63.0
 40
64.0
 40
64.0
 40
64.0
 40
65.0
 40
65.0
 40
65.0
 40
66.0
 40
66.0
 40
66.0
 40
66.0
 10
117.4057535513777
 20
-141.5348578205191
 10
117.4057535513777
 20
-141.5348578205191
 10
116.8469590636702
 20
-141.5348578205191
 10
116.8469590636702
 20
-141.5348578205191
 10
116.8366237772144
 20
-141.5792995522788
 10
116.8280110385013
 20
-141.6109944307431
 10
116.8152641852059
 20
-141.6492349906294
 10
116.8407578917967
 20
-141.6492349906294
 10
116.8555718023833
 20
-141.6513020479205
 10
116.8617729742567
 20
-141.6513020479205
 10
116.8617729742567
 20
-141.6513020479205
 10
117.0502196972999
 20
-141.6513020479205
 10
117.0502196972999
 20
-141.6513020479205
 10
117.0502196972999
 20
-141.6513020479205
 10
117.4247015765466
 20
-141.6513020479205
 10
117.4247015765466
 20
-141.6513020479205
 10
117.4753444801797
 20
-141.6513020479205
 10
117.7588758386158
 20
-141.6385551946251
 10
117.7905707170801
 20
-141.6385551946251
 10
117.788503659789
 20
-141.6661159585071
 10
117.7864366024978
 20
-141.6850639836759
 10
117.7864366024978
 20
-141.7146918048491
 10
117.7843695452067
 20
-141.7463866833134
 10
117.7843695452067
 20
-141.8817789358837
 10
117.7843695452067
 20
-141.9093396997657
 10
117.7843695452067
 20
-141.9093396997657
 10
117.7843695452067
 20
-142.1548027530898
 10
117.7843695452067
 20
-142.1548027530898
 10
117.7843695452067
 20
-142.1992444848495
 10
117.788503659789
 20
-142.3959594370572
 10
117.7926377743713
 20
-142.5482326575053
 10
117.7926377743713
 20
-142.5482326575053
 10
117.5662950009904
 20
-142.5482326575053
 10
117.5662950009904
 20
-142.5482326575053
 10
117.5662950009904
 20
-142.5482326575053
 10
117.5683620582815
 20
-142.5144707217498
 10
117.5683620582815
 20
-142.5144707217498
 10
117.5683620582815
 20
-142.5144707217498
 10
116.8662515983876
 20
-142.5144707217498
 10
116.8662515983876
 20
-142.5144707217498
 10
116.8662515983876
 20
-142.5144707217498
 10
116.8683186556787
 20
-142.5482326575053
 10
116.8683186556787
 20
-142.5482326575053
 10
116.8683186556787
 20
-142.5482326575053
 10
116.6502441114624
 20
-142.5482326575053
 10
116.6502441114624
 20
-142.5482326575053
 10
116.6547227355932
 20
-142.4932833845155
 10
116.6547227355932
 20
-142.4805365312201
 10
116.6609239074667
 20
-142.3663316158841
 10
116.6629909647578
 20
-142.3387708520021
 10
116.665058022049
 20
-142.2056179114972
 10
116.665058022049
 20
-142.1864976315541
 10
116.665058022049
 20
-142.1864976315541
 10
116.665058022049
 20
-141.9834092526986
 10
116.665058022049
 20
-141.9834092526986
 10
116.5255316548964
 20
-142.2330064206049
 10
116.3563774665706
 20
-142.3642645585929
 10
116.2506130351734
 20
-142.4297213728127
 10
116.2506130351734
 20
-142.4297213728127
 10
116.0769802227168
 20
-142.2901950056601
 10
116.0769802227168
 20
-142.2901950056601
 10
116.1658636862363
 20
-142.2393798472526
 10
116.3098686775197
 20
-142.1525634410244
 10
116.4473279873812
 20
-141.958087800882
 10
116.5382785081918
 20
-141.8311360322505
 10
116.6037353224115
 20
-141.6873032957413
 10
116.6378417677155
 20
-141.5348578205191
 10
116.4090874274949
 20
-141.5370971325845
 10
116.2292534431649
 20
-141.5434705592322
 10
116.134168807772
 20
-141.5455376165233
 10
116.134168807772
 20
-141.5455376165233
 10
116.134168807772
 20
-141.3677706894844
 10
116.134168807772
 20
-141.3677706894844
 10
116.3308837599798
 20
-141.3741441161321
 10
116.6144151184158
 20
-141.3784504854887
 10
116.7646212815727
 20
-141.3784504854887
 10
116.7646212815727
 20
-141.3784504854887
 10
116.9782172016582
 20
-141.3784504854887
 10
116.9782172016582
 20
-141.3784504854887
 10
116.9782172016582
 20
-141.3784504854887
 10
116.9782172016582
 20
-141.2704467420261
 10
116.9782172016582
 20
-141.2704467420261
 10
116.9782172016582
 20
-141.2704467420261
 10
116.8321451530836
 20
-141.2704467420261
 10
116.8321451530836
 20
-141.2704467420261
 10
116.6629909647578
 20
-141.2704467420261
 10
116.4938367764321
 20
-141.2747531113827
 10
116.3267496453975
 20
-141.2811265380304
 10
116.3267496453975
 20
-141.2811265380304
 10
116.3267496453975
 20
-141.1097330376392
 10
116.3267496453975
 20
-141.1097330376392
 10
116.4810899231367
 20
-141.1202405788692
 10
116.6671250793401
 20
-141.1202405788692
 10
116.8321451530836
 20
-141.1202405788692
 10
116.8321451530836
 20
-141.1202405788692
 10
116.9782172016582
 20
-141.1202405788692
 10
116.9782172016582
 20
-141.1202405788692
 10
116.9782172016582
 20
-141.1202405788692
 10
116.9782172016582
 20
-141.0019015489509
 10
116.9782172016582
 20
-141.0019015489509
 10
116.9782172016582
 20
-141.0019015489509
 10
116.8469590636702
 20
-141.0019015489509
 10
116.8469590636702
 20
-141.0019015489509
 10
116.8004502746193
 20
-141.0019015489509
 10
116.5975341505381
 20
-141.0103420328898
 10
116.5551594760695
 20
-141.0103420328898
 10
116.3522433519883
 20
-141.0144761474721
 10
116.2757622322158
 20
-141.0165432047632
 10
116.1975585647006
 20
-141.0187825168286
 10
116.1975585647006
 20
-141.0187825168286
 10
116.1975585647006
 20
-140.834642163142
 10
116.1975585647006
 20
-140.834642163142
 10
116.3119357348109
 20
-140.8430826470809
 10
116.3563774665706
 20
-140.8430826470809
 10
116.7391275749819
 20
-140.851695385794
 10
116.6757378180533
 20
-140.7564384956268
 10
116.6481770541713
 20
-140.7288777317448
 10
116.6123480611247
 20
-140.692876483924
 10
116.6123480611247
 20
-140.692876483924
 10
116.7877034213239
 20
-140.6103664470523
 10
116.7877034213239
 20
-140.6103664470523
 10
116.8280110385013
 20
-140.6463676948731
 10
116.872452770261
 20
-140.6887423693417
 10
116.9465223231939
 20
-140.7986409153212
 10
116.9465223231939
 20
-140.7986409153212
 10
116.8321451530836
 20
-140.8537624430852
 10
116.8321451530836
 20
-140.8537624430852
 10
116.8321451530836
 20
-140.8537624430852
 10
116.8428249490879
 20
-140.8537624430852
 10
116.8428249490879
 20
-140.8537624430852
 10
116.8428249490879
 20
-140.8537624430852
 10
117.3654459342003
 20
-140.8537624430852
 10
117.3654459342003
 20
-140.8537624430852
 10
117.3654459342003
 20
-140.8537624430852
 10
117.2703612988074
 20
-140.8093207113254
 10
117.2703612988074
 20
-140.8093207113254
 10
117.2975775531408
 20
-140.7712524062134
 10
117.354766138196
 20
-140.6908094266328
 10
117.3695800487826
 20
-140.6167398737
 10
117.3695800487826
 20
-140.6167398737
 10
117.5831759688681
 20
-140.6803018854028
 10
117.5831759688681
 20
-140.6803018854028
 10
117.5917887075812
 20
-140.682368942694
 10
117.6128037900412
 20
-140.692876483924
 10
117.6128037900412
 20
-140.7140638211583
 10
117.6128037900412
 20
-140.7521321262703
 10
117.5473469758215
 20
-140.7521321262703
 10
117.5283989506526
 20
-140.7521321262703
 10
117.5177191546483
 20
-140.7712524062134
 10
117.4942925053486
 20
-140.8113877686166
 10
117.4646646841755
 20
-140.851695385794
 10
117.864640270013
 20
-140.8453219591463
 10
117.8942680911861
 20
-140.8430826470809
 10
117.9704047014102
 20
-140.8368814752074
 10
117.9704047014102
 20
-140.8368814752074
 10
117.9704047014102
 20
-141.0187825168286
 10
117.9704047014102
 20
-141.0187825168286
 10
117.9514566762413
 20
-141.0187825168286
 10
117.9259629696504
 20
-141.0165432047632
 10
117.7061658776915
 20
-141.0081027208244
 10
117.6551784645098
 20
-141.0060356635332
 10
117.4353813725508
 20
-141.0019015489509
 10
117.3909396407911
 20
-141.0019015489509
 10
117.3909396407911
 20
-141.0019015489509
 10
117.174932153866
 20
-141.0019015489509
 10
117.174932153866
 20
-141.0019015489509
 10
117.174932153866
 20
-141.0019015489509
 10
117.174932153866
 20
-141.1202405788692
 10
117.174932153866
 20
-141.1202405788692
 10
117.174932153866
 20
-141.1202405788692
 10
117.3485649663225
 20
-141.1202405788692
 10
117.3485649663225
 20
-141.1202405788692
 10
117.5115179827749
 20
-141.1202405788692
 10
117.7016872535607
 20
-141.1202405788692
 10
117.8584390981395
 20
-141.1097330376392
 10
117.8584390981395
 20
-141.1097330376392
 10
117.8584390981395
 20
-141.2811265380304
 10
117.8584390981395
 20
-141.2811265380304
 10
117.6489772926363
 20
-141.2726860540916
 10
117.4522623404286
 20
-141.2704467420261
 10
117.3485649663225
 20
-141.2704467420261
 10
117.3485649663225
 20
-141.2704467420261
 10
117.174932153866
 20
-141.2704467420261
 10
117.174932153866
 20
-141.2704467420261
 10
117.174932153866
 20
-141.2704467420261
 10
117.174932153866
 20
-141.3784504854887
 10
117.174932153866
 20
-141.3784504854887
 10
117.174932153866
 20
-141.3784504854887
 10
117.4057535513777
 20
-141.3784504854887
 10
117.4057535513777
 20
-141.3784504854887
 10
117.5387342371083
 20
-141.3784504854887
 10
117.8267442196752
 20
-141.3741441161321
 10
118.0358615156299
 20
-141.3677706894844
 10
118.0358615156299
 20
-141.3677706894844
 10
118.0358615156299
 20
-141.5455376165233
 10
118.0358615156299
 20
-141.5455376165233
 10
117.843625187553
 20
-141.5391641898756
 10
117.5304660079437
 20
-141.5348578205191
 10
117.4057535513777
 20
-141.5348578205191
 97
        0
 97
        1
330
107
 75
     2
 76
     1
 98
        1
 10
0.0
 20
0.0
450
        0
451
        0
460
0.0
461
0.0
452
        0
462
0.0
453
        0
470

  0
SPLINE
  5
109
330
FC
100
AcDbEntity
  8
レイヤー 1
100
AcDbSpline
210
0.0
220
0.0
230
1.0
 70
     9
 71
     3
 72
    29
 73
    25
 74
     0
 42
0.0000000001
 43
0.0000000001
 40
0.0
 40
0.0
 40
0.0
 40
0.0
 40
1.0
 40
1.0
 40
1.0
 40
2.0
 40
2.0
 40
2.0
 40
3.0
 40
3.0
 40
3.0
 40
4.0
 40
4.0
 40
4.0
 40
5.0
 40
5.0
 40
5.0
 40
6.0
 40
6.0
 40
6.0
 40
7.0
 40
7.0
 40
7.0
 40
8.0
 40
8.0
 40
8.0
 40
8.0
 10
119.2809190239992
 20
-140.9827812690078
 30
0.0
 10
119.2809190239992
 20
-140.9827812690078
 30
0.0
 10
118.9274522272126
 20
-140.9827812690078
 30
0.0
 10
118.9274522272126
 20
-140.9827812690078
 30
0.0
 10
118.8154866239419
 20
-140.9827812690078
 30
0.0
 10
118.6759602567893
 20
-140.9891546956555
 30
0.0
 10
118.568128768101
 20
-141.0019015489509
 30
0.0
 10
118.568128768101
 20
-141.0019015489509
 30
0.0
 10
118.568128768101
 20
-140.7669460368569
 30
0.0
 10
118.568128768101
 20
-140.7669460368569
 30
0.0
 10
118.6862955432451
 20
-140.7817599474434
 30
0.0
 10
118.8706081517059
 20
-140.7860663168
 30
0.0
 10
118.9274522272126
 20
-140.7860663168
 30
0.0
 10
118.9274522272126
 20
-140.7860663168
 30
0.0
 10
119.2809190239992
 20
-140.7860663168
 30
0.0
 10
119.2809190239992
 20
-140.7860663168
 30
0.0
 10
119.2998670491681
 20
-140.7860663168
 30
0.0
 10
119.5031276827978
 20
-140.7860663168
 30
0.0
 10
119.6447211072416
 20
-140.7669460368569
 30
0.0
 10
119.6447211072416
 20
-140.7669460368569
 30
0.0
 10
119.6447211072416
 20
-141.0019015489509
 30
0.0
 10
119.6447211072416
 20
-141.0019015489509
 30
0.0
 10
119.4883137722112
 20
-140.9827812690078
 30
0.0
 10
119.2977999918769
 20
-140.9827812690078
 30
0.0
 10
119.2809190239992
 20
-140.9827812690078
 30
0.0
  0
SPLINE
  5
10A
330
FC
100
AcDbEntity
  8
レイヤー 1
100
AcDbSpline
210
0.0
220
0.0
230
1.0
 70
     9
 71
     3
 72
    47
 73
    43
 74
     0
 42
0.0000000001
 43
0.0000000001
 40
0.0
 40
0.0
 40
0.0
 40
0.0
 40
1.0
 40
1.0
 40
1.0
 40
2.0
 40
2.0
 40
2.0
 40
3.0
 40
3.0
 40
3.0
 40
4.0
 40
4.0
 40
4.0
 40
5.0
 40
5.0
 40
5.0
 40
6.0
 40
6.0
 40
6.0
 40
7.0
 40
7.0
 40
7.0
 40
8.0
 40
8.0
 40
8.0
 40
9.0
 40
9.0
 40
9.0
 40
10.0
 40
10.0
 40
10.0
 40
11.0
 40
11.0
 40
11.0
 40
12.0
 40
12.0
 40
12.0
 40
13.0
 40
13.0
 40
13.0
 40
14.0
 40
14.0
 40
14.0
 40
14.0
 10
119.3825493408141
 20
-141.5116034259936
 30
0.0
 10
119.3825493408141
 20
-141.5116034259936
 30
0.0
 10
119.2809190239992
 20
-141.5116034259936
 30
0.0
 10
119.2809190239992
 20
-141.5116034259936
 30
0.0
 10
119.2809190239992
 20
-141.5984198322219
 30
0.0
 10
119.2599039415392
 20
-141.9877156220551
 30
0.0
 10
119.0631889893314
 20
-142.2076849687883
 30
0.0
 10
118.9105712593348
 20
-142.3768391571141
 30
0.0
 10
118.7035210206713
 20
-142.4467745954647
 30
0.0
 10
118.6187716717342
 20
-142.4741631045724
 30
0.0
 10
118.6187716717342
 20
-142.4741631045724
 30
0.0
 10
118.4241237768176
 20
-142.3070759735378
 30
0.0
 10
118.4241237768176
 20
-142.3070759735378
 30
0.0
 10
118.5216199790501
 20
-142.2943291202424
 30
0.0
 10
118.6969753392494
 20
-142.271074725717
 30
0.0
 10
118.8854220622925
 20
-142.0828002574481
 30
0.0
 10
118.9594916152254
 20
-142.0109700165806
 30
0.0
 10
119.0631889893314
 20
-141.8712713946537
 30
0.0
 10
119.0631889893314
 20
-141.5116034259936
 30
0.0
 10
119.0631889893314
 20
-141.5116034259936
 30
0.0
 10
118.8323675918197
 20
-141.5116034259936
 30
0.0
 10
118.8323675918197
 20
-141.5116034259936
 30
0.0
 10
118.6463324356162
 20
-141.5116034259936
 30
0.0
 10
118.4599527698642
 20
-141.5159097953502
 30
0.0
 10
118.2739176136607
 20
-141.5307237059368
 30
0.0
 10
118.2739176136607
 20
-141.5307237059368
 30
0.0
 10
118.2739176136607
 20
-141.3107543592035
 30
0.0
 10
118.2739176136607
 20
-141.3107543592035
 30
0.0
 10
118.4623643367038
 20
-141.3255682697901
 30
0.0
 10
118.747962752431
 20
-141.3297023843724
 30
0.0
 10
118.8323675918197
 20
-141.3297023843724
 30
0.0
 10
118.8323675918197
 20
-141.3297023843724
 30
0.0
 10
119.3825493408141
 20
-141.3297023843724
 30
0.0
 10
119.3825493408141
 20
-141.3297023843724
 30
0.0
 10
119.4014973659829
 20
-141.3297023843724
 30
0.0
 10
119.7187906601745
 20
-141.3297023843724
 30
0.0
 10
119.9472004908465
 20
-141.3107543592035
 30
0.0
 10
119.9472004908465
 20
-141.3107543592035
 30
0.0
 10
119.9472004908465
 20
-141.5307237059368
 30
0.0
 10
119.9472004908465
 20
-141.5307237059368
 30
0.0
 10
119.7590982773519
 20
-141.5159097953502
 30
0.0
 10
119.5706515543087
 20
-141.5116034259936
 30
0.0
 10
119.3825493408141
 20
-141.5116034259936
 30
0.0
  0
HATCH
  5
10B
330
FC
100
AcDbEntity
  8
レイヤー 1
 62
   250
420
  2299925
440
 33554687
100
AcDbHatch
 10
0.0
 20
0.0
 30
0.0
210
0.0
220
0.0
230
1.0
  2
SOLID
 70
     1
 71
     1
 91
        2
 92
        1
 93
        1
 72
     4
 94
        3
 73
     0
 74
     0
 95
       29
 96
       25
 40
0.0
 40
0.0
 40
0.0
 40
0.0
 40
1.0
 40
1.0
 40
1.0
 40
2.0
 40
2.0
 40
2.0
 40
3.0
 40
3.0
 40
3.0
 40
4.0
 40
4.0
 40
4.0
 40
5.0
 40
5.0
 40
5.0
 40
6.0
 40
6.0
 40
6.0
 40
7.0
 40
7.0
 40
7.0
 40
8.0
 40
8.0
 40
8.0
 40
8.0
 10
119.2809190239992
 20
-140.9827812690078
 10
119.2809190239992
 20
-140.9827812690078
 10
118.9274522272126
 20
-140.9827812690078
 10
118.9274522272126
 20
-140.9827812690078
 10
118.8154866239419
 20
-140.9827812690078
 10
118.6759602567893
 20
-140.9891546956555
 10
118.568128768101
 20
-141.0019015489509
 10
118.568128768101
 20
-141.0019015489509
 10
118.568128768101
 20
-140.7669460368569
 10
118.568128768101
 20
-140.7669460368569
 10
118.6862955432451
 20
-140.7817599474434
 10
118.8706081517059
 20
-140.7860663168
 10
118.9274522272126
 20
-140.7860663168
 10
118.9274522272126
 20
-140.7860663168
 10
119.2809190239992
 20
-140.7860663168
 10
119.2809190239992
 20
-140.7860663168
 10
119.2998670491681
 20
-140.7860663168
 10
119.5031276827978
 20
-140.7860663168
 10
119.6447211072416
 20
-140.7669460368569
 10
119.6447211072416
 20
-140.7669460368569
 10
119.6447211072416
 20
-141.0019015489509
 10
119.6447211072416
 20
-141.0019015489509
 10
119.4883137722112
 20
-140.9827812690078
 10
119.2977999918769
 20
-140.9827812690078
 10
119.2809190239992
 20
-140.9827812690078
 97
        0
 97
        1
330
109
 92
        1
 93
        1
 72
     4
 94
        3
 73
     0
 74
     0
 95
       47
 96
       43
 40
0.0
 40
0.0
 40
0.0
 40
0.0
 40
1.0
 40
1.0
 40
1.0
 40
2.0
 40
2.0
 40
2.0
 40
3.0
 40
3.0
 40
3.0
 40
4.0
 40
4.0
 40
4.0
 40
5.0
 40
5.0
 40
5.0
 40
6.0
 40
6.0
 40
6.0
 40
7.0
 40
7.0
 40
7.0
 40
8.0
 40
8.0
 40
8.0
 40
9.0
 40
9.0
 40
9.0
 40
10.0
 40
10.0
 40
10.0
 40
11.0
 40
11.0
 40
11.0
 40
12.0
 40
12.0
 40
12.0
 40
13.0
 40
13.0
 40
13.0
 40
14.0
 40
14.0
 40
14.0
 40
14.0
 10
119.3825493408141
 20
-141.5116034259936
 10
119.3825493408141
 20
-141.5116034259936
 10
119.2809190239992
 20
-141.5116034259936
 10
119.2809190239992
 20
-141.5116034259936
 10
119.2809190239992
 20
-141.5984198322219
 10
119.2599039415392
 20
-141.9877156220551
 10
119.0631889893314
 20
-142.2076849687883
 10
118.9105712593348
 20
-142.3768391571141
 10
118.7035210206713
 20
-142.4467745954647
 10
118.6187716717342
 20
-142.4741631045724
 10
118.6187716717342
 20
-142.4741631045724
 10
118.4241237768176
 20
-142.3070759735378
 10
118.4241237768176
 20
-142.3070759735378
 10
118.5216199790501
 20
-142.2943291202424
 10
118.6969753392494
 20
-142.271074725717
 10
118.8854220622925
 20
-142.0828002574481
 10
118.9594916152254
 20
-142.0109700165806
 10
119.0631889893314
 20
-141.8712713946537
 10
119.0631889893314
 20
-141.5116034259936
 10
119.0631889893314
 20
-141.5116034259936
 10
118.8323675918197
 20
-141.5116034259936
 10
118.8323675918197
 20
-141.5116034259936
 10
118.6463324356162
 20
-141.5116034259936
 10
118.4599527698642
 20
-141.5159097953502
 10
118.2739176136607
 20
-141.5307237059368
 10
118.2739176136607
 20
-141.5307237059368
 10
118.2739176136607
 20
-141.3107543592035
 10
118.2739176136607
 20
-141.3107543592035
 10
118.4623643367038
 20
-141.3255682697901
 10
118.747962752431
 20
-141.3297023843724
 10
118.8323675918197
 20
-141.3297023843724
 10
118.8323675918197
 20
-141.3297023843724
 10
119.3825493408141
 20
-141.3297023843724
 10
119.3825493408141
 20
-141.3297023843724
 10
119.4014973659829
 20
-141.3297023843724
 10
119.7187906601745
 20
-141.3297023843724
 10
119.9472004908465
 20
-141.3107543592035
 10
119.9472004908465
 20
-141.3107543592035
 10
119.9472004908465
 20
-141.5307237059368
 10
119.9472004908465
 20
-141.5307237059368
 10
119.7590982773519
 20
-141.5159097953502
 10
119.5706515543087
 20
-141.5116034259936
 10
119.3825493408141
 20
-141.5116034259936
 97
        0
 97
        1
330
10A
 75
     2
 76
     1
 98
        1
 10
0.0
 20
0.0
450
        0
451
        0
460
0.0
461
0.0
452
        0
462
0.0
453
        0
470

  0
SPLINE
  5
10C
330
FC
100
AcDbEntity
  8
レイヤー 1
100
AcDbSpline
210
0.0
220
0.0
230
1.0
 70
     9
 71
     3
 72
    29
 73
    25
 74
     0
 42
0.0000000001
 43
0.0000000001
 40
0.0
 40
0.0
 40
0.0
 40
0.0
 40
1.0
 40
1.0
 40
1.0
 40
2.0
 40
2.0
 40
2.0
 40
3.0
 40
3.0
 40
3.0
 40
4.0
 40
4.0
 40
4.0
 40
5.0
 40
5.0
 40
5.0
 40
6.0
 40
6.0
 40
6.0
 40
7.0
 40
7.0
 40
7.0
 40
8.0
 40
8.0
 40
8.0
 40
8.0
 10
121.2284315018109
 20
-141.6745564424459
 30
0.0
 10
121.2284315018109
 20
-141.6745564424459
 30
0.0
 10
120.7440510765848
 20
-141.6745564424459
 30
0.0
 10
120.7440510765848
 20
-141.6745564424459
 30
0.0
 10
120.7164903127028
 20
-141.6745564424459
 30
0.0
 10
120.3991970185113
 20
-141.6745564424459
 30
0.0
 10
120.1876681557169
 20
-141.6998778942625
 30
0.0
 10
120.1876681557169
 20
-141.6998778942625
 30
0.0
 10
120.1876681557169
 20
-141.4694010062993
 30
0.0
 10
120.1876681557169
 20
-141.4694010062993
 30
0.0
 10
120.3461425480385
 20
-141.4926554008247
 30
0.0
 10
120.5366563283728
 20
-141.4947224581159
 30
0.0
 10
120.7440510765848
 20
-141.4947224581159
 30
0.0
 10
120.7440510765848
 20
-141.4947224581159
 30
0.0
 10
121.2284315018109
 20
-141.4947224581159
 30
0.0
 10
121.2284315018109
 20
-141.4947224581159
 30
0.0
 10
121.4144666580144
 20
-141.4947224581159
 30
0.0
 10
121.6008463237664
 20
-141.4926554008247
 30
0.0
 10
121.7848144226788
 20
-141.4694010062993
 30
0.0
 10
121.7848144226788
 20
-141.4694010062993
 30
0.0
 10
121.7848144226788
 20
-141.6998778942625
 30
0.0
 10
121.7848144226788
 20
-141.6998778942625
 30
0.0
 10
121.6008463237664
 20
-141.6766234997371
 30
0.0
 10
121.353143958377
 20
-141.6745564424459
 30
0.0
 10
121.2284315018109
 20
-141.6745564424459
 30
0.0
  0
HATCH
  5
10D
330
FC
100
AcDbEntity
  8
レイヤー 1
 62
   250
420
  2299925
440
 33554687
100
AcDbHatch
 10
0.0
 20
0.0
 30
0.0
210
0.0
220
0.0
230
1.0
  2
SOLID
 70
     1
 71
     1
 91
        1
 92
        1
 93
        1
 72
     4
 94
        3
 73
     0
 74
     0
 95
       29
 96
       25
 40
0.0
 40
0.0
 40
0.0
 40
0.0
 40
1.0
 40
1.0
 40
1.0
 40
2.0
 40
2.0
 40
2.0
 40
3.0
 40
3.0
 40
3.0
 40
4.0
 40
4.0
 40
4.0
 40
5.0
 40
5.0
 40
5.0
 40
6.0
 40
6.0
 40
6.0
 40
7.0
 40
7.0
 40
7.0
 40
8.0
 40
8.0
 40
8.0
 40
8.0
 10
121.2284315018109
 20
-141.6745564424459
 10
121.2284315018109
 20
-141.6745564424459
 10
120.7440510765848
 20
-141.6745564424459
 10
120.7440510765848
 20
-141.6745564424459
 10
120.7164903127028
 20
-141.6745564424459
 10
120.3991970185113
 20
-141.6745564424459
 10
120.1876681557169
 20
-141.6998778942625
 10
120.1876681557169
 20
-141.6998778942625
 10
120.1876681557169
 20
-141.4694010062993
 10
120.1876681557169
 20
-141.4694010062993
 10
120.3461425480385
 20
-141.4926554008247
 10
120.5366563283728
 20
-141.4947224581159
 10
120.7440510765848
 20
-141.4947224581159
 10
120.7440510765848
 20
-141.4947224581159
 10
121.2284315018109
 20
-141.4947224581159
 10
121.2284315018109
 20
-141.4947224581159
 10
121.4144666580144
 20
-141.4947224581159
 10
121.6008463237664
 20
-141.4926554008247
 10
121.7848144226788
 20
-141.4694010062993
 10
121.7848144226788
 20
-141.4694010062993
 10
121.7848144226788
 20
-141.6998778942625
 10
121.7848144226788
 20
-141.6998778942625
 10
121.6008463237664
 20
-141.6766234997371
 10
121.353143958377
 20
-141.6745564424459
 10
121.2284315018109
 20
-141.6745564424459
 97
        0
 97
        1
330
10C
 75
     2
 76
     1
 98
        1
 10
0.0
 20
0.0
450
        0
451
        0
460
0.0
461
0.0
452
        0
462
0.0
453
        0
470

  0
SPLINE
  5
10E
330
FC
100
AcDbEntity
  8
レイヤー 1
100
AcDbSpline
210
0.0
220
0.0
230
1.0
 70
     9
 71
     3
 72
    17
 73
    13
 74
     0
 42
0.0000000001
 43
0.0000000001
 40
0.0
 40
0.0
 40
0.0
 40
0.0
 40
1.0
 40
1.0
 40
1.0
 40
2.0
 40
2.0
 40
2.0
 40
3.0
 40
3.0
 40
3.0
 40
4.0
 40
4.0
 40
4.0
 40
4.0
 10
123.6472330420048
 20
-140.7076903945106
 30
0.0
 10
123.5924560237894
 20
-140.7076903945106
 30
0.0
 10
123.5480142920296
 20
-140.7521321262703
 30
0.0
 10
123.5480142920296
 20
-140.8072536540343
 30
0.0
 10
123.5480142920296
 20
-140.8642699843152
 30
0.0
 10
123.5924560237894
 20
-140.9130180854315
 30
0.0
 10
123.6513671565871
 20
-140.9130180854315
 30
0.0
 10
123.7106227989334
 20
-140.9130180854315
 30
0.0
 10
123.7509304161109
 20
-140.862202927024
 30
0.0
 10
123.7509304161109
 20
-140.8093207113254
 30
0.0
 10
123.7509304161109
 20
-140.7521321262703
 30
0.0
 10
123.70442162706
 20
-140.7076903945106
 30
0.0
 10
123.6472330420048
 20
-140.7076903945106
 30
0.0
  0
SPLINE
  5
10F
330
FC
100
AcDbEntity
  8
レイヤー 1
100
AcDbSpline
210
0.0
220
0.0
230
1.0
 70
     9
 71
     3
 72
    17
 73
    13
 74
     0
 42
0.0000000001
 43
0.0000000001
 40
0.0
 40
0.0
 40
0.0
 40
0.0
 40
1.0
 40
1.0
 40
1.0
 40
2.0
 40
2.0
 40
2.0
 40
3.0
 40
3.0
 40
3.0
 40
4.0
 40
4.0
 40
4.0
 40
4.0
 10
123.649300099296
 20
-141.0377305419975
 30
0.0
 10
123.5225205854388
 20
-141.0377305419975
 30
0.0
 10
123.4208902686239
 20
-140.9362724799569
 30
0.0
 10
123.4208902686239
 20
-140.8093207113254
 30
0.0
 10
123.4208902686239
 20
-140.682368942694
 30
0.0
 10
123.5225205854388
 20
-140.5786715685879
 30
0.0
 10
123.649300099296
 20
-140.5786715685879
 30
0.0
 10
123.7764241227017
 20
-140.5786715685879
 30
0.0
 10
123.8801214968077
 20
-140.682368942694
 30
0.0
 10
123.8801214968077
 20
-140.8093207113254
 30
0.0
 10
123.8801214968077
 20
-140.9362724799569
 30
0.0
 10
123.7764241227017
 20
-141.0377305419975
 30
0.0
 10
123.649300099296
 20
-141.0377305419975
 30
0.0
  0
SPLINE
  5
110
330
FC
100
AcDbEntity
  8
レイヤー 1
100
AcDbSpline
210
0.0
220
0.0
230
1.0
 70
     9
 71
     3
 72
    44
 73
    40
 74
     0
 42
0.0000000001
 43
0.0000000001
 40
0.0
 40
0.0
 40
0.0
 40
0.0
 40
1.0
 40
1.0
 40
1.0
 40
2.0
 40
2.0
 40
2.0
 40
3.0
 40
3.0
 40
3.0
 40
4.0
 40
4.0
 40
4.0
 40
5.0
 40
5.0
 40
5.0
 40
6.0
 40
6.0
 40
6.0
 40
7.0
 40
7.0
 40
7.0
 40
8.0
 40
8.0
 40
8.0
 40
9.0
 40
9.0
 40
9.0
 40
10.0
 40
10.0
 40
10.0
 40
11.0
 40
11.0
 40
11.0
 40
12.0
 40
12.0
 40
12.0
 40
13.0
 40
13.0
 40
13.0
 40
13.0
 10
123.4398382937928
 20
-141.2366848062707
 30
0.0
 10
123.3278726905222
 20
-141.6047932588696
 30
0.0
 10
123.277229786889
 20
-141.7634399059654
 30
0.0
 10
123.0805148346812
 20
-142.0130370738717
 30
0.0
 10
122.8962022262204
 20
-142.2436862166092
 30
0.0
 10
122.6595241663837
 20
-142.4297213728127
 30
0.0
 10
122.3801269225299
 20
-142.5229112056887
 30
0.0
 10
122.3801269225299
 20
-142.5229112056887
 30
0.0
 10
122.1875460849045
 20
-142.3430772213587
 30
0.0
 10
122.1875460849045
 20
-142.3430772213587
 30
0.0
 10
122.8286783547095
 20
-142.1908040009106
 30
0.0
 10
123.1587185021964
 20
-141.6344210800428
 30
0.0
 10
123.222108259125
 20
-141.1943101318021
 30
0.0
 10
123.222108259125
 20
-141.1943101318021
 30
0.0
 10
122.456263532754
 20
-141.1943101318021
 30
0.0
 10
122.456263532754
 20
-141.1943101318021
 30
0.0
 10
122.3632459546522
 20
-141.1943101318021
 30
0.0
 10
122.1792778557399
 20
-141.1986165011587
 30
0.0
 10
122.022526011161
 20
-141.2175645263275
 30
0.0
 10
122.022526011161
 20
-141.2175645263275
 30
0.0
 10
122.022526011161
 20
-140.9975951795943
 30
0.0
 10
122.022526011161
 20
-140.9975951795943
 30
0.0
 10
122.1093424173893
 20
-141.0187825168286
 30
0.0
 10
122.3611788973611
 20
-141.0187825168286
 30
0.0
 10
122.4603976473363
 20
-141.0187825168286
 30
0.0
 10
122.4603976473363
 20
-141.0187825168286
 30
0.0
 10
122.8920681116381
 20
-141.0187825168286
 30
0.0
 10
122.8920681116381
 20
-141.0187825168286
 30
0.0
 10
122.9344427861067
 20
-141.0187825168286
 30
0.0
 10
123.1690537886522
 20
-141.0165432047632
 30
0.0
 10
123.2072943485384
 20
-141.0103420328898
 30
0.0
 10
123.249669023007
 20
-141.003968606242
 30
0.0
 10
123.2517360802982
 20
-141.0019015489509
 30
0.0
 10
123.3130587799356
 20
-140.9615939317735
 30
0.0
 10
123.3130587799356
 20
-140.9615939317735
 30
0.0
 10
123.5011609934302
 20
-141.1161064642869
 30
0.0
 10
123.5011609934302
 20
-141.1161064642869
 30
0.0
 10
123.4718776818056
 20
-141.1457342854601
 30
0.0
 10
123.457063771219
 20
-141.1774291639244
 30
0.0
 10
123.4398382937928
 20
-141.2366848062707
 30
0.0
  0
HATCH
  5
111
330
FC
100
AcDbEntity
  8
レイヤー 1
 62
   250
420
  2299925
440
 33554687
100
AcDbHatch
 10
0.0
 20
0.0
 30
0.0
210
0.0
220
0.0
230
1.0
  2
SOLID
 70
     1
 71
     1
 91
        3
 92
        1
 93
        1
 72
     4
 94
        3
 73
     0
 74
     0
 95
       17
 96
       13
 40
0.0
 40
0.0
 40
0.0
 40
0.0
 40
1.0
 40
1.0
 40
1.0
 40
2.0
 40
2.0
 40
2.0
 40
3.0
 40
3.0
 40
3.0
 40
4.0
 40
4.0
 40
4.0
 40
4.0
 10
123.6472330420048
 20
-140.7076903945106
 10
123.5924560237894
 20
-140.7076903945106
 10
123.5480142920296
 20
-140.7521321262703
 10
123.5480142920296
 20
-140.8072536540343
 10
123.5480142920296
 20
-140.8642699843152
 10
123.5924560237894
 20
-140.9130180854315
 10
123.6513671565871
 20
-140.9130180854315
 10
123.7106227989334
 20
-140.9130180854315
 10
123.7509304161109
 20
-140.862202927024
 10
123.7509304161109
 20
-140.8093207113254
 10
123.7509304161109
 20
-140.7521321262703
 10
123.70442162706
 20
-140.7076903945106
 10
123.6472330420048
 20
-140.7076903945106
 97
        0
 97
        1
330
10E
 92
        1
 93
        1
 72
     4
 94
        3
 73
     0
 74
     0
 95
       17
 96
       13
 40
0.0
 40
0.0
 40
0.0
 40
0.0
 40
1.0
 40
1.0
 40
1.0
 40
2.0
 40
2.0
 40
2.0
 40
3.0
 40
3.0
 40
3.0
 40
4.0
 40
4.0
 40
4.0
 40
4.0
 10
123.649300099296
 20
-141.0377305419975
 10
123.5225205854388
 20
-141.0377305419975
 10
123.4208902686239
 20
-140.9362724799569
 10
123.4208902686239
 20
-140.8093207113254
 10
123.4208902686239
 20
-140.682368942694
 10
123.5225205854388
 20
-140.5786715685879
 10
123.649300099296
 20
-140.5786715685879
 10
123.7764241227017
 20
-140.5786715685879
 10
123.8801214968077
 20
-140.682368942694
 10
123.8801214968077
 20
-140.8093207113254
 10
123.8801214968077
 20
-140.9362724799569
 10
123.7764241227017
 20
-141.0377305419975
 10
123.649300099296
 20
-141.0377305419975
 97
        0
 97
        1
330
10F
 92
        1
 93
        1
 72
     4
 94
        3
 73
     0
 74
     0
 95
       44
 96
       40
 40
0.0
 40
0.0
 40
0.0
 40
0.0
 40
1.0
 40
1.0
 40
1.0
 40
2.0
 40
2.0
 40
2.0
 40
3.0
 40
3.0
 40
3.0
 40
4.0
 40
4.0
 40
4.0
 40
5.0
 40
5.0
 40
5.0
 40
6.0
 40
6.0
 40
6.0
 40
7.0
 40
7.0
 40
7.0
 40
8.0
 40
8.0
 40
8.0
 40
9.0
 40
9.0
 40
9.0
 40
10.0
 40
10.0
 40
10.0
 40
11.0
 40
11.0
 40
11.0
 40
12.0
 40
12.0
 40
12.0
 40
13.0
 40
13.0
 40
13.0
 40
13.0
 10
123.4398382937928
 20
-141.2366848062707
 10
123.3278726905222
 20
-141.6047932588696
 10
123.277229786889
 20
-141.7634399059654
 10
123.0805148346812
 20
-142.0130370738717
 10
122.8962022262204
 20
-142.2436862166092
 10
122.6595241663837
 20
-142.4297213728127
 10
122.3801269225299
 20
-142.5229112056887
 10
122.3801269225299
 20
-142.5229112056887
 10
122.1875460849045
 20
-142.3430772213587
 10
122.1875460849045
 20
-142.3430772213587
 10
122.8286783547095
 20
-142.1908040009106
 10
123.1587185021964
 20
-141.6344210800428
 10
123.222108259125
 20
-141.1943101318021
 10
123.222108259125
 20
-141.1943101318021
 10
122.456263532754
 20
-141.1943101318021
 10
122.456263532754
 20
-141.1943101318021
 10
122.3632459546522
 20
-141.1943101318021
 10
122.1792778557399
 20
-141.1986165011587
 10
122.022526011161
 20
-141.2175645263275
 10
122.022526011161
 20
-141.2175645263275
 10
122.022526011161
 20
-140.9975951795943
 10
122.022526011161
 20
-140.9975951795943
 10
122.1093424173893
 20
-141.0187825168286
 10
122.3611788973611
 20
-141.0187825168286
 10
122.4603976473363
 20
-141.0187825168286
 10
122.4603976473363
 20
-141.0187825168286
 10
122.8920681116381
 20
-141.0187825168286
 10
122.8920681116381
 20
-141.0187825168286
 10
122.9344427861067
 20
-141.0187825168286
 10
123.1690537886522
 20
-141.0165432047632
 10
123.2072943485384
 20
-141.0103420328898
 10
123.249669023007
 20
-141.003968606242
 10
123.2517360802982
 20
-141.0019015489509
 10
123.3130587799356
 20
-140.9615939317735
 10
123.3130587799356
 20
-140.9615939317735
 10
123.5011609934302
 20
-141.1161064642869
 10
123.5011609934302
 20
-141.1161064642869
 10
123.4718776818056
 20
-141.1457342854601
 10
123.457063771219
 20
-141.1774291639244
 10
123.4398382937928
 20
-141.2366848062707
 97
        0
 97
        1
330
110
 75
     2
 76
     1
 98
        1
 10
0.0
 20
0.0
450
        0
451
        0
460
0.0
461
0.0
452
        0
462
0.0
453
        0
470

  0
ENDBLK
  5
FF
330
FC
100
AcDbEntity
  8
0
100
AcDbBlockEnd
  0
ENDSEC
  0
SECTION
  2
ENTITIES
  0
LINE
  5
79
330
70
100
AcDbEntity
  8
レイヤー 1
 62
   250
420
  2299925
370
     9
100
AcDbLine
 10
130.4719990725676
 20
-143.3990548095583
 30
0.0
 11
130.4558082861272
 21
-163.3103259682461
 31
0.0
  0
LINE
  5
7A
330
70
100
AcDbEntity
  8
レイヤー 1
 62
   250
420
  2299925
370
     9
100
AcDbLine
 10
85.32537051963215
 20
-134.5851492010864
 30
0.0
 11
125.3253610651877
 21
-134.5851492010864
 31
0.0
  0
LINE
  5
7B
330
70
100
AcDbEntity
  8
レイヤー 1
 62
   250
420
  2299925
370
     9
100
AcDbLine
 10
85.19307885299856
 20
-167.4134489191223
 30
0.0
 11
95.08535579497005
 21
-167.4134489191223
 31
0.0
  0
INSERT
  5
7D
330
70
100
AcDbEntity
  8
レイヤー 1
100
AcDbBlockReference
  2
Block_0
 10
0.0
 20
0.0
 30
0.0
  0
INSERT
  5
8B
330
70
100
AcDbEntity
  8
レイヤー 1
100
AcDbBlockReference
  2
Block_2
 10
0.0
 20
0.0
 30
0.0
  0
LWPOLYLINE
  5
97
330
70
100
AcDbEntity
  8
レイヤー 1
 62
   250
420
  2299925
370
    25
100
AcDbPolyline
 90
       12
 70
     1
 43
0.0
 10
85.19307885299856
 20
-138.280355217925
 10
88.25783579667682
 20
-138.280355217925
 10
88.25783579667682
 20
-139.2504940820636
 10
86.2514121860673
 20
-141.1246259786949
 10
86.2514121860673
 20
-145.5632758654555
 10
125.3987388429467
 20
-145.5632758654555
 10
125.3987388429467
 20
-146.5623425066339
 10
86.2514121860673
 20
-146.5623425066339
 10
86.2514121860673
 20
-159.3767480130445
 10
95.07085662830688
 20
-159.3767480130445
 10
95.05466412831092
 20
-162.2864590499227
 10
85.17688635300258
 20
-162.2864590499227
  0
LWPOLYLINE
  5
98
330
70
100
AcDbEntity
  8
レイヤー 1
 62
   250
420
  2299925
370
    25
100
AcDbPolyline
 90
        3
 70
     0
 43
0.0
 10
85.19307885299856
 20
-138.280355217925
 10
86.24971885273451
 20
-139.2615007484494
 10
86.2514121860673
 20
-141.1246259786949
  0
LWPOLYLINE
  5
99
330
70
100
AcDbEntity
  8
レイヤー 1
 62
   250
420
  2299925
370
    25
100
AcDbPolyline
 90
        3
 70
     0
 43
0.0
 10
86.2514121860673
 20
-159.3767480130445
 10
86.2514121860673
 20
-161.2866868532068
 10
85.17688635300258
 20
-162.2864590499227
  0
SPLINE
  5
9A
330
70
100
AcDbEntity
  8
レイヤー 1
 62
   250
420
  2299925
370
     9
100
AcDbSpline
210
0.0
220
0.0
230
1.0
 70
     9
 71
     3
 72
    17
 73
    13
 74
     0
 42
0.0000000001
 43
0.0000000001
 40
0.0
 40
0.0
 40
0.0
 40
0.0
 40
1.0
 40
1.0
 40
1.0
 40
2.0
 40
2.0
 40
2.0
 40
3.0
 40
3.0
 40
3.0
 40
4.0
 40
4.0
 40
4.0
 40
4.0
 10
130.5725777305425
 20
-145.569484754186
 30
0.0
 10
130.5725777305425
 20
-145.5136704785004
 30
0.0
 10
130.5278085155876
 20
-145.4688677007337
 30
0.0
 10
130.4726693503283
 20
-145.4688677007337
 30
0.0
 10
130.4175654628452
 20
-145.4688677007337
 30
0.0
 10
130.3727626862104
 20
-145.5136704785004
 30
0.0
 10
130.3727626862104
 20
-145.569484754186
 30
0.0
 10
130.3727626862104
 20
-145.6245886416694
 30
0.0
 10
130.4175654628452
 20
-145.6693914183038
 30
0.0
 10
130.4726693503283
 20
-145.6693914183038
 30
0.0
 10
130.5278085155876
 20
-145.6693914183038
 30
0.0
 10
130.5725777305425
 20
-145.6245886416694
 30
0.0
 10
130.5725777305425
 20
-145.569484754186
 30
0.0
  0
SPLINE
  5
9B
330
70
100
AcDbEntity
  8
レイヤー 1
 62
   250
420
  2299925
370
     9
100
AcDbSpline
210
0.0
220
0.0
230
1.0
 70
     9
 71
     3
 72
    17
 73
    13
 74
     0
 42
0.0000000001
 43
0.0000000001
 40
0.0
 40
0.0
 40
0.0
 40
0.0
 40
1.0
 40
1.0
 40
1.0
 40
2.0
 40
2.0
 40
2.0
 40
3.0
 40
3.0
 40
3.0
 40
4.0
 40
4.0
 40
4.0
 40
4.0
 10
130.5725777305425
 20
-146.5582150067392
 30
0.0
 10
130.5725777305425
 20
-146.5024055637185
 30
0.0
 10
130.5278085155876
 20
-146.457638064861
 30
0.0
 10
130.4726693503283
 20
-146.457638064861
 30
0.0
 10
130.4175654628452
 20
-146.457638064861
 30
0.0
 10
130.3727626862104
 20
-146.5024055637185
 30
0.0
 10
130.3727626862104
 20
-146.5582150067392
 30
0.0
 10
130.3727626862104
 20
-146.6133541719991
 30
0.0
 10
130.4175654628452
 20
-146.658121670857
 30
0.0
 10
130.4726693503283
 20
-146.658121670857
 30
0.0
 10
130.5278085155876
 20
-146.658121670857
 30
0.0
 10
130.5725777305425
 20
-146.6133541719991
 30
0.0
 10
130.5725777305425
 20
-146.5582150067392
 30
0.0
  0
SPLINE
  5
9C
330
70
100
AcDbEntity
  8
レイヤー 1
 62
   250
420
  2299925
370
     9
100
AcDbSpline
210
0.0
220
0.0
230
1.0
 70
     9
 71
     3
 72
    17
 73
    13
 74
     0
 42
0.0000000001
 43
0.0000000001
 40
0.0
 40
0.0
 40
0.0
 40
0.0
 40
1.0
 40
1.0
 40
1.0
 40
2.0
 40
2.0
 40
2.0
 40
3.0
 40
3.0
 40
3.0
 40
4.0
 40
4.0
 40
4.0
 40
4.0
 10
95.38352357267321
 20
-138.2865641066554
 30
0.0
 10
95.38352357267321
 20
-138.2314249413955
 30
0.0
 10
95.33872079490649
 20
-138.1866221647607
 30
0.0
 10
95.28361690603157
 20
-138.1866221647607
 30
0.0
 10
95.22847773937849
 20
-138.1866221647607
 30
0.0
 10
95.18371023938961
 20
-138.2314249413955
 30
0.0
 10
95.18371023938961
 20
-138.2865641066554
 30
0.0
 10
95.18371023938961
 20
-138.3416679941385
 30
0.0
 10
95.22847773937849
 20
-138.3864707707733
 30
0.0
 10
95.28361690603157
 20
-138.3864707707733
 30
0.0
 10
95.33872079490649
 20
-138.3864707707733
 30
0.0
 10
95.38352357267321
 20
-138.3416679941385
 30
0.0
 10
95.38352357267321
 20
-138.2865641066554
 30
0.0
  0
SPLINE
  5
9D
330
70
100
AcDbEntity
  8
レイヤー 1
 62
   250
420
  2299925
370
     9
100
AcDbSpline
210
0.0
220
0.0
230
1.0
 70
     9
 71
     3
 72
    17
 73
    13
 74
     0
 42
0.0000000001
 43
0.0000000001
 40
0.0
 40
0.0
 40
0.0
 40
0.0
 40
1.0
 40
1.0
 40
1.0
 40
2.0
 40
2.0
 40
2.0
 40
3.0
 40
3.0
 40
3.0
 40
4.0
 40
4.0
 40
4.0
 40
4.0
 10
95.38352357267321
 20
-141.2954762521139
 30
0.0
 10
95.38352357267321
 20
-141.2403723646308
 30
0.0
 10
95.33872079490649
 20
-141.1955695879961
 30
0.0
 10
95.28361690603157
 20
-141.1955695879961
 30
0.0
 10
95.22847773937849
 20
-141.1955695879961
 30
0.0
 10
95.18371023938961
 20
-141.2403723646308
 30
0.0
 10
95.18371023938961
 20
-141.2954762521139
 30
0.0
 10
95.18371023938961
 20
-141.3506154173739
 30
0.0
 10
95.22847773937849
 20
-141.3954181940086
 30
0.0
 10
95.28361690603157
 20
-141.3954181940086
 30
0.0
 10
95.33872079490649
 20
-141.3954181940086
 30
0.0
 10
95.38352357267321
 20
-141.3506154173739
 30
0.0
 10
95.38352357267321
 20
-141.2954762521139
 30
0.0
  0
LINE
  5
9E
330
70
100
AcDbEntity
  8
レイヤー 1
 62
   250
420
  2299925
370
     9
100
AcDbLine
 10
95.28361690603157
 20
-138.2865641066554
 30
0.0
 11
95.28361690603157
 21
-141.2865509745639
 31
0.0
  0
LINE
  5
9F
330
70
100
AcDbEntity
  8
レイヤー 1
 62
   250
420
  2299925
370
     9
100
AcDbLine
 10
90.75811301827409
 20
-138.2865641066554
 30
0.0
 11
96.3054377391094
 21
-138.2865641066554
 31
0.0
  0
LINE
  5
A0
330
70
100
AcDbEntity
  8
レイヤー 1
 62
   250
420
  2299925
370
     9
100
AcDbLine
 10
90.72435218494923
 20
-141.2885970856228
 30
0.0
 11
96.3054377391094
 21
-141.2885970856228
 31
0.0
  0
INSERT
  5
A2
330
70
100
AcDbEntity
  8
レイヤー 1
100
AcDbBlockReference
  2
Block_4
 10
0.0
 20
0.0
 30
0.0
  0
CIRCLE
  5
A7
330
70
100
AcDbEntity
  8
レイヤー 1
 62
   250
420
  2299925
370
     9
100
AcDbCircle
 10
130.4533724063761
 20
-159.3836271795356
 30
0.0
 40
0.0999066641178353
  0
SPLINE
  5
A8
330
70
100
AcDbEntity
  8
レイヤー 1
 62
   250
420
  2299925
370
     9
100
AcDbSpline
210
0.0
220
0.0
230
1.0
 70
     9
 71
     3
 72
    17
 73
    13
 74
     0
 42
0.0000000001
 43
0.0000000001
 40
0.0
 40
0.0
 40
0.0
 40
0.0
 40
1.0
 40
1.0
 40
1.0
 40
2.0
 40
2.0
 40
2.0
 40
3.0
 40
3.0
 40
3.0
 40
4.0
 40
4.0
 40
4.0
 40
4.0
 10
130.5374393486758
 20
-162.2816259944904
 30
0.0
 10
130.5374393486758
 20
-162.2265176965444
 30
0.0
 10
130.4926365720411
 20
-162.1817149187777
 30
0.0
 10
130.437532684558
 20
-162.1817149187777
 30
0.0
 10
130.3823935192987
 20
-162.1817149187777
 30
0.0
 10
130.3376277306008
 20
-162.2265176965444
 30
0.0
 10
130.3376277306008
 20
-162.2816259944904
 30
0.0
 10
130.3376277306008
 20
-162.3367651597504
 30
0.0
 10
130.3823935192987
 20
-162.3815326586083
 30
0.0
 10
130.437532684558
 20
-162.3815326586083
 30
0.0
 10
130.4926365720411
 20
-162.3815326586083
 30
0.0
 10
130.5374393486758
 20
-162.3367651597504
 30
0.0
 10
130.5374393486758
 20
-162.2816259944904
 30
0.0
  0
LINE
  5
A9
330
70
100
AcDbEntity
  8
レイヤー 1
 62
   250
420
  2299925
370
     9
100
AcDbLine
 10
97.56065634990676
 20
-159.3863788461321
 30
0.0
 11
131.4720887692754
 21
-159.3836271795356
 31
0.0
  0
LINE
  5
AA
330
70
100
AcDbEntity
  8
レイヤー 1
 62
   250
420
  2299925
370
     9
100
AcDbLine
 10
97.56065634990676
 20
-162.2761226612975
 30
0.0
 11
131.4572721029867
 21
-162.2754523835368
 31
0.0
  0
INSERT
  5
AC
330
70
100
AcDbEntity
  8
レイヤー 1
100
AcDbBlockReference
  2
Block_5
 10
0.0
 20
0.0
 30
0.0
  0
INSERT
  5
B2
330
70
100
AcDbEntity
  8
レイヤー 1
100
AcDbBlockReference
  2
Block_6
 10
0.0
 20
0.0
 30
0.0
  0
INSERT
  5
C4
330
70
100
AcDbEntity
  8
レイヤー 1
100
AcDbBlockReference
  2
Block_8
 10
0.0
 20
0.0
 30
0.0
  0
INSERT
  5
D1
330
70
100
AcDbEntity
  8
レイヤー 1
100
AcDbBlockReference
  2
Block_10
 10
0.0
 20
0.0
 30
0.0
  0
LINE
  5
D6
330
70
100
AcDbEntity
  8
レイヤー 1
 62
   250
420
  2299925
370
     9
100
AcDbLine
 10
127.9074458046621
 20
-145.5632758654555
 30
0.0
 11
131.3670332858996
 21
-145.5632758654555
 31
0.0
  0
LINE
  5
D7
330
70
100
AcDbEntity
  8
レイヤー 1
 62
   250
420
  2299925
370
     9
100
AcDbLine
 10
127.9074458046621
 20
-146.5595908400374
 30
0.0
 11
131.3670332858996
 21
-146.5595908400374
 31
0.0
  0
CIRCLE
  5
D8
330
70
100
AcDbEntity
  8
レイヤー 1
 62
   250
420
  2299925
370
     9
100
AcDbCircle
 10
85.33090913074184
 20
-134.5865250343846
 30
0.0
 40
0.0999066653797365
  0
SPLINE
  5
D9
330
70
100
AcDbEntity
  8
レイヤー 1
 62
   250
420
  2299925
370
     9
100
AcDbSpline
210
0.0
220
0.0
230
1.0
 70
     9
 71
     3
 72
    17
 73
    13
 74
     0
 42
0.0000000001
 43
0.0000000001
 40
0.0
 40
0.0
 40
0.0
 40
0.0
 40
1.0
 40
1.0
 40
1.0
 40
2.0
 40
2.0
 40
2.0
 40
3.0
 40
3.0
 40
3.0
 40
4.0
 40
4.0
 40
4.0
 40
4.0
 10
125.5058758659306
 20
-134.5906525342793
 30
0.0
 10
125.5058758659306
 20
-134.5348430912587
 30
0.0
 10
125.4611083670727
 20
-134.4900403146239
 30
0.0
 10
125.4059692018128
 20
-134.4900403146239
 30
0.0
 10
125.3508653143297
 20
-134.4900403146239
 30
0.0
 10
125.3060625376949
 20
-134.5348430912587
 30
0.0
 10
125.3060625376949
 20
-134.5906525342793
 30
0.0
 10
125.3060625376949
 20
-134.6457564217624
 30
0.0
 10
125.3508653143297
 20
-134.6905591983972
 30
0.0
 10
125.4059692018128
 20
-134.6905591983972
 30
0.0
 10
125.4611083670727
 20
-134.6905591983972
 30
0.0
 10
125.5058758659306
 20
-134.6457564217624
 30
0.0
 10
125.5058758659306
 20
-134.5906525342793
 30
0.0
  0
LINE
  5
DA
330
70
100
AcDbEntity
  8
レイヤー 1
 62
   250
420
  2299925
370
     9
100
AcDbLine
 10
85.32537051963215
 20
-133.6246411700355
 30
0.0
 11
85.32537051963215
 21
-135.7730225041146
 31
0.0
  0
LINE
  5
DB
330
70
100
AcDbEntity
  8
レイヤー 1
 62
   250
420
  2299925
370
     9
100
AcDbLine
 10
125.4097439239387
 20
-133.6246411700355
 30
0.0
 11
125.4097439239387
 21
-143.0214767636355
 31
0.0
  0
LINE
  5
DC
330
70
100
AcDbEntity
  8
レイヤー 1
 62
   250
420
  2299925
370
     9
100
AcDbLine
 10
81.46979163170698
 20
-138.2879399399537
 30
0.0
 11
81.48083357614886
 21
-162.2878348832209
 31
0.0
  0
LINE
  5
DD
330
70
100
AcDbEntity
  8
レイヤー 1
 62
   250
420
  2299925
370
     9
100
AcDbLine
 10
84.86270246419234
 20
-131.7064120523069
 30
0.0
 11
89.02988996315054
 21
-131.7064120523069
 31
0.0
  0
INSERT
  5
DF
330
70
100
AcDbEntity
  8
レイヤー 1
100
AcDbBlockReference
  2
Block_11
 10
0.0
 20
0.0
 30
0.0
  0
SPLINE
  5
E4
330
70
100
AcDbEntity
  8
レイヤー 1
 62
   250
420
  2299925
370
     9
100
AcDbSpline
210
0.0
220
0.0
230
1.0
 70
     9
 71
     3
 72
    17
 73
    13
 74
     0
 42
0.0000000001
 43
0.0000000001
 40
0.0
 40
0.0
 40
0.0
 40
0.0
 40
1.0
 40
1.0
 40
1.0
 40
2.0
 40
2.0
 40
2.0
 40
3.0
 40
3.0
 40
3.0
 40
4.0
 40
4.0
 40
4.0
 40
4.0
 10
85.52521913069325
 20
-131.7022845524122
 30
0.0
 10
85.52521913069325
 20
-131.6471453871522
 30
0.0
 10
85.48041635292653
 20
-131.6023778882944
 30
0.0
 10
85.42527718627379
 20
-131.6023778882944
 30
0.0
 10
85.37017329739855
 20
-131.6023778882944
 30
0.0
 10
85.32537051963215
 20
-131.6471453871522
 30
0.0
 10
85.32537051963215
 20
-131.7022845524122
 30
0.0
 10
85.32537051963215
 20
-131.7573884398953
 30
0.0
 10
85.37017329739855
 20
-131.80219121653
 30
0.0
 10
85.42527718627379
 20
-131.80219121653
 30
0.0
 10
85.48041635292653
 20
-131.80219121653
 30
0.0
 10
85.52521913069325
 20
-131.7573884398953
 30
0.0
 10
85.52521913069325
 20
-131.7022845524122
 30
0.0
  0
SPLINE
  5
E5
330
70
100
AcDbEntity
  8
レイヤー 1
 62
   250
420
  2299925
370
     9
100
AcDbSpline
210
0.0
220
0.0
230
1.0
 70
     9
 71
     3
 72
    17
 73
    13
 74
     0
 42
0.0000000001
 43
0.0000000001
 40
0.0
 40
0.0
 40
0.0
 40
0.0
 40
1.0
 40
1.0
 40
1.0
 40
2.0
 40
2.0
 40
2.0
 40
3.0
 40
3.0
 40
3.0
 40
4.0
 40
4.0
 40
4.0
 40
4.0
 10
88.53483690771877
 20
-131.7077878856051
 30
0.0
 10
88.53483690771877
 20
-131.6526788152992
 30
0.0
 10
88.49003412995203
 20
-131.6078760375325
 30
0.0
 10
88.43493024107679
 20
-131.6078760375325
 30
0.0
 10
88.37979107442405
 20
-131.6078760375325
 30
0.0
 10
88.33502357443547
 20
-131.6526788152992
 30
0.0
 10
88.33502357443547
 20
-131.7077878856051
 30
0.0
 10
88.33502357443547
 20
-131.7629270508651
 30
0.0
 10
88.37979107442405
 20
-131.807694549723
 30
0.0
 10
88.43493024107679
 20
-131.807694549723
 30
0.0
 10
88.49003412995203
 20
-131.807694549723
 30
0.0
 10
88.53483690771877
 20
-131.7629270508651
 30
0.0
 10
88.53483690771877
 20
-131.7077878856051
 30
0.0
  0
LINE
  5
E6
330
70
100
AcDbEntity
  8
レイヤー 1
 62
   250
420
  2299925
370
     9
100
AcDbLine
 10
85.42527718627379
 20
-130.8272192969592
 30
0.0
 11
85.42527718627379
 21
-132.4843223102385
 31
0.0
  0
LINE
  5
E7
330
70
100
AcDbEntity
  8
レイヤー 1
 62
   250
420
  2299925
370
     9
100
AcDbLine
 10
88.43493024107679
 20
-130.8306765190932
 30
0.0
 11
88.43493024107679
 21
-132.4843223102385
 31
0.0
  0
SPLINE
  5
E8
330
70
100
AcDbEntity
  8
レイヤー 1
 62
   250
420
  2299925
370
     9
100
AcDbSpline
210
0.0
220
0.0
230
1.0
 70
     9
 71
     3
 72
    17
 73
    13
 74
     0
 42
0.0000000001
 43
0.0000000001
 40
0.0
 40
0.0
 40
0.0
 40
0.0
 40
1.0
 40
1.0
 40
1.0
 40
2.0
 40
2.0
 40
2.0
 40
3.0
 40
3.0
 40
3.0
 40
4.0
 40
4.0
 40
4.0
 40
4.0
 10
81.56281913168388
 20
-138.2941135509073
 30
0.0
 10
81.56281913168388
 20
-138.2383041078867
 30
0.0
 10
81.51805163169498
 20
-138.1935315914415
 30
0.0
 10
81.46291246504224
 20
-138.1935315914415
 30
0.0
 10
81.407808576167
 20
-138.1935315914415
 30
0.0
 10
81.36300579840058
 20
-138.2383041078867
 30
0.0
 10
81.36300579840058
 20
-138.2941135509073
 30
0.0
 10
81.36300579840058
 20
-138.3492527161672
 30
0.0
 10
81.407808576167
 20
-138.3940202150254
 30
0.0
 10
81.46291246504224
 20
-138.3940202150254
 30
0.0
 10
81.51805163169498
 20
-138.3940202150254
 30
0.0
 10
81.56281913168388
 20
-138.3492527161672
 30
0.0
 10
81.56281913168388
 20
-138.2941135509073
 30
0.0
  0
SPLINE
  5
E9
330
70
100
AcDbEntity
  8
レイヤー 1
 62
   250
420
  2299925
370
     9
100
AcDbSpline
210
0.0
220
0.0
230
1.0
 70
     9
 71
     3
 72
    17
 73
    13
 74
     0
 42
0.0000000001
 43
0.0000000001
 40
0.0
 40
0.0
 40
0.0
 40
0.0
 40
1.0
 40
1.0
 40
1.0
 40
2.0
 40
2.0
 40
2.0
 40
3.0
 40
3.0
 40
3.0
 40
4.0
 40
4.0
 40
4.0
 40
4.0
 10
81.56662913168293
 20
-162.2726654391635
 30
0.0
 10
81.56662913168293
 20
-162.2175615516804
 30
0.0
 10
81.52182635391588
 20
-162.1734643305832
 30
0.0
 10
81.46672246504129
 20
-162.1734643305832
 30
0.0
 10
81.41158329838789
 20
-162.1734643305832
 30
0.0
 10
81.36681579839965
 20
-162.2175615516804
 30
0.0
 10
81.36681579839965
 20
-162.2726654391635
 30
0.0
 10
81.36681579839965
 20
-162.3278046044234
 30
0.0
 10
81.41158329838789
 20
-162.3725676965081
 30
0.0
 10
81.46672246504129
 20
-162.3725676965081
 30
0.0
 10
81.52182635391588
 20
-162.3725676965081
 30
0.0
 10
81.56662913168293
 20
-162.3278046044234
 30
0.0
 10
81.56662913168293
 20
-162.2726654391635
 30
0.0
  0
CIRCLE
  5
EA
330
70
100
AcDbEntity
  8
レイヤー 1
 62
   250
420
  2299925
370
     9
100
AcDbCircle
 10
85.19861746410825
 20
-167.4189522523152
 30
0.0
 40
0.0999066653797365
  0
CIRCLE
  5
EB
330
70
100
AcDbEntity
  8
レイヤー 1
 62
   250
420
  2299925
370
     9
100
AcDbCircle
 10
95.08189857274862
 20
-167.4134489191223
 30
0.0
 40
0.0999066653798167
  0
LINE
  5
EC
330
70
100
AcDbEntity
  8
レイヤー 1
 62
   250
420
  2299925
370
     9
100
AcDbLine
 10
80.45093413196196
 20
-138.2879399399537
 30
0.0
 11
82.6554424647441
 21
-138.2879399399537
 31
0.0
  0
LINE
  5
ED
330
70
100
AcDbEntity
  8
レイヤー 1
 62
   250
420
  2299925
370
     9
100
AcDbLine
 10
80.44694774307403
 20
-162.2719951614028
 30
0.0
 11
82.65149135363401
 21
-162.2719951614028
 31
0.0
  0
LINE
  5
EE
330
70
100
AcDbEntity
  8
レイヤー 1
 62
   250
420
  2299925
370
     9
100
AcDbLine
 10
85.19307885299856
 20
-164.7848312084061
 30
0.0
 11
85.19307885299856
 21
-168.3112288061342
 31
0.0
  0
LINE
  5
EF
330
70
100
AcDbEntity
  8
レイヤー 1
 62
   250
420
  2299925
370
     9
100
AcDbLine
 10
95.08535579497005
 20
-164.7848312084061
 30
0.0
 11
95.08535579497005
 21
-168.3112288061342
 31
0.0
  0
INSERT
  5
F1
330
70
100
AcDbEntity
  8
レイヤー 1
100
AcDbBlockReference
  2
Block_12
 10
0.0
 20
0.0
 30
0.0
  0
ENDSEC
  0
SECTION
  2
OBJECTS
  0
DICTIONARY
  5
C
330
0
100
AcDbDictionary
281
     1
  3
ACAD_COLOR
350
63
  3
ACAD_DETAILVIEWSTYLE
350
6A
  3
ACAD_GROUP
350
D
  3
ACAD_LAYOUT
350
62
  3
ACAD_MATERIAL
350
10
  3
ACAD_MLEADERSTYLE
350
66
  3
ACAD_MLINESTYLE
350
5F
  3
ACAD_PLOTSETTINGS
350
61
  3
ACAD_PLOTSTYLENAME
350
E
  3
ACAD_SCALELIST
350
42
  3
ACAD_SECTIONVIEWSTYLE
350
68
  3
ACAD_TABLESTYLE
350
64
  3
ACAD_VISUALSTYLE
350
29
  3
ACDB_RECOMPOSE_DATA
350
11A
  3
AcDbVariableDictionary
350
112
  0
DICTIONARY
  5
63
102
{ACAD_REACTORS
330
C
102
}
330
C
100
AcDbDictionary
281
     1
  0
DICTIONARY
  5
6A
102
{ACAD_REACTORS
330
C
102
}
330
C
100
AcDbDictionary
281
     1
  3
Imperial24
350
6B
  0
DICTIONARY
  5
D
102
{ACAD_REACTORS
330
C
102
}
330
C
100
AcDbDictionary
281
     1
  0
DICTIONARY
  5
62
102
{ACAD_REACTORS
330
C
102
}
330
C
100
AcDbDictionary
281
     1
  3
Layout1
350
6F
  3
Layout2
350
77
  3
Model
350
73
  0
DICTIONARY
  5
10
102
{ACAD_REACTORS
330
C
102
}
330
C
100
AcDbDictionary
281
     1
  3
ByBlock
350
19
  3
ByLayer
350
11
  3
Global
350
21
  0
DICTIONARY
  5
66
102
{ACAD_REACTORS
330
C
102
}
330
C
100
AcDbDictionary
281
     1
  3
Standard
350
67
  0
DICTIONARY
  5
5F
102
{ACAD_REACTORS
330
C
102
}
330
C
100
AcDbDictionary
281
     1
  3
Standard
350
60
  0
DICTIONARY
  5
61
102
{ACAD_REACTORS
330
C
102
}
330
C
100
AcDbDictionary
281
     1
  0
ACDBDICTIONARYWDFLT
  5
E
102
{ACAD_REACTORS
330
C
102
}
330
C
100
AcDbDictionary
281
     1
  3
Normal
350
F
100
AcDbDictionaryWithDefault
340
F
  0
DICTIONARY
  5
42
102
{ACAD_REACTORS
330
C
102
}
330
C
100
AcDbDictionary
281
     1
  3
A0
350
43
  3
A1
350
44
  3
A2
350
45
  3
A3
350
46
  3
A4
350
47
  3
A5
350
48
  3
A6
350
49
  3
A7
350
4A
  3
A8
350
4B
  3
A9
350
4C
  3
B0
350
4D
  3
B1
350
4E
  3
B2
350
4F
  3
B3
350
50
  3
B4
350
51
  3
B5
350
52
  3
B6
350
53
  0
DICTIONARY
  5
68
102
{ACAD_REACTORS
330
C
102
}
330
C
100
AcDbDictionary
281
     1
  3
Imperial24
350
69
  0
DICTIONARY
  5
64
102
{ACAD_REACTORS
330
C
102
}
330
C
100
AcDbDictionary
281
     1
  3
Standard
350
65
  0
DICTIONARY
  5
29
102
{ACAD_REACTORS
330
C
102
}
330
C
100
AcDbDictionary
281
     1
  3
2dWireframe
350
2F
  3
Basic
350
2E
  3
Brighten
350
35
  3
ColorChange
350
39
  3
Conceptual
350
32
  3
Dim
350
34
  3
EdgeColorOff
350
41
  3
Facepattern
350
38
  3
Flat
350
2A
  3
FlatWithEdges
350
2B
  3
Gouraud
350
2C
  3
GouraudWithEdges
350
2D
  3
Hidden
350
31
  3
JitterOff
350
3F
  3
Linepattern
350
37
  3
OverhangOff
350
40
  3
Realistic
350
33
  3
Shaded
350
3E
  3
Shaded with edges
350
3D
  3
Shades of Gray
350
3A
  3
Sketchy
350
3B
  3
Thicken
350
36
  3
Wireframe
350
30
  3
X-Ray
350
3C
  0
XRECORD
  5
11A
102
{ACAD_REACTORS
330
C
102
}
330
C
100
AcDbXrecord
280
     1
 90
        1
330
65
  0
DICTIONARY
  5
112
102
{ACAD_REACTORS
330
C
102
}
330
C
100
AcDbDictionary
281
     1
  3
CANNOSCALE
350
117
  3
CMLEADERSTYLE
350
114
  3
CTABLESTYLE
350
113
  3
CVIEWDETAILSTYLE
350
115
  3
CVIEWSECTIONSTYLE
350
116
  0
ACDBDETAILVIEWSTYLE
  5
6B
102
{ACAD_XDICTIONARY
360
14F
102
}
102
{ACAD_REACTORS
330
6A
102
}
330
6A
100
AcDbModelDocViewStyle
 70
     0
  3
Imperial24
290
     0
100
AcDbDetailViewStyle
 70
     0
 71
     0
 90
        3
 71
     1
340
55
 62
   256
 40
0.24
340
0
 62
   256
 40
0.24
300

 40
0.36
280
     3
 71
     2
340
5D
 90
       25
 62
   256
 71
     3
340
55
 62
   256
 40
0.24
 90
        1
 40
0.75
 90
        1
300
%<\AcVar ViewType \f "%tc1">% %<\AcVar ViewDetailId>%\PSCALE %<\AcVar ViewScale \f "%sn">%
 71
     4
340
5D
 90
       25
 62
   256
340
5D
 90
       25
 62
   256
280
     0
  0
LAYOUT
  5
6F
102
{ACAD_REACTORS
330
62
102
}
330
62
100
AcDbPlotSettings
  1

  2

  4

  6

 40
0.0
 41
0.0
 42
0.0
 43
0.0
 44
0.0
 45
0.0
 46
0.0
 47
0.0
 48
0.0
 49
0.0
140
0.0
141
0.0
142
1.0
143
1.0
 70
   688
 72
     0
 73
     0
 74
     5
  7

 75
    16
147
1.0
 76
     0
 77
     2
 78
   300
148
0.0
149
0.0
100
AcDbLayout
  1
Layout1
 70
     1
 71
     1
 10
0.0
 20
0.0
 11
12.0
 21
9.0
 12
0.0
 22
0.0
 32
0.0
 14
0.0
 24
0.0
 34
0.0
 15
0.0
 25
0.0
 35
0.0
146
0.0
 13
0.0
 23
0.0
 33
0.0
 16
1.0
 26
0.0
 36
0.0
 17
0.0
 27
1.0
 37
0.0
 76
     0
330
6C
  0
LAYOUT
  5
77
102
{ACAD_REACTORS
330
62
102
}
330
62
100
AcDbPlotSettings
  1

  2

  4

  6

 40
0.0
 41
0.0
 42
0.0
 43
0.0
 44
0.0
 45
0.0
 46
0.0
 47
0.0
 48
0.0
 49
0.0
140
0.0
141
0.0
142
1.0
143
1.0
 70
   688
 72
     0
 73
     0
 74
     5
  7

 75
    16
147
1.0
 76
     0
 77
     2
 78
   300
148
0.0
149
0.0
100
AcDbLayout
  1
Layout2
 70
     1
 71
     2
 10
0.0
 20
0.0
 11
12.0
 21
9.0
 12
0.0
 22
0.0
 32
0.0
 14
0.0
 24
0.0
 34
0.0
 15
0.0
 25
0.0
 35
0.0
146
0.0
 13
0.0
 23
0.0
 33
0.0
 16
1.0
 26
0.0
 36
0.0
 17
0.0
 27
1.0
 37
0.0
 76
     0
330
74
  0
LAYOUT
  5
73
102
{ACAD_REACTORS
330
62
102
}
330
62
100
AcDbPlotSettings
  1

  2

  4

  6

 40
0.0
 41
0.0
 42
0.0
 43
0.0
 44
0.0
 45
0.0
 46
0.0
 47
0.0
 48
0.0
 49
0.0
140
0.0
141
0.0
142
1.0
143
1.0
 70
  1712
 72
     0
 73
     0
 74
     0
  7

 75
     0
147
1.0
 76
     0
 77
     2
 78
   300
148
0.0
149
0.0
100
AcDbLayout
  1
Model
 70
     1
 71
     0
 10
0.0
 20
0.0
 11
12.0
 21
9.0
 12
0.0
 22
0.0
 32
0.0
 14
0.0
 24
0.0
 34
0.0
 15
0.0
 25
0.0
 35
0.0
146
0.0
 13
0.0
 23
0.0
 33
0.0
 16
1.0
 26
0.0
 36
0.0
 17
0.0
 27
1.0
 37
0.0
 76
     0
330
70
  0
MATERIAL
  5
19
102
{ACAD_XDICTIONARY
360
1A
102
}
102
{ACAD_REACTORS
330
10
102
}
330
10
100
AcDbMaterial
  1
ByBlock
 72
     0
 43
0.0208333333333333
 43
0.0
 43
0.0
 43
0.0
 43
0.0
 43
0.0208333333333333
 43
0.0
 43
0.0
 43
0.0
 43
0.0
 43
1.0
 43
0.0
 43
0.0
 43
0.0
 43
0.0
 43
1.0
 77
     0
 47
0.0208333333333333
 47
0.0
 47
0.0
 47
0.0
 47
0.0
 47
0.0208333333333333
 47
0.0
 47
0.0
 47
0.0
 47
0.0
 47
1.0
 47
0.0
 47
0.0
 47
0.0
 47
0.0
 47
1.0
171
     0
 49
0.0208333333333333
 49
0.0
 49
0.0
 49
0.0
 49
0.0
 49
0.0208333333333333
 49
0.0
 49
0.0
 49
0.0
 49
0.0
 49
1.0
 49
0.0
 49
0.0
 49
0.0
 49
0.0
 49
1.0
175
     0
142
0.0208333333333333
142
0.0
142
0.0
142
0.0
142
0.0
142
0.0208333333333333
142
0.0
142
0.0
142
0.0
142
0.0
142
1.0
142
0.0
142
0.0
142
0.0
142
0.0
142
1.0
179
     0
144
0.0208333333333333
144
0.0
144
0.0
144
0.0
144
0.0
144
0.0208333333333333
144
0.0
144
0.0
144
0.0
144
0.0
144
1.0
144
0.0
144
0.0
144
0.0
144
0.0
144
1.0
147
0.0208333333333333
147
0.0
147
0.0
147
0.0
147
0.0
147
0.0208333333333333
147
0.0
147
0.0
147
0.0
147
0.0
147
1.0
147
0.0
147
0.0
147
0.0
147
0.0
147
1.0
  0
MATERIAL
  5
11
102
{ACAD_XDICTIONARY
360
12
102
}
102
{ACAD_REACTORS
330
10
102
}
330
10
100
AcDbMaterial
  1
ByLayer
 72
     0
 43
0.0208333333333333
 43
0.0
 43
0.0
 43
0.0
 43
0.0
 43
0.0208333333333333
 43
0.0
 43
0.0
 43
0.0
 43
0.0
 43
1.0
 43
0.0
 43
0.0
 43
0.0
 43
0.0
 43
1.0
 77
     0
 47
0.0208333333333333
 47
0.0
 47
0.0
 47
0.0
 47
0.0
 47
0.0208333333333333
 47
0.0
 47
0.0
 47
0.0
 47
0.0
 47
1.0
 47
0.0
 47
0.0
 47
0.0
 47
0.0
 47
1.0
171
     0
 49
0.0208333333333333
 49
0.0
 49
0.0
 49
0.0
 49
0.0
 49
0.0208333333333333
 49
0.0
 49
0.0
 49
0.0
 49
0.0
 49
1.0
 49
0.0
 49
0.0
 49
0.0
 49
0.0
 49
1.0
175
     0
142
0.0208333333333333
142
0.0
142
0.0
142
0.0
142
0.0
142
0.0208333333333333
142
0.0
142
0.0
142
0.0
142
0.0
142
1.0
142
0.0
142
0.0
142
0.0
142
0.0
142
1.0
179
     0
144
0.0208333333333333
144
0.0
144
0.0
144
0.0
144
0.0
144
0.0208333333333333
144
0.0
144
0.0
144
0.0
144
0.0
144
1.0
144
0.0
144
0.0
144
0.0
144
0.0
144
1.0
147
0.0208333333333333
147
0.0
147
0.0
147
0.0
147
0.0
147
0.0208333333333333
147
0.0
147
0.0
147
0.0
147
0.0
147
1.0
147
0.0
147
0.0
147
0.0
147
0.0
147
1.0
  0
MATERIAL
  5
21
102
{ACAD_XDICTIONARY
360
22
102
}
102
{ACAD_REACTORS
330
10
102
}
330
10
100
AcDbMaterial
  1
Global
 72
     0
 43
0.0208333333333333
 43
0.0
 43
0.0
 43
0.0
 43
0.0
 43
0.0208333333333333
 43
0.0
 43
0.0
 43
0.0
 43
0.0
 43
1.0
 43
0.0
 43
0.0
 43
0.0
 43
0.0
 43
1.0
 77
     0
 47
0.0208333333333333
 47
0.0
 47
0.0
 47
0.0
 47
0.0
 47
0.0208333333333333
 47
0.0
 47
0.0
 47
0.0
 47
0.0
 47
1.0
 47
0.0
 47
0.0
 47
0.0
 47
0.0
 47
1.0
171
     0
 49
0.0208333333333333
 49
0.0
 49
0.0
 49
0.0
 49
0.0
 49
0.0208333333333333
 49
0.0
 49
0.0
 49
0.0
 49
0.0
 49
1.0
 49
0.0
 49
0.0
 49
0.0
 49
0.0
 49
1.0
175
     0
142
0.0208333333333333
142
0.0
142
0.0
142
0.0
142
0.0
142
0.0208333333333333
142
0.0
142
0.0
142
0.0
142
0.0
142
1.0
142
0.0
142
0.0
142
0.0
142
0.0
142
1.0
179
     0
144
0.0208333333333333
144
0.0
144
0.0
144
0.0
144
0.0
144
0.0208333333333333
144
0.0
144
0.0
144
0.0
144
0.0
144
1.0
144
0.0
144
0.0
144
0.0
144
0.0
144
1.0
147
0.0208333333333333
147
0.0
147
0.0
147
0.0
147
0.0
147
0.0208333333333333
147
0.0
147
0.0
147
0.0
147
0.0
147
1.0
147
0.0
147
0.0
147
0.0
147
0.0
147
1.0
  0
MLEADERSTYLE
  5
67
102
{ACAD_XDICTIONARY
360
14B
102
}
102
{ACAD_REACTORS
330
66
102
}
330
66
100
AcDbMLeaderStyle
179
     2
170
     2
171
     1
172
     0
 90
        2
 40
0.0
 41
0.0
173
     1
 91
-1056964608
340
5B
 92
       -2
290
     1
 42
0.09
291
     1
 43
0.36
  3
Standard
 44
0.18
300

342
55
174
     1
178
     6
175
     1
176
     0
 93
-1056964608
 45
0.18
292
     0
297
     0
 46
0.18
 94
-1056964608
 47
1.0
 49
1.0
140
1.0
293
     1
141
0.0
294
     1
177
     0
142
1.0
295
     0
296
     0
143
0.125
271
     0
272
     9
273
     9
  0
MLINESTYLE
  5
60
102
{ACAD_REACTORS
330
5F
102
}
330
5F
100
AcDbMlineStyle
  2
STANDARD
 70
     0
  3

 62
   256
 51
90.0
 52
90.0
 71
     2
 49
0.5
 62
   256
  6
BYLAYER
 49
-0.5
 62
   256
  6
BYLAYER
  0
ACDBPLACEHOLDER
  5
F
102
{ACAD_REACTORS
330
E
102
}
330
E
  0
SCALE
  5
43
102
{ACAD_REACTORS
330
42
102
}
330
42
100
AcDbScale
 70
     0
300
1:1
140
1.0
141
1.0
290
     1
  0
SCALE
  5
44
102
{ACAD_REACTORS
330
42
102
}
330
42
100
AcDbScale
 70
     0
300
1/128" = 1'-0"
140
0.0078125
141
12.0
290
     0
  0
SCALE
  5
45
102
{ACAD_REACTORS
330
42
102
}
330
42
100
AcDbScale
 70
     0
300
1/64" = 1'-0"
140
0.015625
141
12.0
290
     0
  0
SCALE
  5
46
102
{ACAD_REACTORS
330
42
102
}
330
42
100
AcDbScale
 70
     0
300
1/32" = 1'-0"
140
0.03125
141
12.0
290
     0
  0
SCALE
  5
47
102
{ACAD_REACTORS
330
42
102
}
330
42
100
AcDbScale
 70
     0
300
1/16" = 1'-0"
140
0.0625
141
12.0
290
     0
  0
SCALE
  5
48
102
{ACAD_REACTORS
330
42
102
}
330
42
100
AcDbScale
 70
     0
300
3/32" = 1'-0"
140
0.09375
141
12.0
290
     0
  0
SCALE
  5
49
102
{ACAD_REACTORS
330
42
102
}
330
42
100
AcDbScale
 70
     0
300
1/8" = 1'-0"
140
0.125
141
12.0
290
     0
  0
SCALE
  5
4A
102
{ACAD_REACTORS
330
42
102
}
330
42
100
AcDbScale
 70
     0
300
3/16" = 1'-0"
140
0.1875
141
12.0
290
     0
  0
SCALE
  5
4B
102
{ACAD_REACTORS
330
42
102
}
330
42
100
AcDbScale
 70
     0
300
1/4" = 1'-0"
140
0.25
141
12.0
290
     0
  0
SCALE
  5
4C
102
{ACAD_REACTORS
330
42
102
}
330
42
100
AcDbScale
 70
     0
300
3/8" = 1'-0"
140
0.375
141
12.0
290
     0
  0
SCALE
  5
4D
102
{ACAD_REACTORS
330
42
102
}
330
42
100
AcDbScale
 70
     0
300
1/2" = 1'-0"
140
0.5
141
12.0
290
     0
  0
SCALE
  5
4E
102
{ACAD_REACTORS
330
42
102
}
330
42
100
AcDbScale
 70
     0
300
3/4" = 1'-0"
140
0.75
141
12.0
290
     0
  0
SCALE
  5
4F
102
{ACAD_REACTORS
330
42
102
}
330
42
100
AcDbScale
 70
     0
300
1" = 1'-0"
140
1.0
141
12.0
290
     0
  0
SCALE
  5
50
102
{ACAD_REACTORS
330
42
102
}
330
42
100
AcDbScale
 70
     0
300
1-1/2" = 1'-0"
140
1.5
141
12.0
290
     0
  0
SCALE
  5
51
102
{ACAD_REACTORS
330
42
102
}
330
42
100
AcDbScale
 70
     0
300
3" = 1'-0"
140
3.0
141
12.0
290
     0
  0
SCALE
  5
52
102
{ACAD_REACTORS
330
42
102
}
330
42
100
AcDbScale
 70
     0
300
6" = 1'-0"
140
6.0
141
12.0
290
     0
  0
SCALE
  5
53
102
{ACAD_REACTORS
330
42
102
}
330
42
100
AcDbScale
 70
     0
300
1'-0" = 1'-0"
140
12.0
141
12.0
290
     0
  0
ACDBSECTIONVIEWSTYLE
  5
69
102
{ACAD_XDICTIONARY
360
14D
102
}
102
{ACAD_REACTORS
330
68
102
}
330
68
100
AcDbModelDocViewStyle
 70
     0
  3
Imperial24
290
     0
100
AcDbSectionViewStyle
 70
     0
 71
     0
 90
       78
 71
     1
340
55
 62
   256
 40
0.24
340
0
340
0
 62
   256
 40
0.24
300
I, O, Q, S, X, Z
 40
0.48
 90
        3
 40
0.18
 90
        1
 71
     2
340
5D
 90
       25
 62
   256
340
5D
 90
       50
 62
   256
 40
0.24
 40
0.0
 40
0.24
 71
     3
340
55
 62
   256
 40
0.24
 90
        1
 40
0.75
 90
        1
300
%<\AcVar ViewType \f "%tc1">% %<\AcVar ViewSectionStartId>%-%<\AcVar ViewSectionEndId>%\PSCALE %<\AcVar ViewScale \f "%sn">%
 71
     4
 62
   256
 62
   257
300
ANSI31
 40
1.0
 90
        0
290
     0
290
     0
 90
        6
 40
0.0
 40
1.570796326794896
 40
0.2617993877991494
 40
1.308996938995747
 40
-0.2617993877991494
 40
1.832595714594046
  0
TABLESTYLE
  5
65
102
{ACAD_XDICTIONARY
360
118
102
}
102
{ACAD_REACTORS
330
64
102
}
330
64
100
AcDbTableStyle
280
     0
  3
Standard
 70
     0
 71
     0
 40
0.06
 41
0.06
280
     0
281
     0
  7
Standard
140
0.18
170
     2
 62
     0
 63
     7
283
     0
 90
      512
 91
        0
  1

274
    -2
284
     1
 64
     0
275
    -2
285
     1
 65
     0
276
    -2
286
     1
 66
     0
277
    -2
287
     1
 67
     0
278
    -2
288
     1
 68
     0
279
    -2
289
     1
 69
     0
  7
Standard
140
0.25
170
     5
 62
     0
 63
     7
283
     0
 90
      512
 91
        0
  1

274
    -2
284
     1
 64
     0
275
    -2
285
     1
 65
     0
276
    -2
286
     1
 66
     0
277
    -2
287
     1
 67
     0
278
    -2
288
     1
 68
     0
279
    -2
289
     1
 69
     0
  7
Standard
140
0.18
170
     5
 62
     0
 63
     7
283
     0
 90
      512
 91
        0
  1

274
    -2
284
     1
 64
     0
275
    -2
285
     1
 65
     0
276
    -2
286
     1
 66
     0
277
    -2
287
     1
 67
     0
278
    -2
288
     1
 68
     0
279
    -2
289
     1
 69
     0
  0
VISUALSTYLE
  5
2F
102
{ACAD_XDICTIONARY
360
125
102
}
102
{ACAD_REACTORS
330
29
102
}
330
29
100
AcDbVisualStyle
  2
2dWireframe
 70
     4
177
     2
291
     0
 71
     0
176
     1
 72
     2
176
     1
 73
     0
176
     1
 90
        0
176
     1
 40
0.6
176
     1
 41
30.0
176
     1
 63
     7
421
 16777215
176
     1
 74
     1
176
     1
 91
        4
176
     1
 64
     7
176
     1
 65
   257
176
     1
 75
     1
176
     1
175
     1
176
     1
 42
1.0
176
     1
 92
        0
176
     1
 66
   257
176
     1
 43
1.0
176
     1
 76
     1
176
     1
 77
     6
176
     1
 78
     2
176
     1
 67
     7
176
     1
 79
     5
176
     1
170
     0
176
     1
171
     0
176
     1
290
     0
176
     1
 93
        1
176
     1
 44
0.0
176
     1
173
     0
176
     1
1001
ACAD
1000
AcDbSavedByObjectVersion
1070
     0
  0
VISUALSTYLE
  5
2E
102
{ACAD_XDICTIONARY
360
123
102
}
102
{ACAD_REACTORS
330
29
102
}
330
29
100
AcDbVisualStyle
  2
Basic
 70
     7
177
     2
291
     1
 71
     1
176
     1
 72
     0
176
     1
 73
     1
176
     1
 90
        0
176
     1
 40
0.6
176
     1
 41
30.0
176
     1
 63
     7
421
 16777215
176
     1
 74
     0
176
     1
 91
        4
176
     1
 64
     7
176
     1
 65
   257
176
     1
 75
     1
176
     1
175
     1
176
     1
 42
1.0
176
     1
 92
        8
176
     1
 66
     7
176
     1
 43
1.0
176
     1
 76
     1
176
     1
 77
     6
176
     1
 78
     2
176
     1
 67
     7
176
     1
 79
     5
176
     1
170
     0
176
     1
171
     0
176
     1
290
     0
176
     1
 93
        1
176
     1
 44
0.0
176
     1
173
     0
176
     1
1001
ACAD
1000
AcDbSavedByObjectVersion
1070
     0
  0
VISUALSTYLE
  5
35
102
{ACAD_XDICTIONARY
360
131
102
}
102
{ACAD_REACTORS
330
29
102
}
330
29
100
AcDbVisualStyle
  2
Brighten
 70
    12
177
     2
291
     1
 71
     2
176
     1
 72
     2
176
     1
 73
     0
176
     1
 90
        0
176
     1
 40
0.6
176
     1
 41
30.0
176
     1
 63
     7
421
 16777215
176
     1
 74
     1
176
     1
 91
        4
176
     1
 64
     7
176
     1
 65
   257
176
     1
 75
     1
176
     1
175
     1
176
     1
 42
1.0
176
     1
 92
        8
176
     1
 66
     7
176
     1
 43
1.0
176
     1
 76
     1
176
     1
 77
     6
176
     1
 78
     2
176
     1
 67
     7
176
     1
 79
     5
176
     1
170
     0
176
     1
171
     0
176
     1
290
     0
176
     1
 93
        1
176
     1
 44
50.0
176
     1
173
     0
176
     1
1001
ACAD
1000
AcDbSavedByObjectVersion
1070
     0
  0
VISUALSTYLE
  5
39
102
{ACAD_XDICTIONARY
360
139
102
}
102
{ACAD_REACTORS
330
29
102
}
330
29
100
AcDbVisualStyle
  2
ColorChange
 70
    16
177
     2
291
     1
 71
     2
176
     1
 72
     2
176
     1
 73
     3
176
     1
 90
        0
176
     1
 40
0.6
176
     1
 41
30.0
176
     1
 63
     8
421
  8421504
176
     1
 74
     1
176
     1
 91
        4
176
     1
 64
     7
176
     1
 65
   257
176
     1
 75
     1
176
     1
175
     1
176
     1
 42
1.0
176
     1
 92
        8
176
     1
 66
     8
424
  8421504
176
     1
 43
1.0
176
     1
 76
     1
176
     1
 77
     6
176
     1
 78
     2
176
     1
 67
     7
176
     1
 79
     5
176
     1
170
     0
176
     1
171
     0
176
     1
290
     0
176
     1
 93
        1
176
     1
 44
0.0
176
     1
173
     0
176
     1
1001
ACAD
1000
AcDbSavedByObjectVersion
1070
     0
  0
VISUALSTYLE
  5
32
102
{ACAD_XDICTIONARY
360
12B
102
}
102
{ACAD_REACTORS
330
29
102
}
330
29
100
AcDbVisualStyle
  2
Conceptual
 70
     9
177
     2
291
     0
 71
     3
176
     1
 72
     2
176
     1
 73
     0
176
     1
 90
        0
176
     1
 40
0.6
176
     1
 41
30.0
176
     1
 63
     7
421
 16777215
176
     1
 74
     2
176
     1
 91
        2
176
     1
 64
     7
176
     1
 65
   257
176
     1
 75
     1
176
     1
175
     1
176
     1
 42
179.0
176
     1
 92
        8
176
     1
 66
     7
176
     1
 43
1.0
176
     1
 76
     1
176
     1
 77
     6
176
     1
 78
     2
176
     1
 67
     7
176
     1
 79
     3
176
     1
170
     0
176
     1
171
     0
176
     1
290
     0
176
     1
 93
        1
176
     1
 44
0.0
176
     1
173
     0
176
     1
1001
ACAD
1000
AcDbSavedByObjectVersion
1070
     0
  0
VISUALSTYLE
  5
34
102
{ACAD_XDICTIONARY
360
12F
102
}
102
{ACAD_REACTORS
330
29
102
}
330
29
100
AcDbVisualStyle
  2
Dim
 70
    11
177
     2
291
     1
 71
     2
176
     1
 72
     2
176
     1
 73
     0
176
     1
 90
        0
176
     1
 40
0.6
176
     1
 41
30.0
176
     1
 63
     7
421
 16777215
176
     1
 74
     1
176
     1
 91
        4
176
     1
 64
     7
176
     1
 65
   257
176
     1
 75
     1
176
     1
175
     1
176
     1
 42
1.0
176
     1
 92
        8
176
     1
 66
     7
176
     1
 43
1.0
176
     1
 76
     1
176
     1
 77
     6
176
     1
 78
     2
176
     1
 67
     7
176
     1
 79
     5
176
     1
170
     0
176
     1
171
     0
176
     1
290
     0
176
     1
 93
        1
176
     1
 44
-50.0
176
     1
173
     0
176
     1
1001
ACAD
1000
AcDbSavedByObjectVersion
1070
     0
  0
VISUALSTYLE
  5
41
102
{ACAD_XDICTIONARY
360
149
102
}
102
{ACAD_REACTORS
330
29
102
}
330
29
100
AcDbVisualStyle
  2
EdgeColorOff
 70
    22
177
     2
291
     1
 71
     2
176
     0
 72
     2
176
     0
 73
     0
176
     0
 90
        0
176
     0
 40
0.6
176
     0
 41
30.0
176
     0
 63
     7
421
 16777215
176
     0
 74
     1
176
     0
 91
        4
176
     0
 64
     7
176
     0
 65
   257
176
     0
 75
     1
176
     0
175
     1
176
     0
 42
1.0
176
     0
 92
        8
176
     2
 66
     7
176
     0
 43
1.0
176
     0
 76
     1
176
     0
 77
     6
176
     0
 78
     2
176
     0
 67
     7
176
     0
 79
     5
176
     0
170
     0
176
     0
171
     0
176
     0
290
     0
176
     0
 93
        1
176
     0
 44
0.0
176
     0
173
     0
176
     0
1001
ACAD
1000
AcDbSavedByObjectVersion
1070
     0
  0
VISUALSTYLE
  5
38
102
{ACAD_XDICTIONARY
360
137
102
}
102
{ACAD_REACTORS
330
29
102
}
330
29
100
AcDbVisualStyle
  2
Facepattern
 70
    15
177
     2
291
     1
 71
     2
176
     1
 72
     2
176
     1
 73
     0
176
     1
 90
        0
176
     1
 40
0.6
176
     1
 41
30.0
176
     1
 63
     7
421
 16777215
176
     1
 74
     1
176
     1
 91
        4
176
     1
 64
     7
176
     1
 65
   257
176
     1
 75
     1
176
     1
175
     1
176
     1
 42
1.0
176
     1
 92
        8
176
     1
 66
     7
176
     1
 43
1.0
176
     1
 76
     1
176
     1
 77
     6
176
     1
 78
     2
176
     1
 67
     7
176
     1
 79
     5
176
     1
170
     0
176
     1
171
     0
176
     1
290
     0
176
     1
 93
        1
176
     1
 44
0.0
176
     1
173
     0
176
     1
1001
ACAD
1000
AcDbSavedByObjectVersion
1070
     0
  0
VISUALSTYLE
  5
2A
102
{ACAD_XDICTIONARY
360
11B
102
}
102
{ACAD_REACTORS
330
29
102
}
330
29
100
AcDbVisualStyle
  2
Flat
 70
     0
177
     2
291
     1
 71
     2
176
     1
 72
     1
176
     1
 73
     1
176
     1
 90
        2
176
     1
 40
0.6
176
     1
 41
30.0
176
     1
 63
     7
421
 16777215
176
     1
 74
     0
176
     1
 91
        0
176
     1
 64
     7
176
     1
 65
   257
176
     1
 75
     1
176
     1
175
     1
176
     1
 42
1.0
176
     1
 92
        8
176
     1
 66
     7
176
     1
 43
1.0
176
     1
 76
     1
176
     1
 77
     6
176
     1
 78
     2
176
     1
 67
     7
176
     1
 79
     5
176
     1
170
     0
176
     1
171
     0
176
     1
290
     0
176
     1
 93
       13
176
     1
 44
0.0
176
     1
173
     0
176
     1
1001
ACAD
1000
AcDbSavedByObjectVersion
1070
     0
  0
VISUALSTYLE
  5
2B
102
{ACAD_XDICTIONARY
360
11D
102
}
102
{ACAD_REACTORS
330
29
102
}
330
29
100
AcDbVisualStyle
  2
FlatWithEdges
 70
     1
177
     2
291
     1
 71
     2
176
     1
 72
     1
176
     1
 73
     1
176
     1
 90
        2
176
     1
 40
0.6
176
     1
 41
30.0
176
     1
 63
     7
421
 16777215
176
     1
 74
     1
176
     1
 91
        0
176
     1
 64
     7
176
     1
 65
   257
176
     1
 75
     1
176
     1
175
     1
176
     1
 42
1.0
176
     1
 92
        0
176
     1
 66
   257
176
     1
 43
1.0
176
     1
 76
     1
176
     1
 77
     6
176
     1
 78
     2
176
     1
 67
     7
176
     1
 79
     5
176
     1
170
     0
176
     1
171
     0
176
     1
290
     0
176
     1
 93
       13
176
     1
 44
0.0
176
     1
173
     0
176
     1
1001
ACAD
1000
AcDbSavedByObjectVersion
1070
     0
  0
VISUALSTYLE
  5
2C
102
{ACAD_XDICTIONARY
360
11F
102
}
102
{ACAD_REACTORS
330
29
102
}
330
29
100
AcDbVisualStyle
  2
Gouraud
 70
     2
177
     2
291
     1
 71
     2
176
     1
 72
     2
176
     1
 73
     1
176
     1
 90
        2
176
     1
 40
0.6
176
     1
 41
30.0
176
     1
 63
     7
421
 16777215
176
     1
 74
     0
176
     1
 91
        0
176
     1
 64
     7
176
     1
 65
   257
176
     1
 75
     1
176
     1
175
     1
176
     1
 42
1.0
176
     1
 92
        0
176
     1
 66
     7
176
     1
 43
1.0
176
     1
 76
     1
176
     1
 77
     6
176
     1
 78
     2
176
     1
 67
     7
176
     1
 79
     5
176
     1
170
     0
176
     1
171
     0
176
     1
290
     0
176
     1
 93
       13
176
     1
 44
0.0
176
     1
173
     0
176
     1
1001
ACAD
1000
AcDbSavedByObjectVersion
1070
     0
  0
VISUALSTYLE
  5
2D
102
{ACAD_XDICTIONARY
360
121
102
}
102
{ACAD_REACTORS
330
29
102
}
330
29
100
AcDbVisualStyle
  2
GouraudWithEdges
 70
     3
177
     2
291
     1
 71
     2
176
     1
 72
     2
176
     1
 73
     1
176
     1
 90
        2
176
     1
 40
0.6
176
     1
 41
30.0
176
     1
 63
     7
421
 16777215
176
     1
 74
     1
176
     1
 91
        0
176
     1
 64
     7
176
     1
 65
   257
176
     1
 75
     1
176
     1
175
     1
176
     1
 42
1.0
176
     1
 92
        0
176
     1
 66
   257
176
     1
 43
1.0
176
     1
 76
     1
176
     1
 77
     6
176
     1
 78
     2
176
     1
 67
     7
176
     1
 79
     5
176
     1
170
     0
176
     1
171
     0
176
     1
290
     0
176
     1
 93
       13
176
     1
 44
0.0
176
     1
173
     0
176
     1
1001
ACAD
1000
AcDbSavedByObjectVersion
1070
     0
  0
VISUALSTYLE
  5
31
102
{ACAD_XDICTIONARY
360
129
102
}
102
{ACAD_REACTORS
330
29
102
}
330
29
100
AcDbVisualStyle
  2
Hidden
 70
     6
177
     2
291
     0
 71
     1
176
     1
 72
     2
176
     1
 73
     2
176
     1
 90
        0
176
     1
 40
0.6
176
     1
 41
30.0
176
     1
 63
     7
421
 16777215
176
     1
 74
     2
176
     1
 91
        2
176
     1
 64
     7
176
     1
 65
   257
176
     1
 75
     2
176
     1
175
     1
176
     1
 42
40.0
176
     1
 92
        0
176
     1
 66
   257
176
     1
 43
1.0
176
     1
 76
     1
176
     1
 77
     6
176
     1
 78
     2
176
     1
 67
     7
176
     1
 79
     3
176
     1
170
     0
176
     1
171
     0
176
     1
290
     0
176
     1
 93
        1
176
     1
 44
0.0
176
     1
173
     0
176
     1
1001
ACAD
1000
AcDbSavedByObjectVersion
1070
     0
  0
VISUALSTYLE
  5
3F
102
{ACAD_XDICTIONARY
360
145
102
}
102
{ACAD_REACTORS
330
29
102
}
330
29
100
AcDbVisualStyle
  2
JitterOff
 70
    20
177
     2
291
     1
 71
     2
176
     0
 72
     2
176
     0
 73
     0
176
     0
 90
        0
176
     0
 40
0.6
176
     0
 41
30.0
176
     0
 63
     7
421
 16777215
176
     0
 74
     1
176
     0
 91
        4
176
     0
 64
     7
176
     0
 65
   257
176
     0
 75
     1
176
     0
175
     1
176
     0
 42
1.0
176
     0
 92
       10
176
     2
 66
     7
176
     0
 43
1.0
176
     0
 76
     1
176
     0
 77
     6
176
     0
 78
     2
176
     0
 67
     7
176
     0
 79
     5
176
     0
170
     0
176
     0
171
     0
176
     0
290
     0
176
     0
 93
        1
176
     0
 44
0.0
176
     0
173
     0
176
     0
1001
ACAD
1000
AcDbSavedByObjectVersion
1070
     0
  0
VISUALSTYLE
  5
37
102
{ACAD_XDICTIONARY
360
135
102
}
102
{ACAD_REACTORS
330
29
102
}
330
29
100
AcDbVisualStyle
  2
Linepattern
 70
    14
177
     2
291
     1
 71
     2
176
     1
 72
     2
176
     1
 73
     0
176
     1
 90
        0
176
     1
 40
0.6
176
     1
 41
30.0
176
     1
 63
     7
421
 16777215
176
     1
 74
     1
176
     1
 91
        4
176
     1
 64
     7
176
     1
 65
   257
176
     1
 75
     7
176
     1
175
     7
176
     1
 42
1.0
176
     1
 92
        8
176
     1
 66
     7
176
     1
 43
1.0
176
     1
 76
     1
176
     1
 77
     6
176
     1
 78
     2
176
     1
 67
     7
176
     1
 79
     5
176
     1
170
     0
176
     1
171
     0
176
     1
290
     0
176
     1
 93
        1
176
     1
 44
0.0
176
     1
173
     0
176
     1
1001
ACAD
1000
AcDbSavedByObjectVersion
1070
     0
  0
VISUALSTYLE
  5
40
102
{ACAD_XDICTIONARY
360
147
102
}
102
{ACAD_REACTORS
330
29
102
}
330
29
100
AcDbVisualStyle
  2
OverhangOff
 70
    21
177
     2
291
     1
 71
     2
176
     0
 72
     2
176
     0
 73
     0
176
     0
 90
        0
176
     0
 40
0.6
176
     0
 41
30.0
176
     0
 63
     7
421
 16777215
176
     0
 74
     1
176
     0
 91
        4
176
     0
 64
     7
176
     0
 65
   257
176
     0
 75
     1
176
     0
175
     1
176
     0
 42
1.0
176
     0
 92
        9
176
     2
 66
     7
176
     0
 43
1.0
176
     0
 76
     1
176
     0
 77
     6
176
     0
 78
     2
176
     0
 67
     7
176
     0
 79
     5
176
     0
170
     0
176
     0
171
     0
176
     0
290
     0
176
     0
 93
        1
176
     0
 44
0.0
176
     0
173
     0
176
     0
1001
ACAD
1000
AcDbSavedByObjectVersion
1070
     0
  0
VISUALSTYLE
  5
33
102
{ACAD_XDICTIONARY
360
12D
102
}
102
{ACAD_REACTORS
330
29
102
}
330
29
100
AcDbVisualStyle
  2
Realistic
 70
     8
177
     2
291
     0
 71
     2
176
     1
 72
     3
176
     1
 73
     0
176
     1
 90
        2
176
     1
 40
0.6
176
     1
 41
30.0
176
     1
 63
     7
421
 16777215
176
     1
 74
     0
176
     1
 91
        0
176
     1
 64
     7
176
     1
 65
   257
176
     1
 75
     1
176
     1
175
     1
176
     1
 42
1.0
176
     1
 92
        8
176
     1
 66
   257
176
     1
 43
1.0
176
     1
 76
     1
176
     1
 77
     6
176
     1
 78
     2
176
     1
 67
     7
176
     1
 79
     3
176
     1
170
     0
176
     1
171
     0
176
     1
290
     0
176
     1
 93
       13
176
     1
 44
0.0
176
     1
173
     0
176
     1
1001
ACAD
1000
AcDbSavedByObjectVersion
1070
     0
  0
VISUALSTYLE
  5
3E
102
{ACAD_XDICTIONARY
360
143
102
}
102
{ACAD_REACTORS
330
29
102
}
330
29
100
AcDbVisualStyle
  2
Shaded
 70
    27
177
     2
291
     0
 71
     2
176
     1
 72
     2
176
     1
 73
     1
176
     1
 90
        2
176
     1
 40
0.6
176
     1
 41
30.0
176
     1
 63
     7
421
 16777215
176
     1
 74
     0
176
     1
 91
        4
176
     1
 64
     7
176
     1
 65
   257
176
     1
 75
     1
176
     1
175
     1
176
     1
 42
1.0
176
     1
 92
        8
176
     1
 66
   257
176
     1
 43
1.0
176
     1
 76
     1
176
     1
 77
     6
176
     1
 78
     2
176
     1
 67
     8
425
  7895160
176
     1
 79
     3
176
     1
170
     0
176
     1
171
     0
176
     1
290
     0
176
     1
 93
        5
176
     1
 44
0.0
176
     1
173
     0
176
     1
1001
ACAD
1000
AcDbSavedByObjectVersion
1070
     0
  0
VISUALSTYLE
  5
3D
102
{ACAD_XDICTIONARY
360
141
102
}
102
{ACAD_REACTORS
330
29
102
}
330
29
100
AcDbVisualStyle
  2
Shaded with edges
 70
    26
177
     2
291
     0
 71
     2
176
     1
 72
     2
176
     1
 73
     1
176
     1
 90
        2
176
     1
 40
0.6
176
     1
 41
30.0
176
     1
 63
     7
421
 16777215
176
     1
 74
     1
176
     1
 91
        2
176
     1
 64
     7
176
     1
 65
   257
176
     1
 75
     2
176
     1
175
     1
176
     1
 42
1.0
176
     1
 92
        8
176
     1
 66
   257
176
     1
 43
1.0
176
     1
 76
     1
176
     1
 77
     6
176
     1
 78
     2
176
     1
 67
     7
176
     1
 79
     3
176
     1
170
     0
176
     1
171
     0
176
     1
290
     0
176
     1
 93
        5
176
     1
 44
0.0
176
     1
173
     0
176
     1
1001
ACAD
1000
AcDbSavedByObjectVersion
1070
     0
  0
VISUALSTYLE
  5
3A
102
{ACAD_XDICTIONARY
360
13B
102
}
102
{ACAD_REACTORS
330
29
102
}
330
29
100
AcDbVisualStyle
  2
Shades of Gray
 70
    23
177
     2
291
     0
 71
     2
176
     1
 72
     2
176
     1
 73
     3
176
     1
 90
        0
176
     1
 40
0.6
176
     1
 41
30.0
176
     1
 63
     7
421
 16777215
176
     1
 74
     2
176
     1
 91
        2
176
     1
 64
     7
176
     1
 65
     7
176
     1
 75
     1
176
     1
175
     1
176
     1
 42
40.0
176
     1
 92
        8
176
     1
 66
     7
176
     1
 43
1.0
176
     1
 76
     1
176
     1
 77
     6
176
     1
 78
     2
176
     1
 67
     7
176
     1
 79
     3
176
     1
170
     0
176
     1
171
     0
176
     1
290
     0
176
     1
 93
        1
176
     1
 44
0.0
176
     1
173
     0
176
     1
1001
ACAD
1000
AcDbSavedByObjectVersion
1070
     0
  0
VISUALSTYLE
  5
3B
102
{ACAD_XDICTIONARY
360
13D
102
}
102
{ACAD_REACTORS
330
29
102
}
330
29
100
AcDbVisualStyle
  2
Sketchy
 70
    24
177
     2
291
     0
 71
     1
176
     1
 72
     2
176
     1
 73
     2
176
     1
 90
        0
176
     1
 40
0.6
176
     1
 41
30.0
176
     1
 63
     7
421
 16777215
176
     1
 74
     2
176
     1
 91
        2
176
     1
 64
     7
176
     1
 65
     7
176
     1
 75
     1
176
     1
175
     1
176
     1
 42
40.0
176
     1
 92
       11
176
     1
 66
     7
176
     1
 43
1.0
176
     1
 76
     1
176
     1
 77
     6
176
     1
 78
     2
176
     1
 67
     7
176
     1
 79
     6
176
     1
170
     0
176
     1
171
     0
176
     1
290
     0
176
     1
 93
        1
176
     1
 44
0.0
176
     1
173
     0
176
     1
1001
ACAD
1000
AcDbSavedByObjectVersion
1070
     0
  0
VISUALSTYLE
  5
36
102
{ACAD_XDICTIONARY
360
133
102
}
102
{ACAD_REACTORS
330
29
102
}
330
29
100
AcDbVisualStyle
  2
Thicken
 70
    13
177
     2
291
     1
 71
     2
176
     1
 72
     2
176
     1
 73
     0
176
     1
 90
        0
176
     1
 40
0.6
176
     1
 41
30.0
176
     1
 63
     7
421
 16777215
176
     1
 74
     1
176
     1
 91
        4
176
     1
 64
     7
176
     1
 65
   257
176
     1
 75
     1
176
     1
175
     1
176
     1
 42
1.0
176
     1
 92
       12
176
     1
 66
     7
176
     1
 43
1.0
176
     1
 76
     1
176
     1
 77
     6
176
     1
 78
     2
176
     1
 67
     7
176
     1
 79
     5
176
     1
170
     0
176
     1
171
     0
176
     1
290
     0
176
     1
 93
        1
176
     1
 44
0.0
176
     1
173
     0
176
     1
1001
ACAD
1000
AcDbSavedByObjectVersion
1070
     0
  0
VISUALSTYLE
  5
30
102
{ACAD_XDICTIONARY
360
127
102
}
102
{ACAD_REACTORS
330
29
102
}
330
29
100
AcDbVisualStyle
  2
Wireframe
 70
     5
177
     2
291
     0
 71
     0
176
     1
 72
     2
176
     1
 73
     0
176
     1
 90
        0
176
     1
 40
0.6
176
     1
 41
30.0
176
     1
 63
     7
421
 16777215
176
     1
 74
     1
176
     1
 91
        4
176
     1
 64
     7
176
     1
 65
   257
176
     1
 75
     1
176
     1
175
     1
176
     1
 42
1.0
176
     1
 92
        0
176
     1
 66
   257
176
     1
 43
1.0
176
     1
 76
     1
176
     1
 77
     6
176
     1
 78
     2
176
     1
 67
     7
176
     1
 79
     3
176
     1
170
     0
176
     1
171
     0
176
     1
290
     0
176
     1
 93
        1
176
     1
 44
0.0
176
     1
173
     0
176
     1
1001
ACAD
1000
AcDbSavedByObjectVersion
1070
     0
  0
VISUALSTYLE
  5
3C
102
{ACAD_XDICTIONARY
360
13F
102
}
102
{ACAD_REACTORS
330
29
102
}
330
29
100
AcDbVisualStyle
  2
X-Ray
 70
    25
177
     2
291
     0
 71
     2
176
     1
 72
     2
176
     1
 73
     1
176
     1
 90
        1
176
     1
 40
0.5
176
     1
 41
30.0
176
     1
 63
     7
421
 16777215
176
     1
 74
     1
176
     1
 91
        0
176
     1
 64
     7
176
     1
 65
   257
176
     1
 75
     1
176
     1
175
     1
176
     1
 42
1.0
176
     1
 92
        8
176
     1
 66
     7
176
     1
 43
1.0
176
     1
 76
     1
176
     1
 77
     6
176
     1
 78
     2
176
     1
 67
     7
176
     1
 79
     3
176
     1
170
     0
176
     1
171
     0
176
     1
290
     0
176
     1
 93
       13
176
     1
 44
0.0
176
     1
173
     0
176
     1
1001
ACAD
1000
AcDbSavedByObjectVersion
1070
     0
  0
DICTIONARYVAR
  5
117
102
{ACAD_REACTORS
330
112
102
}
330
112
100
DictionaryVariables
280
     0
  1
1:1
  0
DICTIONARYVAR
  5
114
102
{ACAD_REACTORS
330
112
102
}
330
112
100
DictionaryVariables
280
     0
  1
STANDARD
  0
DICTIONARYVAR
  5
113
102
{ACAD_REACTORS
330
112
102
}
330
112
100
DictionaryVariables
280
     0
  1
STANDARD
  0
DICTIONARYVAR
  5
115
102
{ACAD_REACTORS
330
112
102
}
330
112
100
DictionaryVariables
280
     0
  1
Imperial24
  0
DICTIONARYVAR
  5
116
102
{ACAD_REACTORS
330
112
102
}
330
112
100
DictionaryVariables
280
     0
  1
Imperial24
  0
DICTIONARY
  5
14F
330
6B
100
AcDbDictionary
280
     1
281
     1
  3
ACAD_XREC_ROUNDTRIP
360
150
  0
DICTIONARY
  5
1A
330
19
100
AcDbDictionary
280
     1
281
     1
  3
BUMPTILE
360
1C
  3
DIFFUSETILE
360
1B
  3
OPACITYTILE
360
1F
  3
REFLECTIONTILE
360
1E
  3
REFRACTIONTILE
360
20
  3
SPECULARTILE
360
1D
  0
DICTIONARY
  5
12
330
11
100
AcDbDictionary
280
     1
281
     1
  3
BUMPTILE
360
14
  3
DIFFUSETILE
360
13
  3
OPACITYTILE
360
17
  3
REFLECTIONTILE
360
16
  3
REFRACTIONTILE
360
18
  3
SPECULARTILE
360
15
  0
DICTIONARY
  5
22
330
21
100
AcDbDictionary
280
     1
281
     1
  3
BUMPTILE
360
24
  3
DIFFUSETILE
360
23
  3
OPACITYTILE
360
27
  3
REFLECTIONTILE
360
26
  3
REFRACTIONTILE
360
28
  3
SPECULARTILE
360
25
  0
DICTIONARY
  5
14B
330
67
100
AcDbDictionary
280
     1
281
     1
  3
ACAD_XREC_ROUNDTRIP
360
14C
  0
DICTIONARY
  5
14D
330
69
100
AcDbDictionary
280
     1
281
     1
  3
ACAD_XREC_ROUNDTRIP
360
14E
  0
DICTIONARY
  5
118
330
65
100
AcDbDictionary
280
     1
281
     1
  3
ACAD_ROUNDTRIP_2008_TABLESTYLE_CELLSTYLEMAP
360
119
  0
DICTIONARY
  5
125
330
2F
100
AcDbDictionary
280
     1
281
     1
  3
ACAD_XREC_ROUNDTRIP
360
126
  0
DICTIONARY
  5
123
330
2E
100
AcDbDictionary
280
     1
281
     1
  3
ACAD_XREC_ROUNDTRIP
360
124
  0
DICTIONARY
  5
131
330
35
100
AcDbDictionary
280
     1
281
     1
  3
ACAD_XREC_ROUNDTRIP
360
132
  0
DICTIONARY
  5
139
330
39
100
AcDbDictionary
280
     1
281
     1
  3
ACAD_XREC_ROUNDTRIP
360
13A
  0
DICTIONARY
  5
12B
330
32
100
AcDbDictionary
280
     1
281
     1
  3
ACAD_XREC_ROUNDTRIP
360
12C
  0
DICTIONARY
  5
12F
330
34
100
AcDbDictionary
280
     1
281
     1
  3
ACAD_XREC_ROUNDTRIP
360
130
  0
DICTIONARY
  5
149
330
41
100
AcDbDictionary
280
     1
281
     1
  3
ACAD_XREC_ROUNDTRIP
360
14A
  0
DICTIONARY
  5
137
330
38
100
AcDbDictionary
280
     1
281
     1
  3
ACAD_XREC_ROUNDTRIP
360
138
  0
DICTIONARY
  5
11B
330
2A
100
AcDbDictionary
280
     1
281
     1
  3
ACAD_XREC_ROUNDTRIP
360
11C
  0
DICTIONARY
  5
11D
330
2B
100
AcDbDictionary
280
     1
281
     1
  3
ACAD_XREC_ROUNDTRIP
360
11E
  0
DICTIONARY
  5
11F
330
2C
100
AcDbDictionary
280
     1
281
     1
  3
ACAD_XREC_ROUNDTRIP
360
120
  0
DICTIONARY
  5
121
330
2D
100
AcDbDictionary
280
     1
281
     1
  3
ACAD_XREC_ROUNDTRIP
360
122
  0
DICTIONARY
  5
129
330
31
100
AcDbDictionary
280
     1
281
     1
  3
ACAD_XREC_ROUNDTRIP
360
12A
  0
DICTIONARY
  5
145
330
3F
100
AcDbDictionary
280
     1
281
     1
  3
ACAD_XREC_ROUNDTRIP
360
146
  0
DICTIONARY
  5
135
330
37
100
AcDbDictionary
280
     1
281
     1
  3
ACAD_XREC_ROUNDTRIP
360
136
  0
DICTIONARY
  5
147
330
40
100
AcDbDictionary
280
     1
281
     1
  3
ACAD_XREC_ROUNDTRIP
360
148
  0
DICTIONARY
  5
12D
330
33
100
AcDbDictionary
280
     1
281
     1
  3
ACAD_XREC_ROUNDTRIP
360
12E
  0
DICTIONARY
  5
143
330
3E
100
AcDbDictionary
280
     1
281
     1
  3
ACAD_XREC_ROUNDTRIP
360
144
  0
DICTIONARY
  5
141
330
3D
100
AcDbDictionary
280
     1
281
     1
  3
ACAD_XREC_ROUNDTRIP
360
142
  0
DICTIONARY
  5
13B
330
3A
100
AcDbDictionary
280
     1
281
     1
  3
ACAD_XREC_ROUNDTRIP
360
13C
  0
DICTIONARY
  5
13D
330
3B
100
AcDbDictionary
280
     1
281
     1
  3
ACAD_XREC_ROUNDTRIP
360
13E
  0
DICTIONARY
  5
133
330
36
100
AcDbDictionary
280
     1
281
     1
  3
ACAD_XREC_ROUNDTRIP
360
134
  0
DICTIONARY
  5
127
330
30
100
AcDbDictionary
280
     1
281
     1
  3
ACAD_XREC_ROUNDTRIP
360
128
  0
DICTIONARY
  5
13F
330
3C
100
AcDbDictionary
280
     1
281
     1
  3
ACAD_XREC_ROUNDTRIP
360
140
  0
XRECORD
  5
150
102
{ACAD_REACTORS
330
14F
102
}
330
14F
100
AcDbXrecord
280
     1
102
DISPLAYNAME
  1
Imperial24
102
FLAGS
 90
        0
  0
XRECORD
  5
1C
102
{ACAD_REACTORS
330
1A
102
}
330
1A
100
AcDbXrecord
280
     1
270
     1
271
     1
  0
XRECORD
  5
1B
102
{ACAD_REACTORS
330
1A
102
}
330
1A
100
AcDbXrecord
280
     1
270
     1
271
     1
  0
XRECORD
  5
1F
102
{ACAD_REACTORS
330
1A
102
}
330
1A
100
AcDbXrecord
280
     1
270
     1
271
     1
  0
XRECORD
  5
1E
102
{ACAD_REACTORS
330
1A
102
}
330
1A
100
AcDbXrecord
280
     1
270
     1
271
     1
  0
XRECORD
  5
20
102
{ACAD_REACTORS
330
1A
102
}
330
1A
100
AcDbXrecord
280
     1
270
     1
271
     1
  0
XRECORD
  5
1D
102
{ACAD_REACTORS
330
1A
102
}
330
1A
100
AcDbXrecord
280
     1
270
     1
271
     1
  0
XRECORD
  5
14
102
{ACAD_REACTORS
330
12
102
}
330
12
100
AcDbXrecord
280
     1
270
     1
271
     1
  0
XRECORD
  5
13
102
{ACAD_REACTORS
330
12
102
}
330
12
100
AcDbXrecord
280
     1
270
     1
271
     1
  0
XRECORD
  5
17
102
{ACAD_REACTORS
330
12
102
}
330
12
100
AcDbXrecord
280
     1
270
     1
271
     1
  0
XRECORD
  5
16
102
{ACAD_REACTORS
330
12
102
}
330
12
100
AcDbXrecord
280
     1
270
     1
271
     1
  0
XRECORD
  5
18
102
{ACAD_REACTORS
330
12
102
}
330
12
100
AcDbXrecord
280
     1
270
     1
271
     1
  0
XRECORD
  5
15
102
{ACAD_REACTORS
330
12
102
}
330
12
100
AcDbXrecord
280
     1
270
     1
271
     1
  0
XRECORD
  5
24
102
{ACAD_REACTORS
330
22
102
}
330
22
100
AcDbXrecord
280
     1
270
     1
271
     1
  0
XRECORD
  5
23
102
{ACAD_REACTORS
330
22
102
}
330
22
100
AcDbXrecord
280
     1
270
     1
271
     1
  0
XRECORD
  5
27
102
{ACAD_REACTORS
330
22
102
}
330
22
100
AcDbXrecord
280
     1
270
     1
271
     1
  0
XRECORD
  5
26
102
{ACAD_REACTORS
330
22
102
}
330
22
100
AcDbXrecord
280
     1
270
     1
271
     1
  0
XRECORD
  5
28
102
{ACAD_REACTORS
330
22
102
}
330
22
100
AcDbXrecord
280
     1
270
     1
271
     1
  0
XRECORD
  5
25
102
{ACAD_REACTORS
330
22
102
}
330
22
100
AcDbXrecord
280
     1
270
     1
271
     1
  0
XRECORD
  5
14C
102
{ACAD_REACTORS
330
14B
102
}
330
14B
100
AcDbXrecord
280
     1
102
ACAD_ROUNDTRIP_2012_MLEADER_STYLE
298
     1
  0
XRECORD
  5
14E
102
{ACAD_REACTORS
330
14D
102
}
330
14D
100
AcDbXrecord
280
     1
102
DISPLAYNAME
  1
Imperial24
102
FLAGS
 90
        0
  0
CELLSTYLEMAP
  5
119
102
{ACAD_REACTORS
330
118
102
}
330
118
100
AcDbCellStyleMap
 90
        3
300
CELLSTYLE
  1
TABLEFORMAT_BEGIN
 90
        5
170
     1
 91
        0
 92
    32768
 62
   257
 93
        1
300
CONTENTFORMAT
  1
CONTENTFORMAT_BEGIN
 90
        0
 91
        0
 92
      512
 93
        0
300

 40
0.0
140
1.0
 94
        5
 62
     0
340
55
144
0.25
309
CONTENTFORMAT_END
171
     0
 94
        0
309
TABLEFORMAT_END
  1
CELLSTYLE_BEGIN
 90
        1
 91
        1
300
_TITLE
309
CELLSTYLE_END
300
CELLSTYLE
  1
TABLEFORMAT_BEGIN
 90
        5
170
     1
 91
        0
 92
        0
 62
   257
 93
        1
300
CONTENTFORMAT
  1
CONTENTFORMAT_BEGIN
 90
        0
 91
        0
 92
      512
 93
        0
300

 40
0.0
140
1.0
 94
        5
 62
     0
340
55
144
0.18
309
CONTENTFORMAT_END
171
     0
 94
        0
309
TABLEFORMAT_END
  1
CELLSTYLE_BEGIN
 90
        2
 91
        1
300
_HEADER
309
CELLSTYLE_END
300
CELLSTYLE
  1
TABLEFORMAT_BEGIN
 90
        5
170
     1
 91
        0
 92
        0
 62
   257
 93
        1
300
CONTENTFORMAT
  1
CONTENTFORMAT_BEGIN
 90
        0
 91
        0
 92
      512
 93
        0
300

 40
0.0
140
1.0
 94
        2
 62
     0
340
55
144
0.18
309
CONTENTFORMAT_END
171
     0
 94
        0
309
TABLEFORMAT_END
  1
CELLSTYLE_BEGIN
 90
        3
 91
        2
300
_DATA
309
CELLSTYLE_END
  0
XRECORD
  5
126
102
{ACAD_REACTORS
330
125
102
}
330
125
100
AcDbXrecord
280
     1
102
RTVSPost2010Prop28
280
     1
102
RTVSPost2010PropOp28
 70
     1
102
RTVSPost2010Prop29
280
     1
102
RTVSPost2010PropOp29
 70
     1
102
RTVSPost2010Prop30
280
     0
102
RTVSPost2010PropOp30
 70
     1
102
RTVSPost2010Prop31
280
     0
102
RTVSPost2010PropOp31
 70
     1
102
RTVSPost2010Prop32
280
     0
102
RTVSPost2010PropOp32
 70
     1
102
RTVSPost2010Prop33
280
     0
102
RTVSPost2010PropOp33
 70
     1
102
RTVSPost2010Prop34
280
     0
102
RTVSPost2010PropOp34
 70
     1
102
RTVSPost2010Prop35
280
     0
102
RTVSPost2010PropOp35
 70
     1
102
RTVSPost2010Prop36
280
     0
102
RTVSPost2010PropOp36
 70
     1
102
RTVSPost2010Prop37
 90
       50
102
RTVSPost2010PropOp37
 70
     1
102
RTVSPost2010Prop38
140
0.0
102
RTVSPost2010PropOp38
 70
     1
102
RTVSPost2010Prop39
140
1.0
102
RTVSPost2010PropOp39
 70
     1
102
RTVSPost2010Prop40
 90
        0
102
RTVSPost2010PropOp40
 70
     1
102
RTVSPost2010Prop41ColorIndex
 90
       18
102
RTVSPost2010Prop41ColorRGB
 90
        0
102
RTVSPost2010PropOp41
 70
     1
102
RTVSPost2010Prop42
 90
       50
102
RTVSPost2010PropOp42
 70
     1
102
RTVSPost2010Prop43
 90
        3
102
RTVSPost2010PropOp43
 70
     1
102
RTVSPost2010Prop44ColorIndex
 90
        5
102
RTVSPost2010Prop44ColorRGB
 90
      255
102
RTVSPost2010PropOp44
 70
     1
102
RTVSPost2010Prop45
280
     0
102
RTVSPost2010PropOp45
 70
     1
102
RTVSPost2010Prop46
 90
       50
102
RTVSPost2010PropOp46
 70
     1
102
RTVSPost2010Prop47
 90
       50
102
RTVSPost2010PropOp47
 70
     1
102
RTVSPost2010Prop48
 90
       50
102
RTVSPost2010PropOp48
 70
     1
102
RTVSPost2010Prop49
280
     0
102
RTVSPost2010PropOp49
 70
     1
102
RTVSPost2010Prop50
 90
       50
102
RTVSPost2010PropOp50
 70
     1
102
RTVSPost2010Prop51ColorIndex
 90
      256
102
RTVSPost2010Prop51ColorRGB
 90
-16777216
102
RTVSPost2010PropOp51
 70
     0
102
RTVSPost2010Prop52
140
1.0
102
RTVSPost2010PropOp52
 70
     0
102
RTVSPost2010Prop53
 90
        2
102
RTVSPost2010PropOp53
 70
     1
102
RTVSPost2010Prop54
  1
strokes_ogs.tif
102
RTVSPost2010PropOp54
 70
     1
102
RTVSPost2010Prop55
280
     0
102
RTVSPost2010PropOp55
 70
     1
102
RTVSPost2010Prop56
140
1.0
102
RTVSPost2010PropOp56
 70
     1
102
RTVSPost2010Prop57
140
1.0
102
RTVSPost2010PropOp57
 70
     1
  0
XRECORD
  5
124
102
{ACAD_REACTORS
330
123
102
}
330
123
100
AcDbXrecord
280
     1
102
RTVSPost2010Prop28
280
     0
102
RTVSPost2010PropOp28
 70
     1
102
RTVSPost2010Prop29
280
     1
102
RTVSPost2010PropOp29
 70
     1
102
RTVSPost2010Prop30
280
     1
102
RTVSPost2010PropOp30
 70
     1
102
RTVSPost2010Prop31
280
     0
102
RTVSPost2010PropOp31
 70
     1
102
RTVSPost2010Prop32
280
     0
102
RTVSPost2010PropOp32
 70
     1
102
RTVSPost2010Prop33
280
     0
102
RTVSPost2010PropOp33
 70
     1
102
RTVSPost2010Prop34
280
     0
102
RTVSPost2010PropOp34
 70
     1
102
RTVSPost2010Prop35
280
     0
102
RTVSPost2010PropOp35
 70
     1
102
RTVSPost2010Prop36
280
     0
102
RTVSPost2010PropOp36
 70
     1
102
RTVSPost2010Prop37
 90
       50
102
RTVSPost2010PropOp37
 70
     1
102
RTVSPost2010Prop38
140
0.0
102
RTVSPost2010PropOp38
 70
     1
102
RTVSPost2010Prop39
140
1.0
102
RTVSPost2010PropOp39
 70
     1
102
RTVSPost2010Prop40
 90
        0
102
RTVSPost2010PropOp40
 70
     1
102
RTVSPost2010Prop41ColorIndex
 90
       18
102
RTVSPost2010Prop41ColorRGB
 90
        0
102
RTVSPost2010PropOp41
 70
     1
102
RTVSPost2010Prop42
 90
       50
102
RTVSPost2010PropOp42
 70
     1
102
RTVSPost2010Prop43
 90
        3
102
RTVSPost2010PropOp43
 70
     1
102
RTVSPost2010Prop44ColorIndex
 90
        5
102
RTVSPost2010Prop44ColorRGB
 90
      255
102
RTVSPost2010PropOp44
 70
     1
102
RTVSPost2010Prop45
280
     0
102
RTVSPost2010PropOp45
 70
     1
102
RTVSPost2010Prop46
 90
       50
102
RTVSPost2010PropOp46
 70
     1
102
RTVSPost2010Prop47
 90
       50
102
RTVSPost2010PropOp47
 70
     1
102
RTVSPost2010Prop48
 90
       50
102
RTVSPost2010PropOp48
 70
     1
102
RTVSPost2010Prop49
280
     0
102
RTVSPost2010PropOp49
 70
     1
102
RTVSPost2010Prop50
 90
       50
102
RTVSPost2010PropOp50
 70
     1
102
RTVSPost2010Prop51ColorIndex
 90
      256
102
RTVSPost2010Prop51ColorRGB
 90
-16777216
102
RTVSPost2010PropOp51
 70
     0
102
RTVSPost2010Prop52
140
1.0
102
RTVSPost2010PropOp52
 70
     0
102
RTVSPost2010Prop53
 90
        2
102
RTVSPost2010PropOp53
 70
     1
102
RTVSPost2010Prop54
  1
strokes_ogs.tif
102
RTVSPost2010PropOp54
 70
     1
102
RTVSPost2010Prop55
280
     0
102
RTVSPost2010PropOp55
 70
     1
102
RTVSPost2010Prop56
140
1.0
102
RTVSPost2010PropOp56
 70
     1
102
RTVSPost2010Prop57
140
1.0
102
RTVSPost2010PropOp57
 70
     1
  0
XRECORD
  5
132
102
{ACAD_REACTORS
330
131
102
}
330
131
100
AcDbXrecord
280
     1
102
RTVSPost2010Prop28
280
     0
102
RTVSPost2010PropOp28
 70
     1
102
RTVSPost2010Prop29
280
     1
102
RTVSPost2010PropOp29
 70
     1
102
RTVSPost2010Prop30
280
     1
102
RTVSPost2010PropOp30
 70
     1
102
RTVSPost2010Prop31
280
     0
102
RTVSPost2010PropOp31
 70
     1
102
RTVSPost2010Prop32
280
     0
102
RTVSPost2010PropOp32
 70
     1
102
RTVSPost2010Prop33
280
     0
102
RTVSPost2010PropOp33
 70
     1
102
RTVSPost2010Prop34
280
     0
102
RTVSPost2010PropOp34
 70
     1
102
RTVSPost2010Prop35
280
     0
102
RTVSPost2010PropOp35
 70
     1
102
RTVSPost2010Prop36
280
     0
102
RTVSPost2010PropOp36
 70
     1
102
RTVSPost2010Prop37
 90
       50
102
RTVSPost2010PropOp37
 70
     1
102
RTVSPost2010Prop38
140
0.0
102
RTVSPost2010PropOp38
 70
     1
102
RTVSPost2010Prop39
140
1.0
102
RTVSPost2010PropOp39
 70
     1
102
RTVSPost2010Prop40
 90
        0
102
RTVSPost2010PropOp40
 70
     1
102
RTVSPost2010Prop41ColorIndex
 90
       18
102
RTVSPost2010Prop41ColorRGB
 90
        0
102
RTVSPost2010PropOp41
 70
     1
102
RTVSPost2010Prop42
 90
       50
102
RTVSPost2010PropOp42
 70
     1
102
RTVSPost2010Prop43
 90
        3
102
RTVSPost2010PropOp43
 70
     1
102
RTVSPost2010Prop44ColorIndex
 90
        5
102
RTVSPost2010Prop44ColorRGB
 90
      255
102
RTVSPost2010PropOp44
 70
     1
102
RTVSPost2010Prop45
280
     0
102
RTVSPost2010PropOp45
 70
     1
102
RTVSPost2010Prop46
 90
       50
102
RTVSPost2010PropOp46
 70
     1
102
RTVSPost2010Prop47
 90
       50
102
RTVSPost2010PropOp47
 70
     1
102
RTVSPost2010Prop48
 90
       50
102
RTVSPost2010PropOp48
 70
     1
102
RTVSPost2010Prop49
280
     0
102
RTVSPost2010PropOp49
 70
     1
102
RTVSPost2010Prop50
 90
       50
102
RTVSPost2010PropOp50
 70
     1
102
RTVSPost2010Prop51ColorIndex
 90
      256
102
RTVSPost2010Prop51ColorRGB
 90
-16777216
102
RTVSPost2010PropOp51
 70
     0
102
RTVSPost2010Prop52
140
1.0
102
RTVSPost2010PropOp52
 70
     0
102
RTVSPost2010Prop53
 90
        2
102
RTVSPost2010PropOp53
 70
     1
102
RTVSPost2010Prop54
  1
strokes_ogs.tif
102
RTVSPost2010PropOp54
 70
     1
102
RTVSPost2010Prop55
280
     0
102
RTVSPost2010PropOp55
 70
     1
102
RTVSPost2010Prop56
140
1.0
102
RTVSPost2010PropOp56
 70
     1
102
RTVSPost2010Prop57
140
1.0
102
RTVSPost2010PropOp57
 70
     1
  0
XRECORD
  5
13A
102
{ACAD_REACTORS
330
139
102
}
330
139
100
AcDbXrecord
280
     1
102
RTVSPost2010Prop28
280
     0
102
RTVSPost2010PropOp28
 70
     1
102
RTVSPost2010Prop29
280
     1
102
RTVSPost2010PropOp29
 70
     1
102
RTVSPost2010Prop30
280
     1
102
RTVSPost2010PropOp30
 70
     1
102
RTVSPost2010Prop31
280
     0
102
RTVSPost2010PropOp31
 70
     1
102
RTVSPost2010Prop32
280
     0
102
RTVSPost2010PropOp32
 70
     1
102
RTVSPost2010Prop33
280
     0
102
RTVSPost2010PropOp33
 70
     1
102
RTVSPost2010Prop34
280
     0
102
RTVSPost2010PropOp34
 70
     1
102
RTVSPost2010Prop35
280
     0
102
RTVSPost2010PropOp35
 70
     1
102
RTVSPost2010Prop36
280
     0
102
RTVSPost2010PropOp36
 70
     1
102
RTVSPost2010Prop37
 90
       50
102
RTVSPost2010PropOp37
 70
     1
102
RTVSPost2010Prop38
140
0.0
102
RTVSPost2010PropOp38
 70
     1
102
RTVSPost2010Prop39
140
1.0
102
RTVSPost2010PropOp39
 70
     1
102
RTVSPost2010Prop40
 90
        0
102
RTVSPost2010PropOp40
 70
     1
102
RTVSPost2010Prop41ColorIndex
 90
       18
102
RTVSPost2010Prop41ColorRGB
 90
        0
102
RTVSPost2010PropOp41
 70
     1
102
RTVSPost2010Prop42
 90
       50
102
RTVSPost2010PropOp42
 70
     1
102
RTVSPost2010Prop43
 90
        3
102
RTVSPost2010PropOp43
 70
     1
102
RTVSPost2010Prop44ColorIndex
 90
        5
102
RTVSPost2010Prop44ColorRGB
 90
      255
102
RTVSPost2010PropOp44
 70
     1
102
RTVSPost2010Prop45
280
     0
102
RTVSPost2010PropOp45
 70
     1
102
RTVSPost2010Prop46
 90
       50
102
RTVSPost2010PropOp46
 70
     1
102
RTVSPost2010Prop47
 90
       50
102
RTVSPost2010PropOp47
 70
     1
102
RTVSPost2010Prop48
 90
       50
102
RTVSPost2010PropOp48
 70
     1
102
RTVSPost2010Prop49
280
     0
102
RTVSPost2010PropOp49
 70
     1
102
RTVSPost2010Prop50
 90
       50
102
RTVSPost2010PropOp50
 70
     1
102
RTVSPost2010Prop51ColorIndex
 90
      256
102
RTVSPost2010Prop51ColorRGB
 90
-16777216
102
RTVSPost2010PropOp51
 70
     0
102
RTVSPost2010Prop52
140
1.0
102
RTVSPost2010PropOp52
 70
     0
102
RTVSPost2010Prop53
 90
        2
102
RTVSPost2010PropOp53
 70
     1
102
RTVSPost2010Prop54
  1
strokes_ogs.tif
102
RTVSPost2010PropOp54
 70
     1
102
RTVSPost2010Prop55
280
     0
102
RTVSPost2010PropOp55
 70
     1
102
RTVSPost2010Prop56
140
1.0
102
RTVSPost2010PropOp56
 70
     1
102
RTVSPost2010Prop57
140
1.0
102
RTVSPost2010PropOp57
 70
     1
  0
XRECORD
  5
12C
102
{ACAD_REACTORS
330
12B
102
}
330
12B
100
AcDbXrecord
280
     1
102
RTVSPost2010Prop28
280
     0
102
RTVSPost2010PropOp28
 70
     1
102
RTVSPost2010Prop29
280
     1
102
RTVSPost2010PropOp29
 70
     1
102
RTVSPost2010Prop30
280
     1
102
RTVSPost2010PropOp30
 70
     1
102
RTVSPost2010Prop31
280
     0
102
RTVSPost2010PropOp31
 70
     1
102
RTVSPost2010Prop32
280
     0
102
RTVSPost2010PropOp32
 70
     1
102
RTVSPost2010Prop33
280
     0
102
RTVSPost2010PropOp33
 70
     1
102
RTVSPost2010Prop34
280
     0
102
RTVSPost2010PropOp34
 70
     1
102
RTVSPost2010Prop35
280
     0
102
RTVSPost2010PropOp35
 70
     1
102
RTVSPost2010Prop36
280
     0
102
RTVSPost2010PropOp36
 70
     1
102
RTVSPost2010Prop37
 90
       50
102
RTVSPost2010PropOp37
 70
     1
102
RTVSPost2010Prop38
140
0.0
102
RTVSPost2010PropOp38
 70
     1
102
RTVSPost2010Prop39
140
1.0
102
RTVSPost2010PropOp39
 70
     1
102
RTVSPost2010Prop40
 90
        0
102
RTVSPost2010PropOp40
 70
     1
102
RTVSPost2010Prop41ColorIndex
 90
       18
102
RTVSPost2010Prop41ColorRGB
 90
        0
102
RTVSPost2010PropOp41
 70
     1
102
RTVSPost2010Prop42
 90
       50
102
RTVSPost2010PropOp42
 70
     1
102
RTVSPost2010Prop43
 90
        3
102
RTVSPost2010PropOp43
 70
     1
102
RTVSPost2010Prop44ColorIndex
 90
        5
102
RTVSPost2010Prop44ColorRGB
 90
      255
102
RTVSPost2010PropOp44
 70
     1
102
RTVSPost2010Prop45
280
     0
102
RTVSPost2010PropOp45
 70
     1
102
RTVSPost2010Prop46
 90
       50
102
RTVSPost2010PropOp46
 70
     1
102
RTVSPost2010Prop47
 90
       50
102
RTVSPost2010PropOp47
 70
     1
102
RTVSPost2010Prop48
 90
       50
102
RTVSPost2010PropOp48
 70
     1
102
RTVSPost2010Prop49
280
     0
102
RTVSPost2010PropOp49
 70
     1
102
RTVSPost2010Prop50
 90
       50
102
RTVSPost2010PropOp50
 70
     1
102
RTVSPost2010Prop51ColorIndex
 90
      256
102
RTVSPost2010Prop51ColorRGB
 90
-16777216
102
RTVSPost2010PropOp51
 70
     0
102
RTVSPost2010Prop52
140
1.0
102
RTVSPost2010PropOp52
 70
     0
102
RTVSPost2010Prop53
 90
        2
102
RTVSPost2010PropOp53
 70
     1
102
RTVSPost2010Prop54
  1
strokes_ogs.tif
102
RTVSPost2010PropOp54
 70
     1
102
RTVSPost2010Prop55
280
     0
102
RTVSPost2010PropOp55
 70
     1
102
RTVSPost2010Prop56
140
1.0
102
RTVSPost2010PropOp56
 70
     1
102
RTVSPost2010Prop57
140
1.0
102
RTVSPost2010PropOp57
 70
     1
  0
XRECORD
  5
130
102
{ACAD_REACTORS
330
12F
102
}
330
12F
100
AcDbXrecord
280
     1
102
RTVSPost2010Prop28
280
     0
102
RTVSPost2010PropOp28
 70
     1
102
RTVSPost2010Prop29
280
     1
102
RTVSPost2010PropOp29
 70
     1
102
RTVSPost2010Prop30
280
     1
102
RTVSPost2010PropOp30
 70
     1
102
RTVSPost2010Prop31
280
     0
102
RTVSPost2010PropOp31
 70
     1
102
RTVSPost2010Prop32
280
     0
102
RTVSPost2010PropOp32
 70
     1
102
RTVSPost2010Prop33
280
     0
102
RTVSPost2010PropOp33
 70
     1
102
RTVSPost2010Prop34
280
     0
102
RTVSPost2010PropOp34
 70
     1
102
RTVSPost2010Prop35
280
     0
102
RTVSPost2010PropOp35
 70
     1
102
RTVSPost2010Prop36
280
     0
102
RTVSPost2010PropOp36
 70
     1
102
RTVSPost2010Prop37
 90
       50
102
RTVSPost2010PropOp37
 70
     1
102
RTVSPost2010Prop38
140
0.0
102
RTVSPost2010PropOp38
 70
     1
102
RTVSPost2010Prop39
140
1.0
102
RTVSPost2010PropOp39
 70
     1
102
RTVSPost2010Prop40
 90
        0
102
RTVSPost2010PropOp40
 70
     1
102
RTVSPost2010Prop41ColorIndex
 90
       18
102
RTVSPost2010Prop41ColorRGB
 90
        0
102
RTVSPost2010PropOp41
 70
     1
102
RTVSPost2010Prop42
 90
       50
102
RTVSPost2010PropOp42
 70
     1
102
RTVSPost2010Prop43
 90
        3
102
RTVSPost2010PropOp43
 70
     1
102
RTVSPost2010Prop44ColorIndex
 90
        5
102
RTVSPost2010Prop44ColorRGB
 90
      255
102
RTVSPost2010PropOp44
 70
     1
102
RTVSPost2010Prop45
280
     0
102
RTVSPost2010PropOp45
 70
     1
102
RTVSPost2010Prop46
 90
       50
102
RTVSPost2010PropOp46
 70
     1
102
RTVSPost2010Prop47
 90
       50
102
RTVSPost2010PropOp47
 70
     1
102
RTVSPost2010Prop48
 90
       50
102
RTVSPost2010PropOp48
 70
     1
102
RTVSPost2010Prop49
280
     0
102
RTVSPost2010PropOp49
 70
     1
102
RTVSPost2010Prop50
 90
       50
102
RTVSPost2010PropOp50
 70
     1
102
RTVSPost2010Prop51ColorIndex
 90
      256
102
RTVSPost2010Prop51ColorRGB
 90
-16777216
102
RTVSPost2010PropOp51
 70
     0
102
RTVSPost2010Prop52
140
1.0
102
RTVSPost2010PropOp52
 70
     0
102
RTVSPost2010Prop53
 90
        2
102
RTVSPost2010PropOp53
 70
     1
102
RTVSPost2010Prop54
  1
strokes_ogs.tif
102
RTVSPost2010PropOp54
 70
     1
102
RTVSPost2010Prop55
280
     0
102
RTVSPost2010PropOp55
 70
     1
102
RTVSPost2010Prop56
140
1.0
102
RTVSPost2010PropOp56
 70
     1
102
RTVSPost2010Prop57
140
1.0
102
RTVSPost2010PropOp57
 70
     1
  0
XRECORD
  5
14A
102
{ACAD_REACTORS
330
149
102
}
330
149
100
AcDbXrecord
280
     1
102
RTVSPost2010Prop28
280
     0
102
RTVSPost2010PropOp28
 70
     0
102
RTVSPost2010Prop29
280
     1
102
RTVSPost2010PropOp29
 70
     0
102
RTVSPost2010Prop30
280
     1
102
RTVSPost2010PropOp30
 70
     0
102
RTVSPost2010Prop31
280
     0
102
RTVSPost2010PropOp31
 70
     0
102
RTVSPost2010Prop32
280
     0
102
RTVSPost2010PropOp32
 70
     0
102
RTVSPost2010Prop33
280
     0
102
RTVSPost2010PropOp33
 70
     0
102
RTVSPost2010Prop34
280
     0
102
RTVSPost2010PropOp34
 70
     0
102
RTVSPost2010Prop35
280
     0
102
RTVSPost2010PropOp35
 70
     0
102
RTVSPost2010Prop36
280
     0
102
RTVSPost2010PropOp36
 70
     0
102
RTVSPost2010Prop37
 90
       50
102
RTVSPost2010PropOp37
 70
     0
102
RTVSPost2010Prop38
140
0.0
102
RTVSPost2010PropOp38
 70
     0
102
RTVSPost2010Prop39
140
1.0
102
RTVSPost2010PropOp39
 70
     0
102
RTVSPost2010Prop40
 90
        0
102
RTVSPost2010PropOp40
 70
     0
102
RTVSPost2010Prop41ColorIndex
 90
       18
102
RTVSPost2010Prop41ColorRGB
 90
        0
102
RTVSPost2010PropOp41
 70
     0
102
RTVSPost2010Prop42
 90
       50
102
RTVSPost2010PropOp42
 70
     0
102
RTVSPost2010Prop43
 90
        3
102
RTVSPost2010PropOp43
 70
     0
102
RTVSPost2010Prop44ColorIndex
 90
        5
102
RTVSPost2010Prop44ColorRGB
 90
      255
102
RTVSPost2010PropOp44
 70
     0
102
RTVSPost2010Prop45
280
     0
102
RTVSPost2010PropOp45
 70
     0
102
RTVSPost2010Prop46
 90
       50
102
RTVSPost2010PropOp46
 70
     0
102
RTVSPost2010Prop47
 90
       50
102
RTVSPost2010PropOp47
 70
     0
102
RTVSPost2010Prop48
 90
       50
102
RTVSPost2010PropOp48
 70
     0
102
RTVSPost2010Prop49
280
     0
102
RTVSPost2010PropOp49
 70
     0
102
RTVSPost2010Prop50
 90
       50
102
RTVSPost2010PropOp50
 70
     0
102
RTVSPost2010Prop51ColorIndex
 90
      256
102
RTVSPost2010Prop51ColorRGB
 90
-16777216
102
RTVSPost2010PropOp51
 70
     0
102
RTVSPost2010Prop52
140
1.0
102
RTVSPost2010PropOp52
 70
     0
102
RTVSPost2010Prop53
 90
        2
102
RTVSPost2010PropOp53
 70
     0
102
RTVSPost2010Prop54
  1
strokes_ogs.tif
102
RTVSPost2010PropOp54
 70
     0
102
RTVSPost2010Prop55
280
     0
102
RTVSPost2010PropOp55
 70
     0
102
RTVSPost2010Prop56
140
1.0
102
RTVSPost2010PropOp56
 70
     0
102
RTVSPost2010Prop57
140
1.0
102
RTVSPost2010PropOp57
 70
     0
  0
XRECORD
  5
138
102
{ACAD_REACTORS
330
137
102
}
330
137
100
AcDbXrecord
280
     1
102
RTVSPost2010Prop28
280
     0
102
RTVSPost2010PropOp28
 70
     1
102
RTVSPost2010Prop29
280
     1
102
RTVSPost2010PropOp29
 70
     1
102
RTVSPost2010Prop30
280
     1
102
RTVSPost2010PropOp30
 70
     1
102
RTVSPost2010Prop31
280
     0
102
RTVSPost2010PropOp31
 70
     1
102
RTVSPost2010Prop32
280
     0
102
RTVSPost2010PropOp32
 70
     1
102
RTVSPost2010Prop33
280
     0
102
RTVSPost2010PropOp33
 70
     1
102
RTVSPost2010Prop34
280
     0
102
RTVSPost2010PropOp34
 70
     1
102
RTVSPost2010Prop35
280
     0
102
RTVSPost2010PropOp35
 70
     1
102
RTVSPost2010Prop36
280
     0
102
RTVSPost2010PropOp36
 70
     1
102
RTVSPost2010Prop37
 90
       50
102
RTVSPost2010PropOp37
 70
     1
102
RTVSPost2010Prop38
140
0.0
102
RTVSPost2010PropOp38
 70
     1
102
RTVSPost2010Prop39
140
1.0
102
RTVSPost2010PropOp39
 70
     1
102
RTVSPost2010Prop40
 90
        0
102
RTVSPost2010PropOp40
 70
     1
102
RTVSPost2010Prop41ColorIndex
 90
       18
102
RTVSPost2010Prop41ColorRGB
 90
        0
102
RTVSPost2010PropOp41
 70
     1
102
RTVSPost2010Prop42
 90
       50
102
RTVSPost2010PropOp42
 70
     1
102
RTVSPost2010Prop43
 90
        3
102
RTVSPost2010PropOp43
 70
     1
102
RTVSPost2010Prop44ColorIndex
 90
        5
102
RTVSPost2010Prop44ColorRGB
 90
      255
102
RTVSPost2010PropOp44
 70
     1
102
RTVSPost2010Prop45
280
     0
102
RTVSPost2010PropOp45
 70
     1
102
RTVSPost2010Prop46
 90
       50
102
RTVSPost2010PropOp46
 70
     1
102
RTVSPost2010Prop47
 90
       50
102
RTVSPost2010PropOp47
 70
     1
102
RTVSPost2010Prop48
 90
       50
102
RTVSPost2010PropOp48
 70
     1
102
RTVSPost2010Prop49
280
     0
102
RTVSPost2010PropOp49
 70
     1
102
RTVSPost2010Prop50
 90
       50
102
RTVSPost2010PropOp50
 70
     1
102
RTVSPost2010Prop51ColorIndex
 90
      256
102
RTVSPost2010Prop51ColorRGB
 90
-16777216
102
RTVSPost2010PropOp51
 70
     0
102
RTVSPost2010Prop52
140
1.0
102
RTVSPost2010PropOp52
 70
     0
102
RTVSPost2010Prop53
 90
        2
102
RTVSPost2010PropOp53
 70
     1
102
RTVSPost2010Prop54
  1
strokes_ogs.tif
102
RTVSPost2010PropOp54
 70
     1
102
RTVSPost2010Prop55
280
     0
102
RTVSPost2010PropOp55
 70
     1
102
RTVSPost2010Prop56
140
1.0
102
RTVSPost2010PropOp56
 70
     1
102
RTVSPost2010Prop57
140
1.0
102
RTVSPost2010PropOp57
 70
     1
  0
XRECORD
  5
11C
102
{ACAD_REACTORS
330
11B
102
}
330
11B
100
AcDbXrecord
280
     1
102
RTVSPost2010Prop28
280
     0
102
RTVSPost2010PropOp28
 70
     1
102
RTVSPost2010Prop29
280
     1
102
RTVSPost2010PropOp29
 70
     1
102
RTVSPost2010Prop30
280
     1
102
RTVSPost2010PropOp30
 70
     1
102
RTVSPost2010Prop31
280
     0
102
RTVSPost2010PropOp31
 70
     1
102
RTVSPost2010Prop32
280
     0
102
RTVSPost2010PropOp32
 70
     1
102
RTVSPost2010Prop33
280
     0
102
RTVSPost2010PropOp33
 70
     1
102
RTVSPost2010Prop34
280
     0
102
RTVSPost2010PropOp34
 70
     1
102
RTVSPost2010Prop35
280
     0
102
RTVSPost2010PropOp35
 70
     1
102
RTVSPost2010Prop36
280
     0
102
RTVSPost2010PropOp36
 70
     1
102
RTVSPost2010Prop37
 90
       50
102
RTVSPost2010PropOp37
 70
     1
102
RTVSPost2010Prop38
140
0.0
102
RTVSPost2010PropOp38
 70
     1
102
RTVSPost2010Prop39
140
1.0
102
RTVSPost2010PropOp39
 70
     1
102
RTVSPost2010Prop40
 90
        0
102
RTVSPost2010PropOp40
 70
     1
102
RTVSPost2010Prop41ColorIndex
 90
       18
102
RTVSPost2010Prop41ColorRGB
 90
        0
102
RTVSPost2010PropOp41
 70
     1
102
RTVSPost2010Prop42
 90
       50
102
RTVSPost2010PropOp42
 70
     1
102
RTVSPost2010Prop43
 90
        3
102
RTVSPost2010PropOp43
 70
     1
102
RTVSPost2010Prop44ColorIndex
 90
        5
102
RTVSPost2010Prop44ColorRGB
 90
      255
102
RTVSPost2010PropOp44
 70
     1
102
RTVSPost2010Prop45
280
     0
102
RTVSPost2010PropOp45
 70
     1
102
RTVSPost2010Prop46
 90
       50
102
RTVSPost2010PropOp46
 70
     1
102
RTVSPost2010Prop47
 90
       50
102
RTVSPost2010PropOp47
 70
     1
102
RTVSPost2010Prop48
 90
       50
102
RTVSPost2010PropOp48
 70
     1
102
RTVSPost2010Prop49
280
     0
102
RTVSPost2010PropOp49
 70
     1
102
RTVSPost2010Prop50
 90
       50
102
RTVSPost2010PropOp50
 70
     1
102
RTVSPost2010Prop51ColorIndex
 90
      256
102
RTVSPost2010Prop51ColorRGB
 90
-16777216
102
RTVSPost2010PropOp51
 70
     0
102
RTVSPost2010Prop52
140
1.0
102
RTVSPost2010PropOp52
 70
     0
102
RTVSPost2010Prop53
 90
        2
102
RTVSPost2010PropOp53
 70
     1
102
RTVSPost2010Prop54
  1
strokes_ogs.tif
102
RTVSPost2010PropOp54
 70
     1
102
RTVSPost2010Prop55
280
     0
102
RTVSPost2010PropOp55
 70
     1
102
RTVSPost2010Prop56
140
1.0
102
RTVSPost2010PropOp56
 70
     1
102
RTVSPost2010Prop57
140
1.0
102
RTVSPost2010PropOp57
 70
     1
  0
XRECORD
  5
11E
102
{ACAD_REACTORS
330
11D
102
}
330
11D
100
AcDbXrecord
280
     1
102
RTVSPost2010Prop28
280
     0
102
RTVSPost2010PropOp28
 70
     1
102
RTVSPost2010Prop29
280
     1
102
RTVSPost2010PropOp29
 70
     1
102
RTVSPost2010Prop30
280
     1
102
RTVSPost2010PropOp30
 70
     1
102
RTVSPost2010Prop31
280
     0
102
RTVSPost2010PropOp31
 70
     1
102
RTVSPost2010Prop32
280
     0
102
RTVSPost2010PropOp32
 70
     1
102
RTVSPost2010Prop33
280
     0
102
RTVSPost2010PropOp33
 70
     1
102
RTVSPost2010Prop34
280
     0
102
RTVSPost2010PropOp34
 70
     1
102
RTVSPost2010Prop35
280
     0
102
RTVSPost2010PropOp35
 70
     1
102
RTVSPost2010Prop36
280
     0
102
RTVSPost2010PropOp36
 70
     1
102
RTVSPost2010Prop37
 90
       50
102
RTVSPost2010PropOp37
 70
     1
102
RTVSPost2010Prop38
140
0.0
102
RTVSPost2010PropOp38
 70
     1
102
RTVSPost2010Prop39
140
1.0
102
RTVSPost2010PropOp39
 70
     1
102
RTVSPost2010Prop40
 90
        0
102
RTVSPost2010PropOp40
 70
     1
102
RTVSPost2010Prop41ColorIndex
 90
       18
102
RTVSPost2010Prop41ColorRGB
 90
        0
102
RTVSPost2010PropOp41
 70
     1
102
RTVSPost2010Prop42
 90
       50
102
RTVSPost2010PropOp42
 70
     1
102
RTVSPost2010Prop43
 90
        3
102
RTVSPost2010PropOp43
 70
     1
102
RTVSPost2010Prop44ColorIndex
 90
        5
102
RTVSPost2010Prop44ColorRGB
 90
      255
102
RTVSPost2010PropOp44
 70
     1
102
RTVSPost2010Prop45
280
     0
102
RTVSPost2010PropOp45
 70
     1
102
RTVSPost2010Prop46
 90
       50
102
RTVSPost2010PropOp46
 70
     1
102
RTVSPost2010Prop47
 90
       50
102
RTVSPost2010PropOp47
 70
     1
102
RTVSPost2010Prop48
 90
       50
102
RTVSPost2010PropOp48
 70
     1
102
RTVSPost2010Prop49
280
     0
102
RTVSPost2010PropOp49
 70
     1
102
RTVSPost2010Prop50
 90
       50
102
RTVSPost2010PropOp50
 70
     1
102
RTVSPost2010Prop51ColorIndex
 90
      256
102
RTVSPost2010Prop51ColorRGB
 90
-16777216
102
RTVSPost2010PropOp51
 70
     0
102
RTVSPost2010Prop52
140
1.0
102
RTVSPost2010PropOp52
 70
     0
102
RTVSPost2010Prop53
 90
        2
102
RTVSPost2010PropOp53
 70
     1
102
RTVSPost2010Prop54
  1
strokes_ogs.tif
102
RTVSPost2010PropOp54
 70
     1
102
RTVSPost2010Prop55
280
     0
102
RTVSPost2010PropOp55
 70
     1
102
RTVSPost2010Prop56
140
1.0
102
RTVSPost2010PropOp56
 70
     1
102
RTVSPost2010Prop57
140
1.0
102
RTVSPost2010PropOp57
 70
     1
  0
XRECORD
  5
120
102
{ACAD_REACTORS
330
11F
102
}
330
11F
100
AcDbXrecord
280
     1
102
RTVSPost2010Prop28
280
     0
102
RTVSPost2010PropOp28
 70
     1
102
RTVSPost2010Prop29
280
     1
102
RTVSPost2010PropOp29
 70
     1
102
RTVSPost2010Prop30
280
     1
102
RTVSPost2010PropOp30
 70
     1
102
RTVSPost2010Prop31
280
     0
102
RTVSPost2010PropOp31
 70
     1
102
RTVSPost2010Prop32
280
     0
102
RTVSPost2010PropOp32
 70
     1
102
RTVSPost2010Prop33
280
     0
102
RTVSPost2010PropOp33
 70
     1
102
RTVSPost2010Prop34
280
     0
102
RTVSPost2010PropOp34
 70
     1
102
RTVSPost2010Prop35
280
     0
102
RTVSPost2010PropOp35
 70
     1
102
RTVSPost2010Prop36
280
     0
102
RTVSPost2010PropOp36
 70
     1
102
RTVSPost2010Prop37
 90
       50
102
RTVSPost2010PropOp37
 70
     1
102
RTVSPost2010Prop38
140
0.0
102
RTVSPost2010PropOp38
 70
     1
102
RTVSPost2010Prop39
140
1.0
102
RTVSPost2010PropOp39
 70
     1
102
RTVSPost2010Prop40
 90
        0
102
RTVSPost2010PropOp40
 70
     1
102
RTVSPost2010Prop41ColorIndex
 90
       18
102
RTVSPost2010Prop41ColorRGB
 90
        0
102
RTVSPost2010PropOp41
 70
     1
102
RTVSPost2010Prop42
 90
       50
102
RTVSPost2010PropOp42
 70
     1
102
RTVSPost2010Prop43
 90
        3
102
RTVSPost2010PropOp43
 70
     1
102
RTVSPost2010Prop44ColorIndex
 90
        5
102
RTVSPost2010Prop44ColorRGB
 90
      255
102
RTVSPost2010PropOp44
 70
     1
102
RTVSPost2010Prop45
280
     0
102
RTVSPost2010PropOp45
 70
     1
102
RTVSPost2010Prop46
 90
       50
102
RTVSPost2010PropOp46
 70
     1
102
RTVSPost2010Prop47
 90
       50
102
RTVSPost2010PropOp47
 70
     1
102
RTVSPost2010Prop48
 90
       50
102
RTVSPost2010PropOp48
 70
     1
102
RTVSPost2010Prop49
280
     0
102
RTVSPost2010PropOp49
 70
     1
102
RTVSPost2010Prop50
 90
       50
102
RTVSPost2010PropOp50
 70
     1
102
RTVSPost2010Prop51ColorIndex
 90
      256
102
RTVSPost2010Prop51ColorRGB
 90
-16777216
102
RTVSPost2010PropOp51
 70
     0
102
RTVSPost2010Prop52
140
1.0
102
RTVSPost2010PropOp52
 70
     0
102
RTVSPost2010Prop53
 90
        2
102
RTVSPost2010PropOp53
 70
     1
102
RTVSPost2010Prop54
  1
strokes_ogs.tif
102
RTVSPost2010PropOp54
 70
     1
102
RTVSPost2010Prop55
280
     0
102
RTVSPost2010PropOp55
 70
     1
102
RTVSPost2010Prop56
140
1.0
102
RTVSPost2010PropOp56
 70
     1
102
RTVSPost2010Prop57
140
1.0
102
RTVSPost2010PropOp57
 70
     1
  0
XRECORD
  5
122
102
{ACAD_REACTORS
330
121
102
}
330
121
100
AcDbXrecord
280
     1
102
RTVSPost2010Prop28
280
     0
102
RTVSPost2010PropOp28
 70
     1
102
RTVSPost2010Prop29
280
     1
102
RTVSPost2010PropOp29
 70
     1
102
RTVSPost2010Prop30
280
     1
102
RTVSPost2010PropOp30
 70
     1
102
RTVSPost2010Prop31
280
     0
102
RTVSPost2010PropOp31
 70
     1
102
RTVSPost2010Prop32
280
     0
102
RTVSPost2010PropOp32
 70
     1
102
RTVSPost2010Prop33
280
     0
102
RTVSPost2010PropOp33
 70
     1
102
RTVSPost2010Prop34
280
     0
102
RTVSPost2010PropOp34
 70
     1
102
RTVSPost2010Prop35
280
     0
102
RTVSPost2010PropOp35
 70
     1
102
RTVSPost2010Prop36
280
     0
102
RTVSPost2010PropOp36
 70
     1
102
RTVSPost2010Prop37
 90
       50
102
RTVSPost2010PropOp37
 70
     1
102
RTVSPost2010Prop38
140
0.0
102
RTVSPost2010PropOp38
 70
     1
102
RTVSPost2010Prop39
140
1.0
102
RTVSPost2010PropOp39
 70
     1
102
RTVSPost2010Prop40
 90
        0
102
RTVSPost2010PropOp40
 70
     1
102
RTVSPost2010Prop41ColorIndex
 90
       18
102
RTVSPost2010Prop41ColorRGB
 90
        0
102
RTVSPost2010PropOp41
 70
     1
102
RTVSPost2010Prop42
 90
       50
102
RTVSPost2010PropOp42
 70
     1
102
RTVSPost2010Prop43
 90
        3
102
RTVSPost2010PropOp43
 70
     1
102
RTVSPost2010Prop44ColorIndex
 90
        5
102
RTVSPost2010Prop44ColorRGB
 90
      255
102
RTVSPost2010PropOp44
 70
     1
102
RTVSPost2010Prop45
280
     0
102
RTVSPost2010PropOp45
 70
     1
102
RTVSPost2010Prop46
 90
       50
102
RTVSPost2010PropOp46
 70
     1
102
RTVSPost2010Prop47
 90
       50
102
RTVSPost2010PropOp47
 70
     1
102
RTVSPost2010Prop48
 90
       50
102
RTVSPost2010PropOp48
 70
     1
102
RTVSPost2010Prop49
280
     0
102
RTVSPost2010PropOp49
 70
     1
102
RTVSPost2010Prop50
 90
       50
102
RTVSPost2010PropOp50
 70
     1
102
RTVSPost2010Prop51ColorIndex
 90
      256
102
RTVSPost2010Prop51ColorRGB
 90
-16777216
102
RTVSPost2010PropOp51
 70
     0
102
RTVSPost2010Prop52
140
1.0
102
RTVSPost2010PropOp52
 70
     0
102
RTVSPost2010Prop53
 90
        2
102
RTVSPost2010PropOp53
 70
     1
102
RTVSPost2010Prop54
  1
strokes_ogs.tif
102
RTVSPost2010PropOp54
 70
     1
102
RTVSPost2010Prop55
280
     0
102
RTVSPost2010PropOp55
 70
     1
102
RTVSPost2010Prop56
140
1.0
102
RTVSPost2010PropOp56
 70
     1
102
RTVSPost2010Prop57
140
1.0
102
RTVSPost2010PropOp57
 70
     1
  0
XRECORD
  5
12A
102
{ACAD_REACTORS
330
129
102
}
330
129
100
AcDbXrecord
280
     1
102
RTVSPost2010Prop28
280
     0
102
RTVSPost2010PropOp28
 70
     1
102
RTVSPost2010Prop29
280
     1
102
RTVSPost2010PropOp29
 70
     1
102
RTVSPost2010Prop30
280
     1
102
RTVSPost2010PropOp30
 70
     1
102
RTVSPost2010Prop31
280
     0
102
RTVSPost2010PropOp31
 70
     1
102
RTVSPost2010Prop32
280
     0
102
RTVSPost2010PropOp32
 70
     1
102
RTVSPost2010Prop33
280
     0
102
RTVSPost2010PropOp33
 70
     1
102
RTVSPost2010Prop34
280
     0
102
RTVSPost2010PropOp34
 70
     1
102
RTVSPost2010Prop35
280
     0
102
RTVSPost2010PropOp35
 70
     1
102
RTVSPost2010Prop36
280
     0
102
RTVSPost2010PropOp36
 70
     1
102
RTVSPost2010Prop37
 90
       50
102
RTVSPost2010PropOp37
 70
     1
102
RTVSPost2010Prop38
140
0.0
102
RTVSPost2010PropOp38
 70
     1
102
RTVSPost2010Prop39
140
1.0
102
RTVSPost2010PropOp39
 70
     1
102
RTVSPost2010Prop40
 90
        0
102
RTVSPost2010PropOp40
 70
     1
102
RTVSPost2010Prop41ColorIndex
 90
       18
102
RTVSPost2010Prop41ColorRGB
 90
        0
102
RTVSPost2010PropOp41
 70
     1
102
RTVSPost2010Prop42
 90
       50
102
RTVSPost2010PropOp42
 70
     1
102
RTVSPost2010Prop43
 90
        3
102
RTVSPost2010PropOp43
 70
     1
102
RTVSPost2010Prop44ColorIndex
 90
        5
102
RTVSPost2010Prop44ColorRGB
 90
      255
102
RTVSPost2010PropOp44
 70
     1
102
RTVSPost2010Prop45
280
     0
102
RTVSPost2010PropOp45
 70
     1
102
RTVSPost2010Prop46
 90
       50
102
RTVSPost2010PropOp46
 70
     1
102
RTVSPost2010Prop47
 90
       50
102
RTVSPost2010PropOp47
 70
     1
102
RTVSPost2010Prop48
 90
       50
102
RTVSPost2010PropOp48
 70
     1
102
RTVSPost2010Prop49
280
     0
102
RTVSPost2010PropOp49
 70
     1
102
RTVSPost2010Prop50
 90
       50
102
RTVSPost2010PropOp50
 70
     1
102
RTVSPost2010Prop51ColorIndex
 90
      256
102
RTVSPost2010Prop51ColorRGB
 90
-16777216
102
RTVSPost2010PropOp51
 70
     0
102
RTVSPost2010Prop52
140
1.0
102
RTVSPost2010PropOp52
 70
     0
102
RTVSPost2010Prop53
 90
        2
102
RTVSPost2010PropOp53
 70
     1
102
RTVSPost2010Prop54
  1
strokes_ogs.tif
102
RTVSPost2010PropOp54
 70
     1
102
RTVSPost2010Prop55
280
     0
102
RTVSPost2010PropOp55
 70
     1
102
RTVSPost2010Prop56
140
1.0
102
RTVSPost2010PropOp56
 70
     1
102
RTVSPost2010Prop57
140
1.0
102
RTVSPost2010PropOp57
 70
     1
  0
XRECORD
  5
146
102
{ACAD_REACTORS
330
145
102
}
330
145
100
AcDbXrecord
280
     1
102
RTVSPost2010Prop28
280
     0
102
RTVSPost2010PropOp28
 70
     0
102
RTVSPost2010Prop29
280
     1
102
RTVSPost2010PropOp29
 70
     0
102
RTVSPost2010Prop30
280
     1
102
RTVSPost2010PropOp30
 70
     0
102
RTVSPost2010Prop31
280
     0
102
RTVSPost2010PropOp31
 70
     0
102
RTVSPost2010Prop32
280
     0
102
RTVSPost2010PropOp32
 70
     0
102
RTVSPost2010Prop33
280
     0
102
RTVSPost2010PropOp33
 70
     0
102
RTVSPost2010Prop34
280
     0
102
RTVSPost2010PropOp34
 70
     0
102
RTVSPost2010Prop35
280
     0
102
RTVSPost2010PropOp35
 70
     0
102
RTVSPost2010Prop36
280
     0
102
RTVSPost2010PropOp36
 70
     0
102
RTVSPost2010Prop37
 90
       50
102
RTVSPost2010PropOp37
 70
     0
102
RTVSPost2010Prop38
140
0.0
102
RTVSPost2010PropOp38
 70
     0
102
RTVSPost2010Prop39
140
1.0
102
RTVSPost2010PropOp39
 70
     0
102
RTVSPost2010Prop40
 90
        0
102
RTVSPost2010PropOp40
 70
     0
102
RTVSPost2010Prop41ColorIndex
 90
       18
102
RTVSPost2010Prop41ColorRGB
 90
        0
102
RTVSPost2010PropOp41
 70
     0
102
RTVSPost2010Prop42
 90
       50
102
RTVSPost2010PropOp42
 70
     0
102
RTVSPost2010Prop43
 90
        3
102
RTVSPost2010PropOp43
 70
     0
102
RTVSPost2010Prop44ColorIndex
 90
        5
102
RTVSPost2010Prop44ColorRGB
 90
      255
102
RTVSPost2010PropOp44
 70
     0
102
RTVSPost2010Prop45
280
     0
102
RTVSPost2010PropOp45
 70
     0
102
RTVSPost2010Prop46
 90
       50
102
RTVSPost2010PropOp46
 70
     0
102
RTVSPost2010Prop47
 90
       50
102
RTVSPost2010PropOp47
 70
     0
102
RTVSPost2010Prop48
 90
       50
102
RTVSPost2010PropOp48
 70
     0
102
RTVSPost2010Prop49
280
     0
102
RTVSPost2010PropOp49
 70
     0
102
RTVSPost2010Prop50
 90
       50
102
RTVSPost2010PropOp50
 70
     0
102
RTVSPost2010Prop51ColorIndex
 90
      256
102
RTVSPost2010Prop51ColorRGB
 90
-16777216
102
RTVSPost2010PropOp51
 70
     0
102
RTVSPost2010Prop52
140
1.0
102
RTVSPost2010PropOp52
 70
     0
102
RTVSPost2010Prop53
 90
        2
102
RTVSPost2010PropOp53
 70
     0
102
RTVSPost2010Prop54
  1
strokes_ogs.tif
102
RTVSPost2010PropOp54
 70
     0
102
RTVSPost2010Prop55
280
     0
102
RTVSPost2010PropOp55
 70
     0
102
RTVSPost2010Prop56
140
1.0
102
RTVSPost2010PropOp56
 70
     0
102
RTVSPost2010Prop57
140
1.0
102
RTVSPost2010PropOp57
 70
     0
  0
XRECORD
  5
136
102
{ACAD_REACTORS
330
135
102
}
330
135
100
AcDbXrecord
280
     1
102
RTVSPost2010Prop28
280
     0
102
RTVSPost2010PropOp28
 70
     1
102
RTVSPost2010Prop29
280
     1
102
RTVSPost2010PropOp29
 70
     1
102
RTVSPost2010Prop30
280
     1
102
RTVSPost2010PropOp30
 70
     1
102
RTVSPost2010Prop31
280
     0
102
RTVSPost2010PropOp31
 70
     1
102
RTVSPost2010Prop32
280
     0
102
RTVSPost2010PropOp32
 70
     1
102
RTVSPost2010Prop33
280
     0
102
RTVSPost2010PropOp33
 70
     1
102
RTVSPost2010Prop34
280
     0
102
RTVSPost2010PropOp34
 70
     1
102
RTVSPost2010Prop35
280
     0
102
RTVSPost2010PropOp35
 70
     1
102
RTVSPost2010Prop36
280
     0
102
RTVSPost2010PropOp36
 70
     1
102
RTVSPost2010Prop37
 90
       50
102
RTVSPost2010PropOp37
 70
     1
102
RTVSPost2010Prop38
140
0.0
102
RTVSPost2010PropOp38
 70
     1
102
RTVSPost2010Prop39
140
1.0
102
RTVSPost2010PropOp39
 70
     1
102
RTVSPost2010Prop40
 90
        0
102
RTVSPost2010PropOp40
 70
     1
102
RTVSPost2010Prop41ColorIndex
 90
       18
102
RTVSPost2010Prop41ColorRGB
 90
        0
102
RTVSPost2010PropOp41
 70
     1
102
RTVSPost2010Prop42
 90
       50
102
RTVSPost2010PropOp42
 70
     1
102
RTVSPost2010Prop43
 90
        3
102
RTVSPost2010PropOp43
 70
     1
102
RTVSPost2010Prop44ColorIndex
 90
        5
102
RTVSPost2010Prop44ColorRGB
 90
      255
102
RTVSPost2010PropOp44
 70
     1
102
RTVSPost2010Prop45
280
     0
102
RTVSPost2010PropOp45
 70
     1
102
RTVSPost2010Prop46
 90
       50
102
RTVSPost2010PropOp46
 70
     1
102
RTVSPost2010Prop47
 90
       50
102
RTVSPost2010PropOp47
 70
     1
102
RTVSPost2010Prop48
 90
       50
102
RTVSPost2010PropOp48
 70
     1
102
RTVSPost2010Prop49
280
     0
102
RTVSPost2010PropOp49
 70
     1
102
RTVSPost2010Prop50
 90
       50
102
RTVSPost2010PropOp50
 70
     1
102
RTVSPost2010Prop51ColorIndex
 90
      256
102
RTVSPost2010Prop51ColorRGB
 90
-16777216
102
RTVSPost2010PropOp51
 70
     0
102
RTVSPost2010Prop52
140
1.0
102
RTVSPost2010PropOp52
 70
     0
102
RTVSPost2010Prop53
 90
        2
102
RTVSPost2010PropOp53
 70
     1
102
RTVSPost2010Prop54
  1
strokes_ogs.tif
102
RTVSPost2010PropOp54
 70
     1
102
RTVSPost2010Prop55
280
     0
102
RTVSPost2010PropOp55
 70
     1
102
RTVSPost2010Prop56
140
1.0
102
RTVSPost2010PropOp56
 70
     1
102
RTVSPost2010Prop57
140
1.0
102
RTVSPost2010PropOp57
 70
     1
  0
XRECORD
  5
148
102
{ACAD_REACTORS
330
147
102
}
330
147
100
AcDbXrecord
280
     1
102
RTVSPost2010Prop28
280
     0
102
RTVSPost2010PropOp28
 70
     0
102
RTVSPost2010Prop29
280
     1
102
RTVSPost2010PropOp29
 70
     0
102
RTVSPost2010Prop30
280
     1
102
RTVSPost2010PropOp30
 70
     0
102
RTVSPost2010Prop31
280
     0
102
RTVSPost2010PropOp31
 70
     0
102
RTVSPost2010Prop32
280
     0
102
RTVSPost2010PropOp32
 70
     0
102
RTVSPost2010Prop33
280
     0
102
RTVSPost2010PropOp33
 70
     0
102
RTVSPost2010Prop34
280
     0
102
RTVSPost2010PropOp34
 70
     0
102
RTVSPost2010Prop35
280
     0
102
RTVSPost2010PropOp35
 70
     0
102
RTVSPost2010Prop36
280
     0
102
RTVSPost2010PropOp36
 70
     0
102
RTVSPost2010Prop37
 90
       50
102
RTVSPost2010PropOp37
 70
     0
102
RTVSPost2010Prop38
140
0.0
102
RTVSPost2010PropOp38
 70
     0
102
RTVSPost2010Prop39
140
1.0
102
RTVSPost2010PropOp39
 70
     0
102
RTVSPost2010Prop40
 90
        0
102
RTVSPost2010PropOp40
 70
     0
102
RTVSPost2010Prop41ColorIndex
 90
       18
102
RTVSPost2010Prop41ColorRGB
 90
        0
102
RTVSPost2010PropOp41
 70
     0
102
RTVSPost2010Prop42
 90
       50
102
RTVSPost2010PropOp42
 70
     0
102
RTVSPost2010Prop43
 90
        3
102
RTVSPost2010PropOp43
 70
     0
102
RTVSPost2010Prop44ColorIndex
 90
        5
102
RTVSPost2010Prop44ColorRGB
 90
      255
102
RTVSPost2010PropOp44
 70
     0
102
RTVSPost2010Prop45
280
     0
102
RTVSPost2010PropOp45
 70
     0
102
RTVSPost2010Prop46
 90
       50
102
RTVSPost2010PropOp46
 70
     0
102
RTVSPost2010Prop47
 90
       50
102
RTVSPost2010PropOp47
 70
     0
102
RTVSPost2010Prop48
 90
       50
102
RTVSPost2010PropOp48
 70
     0
102
RTVSPost2010Prop49
280
     0
102
RTVSPost2010PropOp49
 70
     0
102
RTVSPost2010Prop50
 90
       50
102
RTVSPost2010PropOp50
 70
     0
102
RTVSPost2010Prop51ColorIndex
 90
      256
102
RTVSPost2010Prop51ColorRGB
 90
-16777216
102
RTVSPost2010PropOp51
 70
     0
102
RTVSPost2010Prop52
140
1.0
102
RTVSPost2010PropOp52
 70
     0
102
RTVSPost2010Prop53
 90
        2
102
RTVSPost2010PropOp53
 70
     0
102
RTVSPost2010Prop54
  1
strokes_ogs.tif
102
RTVSPost2010PropOp54
 70
     0
102
RTVSPost2010Prop55
280
     0
102
RTVSPost2010PropOp55
 70
     0
102
RTVSPost2010Prop56
140
1.0
102
RTVSPost2010PropOp56
 70
     0
102
RTVSPost2010Prop57
140
1.0
102
RTVSPost2010PropOp57
 70
     0
  0
XRECORD
  5
12E
102
{ACAD_REACTORS
330
12D
102
}
330
12D
100
AcDbXrecord
280
     1
102
RTVSPost2010Prop28
280
     0
102
RTVSPost2010PropOp28
 70
     1
102
RTVSPost2010Prop29
280
     1
102
RTVSPost2010PropOp29
 70
     1
102
RTVSPost2010Prop30
280
     1
102
RTVSPost2010PropOp30
 70
     1
102
RTVSPost2010Prop31
280
     0
102
RTVSPost2010PropOp31
 70
     1
102
RTVSPost2010Prop32
280
     0
102
RTVSPost2010PropOp32
 70
     1
102
RTVSPost2010Prop33
280
     0
102
RTVSPost2010PropOp33
 70
     1
102
RTVSPost2010Prop34
280
     0
102
RTVSPost2010PropOp34
 70
     1
102
RTVSPost2010Prop35
280
     0
102
RTVSPost2010PropOp35
 70
     1
102
RTVSPost2010Prop36
280
     0
102
RTVSPost2010PropOp36
 70
     1
102
RTVSPost2010Prop37
 90
       50
102
RTVSPost2010PropOp37
 70
     1
102
RTVSPost2010Prop38
140
0.0
102
RTVSPost2010PropOp38
 70
     1
102
RTVSPost2010Prop39
140
1.0
102
RTVSPost2010PropOp39
 70
     1
102
RTVSPost2010Prop40
 90
        0
102
RTVSPost2010PropOp40
 70
     1
102
RTVSPost2010Prop41ColorIndex
 90
       18
102
RTVSPost2010Prop41ColorRGB
 90
        0
102
RTVSPost2010PropOp41
 70
     1
102
RTVSPost2010Prop42
 90
       50
102
RTVSPost2010PropOp42
 70
     1
102
RTVSPost2010Prop43
 90
        3
102
RTVSPost2010PropOp43
 70
     1
102
RTVSPost2010Prop44ColorIndex
 90
        5
102
RTVSPost2010Prop44ColorRGB
 90
      255
102
RTVSPost2010PropOp44
 70
     1
102
RTVSPost2010Prop45
280
     0
102
RTVSPost2010PropOp45
 70
     1
102
RTVSPost2010Prop46
 90
       50
102
RTVSPost2010PropOp46
 70
     1
102
RTVSPost2010Prop47
 90
       50
102
RTVSPost2010PropOp47
 70
     1
102
RTVSPost2010Prop48
 90
       50
102
RTVSPost2010PropOp48
 70
     1
102
RTVSPost2010Prop49
280
     0
102
RTVSPost2010PropOp49
 70
     1
102
RTVSPost2010Prop50
 90
       50
102
RTVSPost2010PropOp50
 70
     1
102
RTVSPost2010Prop51ColorIndex
 90
      256
102
RTVSPost2010Prop51ColorRGB
 90
-16777216
102
RTVSPost2010PropOp51
 70
     0
102
RTVSPost2010Prop52
140
1.0
102
RTVSPost2010PropOp52
 70
     0
102
RTVSPost2010Prop53
 90
        2
102
RTVSPost2010PropOp53
 70
     1
102
RTVSPost2010Prop54
  1
strokes_ogs.tif
102
RTVSPost2010PropOp54
 70
     1
102
RTVSPost2010Prop55
280
     0
102
RTVSPost2010PropOp55
 70
     1
102
RTVSPost2010Prop56
140
1.0
102
RTVSPost2010PropOp56
 70
     1
102
RTVSPost2010Prop57
140
1.0
102
RTVSPost2010PropOp57
 70
     1
  0
XRECORD
  5
144
102
{ACAD_REACTORS
330
143
102
}
330
143
100
AcDbXrecord
280
     1
102
RTVSPost2010Prop28
280
     0
102
RTVSPost2010PropOp28
 70
     1
102
RTVSPost2010Prop29
280
     1
102
RTVSPost2010PropOp29
 70
     1
102
RTVSPost2010Prop30
280
     1
102
RTVSPost2010PropOp30
 70
     1
102
RTVSPost2010Prop31
280
     0
102
RTVSPost2010PropOp31
 70
     1
102
RTVSPost2010Prop32
280
     0
102
RTVSPost2010PropOp32
 70
     1
102
RTVSPost2010Prop33
280
     0
102
RTVSPost2010PropOp33
 70
     1
102
RTVSPost2010Prop34
280
     0
102
RTVSPost2010PropOp34
 70
     1
102
RTVSPost2010Prop35
280
     0
102
RTVSPost2010PropOp35
 70
     1
102
RTVSPost2010Prop36
280
     0
102
RTVSPost2010PropOp36
 70
     1
102
RTVSPost2010Prop37
 90
       50
102
RTVSPost2010PropOp37
 70
     1
102
RTVSPost2010Prop38
140
0.0
102
RTVSPost2010PropOp38
 70
     1
102
RTVSPost2010Prop39
140
1.0
102
RTVSPost2010PropOp39
 70
     1
102
RTVSPost2010Prop40
 90
        0
102
RTVSPost2010PropOp40
 70
     1
102
RTVSPost2010Prop41ColorIndex
 90
       18
102
RTVSPost2010Prop41ColorRGB
 90
        0
102
RTVSPost2010PropOp41
 70
     1
102
RTVSPost2010Prop42
 90
       50
102
RTVSPost2010PropOp42
 70
     1
102
RTVSPost2010Prop43
 90
        3
102
RTVSPost2010PropOp43
 70
     1
102
RTVSPost2010Prop44ColorIndex
 90
        5
102
RTVSPost2010Prop44ColorRGB
 90
      255
102
RTVSPost2010PropOp44
 70
     1
102
RTVSPost2010Prop45
280
     0
102
RTVSPost2010PropOp45
 70
     1
102
RTVSPost2010Prop46
 90
       50
102
RTVSPost2010PropOp46
 70
     1
102
RTVSPost2010Prop47
 90
       50
102
RTVSPost2010PropOp47
 70
     1
102
RTVSPost2010Prop48
 90
       50
102
RTVSPost2010PropOp48
 70
     1
102
RTVSPost2010Prop49
280
     0
102
RTVSPost2010PropOp49
 70
     1
102
RTVSPost2010Prop50
 90
       50
102
RTVSPost2010PropOp50
 70
     1
102
RTVSPost2010Prop51ColorIndex
 90
      256
102
RTVSPost2010Prop51ColorRGB
 90
-16777216
102
RTVSPost2010PropOp51
 70
     0
102
RTVSPost2010Prop52
140
1.0
102
RTVSPost2010PropOp52
 70
     0
102
RTVSPost2010Prop53
 90
        2
102
RTVSPost2010PropOp53
 70
     1
102
RTVSPost2010Prop54
  1
strokes_ogs.tif
102
RTVSPost2010PropOp54
 70
     1
102
RTVSPost2010Prop55
280
     0
102
RTVSPost2010PropOp55
 70
     1
102
RTVSPost2010Prop56
140
1.0
102
RTVSPost2010PropOp56
 70
     1
102
RTVSPost2010Prop57
140
1.0
102
RTVSPost2010PropOp57
 70
     1
  0
XRECORD
  5
142
102
{ACAD_REACTORS
330
141
102
}
330
141
100
AcDbXrecord
280
     1
102
RTVSPost2010Prop28
280
     0
102
RTVSPost2010PropOp28
 70
     1
102
RTVSPost2010Prop29
280
     1
102
RTVSPost2010PropOp29
 70
     1
102
RTVSPost2010Prop30
280
     1
102
RTVSPost2010PropOp30
 70
     1
102
RTVSPost2010Prop31
280
     0
102
RTVSPost2010PropOp31
 70
     1
102
RTVSPost2010Prop32
280
     0
102
RTVSPost2010PropOp32
 70
     1
102
RTVSPost2010Prop33
280
     0
102
RTVSPost2010PropOp33
 70
     1
102
RTVSPost2010Prop34
280
     0
102
RTVSPost2010PropOp34
 70
     1
102
RTVSPost2010Prop35
280
     0
102
RTVSPost2010PropOp35
 70
     1
102
RTVSPost2010Prop36
280
     0
102
RTVSPost2010PropOp36
 70
     1
102
RTVSPost2010Prop37
 90
       50
102
RTVSPost2010PropOp37
 70
     1
102
RTVSPost2010Prop38
140
0.0
102
RTVSPost2010PropOp38
 70
     1
102
RTVSPost2010Prop39
140
1.0
102
RTVSPost2010PropOp39
 70
     1
102
RTVSPost2010Prop40
 90
        0
102
RTVSPost2010PropOp40
 70
     1
102
RTVSPost2010Prop41ColorIndex
 90
       18
102
RTVSPost2010Prop41ColorRGB
 90
        0
102
RTVSPost2010PropOp41
 70
     1
102
RTVSPost2010Prop42
 90
       50
102
RTVSPost2010PropOp42
 70
     1
102
RTVSPost2010Prop43
 90
        3
102
RTVSPost2010PropOp43
 70
     1
102
RTVSPost2010Prop44ColorIndex
 90
        5
102
RTVSPost2010Prop44ColorRGB
 90
      255
102
RTVSPost2010PropOp44
 70
     1
102
RTVSPost2010Prop45
280
     0
102
RTVSPost2010PropOp45
 70
     1
102
RTVSPost2010Prop46
 90
       50
102
RTVSPost2010PropOp46
 70
     1
102
RTVSPost2010Prop47
 90
       50
102
RTVSPost2010PropOp47
 70
     1
102
RTVSPost2010Prop48
 90
       50
102
RTVSPost2010PropOp48
 70
     1
102
RTVSPost2010Prop49
280
     0
102
RTVSPost2010PropOp49
 70
     1
102
RTVSPost2010Prop50
 90
       50
102
RTVSPost2010PropOp50
 70
     1
102
RTVSPost2010Prop51ColorIndex
 90
      256
102
RTVSPost2010Prop51ColorRGB
 90
-16777216
102
RTVSPost2010PropOp51
 70
     0
102
RTVSPost2010Prop52
140
1.0
102
RTVSPost2010PropOp52
 70
     0
102
RTVSPost2010Prop53
 90
        2
102
RTVSPost2010PropOp53
 70
     1
102
RTVSPost2010Prop54
  1
strokes_ogs.tif
102
RTVSPost2010PropOp54
 70
     1
102
RTVSPost2010Prop55
280
     0
102
RTVSPost2010PropOp55
 70
     1
102
RTVSPost2010Prop56
140
1.0
102
RTVSPost2010PropOp56
 70
     1
102
RTVSPost2010Prop57
140
1.0
102
RTVSPost2010PropOp57
 70
     1
  0
XRECORD
  5
13C
102
{ACAD_REACTORS
330
13B
102
}
330
13B
100
AcDbXrecord
280
     1
102
RTVSPost2010Prop28
280
     0
102
RTVSPost2010PropOp28
 70
     1
102
RTVSPost2010Prop29
280
     1
102
RTVSPost2010PropOp29
 70
     1
102
RTVSPost2010Prop30
280
     1
102
RTVSPost2010PropOp30
 70
     1
102
RTVSPost2010Prop31
280
     0
102
RTVSPost2010PropOp31
 70
     1
102
RTVSPost2010Prop32
280
     0
102
RTVSPost2010PropOp32
 70
     1
102
RTVSPost2010Prop33
280
     0
102
RTVSPost2010PropOp33
 70
     1
102
RTVSPost2010Prop34
280
     0
102
RTVSPost2010PropOp34
 70
     1
102
RTVSPost2010Prop35
280
     0
102
RTVSPost2010PropOp35
 70
     1
102
RTVSPost2010Prop36
280
     0
102
RTVSPost2010PropOp36
 70
     1
102
RTVSPost2010Prop37
 90
       50
102
RTVSPost2010PropOp37
 70
     1
102
RTVSPost2010Prop38
140
0.0
102
RTVSPost2010PropOp38
 70
     1
102
RTVSPost2010Prop39
140
1.0
102
RTVSPost2010PropOp39
 70
     1
102
RTVSPost2010Prop40
 90
        0
102
RTVSPost2010PropOp40
 70
     1
102
RTVSPost2010Prop41ColorIndex
 90
       18
102
RTVSPost2010Prop41ColorRGB
 90
        0
102
RTVSPost2010PropOp41
 70
     1
102
RTVSPost2010Prop42
 90
       50
102
RTVSPost2010PropOp42
 70
     1
102
RTVSPost2010Prop43
 90
        3
102
RTVSPost2010PropOp43
 70
     1
102
RTVSPost2010Prop44ColorIndex
 90
        5
102
RTVSPost2010Prop44ColorRGB
 90
      255
102
RTVSPost2010PropOp44
 70
     1
102
RTVSPost2010Prop45
280
     0
102
RTVSPost2010PropOp45
 70
     1
102
RTVSPost2010Prop46
 90
       50
102
RTVSPost2010PropOp46
 70
     1
102
RTVSPost2010Prop47
 90
       50
102
RTVSPost2010PropOp47
 70
     1
102
RTVSPost2010Prop48
 90
       50
102
RTVSPost2010PropOp48
 70
     1
102
RTVSPost2010Prop49
280
     0
102
RTVSPost2010PropOp49
 70
     1
102
RTVSPost2010Prop50
 90
       50
102
RTVSPost2010PropOp50
 70
     1
102
RTVSPost2010Prop51ColorIndex
 90
      256
102
RTVSPost2010Prop51ColorRGB
 90
-16777216
102
RTVSPost2010PropOp51
 70
     0
102
RTVSPost2010Prop52
140
1.0
102
RTVSPost2010PropOp52
 70
     0
102
RTVSPost2010Prop53
 90
        2
102
RTVSPost2010PropOp53
 70
     1
102
RTVSPost2010Prop54
  1
strokes_ogs.tif
102
RTVSPost2010PropOp54
 70
     1
102
RTVSPost2010Prop55
280
     0
102
RTVSPost2010PropOp55
 70
     1
102
RTVSPost2010Prop56
140
1.0
102
RTVSPost2010PropOp56
 70
     1
102
RTVSPost2010Prop57
140
1.0
102
RTVSPost2010PropOp57
 70
     1
  0
XRECORD
  5
13E
102
{ACAD_REACTORS
330
13D
102
}
330
13D
100
AcDbXrecord
280
     1
102
RTVSPost2010Prop28
280
     0
102
RTVSPost2010PropOp28
 70
     1
102
RTVSPost2010Prop29
280
     1
102
RTVSPost2010PropOp29
 70
     1
102
RTVSPost2010Prop30
280
     1
102
RTVSPost2010PropOp30
 70
     1
102
RTVSPost2010Prop31
280
     0
102
RTVSPost2010PropOp31
 70
     1
102
RTVSPost2010Prop32
280
     0
102
RTVSPost2010PropOp32
 70
     1
102
RTVSPost2010Prop33
280
     0
102
RTVSPost2010PropOp33
 70
     1
102
RTVSPost2010Prop34
280
     0
102
RTVSPost2010PropOp34
 70
     1
102
RTVSPost2010Prop35
280
     0
102
RTVSPost2010PropOp35
 70
     1
102
RTVSPost2010Prop36
280
     0
102
RTVSPost2010PropOp36
 70
     1
102
RTVSPost2010Prop37
 90
       50
102
RTVSPost2010PropOp37
 70
     1
102
RTVSPost2010Prop38
140
0.0
102
RTVSPost2010PropOp38
 70
     1
102
RTVSPost2010Prop39
140
1.0
102
RTVSPost2010PropOp39
 70
     1
102
RTVSPost2010Prop40
 90
        0
102
RTVSPost2010PropOp40
 70
     1
102
RTVSPost2010Prop41ColorIndex
 90
       18
102
RTVSPost2010Prop41ColorRGB
 90
        0
102
RTVSPost2010PropOp41
 70
     1
102
RTVSPost2010Prop42
 90
       50
102
RTVSPost2010PropOp42
 70
     1
102
RTVSPost2010Prop43
 90
        3
102
RTVSPost2010PropOp43
 70
     1
102
RTVSPost2010Prop44ColorIndex
 90
        5
102
RTVSPost2010Prop44ColorRGB
 90
      255
102
RTVSPost2010PropOp44
 70
     1
102
RTVSPost2010Prop45
280
     0
102
RTVSPost2010PropOp45
 70
     1
102
RTVSPost2010Prop46
 90
       50
102
RTVSPost2010PropOp46
 70
     1
102
RTVSPost2010Prop47
 90
       50
102
RTVSPost2010PropOp47
 70
     1
102
RTVSPost2010Prop48
 90
       50
102
RTVSPost2010PropOp48
 70
     1
102
RTVSPost2010Prop49
280
     0
102
RTVSPost2010PropOp49
 70
     1
102
RTVSPost2010Prop50
 90
       50
102
RTVSPost2010PropOp50
 70
     1
102
RTVSPost2010Prop51ColorIndex
 90
      256
102
RTVSPost2010Prop51ColorRGB
 90
-16777216
102
RTVSPost2010PropOp51
 70
     0
102
RTVSPost2010Prop52
140
1.0
102
RTVSPost2010PropOp52
 70
     0
102
RTVSPost2010Prop53
 90
        2
102
RTVSPost2010PropOp53
 70
     1
102
RTVSPost2010Prop54
  1
strokes_ogs.tif
102
RTVSPost2010PropOp54
 70
     1
102
RTVSPost2010Prop55
280
     0
102
RTVSPost2010PropOp55
 70
     1
102
RTVSPost2010Prop56
140
1.0
102
RTVSPost2010PropOp56
 70
     1
102
RTVSPost2010Prop57
140
1.0
102
RTVSPost2010PropOp57
 70
     1
  0
XRECORD
  5
134
102
{ACAD_REACTORS
330
133
102
}
330
133
100
AcDbXrecord
280
     1
102
RTVSPost2010Prop28
280
     0
102
RTVSPost2010PropOp28
 70
     1
102
RTVSPost2010Prop29
280
     1
102
RTVSPost2010PropOp29
 70
     1
102
RTVSPost2010Prop30
280
     1
102
RTVSPost2010PropOp30
 70
     1
102
RTVSPost2010Prop31
280
     0
102
RTVSPost2010PropOp31
 70
     1
102
RTVSPost2010Prop32
280
     0
102
RTVSPost2010PropOp32
 70
     1
102
RTVSPost2010Prop33
280
     0
102
RTVSPost2010PropOp33
 70
     1
102
RTVSPost2010Prop34
280
     0
102
RTVSPost2010PropOp34
 70
     1
102
RTVSPost2010Prop35
280
     0
102
RTVSPost2010PropOp35
 70
     1
102
RTVSPost2010Prop36
280
     0
102
RTVSPost2010PropOp36
 70
     1
102
RTVSPost2010Prop37
 90
       50
102
RTVSPost2010PropOp37
 70
     1
102
RTVSPost2010Prop38
140
0.0
102
RTVSPost2010PropOp38
 70
     1
102
RTVSPost2010Prop39
140
1.0
102
RTVSPost2010PropOp39
 70
     1
102
RTVSPost2010Prop40
 90
        0
102
RTVSPost2010PropOp40
 70
     1
102
RTVSPost2010Prop41ColorIndex
 90
       18
102
RTVSPost2010Prop41ColorRGB
 90
        0
102
RTVSPost2010PropOp41
 70
     1
102
RTVSPost2010Prop42
 90
       50
102
RTVSPost2010PropOp42
 70
     1
102
RTVSPost2010Prop43
 90
        3
102
RTVSPost2010PropOp43
 70
     1
102
RTVSPost2010Prop44ColorIndex
 90
        5
102
RTVSPost2010Prop44ColorRGB
 90
      255
102
RTVSPost2010PropOp44
 70
     1
102
RTVSPost2010Prop45
280
     0
102
RTVSPost2010PropOp45
 70
     1
102
RTVSPost2010Prop46
 90
       50
102
RTVSPost2010PropOp46
 70
     1
102
RTVSPost2010Prop47
 90
       50
102
RTVSPost2010PropOp47
 70
     1
102
RTVSPost2010Prop48
 90
       50
102
RTVSPost2010PropOp48
 70
     1
102
RTVSPost2010Prop49
280
     0
102
RTVSPost2010PropOp49
 70
     1
102
RTVSPost2010Prop50
 90
       50
102
RTVSPost2010PropOp50
 70
     1
102
RTVSPost2010Prop51ColorIndex
 90
      256
102
RTVSPost2010Prop51ColorRGB
 90
-16777216
102
RTVSPost2010PropOp51
 70
     0
102
RTVSPost2010Prop52
140
1.0
102
RTVSPost2010PropOp52
 70
     0
102
RTVSPost2010Prop53
 90
        2
102
RTVSPost2010PropOp53
 70
     1
102
RTVSPost2010Prop54
  1
strokes_ogs.tif
102
RTVSPost2010PropOp54
 70
     1
102
RTVSPost2010Prop55
280
     0
102
RTVSPost2010PropOp55
 70
     1
102
RTVSPost2010Prop56
140
1.0
102
RTVSPost2010PropOp56
 70
     1
102
RTVSPost2010Prop57
140
1.0
102
RTVSPost2010PropOp57
 70
     1
  0
XRECORD
  5
128
102
{ACAD_REACTORS
330
127
102
}
330
127
100
AcDbXrecord
280
     1
102
RTVSPost2010Prop28
280
     0
102
RTVSPost2010PropOp28
 70
     1
102
RTVSPost2010Prop29
280
     1
102
RTVSPost2010PropOp29
 70
     1
102
RTVSPost2010Prop30
280
     1
102
RTVSPost2010PropOp30
 70
     1
102
RTVSPost2010Prop31
280
     0
102
RTVSPost2010PropOp31
 70
     1
102
RTVSPost2010Prop32
280
     0
102
RTVSPost2010PropOp32
 70
     1
102
RTVSPost2010Prop33
280
     0
102
RTVSPost2010PropOp33
 70
     1
102
RTVSPost2010Prop34
280
     0
102
RTVSPost2010PropOp34
 70
     1
102
RTVSPost2010Prop35
280
     0
102
RTVSPost2010PropOp35
 70
     1
102
RTVSPost2010Prop36
280
     0
102
RTVSPost2010PropOp36
 70
     1
102
RTVSPost2010Prop37
 90
       50
102
RTVSPost2010PropOp37
 70
     1
102
RTVSPost2010Prop38
140
0.0
102
RTVSPost2010PropOp38
 70
     1
102
RTVSPost2010Prop39
140
1.0
102
RTVSPost2010PropOp39
 70
     1
102
RTVSPost2010Prop40
 90
        0
102
RTVSPost2010PropOp40
 70
     1
102
RTVSPost2010Prop41ColorIndex
 90
       18
102
RTVSPost2010Prop41ColorRGB
 90
        0
102
RTVSPost2010PropOp41
 70
     1
102
RTVSPost2010Prop42
 90
       50
102
RTVSPost2010PropOp42
 70
     1
102
RTVSPost2010Prop43
 90
        3
102
RTVSPost2010PropOp43
 70
     1
102
RTVSPost2010Prop44ColorIndex
 90
        5
102
RTVSPost2010Prop44ColorRGB
 90
      255
102
RTVSPost2010PropOp44
 70
     1
102
RTVSPost2010Prop45
280
     0
102
RTVSPost2010PropOp45
 70
     1
102
RTVSPost2010Prop46
 90
       50
102
RTVSPost2010PropOp46
 70
     1
102
RTVSPost2010Prop47
 90
       50
102
RTVSPost2010PropOp47
 70
     1
102
RTVSPost2010Prop48
 90
       50
102
RTVSPost2010PropOp48
 70
     1
102
RTVSPost2010Prop49
280
     0
102
RTVSPost2010PropOp49
 70
     1
102
RTVSPost2010Prop50
 90
       50
102
RTVSPost2010PropOp50
 70
     1
102
RTVSPost2010Prop51ColorIndex
 90
      256
102
RTVSPost2010Prop51ColorRGB
 90
-16777216
102
RTVSPost2010PropOp51
 70
     0
102
RTVSPost2010Prop52
140
1.0
102
RTVSPost2010PropOp52
 70
     0
102
RTVSPost2010Prop53
 90
        2
102
RTVSPost2010PropOp53
 70
     1
102
RTVSPost2010Prop54
  1
strokes_ogs.tif
102
RTVSPost2010PropOp54
 70
     1
102
RTVSPost2010Prop55
280
     0
102
RTVSPost2010PropOp55
 70
     1
102
RTVSPost2010Prop56
140
1.0
102
RTVSPost2010PropOp56
 70
     1
102
RTVSPost2010Prop57
140
1.0
102
RTVSPost2010PropOp57
 70
     1
  0
XRECORD
  5
140
102
{ACAD_REACTORS
330
13F
102
}
330
13F
100
AcDbXrecord
280
     1
102
RTVSPost2010Prop28
280
     0
102
RTVSPost2010PropOp28
 70
     1
102
RTVSPost2010Prop29
280
     1
102
RTVSPost2010PropOp29
 70
     1
102
RTVSPost2010Prop30
280
     1
102
RTVSPost2010PropOp30
 70
     1
102
RTVSPost2010Prop31
280
     0
102
RTVSPost2010PropOp31
 70
     1
102
RTVSPost2010Prop32
280
     0
102
RTVSPost2010PropOp32
 70
     1
102
RTVSPost2010Prop33
280
     0
102
RTVSPost2010PropOp33
 70
     1
102
RTVSPost2010Prop34
280
     0
102
RTVSPost2010PropOp34
 70
     1
102
RTVSPost2010Prop35
280
     0
102
RTVSPost2010PropOp35
 70
     1
102
RTVSPost2010Prop36
280
     0
102
RTVSPost2010PropOp36
 70
     1
102
RTVSPost2010Prop37
 90
       50
102
RTVSPost2010PropOp37
 70
     1
102
RTVSPost2010Prop38
140
0.0
102
RTVSPost2010PropOp38
 70
     1
102
RTVSPost2010Prop39
140
1.0
102
RTVSPost2010PropOp39
 70
     1
102
RTVSPost2010Prop40
 90
        0
102
RTVSPost2010PropOp40
 70
     1
102
RTVSPost2010Prop41ColorIndex
 90
       18
102
RTVSPost2010Prop41ColorRGB
 90
        0
102
RTVSPost2010PropOp41
 70
     1
102
RTVSPost2010Prop42
 90
       50
102
RTVSPost2010PropOp42
 70
     1
102
RTVSPost2010Prop43
 90
        3
102
RTVSPost2010PropOp43
 70
     1
102
RTVSPost2010Prop44ColorIndex
 90
        5
102
RTVSPost2010Prop44ColorRGB
 90
      255
102
RTVSPost2010PropOp44
 70
     1
102
RTVSPost2010Prop45
280
     0
102
RTVSPost2010PropOp45
 70
     1
102
RTVSPost2010Prop46
 90
       50
102
RTVSPost2010PropOp46
 70
     1
102
RTVSPost2010Prop47
 90
       50
102
RTVSPost2010PropOp47
 70
     1
102
RTVSPost2010Prop48
 90
       50
102
RTVSPost2010PropOp48
 70
     1
102
RTVSPost2010Prop49
280
     0
102
RTVSPost2010PropOp49
 70
     1
102
RTVSPost2010Prop50
 90
       50
102
RTVSPost2010PropOp50
 70
     1
102
RTVSPost2010Prop51ColorIndex
 90
      256
102
RTVSPost2010Prop51ColorRGB
 90
-16777216
102
RTVSPost2010PropOp51
 70
     0
102
RTVSPost2010Prop52
140
1.0
102
RTVSPost2010PropOp52
 70
     0
102
RTVSPost2010Prop53
 90
        2
102
RTVSPost2010PropOp53
 70
     1
102
RTVSPost2010Prop54
  1
strokes_ogs.tif
102
RTVSPost2010PropOp54
 70
     1
102
RTVSPost2010Prop55
280
     0
102
RTVSPost2010PropOp55
 70
     1
102
RTVSPost2010Prop56
140
1.0
102
RTVSPost2010PropOp56
 70
     1
102
RTVSPost2010Prop57
140
1.0
102
RTVSPost2010PropOp57
 70
     1
  0
ENDSEC
  0
EOF
