  0
SECTION
  2
HEADER
  9
$ACADVER
  1
AC1024
  9
$ACADMAINTVER
 70
   226
  9
$DWGCODEPAGE
  3
ANSI_932
  9
$INSBASE
 10
0.0
 20
0.0
 30
0.0
  9
$EXTMIN
 10
1.000000000000000E+20
 20
1.000000000000000E+20
 30
1.000000000000000E+20
  9
$EXTMAX
 10
-1.000000000000000E+20
 20
-1.000000000000000E+20
 30
-1.000000000000000E+20
  9
$LIMMIN
 10
0.0
 20
0.0
  9
$LIMMAX
 10
12.0
 20
9.0
  9
$ORTHOMODE
 70
     0
  9
$REGENMODE
 70
     1
  9
$FILLMODE
 70
     1
  9
$QTEXTMODE
 70
     0
  9
$MIRRTEXT
 70
     0
  9
$LTSCALE
 40
1.0
  9
$ATTMODE
 70
     1
  9
$TEXTSIZE
 40
0.2
  9
$TRACEWID
 40
0.05
  9
$TEXTSTYLE
  7
Standard
  9
$CLAYER
  8
0
  9
$CELTYPE
  6
ByLayer
  9
$CECOLOR
 62
   256
  9
$CELTSCALE
 40
1.0
  9
$DISPSILH
 70
     0
  9
$DIMSCALE
 40
1.0
  9
$DIMASZ
 40
0.18
  9
$DIMEXO
 40
0.0625
  9
$DIMDLI
 40
0.38
  9
$DIMRND
 40
0.0
  9
$DIMDLE
 40
0.0
  9
$DIMEXE
 40
0.18
  9
$DIMTP
 40
0.0
  9
$DIMTM
 40
0.0
  9
$DIMTXT
 40
0.18
  9
$DIMCEN
 40
0.09
  9
$DIMTSZ
 40
0.0
  9
$DIMTOL
 70
     0
  9
$DIMLIM
 70
     0
  9
$DIMTIH
 70
     1
  9
$DIMTOH
 70
     1
  9
$DIMSE1
 70
     0
  9
$DIMSE2
 70
     0
  9
$DIMTAD
 70
     0
  9
$DIMZIN
 70
     0
  9
$DIMBLK
  1

  9
$DIMASO
 70
     1
  9
$DIMSHO
 70
     1
  9
$DIMPOST
  1

  9
$DIMAPOST
  1

  9
$DIMALT
 70
     0
  9
$DIMALTD
 70
     2
  9
$DIMALTF
 40
25.4
  9
$DIMLFAC
 40
1.0
  9
$DIMTOFL
 70
     0
  9
$DIMTVP
 40
0.0
  9
$DIMTIX
 70
     0
  9
$DIMSOXD
 70
     0
  9
$DIMSAH
 70
     0
  9
$DIMBLK1
  1

  9
$DIMBLK2
  1

  9
$DIMSTYLE
  2
Standard
  9
$DIMCLRD
 70
     0
  9
$DIMCLRE
 70
     0
  9
$DIMCLRT
 70
     0
  9
$DIMTFAC
 40
1.0
  9
$DIMGAP
 40
0.09
  9
$DIMJUST
 70
     0
  9
$DIMSD1
 70
     0
  9
$DIMSD2
 70
     0
  9
$DIMTOLJ
 70
     1
  9
$DIMTZIN
 70
     0
  9
$DIMALTZ
 70
     0
  9
$DIMALTTZ
 70
     0
  9
$DIMUPT
 70
     0
  9
$DIMDEC
 70
     4
  9
$DIMTDEC
 70
     4
  9
$DIMALTU
 70
     2
  9
$DIMALTTD
 70
     2
  9
$DIMTXSTY
  7
Standard
  9
$DIMAUNIT
 70
     0
  9
$DIMADEC
 70
     0
  9
$DIMALTRND
 40
0.0
  9
$DIMAZIN
 70
     0
  9
$DIMDSEP
 70
    46
  9
$DIMATFIT
 70
     3
  9
$DIMFRAC
 70
     0
  9
$DIMLDRBLK
  1

  9
$DIMLUNIT
 70
     2
  9
$DIMLWD
 70
    -2
  9
$DIMLWE
 70
    -2
  9
$DIMTMOVE
 70
     0
  9
$DIMFXL
 40
1.0
  9
$DIMFXLON
 70
     0
  9
$DIMJOGANG
 40
0.7853981633974483
  9
$DIMTFILL
 70
     0
  9
$DIMTFILLCLR
 70
     0
  9
$DIMARCSYM
 70
     0
  9
$DIMLTYPE
  6

  9
$DIMLTEX1
  6

  9
$DIMLTEX2
  6

  9
$DIMTXTDIRECTION
 70
     0
  9
$LUNITS
 70
     2
  9
$LUPREC
 70
     4
  9
$SKETCHINC
 40
0.1
  9
$FILLETRAD
 40
0.0
  9
$AUNITS
 70
     0
  9
$AUPREC
 70
     0
  9
$MENU
  1
.
  9
$ELEVATION
 40
0.0
  9
$PELEVATION
 40
0.0
  9
$THICKNESS
 40
0.0
  9
$LIMCHECK
 70
     0
  9
$CHAMFERA
 40
0.0
  9
$CHAMFERB
 40
0.0
  9
$CHAMFERC
 40
0.0
  9
$CHAMFERD
 40
0.0
  9
$SKPOLY
 70
     0
  9
$TDCREATE
 40
2459569.489317130
  9
$TDUCREATE
 40
2459569.114317130
  9
$TDUPDATE
 40
2459569.489317130
  9
$TDUUPDATE
 40
2459569.114317130
  9
$TDINDWG
 40
0.0000000000
  9
$TDUSRTIMER
 40
0.0000000000
  9
$USRTIMER
 70
     1
  9
$ANGBASE
 50
0.0
  9
$ANGDIR
 70
     0
  9
$PDMODE
 70
     0
  9
$PDSIZE
 40
0.0
  9
$PLINEWID
 40
0.0
  9
$SPLFRAME
 70
     0
  9
$SPLINETYPE
 70
     6
  9
$SPLINESEGS
 70
     8
  9
$HANDSEED
  5
153
  9
$SURFTAB1
 70
     6
  9
$SURFTAB2
 70
     6
  9
$SURFTYPE
 70
     6
  9
$SURFU
 70
     6
  9
$SURFV
 70
     6
  9
$UCSBASE
  2

  9
$UCSNAME
  2

  9
$UCSORG
 10
0.0
 20
0.0
 30
0.0
  9
$UCSXDIR
 10
1.0
 20
0.0
 30
0.0
  9
$UCSYDIR
 10
0.0
 20
1.0
 30
0.0
  9
$UCSORTHOREF
  2

  9
$UCSORTHOVIEW
 70
     0
  9
$UCSORGTOP
 10
0.0
 20
0.0
 30
0.0
  9
$UCSORGBOTTOM
 10
0.0
 20
0.0
 30
0.0
  9
$UCSORGLEFT
 10
0.0
 20
0.0
 30
0.0
  9
$UCSORGRIGHT
 10
0.0
 20
0.0
 30
0.0
  9
$UCSORGFRONT
 10
0.0
 20
0.0
 30
0.0
  9
$UCSORGBACK
 10
0.0
 20
0.0
 30
0.0
  9
$PUCSBASE
  2

  9
$PUCSNAME
  2

  9
$PUCSORG
 10
0.0
 20
0.0
 30
0.0
  9
$PUCSXDIR
 10
1.0
 20
0.0
 30
0.0
  9
$PUCSYDIR
 10
0.0
 20
1.0
 30
0.0
  9
$PUCSORTHOREF
  2

  9
$PUCSORTHOVIEW
 70
     0
  9
$PUCSORGTOP
 10
0.0
 20
0.0
 30
0.0
  9
$PUCSORGBOTTOM
 10
0.0
 20
0.0
 30
0.0
  9
$PUCSORGLEFT
 10
0.0
 20
0.0
 30
0.0
  9
$PUCSORGRIGHT
 10
0.0
 20
0.0
 30
0.0
  9
$PUCSORGFRONT
 10
0.0
 20
0.0
 30
0.0
  9
$PUCSORGBACK
 10
0.0
 20
0.0
 30
0.0
  9
$USERI1
 70
     0
  9
$USERI2
 70
     0
  9
$USERI3
 70
     0
  9
$USERI4
 70
     0
  9
$USERI5
 70
     0
  9
$USERR1
 40
0.0
  9
$USERR2
 40
0.0
  9
$USERR3
 40
0.0
  9
$USERR4
 40
0.0
  9
$USERR5
 40
0.0
  9
$WORLDVIEW
 70
     1
  9
$SHADEDGE
 70
     3
  9
$SHADEDIF
 70
    70
  9
$TILEMODE
 70
     1
  9
$MAXACTVP
 70
    64
  9
$PINSBASE
 10
0.0
 20
0.0
 30
0.0
  9
$PLIMCHECK
 70
     0
  9
$PEXTMIN
 10
1.000000000000000E+20
 20
1.000000000000000E+20
 30
1.000000000000000E+20
  9
$PEXTMAX
 10
-1.000000000000000E+20
 20
-1.000000000000000E+20
 30
-1.000000000000000E+20
  9
$PLIMMIN
 10
0.0
 20
0.0
  9
$PLIMMAX
 10
12.0
 20
9.0
  9
$UNITMODE
 70
     0
  9
$VISRETAIN
 70
     1
  9
$PLINEGEN
 70
     0
  9
$PSLTSCALE
 70
     1
  9
$TREEDEPTH
 70
  3020
  9
$CMLSTYLE
  2
Standard
  9
$CMLJUST
 70
     0
  9
$CMLSCALE
 40
1.0
  9
$PROXYGRAPHICS
 70
     1
  9
$MEASUREMENT
 70
     0
  9
$CELWEIGHT
370
    -1
  9
$ENDCAPS
280
     0
  9
$JOINSTYLE
280
     0
  9
$LWDISPLAY
290
     1
  9
$INSUNITS
 70
     4
  9
$HYPERLINKBASE
  1

  9
$STYLESHEET
  1

  9
$XEDIT
290
     1
  9
$CEPSNTYPE
380
     0
  9
$PSTYLEMODE
290
     1
  9
$FINGERPRINTGUID
  2
{A84562A5-1E65-9A47-8205-D8BA3087ECF7}
  9
$VERSIONGUID
  2
{E8D54062-8248-1A4E-8B91-0723A3F90320}
  9
$EXTNAMES
290
     1
  9
$PSVPSCALE
 40
0.0
  9
$OLESTARTUP
290
     0
  9
$SORTENTS
280
   127
  9
$INDEXCTL
280
     0
  9
$HIDETEXT
280
     1
  9
$XCLIPFRAME
280
     2
  9
$HALOGAP
280
     0
  9
$OBSCOLOR
 70
   257
  9
$OBSLTYPE
280
     0
  9
$INTERSECTIONDISPLAY
280
     0
  9
$INTERSECTIONCOLOR
 70
   257
  9
$DIMASSOC
280
     2
  9
$PROJECTNAME
  1

  9
$CAMERADISPLAY
290
     0
  9
$LENSLENGTH
 40
50.0
  9
$CAMERAHEIGHT
 40
0.0
  9
$STEPSPERSEC
 40
2.0
  9
$STEPSIZE
 40
6.0
  9
$3DDWFPREC
 40
2.0
  9
$PSOLWIDTH
 40
0.25
  9
$PSOLHEIGHT
 40
4.0
  9
$LOFTANG1
 40
1.570796326794896
  9
$LOFTANG2
 40
1.570796326794896
  9
$LOFTMAG1
 40
0.0
  9
$LOFTMAG2
 40
0.0
  9
$LOFTPARAM
 70
     7
  9
$LOFTNORMALS
280
     1
  9
$LATITUDE
 40
37.795
  9
$LONGITUDE
 40
-122.394
  9
$NORTHDIRECTION
 40
0.0
  9
$TIMEZONE
 70
 -8000
  9
$LIGHTGLYPHDISPLAY
280
     1
  9
$TILEMODELIGHTSYNCH
280
     1
  9
$CMATERIAL
347
11
  9
$SOLIDHIST
280
     0
  9
$SHOWHIST
280
     1
  9
$DWFFRAME
280
     2
  9
$DGNFRAME
280
     0
  9
$REALWORLDSCALE
290
     1
  9
$INTERFERECOLOR
 62
     1
  9
$INTERFEREOBJVS
345
33
  9
$INTERFEREVPVS
346
30
  9
$CSHADOW
280
     0
  9
$SHADOWPLANELOCATION
 40
0.0
  0
ENDSEC
  0
SECTION
  2
CLASSES
  0
CLASS
  1
ACDBDICTIONARYWDFLT
  2
AcDbDictionaryWithDefault
  3
ObjectDBX Classes
 90
        0
 91
        1
280
     0
281
     0
  0
CLASS
  1
MATERIAL
  2
AcDbMaterial
  3
ObjectDBX Classes
 90
     1153
 91
        3
280
     0
281
     0
  0
CLASS
  1
VISUALSTYLE
  2
AcDbVisualStyle
  3
ObjectDBX Classes
 90
     4095
 91
       24
280
     0
281
     0
  0
CLASS
  1
SCALE
  2
AcDbScale
  3
ObjectDBX Classes
 90
     1153
 91
       17
280
     0
281
     0
  0
CLASS
  1
TABLESTYLE
  2
AcDbTableStyle
  3
ObjectDBX Classes
 90
     4095
 91
        1
280
     0
281
     0
  0
CLASS
  1
MLEADERSTYLE
  2
AcDbMLeaderStyle
  3
ACDB_MLEADERSTYLE_CLASS
 90
     4095
 91
        1
280
     0
281
     0
  0
CLASS
  1
ACDBSECTIONVIEWSTYLE
  2
AcDbSectionViewStyle
  3
ObjectDBX Classes
 90
     1025
 91
        1
280
     0
281
     0
  0
CLASS
  1
ACDBDETAILVIEWSTYLE
  2
AcDbDetailViewStyle
  3
ObjectDBX Classes
 90
     1025
 91
        1
280
     0
281
     0
  0
CLASS
  1
DICTIONARYVAR
  2
AcDbDictionaryVar
  3
ObjectDBX Classes
 90
        0
 91
        5
280
     0
281
     0
  0
CLASS
  1
CELLSTYLEMAP
  2
AcDbCellStyleMap
  3
ObjectDBX Classes
 90
     1152
 91
        1
280
     0
281
     0
  0
ENDSEC
  0
SECTION
  2
TABLES
  0
TABLE
  2
VPORT
  5
8
330
0
100
AcDbSymbolTable
 70
     1
  0
VPORT
  5
57
330
8
100
AcDbSymbolTableRecord
100
AcDbViewportTableRecord
  2
*Active
 70
     0
 10
0.0
 20
0.0
 11
1.0
 21
1.0
 12
0.0
 22
0.0
 13
0.0
 23
0.0
 14
1.0
 24
1.0
 15
0.0
 25
0.0
 16
0.0
 26
0.0
 36
1.0
 17
104.9999999737534
 27
-148.4999999628701
 37
0.0
 40
302.939999924255
 41
0.7070707070707534
 42
50.0
 43
0.0
 44
0.0
 50
0.0
 51
0.0
 71
     0
 72
   100
 73
     1
 74
     0
 75
     1
 76
     0
 77
     0
 78
     0
281
     0
 65
     1
110
0.0
120
0.0
130
0.0
111
1.0
121
0.0
131
0.0
112
0.0
122
1.0
132
0.0
 79
     0
146
0.0
 60
     3
 61
     5
292
     1
282
     1
141
0.0
142
0.0
 63
   250
421
  3355443
  0
ENDTAB
  0
TABLE
  2
LTYPE
  5
5
330
0
100
AcDbSymbolTable
 70
     2
  0
LTYPE
  5
5B
330
5
100
AcDbSymbolTableRecord
100
AcDbLinetypeTableRecord
  2
ByBlock
 70
     0
  3

 72
    65
 73
     0
 40
0.0
  0
LTYPE
  5
5C
330
5
100
AcDbSymbolTableRecord
100
AcDbLinetypeTableRecord
  2
ByLayer
 70
     0
  3

 72
    65
 73
     0
 40
0.0
  0
LTYPE
  5
5D
330
5
100
AcDbSymbolTableRecord
100
AcDbLinetypeTableRecord
  2
Continuous
 70
     0
  3
Solid line
 72
    65
 73
     0
 40
0.0
  0
LTYPE
  5
F7
330
5
100
AcDbSymbolTableRecord
100
AcDbLinetypeTableRecord
  2
AI-Linetype-0
 70
     0
  3
Adobe Illustrator Linetype No. 0
 72
    65
 73
     2
 40
1.411111110758333
 49
0.7055555553791667
 74
     0
 49
-0.7055555553791667
 74
     0
  0
ENDTAB
  0
TABLE
  2
LAYER
  5
2
330
0
100
AcDbSymbolTable
 70
     2
  0
LAYER
  5
54
330
2
100
AcDbSymbolTableRecord
100
AcDbLayerTableRecord
  2
0
 70
     0
 62
     7
  6
Continuous
370
    -3
390
F
347
21
  0
LAYER
  5
78
330
2
100
AcDbSymbolTableRecord
100
AcDbLayerTableRecord
  2
レイヤー 1
 70
     0
 62
     7
  6
Continuous
370
     0
390
F
347
21
  0
ENDTAB
  0
TABLE
  2
STYLE
  5
3
330
0
100
AcDbSymbolTable
 70
     2
  0
STYLE
  5
55
330
3
100
AcDbSymbolTableRecord
100
AcDbTextStyleTableRecord
  2
Standard
 70
     0
 40
0.0
 41
1.0
 50
0.0
 71
     0
 42
0.2
  3
txt
  4

  0
STYLE
  5
5A
330
3
100
AcDbSymbolTableRecord
100
AcDbTextStyleTableRecord
  2
Annotative
 70
     0
 40
0.0
 41
1.0
 50
0.0
 71
     0
 42
0.2
  3
txt
  4

1001
AcadAnnotative
1000
AnnotativeData
1002
{
1070
     1
1070
     1
1002
}
  0
ENDTAB
  0
TABLE
  2
VIEW
  5
6
330
0
100
AcDbSymbolTable
 70
     0
  0
ENDTAB
  0
TABLE
  2
UCS
  5
7
330
0
100
AcDbSymbolTable
 70
     0
  0
ENDTAB
  0
TABLE
  2
APPID
  5
9
330
0
100
AcDbSymbolTable
 70
     2
  0
APPID
  5
56
330
9
100
AcDbSymbolTableRecord
100
AcDbRegAppTableRecord
  2
ACAD
 70
     0
  0
APPID
  5
5E
330
9
100
AcDbSymbolTableRecord
100
AcDbRegAppTableRecord
  2
AcadAnnotative
 70
     0
  0
ENDTAB
  0
TABLE
  2
DIMSTYLE
  5
A
330
0
100
AcDbSymbolTable
 70
     2
100
AcDbDimStyleTable
 71
     0
  0
DIMSTYLE
105
58
330
A
100
AcDbSymbolTableRecord
100
AcDbDimStyleTableRecord
  2
Standard
 70
     0
340
55
  0
DIMSTYLE
105
59
330
A
100
AcDbSymbolTableRecord
100
AcDbDimStyleTableRecord
  2
Annotative
 70
     0
340
55
1001
AcadAnnotative
1000
AnnotativeData
1002
{
1070
     1
1070
     1
1002
}
  0
ENDTAB
  0
TABLE
  2
BLOCK_RECORD
  5
1
330
0
100
AcDbSymbolTable
 70
    17
  0
BLOCK_RECORD
  5
70
330
1
100
AcDbSymbolTableRecord
100
AcDbBlockTableRecord
  2
*Model_Space
340
73
 70
     0
280
     1
281
     0
  0
BLOCK_RECORD
  5
6C
330
1
100
AcDbSymbolTableRecord
100
AcDbBlockTableRecord
  2
*Paper_Space
340
6F
 70
     0
280
     1
281
     0
  0
BLOCK_RECORD
  5
74
330
1
100
AcDbSymbolTableRecord
100
AcDbBlockTableRecord
  2
*Paper_Space0
340
77
 70
     0
280
     1
281
     0
  0
BLOCK_RECORD
  5
79
330
1
100
AcDbSymbolTableRecord
100
AcDbBlockTableRecord
  2
Block_0
340
0
102
{BLKREFS
331
7A
102
}
 70
     0
280
     1
281
     0
  0
BLOCK_RECORD
  5
85
330
1
100
AcDbSymbolTableRecord
100
AcDbBlockTableRecord
  2
Block_1
340
0
102
{BLKREFS
331
86
102
}
 70
     0
280
     1
281
     0
  0
BLOCK_RECORD
  5
92
330
1
100
AcDbSymbolTableRecord
100
AcDbBlockTableRecord
  2
Block_2
340
0
102
{BLKREFS
331
93
102
}
 70
     0
280
     1
281
     0
  0
BLOCK_RECORD
  5
98
330
1
100
AcDbSymbolTableRecord
100
AcDbBlockTableRecord
  2
Block_3
340
0
102
{BLKREFS
331
99
102
}
 70
     0
280
     1
281
     0
  0
BLOCK_RECORD
  5
9C
330
1
100
AcDbSymbolTableRecord
100
AcDbBlockTableRecord
  2
Block_4
340
0
102
{BLKREFS
331
9D
102
}
 70
     0
280
     1
281
     0
  0
BLOCK_RECORD
  5
A9
330
1
100
AcDbSymbolTableRecord
100
AcDbBlockTableRecord
  2
Block_5
340
0
102
{BLKREFS
331
AA
102
}
 70
     0
280
     1
281
     0
  0
BLOCK_RECORD
  5
B2
330
1
100
AcDbSymbolTableRecord
100
AcDbBlockTableRecord
  2
Block_6
340
0
102
{BLKREFS
331
B3
102
}
 70
     0
280
     1
281
     0
  0
BLOCK_RECORD
  5
B6
330
1
100
AcDbSymbolTableRecord
100
AcDbBlockTableRecord
  2
Block_7
340
0
102
{BLKREFS
331
B7
102
}
 70
     0
280
     1
281
     0
  0
BLOCK_RECORD
  5
C5
330
1
100
AcDbSymbolTableRecord
100
AcDbBlockTableRecord
  2
Block_8
340
0
102
{BLKREFS
331
C6
102
}
 70
     0
280
     1
281
     0
  0
BLOCK_RECORD
  5
CF
330
1
100
AcDbSymbolTableRecord
100
AcDbBlockTableRecord
  2
Block_9
340
0
102
{BLKREFS
331
D0
102
}
 70
     0
280
     1
281
     0
  0
BLOCK_RECORD
  5
D3
330
1
100
AcDbSymbolTableRecord
100
AcDbBlockTableRecord
  2
Block_10
340
0
102
{BLKREFS
331
D4
102
}
 70
     0
280
     1
281
     0
  0
BLOCK_RECORD
  5
E1
330
1
100
AcDbSymbolTableRecord
100
AcDbBlockTableRecord
  2
Block_11
340
0
102
{BLKREFS
331
E2
102
}
 70
     0
280
     1
281
     0
  0
BLOCK_RECORD
  5
E5
330
1
100
AcDbSymbolTableRecord
100
AcDbBlockTableRecord
  2
Block_12
340
0
102
{BLKREFS
331
E6
102
}
 70
     0
280
     1
281
     0
  0
BLOCK_RECORD
  5
F2
330
1
100
AcDbSymbolTableRecord
100
AcDbBlockTableRecord
  2
Block_13
340
0
102
{BLKREFS
331
F3
102
}
 70
     0
280
     1
281
     0
  0
BLOCK_RECORD
  5
FA
330
1
100
AcDbSymbolTableRecord
100
AcDbBlockTableRecord
  2
Block_14
340
0
102
{BLKREFS
331
FB
102
}
 70
     0
280
     1
281
     0
  0
BLOCK_RECORD
  5
FE
330
1
100
AcDbSymbolTableRecord
100
AcDbBlockTableRecord
  2
Block_15
340
0
102
{BLKREFS
331
FF
102
}
 70
     0
280
     1
281
     0
  0
ENDTAB
  0
ENDSEC
  0
SECTION
  2
BLOCKS
  0
BLOCK
  5
71
330
70
100
AcDbEntity
  8
0
100
AcDbBlockBegin
  2
*Model_Space
 70
     0
 10
0.0
 20
0.0
 30
0.0
  3
*Model_Space
  1

  0
ENDBLK
  5
72
330
70
100
AcDbEntity
  8
0
100
AcDbBlockEnd
  0
BLOCK
  5
6D
330
6C
100
AcDbEntity
 67
     1
  8
0
100
AcDbBlockBegin
  2
*Paper_Space
 70
     0
 10
0.0
 20
0.0
 30
0.0
  3
*Paper_Space
  1

  0
ENDBLK
  5
6E
330
6C
100
AcDbEntity
 67
     1
  8
0
100
AcDbBlockEnd
  0
BLOCK
  5
75
330
74
100
AcDbEntity
 67
     1
  8
0
100
AcDbBlockBegin
  2
*Paper_Space0
 70
     0
 10
0.0
 20
0.0
 30
0.0
  3
*Paper_Space0
  1

  0
ENDBLK
  5
76
330
74
100
AcDbEntity
 67
     1
  8
0
100
AcDbBlockEnd
  0
BLOCK
  5
7B
330
79
100
AcDbEntity
  8
0
100
AcDbBlockBegin
  2
Block_0
 70
     0
 10
0.0
 20
0.0
 30
0.0
  3
Block_0
  1

  0
LWPOLYLINE
  5
7D
330
79
100
AcDbEntity
  8
レイヤー 1
 62
   250
420
  2299925
370
    25
100
AcDbPolyline
 90
       12
 70
     1
 43
0.0
 10
85.11894880170247
 20
-139.5917031794115
 10
88.18370566795847
 20
-139.5917031794115
 10
88.18370566795847
 20
-140.5618420435501
 10
86.17728210803546
 20
-142.4359739401814
 10
86.17728210803546
 20
-146.7743934025859
 10
125.1812741685163
 20
-146.7743934025859
 10
125.1812741685163
 20
-147.7714201929517
 10
86.17728210803546
 20
-147.7714201929517
 10
86.17728210803546
 20
-157.6855338289105
 10
95.09663299159498
 20
-157.6855338289105
 10
95.09663299159498
 20
-160.6162704208079
 10
85.11894880170247
 20
-160.6162704208079
  0
LWPOLYLINE
  5
7E
330
79
100
AcDbEntity
  8
レイヤー 1
 62
   250
420
  2299925
370
    25
100
AcDbPolyline
 90
        3
 70
     0
 43
0.0
 10
85.11894880170247
 20
-139.5917031794115
 10
86.17520071919967
 20
-140.5728839877131
 10
86.17728210803546
 20
-142.4359739401814
  0
LWPOLYLINE
  5
7F
330
79
100
AcDbEntity
  8
レイヤー 1
 62
   250
420
  2299925
370
    25
100
AcDbPolyline
 90
        3
 70
     0
 43
0.0
 10
86.17728210803546
 20
-157.6855338289105
 10
86.17728210803546
 20
-159.607537668765
 10
85.11894880170247
 20
-160.6162704208079
  0
SPLINE
  5
80
330
79
100
AcDbEntity
  8
レイヤー 1
 62
   250
420
  2299925
370
     9
100
AcDbSpline
210
0.0
220
0.0
230
1.0
 70
     9
 71
     3
 72
    17
 73
    13
 74
     0
 42
0.0000000001
 43
0.0000000001
 40
0.0
 40
0.0
 40
0.0
 40
0.0
 40
1.0
 40
1.0
 40
1.0
 40
2.0
 40
2.0
 40
2.0
 40
3.0
 40
3.0
 40
3.0
 40
4.0
 40
4.0
 40
4.0
 40
4.0
 10
93.95285690966403
 20
-139.597912068142
 30
0.0
 10
93.95285690966403
 20
-139.5428017377265
 30
0.0
 10
93.90805413302926
 20
-139.4979989599605
 30
0.0
 10
93.8529502455462
 20
-139.4979989599605
 30
0.0
 10
93.79781108028625
 20
-139.4979989599605
 30
0.0
 10
93.75304669912827
 20
-139.5428017377265
 30
0.0
 10
93.75304669912827
 20
-139.597912068142
 30
0.0
 10
93.75304669912827
 20
-139.6530512334019
 30
0.0
 10
93.79781108028625
 20
-139.6978187322598
 30
0.0
 10
93.8529502455462
 20
-139.6978187322598
 30
0.0
 10
93.90805413302926
 20
-139.6978187322598
 30
0.0
 10
93.95285690966403
 20
-139.6530512334019
 30
0.0
 10
93.95285690966403
 20
-139.597912068142
 30
0.0
  0
SPLINE
  5
81
330
79
100
AcDbEntity
  8
レイヤー 1
 62
   250
420
  2299925
370
     9
100
AcDbSpline
210
0.0
220
0.0
230
1.0
 70
     9
 71
     3
 72
    17
 73
    13
 74
     0
 42
0.0000000001
 43
0.0000000001
 40
0.0
 40
0.0
 40
0.0
 40
0.0
 40
1.0
 40
1.0
 40
1.0
 40
2.0
 40
2.0
 40
2.0
 40
3.0
 40
3.0
 40
3.0
 40
4.0
 40
4.0
 40
4.0
 40
4.0
 10
93.95285690966403
 20
-142.6068594913773
 30
0.0
 10
93.95285690966403
 20
-142.5514028261255
 30
0.0
 10
93.90805413302926
 20
-142.5066000494907
 30
0.0
 10
93.8529502455462
 20
-142.5066000494907
 30
0.0
 10
93.79781108028625
 20
-142.5066000494907
 30
0.0
 10
93.75304669912827
 20
-142.5514028261255
 30
0.0
 10
93.75304669912827
 20
-142.6068594913773
 30
0.0
 10
93.75304669912827
 20
-142.6619986566373
 30
0.0
 10
93.79781108028625
 20
-142.7067661554952
 30
0.0
 10
93.8529502455462
 20
-142.7067661554952
 30
0.0
 10
93.90805413302926
 20
-142.7067661554952
 30
0.0
 10
93.95285690966403
 20
-142.6619986566373
 30
0.0
 10
93.95285690966403
 20
-142.6068594913773
 30
0.0
  0
LINE
  5
82
330
79
100
AcDbEntity
  8
レイヤー 1
 62
   250
420
  2299925
370
     9
100
AcDbLine
 10
93.8529502455462
 20
-139.597912068142
 30
0.0
 11
93.8529502455462
 21
-142.5978989360504
 31
0.0
  0
LINE
  5
83
330
79
100
AcDbEntity
  8
レイヤー 1
 62
   250
420
  2299925
370
     9
100
AcDbLine
 10
90.70825393688521
 20
-139.597912068142
 30
0.0
 11
94.87473577503385
 21
-139.597912068142
 31
0.0
  0
LINE
  5
84
330
79
100
AcDbEntity
  8
レイヤー 1
 62
   250
420
  2299925
370
     9
100
AcDbLine
 10
90.68274810420257
 20
-142.5996211814064
 30
0.0
 11
94.87473577503385
 21
-142.5996211814064
 31
0.0
  0
INSERT
  5
86
330
79
100
AcDbEntity
  8
レイヤー 1
100
AcDbBlockReference
  2
Block_1
 10
0.0
 20
0.0
 30
0.0
  0
ENDBLK
  5
7C
330
79
100
AcDbEntity
  8
0
100
AcDbBlockEnd
  0
BLOCK
  5
87
330
85
100
AcDbEntity
  8
0
100
AcDbBlockBegin
  2
Block_1
 70
     0
 10
0.0
 20
0.0
 30
0.0
  3
Block_1
  1

  0
SPLINE
  5
89
330
85
100
AcDbEntity
  8
レイヤー 1
100
AcDbSpline
210
0.0
220
0.0
230
1.0
 70
     9
 71
     3
 72
    62
 73
    58
 74
     0
 42
0.0000000001
 43
0.0000000001
 40
0.0
 40
0.0
 40
0.0
 40
0.0
 40
1.0
 40
1.0
 40
1.0
 40
2.0
 40
2.0
 40
2.0
 40
3.0
 40
3.0
 40
3.0
 40
4.0
 40
4.0
 40
4.0
 40
5.0
 40
5.0
 40
5.0
 40
6.0
 40
6.0
 40
6.0
 40
7.0
 40
7.0
 40
7.0
 40
8.0
 40
8.0
 40
8.0
 40
9.0
 40
9.0
 40
9.0
 40
10.0
 40
10.0
 40
10.0
 40
11.0
 40
11.0
 40
11.0
 40
12.0
 40
12.0
 40
12.0
 40
13.0
 40
13.0
 40
13.0
 40
14.0
 40
14.0
 40
14.0
 40
15.0
 40
15.0
 40
15.0
 40
16.0
 40
16.0
 40
16.0
 40
17.0
 40
17.0
 40
17.0
 40
18.0
 40
18.0
 40
18.0
 40
19.0
 40
19.0
 40
19.0
 40
19.0
 10
93.25839027616458
 20
-141.1486626166225
 30
0.0
 10
93.25839027616458
 20
-141.2502929334374
 30
0.0
 10
93.23737519370455
 20
-141.4831813882403
 30
0.0
 10
93.05134003750106
 20
-141.6166788382937
 30
0.0
 10
92.93902992468192
 20
-141.6957437796802
 30
0.0
 10
92.83981117470672
 20
-141.700222403811
 30
0.0
 10
92.75506182576958
 20
-141.7047010279419
 30
0.0
 10
92.75506182576958
 20
-141.7047010279419
 30
0.0
 10
92.75506182576958
 20
-141.4697455158478
 30
0.0
 10
92.75506182576958
 20
-141.4697455158478
 30
0.0
 10
92.82913137870243
 20
-141.4673339490082
 30
0.0
 10
93.06374238124796
 20
-141.4561373886811
 30
0.0
 10
93.06374238124796
 20
-141.1531412407534
 30
0.0
 10
93.06374238124796
 20
-141.0062079183075
 30
0.0
 10
92.99415145244591
 20
-140.8434271566294
 30
0.0
 10
92.76574162177384
 20
-140.8434271566294
 30
0.0
 10
92.6492973943724
 20
-140.8434271566294
 30
0.0
 10
92.60072154803038
 20
-140.8840792833553
 30
0.0
 10
92.56902666956609
 20
-140.9180134738851
 30
0.0
 10
92.49495711663321
 20
-140.9970784152716
 30
0.0
 10
92.48221026333778
 20
-141.121446362289
 30
0.0
 10
92.48221026333778
 20
-141.1803574950868
 30
0.0
 10
92.48221026333778
 20
-141.2006835584498
 30
0.0
 10
92.48427732062893
 20
-141.2390963731104
 30
0.0
 10
92.48841143521124
 20
-141.268379684735
 30
0.0
 10
92.48841143521124
 20
-141.268379684735
 30
0.0
 10
92.29376354029461
 20
-141.268379684735
 30
0.0
 10
92.29376354029461
 20
-141.268379684735
 30
0.0
 10
92.30030922171659
 20
-141.227727558009
 30
0.0
 10
92.30237627900775
 20
-141.1825968071522
 30
0.0
 10
92.30237627900775
 20
-141.1757066161817
 30
0.0
 10
92.30237627900775
 20
-141.1055989230569
 30
0.0
 10
92.28101668699919
 20
-140.8932087863913
 30
0.0
 10
92.04433862716253
 20
-140.8932087863913
 30
0.0
 10
91.86657170012365
 20
-140.8932087863913
 30
0.0
 10
91.81145017235964
 20
-141.0332519178667
 30
0.0
 10
91.81145017235964
 20
-141.150901928688
 30
0.0
 10
91.81145017235964
 20
-141.4335720132527
 30
0.0
 10
92.04433862716253
 20
-141.4425292615144
 30
0.0
 10
92.11599661325573
 20
-141.4470078856452
 30
0.0
 10
92.11599661325573
 20
-141.4470078856452
 30
0.0
 10
92.11599661325573
 20
-141.6640489012159
 30
0.0
 10
92.11599661325573
 20
-141.6640489012159
 30
0.0
 10
91.99128415668969
 20
-141.6550916529543
 30
0.0
 10
91.61473522015187
 20
-141.6256360865554
 30
0.0
 10
91.61473522015187
 20
-141.1372938015212
 30
0.0
 10
91.61473522015187
 20
-140.8976874105221
 30
0.0
 10
91.74185924355759
 20
-140.6399942682254
 30
0.0
 10
92.03779294574056
 20
-140.6399942682254
 30
0.0
 10
92.22417261149258
 20
-140.6399942682254
 30
0.0
 10
92.30651039359004
 20
-140.7416245850403
 30
0.0
 10
92.36783309322749
 20
-140.8479057807602
 30
0.0
 10
92.39539385710948
 20
-140.7824489665405
 30
0.0
 10
92.47566458191581
 20
-140.5879733263981
 30
0.0
 10
92.75299476847841
 20
-140.5879733263981
 30
0.0
 10
93.09130314512996
 20
-140.5879733263981
 30
0.0
 10
93.25839027616458
 20
-140.852384404891
 30
0.0
 10
93.25839027616458
 20
-141.1486626166225
 30
0.0
  0
HATCH
  5
8A
330
85
100
AcDbEntity
  8
レイヤー 1
 62
   250
420
  2299925
440
 33554687
100
AcDbHatch
 10
0.0
 20
0.0
 30
0.0
210
0.0
220
0.0
230
1.0
  2
SOLID
 70
     1
 71
     1
 91
        1
 92
        1
 93
        1
 72
     4
 94
        3
 73
     0
 74
     0
 95
       62
 96
       58
 40
0.0
 40
0.0
 40
0.0
 40
0.0
 40
1.0
 40
1.0
 40
1.0
 40
2.0
 40
2.0
 40
2.0
 40
3.0
 40
3.0
 40
3.0
 40
4.0
 40
4.0
 40
4.0
 40
5.0
 40
5.0
 40
5.0
 40
6.0
 40
6.0
 40
6.0
 40
7.0
 40
7.0
 40
7.0
 40
8.0
 40
8.0
 40
8.0
 40
9.0
 40
9.0
 40
9.0
 40
10.0
 40
10.0
 40
10.0
 40
11.0
 40
11.0
 40
11.0
 40
12.0
 40
12.0
 40
12.0
 40
13.0
 40
13.0
 40
13.0
 40
14.0
 40
14.0
 40
14.0
 40
15.0
 40
15.0
 40
15.0
 40
16.0
 40
16.0
 40
16.0
 40
17.0
 40
17.0
 40
17.0
 40
18.0
 40
18.0
 40
18.0
 40
19.0
 40
19.0
 40
19.0
 40
19.0
 10
93.25839027616458
 20
-141.1486626166225
 10
93.25839027616458
 20
-141.2502929334374
 10
93.23737519370455
 20
-141.4831813882403
 10
93.05134003750106
 20
-141.6166788382937
 10
92.93902992468192
 20
-141.6957437796802
 10
92.83981117470672
 20
-141.700222403811
 10
92.75506182576958
 20
-141.7047010279419
 10
92.75506182576958
 20
-141.7047010279419
 10
92.75506182576958
 20
-141.4697455158478
 10
92.75506182576958
 20
-141.4697455158478
 10
92.82913137870243
 20
-141.4673339490082
 10
93.06374238124796
 20
-141.4561373886811
 10
93.06374238124796
 20
-141.1531412407534
 10
93.06374238124796
 20
-141.0062079183075
 10
92.99415145244591
 20
-140.8434271566294
 10
92.76574162177384
 20
-140.8434271566294
 10
92.6492973943724
 20
-140.8434271566294
 10
92.60072154803038
 20
-140.8840792833553
 10
92.56902666956609
 20
-140.9180134738851
 10
92.49495711663321
 20
-140.9970784152716
 10
92.48221026333778
 20
-141.121446362289
 10
92.48221026333778
 20
-141.1803574950868
 10
92.48221026333778
 20
-141.2006835584498
 10
92.48427732062893
 20
-141.2390963731104
 10
92.48841143521124
 20
-141.268379684735
 10
92.48841143521124
 20
-141.268379684735
 10
92.29376354029461
 20
-141.268379684735
 10
92.29376354029461
 20
-141.268379684735
 10
92.30030922171659
 20
-141.227727558009
 10
92.30237627900775
 20
-141.1825968071522
 10
92.30237627900775
 20
-141.1757066161817
 10
92.30237627900775
 20
-141.1055989230569
 10
92.28101668699919
 20
-140.8932087863913
 10
92.04433862716253
 20
-140.8932087863913
 10
91.86657170012365
 20
-140.8932087863913
 10
91.81145017235964
 20
-141.0332519178667
 10
91.81145017235964
 20
-141.150901928688
 10
91.81145017235964
 20
-141.4335720132527
 10
92.04433862716253
 20
-141.4425292615144
 10
92.11599661325573
 20
-141.4470078856452
 10
92.11599661325573
 20
-141.4470078856452
 10
92.11599661325573
 20
-141.6640489012159
 10
92.11599661325573
 20
-141.6640489012159
 10
91.99128415668969
 20
-141.6550916529543
 10
91.61473522015187
 20
-141.6256360865554
 10
91.61473522015187
 20
-141.1372938015212
 10
91.61473522015187
 20
-140.8976874105221
 10
91.74185924355759
 20
-140.6399942682254
 10
92.03779294574056
 20
-140.6399942682254
 10
92.22417261149258
 20
-140.6399942682254
 10
92.30651039359004
 20
-140.7416245850403
 10
92.36783309322749
 20
-140.8479057807602
 10
92.39539385710948
 20
-140.7824489665405
 10
92.47566458191581
 20
-140.5879733263981
 10
92.75299476847841
 20
-140.5879733263981
 10
93.09130314512996
 20
-140.5879733263981
 10
93.25839027616458
 20
-140.852384404891
 10
93.25839027616458
 20
-141.1486626166225
 97
        0
 97
        1
330
89
 75
     2
 76
     1
 98
        1
 10
0.0
 20
0.0
450
        0
451
        0
460
0.0
461
0.0
452
        0
462
0.0
453
        0
470

  0
ENDBLK
  5
88
330
85
100
AcDbEntity
  8
0
100
AcDbBlockEnd
  0
BLOCK
  5
94
330
92
100
AcDbEntity
  8
0
100
AcDbBlockBegin
  2
Block_2
 70
     0
 10
0.0
 20
0.0
 30
0.0
  3
Block_2
  1

  0
SPLINE
  5
96
330
92
100
AcDbEntity
  8
レイヤー 1
100
AcDbSpline
210
0.0
220
0.0
230
1.0
 70
     9
 71
     3
 72
    62
 73
    58
 74
     0
 42
0.0000000001
 43
0.0000000001
 40
0.0
 40
0.0
 40
0.0
 40
0.0
 40
1.0
 40
1.0
 40
1.0
 40
2.0
 40
2.0
 40
2.0
 40
3.0
 40
3.0
 40
3.0
 40
4.0
 40
4.0
 40
4.0
 40
5.0
 40
5.0
 40
5.0
 40
6.0
 40
6.0
 40
6.0
 40
7.0
 40
7.0
 40
7.0
 40
8.0
 40
8.0
 40
8.0
 40
9.0
 40
9.0
 40
9.0
 40
10.0
 40
10.0
 40
10.0
 40
11.0
 40
11.0
 40
11.0
 40
12.0
 40
12.0
 40
12.0
 40
13.0
 40
13.0
 40
13.0
 40
14.0
 40
14.0
 40
14.0
 40
15.0
 40
15.0
 40
15.0
 40
16.0
 40
16.0
 40
16.0
 40
17.0
 40
17.0
 40
17.0
 40
18.0
 40
18.0
 40
18.0
 40
19.0
 40
19.0
 40
19.0
 40
19.0
 10
129.7333387262472
 20
-159.053512872563
 30
0.0
 10
129.7333387262472
 20
-159.1551431893779
 30
0.0
 10
129.7123236437872
 20
-159.3880316441808
 30
0.0
 10
129.5262884875837
 20
-159.5217013490085
 30
0.0
 10
129.4139783747645
 20
-159.6005940356207
 30
0.0
 10
129.3147596247893
 20
-159.6050726597515
 30
0.0
 10
129.2300102758522
 20
-159.6095512838823
 30
0.0
 10
129.2300102758522
 20
-159.6095512838823
 30
0.0
 10
129.2300102758522
 20
-159.3745957717883
 30
0.0
 10
129.2300102758522
 20
-159.3745957717883
 30
0.0
 10
129.3040798287851
 20
-159.3721842049486
 30
0.0
 10
129.5386908313306
 20
-159.3611598993958
 30
0.0
 10
129.5386908313306
 20
-159.0579914966938
 30
0.0
 10
129.5386908313306
 20
-158.9112304290222
 30
0.0
 10
129.4690999025285
 20
-158.7482774125698
 30
0.0
 10
129.2406900718565
 20
-158.7482774125698
 30
0.0
 10
129.124245844455
 20
-158.7482774125698
 30
0.0
 10
129.075669998113
 20
-158.7889295392958
 30
0.0
 10
129.0439751196487
 20
-158.8230359845998
 30
0.0
 10
128.9699055667158
 20
-158.901928671212
 30
0.0
 10
128.9571587134204
 20
-159.0262966182295
 30
0.0
 10
128.9571587134204
 20
-159.0852077510273
 30
0.0
 10
128.9571587134204
 20
-159.1055338143903
 30
0.0
 10
128.9592257707116
 20
-159.1441188838251
 30
0.0
 10
128.9633598852939
 20
-159.1730576859012
 30
0.0
 10
128.9633598852939
 20
-159.1730576859012
 30
0.0
 10
128.7687119903773
 20
-159.1730576859012
 30
0.0
 10
128.7687119903773
 20
-159.1730576859012
 30
0.0
 10
128.7752576717992
 20
-159.1324055591752
 30
0.0
 10
128.7773247290904
 20
-159.087619317867
 30
0.0
 10
128.7773247290904
 20
-159.0807291268965
 30
0.0
 10
128.7773247290904
 20
-159.0104491789974
 30
0.0
 10
128.7559651370818
 20
-158.798231297106
 30
0.0
 10
128.5192870772452
 20
-158.798231297106
 30
0.0
 10
128.3415201502063
 20
-158.798231297106
 30
0.0
 10
128.2863986224423
 20
-158.9381021738071
 30
0.0
 10
128.2863986224423
 20
-159.0559244394027
 30
0.0
 10
128.2863986224423
 20
-159.3384222691932
 30
0.0
 10
128.5192870772452
 20
-159.3473795174548
 30
0.0
 10
128.5909450633384
 20
-159.3518581415857
 30
0.0
 10
128.5909450633384
 20
-159.3518581415857
 30
0.0
 10
128.5909450633384
 20
-159.5688991571563
 30
0.0
 10
128.5909450633384
 20
-159.5688991571563
 30
0.0
 10
128.4662326067723
 20
-159.5599419088947
 30
0.0
 10
128.0896836702345
 20
-159.5306585972701
 30
0.0
 10
128.0896836702345
 20
-159.0421440574617
 30
0.0
 10
128.0896836702345
 20
-158.8023654116883
 30
0.0
 10
128.2168076936402
 20
-158.5446722693916
 30
0.0
 10
128.5127413958232
 20
-158.5446722693916
 30
0.0
 10
128.6991210615752
 20
-158.5446722693916
 30
0.0
 10
128.7814588436727
 20
-158.646647095755
 30
0.0
 10
128.8427815433101
 20
-158.7527560367007
 30
0.0
 10
128.8703423071921
 20
-158.6872992224809
 30
0.0
 10
128.9506130319985
 20
-158.4929958371128
 30
0.0
 10
129.2279432185611
 20
-158.4929958371128
 30
0.0
 10
129.5662515952126
 20
-158.4929958371128
 30
0.0
 10
129.7333387262472
 20
-158.7572346608315
 30
0.0
 10
129.7333387262472
 20
-159.053512872563
 30
0.0
  0
HATCH
  5
97
330
92
100
AcDbEntity
  8
レイヤー 1
 62
   250
420
  2299925
440
 33554687
100
AcDbHatch
 10
0.0
 20
0.0
 30
0.0
210
0.0
220
0.0
230
1.0
  2
SOLID
 70
     1
 71
     1
 91
        1
 92
        1
 93
        1
 72
     4
 94
        3
 73
     0
 74
     0
 95
       62
 96
       58
 40
0.0
 40
0.0
 40
0.0
 40
0.0
 40
1.0
 40
1.0
 40
1.0
 40
2.0
 40
2.0
 40
2.0
 40
3.0
 40
3.0
 40
3.0
 40
4.0
 40
4.0
 40
4.0
 40
5.0
 40
5.0
 40
5.0
 40
6.0
 40
6.0
 40
6.0
 40
7.0
 40
7.0
 40
7.0
 40
8.0
 40
8.0
 40
8.0
 40
9.0
 40
9.0
 40
9.0
 40
10.0
 40
10.0
 40
10.0
 40
11.0
 40
11.0
 40
11.0
 40
12.0
 40
12.0
 40
12.0
 40
13.0
 40
13.0
 40
13.0
 40
14.0
 40
14.0
 40
14.0
 40
15.0
 40
15.0
 40
15.0
 40
16.0
 40
16.0
 40
16.0
 40
17.0
 40
17.0
 40
17.0
 40
18.0
 40
18.0
 40
18.0
 40
19.0
 40
19.0
 40
19.0
 40
19.0
 10
129.7333387262472
 20
-159.053512872563
 10
129.7333387262472
 20
-159.1551431893779
 10
129.7123236437872
 20
-159.3880316441808
 10
129.5262884875837
 20
-159.5217013490085
 10
129.4139783747645
 20
-159.6005940356207
 10
129.3147596247893
 20
-159.6050726597515
 10
129.2300102758522
 20
-159.6095512838823
 10
129.2300102758522
 20
-159.6095512838823
 10
129.2300102758522
 20
-159.3745957717883
 10
129.2300102758522
 20
-159.3745957717883
 10
129.3040798287851
 20
-159.3721842049486
 10
129.5386908313306
 20
-159.3611598993958
 10
129.5386908313306
 20
-159.0579914966938
 10
129.5386908313306
 20
-158.9112304290222
 10
129.4690999025285
 20
-158.7482774125698
 10
129.2406900718565
 20
-158.7482774125698
 10
129.124245844455
 20
-158.7482774125698
 10
129.075669998113
 20
-158.7889295392958
 10
129.0439751196487
 20
-158.8230359845998
 10
128.9699055667158
 20
-158.901928671212
 10
128.9571587134204
 20
-159.0262966182295
 10
128.9571587134204
 20
-159.0852077510273
 10
128.9571587134204
 20
-159.1055338143903
 10
128.9592257707116
 20
-159.1441188838251
 10
128.9633598852939
 20
-159.1730576859012
 10
128.9633598852939
 20
-159.1730576859012
 10
128.7687119903773
 20
-159.1730576859012
 10
128.7687119903773
 20
-159.1730576859012
 10
128.7752576717992
 20
-159.1324055591752
 10
128.7773247290904
 20
-159.087619317867
 10
128.7773247290904
 20
-159.0807291268965
 10
128.7773247290904
 20
-159.0104491789974
 10
128.7559651370818
 20
-158.798231297106
 10
128.5192870772452
 20
-158.798231297106
 10
128.3415201502063
 20
-158.798231297106
 10
128.2863986224423
 20
-158.9381021738071
 10
128.2863986224423
 20
-159.0559244394027
 10
128.2863986224423
 20
-159.3384222691932
 10
128.5192870772452
 20
-159.3473795174548
 10
128.5909450633384
 20
-159.3518581415857
 10
128.5909450633384
 20
-159.3518581415857
 10
128.5909450633384
 20
-159.5688991571563
 10
128.5909450633384
 20
-159.5688991571563
 10
128.4662326067723
 20
-159.5599419088947
 10
128.0896836702345
 20
-159.5306585972701
 10
128.0896836702345
 20
-159.0421440574617
 10
128.0896836702345
 20
-158.8023654116883
 10
128.2168076936402
 20
-158.5446722693916
 10
128.5127413958232
 20
-158.5446722693916
 10
128.6991210615752
 20
-158.5446722693916
 10
128.7814588436727
 20
-158.646647095755
 10
128.8427815433101
 20
-158.7527560367007
 10
128.8703423071921
 20
-158.6872992224809
 10
128.9506130319985
 20
-158.4929958371128
 10
129.2279432185611
 20
-158.4929958371128
 10
129.5662515952126
 20
-158.4929958371128
 10
129.7333387262472
 20
-158.7572346608315
 10
129.7333387262472
 20
-159.053512872563
 97
        0
 97
        1
330
96
 75
     2
 76
     1
 98
        1
 10
0.0
 20
0.0
450
        0
451
        0
460
0.0
461
0.0
452
        0
462
0.0
453
        0
470

  0
ENDBLK
  5
95
330
92
100
AcDbEntity
  8
0
100
AcDbBlockEnd
  0
BLOCK
  5
9A
330
98
100
AcDbEntity
  8
0
100
AcDbBlockBegin
  2
Block_3
 70
     0
 10
0.0
 20
0.0
 30
0.0
  3
Block_3
  1

  0
INSERT
  5
9D
330
98
100
AcDbEntity
  8
レイヤー 1
100
AcDbBlockReference
  2
Block_4
 10
0.0
 20
0.0
 30
0.0
  0
ENDBLK
  5
9B
330
98
100
AcDbEntity
  8
0
100
AcDbBlockEnd
  0
BLOCK
  5
9E
330
9C
100
AcDbEntity
  8
0
100
AcDbBlockBegin
  2
Block_4
 70
     0
 10
0.0
 20
0.0
 30
0.0
  3
Block_4
  1

  0
SPLINE
  5
A0
330
9C
100
AcDbEntity
  8
レイヤー 1
100
AcDbSpline
210
0.0
220
0.0
230
1.0
 70
     9
 71
     3
 72
    17
 73
    13
 74
     0
 42
0.0000000001
 43
0.0000000001
 40
0.0
 40
0.0
 40
0.0
 40
0.0
 40
1.0
 40
1.0
 40
1.0
 40
2.0
 40
2.0
 40
2.0
 40
3.0
 40
3.0
 40
3.0
 40
4.0
 40
4.0
 40
4.0
 40
4.0
 10
128.2819199983115
 20
-153.7273952523667
 30
0.0
 10
128.2819199983115
 20
-153.8538302566754
 30
0.0
 10
128.3391085833666
 20
-154.0419324701701
 30
0.0
 10
128.6247069990938
 20
-154.0419324701701
 30
0.0
 10
128.8510497724747
 20
-154.0419324701701
 30
0.0
 10
128.9461344078676
 20
-153.8924153261102
 30
0.0
 10
128.9461344078676
 20
-153.7477213157297
 30
0.0
 10
128.9461344078676
 20
-153.4672905432304
 30
0.0
 10
128.7366726023644
 20
-153.4266384165044
 30
0.0
 10
128.620228374963
 20
-153.4266384165044
 30
0.0
 10
128.4448730147638
 20
-153.4266384165044
 30
0.0
 10
128.2819199983115
 20
-153.5286132428678
 30
0.0
 10
128.2819199983115
 20
-153.7273952523667
 30
0.0
  0
SPLINE
  5
A1
330
9C
100
AcDbEntity
  8
レイヤー 1
100
AcDbSpline
210
0.0
220
0.0
230
1.0
 70
     9
 71
     3
 72
    32
 73
    28
 74
     0
 42
0.0000000001
 43
0.0000000001
 40
0.0
 40
0.0
 40
0.0
 40
0.0
 40
1.0
 40
1.0
 40
1.0
 40
2.0
 40
2.0
 40
2.0
 40
3.0
 40
3.0
 40
3.0
 40
4.0
 40
4.0
 40
4.0
 40
5.0
 40
5.0
 40
5.0
 40
6.0
 40
6.0
 40
6.0
 40
7.0
 40
7.0
 40
7.0
 40
8.0
 40
8.0
 40
8.0
 40
9.0
 40
9.0
 40
9.0
 40
9.0
 10
129.7329942166987
 20
-153.7704589459324
 30
0.0
 10
129.7329942166987
 20
-153.9558050830388
 30
0.0
 10
129.6634032878966
 20
-154.2179768494663
 30
0.0
 10
129.3312960831185
 20
-154.2589734857408
 30
0.0
 10
129.3312960831185
 20
-154.2589734857408
 30
0.0
 10
129.3312960831185
 20
-154.0302191455202
 30
0.0
 10
129.3312960831185
 20
-154.0302191455202
 30
0.0
 10
129.3905517254648
 20
-154.0191948399674
 30
0.0
 10
129.5383463217821
 20
-153.985432904212
 30
0.0
 10
129.5383463217821
 20
-153.7683918886412
 30
0.0
 10
129.5383463217821
 20
-153.4562662376776
 30
0.0
 10
129.2086506838437
 20
-153.4156141109516
 30
0.0
 10
129.0033229929228
 20
-153.4018337290106
 30
0.0
 10
129.0835937177291
 20
-153.4989854216947
 30
0.0
 10
129.1407823027842
 20
-153.5713324268849
 30
0.0
 10
129.1407823027842
 20
-153.7659803218016
 30
0.0
 10
129.1407823027842
 20
-153.95787214033
 30
0.0
 10
129.0350178713871
 20
-154.2813666063949
 30
0.0
 10
128.6288411136761
 20
-154.2813666063949
 30
0.0
 10
128.3094807621934
 20
-154.2813666063949
 30
0.0
 10
128.089339160686
 20
-154.068804214955
 30
0.0
 10
128.089339160686
 20
-153.7298068192064
 30
0.0
 10
128.089339160686
 20
-153.1803140893091
 30
0.0
 10
128.6436550242627
 20
-153.1689452742077
 30
0.0
 10
128.8572509443482
 20
-153.1689452742077
 30
0.0
 10
129.0877278323114
 20
-153.1689452742077
 30
0.0
 10
129.7329942166987
 20
-153.1896158471192
 30
0.0
 10
129.7329942166987
 20
-153.7704589459324
 30
0.0
  0
HATCH
  5
A2
330
9C
100
AcDbEntity
  8
レイヤー 1
 62
   250
420
  2299925
440
 33554687
100
AcDbHatch
 10
0.0
 20
0.0
 30
0.0
210
0.0
220
0.0
230
1.0
  2
SOLID
 70
     1
 71
     1
 91
        2
 92
        1
 93
        1
 72
     4
 94
        3
 73
     0
 74
     0
 95
       17
 96
       13
 40
0.0
 40
0.0
 40
0.0
 40
0.0
 40
1.0
 40
1.0
 40
1.0
 40
2.0
 40
2.0
 40
2.0
 40
3.0
 40
3.0
 40
3.0
 40
4.0
 40
4.0
 40
4.0
 40
4.0
 10
128.2819199983115
 20
-153.7273952523667
 10
128.2819199983115
 20
-153.8538302566754
 10
128.3391085833666
 20
-154.0419324701701
 10
128.6247069990938
 20
-154.0419324701701
 10
128.8510497724747
 20
-154.0419324701701
 10
128.9461344078676
 20
-153.8924153261102
 10
128.9461344078676
 20
-153.7477213157297
 10
128.9461344078676
 20
-153.4672905432304
 10
128.7366726023644
 20
-153.4266384165044
 10
128.620228374963
 20
-153.4266384165044
 10
128.4448730147638
 20
-153.4266384165044
 10
128.2819199983115
 20
-153.5286132428678
 10
128.2819199983115
 20
-153.7273952523667
 97
        0
 97
        1
330
A0
 92
        1
 93
        1
 72
     4
 94
        3
 73
     0
 74
     0
 95
       32
 96
       28
 40
0.0
 40
0.0
 40
0.0
 40
0.0
 40
1.0
 40
1.0
 40
1.0
 40
2.0
 40
2.0
 40
2.0
 40
3.0
 40
3.0
 40
3.0
 40
4.0
 40
4.0
 40
4.0
 40
5.0
 40
5.0
 40
5.0
 40
6.0
 40
6.0
 40
6.0
 40
7.0
 40
7.0
 40
7.0
 40
8.0
 40
8.0
 40
8.0
 40
9.0
 40
9.0
 40
9.0
 40
9.0
 10
129.7329942166987
 20
-153.7704589459324
 10
129.7329942166987
 20
-153.9558050830388
 10
129.6634032878966
 20
-154.2179768494663
 10
129.3312960831185
 20
-154.2589734857408
 10
129.3312960831185
 20
-154.2589734857408
 10
129.3312960831185
 20
-154.0302191455202
 10
129.3312960831185
 20
-154.0302191455202
 10
129.3905517254648
 20
-154.0191948399674
 10
129.5383463217821
 20
-153.985432904212
 10
129.5383463217821
 20
-153.7683918886412
 10
129.5383463217821
 20
-153.4562662376776
 10
129.2086506838437
 20
-153.4156141109516
 10
129.0033229929228
 20
-153.4018337290106
 10
129.0835937177291
 20
-153.4989854216947
 10
129.1407823027842
 20
-153.5713324268849
 10
129.1407823027842
 20
-153.7659803218016
 10
129.1407823027842
 20
-153.95787214033
 10
129.0350178713871
 20
-154.2813666063949
 10
128.6288411136761
 20
-154.2813666063949
 10
128.3094807621934
 20
-154.2813666063949
 10
128.089339160686
 20
-154.068804214955
 10
128.089339160686
 20
-153.7298068192064
 10
128.089339160686
 20
-153.1803140893091
 10
128.6436550242627
 20
-153.1689452742077
 10
128.8572509443482
 20
-153.1689452742077
 10
129.0877278323114
 20
-153.1689452742077
 10
129.7329942166987
 20
-153.1896158471192
 10
129.7329942166987
 20
-153.7704589459324
 97
        0
 97
        1
330
A1
 75
     2
 76
     1
 98
        1
 10
0.0
 20
0.0
450
        0
451
        0
460
0.0
461
0.0
452
        0
462
0.0
453
        0
470

  0
SPLINE
  5
A3
330
9C
100
AcDbEntity
  8
レイヤー 1
100
AcDbSpline
210
0.0
220
0.0
230
1.0
 70
    11
 71
     3
 72
    17
 73
    13
 74
     0
 42
0.0000000001
 43
0.0000000001
 40
0.0
 40
0.0
 40
0.0
 40
0.0
 40
1.0
 40
1.0
 40
1.0
 40
2.0
 40
2.0
 40
2.0
 40
3.0
 40
3.0
 40
3.0
 40
4.0
 40
4.0
 40
4.0
 40
4.0
 10
129.6823513130655
 20
-152.937434857599
 30
0.0
 10
129.6823513130655
 20
-152.937434857599
 30
0.0
 10
129.4305148330937
 20
-152.937434857599
 30
0.0
 10
129.4305148330937
 20
-152.937434857599
 30
0.0
 10
129.4305148330937
 20
-152.937434857599
 30
0.0
 10
129.4305148330937
 20
-152.6687174097495
 30
0.0
 10
129.4305148330937
 20
-152.6687174097495
 30
0.0
 10
129.4305148330937
 20
-152.6687174097495
 30
0.0
 10
129.6823513130655
 20
-152.6687174097495
 30
0.0
 10
129.6823513130655
 20
-152.6687174097495
 30
0.0
 10
129.6823513130655
 20
-152.6687174097495
 30
0.0
 10
129.6823513130655
 20
-152.937434857599
 30
0.0
 10
129.6823513130655
 20
-152.937434857599
 30
0.0
  0
HATCH
  5
A4
330
9C
100
AcDbEntity
  8
レイヤー 1
 62
   250
420
  2299925
440
 33554687
100
AcDbHatch
 10
0.0
 20
0.0
 30
0.0
210
0.0
220
0.0
230
1.0
  2
SOLID
 70
     1
 71
     1
 91
        1
 92
        1
 93
        1
 72
     4
 94
        3
 73
     0
 74
     0
 95
       17
 96
       13
 40
0.0
 40
0.0
 40
0.0
 40
0.0
 40
1.0
 40
1.0
 40
1.0
 40
2.0
 40
2.0
 40
2.0
 40
3.0
 40
3.0
 40
3.0
 40
4.0
 40
4.0
 40
4.0
 40
4.0
 10
129.6823513130655
 20
-152.937434857599
 10
129.6823513130655
 20
-152.937434857599
 10
129.4305148330937
 20
-152.937434857599
 10
129.4305148330937
 20
-152.937434857599
 10
129.4305148330937
 20
-152.937434857599
 10
129.4305148330937
 20
-152.6687174097495
 10
129.4305148330937
 20
-152.6687174097495
 10
129.4305148330937
 20
-152.6687174097495
 10
129.6823513130655
 20
-152.6687174097495
 10
129.6823513130655
 20
-152.6687174097495
 10
129.6823513130655
 20
-152.6687174097495
 10
129.6823513130655
 20
-152.937434857599
 10
129.6823513130655
 20
-152.937434857599
 97
        0
 97
        1
330
A3
 75
     2
 76
     1
 98
        1
 10
0.0
 20
0.0
450
        0
451
        0
460
0.0
461
0.0
452
        0
462
0.0
453
        0
470

  0
SPLINE
  5
A5
330
9C
100
AcDbEntity
  8
レイヤー 1
100
AcDbSpline
210
0.0
220
0.0
230
1.0
 70
     9
 71
     3
 72
    17
 73
    13
 74
     0
 42
0.0000000001
 43
0.0000000001
 40
0.0
 40
0.0
 40
0.0
 40
0.0
 40
1.0
 40
1.0
 40
1.0
 40
2.0
 40
2.0
 40
2.0
 40
3.0
 40
3.0
 40
3.0
 40
4.0
 40
4.0
 40
4.0
 40
4.0
 10
128.9420002932853
 20
-151.8815130913699
 30
0.0
 10
128.9420002932853
 20
-152.0355088595605
 30
0.0
 10
129.0288166995136
 20
-152.1981173664643
 30
0.0
 10
129.2317328235948
 20
-152.1981173664643
 30
0.0
 10
129.4370605145157
 20
-152.1981173664643
 30
0.0
 10
129.5383463217821
 20
-152.0623806043455
 30
0.0
 10
129.5383463217821
 20
-151.8815130913699
 30
0.0
 10
129.5383463217821
 20
-151.682731081871
 30
0.0
 10
129.4157009225072
 20
-151.5649088162754
 30
0.0
 10
129.2379339954683
 20
-151.5649088162754
 30
0.0
 10
129.0160698462182
 20
-151.5649088162754
 30
0.0
 10
128.9420002932853
 20
-151.739230647829
 30
0.0
 10
128.9420002932853
 20
-151.8815130913699
 30
0.0
  0
SPLINE
  5
A6
330
9C
100
AcDbEntity
  8
レイヤー 1
100
AcDbSpline
210
0.0
220
0.0
230
1.0
 70
     9
 71
     3
 72
    17
 73
    13
 74
     0
 42
0.0000000001
 43
0.0000000001
 40
0.0
 40
0.0
 40
0.0
 40
0.0
 40
1.0
 40
1.0
 40
1.0
 40
2.0
 40
2.0
 40
2.0
 40
3.0
 40
3.0
 40
3.0
 40
4.0
 40
4.0
 40
4.0
 40
4.0
 10
128.2819199983115
 20
-151.8815130913699
 30
0.0
 10
128.2819199983115
 20
-152.0579019802147
 30
0.0
 10
128.3770046337043
 20
-152.1485079914768
 30
0.0
 10
128.5123968862746
 20
-152.1485079914768
 30
0.0
 10
128.6350422855496
 20
-152.1485079914768
 30
0.0
 10
128.7535535702421
 20
-152.0713378526072
 30
0.0
 10
128.7535535702421
 20
-151.8815130913699
 30
0.0
 10
128.7535535702421
 20
-151.6916883301326
 30
0.0
 10
128.6350422855496
 20
-151.6148627008115
 30
0.0
 10
128.5123968862746
 20
-151.6148627008115
 30
0.0
 10
128.3770046337043
 20
-151.6148627008115
 30
0.0
 10
128.2819199983115
 20
-151.7075357693648
 30
0.0
 10
128.2819199983115
 20
-151.8815130913699
 30
0.0
  0
SPLINE
  5
A7
330
9C
100
AcDbEntity
  8
レイヤー 1
100
AcDbSpline
210
0.0
220
0.0
230
1.0
 70
     9
 71
     3
 72
    29
 73
    25
 74
     0
 42
0.0000000001
 43
0.0000000001
 40
0.0
 40
0.0
 40
0.0
 40
0.0
 40
1.0
 40
1.0
 40
1.0
 40
2.0
 40
2.0
 40
2.0
 40
3.0
 40
3.0
 40
3.0
 40
4.0
 40
4.0
 40
4.0
 40
5.0
 40
5.0
 40
5.0
 40
6.0
 40
6.0
 40
6.0
 40
7.0
 40
7.0
 40
7.0
 40
8.0
 40
8.0
 40
8.0
 40
8.0
 10
129.7329942166987
 20
-151.8815130913699
 30
0.0
 10
129.7329942166987
 20
-152.1664224880001
 30
0.0
 10
129.5955349068372
 20
-152.4378960122377
 30
0.0
 10
129.2465467341814
 20
-152.4378960122377
 30
0.0
 10
128.9905761396273
 20
-152.4378960122377
 30
0.0
 10
128.8954915042344
 20
-152.2863118108867
 30
0.0
 10
128.834168804597
 20
-152.1733126789706
 30
0.0
 10
128.7749131622507
 20
-152.3066378742497
 30
0.0
 10
128.6605359921404
 20
-152.3879421277016
 30
0.0
 10
128.4996500329792
 20
-152.3879421277016
 30
0.0
 10
128.2247314132563
 20
-152.3879421277016
 30
0.0
 10
128.089339160686
 20
-152.1753797362617
 30
0.0
 10
128.089339160686
 20
-151.8815130913699
 30
0.0
 10
128.089339160686
 20
-151.5786891982164
 30
0.0
 10
128.2333441519694
 20
-151.3750840550381
 30
0.0
 10
128.4996500329792
 20
-151.3750840550381
 30
0.0
 10
128.6605359921404
 20
-151.3750840550381
 30
0.0
 10
128.7749131622507
 20
-151.4587998753297
 30
0.0
 10
128.834168804597
 20
-151.5921250706089
 30
0.0
 10
128.8848117082302
 20
-151.4973849447645
 30
0.0
 10
128.9798963436231
 20
-151.3278862468902
 30
0.0
 10
129.2424126195991
 20
-151.3278862468902
 30
0.0
 10
129.6168944988458
 20
-151.3278862468902
 30
0.0
 10
129.7329942166987
 20
-151.6262315159129
 30
0.0
 10
129.7329942166987
 20
-151.8815130913699
 30
0.0
  0
HATCH
  5
A8
330
9C
100
AcDbEntity
  8
レイヤー 1
 62
   250
420
  2299925
440
 33554687
100
AcDbHatch
 10
0.0
 20
0.0
 30
0.0
210
0.0
220
0.0
230
1.0
  2
SOLID
 70
     1
 71
     1
 91
        3
 92
        1
 93
        1
 72
     4
 94
        3
 73
     0
 74
     0
 95
       17
 96
       13
 40
0.0
 40
0.0
 40
0.0
 40
0.0
 40
1.0
 40
1.0
 40
1.0
 40
2.0
 40
2.0
 40
2.0
 40
3.0
 40
3.0
 40
3.0
 40
4.0
 40
4.0
 40
4.0
 40
4.0
 10
128.9420002932853
 20
-151.8815130913699
 10
128.9420002932853
 20
-152.0355088595605
 10
129.0288166995136
 20
-152.1981173664643
 10
129.2317328235948
 20
-152.1981173664643
 10
129.4370605145157
 20
-152.1981173664643
 10
129.5383463217821
 20
-152.0623806043455
 10
129.5383463217821
 20
-151.8815130913699
 10
129.5383463217821
 20
-151.682731081871
 10
129.4157009225072
 20
-151.5649088162754
 10
129.2379339954683
 20
-151.5649088162754
 10
129.0160698462182
 20
-151.5649088162754
 10
128.9420002932853
 20
-151.739230647829
 10
128.9420002932853
 20
-151.8815130913699
 97
        0
 97
        1
330
A5
 92
        1
 93
        1
 72
     4
 94
        3
 73
     0
 74
     0
 95
       17
 96
       13
 40
0.0
 40
0.0
 40
0.0
 40
0.0
 40
1.0
 40
1.0
 40
1.0
 40
2.0
 40
2.0
 40
2.0
 40
3.0
 40
3.0
 40
3.0
 40
4.0
 40
4.0
 40
4.0
 40
4.0
 10
128.2819199983115
 20
-151.8815130913699
 10
128.2819199983115
 20
-152.0579019802147
 10
128.3770046337043
 20
-152.1485079914768
 10
128.5123968862746
 20
-152.1485079914768
 10
128.6350422855496
 20
-152.1485079914768
 10
128.7535535702421
 20
-152.0713378526072
 10
128.7535535702421
 20
-151.8815130913699
 10
128.7535535702421
 20
-151.6916883301326
 10
128.6350422855496
 20
-151.6148627008115
 10
128.5123968862746
 20
-151.6148627008115
 10
128.3770046337043
 20
-151.6148627008115
 10
128.2819199983115
 20
-151.7075357693648
 10
128.2819199983115
 20
-151.8815130913699
 97
        0
 97
        1
330
A6
 92
        1
 93
        1
 72
     4
 94
        3
 73
     0
 74
     0
 95
       29
 96
       25
 40
0.0
 40
0.0
 40
0.0
 40
0.0
 40
1.0
 40
1.0
 40
1.0
 40
2.0
 40
2.0
 40
2.0
 40
3.0
 40
3.0
 40
3.0
 40
4.0
 40
4.0
 40
4.0
 40
5.0
 40
5.0
 40
5.0
 40
6.0
 40
6.0
 40
6.0
 40
7.0
 40
7.0
 40
7.0
 40
8.0
 40
8.0
 40
8.0
 40
8.0
 10
129.7329942166987
 20
-151.8815130913699
 10
129.7329942166987
 20
-152.1664224880001
 10
129.5955349068372
 20
-152.4378960122377
 10
129.2465467341814
 20
-152.4378960122377
 10
128.9905761396273
 20
-152.4378960122377
 10
128.8954915042344
 20
-152.2863118108867
 10
128.834168804597
 20
-152.1733126789706
 10
128.7749131622507
 20
-152.3066378742497
 10
128.6605359921404
 20
-152.3879421277016
 10
128.4996500329792
 20
-152.3879421277016
 10
128.2247314132563
 20
-152.3879421277016
 10
128.089339160686
 20
-152.1753797362617
 10
128.089339160686
 20
-151.8815130913699
 10
128.089339160686
 20
-151.5786891982164
 10
128.2333441519694
 20
-151.3750840550381
 10
128.4996500329792
 20
-151.3750840550381
 10
128.6605359921404
 20
-151.3750840550381
 10
128.7749131622507
 20
-151.4587998753297
 10
128.834168804597
 20
-151.5921250706089
 10
128.8848117082302
 20
-151.4973849447645
 10
128.9798963436231
 20
-151.3278862468902
 10
129.2424126195991
 20
-151.3278862468902
 10
129.6168944988458
 20
-151.3278862468902
 10
129.7329942166987
 20
-151.6262315159129
 10
129.7329942166987
 20
-151.8815130913699
 97
        0
 97
        1
330
A7
 75
     2
 76
     1
 98
        1
 10
0.0
 20
0.0
450
        0
451
        0
460
0.0
461
0.0
452
        0
462
0.0
453
        0
470

  0
ENDBLK
  5
9F
330
9C
100
AcDbEntity
  8
0
100
AcDbBlockEnd
  0
BLOCK
  5
AB
330
A9
100
AcDbEntity
  8
0
100
AcDbBlockBegin
  2
Block_5
 70
     0
 10
0.0
 20
0.0
 30
0.0
  3
Block_5
  1

  0
SPLINE
  5
AD
330
A9
100
AcDbEntity
  8
レイヤー 1
100
AcDbSpline
210
0.0
220
0.0
230
1.0
 70
    11
 71
     3
 72
    26
 73
    22
 74
     0
 42
0.0000000001
 43
0.0000000001
 40
0.0
 40
0.0
 40
0.0
 40
0.0
 40
1.0
 40
1.0
 40
1.0
 40
2.0
 40
2.0
 40
2.0
 40
3.0
 40
3.0
 40
3.0
 40
4.0
 40
4.0
 40
4.0
 40
5.0
 40
5.0
 40
5.0
 40
6.0
 40
6.0
 40
6.0
 40
7.0
 40
7.0
 40
7.0
 40
7.0
 10
129.6823513130655
 20
-145.564069245293
 30
0.0
 10
129.6823513130655
 20
-145.564069245293
 30
0.0
 10
128.5781982100429
 20
-145.564069245293
 30
0.0
 10
128.5781982100429
 20
-145.564069245293
 30
0.0
 10
128.5781982100429
 20
-145.564069245293
 30
0.0
 10
128.5781982100429
 20
-145.9168470229826
 30
0.0
 10
128.5781982100429
 20
-145.9168470229826
 30
0.0
 10
128.5781982100429
 20
-145.9168470229826
 30
0.0
 10
128.4300591041772
 20
-145.9168470229826
 30
0.0
 10
128.4300591041772
 20
-145.9168470229826
 30
0.0
 10
128.4152451935906
 20
-145.5618299332276
 30
0.0
 10
128.2522921771383
 20
-145.5120483034657
 30
0.0
 10
128.137915007028
 20
-145.4805256797757
 30
0.0
 10
128.137915007028
 20
-145.4805256797757
 30
0.0
 10
128.137915007028
 20
-145.3244628542939
 30
0.0
 10
128.137915007028
 20
-145.3244628542939
 30
0.0
 10
128.137915007028
 20
-145.3244628542939
 30
0.0
 10
129.6823513130655
 20
-145.3244628542939
 30
0.0
 10
129.6823513130655
 20
-145.3244628542939
 30
0.0
 10
129.6823513130655
 20
-145.3244628542939
 30
0.0
 10
129.6823513130655
 20
-145.564069245293
 30
0.0
 10
129.6823513130655
 20
-145.564069245293
 30
0.0
  0
HATCH
  5
AE
330
A9
100
AcDbEntity
  8
レイヤー 1
 62
   250
420
  2299925
440
 33554687
100
AcDbHatch
 10
0.0
 20
0.0
 30
0.0
210
0.0
220
0.0
230
1.0
  2
SOLID
 70
     1
 71
     1
 91
        1
 92
        1
 93
        1
 72
     4
 94
        3
 73
     0
 74
     0
 95
       26
 96
       22
 40
0.0
 40
0.0
 40
0.0
 40
0.0
 40
1.0
 40
1.0
 40
1.0
 40
2.0
 40
2.0
 40
2.0
 40
3.0
 40
3.0
 40
3.0
 40
4.0
 40
4.0
 40
4.0
 40
5.0
 40
5.0
 40
5.0
 40
6.0
 40
6.0
 40
6.0
 40
7.0
 40
7.0
 40
7.0
 40
7.0
 10
129.6823513130655
 20
-145.564069245293
 10
129.6823513130655
 20
-145.564069245293
 10
128.5781982100429
 20
-145.564069245293
 10
128.5781982100429
 20
-145.564069245293
 10
128.5781982100429
 20
-145.564069245293
 10
128.5781982100429
 20
-145.9168470229826
 10
128.5781982100429
 20
-145.9168470229826
 10
128.5781982100429
 20
-145.9168470229826
 10
128.4300591041772
 20
-145.9168470229826
 10
128.4300591041772
 20
-145.9168470229826
 10
128.4152451935906
 20
-145.5618299332276
 10
128.2522921771383
 20
-145.5120483034657
 10
128.137915007028
 20
-145.4805256797757
 10
128.137915007028
 20
-145.4805256797757
 10
128.137915007028
 20
-145.3244628542939
 10
128.137915007028
 20
-145.3244628542939
 10
128.137915007028
 20
-145.3244628542939
 10
129.6823513130655
 20
-145.3244628542939
 10
129.6823513130655
 20
-145.3244628542939
 10
129.6823513130655
 20
-145.3244628542939
 10
129.6823513130655
 20
-145.564069245293
 10
129.6823513130655
 20
-145.564069245293
 97
        0
 97
        1
330
AD
 75
     2
 76
     1
 98
        1
 10
0.0
 20
0.0
450
        0
451
        0
460
0.0
461
0.0
452
        0
462
0.0
453
        0
470

  0
ENDBLK
  5
AC
330
A9
100
AcDbEntity
  8
0
100
AcDbBlockEnd
  0
BLOCK
  5
B4
330
B2
100
AcDbEntity
  8
0
100
AcDbBlockBegin
  2
Block_6
 70
     0
 10
0.0
 20
0.0
 30
0.0
  3
Block_6
  1

  0
INSERT
  5
B7
330
B2
100
AcDbEntity
  8
レイヤー 1
100
AcDbBlockReference
  2
Block_7
 10
0.0
 20
0.0
 30
0.0
  0
ENDBLK
  5
B5
330
B2
100
AcDbEntity
  8
0
100
AcDbBlockEnd
  0
BLOCK
  5
B8
330
B6
100
AcDbEntity
  8
0
100
AcDbBlockBegin
  2
Block_7
 70
     0
 10
0.0
 20
0.0
 30
0.0
  3
Block_7
  1

  0
SPLINE
  5
BA
330
B6
100
AcDbEntity
  8
レイヤー 1
100
AcDbSpline
210
0.0
220
0.0
230
1.0
 70
    11
 71
     3
 72
    14
 73
    10
 74
     0
 42
0.0000000001
 43
0.0000000001
 40
0.0
 40
0.0
 40
0.0
 40
0.0
 40
1.0
 40
1.0
 40
1.0
 40
2.0
 40
2.0
 40
2.0
 40
3.0
 40
3.0
 40
3.0
 40
3.0
 10
104.6976575801624
 20
-134.5139254763541
 30
0.0
 10
104.6976575801624
 20
-134.5139254763541
 30
0.0
 10
104.2091430403539
 20
-135.1698716567457
 30
0.0
 10
104.2091430403539
 20
-135.1698716567457
 30
0.0
 10
104.2091430403539
 20
-135.1698716567457
 30
0.0
 10
104.6976575801624
 20
-135.1698716567457
 30
0.0
 10
104.6976575801624
 20
-135.1698716567457
 30
0.0
 10
104.6976575801624
 20
-135.1698716567457
 30
0.0
 10
104.6976575801624
 20
-134.5139254763541
 30
0.0
 10
104.6976575801624
 20
-134.5139254763541
 30
0.0
  0
SPLINE
  5
BB
330
B6
100
AcDbEntity
  8
レイヤー 1
100
AcDbSpline
210
0.0
220
0.0
230
1.0
 70
    11
 71
     3
 72
    38
 73
    34
 74
     0
 42
0.0000000001
 43
0.0000000001
 40
0.0
 40
0.0
 40
0.0
 40
0.0
 40
1.0
 40
1.0
 40
1.0
 40
2.0
 40
2.0
 40
2.0
 40
3.0
 40
3.0
 40
3.0
 40
4.0
 40
4.0
 40
4.0
 40
5.0
 40
5.0
 40
5.0
 40
6.0
 40
6.0
 40
6.0
 40
7.0
 40
7.0
 40
7.0
 40
8.0
 40
8.0
 40
8.0
 40
9.0
 40
9.0
 40
9.0
 40
10.0
 40
10.0
 40
10.0
 40
11.0
 40
11.0
 40
11.0
 40
11.0
 10
104.930373780191
 20
-135.3686536662446
 30
0.0
 10
104.930373780191
 20
-135.3686536662446
 30
0.0
 10
104.930373780191
 20
-135.7155747816093
 30
0.0
 10
104.930373780191
 20
-135.7155747816093
 30
0.0
 10
104.930373780191
 20
-135.7155747816093
 30
0.0
 10
104.6976575801624
 20
-135.7155747816093
 30
0.0
 10
104.6976575801624
 20
-135.7155747816093
 30
0.0
 10
104.6976575801624
 20
-135.7155747816093
 30
0.0
 10
104.6976575801624
 20
-135.3686536662446
 30
0.0
 10
104.6976575801624
 20
-135.3686536662446
 30
0.0
 10
104.6976575801624
 20
-135.3686536662446
 30
0.0
 10
103.9967529036883
 20
-135.3686536662446
 30
0.0
 10
103.9967529036883
 20
-135.3686536662446
 30
0.0
 10
103.9967529036883
 20
-135.3686536662446
 30
0.0
 10
103.9967529036883
 20
-135.1443779501549
 30
0.0
 10
103.9967529036883
 20
-135.1443779501549
 30
0.0
 10
103.9967529036883
 20
-135.1443779501549
 30
0.0
 10
104.7224622676562
 20
-134.1711384755718
 30
0.0
 10
104.7224622676562
 20
-134.1711384755718
 30
0.0
 10
104.7224622676562
 20
-134.1711384755718
 30
0.0
 10
104.930373780191
 20
-134.1711384755718
 30
0.0
 10
104.930373780191
 20
-134.1711384755718
 30
0.0
 10
104.930373780191
 20
-134.1711384755718
 30
0.0
 10
104.930373780191
 20
-135.1698716567457
 30
0.0
 10
104.930373780191
 20
-135.1698716567457
 30
0.0
 10
104.930373780191
 20
-135.1698716567457
 30
0.0
 10
105.1520656746668
 20
-135.1698716567457
 30
0.0
 10
105.1520656746668
 20
-135.1698716567457
 30
0.0
 10
105.1520656746668
 20
-135.1698716567457
 30
0.0
 10
105.1520656746668
 20
-135.3686536662446
 30
0.0
 10
105.1520656746668
 20
-135.3686536662446
 30
0.0
 10
105.1520656746668
 20
-135.3686536662446
 30
0.0
 10
104.930373780191
 20
-135.3686536662446
 30
0.0
 10
104.930373780191
 20
-135.3686536662446
 30
0.0
  0
HATCH
  5
BC
330
B6
100
AcDbEntity
  8
レイヤー 1
 62
   250
420
  2299925
440
 33554687
100
AcDbHatch
 10
0.0
 20
0.0
 30
0.0
210
0.0
220
0.0
230
1.0
  2
SOLID
 70
     1
 71
     1
 91
        2
 92
        1
 93
        1
 72
     4
 94
        3
 73
     0
 74
     0
 95
       14
 96
       10
 40
0.0
 40
0.0
 40
0.0
 40
0.0
 40
1.0
 40
1.0
 40
1.0
 40
2.0
 40
2.0
 40
2.0
 40
3.0
 40
3.0
 40
3.0
 40
3.0
 10
104.6976575801624
 20
-134.5139254763541
 10
104.6976575801624
 20
-134.5139254763541
 10
104.2091430403539
 20
-135.1698716567457
 10
104.2091430403539
 20
-135.1698716567457
 10
104.2091430403539
 20
-135.1698716567457
 10
104.6976575801624
 20
-135.1698716567457
 10
104.6976575801624
 20
-135.1698716567457
 10
104.6976575801624
 20
-135.1698716567457
 10
104.6976575801624
 20
-134.5139254763541
 10
104.6976575801624
 20
-134.5139254763541
 97
        0
 97
        1
330
BA
 92
        1
 93
        1
 72
     4
 94
        3
 73
     0
 74
     0
 95
       38
 96
       34
 40
0.0
 40
0.0
 40
0.0
 40
0.0
 40
1.0
 40
1.0
 40
1.0
 40
2.0
 40
2.0
 40
2.0
 40
3.0
 40
3.0
 40
3.0
 40
4.0
 40
4.0
 40
4.0
 40
5.0
 40
5.0
 40
5.0
 40
6.0
 40
6.0
 40
6.0
 40
7.0
 40
7.0
 40
7.0
 40
8.0
 40
8.0
 40
8.0
 40
9.0
 40
9.0
 40
9.0
 40
10.0
 40
10.0
 40
10.0
 40
11.0
 40
11.0
 40
11.0
 40
11.0
 10
104.930373780191
 20
-135.3686536662446
 10
104.930373780191
 20
-135.3686536662446
 10
104.930373780191
 20
-135.7155747816093
 10
104.930373780191
 20
-135.7155747816093
 10
104.930373780191
 20
-135.7155747816093
 10
104.6976575801624
 20
-135.7155747816093
 10
104.6976575801624
 20
-135.7155747816093
 10
104.6976575801624
 20
-135.7155747816093
 10
104.6976575801624
 20
-135.3686536662446
 10
104.6976575801624
 20
-135.3686536662446
 10
104.6976575801624
 20
-135.3686536662446
 10
103.9967529036883
 20
-135.3686536662446
 10
103.9967529036883
 20
-135.3686536662446
 10
103.9967529036883
 20
-135.3686536662446
 10
103.9967529036883
 20
-135.1443779501549
 10
103.9967529036883
 20
-135.1443779501549
 10
103.9967529036883
 20
-135.1443779501549
 10
104.7224622676562
 20
-134.1711384755718
 10
104.7224622676562
 20
-134.1711384755718
 10
104.7224622676562
 20
-134.1711384755718
 10
104.930373780191
 20
-134.1711384755718
 10
104.930373780191
 20
-134.1711384755718
 10
104.930373780191
 20
-134.1711384755718
 10
104.930373780191
 20
-135.1698716567457
 10
104.930373780191
 20
-135.1698716567457
 10
104.930373780191
 20
-135.1698716567457
 10
105.1520656746668
 20
-135.1698716567457
 10
105.1520656746668
 20
-135.1698716567457
 10
105.1520656746668
 20
-135.1698716567457
 10
105.1520656746668
 20
-135.3686536662446
 10
105.1520656746668
 20
-135.3686536662446
 10
105.1520656746668
 20
-135.3686536662446
 10
104.930373780191
 20
-135.3686536662446
 10
104.930373780191
 20
-135.3686536662446
 97
        0
 97
        1
330
BB
 75
     2
 76
     1
 98
        1
 10
0.0
 20
0.0
450
        0
451
        0
460
0.0
461
0.0
452
        0
462
0.0
453
        0
470

  0
SPLINE
  5
BD
330
B6
100
AcDbEntity
  8
レイヤー 1
100
AcDbSpline
210
0.0
220
0.0
230
1.0
 70
     9
 71
     3
 72
    17
 73
    13
 74
     0
 42
0.0000000001
 43
0.0000000001
 40
0.0
 40
0.0
 40
0.0
 40
0.0
 40
1.0
 40
1.0
 40
1.0
 40
2.0
 40
2.0
 40
2.0
 40
3.0
 40
3.0
 40
3.0
 40
4.0
 40
4.0
 40
4.0
 40
4.0
 10
105.833333306875
 20
-134.3151434668552
 30
0.0
 10
105.5663384067681
 20
-134.3151434668552
 30
0.0
 10
105.5167290317805
 20
-134.5986748252913
 30
0.0
 10
105.5167290317805
 20
-134.9435288833648
 30
0.0
 10
105.5167290317805
 20
-135.2628892348475
 30
0.0
 10
105.5549695916668
 20
-135.5715697903258
 30
0.0
 10
105.833333306875
 20
-135.5715697903258
 30
0.0
 10
106.0975721305936
 20
-135.5715697903258
 30
0.0
 10
106.1495930724209
 20
-135.2904499987295
 30
0.0
 10
106.1495930724209
 20
-134.9435288833648
 30
0.0
 10
106.1495930724209
 20
-134.6238240223336
 30
0.0
 10
106.108940945695
 20
-134.3151434668552
 30
0.0
 10
105.833333306875
 20
-134.3151434668552
 30
0.0
  0
SPLINE
  5
BE
330
B6
100
AcDbEntity
  8
レイヤー 1
100
AcDbSpline
210
0.0
220
0.0
230
1.0
 70
     9
 71
     3
 72
    29
 73
    25
 74
     0
 42
0.0000000001
 43
0.0000000001
 40
0.0
 40
0.0
 40
0.0
 40
0.0
 40
1.0
 40
1.0
 40
1.0
 40
2.0
 40
2.0
 40
2.0
 40
3.0
 40
3.0
 40
3.0
 40
4.0
 40
4.0
 40
4.0
 40
5.0
 40
5.0
 40
5.0
 40
6.0
 40
6.0
 40
6.0
 40
7.0
 40
7.0
 40
7.0
 40
8.0
 40
8.0
 40
8.0
 40
8.0
 10
106.2581135802063
 20
-135.5378078545704
 30
0.0
 10
106.1430473909989
 20
-135.7472696600736
 30
0.0
 10
105.9577012538925
 20
-135.7662176852425
 30
0.0
 10
105.833333306875
 20
-135.7662176852425
 30
0.0
 10
105.661423042161
 20
-135.7662176852425
 30
0.0
 10
105.50983884081
 20
-135.7197088961916
 30
0.0
 10
105.4082085239951
 20
-135.5378078545704
 30
0.0
 10
105.2974487041444
 20
-135.3431599596538
 30
0.0
 10
105.2771226407814
 20
-135.1061373902686
 30
0.0
 10
105.2771226407814
 20
-134.9435288833648
 30
0.0
 10
105.2771226407814
 20
-134.7995238920813
 30
0.0
 10
105.2952093920789
 20
-134.5476874121096
 30
0.0
 10
105.4082085239951
 20
-134.3489054026107
 30
0.0
 10
105.523619222751
 20
-134.1459892785294
 30
0.0
 10
105.6951849779165
 20
-134.1225626292297
 30
0.0
 10
105.833333306875
 20
-134.1225626292297
 30
0.0
 10
106.0028320047493
 20
-134.1225626292297
 30
0.0
 10
106.1564832633914
 20
-134.1670043609895
 30
0.0
 10
106.2581135802063
 20
-134.3489054026107
 30
0.0
 10
106.3645670307005
 20
-134.5414862402361
 30
0.0
 10
106.3893717181943
 20
-134.7698960709082
 30
0.0
 10
106.3893717181943
 20
-134.9435288833648
 30
0.0
 10
106.3893717181943
 20
-135.1147501289817
 30
0.0
 10
106.3666340879917
 20
-135.3452270169449
 30
0.0
 10
106.2581135802063
 20
-135.5378078545704
 30
0.0
  0
HATCH
  5
BF
330
B6
100
AcDbEntity
  8
レイヤー 1
 62
   250
420
  2299925
440
 33554687
100
AcDbHatch
 10
0.0
 20
0.0
 30
0.0
210
0.0
220
0.0
230
1.0
  2
SOLID
 70
     1
 71
     1
 91
        2
 92
        1
 93
        1
 72
     4
 94
        3
 73
     0
 74
     0
 95
       17
 96
       13
 40
0.0
 40
0.0
 40
0.0
 40
0.0
 40
1.0
 40
1.0
 40
1.0
 40
2.0
 40
2.0
 40
2.0
 40
3.0
 40
3.0
 40
3.0
 40
4.0
 40
4.0
 40
4.0
 40
4.0
 10
105.833333306875
 20
-134.3151434668552
 10
105.5663384067681
 20
-134.3151434668552
 10
105.5167290317805
 20
-134.5986748252913
 10
105.5167290317805
 20
-134.9435288833648
 10
105.5167290317805
 20
-135.2628892348475
 10
105.5549695916668
 20
-135.5715697903258
 10
105.833333306875
 20
-135.5715697903258
 10
106.0975721305936
 20
-135.5715697903258
 10
106.1495930724209
 20
-135.2904499987295
 10
106.1495930724209
 20
-134.9435288833648
 10
106.1495930724209
 20
-134.6238240223336
 10
106.108940945695
 20
-134.3151434668552
 10
105.833333306875
 20
-134.3151434668552
 97
        0
 97
        1
330
BD
 92
        1
 93
        1
 72
     4
 94
        3
 73
     0
 74
     0
 95
       29
 96
       25
 40
0.0
 40
0.0
 40
0.0
 40
0.0
 40
1.0
 40
1.0
 40
1.0
 40
2.0
 40
2.0
 40
2.0
 40
3.0
 40
3.0
 40
3.0
 40
4.0
 40
4.0
 40
4.0
 40
5.0
 40
5.0
 40
5.0
 40
6.0
 40
6.0
 40
6.0
 40
7.0
 40
7.0
 40
7.0
 40
8.0
 40
8.0
 40
8.0
 40
8.0
 10
106.2581135802063
 20
-135.5378078545704
 10
106.1430473909989
 20
-135.7472696600736
 10
105.9577012538925
 20
-135.7662176852425
 10
105.833333306875
 20
-135.7662176852425
 10
105.661423042161
 20
-135.7662176852425
 10
105.50983884081
 20
-135.7197088961916
 10
105.4082085239951
 20
-135.5378078545704
 10
105.2974487041444
 20
-135.3431599596538
 10
105.2771226407814
 20
-135.1061373902686
 10
105.2771226407814
 20
-134.9435288833648
 10
105.2771226407814
 20
-134.7995238920813
 10
105.2952093920789
 20
-134.5476874121096
 10
105.4082085239951
 20
-134.3489054026107
 10
105.523619222751
 20
-134.1459892785294
 10
105.6951849779165
 20
-134.1225626292297
 10
105.833333306875
 20
-134.1225626292297
 10
106.0028320047493
 20
-134.1225626292297
 10
106.1564832633914
 20
-134.1670043609895
 10
106.2581135802063
 20
-134.3489054026107
 10
106.3645670307005
 20
-134.5414862402361
 10
106.3893717181943
 20
-134.7698960709082
 10
106.3893717181943
 20
-134.9435288833648
 10
106.3893717181943
 20
-135.1147501289817
 10
106.3666340879917
 20
-135.3452270169449
 10
106.2581135802063
 20
-135.5378078545704
 97
        0
 97
        1
330
BE
 75
     2
 76
     1
 98
        1
 10
0.0
 20
0.0
450
        0
451
        0
460
0.0
461
0.0
452
        0
462
0.0
453
        0
470

  0
ENDBLK
  5
B9
330
B6
100
AcDbEntity
  8
0
100
AcDbBlockEnd
  0
BLOCK
  5
C7
330
C5
100
AcDbEntity
  8
0
100
AcDbBlockBegin
  2
Block_8
 70
     0
 10
0.0
 20
0.0
 30
0.0
  3
Block_8
  1

  0
SPLINE
  5
C9
330
C5
100
AcDbEntity
  8
レイヤー 1
100
AcDbSpline
210
0.0
220
0.0
230
1.0
 70
     9
 71
     3
 72
    62
 73
    58
 74
     0
 42
0.0000000001
 43
0.0000000001
 40
0.0
 40
0.0
 40
0.0
 40
0.0
 40
1.0
 40
1.0
 40
1.0
 40
2.0
 40
2.0
 40
2.0
 40
3.0
 40
3.0
 40
3.0
 40
4.0
 40
4.0
 40
4.0
 40
5.0
 40
5.0
 40
5.0
 40
6.0
 40
6.0
 40
6.0
 40
7.0
 40
7.0
 40
7.0
 40
8.0
 40
8.0
 40
8.0
 40
9.0
 40
9.0
 40
9.0
 40
10.0
 40
10.0
 40
10.0
 40
11.0
 40
11.0
 40
11.0
 40
12.0
 40
12.0
 40
12.0
 40
13.0
 40
13.0
 40
13.0
 40
14.0
 40
14.0
 40
14.0
 40
15.0
 40
15.0
 40
15.0
 40
16.0
 40
16.0
 40
16.0
 40
17.0
 40
17.0
 40
17.0
 40
18.0
 40
18.0
 40
18.0
 40
19.0
 40
19.0
 40
19.0
 40
19.0
 10
86.73355168187564
 20
-132.8654472866621
 30
0.0
 10
86.63192136506078
 20
-132.8654472866621
 30
0.0
 10
86.39903291025788
 20
-132.8444322042021
 30
0.0
 10
86.26553546020444
 20
-132.6583970479986
 30
0.0
 10
86.18647051881797
 20
-132.5460869351794
 30
0.0
 10
86.18199189468715
 20
-132.4468681852042
 30
0.0
 10
86.17751327055632
 20
-132.3621188362671
 30
0.0
 10
86.17751327055632
 20
-132.3621188362671
 30
0.0
 10
86.41246878265036
 20
-132.3621188362671
 30
0.0
 10
86.41246878265036
 20
-132.3621188362671
 30
0.0
 10
86.41488034949004
 20
-132.4361883892
 30
0.0
 10
86.4260769098171
 20
-132.6707993917455
 30
0.0
 10
86.72907305774481
 20
-132.6707993917455
 30
0.0
 10
86.87600638019073
 20
-132.6707993917455
 30
0.0
 10
87.03878714186878
 20
-132.6012084629434
 30
0.0
 10
87.03878714186878
 20
-132.3727986322714
 30
0.0
 10
87.03878714186878
 20
-132.2563544048699
 30
0.0
 10
86.99813501514283
 20
-132.2077785585279
 30
0.0
 10
86.96420082461312
 20
-132.1760836800636
 30
0.0
 10
86.88513588322663
 20
-132.1020141271307
 30
0.0
 10
86.76076793620913
 20
-132.0892672738353
 30
0.0
 10
86.70185680341134
 20
-132.0892672738353
 30
0.0
 10
86.68153074004838
 20
-132.0892672738353
 30
0.0
 10
86.64311792538784
 20
-132.0913343311265
 30
0.0
 10
86.61383461376322
 20
-132.0954684457088
 30
0.0
 10
86.61383461376322
 20
-132.0954684457088
 30
0.0
 10
86.61383461376322
 20
-131.9008205507921
 30
0.0
 10
86.61383461376322
 20
-131.9008205507921
 30
0.0
 10
86.65448674048915
 20
-131.9073662322141
 30
0.0
 10
86.69961749134593
 20
-131.9094332895053
 30
0.0
 10
86.70650768231643
 20
-131.9094332895053
 30
0.0
 10
86.77661537544127
 20
-131.9094332895053
 30
0.0
 10
86.98900551210691
 20
-131.8880736974967
 30
0.0
 10
86.98900551210691
 20
-131.6513956376601
 30
0.0
 10
86.98900551210691
 20
-131.4736287106212
 30
0.0
 10
86.84896238063151
 20
-131.4185071828572
 30
0.0
 10
86.73131236981022
 20
-131.4185071828572
 30
0.0
 10
86.44864228524548
 20
-131.4185071828572
 30
0.0
 10
86.43968503698383
 20
-131.6513956376601
 30
0.0
 10
86.435206412853
 20
-131.7230536237532
 30
0.0
 10
86.435206412853
 20
-131.7230536237532
 30
0.0
 10
86.21816539728227
 20
-131.7230536237532
 30
0.0
 10
86.21816539728227
 20
-131.7230536237532
 30
0.0
 10
86.22712264554392
 20
-131.5983411671872
 30
0.0
 10
86.2565782119428
 20
-131.2217922306494
 30
0.0
 10
86.74492049697697
 20
-131.2217922306494
 30
0.0
 10
86.98452688797608
 20
-131.2217922306494
 30
0.0
 10
87.24222003027277
 20
-131.3489162540551
 30
0.0
 10
87.24222003027277
 20
-131.6448499562381
 30
0.0
 10
87.24222003027277
 20
-131.8312296219901
 30
0.0
 10
87.1405897134579
 20
-131.9135674040876
 30
0.0
 10
87.03430851773795
 20
-131.974890103725
 30
0.0
 10
87.09976533195769
 20
-132.002450867607
 30
0.0
 10
87.29424097210005
 20
-132.0827215924133
 30
0.0
 10
87.29424097210005
 20
-132.3600517789759
 30
0.0
 10
87.29424097210005
 20
-132.6983601556275
 30
0.0
 10
87.02982989360712
 20
-132.8654472866621
 30
0.0
 10
86.73355168187564
 20
-132.8654472866621
 30
0.0
  0
HATCH
  5
CA
330
C5
100
AcDbEntity
  8
レイヤー 1
 62
   250
420
  2299925
440
 33554687
100
AcDbHatch
 10
0.0
 20
0.0
 30
0.0
210
0.0
220
0.0
230
1.0
  2
SOLID
 70
     1
 71
     1
 91
        1
 92
        1
 93
        1
 72
     4
 94
        3
 73
     0
 74
     0
 95
       62
 96
       58
 40
0.0
 40
0.0
 40
0.0
 40
0.0
 40
1.0
 40
1.0
 40
1.0
 40
2.0
 40
2.0
 40
2.0
 40
3.0
 40
3.0
 40
3.0
 40
4.0
 40
4.0
 40
4.0
 40
5.0
 40
5.0
 40
5.0
 40
6.0
 40
6.0
 40
6.0
 40
7.0
 40
7.0
 40
7.0
 40
8.0
 40
8.0
 40
8.0
 40
9.0
 40
9.0
 40
9.0
 40
10.0
 40
10.0
 40
10.0
 40
11.0
 40
11.0
 40
11.0
 40
12.0
 40
12.0
 40
12.0
 40
13.0
 40
13.0
 40
13.0
 40
14.0
 40
14.0
 40
14.0
 40
15.0
 40
15.0
 40
15.0
 40
16.0
 40
16.0
 40
16.0
 40
17.0
 40
17.0
 40
17.0
 40
18.0
 40
18.0
 40
18.0
 40
19.0
 40
19.0
 40
19.0
 40
19.0
 10
86.73355168187564
 20
-132.8654472866621
 10
86.63192136506078
 20
-132.8654472866621
 10
86.39903291025788
 20
-132.8444322042021
 10
86.26553546020444
 20
-132.6583970479986
 10
86.18647051881797
 20
-132.5460869351794
 10
86.18199189468715
 20
-132.4468681852042
 10
86.17751327055632
 20
-132.3621188362671
 10
86.17751327055632
 20
-132.3621188362671
 10
86.41246878265036
 20
-132.3621188362671
 10
86.41246878265036
 20
-132.3621188362671
 10
86.41488034949004
 20
-132.4361883892
 10
86.4260769098171
 20
-132.6707993917455
 10
86.72907305774481
 20
-132.6707993917455
 10
86.87600638019073
 20
-132.6707993917455
 10
87.03878714186878
 20
-132.6012084629434
 10
87.03878714186878
 20
-132.3727986322714
 10
87.03878714186878
 20
-132.2563544048699
 10
86.99813501514283
 20
-132.2077785585279
 10
86.96420082461312
 20
-132.1760836800636
 10
86.88513588322663
 20
-132.1020141271307
 10
86.76076793620913
 20
-132.0892672738353
 10
86.70185680341134
 20
-132.0892672738353
 10
86.68153074004838
 20
-132.0892672738353
 10
86.64311792538784
 20
-132.0913343311265
 10
86.61383461376322
 20
-132.0954684457088
 10
86.61383461376322
 20
-132.0954684457088
 10
86.61383461376322
 20
-131.9008205507921
 10
86.61383461376322
 20
-131.9008205507921
 10
86.65448674048915
 20
-131.9073662322141
 10
86.69961749134593
 20
-131.9094332895053
 10
86.70650768231643
 20
-131.9094332895053
 10
86.77661537544127
 20
-131.9094332895053
 10
86.98900551210691
 20
-131.8880736974967
 10
86.98900551210691
 20
-131.6513956376601
 10
86.98900551210691
 20
-131.4736287106212
 10
86.84896238063151
 20
-131.4185071828572
 10
86.73131236981022
 20
-131.4185071828572
 10
86.44864228524548
 20
-131.4185071828572
 10
86.43968503698383
 20
-131.6513956376601
 10
86.435206412853
 20
-131.7230536237532
 10
86.435206412853
 20
-131.7230536237532
 10
86.21816539728227
 20
-131.7230536237532
 10
86.21816539728227
 20
-131.7230536237532
 10
86.22712264554392
 20
-131.5983411671872
 10
86.2565782119428
 20
-131.2217922306494
 10
86.74492049697697
 20
-131.2217922306494
 10
86.98452688797608
 20
-131.2217922306494
 10
87.24222003027277
 20
-131.3489162540551
 10
87.24222003027277
 20
-131.6448499562381
 10
87.24222003027277
 20
-131.8312296219901
 10
87.1405897134579
 20
-131.9135674040876
 10
87.03430851773795
 20
-131.974890103725
 10
87.09976533195769
 20
-132.002450867607
 10
87.29424097210005
 20
-132.0827215924133
 10
87.29424097210005
 20
-132.3600517789759
 10
87.29424097210005
 20
-132.6983601556275
 10
87.02982989360712
 20
-132.8654472866621
 10
86.73355168187564
 20
-132.8654472866621
 97
        0
 97
        1
330
C9
 75
     2
 76
     1
 98
        1
 10
0.0
 20
0.0
450
        0
451
        0
460
0.0
461
0.0
452
        0
462
0.0
453
        0
470

  0
ENDBLK
  5
C8
330
C5
100
AcDbEntity
  8
0
100
AcDbBlockEnd
  0
BLOCK
  5
D1
330
CF
100
AcDbEntity
  8
0
100
AcDbBlockBegin
  2
Block_9
 70
     0
 10
0.0
 20
0.0
 30
0.0
  3
Block_9
  1

  0
INSERT
  5
D4
330
CF
100
AcDbEntity
  8
レイヤー 1
100
AcDbBlockReference
  2
Block_10
 10
0.0
 20
0.0
 30
0.0
  0
ENDBLK
  5
D2
330
CF
100
AcDbEntity
  8
0
100
AcDbBlockEnd
  0
BLOCK
  5
D5
330
D3
100
AcDbEntity
  8
0
100
AcDbBlockBegin
  2
Block_10
 70
     0
 10
0.0
 20
0.0
 30
0.0
  3
Block_10
  1

  0
SPLINE
  5
D7
330
D3
100
AcDbEntity
  8
レイヤー 1
100
AcDbSpline
210
0.0
220
0.0
230
1.0
 70
     9
 71
     3
 72
    44
 73
    40
 74
     0
 42
0.0000000001
 43
0.0000000001
 40
0.0
 40
0.0
 40
0.0
 40
0.0
 40
1.0
 40
1.0
 40
1.0
 40
2.0
 40
2.0
 40
2.0
 40
3.0
 40
3.0
 40
3.0
 40
4.0
 40
4.0
 40
4.0
 40
5.0
 40
5.0
 40
5.0
 40
6.0
 40
6.0
 40
6.0
 40
7.0
 40
7.0
 40
7.0
 40
8.0
 40
8.0
 40
8.0
 40
9.0
 40
9.0
 40
9.0
 40
10.0
 40
10.0
 40
10.0
 40
11.0
 40
11.0
 40
11.0
 40
12.0
 40
12.0
 40
12.0
 40
13.0
 40
13.0
 40
13.0
 40
13.0
 10
80.34479435925408
 20
-150.7566894154358
 30
0.0
 10
80.5036132611241
 20
-150.9895778702387
 30
0.0
 10
80.57768281405698
 20
-151.0887966202139
 30
0.0
 10
80.7213432957919
 20
-151.1411620715897
 30
0.0
 10
80.7213432957919
 20
-151.1411620715897
 30
0.0
 10
80.7213432957919
 20
-150.3088270023533
 30
0.0
 10
80.7213432957919
 20
-150.3088270023533
 30
0.0
 10
80.7213432957919
 20
-150.3088270023533
 30
0.0
 10
80.92667098671277
 20
-150.3088270023533
 30
0.0
 10
80.92667098671277
 20
-150.3088270023533
 30
0.0
 10
80.92667098671277
 20
-150.3088270023533
 30
0.0
 10
80.92667098671277
 20
-151.407812462148
 30
0.0
 10
80.92667098671277
 20
-151.407812462148
 30
0.0
 10
80.56907007534384
 20
-151.3740505263926
 30
0.0
 10
80.49086640782867
 20
-151.3037705784935
 30
0.0
 10
80.19252113880604
 20
-150.8924261775547
 30
0.0
 10
79.99373912930713
 20
-150.6188855960258
 30
0.0
 10
79.9258707482477
 20
-150.5486056481267
 30
0.0
 10
79.78841143838623
 20
-150.5486056481267
 30
0.0
 10
79.66990015369365
 20
-150.5486056481267
 30
0.0
 10
79.53898652525414
 20
-150.6254312774478
 30
0.0
 10
79.53898652525414
 20
-150.8359266115966
 30
0.0
 10
79.53898652525414
 20
-151.1139458172562
 30
0.0
 10
79.76946341321736
 20
-151.1229030655179
 30
0.0
 10
79.88590764061881
 20
-151.1273816896487
 30
0.0
 10
79.88590764061881
 20
-151.1273816896487
 30
0.0
 10
79.88590764061881
 20
-151.3671603354221
 30
0.0
 10
79.88590764061881
 20
-151.3671603354221
 30
0.0
 10
79.75878361721308
 20
-151.3582030871604
 30
0.0
 10
79.64681801394246
 20
-151.3464897625106
 30
0.0
 10
79.52830672924988
 20
-151.2610513944764
 30
0.0
 10
79.3674207700887
 20
-151.1432291288809
 30
0.0
 10
79.33365883433324
 20
-150.9441026098334
 30
0.0
 10
79.33365883433324
 20
-150.8200791723644
 30
0.0
 10
79.33365883433324
 20
-150.5238009606329
 30
0.0
 10
79.51762693324559
 20
-150.3022813209313
 30
0.0
 10
79.79047849567739
 20
-150.3022813209313
 30
0.0
 10
80.01923283589796
 20
-150.3022813209313
 30
0.0
 10
80.11845158587318
 20
-150.4266492679489
 30
0.0
 10
80.34479435925408
 20
-150.7566894154358
 30
0.0
  0
HATCH
  5
D8
330
D3
100
AcDbEntity
  8
レイヤー 1
 62
   250
420
  2299925
440
 33554687
100
AcDbHatch
 10
0.0
 20
0.0
 30
0.0
210
0.0
220
0.0
230
1.0
  2
SOLID
 70
     1
 71
     1
 91
        1
 92
        1
 93
        1
 72
     4
 94
        3
 73
     0
 74
     0
 95
       44
 96
       40
 40
0.0
 40
0.0
 40
0.0
 40
0.0
 40
1.0
 40
1.0
 40
1.0
 40
2.0
 40
2.0
 40
2.0
 40
3.0
 40
3.0
 40
3.0
 40
4.0
 40
4.0
 40
4.0
 40
5.0
 40
5.0
 40
5.0
 40
6.0
 40
6.0
 40
6.0
 40
7.0
 40
7.0
 40
7.0
 40
8.0
 40
8.0
 40
8.0
 40
9.0
 40
9.0
 40
9.0
 40
10.0
 40
10.0
 40
10.0
 40
11.0
 40
11.0
 40
11.0
 40
12.0
 40
12.0
 40
12.0
 40
13.0
 40
13.0
 40
13.0
 40
13.0
 10
80.34479435925408
 20
-150.7566894154358
 10
80.5036132611241
 20
-150.9895778702387
 10
80.57768281405698
 20
-151.0887966202139
 10
80.7213432957919
 20
-151.1411620715897
 10
80.7213432957919
 20
-151.1411620715897
 10
80.7213432957919
 20
-150.3088270023533
 10
80.7213432957919
 20
-150.3088270023533
 10
80.7213432957919
 20
-150.3088270023533
 10
80.92667098671277
 20
-150.3088270023533
 10
80.92667098671277
 20
-150.3088270023533
 10
80.92667098671277
 20
-150.3088270023533
 10
80.92667098671277
 20
-151.407812462148
 10
80.92667098671277
 20
-151.407812462148
 10
80.56907007534384
 20
-151.3740505263926
 10
80.49086640782867
 20
-151.3037705784935
 10
80.19252113880604
 20
-150.8924261775547
 10
79.99373912930713
 20
-150.6188855960258
 10
79.9258707482477
 20
-150.5486056481267
 10
79.78841143838623
 20
-150.5486056481267
 10
79.66990015369365
 20
-150.5486056481267
 10
79.53898652525414
 20
-150.6254312774478
 10
79.53898652525414
 20
-150.8359266115966
 10
79.53898652525414
 20
-151.1139458172562
 10
79.76946341321736
 20
-151.1229030655179
 10
79.88590764061881
 20
-151.1273816896487
 10
79.88590764061881
 20
-151.1273816896487
 10
79.88590764061881
 20
-151.3671603354221
 10
79.88590764061881
 20
-151.3671603354221
 10
79.75878361721308
 20
-151.3582030871604
 10
79.64681801394246
 20
-151.3464897625106
 10
79.52830672924988
 20
-151.2610513944764
 10
79.3674207700887
 20
-151.1432291288809
 10
79.33365883433324
 20
-150.9441026098334
 10
79.33365883433324
 20
-150.8200791723644
 10
79.33365883433324
 20
-150.5238009606329
 10
79.51762693324559
 20
-150.3022813209313
 10
79.79047849567739
 20
-150.3022813209313
 10
80.01923283589796
 20
-150.3022813209313
 10
80.11845158587318
 20
-150.4266492679489
 10
80.34479435925408
 20
-150.7566894154358
 97
        0
 97
        1
330
D7
 75
     2
 76
     1
 98
        1
 10
0.0
 20
0.0
450
        0
451
        0
460
0.0
461
0.0
452
        0
462
0.0
453
        0
470

  0
SPLINE
  5
D9
330
D3
100
AcDbEntity
  8
レイヤー 1
100
AcDbSpline
210
0.0
220
0.0
230
1.0
 70
    11
 71
     3
 72
    26
 73
    22
 74
     0
 42
0.0000000001
 43
0.0000000001
 40
0.0
 40
0.0
 40
0.0
 40
0.0
 40
1.0
 40
1.0
 40
1.0
 40
2.0
 40
2.0
 40
2.0
 40
3.0
 40
3.0
 40
3.0
 40
4.0
 40
4.0
 40
4.0
 40
5.0
 40
5.0
 40
5.0
 40
6.0
 40
6.0
 40
6.0
 40
7.0
 40
7.0
 40
7.0
 40
7.0
 10
80.92667098671277
 20
-149.6501247455736
 30
0.0
 10
80.92667098671277
 20
-149.6501247455736
 30
0.0
 10
79.82251788369021
 20
-149.6501247455736
 30
0.0
 10
79.82251788369021
 20
-149.6501247455736
 30
0.0
 10
79.82251788369021
 20
-149.6501247455736
 30
0.0
 10
79.82251788369021
 20
-150.0029025232632
 30
0.0
 10
79.82251788369021
 20
-150.0029025232632
 30
0.0
 10
79.82251788369021
 20
-150.0029025232632
 30
0.0
 10
79.67437877782446
 20
-150.0029025232632
 30
0.0
 10
79.67437877782446
 20
-150.0029025232632
 30
0.0
 10
79.65956486723789
 20
-149.6480576882824
 30
0.0
 10
79.49661185078557
 20
-149.5984483132948
 30
0.0
 10
79.38223468067528
 20
-149.5667534348305
 30
0.0
 10
79.38223468067528
 20
-149.5667534348305
 30
0.0
 10
79.38223468067528
 20
-149.4106906093487
 30
0.0
 10
79.38223468067528
 20
-149.4106906093487
 30
0.0
 10
79.38223468067528
 20
-149.4106906093487
 30
0.0
 10
80.92667098671277
 20
-149.4106906093487
 30
0.0
 10
80.92667098671277
 20
-149.4106906093487
 30
0.0
 10
80.92667098671277
 20
-149.4106906093487
 30
0.0
 10
80.92667098671277
 20
-149.6501247455736
 30
0.0
 10
80.92667098671277
 20
-149.6501247455736
 30
0.0
  0
HATCH
  5
DA
330
D3
100
AcDbEntity
  8
レイヤー 1
 62
   250
420
  2299925
440
 33554687
100
AcDbHatch
 10
0.0
 20
0.0
 30
0.0
210
0.0
220
0.0
230
1.0
  2
SOLID
 70
     1
 71
     1
 91
        1
 92
        1
 93
        1
 72
     4
 94
        3
 73
     0
 74
     0
 95
       26
 96
       22
 40
0.0
 40
0.0
 40
0.0
 40
0.0
 40
1.0
 40
1.0
 40
1.0
 40
2.0
 40
2.0
 40
2.0
 40
3.0
 40
3.0
 40
3.0
 40
4.0
 40
4.0
 40
4.0
 40
5.0
 40
5.0
 40
5.0
 40
6.0
 40
6.0
 40
6.0
 40
7.0
 40
7.0
 40
7.0
 40
7.0
 10
80.92667098671277
 20
-149.6501247455736
 10
80.92667098671277
 20
-149.6501247455736
 10
79.82251788369021
 20
-149.6501247455736
 10
79.82251788369021
 20
-149.6501247455736
 10
79.82251788369021
 20
-149.6501247455736
 10
79.82251788369021
 20
-150.0029025232632
 10
79.82251788369021
 20
-150.0029025232632
 10
79.82251788369021
 20
-150.0029025232632
 10
79.67437877782446
 20
-150.0029025232632
 10
79.67437877782446
 20
-150.0029025232632
 10
79.65956486723789
 20
-149.6480576882824
 10
79.49661185078557
 20
-149.5984483132948
 10
79.38223468067528
 20
-149.5667534348305
 10
79.38223468067528
 20
-149.5667534348305
 10
79.38223468067528
 20
-149.4106906093487
 10
79.38223468067528
 20
-149.4106906093487
 10
79.38223468067528
 20
-149.4106906093487
 10
80.92667098671277
 20
-149.4106906093487
 10
80.92667098671277
 20
-149.4106906093487
 10
80.92667098671277
 20
-149.4106906093487
 10
80.92667098671277
 20
-149.6501247455736
 10
80.92667098671277
 20
-149.6501247455736
 97
        0
 97
        1
330
D9
 75
     2
 76
     1
 98
        1
 10
0.0
 20
0.0
450
        0
451
        0
460
0.0
461
0.0
452
        0
462
0.0
453
        0
470

  0
ENDBLK
  5
D6
330
D3
100
AcDbEntity
  8
0
100
AcDbBlockEnd
  0
BLOCK
  5
E3
330
E1
100
AcDbEntity
  8
0
100
AcDbBlockBegin
  2
Block_11
 70
     0
 10
0.0
 20
0.0
 30
0.0
  3
Block_11
  1

  0
INSERT
  5
E6
330
E1
100
AcDbEntity
  8
レイヤー 1
100
AcDbBlockReference
  2
Block_12
 10
0.0
 20
0.0
 30
0.0
  0
ENDBLK
  5
E4
330
E1
100
AcDbEntity
  8
0
100
AcDbBlockEnd
  0
BLOCK
  5
E7
330
E5
100
AcDbEntity
  8
0
100
AcDbBlockBegin
  2
Block_12
 70
     0
 10
0.0
 20
0.0
 30
0.0
  3
Block_12
  1

  0
SPLINE
  5
E9
330
E5
100
AcDbEntity
  8
レイヤー 1
100
AcDbSpline
210
0.0
220
0.0
230
1.0
 70
    11
 71
     3
 72
    26
 73
    22
 74
     0
 42
0.0000000001
 43
0.0000000001
 40
0.0
 40
0.0
 40
0.0
 40
0.0
 40
1.0
 40
1.0
 40
1.0
 40
2.0
 40
2.0
 40
2.0
 40
3.0
 40
3.0
 40
3.0
 40
4.0
 40
4.0
 40
4.0
 40
5.0
 40
5.0
 40
5.0
 40
6.0
 40
6.0
 40
6.0
 40
7.0
 40
7.0
 40
7.0
 40
7.0
 10
89.31203339781088
 20
-165.4634575324188
 30
0.0
 10
89.31203339781088
 20
-165.4634575324188
 30
0.0
 10
89.31203339781088
 20
-164.3593044293963
 30
0.0
 10
89.31203339781088
 20
-164.3593044293963
 30
0.0
 10
89.31203339781088
 20
-164.3593044293963
 30
0.0
 10
88.95925562012129
 20
-164.3593044293963
 30
0.0
 10
88.95925562012129
 20
-164.3593044293963
 30
0.0
 10
88.95925562012129
 20
-164.3593044293963
 30
0.0
 10
88.95925562012129
 20
-164.2111653235305
 30
0.0
 10
88.95925562012129
 20
-164.2111653235305
 30
0.0
 10
89.31427270987629
 20
-164.196351412944
 30
0.0
 10
89.36405433963816
 20
-164.0333983964916
 30
0.0
 10
89.39557696332819
 20
-163.9190212263813
 30
0.0
 10
89.39557696332819
 20
-163.9190212263813
 30
0.0
 10
89.55163978881001
 20
-163.9190212263813
 30
0.0
 10
89.55163978881001
 20
-163.9190212263813
 30
0.0
 10
89.55163978881001
 20
-163.9190212263813
 30
0.0
 10
89.55163978881001
 20
-165.4634575324188
 30
0.0
 10
89.55163978881001
 20
-165.4634575324188
 30
0.0
 10
89.55163978881001
 20
-165.4634575324188
 30
0.0
 10
89.31203339781088
 20
-165.4634575324188
 30
0.0
 10
89.31203339781088
 20
-165.4634575324188
 30
0.0
  0
HATCH
  5
EA
330
E5
100
AcDbEntity
  8
レイヤー 1
 62
   250
420
  2299925
440
 33554687
100
AcDbHatch
 10
0.0
 20
0.0
 30
0.0
210
0.0
220
0.0
230
1.0
  2
SOLID
 70
     1
 71
     1
 91
        1
 92
        1
 93
        1
 72
     4
 94
        3
 73
     0
 74
     0
 95
       26
 96
       22
 40
0.0
 40
0.0
 40
0.0
 40
0.0
 40
1.0
 40
1.0
 40
1.0
 40
2.0
 40
2.0
 40
2.0
 40
3.0
 40
3.0
 40
3.0
 40
4.0
 40
4.0
 40
4.0
 40
5.0
 40
5.0
 40
5.0
 40
6.0
 40
6.0
 40
6.0
 40
7.0
 40
7.0
 40
7.0
 40
7.0
 10
89.31203339781088
 20
-165.4634575324188
 10
89.31203339781088
 20
-165.4634575324188
 10
89.31203339781088
 20
-164.3593044293963
 10
89.31203339781088
 20
-164.3593044293963
 10
89.31203339781088
 20
-164.3593044293963
 10
88.95925562012129
 20
-164.3593044293963
 10
88.95925562012129
 20
-164.3593044293963
 10
88.95925562012129
 20
-164.3593044293963
 10
88.95925562012129
 20
-164.2111653235305
 10
88.95925562012129
 20
-164.2111653235305
 10
89.31427270987629
 20
-164.196351412944
 10
89.36405433963816
 20
-164.0333983964916
 10
89.39557696332819
 20
-163.9190212263813
 10
89.39557696332819
 20
-163.9190212263813
 10
89.55163978881001
 20
-163.9190212263813
 10
89.55163978881001
 20
-163.9190212263813
 10
89.55163978881001
 20
-163.9190212263813
 10
89.55163978881001
 20
-165.4634575324188
 10
89.55163978881001
 20
-165.4634575324188
 10
89.55163978881001
 20
-165.4634575324188
 10
89.31203339781088
 20
-165.4634575324188
 10
89.31203339781088
 20
-165.4634575324188
 97
        0
 97
        1
330
E9
 75
     2
 76
     1
 98
        1
 10
0.0
 20
0.0
450
        0
451
        0
460
0.0
461
0.0
452
        0
462
0.0
453
        0
470

  0
SPLINE
  5
EB
330
E5
100
AcDbEntity
  8
レイヤー 1
100
AcDbSpline
210
0.0
220
0.0
230
1.0
 70
     9
 71
     3
 72
    17
 73
    13
 74
     0
 42
0.0000000001
 43
0.0000000001
 40
0.0
 40
0.0
 40
0.0
 40
0.0
 40
1.0
 40
1.0
 40
1.0
 40
2.0
 40
2.0
 40
2.0
 40
3.0
 40
3.0
 40
3.0
 40
4.0
 40
4.0
 40
4.0
 40
4.0
 10
90.62185870130287
 20
-164.0630262176648
 30
0.0
 10
90.35503605597027
 20
-164.0630262176648
 30
0.0
 10
90.3052544262084
 20
-164.3465575761009
 30
0.0
 10
90.3052544262084
 20
-164.6914116341744
 30
0.0
 10
90.3052544262084
 20
-165.010771985657
 30
0.0
 10
90.34366724086895
 20
-165.3194525411354
 30
0.0
 10
90.62185870130287
 20
-165.3194525411354
 30
0.0
 10
90.88626977979579
 20
-165.3194525411354
 30
0.0
 10
90.93829072162307
 20
-165.038332749539
 30
0.0
 10
90.93829072162307
 20
-164.6914116341744
 30
0.0
 10
90.93829072162307
 20
-164.3717067731432
 30
0.0
 10
90.89763859489712
 20
-164.0630262176648
 30
0.0
 10
90.62185870130287
 20
-164.0630262176648
 30
0.0
  0
SPLINE
  5
EC
330
E5
100
AcDbEntity
  8
レイヤー 1
100
AcDbSpline
210
0.0
220
0.0
230
1.0
 70
     9
 71
     3
 72
    29
 73
    25
 74
     0
 42
0.0000000001
 43
0.0000000001
 40
0.0
 40
0.0
 40
0.0
 40
0.0
 40
1.0
 40
1.0
 40
1.0
 40
2.0
 40
2.0
 40
2.0
 40
3.0
 40
3.0
 40
3.0
 40
4.0
 40
4.0
 40
4.0
 40
5.0
 40
5.0
 40
5.0
 40
6.0
 40
6.0
 40
6.0
 40
7.0
 40
7.0
 40
7.0
 40
8.0
 40
8.0
 40
8.0
 40
8.0
 10
91.04681122940844
 20
-165.28569060538
 30
0.0
 10
90.93157278542683
 20
-165.4951524108831
 30
0.0
 10
90.74622664832039
 20
-165.514100436052
 30
0.0
 10
90.62185870130287
 20
-165.514100436052
 30
0.0
 10
90.44994843658891
 20
-165.514100436052
 30
0.0
 10
90.29853649001218
 20
-165.4675916470011
 30
0.0
 10
90.19673391842305
 20
-165.28569060538
 30
0.0
 10
90.08597409857227
 20
-165.0910427104633
 30
0.0
 10
90.06564803520928
 20
-164.8540201410781
 30
0.0
 10
90.06564803520928
 20
-164.6914116341744
 30
0.0
 10
90.06564803520928
 20
-164.5474066428909
 30
0.0
 10
90.08373478650685
 20
-164.2955701629191
 30
0.0
 10
90.19673391842305
 20
-164.0967881534202
 30
0.0
 10
90.31214461717892
 20
-163.893872029339
 30
0.0
 10
90.48388262711862
 20
-163.8704453800393
 30
0.0
 10
90.62185870130287
 20
-163.8704453800393
 30
0.0
 10
90.79135739917715
 20
-163.8704453800393
 30
0.0
 10
90.94518091259358
 20
-163.914887111799
 30
0.0
 10
91.04681122940844
 20
-164.0967881534202
 30
0.0
 10
91.15309242512839
 20
-164.2893689910457
 30
0.0
 10
91.17806936739645
 20
-164.5177788217178
 30
0.0
 10
91.17806936739645
 20
-164.6914116341744
 30
0.0
 10
91.17806936739645
 20
-164.8626328797913
 30
0.0
 10
91.15533173719381
 20
-165.0931097677545
 30
0.0
 10
91.04681122940844
 20
-165.28569060538
 30
0.0
  0
HATCH
  5
ED
330
E5
100
AcDbEntity
  8
レイヤー 1
 62
   250
420
  2299925
440
 33554687
100
AcDbHatch
 10
0.0
 20
0.0
 30
0.0
210
0.0
220
0.0
230
1.0
  2
SOLID
 70
     1
 71
     1
 91
        2
 92
        1
 93
        1
 72
     4
 94
        3
 73
     0
 74
     0
 95
       17
 96
       13
 40
0.0
 40
0.0
 40
0.0
 40
0.0
 40
1.0
 40
1.0
 40
1.0
 40
2.0
 40
2.0
 40
2.0
 40
3.0
 40
3.0
 40
3.0
 40
4.0
 40
4.0
 40
4.0
 40
4.0
 10
90.62185870130287
 20
-164.0630262176648
 10
90.35503605597027
 20
-164.0630262176648
 10
90.3052544262084
 20
-164.3465575761009
 10
90.3052544262084
 20
-164.6914116341744
 10
90.3052544262084
 20
-165.010771985657
 10
90.34366724086895
 20
-165.3194525411354
 10
90.62185870130287
 20
-165.3194525411354
 10
90.88626977979579
 20
-165.3194525411354
 10
90.93829072162307
 20
-165.038332749539
 10
90.93829072162307
 20
-164.6914116341744
 10
90.93829072162307
 20
-164.3717067731432
 10
90.89763859489712
 20
-164.0630262176648
 10
90.62185870130287
 20
-164.0630262176648
 97
        0
 97
        1
330
EB
 92
        1
 93
        1
 72
     4
 94
        3
 73
     0
 74
     0
 95
       29
 96
       25
 40
0.0
 40
0.0
 40
0.0
 40
0.0
 40
1.0
 40
1.0
 40
1.0
 40
2.0
 40
2.0
 40
2.0
 40
3.0
 40
3.0
 40
3.0
 40
4.0
 40
4.0
 40
4.0
 40
5.0
 40
5.0
 40
5.0
 40
6.0
 40
6.0
 40
6.0
 40
7.0
 40
7.0
 40
7.0
 40
8.0
 40
8.0
 40
8.0
 40
8.0
 10
91.04681122940844
 20
-165.28569060538
 10
90.93157278542683
 20
-165.4951524108831
 10
90.74622664832039
 20
-165.514100436052
 10
90.62185870130287
 20
-165.514100436052
 10
90.44994843658891
 20
-165.514100436052
 10
90.29853649001218
 20
-165.4675916470011
 10
90.19673391842305
 20
-165.28569060538
 10
90.08597409857227
 20
-165.0910427104633
 10
90.06564803520928
 20
-164.8540201410781
 10
90.06564803520928
 20
-164.6914116341744
 10
90.06564803520928
 20
-164.5474066428909
 10
90.08373478650685
 20
-164.2955701629191
 10
90.19673391842305
 20
-164.0967881534202
 10
90.31214461717892
 20
-163.893872029339
 10
90.48388262711862
 20
-163.8704453800393
 10
90.62185870130287
 20
-163.8704453800393
 10
90.79135739917715
 20
-163.8704453800393
 10
90.94518091259358
 20
-163.914887111799
 10
91.04681122940844
 20
-164.0967881534202
 10
91.15309242512839
 20
-164.2893689910457
 10
91.17806936739645
 20
-164.5177788217178
 10
91.17806936739645
 20
-164.6914116341744
 10
91.17806936739645
 20
-164.8626328797913
 10
91.15533173719381
 20
-165.0931097677545
 10
91.04681122940844
 20
-165.28569060538
 97
        0
 97
        1
330
EC
 75
     2
 76
     1
 98
        1
 10
0.0
 20
0.0
450
        0
451
        0
460
0.0
461
0.0
452
        0
462
0.0
453
        0
470

  0
ENDBLK
  5
E8
330
E5
100
AcDbEntity
  8
0
100
AcDbBlockEnd
  0
BLOCK
  5
F4
330
F2
100
AcDbEntity
  8
0
100
AcDbBlockBegin
  2
Block_13
 70
     0
 10
0.0
 20
0.0
 30
0.0
  3
Block_13
  1

  0
LINE
  5
F6
330
F2
100
AcDbEntity
  8
レイヤー 1
  6
AI-Linetype-0
 62
   154
420
    23468
370
    25
100
AcDbLine
 10
124.3880453872778
 20
-146.2140639606699
 30
0.0
 11
104.3843392616831
 21
-146.2140639606699
 31
0.0
  0
LINE
  5
F8
330
F2
100
AcDbEntity
  8
レイヤー 1
 62
   250
420
  2299925
370
     9
100
AcDbLine
 10
114.7646750618968
 20
-145.8469098110824
 30
0.0
 11
116.6240398211696
 21
-144.0800234885304
 31
0.0
  0
LWPOLYLINE
  5
F9
330
F2
100
AcDbEntity
  8
レイヤー 1
 62
   250
420
  2299925
370
     9
100
AcDbPolyline
 90
        3
 70
     0
 43
0.0
 10
115.2877358520088
 20
-145.0042165366958
 10
114.7874969758044
 20
-145.870321236777
 10
115.6536035391184
 20
-145.3700823607279
  0
INSERT
  5
FB
330
F2
100
AcDbEntity
  8
レイヤー 1
100
AcDbBlockReference
  2
Block_14
 10
0.0
 20
0.0
 30
0.0
  0
ENDBLK
  5
F5
330
F2
100
AcDbEntity
  8
0
100
AcDbBlockEnd
  0
BLOCK
  5
FC
330
FA
100
AcDbEntity
  8
0
100
AcDbBlockBegin
  2
Block_14
 70
     0
 10
0.0
 20
0.0
 30
0.0
  3
Block_14
  1

  0
INSERT
  5
FF
330
FA
100
AcDbEntity
  8
レイヤー 1
100
AcDbBlockReference
  2
Block_15
 10
0.0
 20
0.0
 30
0.0
  0
ENDBLK
  5
FD
330
FA
100
AcDbEntity
  8
0
100
AcDbBlockEnd
  0
BLOCK
  5
100
330
FE
100
AcDbEntity
  8
0
100
AcDbBlockBegin
  2
Block_15
 70
     0
 10
0.0
 20
0.0
 30
0.0
  3
Block_15
  1

  0
SPLINE
  5
102
330
FE
100
AcDbEntity
  8
レイヤー 1
100
AcDbSpline
210
0.0
220
0.0
230
1.0
 70
     9
 71
     3
 72
    17
 73
    13
 74
     0
 42
0.0000000001
 43
0.0000000001
 40
0.0
 40
0.0
 40
0.0
 40
0.0
 40
1.0
 40
1.0
 40
1.0
 40
2.0
 40
2.0
 40
2.0
 40
3.0
 40
3.0
 40
3.0
 40
4.0
 40
4.0
 40
4.0
 40
4.0
 10
115.2753065032992
 20
-143.179374150403
 30
0.0
 10
115.2584255354215
 20
-143.208829716802
 30
0.0
 10
115.2077826317883
 20
-143.3020195496779
 30
0.0
 10
115.197102835784
 20
-143.3209675748468
 30
0.0
 10
115.3876166161184
 20
-143.3802232171931
 30
0.0
 10
115.4086316985784
 20
-143.3865966438408
 30
0.0
 10
115.4806341942201
 20
-143.4141574077228
 30
0.0
 10
115.5357557219841
 20
-143.3273410014946
 30
0.0
 10
115.5588378617353
 20
-143.2532714485617
 30
0.0
 10
115.5736517723218
 20
-143.179374150403
 30
0.0
 10
115.5736517723218
 20
-143.179374150403
 30
0.0
 10
115.2753065032992
 20
-143.179374150403
 30
0.0
 10
115.2753065032992
 20
-143.179374150403
 30
0.0
  0
SPLINE
  5
103
330
FE
100
AcDbEntity
  8
レイヤー 1
100
AcDbSpline
210
0.0
220
0.0
230
1.0
 70
    11
 71
     3
 72
    20
 73
    16
 74
     0
 42
0.0000000001
 43
0.0000000001
 40
0.0
 40
0.0
 40
0.0
 40
0.0
 40
1.0
 40
1.0
 40
1.0
 40
2.0
 40
2.0
 40
2.0
 40
3.0
 40
3.0
 40
3.0
 40
4.0
 40
4.0
 40
4.0
 40
5.0
 40
5.0
 40
5.0
 40
5.0
 10
115.2119167463706
 20
-142.3289523298691
 30
0.0
 10
115.2119167463706
 20
-142.3289523298691
 30
0.0
 10
115.1802218679063
 20
-142.3289523298691
 30
0.0
 10
115.1802218679063
 20
-142.3289523298691
 30
0.0
 10
115.2267306569572
 20
-142.4283433346186
 30
0.0
 10
115.2584255354215
 20
-142.5086140594249
 30
0.0
 10
115.2921874711769
 20
-142.6355658280564
 30
0.0
 10
115.2921874711769
 20
-142.6355658280564
 30
0.0
 10
115.499582219389
 20
-142.6355658280564
 30
0.0
 10
115.499582219389
 20
-142.6355658280564
 30
0.0
 10
115.5312770978533
 20
-142.5425482499546
 30
0.0
 10
115.554703747153
 20
-142.4579711557917
 30
0.0
 10
115.5777858869041
 20
-142.3289523298691
 30
0.0
 10
115.5777858869041
 20
-142.3289523298691
 30
0.0
 10
115.2119167463706
 20
-142.3289523298691
 30
0.0
 10
115.2119167463706
 20
-142.3289523298691
 30
0.0
  0
SPLINE
  5
104
330
FE
100
AcDbEntity
  8
レイヤー 1
100
AcDbSpline
210
0.0
220
0.0
230
1.0
 70
     9
 71
     3
 72
   242
 73
   238
 74
     0
 42
0.0000000001
 43
0.0000000001
 40
0.0
 40
0.0
 40
0.0
 40
0.0
 40
1.0
 40
1.0
 40
1.0
 40
2.0
 40
2.0
 40
2.0
 40
3.0
 40
3.0
 40
3.0
 40
4.0
 40
4.0
 40
4.0
 40
5.0
 40
5.0
 40
5.0
 40
6.0
 40
6.0
 40
6.0
 40
7.0
 40
7.0
 40
7.0
 40
8.0
 40
8.0
 40
8.0
 40
9.0
 40
9.0
 40
9.0
 40
10.0
 40
10.0
 40
10.0
 40
11.0
 40
11.0
 40
11.0
 40
12.0
 40
12.0
 40
12.0
 40
13.0
 40
13.0
 40
13.0
 40
14.0
 40
14.0
 40
14.0
 40
15.0
 40
15.0
 40
15.0
 40
16.0
 40
16.0
 40
16.0
 40
17.0
 40
17.0
 40
17.0
 40
18.0
 40
18.0
 40
18.0
 40
19.0
 40
19.0
 40
19.0
 40
20.0
 40
20.0
 40
20.0
 40
21.0
 40
21.0
 40
21.0
 40
22.0
 40
22.0
 40
22.0
 40
23.0
 40
23.0
 40
23.0
 40
24.0
 40
24.0
 40
24.0
 40
25.0
 40
25.0
 40
25.0
 40
26.0
 40
26.0
 40
26.0
 40
27.0
 40
27.0
 40
27.0
 40
28.0
 40
28.0
 40
28.0
 40
29.0
 40
29.0
 40
29.0
 40
30.0
 40
30.0
 40
30.0
 40
31.0
 40
31.0
 40
31.0
 40
32.0
 40
32.0
 40
32.0
 40
33.0
 40
33.0
 40
33.0
 40
34.0
 40
34.0
 40
34.0
 40
35.0
 40
35.0
 40
35.0
 40
36.0
 40
36.0
 40
36.0
 40
37.0
 40
37.0
 40
37.0
 40
38.0
 40
38.0
 40
38.0
 40
39.0
 40
39.0
 40
39.0
 40
40.0
 40
40.0
 40
40.0
 40
41.0
 40
41.0
 40
41.0
 40
42.0
 40
42.0
 40
42.0
 40
43.0
 40
43.0
 40
43.0
 40
44.0
 40
44.0
 40
44.0
 40
45.0
 40
45.0
 40
45.0
 40
46.0
 40
46.0
 40
46.0
 40
47.0
 40
47.0
 40
47.0
 40
48.0
 40
48.0
 40
48.0
 40
49.0
 40
49.0
 40
49.0
 40
50.0
 40
50.0
 40
50.0
 40
51.0
 40
51.0
 40
51.0
 40
52.0
 40
52.0
 40
52.0
 40
53.0
 40
53.0
 40
53.0
 40
54.0
 40
54.0
 40
54.0
 40
55.0
 40
55.0
 40
55.0
 40
56.0
 40
56.0
 40
56.0
 40
57.0
 40
57.0
 40
57.0
 40
58.0
 40
58.0
 40
58.0
 40
59.0
 40
59.0
 40
59.0
 40
60.0
 40
60.0
 40
60.0
 40
61.0
 40
61.0
 40
61.0
 40
62.0
 40
62.0
 40
62.0
 40
63.0
 40
63.0
 40
63.0
 40
64.0
 40
64.0
 40
64.0
 40
65.0
 40
65.0
 40
65.0
 40
66.0
 40
66.0
 40
66.0
 40
67.0
 40
67.0
 40
67.0
 40
68.0
 40
68.0
 40
68.0
 40
69.0
 40
69.0
 40
69.0
 40
70.0
 40
70.0
 40
70.0
 40
71.0
 40
71.0
 40
71.0
 40
72.0
 40
72.0
 40
72.0
 40
73.0
 40
73.0
 40
73.0
 40
74.0
 40
74.0
 40
74.0
 40
75.0
 40
75.0
 40
75.0
 40
76.0
 40
76.0
 40
76.0
 40
77.0
 40
77.0
 40
77.0
 40
78.0
 40
78.0
 40
78.0
 40
79.0
 40
79.0
 40
79.0
 40
79.0
 10
115.8403021628802
 20
-142.7942124751521
 30
0.0
 10
115.8403021628802
 20
-142.7942124751521
 30
0.0
 10
115.5863986256173
 20
-142.7942124751521
 30
0.0
 10
115.5863986256173
 20
-142.7942124751521
 30
0.0
 10
115.5863986256173
 20
-142.7942124751521
 30
0.0
 10
115.3094129486032
 20
-142.7942124751521
 30
0.0
 10
115.3094129486032
 20
-142.7942124751521
 30
0.0
 10
115.3094129486032
 20
-142.7942124751521
 30
0.0
 10
115.4361924624604
 20
-142.8365871496207
 30
0.0
 10
115.4361924624604
 20
-142.8365871496207
 30
0.0
 10
115.4468722584647
 20
-142.8408935189773
 30
0.0
 10
115.4596191117601
 20
-142.8470946908507
 30
0.0
 10
115.4596191117601
 20
-142.8598415441461
 30
0.0
 10
115.4596191117601
 20
-142.8810288813804
 30
0.0
 10
115.4275797237472
 20
-142.8874023080281
 30
0.0
 10
115.4065646412872
 20
-142.8915364226104
 30
0.0
 10
115.395884845283
 20
-142.9147908171359
 30
0.0
 10
115.3662570241098
 20
-142.9804198861299
 30
0.0
 10
115.3473089989409
 20
-143.0248616178896
 30
0.0
 10
115.3473089989409
 20
-143.0248616178896
 30
0.0
 10
115.6180935040816
 20
-143.0248616178896
 30
0.0
 10
115.6180935040816
 20
-143.0248616178896
 30
0.0
 10
115.7090440248922
 20
-143.0248616178896
 30
0.0
 10
115.9057589770999
 20
-143.0205552485331
 30
0.0
 10
116.0476969110922
 20
-143.0121147645942
 30
0.0
 10
116.0476969110922
 20
-143.0121147645942
 30
0.0
 10
116.0476969110922
 20
-143.1898816916331
 30
0.0
 10
116.0476969110922
 20
-143.1898816916331
 30
0.0
 10
115.9650146194462
 20
-143.1855753222765
 30
0.0
 10
115.9439995369862
 20
-143.1855753222765
 30
0.0
 10
115.7641655526562
 20
-143.1814412076942
 30
0.0
 10
115.7324706741919
 20
-143.3357814854334
 30
0.0
 10
115.6880289424321
 20
-143.416224465014
 30
0.0
 10
115.6435872106724
 20
-143.4859876485903
 30
0.0
 10
115.7641655526562
 20
-143.5452432909366
 30
0.0
 10
115.8699299840533
 20
-143.6129394172217
 30
0.0
 10
115.9736273581593
 20
-143.6954494540935
 30
0.0
 10
115.9736273581593
 20
-143.6954494540935
 30
0.0
 10
115.8551160734668
 20
-143.8625365851281
 30
0.0
 10
115.8551160734668
 20
-143.8625365851281
 30
0.0
 10
115.8316894241671
 20
-143.8435885599592
 30
0.0
 10
115.8189425708716
 20
-143.8351480760204
 30
0.0
 10
115.706976967601
 20
-143.7503987270832
 30
0.0
 10
115.658401121259
 20
-143.7123304219712
 30
0.0
 10
115.5991454789127
 20
-143.6765014289246
 30
0.0
 10
115.5185302445578
 20
-143.6320596971649
 30
0.0
 10
115.3070013817635
 20
-143.8182671081426
 30
0.0
 10
115.1020182003911
 20
-143.8415215026681
 30
0.0
 10
114.8119411605331
 20
-143.8711493238412
 30
0.0
 10
114.8119411605331
 20
-143.8711493238412
 30
0.0
 10
114.7085882959756
 20
-143.6913153395112
 30
0.0
 10
114.7085882959756
 20
-143.6913153395112
 30
0.0
 10
115.0258815901671
 20
-143.6870089701546
 30
0.0
 10
115.2012369503663
 20
-143.661687518338
 30
0.0
 10
115.3535101708144
 20
-143.5516167175843
 30
0.0
 10
115.2353433956703
 20
-143.5008015591769
 30
0.0
 10
115.1464599321509
 20
-143.4734130500691
 30
0.0
 10
115.1102864295557
 20
-143.4606661967737
 30
0.0
 10
115.0913384043869
 20
-143.4882269606557
 30
0.0
 10
115.0765244938003
 20
-143.5071749858246
 30
0.0
 10
115.0489637299183
 20
-143.5411091763543
 30
0.0
 10
115.0489637299183
 20
-143.5411091763543
 30
0.0
 10
114.8522487777105
 20
-143.4585991394826
 30
0.0
 10
114.8522487777105
 20
-143.4585991394826
 30
0.0
 10
114.9349310693565
 20
-143.378156159902
 30
0.0
 10
114.996253768994
 20
-143.2828992697348
 30
0.0
 10
115.0530978445006
 20
-143.1814412076942
 30
0.0
 10
114.8629285737148
 20
-143.1855753222765
 30
0.0
 10
114.8415689817062
 20
-143.1855753222765
 30
0.0
 10
114.7592311996088
 20
-143.1898816916331
 30
0.0
 10
114.7592311996088
 20
-143.1898816916331
 30
0.0
 10
114.7592311996088
 20
-143.0121147645942
 30
0.0
 10
114.7592311996088
 20
-143.0121147645942
 30
0.0
 10
114.8987575667614
 20
-143.0184881912419
 30
0.0
 10
115.1082193722646
 20
-143.0227945605984
 30
0.0
 10
115.1337130788554
 20
-143.0227945605984
 30
0.0
 10
115.1505940467332
 20
-142.9888603700687
 30
0.0
 10
115.2057155744972
 20
-142.868282028085
 30
0.0
 10
115.224663599666
 20
-142.7942124751521
 30
0.0
 10
115.2057155744972
 20
-142.7942124751521
 30
0.0
 10
115.0279486474583
 20
-142.8005859017998
 30
0.0
 10
114.8333007525417
 20
-142.8133327550952
 30
0.0
 10
114.8333007525417
 20
-142.8133327550952
 30
0.0
 10
114.8333007525417
 20
-142.9466579503744
 30
0.0
 10
114.8333007525417
 20
-142.9466579503744
 30
0.0
 10
114.7847249061996
 20
-142.971979402191
 30
0.0
 10
114.7254692638533
 20
-143.0036742806553
 30
0.0
 10
114.5921440685742
 20
-143.0693033496493
 30
0.0
 10
114.5921440685742
 20
-143.0693033496493
 30
0.0
 10
114.5921440685742
 20
-143.2152031434497
 30
0.0
 10
114.5921440685742
 20
-143.2152031434497
 30
0.0
 10
114.5921440685742
 20
-143.2152031434497
 30
0.0
 10
114.5921440685742
 20
-143.6828748555723
 30
0.0
 10
114.5921440685742
 20
-143.6828748555723
 30
0.0
 10
114.5921440685742
 20
-143.8096543694295
 30
0.0
 10
114.555970565979
 20
-143.8689100117758
 30
0.0
 10
114.2727837170915
 20
-143.8604695278369
 30
0.0
 10
114.2727837170915
 20
-143.8604695278369
 30
0.0
 10
114.1690863429855
 20
-143.6532470343992
 30
0.0
 10
114.1690863429855
 20
-143.6532470343992
 30
0.0
 10
114.2324760999141
 20
-143.6658216329203
 30
0.0
 10
114.2810519462561
 20
-143.6701280022769
 30
0.0
 10
114.3213595634335
 20
-143.6701280022769
 30
0.0
 10
114.3974961736575
 20
-143.6701280022769
 30
0.0
 10
114.4081759696618
 20
-143.6468736077515
 30
0.0
 10
114.4081759696618
 20
-143.5812445387574
 30
0.0
 10
114.4081759696618
 20
-143.5812445387574
 30
0.0
 10
114.4081759696618
 20
-143.151813386521
 30
0.0
 10
114.4081759696618
 20
-143.151813386521
 30
0.0
 10
114.3106797674293
 20
-143.1919487489242
 30
0.0
 10
114.2937987995515
 20
-143.1983221755719
 30
0.0
 10
114.2472900105007
 20
-143.2174424555151
 30
0.0
 10
114.2431558959184
 20
-143.2384575379751
 30
0.0
 10
114.2386772717875
 20
-143.2680853591483
 30
0.0
 10
114.2197292466187
 20
-143.2680853591483
 30
0.0
 10
114.2114610174541
 20
-143.2680853591483
 30
0.0
 10
114.2007812214498
 20
-143.2639512445659
 30
0.0
 10
114.1942355400278
 20
-143.2406968500405
 30
0.0
 10
114.1942355400278
 20
-143.2406968500405
 30
0.0
 10
114.1415255791035
 20
-143.048116012415
 30
0.0
 10
114.1415255791035
 20
-143.048116012415
 30
0.0
 10
114.2875976276781
 20
-143.0016072233641
 30
0.0
 10
114.3530544418978
 20
-142.9783528288387
 30
0.0
 10
114.4081759696618
 20
-142.9571654916044
 30
0.0
 10
114.4081759696618
 20
-142.9571654916044
 30
0.0
 10
114.4081759696618
 20
-142.5446153072458
 30
0.0
 10
114.4081759696618
 20
-142.5446153072458
 30
0.0
 10
114.4081759696618
 20
-142.5446153072458
 30
0.0
 10
114.355121499189
 20
-142.5446153072458
 30
0.0
 10
114.355121499189
 20
-142.5446153072458
 30
0.0
 10
114.355121499189
 20
-142.5446153072458
 30
0.0
 10
114.2769178316738
 20
-142.5446153072458
 30
0.0
 10
114.2769178316738
 20
-142.5446153072458
 30
0.0
 10
114.2090494506144
 20
-142.5446153072458
 30
0.0
 10
114.2007812214498
 20
-142.5446153072458
 30
0.0
 10
114.1646077188547
 20
-142.5509887338935
 30
0.0
 10
114.1646077188547
 20
-142.5509887338935
 30
0.0
 10
114.1646077188547
 20
-142.3563408389769
 30
0.0
 10
114.1646077188547
 20
-142.3563408389769
 30
0.0
 10
114.1921684827367
 20
-142.3627142656246
 30
0.0
 10
114.2007812214498
 20
-142.3627142656246
 30
0.0
 10
114.2703721502518
 20
-142.3627142656246
 30
0.0
 10
114.2703721502518
 20
-142.3627142656246
 30
0.0
 10
114.403697345531
 20
-142.3627142656246
 30
0.0
 10
114.403697345531
 20
-142.3627142656246
 30
0.0
 10
114.403697345531
 20
-142.2929510820483
 30
0.0
 10
114.403697345531
 20
-142.2104410451765
 30
0.0
 10
114.4016302882398
 20
-142.20613467582
 30
0.0
 10
114.3933620590752
 20
-142.0263006914899
 30
0.0
 10
114.3933620590752
 20
-142.0073526663211
 30
0.0
 10
114.3909504922356
 20
-141.9608438772702
 30
0.0
 10
114.3909504922356
 20
-141.9608438772702
 30
0.0
 10
114.6069579791607
 20
-141.969284361209
 30
0.0
 10
114.6069579791607
 20
-141.969284361209
 30
0.0
 10
114.617637775165
 20
-141.969284361209
 30
0.0
 10
114.638652857625
 20
-141.9713514185002
 30
0.0
 10
114.638652857625
 20
-141.9882323863779
 30
0.0
 10
114.638652857625
 20
-142.0073526663211
 30
0.0
 10
114.6238389470385
 20
-142.0178602075511
 30
0.0
 10
114.5983452404476
 20
-142.0369804874942
 30
0.0
 10
114.5983452404476
 20
-142.0876233911274
 30
0.0
 10
114.5921440685742
 20
-142.3162054765737
 30
0.0
 10
114.5942111258653
 20
-142.3627142656246
 30
0.0
 10
114.7234022065622
 20
-142.3627142656246
 30
0.0
 10
114.7358045503091
 20
-142.3627142656246
 30
0.0
 10
114.8333007525417
 20
-142.3542737816857
 30
0.0
 10
114.8333007525417
 20
-142.3542737816857
 30
0.0
 10
114.8333007525417
 20
-142.5489216766023
 30
0.0
 10
114.8333007525417
 20
-142.5489216766023
 30
0.0
 10
114.7950601926554
 20
-142.5466823645369
 30
0.0
 10
114.7275363211445
 20
-142.5425482499546
 30
0.0
 10
114.5921440685742
 20
-142.5446153072458
 30
0.0
 10
114.5921440685742
 20
-142.5446153072458
 30
0.0
 10
114.5921440685742
 20
-142.8830959386716
 30
0.0
 10
114.5921440685742
 20
-142.8830959386716
 30
0.0
 10
114.6472655963382
 20
-142.8598415441461
 30
0.0
 10
114.7127224105579
 20
-142.8322807802642
 30
0.0
 10
114.7612982568999
 20
-142.8090263857387
 30
0.0
 10
114.7612982568999
 20
-142.8090263857387
 30
0.0
 10
114.7612982568999
 20
-142.6314317134741
 30
0.0
 10
114.7612982568999
 20
-142.6314317134741
 30
0.0
 10
114.8756754270102
 20
-142.6440063119952
 30
0.0
 10
114.9941867117028
 20
-142.6440063119952
 30
0.0
 10
115.1102864295557
 20
-142.6440063119952
 30
0.0
 10
115.0872042898046
 20
-142.5489216766023
 30
0.0
 10
115.0596435259226
 20
-142.4664116397306
 30
0.0
 10
114.996253768994
 20
-142.3330864444514
 30
0.0
 10
114.9518120372343
 20
-142.3351535017426
 30
0.0
 10
114.8691297455883
 20
-142.3394598710991
 30
0.0
 10
114.8312336952505
 20
-142.3415269283903
 30
0.0
 10
114.8312336952505
 20
-142.3415269283903
 30
0.0
 10
114.8312336952505
 20
-142.1616929440603
 30
0.0
 10
114.8312336952505
 20
-142.1616929440603
 30
0.0
 10
114.9559461518165
 20
-142.1701334279991
 30
0.0
 10
115.1295789642731
 20
-142.1744397973557
 30
0.0
 10
115.2119167463706
 20
-142.1744397973557
 30
0.0
 10
115.2119167463706
 20
-142.1744397973557
 30
0.0
 10
115.2945990380166
 20
-142.1744397973557
 30
0.0
 10
115.2945990380166
 20
-142.1744397973557
 30
0.0
 10
115.2945990380166
 20
-142.0114867809034
 30
0.0
 10
115.2945990380166
 20
-142.0009792396733
 30
0.0
 10
115.2921874711769
 20
-141.9460299666836
 30
0.0
 10
115.2921874711769
 20
-141.9460299666836
 30
0.0
 10
115.5164631872667
 20
-141.9713514185002
 30
0.0
 10
115.5164631872667
 20
-141.9713514185002
 30
0.0
 10
115.5209418113975
 20
-141.9713514185002
 30
0.0
 10
115.5419568938576
 20
-141.9734184757913
 30
0.0
 10
115.5419568938576
 20
-141.9902994436691
 30
0.0
 10
115.5419568938576
 20
-142.0051133542557
 30
0.0
 10
115.5312770978533
 20
-142.0137260929688
 30
0.0
 10
115.5037163339713
 20
-142.0285400035553
 30
0.0
 10
115.4975151620978
 20
-142.0939968177751
 30
0.0
 10
115.4954481048067
 20
-142.1151841550094
 30
0.0
 10
115.4954481048067
 20
-142.1744397973557
 30
0.0
 10
115.4954481048067
 20
-142.1744397973557
 30
0.0
 10
115.5905327401996
 20
-142.1744397973557
 30
0.0
 10
115.5905327401996
 20
-142.1744397973557
 30
0.0
 10
115.6732150318456
 20
-142.1744397973557
 30
0.0
 10
115.8465033347536
 20
-142.1701334279991
 30
0.0
 10
115.9715603008682
 20
-142.1616929440603
 30
0.0
 10
115.9715603008682
 20
-142.1616929440603
 30
0.0
 10
115.9715603008682
 20
-142.3415269283903
 30
0.0
 10
115.9715603008682
 20
-142.3415269283903
 30
0.0
 10
115.9419324796951
 20
-142.3394598710991
 30
0.0
 10
115.8234211950025
 20
-142.3351535017426
 30
0.0
 10
115.783113577825
 20
-142.3330864444514
 30
0.0
 10
115.7682996672384
 20
-142.3839016028589
 30
0.0
 10
115.734537731483
 20
-142.4960394609037
 30
0.0
 10
115.6687364077147
 20
-142.6355658280564
 30
0.0
 10
115.7111110821833
 20
-142.6355658280564
 30
0.0
 10
115.9884412687459
 20
-142.6166178028875
 30
0.0
 10
116.0497639683834
 20
-142.6143784908221
 30
0.0
 10
116.0497639683834
 20
-142.6143784908221
 30
0.0
 10
116.0497639683834
 20
-142.7985188445087
 30
0.0
 10
116.0497639683834
 20
-142.7985188445087
 30
0.0
 10
116.0201361472102
 20
-142.7985188445087
 30
0.0
 10
116.0032551793325
 20
-142.7942124751521
 30
0.0
 10
115.8403021628802
 20
-142.7942124751521
 30
0.0
  0
HATCH
  5
105
330
FE
100
AcDbEntity
  8
レイヤー 1
 62
   250
420
  2299925
440
 33554687
100
AcDbHatch
 10
0.0
 20
0.0
 30
0.0
210
0.0
220
0.0
230
1.0
  2
SOLID
 70
     1
 71
     1
 91
        3
 92
        1
 93
        1
 72
     4
 94
        3
 73
     0
 74
     0
 95
       17
 96
       13
 40
0.0
 40
0.0
 40
0.0
 40
0.0
 40
1.0
 40
1.0
 40
1.0
 40
2.0
 40
2.0
 40
2.0
 40
3.0
 40
3.0
 40
3.0
 40
4.0
 40
4.0
 40
4.0
 40
4.0
 10
115.2753065032992
 20
-143.179374150403
 10
115.2584255354215
 20
-143.208829716802
 10
115.2077826317883
 20
-143.3020195496779
 10
115.197102835784
 20
-143.3209675748468
 10
115.3876166161184
 20
-143.3802232171931
 10
115.4086316985784
 20
-143.3865966438408
 10
115.4806341942201
 20
-143.4141574077228
 10
115.5357557219841
 20
-143.3273410014946
 10
115.5588378617353
 20
-143.2532714485617
 10
115.5736517723218
 20
-143.179374150403
 10
115.5736517723218
 20
-143.179374150403
 10
115.2753065032992
 20
-143.179374150403
 10
115.2753065032992
 20
-143.179374150403
 97
        0
 97
        1
330
102
 92
        1
 93
        1
 72
     4
 94
        3
 73
     0
 74
     0
 95
       20
 96
       16
 40
0.0
 40
0.0
 40
0.0
 40
0.0
 40
1.0
 40
1.0
 40
1.0
 40
2.0
 40
2.0
 40
2.0
 40
3.0
 40
3.0
 40
3.0
 40
4.0
 40
4.0
 40
4.0
 40
5.0
 40
5.0
 40
5.0
 40
5.0
 10
115.2119167463706
 20
-142.3289523298691
 10
115.2119167463706
 20
-142.3289523298691
 10
115.1802218679063
 20
-142.3289523298691
 10
115.1802218679063
 20
-142.3289523298691
 10
115.2267306569572
 20
-142.4283433346186
 10
115.2584255354215
 20
-142.5086140594249
 10
115.2921874711769
 20
-142.6355658280564
 10
115.2921874711769
 20
-142.6355658280564
 10
115.499582219389
 20
-142.6355658280564
 10
115.499582219389
 20
-142.6355658280564
 10
115.5312770978533
 20
-142.5425482499546
 10
115.554703747153
 20
-142.4579711557917
 10
115.5777858869041
 20
-142.3289523298691
 10
115.5777858869041
 20
-142.3289523298691
 10
115.2119167463706
 20
-142.3289523298691
 10
115.2119167463706
 20
-142.3289523298691
 97
        0
 97
        1
330
103
 92
        1
 93
        1
 72
     4
 94
        3
 73
     0
 74
     0
 95
      242
 96
      238
 40
0.0
 40
0.0
 40
0.0
 40
0.0
 40
1.0
 40
1.0
 40
1.0
 40
2.0
 40
2.0
 40
2.0
 40
3.0
 40
3.0
 40
3.0
 40
4.0
 40
4.0
 40
4.0
 40
5.0
 40
5.0
 40
5.0
 40
6.0
 40
6.0
 40
6.0
 40
7.0
 40
7.0
 40
7.0
 40
8.0
 40
8.0
 40
8.0
 40
9.0
 40
9.0
 40
9.0
 40
10.0
 40
10.0
 40
10.0
 40
11.0
 40
11.0
 40
11.0
 40
12.0
 40
12.0
 40
12.0
 40
13.0
 40
13.0
 40
13.0
 40
14.0
 40
14.0
 40
14.0
 40
15.0
 40
15.0
 40
15.0
 40
16.0
 40
16.0
 40
16.0
 40
17.0
 40
17.0
 40
17.0
 40
18.0
 40
18.0
 40
18.0
 40
19.0
 40
19.0
 40
19.0
 40
20.0
 40
20.0
 40
20.0
 40
21.0
 40
21.0
 40
21.0
 40
22.0
 40
22.0
 40
22.0
 40
23.0
 40
23.0
 40
23.0
 40
24.0
 40
24.0
 40
24.0
 40
25.0
 40
25.0
 40
25.0
 40
26.0
 40
26.0
 40
26.0
 40
27.0
 40
27.0
 40
27.0
 40
28.0
 40
28.0
 40
28.0
 40
29.0
 40
29.0
 40
29.0
 40
30.0
 40
30.0
 40
30.0
 40
31.0
 40
31.0
 40
31.0
 40
32.0
 40
32.0
 40
32.0
 40
33.0
 40
33.0
 40
33.0
 40
34.0
 40
34.0
 40
34.0
 40
35.0
 40
35.0
 40
35.0
 40
36.0
 40
36.0
 40
36.0
 40
37.0
 40
37.0
 40
37.0
 40
38.0
 40
38.0
 40
38.0
 40
39.0
 40
39.0
 40
39.0
 40
40.0
 40
40.0
 40
40.0
 40
41.0
 40
41.0
 40
41.0
 40
42.0
 40
42.0
 40
42.0
 40
43.0
 40
43.0
 40
43.0
 40
44.0
 40
44.0
 40
44.0
 40
45.0
 40
45.0
 40
45.0
 40
46.0
 40
46.0
 40
46.0
 40
47.0
 40
47.0
 40
47.0
 40
48.0
 40
48.0
 40
48.0
 40
49.0
 40
49.0
 40
49.0
 40
50.0
 40
50.0
 40
50.0
 40
51.0
 40
51.0
 40
51.0
 40
52.0
 40
52.0
 40
52.0
 40
53.0
 40
53.0
 40
53.0
 40
54.0
 40
54.0
 40
54.0
 40
55.0
 40
55.0
 40
55.0
 40
56.0
 40
56.0
 40
56.0
 40
57.0
 40
57.0
 40
57.0
 40
58.0
 40
58.0
 40
58.0
 40
59.0
 40
59.0
 40
59.0
 40
60.0
 40
60.0
 40
60.0
 40
61.0
 40
61.0
 40
61.0
 40
62.0
 40
62.0
 40
62.0
 40
63.0
 40
63.0
 40
63.0
 40
64.0
 40
64.0
 40
64.0
 40
65.0
 40
65.0
 40
65.0
 40
66.0
 40
66.0
 40
66.0
 40
67.0
 40
67.0
 40
67.0
 40
68.0
 40
68.0
 40
68.0
 40
69.0
 40
69.0
 40
69.0
 40
70.0
 40
70.0
 40
70.0
 40
71.0
 40
71.0
 40
71.0
 40
72.0
 40
72.0
 40
72.0
 40
73.0
 40
73.0
 40
73.0
 40
74.0
 40
74.0
 40
74.0
 40
75.0
 40
75.0
 40
75.0
 40
76.0
 40
76.0
 40
76.0
 40
77.0
 40
77.0
 40
77.0
 40
78.0
 40
78.0
 40
78.0
 40
79.0
 40
79.0
 40
79.0
 40
79.0
 10
115.8403021628802
 20
-142.7942124751521
 10
115.8403021628802
 20
-142.7942124751521
 10
115.5863986256173
 20
-142.7942124751521
 10
115.5863986256173
 20
-142.7942124751521
 10
115.5863986256173
 20
-142.7942124751521
 10
115.3094129486032
 20
-142.7942124751521
 10
115.3094129486032
 20
-142.7942124751521
 10
115.3094129486032
 20
-142.7942124751521
 10
115.4361924624604
 20
-142.8365871496207
 10
115.4361924624604
 20
-142.8365871496207
 10
115.4468722584647
 20
-142.8408935189773
 10
115.4596191117601
 20
-142.8470946908507
 10
115.4596191117601
 20
-142.8598415441461
 10
115.4596191117601
 20
-142.8810288813804
 10
115.4275797237472
 20
-142.8874023080281
 10
115.4065646412872
 20
-142.8915364226104
 10
115.395884845283
 20
-142.9147908171359
 10
115.3662570241098
 20
-142.9804198861299
 10
115.3473089989409
 20
-143.0248616178896
 10
115.3473089989409
 20
-143.0248616178896
 10
115.6180935040816
 20
-143.0248616178896
 10
115.6180935040816
 20
-143.0248616178896
 10
115.7090440248922
 20
-143.0248616178896
 10
115.9057589770999
 20
-143.0205552485331
 10
116.0476969110922
 20
-143.0121147645942
 10
116.0476969110922
 20
-143.0121147645942
 10
116.0476969110922
 20
-143.1898816916331
 10
116.0476969110922
 20
-143.1898816916331
 10
115.9650146194462
 20
-143.1855753222765
 10
115.9439995369862
 20
-143.1855753222765
 10
115.7641655526562
 20
-143.1814412076942
 10
115.7324706741919
 20
-143.3357814854334
 10
115.6880289424321
 20
-143.416224465014
 10
115.6435872106724
 20
-143.4859876485903
 10
115.7641655526562
 20
-143.5452432909366
 10
115.8699299840533
 20
-143.6129394172217
 10
115.9736273581593
 20
-143.6954494540935
 10
115.9736273581593
 20
-143.6954494540935
 10
115.8551160734668
 20
-143.8625365851281
 10
115.8551160734668
 20
-143.8625365851281
 10
115.8316894241671
 20
-143.8435885599592
 10
115.8189425708716
 20
-143.8351480760204
 10
115.706976967601
 20
-143.7503987270832
 10
115.658401121259
 20
-143.7123304219712
 10
115.5991454789127
 20
-143.6765014289246
 10
115.5185302445578
 20
-143.6320596971649
 10
115.3070013817635
 20
-143.8182671081426
 10
115.1020182003911
 20
-143.8415215026681
 10
114.8119411605331
 20
-143.8711493238412
 10
114.8119411605331
 20
-143.8711493238412
 10
114.7085882959756
 20
-143.6913153395112
 10
114.7085882959756
 20
-143.6913153395112
 10
115.0258815901671
 20
-143.6870089701546
 10
115.2012369503663
 20
-143.661687518338
 10
115.3535101708144
 20
-143.5516167175843
 10
115.2353433956703
 20
-143.5008015591769
 10
115.1464599321509
 20
-143.4734130500691
 10
115.1102864295557
 20
-143.4606661967737
 10
115.0913384043869
 20
-143.4882269606557
 10
115.0765244938003
 20
-143.5071749858246
 10
115.0489637299183
 20
-143.5411091763543
 10
115.0489637299183
 20
-143.5411091763543
 10
114.8522487777105
 20
-143.4585991394826
 10
114.8522487777105
 20
-143.4585991394826
 10
114.9349310693565
 20
-143.378156159902
 10
114.996253768994
 20
-143.2828992697348
 10
115.0530978445006
 20
-143.1814412076942
 10
114.8629285737148
 20
-143.1855753222765
 10
114.8415689817062
 20
-143.1855753222765
 10
114.7592311996088
 20
-143.1898816916331
 10
114.7592311996088
 20
-143.1898816916331
 10
114.7592311996088
 20
-143.0121147645942
 10
114.7592311996088
 20
-143.0121147645942
 10
114.8987575667614
 20
-143.0184881912419
 10
115.1082193722646
 20
-143.0227945605984
 10
115.1337130788554
 20
-143.0227945605984
 10
115.1505940467332
 20
-142.9888603700687
 10
115.2057155744972
 20
-142.868282028085
 10
115.224663599666
 20
-142.7942124751521
 10
115.2057155744972
 20
-142.7942124751521
 10
115.0279486474583
 20
-142.8005859017998
 10
114.8333007525417
 20
-142.8133327550952
 10
114.8333007525417
 20
-142.8133327550952
 10
114.8333007525417
 20
-142.9466579503744
 10
114.8333007525417
 20
-142.9466579503744
 10
114.7847249061996
 20
-142.971979402191
 10
114.7254692638533
 20
-143.0036742806553
 10
114.5921440685742
 20
-143.0693033496493
 10
114.5921440685742
 20
-143.0693033496493
 10
114.5921440685742
 20
-143.2152031434497
 10
114.5921440685742
 20
-143.2152031434497
 10
114.5921440685742
 20
-143.2152031434497
 10
114.5921440685742
 20
-143.6828748555723
 10
114.5921440685742
 20
-143.6828748555723
 10
114.5921440685742
 20
-143.8096543694295
 10
114.555970565979
 20
-143.8689100117758
 10
114.2727837170915
 20
-143.8604695278369
 10
114.2727837170915
 20
-143.8604695278369
 10
114.1690863429855
 20
-143.6532470343992
 10
114.1690863429855
 20
-143.6532470343992
 10
114.2324760999141
 20
-143.6658216329203
 10
114.2810519462561
 20
-143.6701280022769
 10
114.3213595634335
 20
-143.6701280022769
 10
114.3974961736575
 20
-143.6701280022769
 10
114.4081759696618
 20
-143.6468736077515
 10
114.4081759696618
 20
-143.5812445387574
 10
114.4081759696618
 20
-143.5812445387574
 10
114.4081759696618
 20
-143.151813386521
 10
114.4081759696618
 20
-143.151813386521
 10
114.3106797674293
 20
-143.1919487489242
 10
114.2937987995515
 20
-143.1983221755719
 10
114.2472900105007
 20
-143.2174424555151
 10
114.2431558959184
 20
-143.2384575379751
 10
114.2386772717875
 20
-143.2680853591483
 10
114.2197292466187
 20
-143.2680853591483
 10
114.2114610174541
 20
-143.2680853591483
 10
114.2007812214498
 20
-143.2639512445659
 10
114.1942355400278
 20
-143.2406968500405
 10
114.1942355400278
 20
-143.2406968500405
 10
114.1415255791035
 20
-143.048116012415
 10
114.1415255791035
 20
-143.048116012415
 10
114.2875976276781
 20
-143.0016072233641
 10
114.3530544418978
 20
-142.9783528288387
 10
114.4081759696618
 20
-142.9571654916044
 10
114.4081759696618
 20
-142.9571654916044
 10
114.4081759696618
 20
-142.5446153072458
 10
114.4081759696618
 20
-142.5446153072458
 10
114.4081759696618
 20
-142.5446153072458
 10
114.355121499189
 20
-142.5446153072458
 10
114.355121499189
 20
-142.5446153072458
 10
114.355121499189
 20
-142.5446153072458
 10
114.2769178316738
 20
-142.5446153072458
 10
114.2769178316738
 20
-142.5446153072458
 10
114.2090494506144
 20
-142.5446153072458
 10
114.2007812214498
 20
-142.5446153072458
 10
114.1646077188547
 20
-142.5509887338935
 10
114.1646077188547
 20
-142.5509887338935
 10
114.1646077188547
 20
-142.3563408389769
 10
114.1646077188547
 20
-142.3563408389769
 10
114.1921684827367
 20
-142.3627142656246
 10
114.2007812214498
 20
-142.3627142656246
 10
114.2703721502518
 20
-142.3627142656246
 10
114.2703721502518
 20
-142.3627142656246
 10
114.403697345531
 20
-142.3627142656246
 10
114.403697345531
 20
-142.3627142656246
 10
114.403697345531
 20
-142.2929510820483
 10
114.403697345531
 20
-142.2104410451765
 10
114.4016302882398
 20
-142.20613467582
 10
114.3933620590752
 20
-142.0263006914899
 10
114.3933620590752
 20
-142.0073526663211
 10
114.3909504922356
 20
-141.9608438772702
 10
114.3909504922356
 20
-141.9608438772702
 10
114.6069579791607
 20
-141.969284361209
 10
114.6069579791607
 20
-141.969284361209
 10
114.617637775165
 20
-141.969284361209
 10
114.638652857625
 20
-141.9713514185002
 10
114.638652857625
 20
-141.9882323863779
 10
114.638652857625
 20
-142.0073526663211
 10
114.6238389470385
 20
-142.0178602075511
 10
114.5983452404476
 20
-142.0369804874942
 10
114.5983452404476
 20
-142.0876233911274
 10
114.5921440685742
 20
-142.3162054765737
 10
114.5942111258653
 20
-142.3627142656246
 10
114.7234022065622
 20
-142.3627142656246
 10
114.7358045503091
 20
-142.3627142656246
 10
114.8333007525417
 20
-142.3542737816857
 10
114.8333007525417
 20
-142.3542737816857
 10
114.8333007525417
 20
-142.5489216766023
 10
114.8333007525417
 20
-142.5489216766023
 10
114.7950601926554
 20
-142.5466823645369
 10
114.7275363211445
 20
-142.5425482499546
 10
114.5921440685742
 20
-142.5446153072458
 10
114.5921440685742
 20
-142.5446153072458
 10
114.5921440685742
 20
-142.8830959386716
 10
114.5921440685742
 20
-142.8830959386716
 10
114.6472655963382
 20
-142.8598415441461
 10
114.7127224105579
 20
-142.8322807802642
 10
114.7612982568999
 20
-142.8090263857387
 10
114.7612982568999
 20
-142.8090263857387
 10
114.7612982568999
 20
-142.6314317134741
 10
114.7612982568999
 20
-142.6314317134741
 10
114.8756754270102
 20
-142.6440063119952
 10
114.9941867117028
 20
-142.6440063119952
 10
115.1102864295557
 20
-142.6440063119952
 10
115.0872042898046
 20
-142.5489216766023
 10
115.0596435259226
 20
-142.4664116397306
 10
114.996253768994
 20
-142.3330864444514
 10
114.9518120372343
 20
-142.3351535017426
 10
114.8691297455883
 20
-142.3394598710991
 10
114.8312336952505
 20
-142.3415269283903
 10
114.8312336952505
 20
-142.3415269283903
 10
114.8312336952505
 20
-142.1616929440603
 10
114.8312336952505
 20
-142.1616929440603
 10
114.9559461518165
 20
-142.1701334279991
 10
115.1295789642731
 20
-142.1744397973557
 10
115.2119167463706
 20
-142.1744397973557
 10
115.2119167463706
 20
-142.1744397973557
 10
115.2945990380166
 20
-142.1744397973557
 10
115.2945990380166
 20
-142.1744397973557
 10
115.2945990380166
 20
-142.0114867809034
 10
115.2945990380166
 20
-142.0009792396733
 10
115.2921874711769
 20
-141.9460299666836
 10
115.2921874711769
 20
-141.9460299666836
 10
115.5164631872667
 20
-141.9713514185002
 10
115.5164631872667
 20
-141.9713514185002
 10
115.5209418113975
 20
-141.9713514185002
 10
115.5419568938576
 20
-141.9734184757913
 10
115.5419568938576
 20
-141.9902994436691
 10
115.5419568938576
 20
-142.0051133542557
 10
115.5312770978533
 20
-142.0137260929688
 10
115.5037163339713
 20
-142.0285400035553
 10
115.4975151620978
 20
-142.0939968177751
 10
115.4954481048067
 20
-142.1151841550094
 10
115.4954481048067
 20
-142.1744397973557
 10
115.4954481048067
 20
-142.1744397973557
 10
115.5905327401996
 20
-142.1744397973557
 10
115.5905327401996
 20
-142.1744397973557
 10
115.6732150318456
 20
-142.1744397973557
 10
115.8465033347536
 20
-142.1701334279991
 10
115.9715603008682
 20
-142.1616929440603
 10
115.9715603008682
 20
-142.1616929440603
 10
115.9715603008682
 20
-142.3415269283903
 10
115.9715603008682
 20
-142.3415269283903
 10
115.9419324796951
 20
-142.3394598710991
 10
115.8234211950025
 20
-142.3351535017426
 10
115.783113577825
 20
-142.3330864444514
 10
115.7682996672384
 20
-142.3839016028589
 10
115.734537731483
 20
-142.4960394609037
 10
115.6687364077147
 20
-142.6355658280564
 10
115.7111110821833
 20
-142.6355658280564
 10
115.9884412687459
 20
-142.6166178028875
 10
116.0497639683834
 20
-142.6143784908221
 10
116.0497639683834
 20
-142.6143784908221
 10
116.0497639683834
 20
-142.7985188445087
 10
116.0497639683834
 20
-142.7985188445087
 10
116.0201361472102
 20
-142.7985188445087
 10
116.0032551793325
 20
-142.7942124751521
 10
115.8403021628802
 20
-142.7942124751521
 97
        0
 97
        1
330
104
 75
     2
 76
     1
 98
        1
 10
0.0
 20
0.0
450
        0
451
        0
460
0.0
461
0.0
452
        0
462
0.0
453
        0
470

  0
SPLINE
  5
106
330
FE
100
AcDbEntity
  8
レイヤー 1
100
AcDbSpline
210
0.0
220
0.0
230
1.0
 70
    11
 71
     3
 72
    17
 73
    13
 74
     0
 42
0.0000000001
 43
0.0000000001
 40
0.0
 40
0.0
 40
0.0
 40
0.0
 40
1.0
 40
1.0
 40
1.0
 40
2.0
 40
2.0
 40
2.0
 40
3.0
 40
3.0
 40
3.0
 40
4.0
 40
4.0
 40
4.0
 40
4.0
 10
117.6968641198813
 20
-143.5939913920529
 30
0.0
 10
117.6968641198813
 20
-143.5939913920529
 30
0.0
 10
116.9902750358566
 20
-143.5939913920529
 30
0.0
 10
116.9902750358566
 20
-143.5939913920529
 30
0.0
 10
116.9902750358566
 20
-143.5939913920529
 30
0.0
 10
116.9902750358566
 20
-143.7081963073889
 30
0.0
 10
116.9902750358566
 20
-143.7081963073889
 30
0.0
 10
116.9902750358566
 20
-143.7081963073889
 30
0.0
 10
117.6968641198813
 20
-143.7081963073889
 30
0.0
 10
117.6968641198813
 20
-143.7081963073889
 30
0.0
 10
117.6968641198813
 20
-143.7081963073889
 30
0.0
 10
117.6968641198813
 20
-143.5939913920529
 30
0.0
 10
117.6968641198813
 20
-143.5939913920529
 30
0.0
  0
SPLINE
  5
107
330
FE
100
AcDbEntity
  8
レイヤー 1
100
AcDbSpline
210
0.0
220
0.0
230
1.0
 70
    11
 71
     3
 72
    17
 73
    13
 74
     0
 42
0.0000000001
 43
0.0000000001
 40
0.0
 40
0.0
 40
0.0
 40
0.0
 40
1.0
 40
1.0
 40
1.0
 40
2.0
 40
2.0
 40
2.0
 40
3.0
 40
3.0
 40
3.0
 40
4.0
 40
4.0
 40
4.0
 40
4.0
 10
117.6968641198813
 20
-143.35059539602
 30
0.0
 10
117.6968641198813
 20
-143.35059539602
 30
0.0
 10
116.9902750358566
 20
-143.35059539602
 30
0.0
 10
116.9902750358566
 20
-143.35059539602
 30
0.0
 10
116.9902750358566
 20
-143.35059539602
 30
0.0
 10
116.9902750358566
 20
-143.4649725661303
 30
0.0
 10
116.9902750358566
 20
-143.4649725661303
 30
0.0
 10
116.9902750358566
 20
-143.4649725661303
 30
0.0
 10
117.6968641198813
 20
-143.4649725661303
 30
0.0
 10
117.6968641198813
 20
-143.4649725661303
 30
0.0
 10
117.6968641198813
 20
-143.4649725661303
 30
0.0
 10
117.6968641198813
 20
-143.35059539602
 30
0.0
 10
117.6968641198813
 20
-143.35059539602
 30
0.0
  0
SPLINE
  5
108
330
FE
100
AcDbEntity
  8
レイヤー 1
100
AcDbSpline
210
0.0
220
0.0
230
1.0
 70
    11
 71
     3
 72
    17
 73
    13
 74
     0
 42
0.0000000001
 43
0.0000000001
 40
0.0
 40
0.0
 40
0.0
 40
0.0
 40
1.0
 40
1.0
 40
1.0
 40
2.0
 40
2.0
 40
2.0
 40
3.0
 40
3.0
 40
3.0
 40
4.0
 40
4.0
 40
4.0
 40
4.0
 10
117.6968641198813
 20
-143.1178791959913
 30
0.0
 10
117.6968641198813
 20
-143.1178791959913
 30
0.0
 10
116.9902750358566
 20
-143.1178791959913
 30
0.0
 10
116.9902750358566
 20
-143.1178791959913
 30
0.0
 10
116.9902750358566
 20
-143.1178791959913
 30
0.0
 10
116.9902750358566
 20
-143.2258829394539
 30
0.0
 10
116.9902750358566
 20
-143.2258829394539
 30
0.0
 10
116.9902750358566
 20
-143.2258829394539
 30
0.0
 10
117.6968641198813
 20
-143.2258829394539
 30
0.0
 10
117.6968641198813
 20
-143.2258829394539
 30
0.0
 10
117.6968641198813
 20
-143.2258829394539
 30
0.0
 10
117.6968641198813
 20
-143.1178791959913
 30
0.0
 10
117.6968641198813
 20
-143.1178791959913
 30
0.0
  0
SPLINE
  5
109
330
FE
100
AcDbEntity
  8
レイヤー 1
100
AcDbSpline
210
0.0
220
0.0
230
1.0
 70
     9
 71
     3
 72
   203
 73
   199
 74
     0
 42
0.0000000001
 43
0.0000000001
 40
0.0
 40
0.0
 40
0.0
 40
0.0
 40
1.0
 40
1.0
 40
1.0
 40
2.0
 40
2.0
 40
2.0
 40
3.0
 40
3.0
 40
3.0
 40
4.0
 40
4.0
 40
4.0
 40
5.0
 40
5.0
 40
5.0
 40
6.0
 40
6.0
 40
6.0
 40
7.0
 40
7.0
 40
7.0
 40
8.0
 40
8.0
 40
8.0
 40
9.0
 40
9.0
 40
9.0
 40
10.0
 40
10.0
 40
10.0
 40
11.0
 40
11.0
 40
11.0
 40
12.0
 40
12.0
 40
12.0
 40
13.0
 40
13.0
 40
13.0
 40
14.0
 40
14.0
 40
14.0
 40
15.0
 40
15.0
 40
15.0
 40
16.0
 40
16.0
 40
16.0
 40
17.0
 40
17.0
 40
17.0
 40
18.0
 40
18.0
 40
18.0
 40
19.0
 40
19.0
 40
19.0
 40
20.0
 40
20.0
 40
20.0
 40
21.0
 40
21.0
 40
21.0
 40
22.0
 40
22.0
 40
22.0
 40
23.0
 40
23.0
 40
23.0
 40
24.0
 40
24.0
 40
24.0
 40
25.0
 40
25.0
 40
25.0
 40
26.0
 40
26.0
 40
26.0
 40
27.0
 40
27.0
 40
27.0
 40
28.0
 40
28.0
 40
28.0
 40
29.0
 40
29.0
 40
29.0
 40
30.0
 40
30.0
 40
30.0
 40
31.0
 40
31.0
 40
31.0
 40
32.0
 40
32.0
 40
32.0
 40
33.0
 40
33.0
 40
33.0
 40
34.0
 40
34.0
 40
34.0
 40
35.0
 40
35.0
 40
35.0
 40
36.0
 40
36.0
 40
36.0
 40
37.0
 40
37.0
 40
37.0
 40
38.0
 40
38.0
 40
38.0
 40
39.0
 40
39.0
 40
39.0
 40
40.0
 40
40.0
 40
40.0
 40
41.0
 40
41.0
 40
41.0
 40
42.0
 40
42.0
 40
42.0
 40
43.0
 40
43.0
 40
43.0
 40
44.0
 40
44.0
 40
44.0
 40
45.0
 40
45.0
 40
45.0
 40
46.0
 40
46.0
 40
46.0
 40
47.0
 40
47.0
 40
47.0
 40
48.0
 40
48.0
 40
48.0
 40
49.0
 40
49.0
 40
49.0
 40
50.0
 40
50.0
 40
50.0
 40
51.0
 40
51.0
 40
51.0
 40
52.0
 40
52.0
 40
52.0
 40
53.0
 40
53.0
 40
53.0
 40
54.0
 40
54.0
 40
54.0
 40
55.0
 40
55.0
 40
55.0
 40
56.0
 40
56.0
 40
56.0
 40
57.0
 40
57.0
 40
57.0
 40
58.0
 40
58.0
 40
58.0
 40
59.0
 40
59.0
 40
59.0
 40
60.0
 40
60.0
 40
60.0
 40
61.0
 40
61.0
 40
61.0
 40
62.0
 40
62.0
 40
62.0
 40
63.0
 40
63.0
 40
63.0
 40
64.0
 40
64.0
 40
64.0
 40
65.0
 40
65.0
 40
65.0
 40
66.0
 40
66.0
 40
66.0
 40
66.0
 10
117.5318440461379
 20
-142.8619086014373
 30
0.0
 10
117.5318440461379
 20
-142.8619086014373
 30
0.0
 10
116.9730495584303
 20
-142.8619086014373
 30
0.0
 10
116.9730495584303
 20
-142.8619086014373
 30
0.0
 10
116.9627142719746
 20
-142.906350333197
 30
0.0
 10
116.9541015332615
 20
-142.9380452116613
 30
0.0
 10
116.941354679966
 20
-142.9762857715476
 30
0.0
 10
116.9668483865569
 20
-142.9762857715476
 30
0.0
 10
116.9816622971435
 20
-142.9783528288387
 30
0.0
 10
116.9878634690169
 20
-142.9783528288387
 30
0.0
 10
116.9878634690169
 20
-142.9783528288387
 30
0.0
 10
117.1763101920601
 20
-142.9783528288387
 30
0.0
 10
117.1763101920601
 20
-142.9783528288387
 30
0.0
 10
117.1763101920601
 20
-142.9783528288387
 30
0.0
 10
117.5507920713067
 20
-142.9783528288387
 30
0.0
 10
117.5507920713067
 20
-142.9783528288387
 30
0.0
 10
117.6014349749399
 20
-142.9783528288387
 30
0.0
 10
117.884966333376
 20
-142.9656059755433
 30
0.0
 10
117.9166612118403
 20
-142.9656059755433
 30
0.0
 10
117.9145941545491
 20
-142.9931667394253
 30
0.0
 10
117.912527097258
 20
-143.0121147645942
 30
0.0
 10
117.912527097258
 20
-143.0417425857673
 30
0.0
 10
117.9104600399668
 20
-143.0734374642316
 30
0.0
 10
117.9104600399668
 20
-143.208829716802
 30
0.0
 10
117.9104600399668
 20
-143.2363904806839
 30
0.0
 10
117.9104600399668
 20
-143.2363904806839
 30
0.0
 10
117.9104600399668
 20
-143.481853534008
 30
0.0
 10
117.9104600399668
 20
-143.481853534008
 30
0.0
 10
117.9104600399668
 20
-143.5262952657677
 30
0.0
 10
117.9145941545491
 20
-143.7230102179755
 30
0.0
 10
117.9187282691314
 20
-143.8752834384235
 30
0.0
 10
117.9187282691314
 20
-143.8752834384235
 30
0.0
 10
117.6923854957505
 20
-143.8752834384235
 30
0.0
 10
117.6923854957505
 20
-143.8752834384235
 30
0.0
 10
117.6923854957505
 20
-143.8752834384235
 30
0.0
 10
117.6944525530416
 20
-143.8415215026681
 30
0.0
 10
117.6944525530416
 20
-143.8415215026681
 30
0.0
 10
117.6944525530416
 20
-143.8415215026681
 30
0.0
 10
116.9923420931477
 20
-143.8415215026681
 30
0.0
 10
116.9923420931477
 20
-143.8415215026681
 30
0.0
 10
116.9923420931477
 20
-143.8415215026681
 30
0.0
 10
116.9944091504389
 20
-143.8752834384235
 30
0.0
 10
116.9944091504389
 20
-143.8752834384235
 30
0.0
 10
116.9944091504389
 20
-143.8752834384235
 30
0.0
 10
116.7763346062226
 20
-143.8752834384235
 30
0.0
 10
116.7763346062226
 20
-143.8752834384235
 30
0.0
 10
116.7808132303534
 20
-143.8203341654338
 30
0.0
 10
116.7808132303534
 20
-143.8075873121384
 30
0.0
 10
116.7870144022268
 20
-143.6933823968023
 30
0.0
 10
116.789081459518
 20
-143.6658216329203
 30
0.0
 10
116.7911485168091
 20
-143.5326686924154
 30
0.0
 10
116.7911485168091
 20
-143.5135484124723
 30
0.0
 10
116.7911485168091
 20
-143.5135484124723
 30
0.0
 10
116.7911485168091
 20
-143.3104600336168
 30
0.0
 10
116.7911485168091
 20
-143.3104600336168
 30
0.0
 10
116.6516221496565
 20
-143.5600572015232
 30
0.0
 10
116.4824679613308
 20
-143.6913153395112
 30
0.0
 10
116.3767035299336
 20
-143.7567721537309
 30
0.0
 10
116.3767035299336
 20
-143.7567721537309
 30
0.0
 10
116.203070717477
 20
-143.6172457865783
 30
0.0
 10
116.203070717477
 20
-143.6172457865783
 30
0.0
 10
116.2919541809964
 20
-143.5664306281709
 30
0.0
 10
116.4359591722799
 20
-143.4796142219426
 30
0.0
 10
116.5734184821413
 20
-143.2851385818002
 30
0.0
 10
116.664369002952
 20
-143.1581868131688
 30
0.0
 10
116.7298258171717
 20
-143.0143540766596
 30
0.0
 10
116.7639322624757
 20
-142.8619086014373
 30
0.0
 10
116.5351779222551
 20
-142.8641479135027
 30
0.0
 10
116.355343937925
 20
-142.8705213401504
 30
0.0
 10
116.2602593025321
 20
-142.8725883974415
 30
0.0
 10
116.2602593025321
 20
-142.8725883974415
 30
0.0
 10
116.2602593025321
 20
-142.6948214704027
 30
0.0
 10
116.2602593025321
 20
-142.6948214704027
 30
0.0
 10
116.4569742547399
 20
-142.7011948970504
 30
0.0
 10
116.740505613176
 20
-142.7055012664069
 30
0.0
 10
116.8907117763329
 20
-142.7055012664069
 30
0.0
 10
116.8907117763329
 20
-142.7055012664069
 30
0.0
 10
117.1043076964183
 20
-142.7055012664069
 30
0.0
 10
117.1043076964183
 20
-142.7055012664069
 30
0.0
 10
117.1043076964183
 20
-142.7055012664069
 30
0.0
 10
117.1043076964183
 20
-142.5974975229444
 30
0.0
 10
117.1043076964183
 20
-142.5974975229444
 30
0.0
 10
117.1043076964183
 20
-142.5974975229444
 30
0.0
 10
116.9582356478438
 20
-142.5974975229444
 30
0.0
 10
116.9582356478438
 20
-142.5974975229444
 30
0.0
 10
116.789081459518
 20
-142.5974975229444
 30
0.0
 10
116.6199272711922
 20
-142.6018038923009
 30
0.0
 10
116.4528401401576
 20
-142.6081773189486
 30
0.0
 10
116.4528401401576
 20
-142.6081773189486
 30
0.0
 10
116.4528401401576
 20
-142.4367838185574
 30
0.0
 10
116.4528401401576
 20
-142.4367838185574
 30
0.0
 10
116.6071804178968
 20
-142.4472913597875
 30
0.0
 10
116.7932155741003
 20
-142.4472913597875
 30
0.0
 10
116.9582356478438
 20
-142.4472913597875
 30
0.0
 10
116.9582356478438
 20
-142.4472913597875
 30
0.0
 10
117.1043076964183
 20
-142.4472913597875
 30
0.0
 10
117.1043076964183
 20
-142.4472913597875
 30
0.0
 10
117.1043076964183
 20
-142.4472913597875
 30
0.0
 10
117.1043076964183
 20
-142.3289523298691
 30
0.0
 10
117.1043076964183
 20
-142.3289523298691
 30
0.0
 10
117.1043076964183
 20
-142.3289523298691
 30
0.0
 10
116.9730495584303
 20
-142.3289523298691
 30
0.0
 10
116.9730495584303
 20
-142.3289523298691
 30
0.0
 10
116.9265407693795
 20
-142.3289523298691
 30
0.0
 10
116.7236246452983
 20
-142.337392813808
 30
0.0
 10
116.6812499708297
 20
-142.337392813808
 30
0.0
 10
116.4783338467485
 20
-142.3415269283903
 30
0.0
 10
116.4018527269759
 20
-142.3435939856815
 30
0.0
 10
116.3236490594607
 20
-142.3458332977468
 30
0.0
 10
116.3236490594607
 20
-142.3458332977468
 30
0.0
 10
116.3236490594607
 20
-142.1616929440603
 30
0.0
 10
116.3236490594607
 20
-142.1616929440603
 30
0.0
 10
116.438026229571
 20
-142.1701334279991
 30
0.0
 10
116.4824679613308
 20
-142.1701334279991
 30
0.0
 10
116.865218069742
 20
-142.1787461667122
 30
0.0
 10
116.8018283128134
 20
-142.0834892765451
 30
0.0
 10
116.7742675489314
 20
-142.0559285126631
 30
0.0
 10
116.7384385558848
 20
-142.0199272648422
 30
0.0
 10
116.7384385558848
 20
-142.0199272648422
 30
0.0
 10
116.913793916084
 20
-141.9374172279705
 30
0.0
 10
116.913793916084
 20
-141.9374172279705
 30
0.0
 10
116.9541015332615
 20
-141.9734184757913
 30
0.0
 10
116.9985432650212
 20
-142.0157931502599
 30
0.0
 10
117.0726128179541
 20
-142.1256916962394
 30
0.0
 10
117.0726128179541
 20
-142.1256916962394
 30
0.0
 10
116.9582356478438
 20
-142.1808132240034
 30
0.0
 10
116.9582356478438
 20
-142.1808132240034
 30
0.0
 10
116.9582356478438
 20
-142.1808132240034
 30
0.0
 10
116.968915443848
 20
-142.1808132240034
 30
0.0
 10
116.968915443848
 20
-142.1808132240034
 30
0.0
 10
116.968915443848
 20
-142.1808132240034
 30
0.0
 10
117.4915364289604
 20
-142.1808132240034
 30
0.0
 10
117.4915364289604
 20
-142.1808132240034
 30
0.0
 10
117.4915364289604
 20
-142.1808132240034
 30
0.0
 10
117.3964517935675
 20
-142.1363714922437
 30
0.0
 10
117.3964517935675
 20
-142.1363714922437
 30
0.0
 10
117.423668047901
 20
-142.0983031871316
 30
0.0
 10
117.4808566329561
 20
-142.0178602075511
 30
0.0
 10
117.4956705435427
 20
-141.9437906546182
 30
0.0
 10
117.4956705435427
 20
-141.9437906546182
 30
0.0
 10
117.7092664636282
 20
-142.0073526663211
 30
0.0
 10
117.7092664636282
 20
-142.0073526663211
 30
0.0
 10
117.7178792023413
 20
-142.0094197236122
 30
0.0
 10
117.7388942848014
 20
-142.0199272648422
 30
0.0
 10
117.7388942848014
 20
-142.0411146020765
 30
0.0
 10
117.7388942848014
 20
-142.0791829071885
 30
0.0
 10
117.6734374705816
 20
-142.0791829071885
 30
0.0
 10
117.6544894454128
 20
-142.0791829071885
 30
0.0
 10
117.6438096494085
 20
-142.0983031871316
 30
0.0
 10
117.6203830001088
 20
-142.1384385495348
 30
0.0
 10
117.5907551789356
 20
-142.1787461667122
 30
0.0
 10
117.9907307647731
 20
-142.1723727400645
 30
0.0
 10
118.0203585859463
 20
-142.1701334279991
 30
0.0
 10
118.0964951961703
 20
-142.1639322561257
 30
0.0
 10
118.0964951961703
 20
-142.1639322561257
 30
0.0
 10
118.0964951961703
 20
-142.3458332977468
 30
0.0
 10
118.0964951961703
 20
-142.3458332977468
 30
0.0
 10
118.0775471710014
 20
-142.3458332977468
 30
0.0
 10
118.0520534644106
 20
-142.3435939856815
 30
0.0
 10
117.8322563724516
 20
-142.3351535017426
 30
0.0
 10
117.7812689592699
 20
-142.3330864444514
 30
0.0
 10
117.561471867311
 20
-142.3289523298691
 30
0.0
 10
117.5170301355513
 20
-142.3289523298691
 30
0.0
 10
117.5170301355513
 20
-142.3289523298691
 30
0.0
 10
117.3010226486261
 20
-142.3289523298691
 30
0.0
 10
117.3010226486261
 20
-142.3289523298691
 30
0.0
 10
117.3010226486261
 20
-142.3289523298691
 30
0.0
 10
117.3010226486261
 20
-142.4472913597875
 30
0.0
 10
117.3010226486261
 20
-142.4472913597875
 30
0.0
 10
117.3010226486261
 20
-142.4472913597875
 30
0.0
 10
117.4746554610827
 20
-142.4472913597875
 30
0.0
 10
117.4746554610827
 20
-142.4472913597875
 30
0.0
 10
117.637608477535
 20
-142.4472913597875
 30
0.0
 10
117.8277777483208
 20
-142.4472913597875
 30
0.0
 10
117.9845295928997
 20
-142.4367838185574
 30
0.0
 10
117.9845295928997
 20
-142.4367838185574
 30
0.0
 10
117.9845295928997
 20
-142.6081773189486
 30
0.0
 10
117.9845295928997
 20
-142.6081773189486
 30
0.0
 10
117.7750677873965
 20
-142.5997368350098
 30
0.0
 10
117.5783528351887
 20
-142.5974975229444
 30
0.0
 10
117.4746554610827
 20
-142.5974975229444
 30
0.0
 10
117.4746554610827
 20
-142.5974975229444
 30
0.0
 10
117.3010226486261
 20
-142.5974975229444
 30
0.0
 10
117.3010226486261
 20
-142.5974975229444
 30
0.0
 10
117.3010226486261
 20
-142.5974975229444
 30
0.0
 10
117.3010226486261
 20
-142.7055012664069
 30
0.0
 10
117.3010226486261
 20
-142.7055012664069
 30
0.0
 10
117.3010226486261
 20
-142.7055012664069
 30
0.0
 10
117.5318440461379
 20
-142.7055012664069
 30
0.0
 10
117.5318440461379
 20
-142.7055012664069
 30
0.0
 10
117.6648247318685
 20
-142.7055012664069
 30
0.0
 10
117.9528347144354
 20
-142.7011948970504
 30
0.0
 10
118.16195201039
 20
-142.6948214704027
 30
0.0
 10
118.16195201039
 20
-142.6948214704027
 30
0.0
 10
118.16195201039
 20
-142.8725883974415
 30
0.0
 10
118.16195201039
 20
-142.8725883974415
 30
0.0
 10
117.9697156823131
 20
-142.8662149707938
 30
0.0
 10
117.6565565027039
 20
-142.8619086014373
 30
0.0
 10
117.5318440461379
 20
-142.8619086014373
 30
0.0
  0
HATCH
  5
10A
330
FE
100
AcDbEntity
  8
レイヤー 1
 62
   250
420
  2299925
440
 33554687
100
AcDbHatch
 10
0.0
 20
0.0
 30
0.0
210
0.0
220
0.0
230
1.0
  2
SOLID
 70
     1
 71
     1
 91
        4
 92
        1
 93
        1
 72
     4
 94
        3
 73
     0
 74
     0
 95
       17
 96
       13
 40
0.0
 40
0.0
 40
0.0
 40
0.0
 40
1.0
 40
1.0
 40
1.0
 40
2.0
 40
2.0
 40
2.0
 40
3.0
 40
3.0
 40
3.0
 40
4.0
 40
4.0
 40
4.0
 40
4.0
 10
117.6968641198813
 20
-143.5939913920529
 10
117.6968641198813
 20
-143.5939913920529
 10
116.9902750358566
 20
-143.5939913920529
 10
116.9902750358566
 20
-143.5939913920529
 10
116.9902750358566
 20
-143.5939913920529
 10
116.9902750358566
 20
-143.7081963073889
 10
116.9902750358566
 20
-143.7081963073889
 10
116.9902750358566
 20
-143.7081963073889
 10
117.6968641198813
 20
-143.7081963073889
 10
117.6968641198813
 20
-143.7081963073889
 10
117.6968641198813
 20
-143.7081963073889
 10
117.6968641198813
 20
-143.5939913920529
 10
117.6968641198813
 20
-143.5939913920529
 97
        0
 97
        1
330
106
 92
        1
 93
        1
 72
     4
 94
        3
 73
     0
 74
     0
 95
       17
 96
       13
 40
0.0
 40
0.0
 40
0.0
 40
0.0
 40
1.0
 40
1.0
 40
1.0
 40
2.0
 40
2.0
 40
2.0
 40
3.0
 40
3.0
 40
3.0
 40
4.0
 40
4.0
 40
4.0
 40
4.0
 10
117.6968641198813
 20
-143.35059539602
 10
117.6968641198813
 20
-143.35059539602
 10
116.9902750358566
 20
-143.35059539602
 10
116.9902750358566
 20
-143.35059539602
 10
116.9902750358566
 20
-143.35059539602
 10
116.9902750358566
 20
-143.4649725661303
 10
116.9902750358566
 20
-143.4649725661303
 10
116.9902750358566
 20
-143.4649725661303
 10
117.6968641198813
 20
-143.4649725661303
 10
117.6968641198813
 20
-143.4649725661303
 10
117.6968641198813
 20
-143.4649725661303
 10
117.6968641198813
 20
-143.35059539602
 10
117.6968641198813
 20
-143.35059539602
 97
        0
 97
        1
330
107
 92
        1
 93
        1
 72
     4
 94
        3
 73
     0
 74
     0
 95
       17
 96
       13
 40
0.0
 40
0.0
 40
0.0
 40
0.0
 40
1.0
 40
1.0
 40
1.0
 40
2.0
 40
2.0
 40
2.0
 40
3.0
 40
3.0
 40
3.0
 40
4.0
 40
4.0
 40
4.0
 40
4.0
 10
117.6968641198813
 20
-143.1178791959913
 10
117.6968641198813
 20
-143.1178791959913
 10
116.9902750358566
 20
-143.1178791959913
 10
116.9902750358566
 20
-143.1178791959913
 10
116.9902750358566
 20
-143.1178791959913
 10
116.9902750358566
 20
-143.2258829394539
 10
116.9902750358566
 20
-143.2258829394539
 10
116.9902750358566
 20
-143.2258829394539
 10
117.6968641198813
 20
-143.2258829394539
 10
117.6968641198813
 20
-143.2258829394539
 10
117.6968641198813
 20
-143.2258829394539
 10
117.6968641198813
 20
-143.1178791959913
 10
117.6968641198813
 20
-143.1178791959913
 97
        0
 97
        1
330
108
 92
        1
 93
        1
 72
     4
 94
        3
 73
     0
 74
     0
 95
      203
 96
      199
 40
0.0
 40
0.0
 40
0.0
 40
0.0
 40
1.0
 40
1.0
 40
1.0
 40
2.0
 40
2.0
 40
2.0
 40
3.0
 40
3.0
 40
3.0
 40
4.0
 40
4.0
 40
4.0
 40
5.0
 40
5.0
 40
5.0
 40
6.0
 40
6.0
 40
6.0
 40
7.0
 40
7.0
 40
7.0
 40
8.0
 40
8.0
 40
8.0
 40
9.0
 40
9.0
 40
9.0
 40
10.0
 40
10.0
 40
10.0
 40
11.0
 40
11.0
 40
11.0
 40
12.0
 40
12.0
 40
12.0
 40
13.0
 40
13.0
 40
13.0
 40
14.0
 40
14.0
 40
14.0
 40
15.0
 40
15.0
 40
15.0
 40
16.0
 40
16.0
 40
16.0
 40
17.0
 40
17.0
 40
17.0
 40
18.0
 40
18.0
 40
18.0
 40
19.0
 40
19.0
 40
19.0
 40
20.0
 40
20.0
 40
20.0
 40
21.0
 40
21.0
 40
21.0
 40
22.0
 40
22.0
 40
22.0
 40
23.0
 40
23.0
 40
23.0
 40
24.0
 40
24.0
 40
24.0
 40
25.0
 40
25.0
 40
25.0
 40
26.0
 40
26.0
 40
26.0
 40
27.0
 40
27.0
 40
27.0
 40
28.0
 40
28.0
 40
28.0
 40
29.0
 40
29.0
 40
29.0
 40
30.0
 40
30.0
 40
30.0
 40
31.0
 40
31.0
 40
31.0
 40
32.0
 40
32.0
 40
32.0
 40
33.0
 40
33.0
 40
33.0
 40
34.0
 40
34.0
 40
34.0
 40
35.0
 40
35.0
 40
35.0
 40
36.0
 40
36.0
 40
36.0
 40
37.0
 40
37.0
 40
37.0
 40
38.0
 40
38.0
 40
38.0
 40
39.0
 40
39.0
 40
39.0
 40
40.0
 40
40.0
 40
40.0
 40
41.0
 40
41.0
 40
41.0
 40
42.0
 40
42.0
 40
42.0
 40
43.0
 40
43.0
 40
43.0
 40
44.0
 40
44.0
 40
44.0
 40
45.0
 40
45.0
 40
45.0
 40
46.0
 40
46.0
 40
46.0
 40
47.0
 40
47.0
 40
47.0
 40
48.0
 40
48.0
 40
48.0
 40
49.0
 40
49.0
 40
49.0
 40
50.0
 40
50.0
 40
50.0
 40
51.0
 40
51.0
 40
51.0
 40
52.0
 40
52.0
 40
52.0
 40
53.0
 40
53.0
 40
53.0
 40
54.0
 40
54.0
 40
54.0
 40
55.0
 40
55.0
 40
55.0
 40
56.0
 40
56.0
 40
56.0
 40
57.0
 40
57.0
 40
57.0
 40
58.0
 40
58.0
 40
58.0
 40
59.0
 40
59.0
 40
59.0
 40
60.0
 40
60.0
 40
60.0
 40
61.0
 40
61.0
 40
61.0
 40
62.0
 40
62.0
 40
62.0
 40
63.0
 40
63.0
 40
63.0
 40
64.0
 40
64.0
 40
64.0
 40
65.0
 40
65.0
 40
65.0
 40
66.0
 40
66.0
 40
66.0
 40
66.0
 10
117.5318440461379
 20
-142.8619086014373
 10
117.5318440461379
 20
-142.8619086014373
 10
116.9730495584303
 20
-142.8619086014373
 10
116.9730495584303
 20
-142.8619086014373
 10
116.9627142719746
 20
-142.906350333197
 10
116.9541015332615
 20
-142.9380452116613
 10
116.941354679966
 20
-142.9762857715476
 10
116.9668483865569
 20
-142.9762857715476
 10
116.9816622971435
 20
-142.9783528288387
 10
116.9878634690169
 20
-142.9783528288387
 10
116.9878634690169
 20
-142.9783528288387
 10
117.1763101920601
 20
-142.9783528288387
 10
117.1763101920601
 20
-142.9783528288387
 10
117.1763101920601
 20
-142.9783528288387
 10
117.5507920713067
 20
-142.9783528288387
 10
117.5507920713067
 20
-142.9783528288387
 10
117.6014349749399
 20
-142.9783528288387
 10
117.884966333376
 20
-142.9656059755433
 10
117.9166612118403
 20
-142.9656059755433
 10
117.9145941545491
 20
-142.9931667394253
 10
117.912527097258
 20
-143.0121147645942
 10
117.912527097258
 20
-143.0417425857673
 10
117.9104600399668
 20
-143.0734374642316
 10
117.9104600399668
 20
-143.208829716802
 10
117.9104600399668
 20
-143.2363904806839
 10
117.9104600399668
 20
-143.2363904806839
 10
117.9104600399668
 20
-143.481853534008
 10
117.9104600399668
 20
-143.481853534008
 10
117.9104600399668
 20
-143.5262952657677
 10
117.9145941545491
 20
-143.7230102179755
 10
117.9187282691314
 20
-143.8752834384235
 10
117.9187282691314
 20
-143.8752834384235
 10
117.6923854957505
 20
-143.8752834384235
 10
117.6923854957505
 20
-143.8752834384235
 10
117.6923854957505
 20
-143.8752834384235
 10
117.6944525530416
 20
-143.8415215026681
 10
117.6944525530416
 20
-143.8415215026681
 10
117.6944525530416
 20
-143.8415215026681
 10
116.9923420931477
 20
-143.8415215026681
 10
116.9923420931477
 20
-143.8415215026681
 10
116.9923420931477
 20
-143.8415215026681
 10
116.9944091504389
 20
-143.8752834384235
 10
116.9944091504389
 20
-143.8752834384235
 10
116.9944091504389
 20
-143.8752834384235
 10
116.7763346062226
 20
-143.8752834384235
 10
116.7763346062226
 20
-143.8752834384235
 10
116.7808132303534
 20
-143.8203341654338
 10
116.7808132303534
 20
-143.8075873121384
 10
116.7870144022268
 20
-143.6933823968023
 10
116.789081459518
 20
-143.6658216329203
 10
116.7911485168091
 20
-143.5326686924154
 10
116.7911485168091
 20
-143.5135484124723
 10
116.7911485168091
 20
-143.5135484124723
 10
116.7911485168091
 20
-143.3104600336168
 10
116.7911485168091
 20
-143.3104600336168
 10
116.6516221496565
 20
-143.5600572015232
 10
116.4824679613308
 20
-143.6913153395112
 10
116.3767035299336
 20
-143.7567721537309
 10
116.3767035299336
 20
-143.7567721537309
 10
116.203070717477
 20
-143.6172457865783
 10
116.203070717477
 20
-143.6172457865783
 10
116.2919541809964
 20
-143.5664306281709
 10
116.4359591722799
 20
-143.4796142219426
 10
116.5734184821413
 20
-143.2851385818002
 10
116.664369002952
 20
-143.1581868131688
 10
116.7298258171717
 20
-143.0143540766596
 10
116.7639322624757
 20
-142.8619086014373
 10
116.5351779222551
 20
-142.8641479135027
 10
116.355343937925
 20
-142.8705213401504
 10
116.2602593025321
 20
-142.8725883974415
 10
116.2602593025321
 20
-142.8725883974415
 10
116.2602593025321
 20
-142.6948214704027
 10
116.2602593025321
 20
-142.6948214704027
 10
116.4569742547399
 20
-142.7011948970504
 10
116.740505613176
 20
-142.7055012664069
 10
116.8907117763329
 20
-142.7055012664069
 10
116.8907117763329
 20
-142.7055012664069
 10
117.1043076964183
 20
-142.7055012664069
 10
117.1043076964183
 20
-142.7055012664069
 10
117.1043076964183
 20
-142.7055012664069
 10
117.1043076964183
 20
-142.5974975229444
 10
117.1043076964183
 20
-142.5974975229444
 10
117.1043076964183
 20
-142.5974975229444
 10
116.9582356478438
 20
-142.5974975229444
 10
116.9582356478438
 20
-142.5974975229444
 10
116.789081459518
 20
-142.5974975229444
 10
116.6199272711922
 20
-142.6018038923009
 10
116.4528401401576
 20
-142.6081773189486
 10
116.4528401401576
 20
-142.6081773189486
 10
116.4528401401576
 20
-142.4367838185574
 10
116.4528401401576
 20
-142.4367838185574
 10
116.6071804178968
 20
-142.4472913597875
 10
116.7932155741003
 20
-142.4472913597875
 10
116.9582356478438
 20
-142.4472913597875
 10
116.9582356478438
 20
-142.4472913597875
 10
117.1043076964183
 20
-142.4472913597875
 10
117.1043076964183
 20
-142.4472913597875
 10
117.1043076964183
 20
-142.4472913597875
 10
117.1043076964183
 20
-142.3289523298691
 10
117.1043076964183
 20
-142.3289523298691
 10
117.1043076964183
 20
-142.3289523298691
 10
116.9730495584303
 20
-142.3289523298691
 10
116.9730495584303
 20
-142.3289523298691
 10
116.9265407693795
 20
-142.3289523298691
 10
116.7236246452983
 20
-142.337392813808
 10
116.6812499708297
 20
-142.337392813808
 10
116.4783338467485
 20
-142.3415269283903
 10
116.4018527269759
 20
-142.3435939856815
 10
116.3236490594607
 20
-142.3458332977468
 10
116.3236490594607
 20
-142.3458332977468
 10
116.3236490594607
 20
-142.1616929440603
 10
116.3236490594607
 20
-142.1616929440603
 10
116.438026229571
 20
-142.1701334279991
 10
116.4824679613308
 20
-142.1701334279991
 10
116.865218069742
 20
-142.1787461667122
 10
116.8018283128134
 20
-142.0834892765451
 10
116.7742675489314
 20
-142.0559285126631
 10
116.7384385558848
 20
-142.0199272648422
 10
116.7384385558848
 20
-142.0199272648422
 10
116.913793916084
 20
-141.9374172279705
 10
116.913793916084
 20
-141.9374172279705
 10
116.9541015332615
 20
-141.9734184757913
 10
116.9985432650212
 20
-142.0157931502599
 10
117.0726128179541
 20
-142.1256916962394
 10
117.0726128179541
 20
-142.1256916962394
 10
116.9582356478438
 20
-142.1808132240034
 10
116.9582356478438
 20
-142.1808132240034
 10
116.9582356478438
 20
-142.1808132240034
 10
116.968915443848
 20
-142.1808132240034
 10
116.968915443848
 20
-142.1808132240034
 10
116.968915443848
 20
-142.1808132240034
 10
117.4915364289604
 20
-142.1808132240034
 10
117.4915364289604
 20
-142.1808132240034
 10
117.4915364289604
 20
-142.1808132240034
 10
117.3964517935675
 20
-142.1363714922437
 10
117.3964517935675
 20
-142.1363714922437
 10
117.423668047901
 20
-142.0983031871316
 10
117.4808566329561
 20
-142.0178602075511
 10
117.4956705435427
 20
-141.9437906546182
 10
117.4956705435427
 20
-141.9437906546182
 10
117.7092664636282
 20
-142.0073526663211
 10
117.7092664636282
 20
-142.0073526663211
 10
117.7178792023413
 20
-142.0094197236122
 10
117.7388942848014
 20
-142.0199272648422
 10
117.7388942848014
 20
-142.0411146020765
 10
117.7388942848014
 20
-142.0791829071885
 10
117.6734374705816
 20
-142.0791829071885
 10
117.6544894454128
 20
-142.0791829071885
 10
117.6438096494085
 20
-142.0983031871316
 10
117.6203830001088
 20
-142.1384385495348
 10
117.5907551789356
 20
-142.1787461667122
 10
117.9907307647731
 20
-142.1723727400645
 10
118.0203585859463
 20
-142.1701334279991
 10
118.0964951961703
 20
-142.1639322561257
 10
118.0964951961703
 20
-142.1639322561257
 10
118.0964951961703
 20
-142.3458332977468
 10
118.0964951961703
 20
-142.3458332977468
 10
118.0775471710014
 20
-142.3458332977468
 10
118.0520534644106
 20
-142.3435939856815
 10
117.8322563724516
 20
-142.3351535017426
 10
117.7812689592699
 20
-142.3330864444514
 10
117.561471867311
 20
-142.3289523298691
 10
117.5170301355513
 20
-142.3289523298691
 10
117.5170301355513
 20
-142.3289523298691
 10
117.3010226486261
 20
-142.3289523298691
 10
117.3010226486261
 20
-142.3289523298691
 10
117.3010226486261
 20
-142.3289523298691
 10
117.3010226486261
 20
-142.4472913597875
 10
117.3010226486261
 20
-142.4472913597875
 10
117.3010226486261
 20
-142.4472913597875
 10
117.4746554610827
 20
-142.4472913597875
 10
117.4746554610827
 20
-142.4472913597875
 10
117.637608477535
 20
-142.4472913597875
 10
117.8277777483208
 20
-142.4472913597875
 10
117.9845295928997
 20
-142.4367838185574
 10
117.9845295928997
 20
-142.4367838185574
 10
117.9845295928997
 20
-142.6081773189486
 10
117.9845295928997
 20
-142.6081773189486
 10
117.7750677873965
 20
-142.5997368350098
 10
117.5783528351887
 20
-142.5974975229444
 10
117.4746554610827
 20
-142.5974975229444
 10
117.4746554610827
 20
-142.5974975229444
 10
117.3010226486261
 20
-142.5974975229444
 10
117.3010226486261
 20
-142.5974975229444
 10
117.3010226486261
 20
-142.5974975229444
 10
117.3010226486261
 20
-142.7055012664069
 10
117.3010226486261
 20
-142.7055012664069
 10
117.3010226486261
 20
-142.7055012664069
 10
117.5318440461379
 20
-142.7055012664069
 10
117.5318440461379
 20
-142.7055012664069
 10
117.6648247318685
 20
-142.7055012664069
 10
117.9528347144354
 20
-142.7011948970504
 10
118.16195201039
 20
-142.6948214704027
 10
118.16195201039
 20
-142.6948214704027
 10
118.16195201039
 20
-142.8725883974415
 10
118.16195201039
 20
-142.8725883974415
 10
117.9697156823131
 20
-142.8662149707938
 10
117.6565565027039
 20
-142.8619086014373
 10
117.5318440461379
 20
-142.8619086014373
 97
        0
 97
        1
330
109
 75
     2
 76
     1
 98
        1
 10
0.0
 20
0.0
450
        0
451
        0
460
0.0
461
0.0
452
        0
462
0.0
453
        0
470

  0
SPLINE
  5
10B
330
FE
100
AcDbEntity
  8
レイヤー 1
100
AcDbSpline
210
0.0
220
0.0
230
1.0
 70
     9
 71
     3
 72
    29
 73
    25
 74
     0
 42
0.0000000001
 43
0.0000000001
 40
0.0
 40
0.0
 40
0.0
 40
0.0
 40
1.0
 40
1.0
 40
1.0
 40
2.0
 40
2.0
 40
2.0
 40
3.0
 40
3.0
 40
3.0
 40
4.0
 40
4.0
 40
4.0
 40
5.0
 40
5.0
 40
5.0
 40
6.0
 40
6.0
 40
6.0
 40
7.0
 40
7.0
 40
7.0
 40
8.0
 40
8.0
 40
8.0
 40
8.0
 10
119.4070095187593
 20
-142.309832049926
 30
0.0
 10
119.4070095187593
 20
-142.309832049926
 30
0.0
 10
119.0535427219727
 20
-142.309832049926
 30
0.0
 10
119.0535427219727
 20
-142.309832049926
 30
0.0
 10
118.9415771187021
 20
-142.309832049926
 30
0.0
 10
118.8020507515495
 20
-142.3162054765737
 30
0.0
 10
118.6942192628611
 20
-142.3289523298691
 30
0.0
 10
118.6942192628611
 20
-142.3289523298691
 30
0.0
 10
118.6942192628611
 20
-142.0939968177751
 30
0.0
 10
118.6942192628611
 20
-142.0939968177751
 30
0.0
 10
118.8123860380052
 20
-142.1088107283617
 30
0.0
 10
118.9966986464661
 20
-142.1131170977182
 30
0.0
 10
119.0535427219727
 20
-142.1131170977182
 30
0.0
 10
119.0535427219727
 20
-142.1131170977182
 30
0.0
 10
119.4070095187593
 20
-142.1131170977182
 30
0.0
 10
119.4070095187593
 20
-142.1131170977182
 30
0.0
 10
119.4259575439282
 20
-142.1131170977182
 30
0.0
 10
119.629218177558
 20
-142.1131170977182
 30
0.0
 10
119.7708116020017
 20
-142.0939968177751
 30
0.0
 10
119.7708116020017
 20
-142.0939968177751
 30
0.0
 10
119.7708116020017
 20
-142.3289523298691
 30
0.0
 10
119.7708116020017
 20
-142.3289523298691
 30
0.0
 10
119.6144042669714
 20
-142.309832049926
 30
0.0
 10
119.4238904866371
 20
-142.309832049926
 30
0.0
 10
119.4070095187593
 20
-142.309832049926
 30
0.0
  0
SPLINE
  5
10C
330
FE
100
AcDbEntity
  8
レイヤー 1
100
AcDbSpline
210
0.0
220
0.0
230
1.0
 70
     9
 71
     3
 72
    47
 73
    43
 74
     0
 42
0.0000000001
 43
0.0000000001
 40
0.0
 40
0.0
 40
0.0
 40
0.0
 40
1.0
 40
1.0
 40
1.0
 40
2.0
 40
2.0
 40
2.0
 40
3.0
 40
3.0
 40
3.0
 40
4.0
 40
4.0
 40
4.0
 40
5.0
 40
5.0
 40
5.0
 40
6.0
 40
6.0
 40
6.0
 40
7.0
 40
7.0
 40
7.0
 40
8.0
 40
8.0
 40
8.0
 40
9.0
 40
9.0
 40
9.0
 40
10.0
 40
10.0
 40
10.0
 40
11.0
 40
11.0
 40
11.0
 40
12.0
 40
12.0
 40
12.0
 40
13.0
 40
13.0
 40
13.0
 40
14.0
 40
14.0
 40
14.0
 40
14.0
 10
119.5086398355742
 20
-142.8386542069119
 30
0.0
 10
119.5086398355742
 20
-142.8386542069119
 30
0.0
 10
119.4070095187593
 20
-142.8386542069119
 30
0.0
 10
119.4070095187593
 20
-142.8386542069119
 30
0.0
 10
119.4070095187593
 20
-142.9254706131401
 30
0.0
 10
119.3859944362993
 20
-143.3147664029734
 30
0.0
 10
119.1892794840915
 20
-143.5347357497066
 30
0.0
 10
119.036661754095
 20
-143.7038899380324
 30
0.0
 10
118.8296115154315
 20
-143.7738253763829
 30
0.0
 10
118.7448621664943
 20
-143.8012138854906
 30
0.0
 10
118.7448621664943
 20
-143.8012138854906
 30
0.0
 10
118.5502142715777
 20
-143.634126754456
 30
0.0
 10
118.5502142715777
 20
-143.634126754456
 30
0.0
 10
118.6477104738103
 20
-143.6213799011606
 30
0.0
 10
118.8230658340095
 20
-143.5981255066352
 30
0.0
 10
119.0115125570527
 20
-143.4098510383663
 30
0.0
 10
119.0855821099855
 20
-143.3380207974988
 30
0.0
 10
119.1892794840915
 20
-143.1983221755719
 30
0.0
 10
119.1892794840915
 20
-142.8386542069119
 30
0.0
 10
119.1892794840915
 20
-142.8386542069119
 30
0.0
 10
118.9584580865798
 20
-142.8386542069119
 30
0.0
 10
118.9584580865798
 20
-142.8386542069119
 30
0.0
 10
118.7724229303763
 20
-142.8386542069119
 30
0.0
 10
118.5860432646243
 20
-142.8429605762684
 30
0.0
 10
118.4000081084208
 20
-142.857774486855
 30
0.0
 10
118.4000081084208
 20
-142.857774486855
 30
0.0
 10
118.4000081084208
 20
-142.6378051401218
 30
0.0
 10
118.4000081084208
 20
-142.6378051401218
 30
0.0
 10
118.588454831464
 20
-142.6526190507084
 30
0.0
 10
118.8740532471912
 20
-142.6567531652906
 30
0.0
 10
118.9584580865798
 20
-142.6567531652906
 30
0.0
 10
118.9584580865798
 20
-142.6567531652906
 30
0.0
 10
119.5086398355742
 20
-142.6567531652906
 30
0.0
 10
119.5086398355742
 20
-142.6567531652906
 30
0.0
 10
119.5275878607431
 20
-142.6567531652906
 30
0.0
 10
119.8448811549346
 20
-142.6567531652906
 30
0.0
 10
120.0732909856067
 20
-142.6378051401218
 30
0.0
 10
120.0732909856067
 20
-142.6378051401218
 30
0.0
 10
120.0732909856067
 20
-142.857774486855
 30
0.0
 10
120.0732909856067
 20
-142.857774486855
 30
0.0
 10
119.885188772112
 20
-142.8429605762684
 30
0.0
 10
119.6967420490689
 20
-142.8386542069119
 30
0.0
 10
119.5086398355742
 20
-142.8386542069119
 30
0.0
  0
HATCH
  5
10D
330
FE
100
AcDbEntity
  8
レイヤー 1
 62
   250
420
  2299925
440
 33554687
100
AcDbHatch
 10
0.0
 20
0.0
 30
0.0
210
0.0
220
0.0
230
1.0
  2
SOLID
 70
     1
 71
     1
 91
        2
 92
        1
 93
        1
 72
     4
 94
        3
 73
     0
 74
     0
 95
       29
 96
       25
 40
0.0
 40
0.0
 40
0.0
 40
0.0
 40
1.0
 40
1.0
 40
1.0
 40
2.0
 40
2.0
 40
2.0
 40
3.0
 40
3.0
 40
3.0
 40
4.0
 40
4.0
 40
4.0
 40
5.0
 40
5.0
 40
5.0
 40
6.0
 40
6.0
 40
6.0
 40
7.0
 40
7.0
 40
7.0
 40
8.0
 40
8.0
 40
8.0
 40
8.0
 10
119.4070095187593
 20
-142.309832049926
 10
119.4070095187593
 20
-142.309832049926
 10
119.0535427219727
 20
-142.309832049926
 10
119.0535427219727
 20
-142.309832049926
 10
118.9415771187021
 20
-142.309832049926
 10
118.8020507515495
 20
-142.3162054765737
 10
118.6942192628611
 20
-142.3289523298691
 10
118.6942192628611
 20
-142.3289523298691
 10
118.6942192628611
 20
-142.0939968177751
 10
118.6942192628611
 20
-142.0939968177751
 10
118.8123860380052
 20
-142.1088107283617
 10
118.9966986464661
 20
-142.1131170977182
 10
119.0535427219727
 20
-142.1131170977182
 10
119.0535427219727
 20
-142.1131170977182
 10
119.4070095187593
 20
-142.1131170977182
 10
119.4070095187593
 20
-142.1131170977182
 10
119.4259575439282
 20
-142.1131170977182
 10
119.629218177558
 20
-142.1131170977182
 10
119.7708116020017
 20
-142.0939968177751
 10
119.7708116020017
 20
-142.0939968177751
 10
119.7708116020017
 20
-142.3289523298691
 10
119.7708116020017
 20
-142.3289523298691
 10
119.6144042669714
 20
-142.309832049926
 10
119.4238904866371
 20
-142.309832049926
 10
119.4070095187593
 20
-142.309832049926
 97
        0
 97
        1
330
10B
 92
        1
 93
        1
 72
     4
 94
        3
 73
     0
 74
     0
 95
       47
 96
       43
 40
0.0
 40
0.0
 40
0.0
 40
0.0
 40
1.0
 40
1.0
 40
1.0
 40
2.0
 40
2.0
 40
2.0
 40
3.0
 40
3.0
 40
3.0
 40
4.0
 40
4.0
 40
4.0
 40
5.0
 40
5.0
 40
5.0
 40
6.0
 40
6.0
 40
6.0
 40
7.0
 40
7.0
 40
7.0
 40
8.0
 40
8.0
 40
8.0
 40
9.0
 40
9.0
 40
9.0
 40
10.0
 40
10.0
 40
10.0
 40
11.0
 40
11.0
 40
11.0
 40
12.0
 40
12.0
 40
12.0
 40
13.0
 40
13.0
 40
13.0
 40
14.0
 40
14.0
 40
14.0
 40
14.0
 10
119.5086398355742
 20
-142.8386542069119
 10
119.5086398355742
 20
-142.8386542069119
 10
119.4070095187593
 20
-142.8386542069119
 10
119.4070095187593
 20
-142.8386542069119
 10
119.4070095187593
 20
-142.9254706131401
 10
119.3859944362993
 20
-143.3147664029734
 10
119.1892794840915
 20
-143.5347357497066
 10
119.036661754095
 20
-143.7038899380324
 10
118.8296115154315
 20
-143.7738253763829
 10
118.7448621664943
 20
-143.8012138854906
 10
118.7448621664943
 20
-143.8012138854906
 10
118.5502142715777
 20
-143.634126754456
 10
118.5502142715777
 20
-143.634126754456
 10
118.6477104738103
 20
-143.6213799011606
 10
118.8230658340095
 20
-143.5981255066352
 10
119.0115125570527
 20
-143.4098510383663
 10
119.0855821099855
 20
-143.3380207974988
 10
119.1892794840915
 20
-143.1983221755719
 10
119.1892794840915
 20
-142.8386542069119
 10
119.1892794840915
 20
-142.8386542069119
 10
118.9584580865798
 20
-142.8386542069119
 10
118.9584580865798
 20
-142.8386542069119
 10
118.7724229303763
 20
-142.8386542069119
 10
118.5860432646243
 20
-142.8429605762684
 10
118.4000081084208
 20
-142.857774486855
 10
118.4000081084208
 20
-142.857774486855
 10
118.4000081084208
 20
-142.6378051401218
 10
118.4000081084208
 20
-142.6378051401218
 10
118.588454831464
 20
-142.6526190507084
 10
118.8740532471912
 20
-142.6567531652906
 10
118.9584580865798
 20
-142.6567531652906
 10
118.9584580865798
 20
-142.6567531652906
 10
119.5086398355742
 20
-142.6567531652906
 10
119.5086398355742
 20
-142.6567531652906
 10
119.5275878607431
 20
-142.6567531652906
 10
119.8448811549346
 20
-142.6567531652906
 10
120.0732909856067
 20
-142.6378051401218
 10
120.0732909856067
 20
-142.6378051401218
 10
120.0732909856067
 20
-142.857774486855
 10
120.0732909856067
 20
-142.857774486855
 10
119.885188772112
 20
-142.8429605762684
 10
119.6967420490689
 20
-142.8386542069119
 10
119.5086398355742
 20
-142.8386542069119
 97
        0
 97
        1
330
10C
 75
     2
 76
     1
 98
        1
 10
0.0
 20
0.0
450
        0
451
        0
460
0.0
461
0.0
452
        0
462
0.0
453
        0
470

  0
SPLINE
  5
10E
330
FE
100
AcDbEntity
  8
レイヤー 1
100
AcDbSpline
210
0.0
220
0.0
230
1.0
 70
     9
 71
     3
 72
    29
 73
    25
 74
     0
 42
0.0000000001
 43
0.0000000001
 40
0.0
 40
0.0
 40
0.0
 40
0.0
 40
1.0
 40
1.0
 40
1.0
 40
2.0
 40
2.0
 40
2.0
 40
3.0
 40
3.0
 40
3.0
 40
4.0
 40
4.0
 40
4.0
 40
5.0
 40
5.0
 40
5.0
 40
6.0
 40
6.0
 40
6.0
 40
7.0
 40
7.0
 40
7.0
 40
8.0
 40
8.0
 40
8.0
 40
8.0
 10
121.3545219965711
 20
-143.0016072233641
 30
0.0
 10
121.3545219965711
 20
-143.0016072233641
 30
0.0
 10
120.8701415713449
 20
-143.0016072233641
 30
0.0
 10
120.8701415713449
 20
-143.0016072233641
 30
0.0
 10
120.8425808074629
 20
-143.0016072233641
 30
0.0
 10
120.5252875132714
 20
-143.0016072233641
 30
0.0
 10
120.3137586504771
 20
-143.0269286751808
 30
0.0
 10
120.3137586504771
 20
-143.0269286751808
 30
0.0
 10
120.3137586504771
 20
-142.7964517872175
 30
0.0
 10
120.3137586504771
 20
-142.7964517872175
 30
0.0
 10
120.4722330427986
 20
-142.819706181743
 30
0.0
 10
120.6627468231329
 20
-142.8217732390341
 30
0.0
 10
120.8701415713449
 20
-142.8217732390341
 30
0.0
 10
120.8701415713449
 20
-142.8217732390341
 30
0.0
 10
121.3545219965711
 20
-142.8217732390341
 30
0.0
 10
121.3545219965711
 20
-142.8217732390341
 30
0.0
 10
121.5405571527746
 20
-142.8217732390341
 30
0.0
 10
121.7269368185266
 20
-142.819706181743
 30
0.0
 10
121.9109049174389
 20
-142.7964517872175
 30
0.0
 10
121.9109049174389
 20
-142.7964517872175
 30
0.0
 10
121.9109049174389
 20
-143.0269286751808
 30
0.0
 10
121.9109049174389
 20
-143.0269286751808
 30
0.0
 10
121.7269368185266
 20
-143.0036742806553
 30
0.0
 10
121.4792344531371
 20
-143.0016072233641
 30
0.0
 10
121.3545219965711
 20
-143.0016072233641
 30
0.0
  0
HATCH
  5
10F
330
FE
100
AcDbEntity
  8
レイヤー 1
 62
   250
420
  2299925
440
 33554687
100
AcDbHatch
 10
0.0
 20
0.0
 30
0.0
210
0.0
220
0.0
230
1.0
  2
SOLID
 70
     1
 71
     1
 91
        1
 92
        1
 93
        1
 72
     4
 94
        3
 73
     0
 74
     0
 95
       29
 96
       25
 40
0.0
 40
0.0
 40
0.0
 40
0.0
 40
1.0
 40
1.0
 40
1.0
 40
2.0
 40
2.0
 40
2.0
 40
3.0
 40
3.0
 40
3.0
 40
4.0
 40
4.0
 40
4.0
 40
5.0
 40
5.0
 40
5.0
 40
6.0
 40
6.0
 40
6.0
 40
7.0
 40
7.0
 40
7.0
 40
8.0
 40
8.0
 40
8.0
 40
8.0
 10
121.3545219965711
 20
-143.0016072233641
 10
121.3545219965711
 20
-143.0016072233641
 10
120.8701415713449
 20
-143.0016072233641
 10
120.8701415713449
 20
-143.0016072233641
 10
120.8425808074629
 20
-143.0016072233641
 10
120.5252875132714
 20
-143.0016072233641
 10
120.3137586504771
 20
-143.0269286751808
 10
120.3137586504771
 20
-143.0269286751808
 10
120.3137586504771
 20
-142.7964517872175
 10
120.3137586504771
 20
-142.7964517872175
 10
120.4722330427986
 20
-142.819706181743
 10
120.6627468231329
 20
-142.8217732390341
 10
120.8701415713449
 20
-142.8217732390341
 10
120.8701415713449
 20
-142.8217732390341
 10
121.3545219965711
 20
-142.8217732390341
 10
121.3545219965711
 20
-142.8217732390341
 10
121.5405571527746
 20
-142.8217732390341
 10
121.7269368185266
 20
-142.819706181743
 10
121.9109049174389
 20
-142.7964517872175
 10
121.9109049174389
 20
-142.7964517872175
 10
121.9109049174389
 20
-143.0269286751808
 10
121.9109049174389
 20
-143.0269286751808
 10
121.7269368185266
 20
-143.0036742806553
 10
121.4792344531371
 20
-143.0016072233641
 10
121.3545219965711
 20
-143.0016072233641
 97
        0
 97
        1
330
10E
 75
     2
 76
     1
 98
        1
 10
0.0
 20
0.0
450
        0
451
        0
460
0.0
461
0.0
452
        0
462
0.0
453
        0
470

  0
SPLINE
  5
110
330
FE
100
AcDbEntity
  8
レイヤー 1
100
AcDbSpline
210
0.0
220
0.0
230
1.0
 70
     9
 71
     3
 72
    17
 73
    13
 74
     0
 42
0.0000000001
 43
0.0000000001
 40
0.0
 40
0.0
 40
0.0
 40
0.0
 40
1.0
 40
1.0
 40
1.0
 40
2.0
 40
2.0
 40
2.0
 40
3.0
 40
3.0
 40
3.0
 40
4.0
 40
4.0
 40
4.0
 40
4.0
 10
123.773323536765
 20
-142.0347411754288
 30
0.0
 10
123.7185465185495
 20
-142.0347411754288
 30
0.0
 10
123.6741047867898
 20
-142.0791829071885
 30
0.0
 10
123.6741047867898
 20
-142.1343044349525
 30
0.0
 10
123.6741047867898
 20
-142.1913207652334
 30
0.0
 10
123.7185465185495
 20
-142.2400688663497
 30
0.0
 10
123.7774576513473
 20
-142.2400688663497
 30
0.0
 10
123.8367132936936
 20
-142.2400688663497
 30
0.0
 10
123.877020910871
 20
-142.1892537079422
 30
0.0
 10
123.877020910871
 20
-142.1363714922437
 30
0.0
 10
123.877020910871
 20
-142.0791829071885
 30
0.0
 10
123.8305121218201
 20
-142.0347411754288
 30
0.0
 10
123.773323536765
 20
-142.0347411754288
 30
0.0
  0
SPLINE
  5
111
330
FE
100
AcDbEntity
  8
レイヤー 1
100
AcDbSpline
210
0.0
220
0.0
230
1.0
 70
     9
 71
     3
 72
    17
 73
    13
 74
     0
 42
0.0000000001
 43
0.0000000001
 40
0.0
 40
0.0
 40
0.0
 40
0.0
 40
1.0
 40
1.0
 40
1.0
 40
2.0
 40
2.0
 40
2.0
 40
3.0
 40
3.0
 40
3.0
 40
4.0
 40
4.0
 40
4.0
 40
4.0
 10
123.7753905940561
 20
-142.3647813229157
 30
0.0
 10
123.6486110801989
 20
-142.3647813229157
 30
0.0
 10
123.5469807633841
 20
-142.2633232608751
 30
0.0
 10
123.5469807633841
 20
-142.1363714922437
 30
0.0
 10
123.5469807633841
 20
-142.0094197236122
 30
0.0
 10
123.6486110801989
 20
-141.9057223495062
 30
0.0
 10
123.7753905940561
 20
-141.9057223495062
 30
0.0
 10
123.9025146174618
 20
-141.9057223495062
 30
0.0
 10
124.0062119915679
 20
-142.0094197236122
 30
0.0
 10
124.0062119915679
 20
-142.1363714922437
 30
0.0
 10
124.0062119915679
 20
-142.2633232608751
 30
0.0
 10
123.9025146174618
 20
-142.3647813229157
 30
0.0
 10
123.7753905940561
 20
-142.3647813229157
 30
0.0
  0
SPLINE
  5
112
330
FE
100
AcDbEntity
  8
レイヤー 1
100
AcDbSpline
210
0.0
220
0.0
230
1.0
 70
     9
 71
     3
 72
    44
 73
    40
 74
     0
 42
0.0000000001
 43
0.0000000001
 40
0.0
 40
0.0
 40
0.0
 40
0.0
 40
1.0
 40
1.0
 40
1.0
 40
2.0
 40
2.0
 40
2.0
 40
3.0
 40
3.0
 40
3.0
 40
4.0
 40
4.0
 40
4.0
 40
5.0
 40
5.0
 40
5.0
 40
6.0
 40
6.0
 40
6.0
 40
7.0
 40
7.0
 40
7.0
 40
8.0
 40
8.0
 40
8.0
 40
9.0
 40
9.0
 40
9.0
 40
10.0
 40
10.0
 40
10.0
 40
11.0
 40
11.0
 40
11.0
 40
12.0
 40
12.0
 40
12.0
 40
13.0
 40
13.0
 40
13.0
 40
13.0
 10
123.5659287885529
 20
-142.5637355871889
 30
0.0
 10
123.4539631852823
 20
-142.9318440397878
 30
0.0
 10
123.4033202816491
 20
-143.0904906868836
 30
0.0
 10
123.2066053294414
 20
-143.3400878547899
 30
0.0
 10
123.0222927209805
 20
-143.5707369975274
 30
0.0
 10
122.7856146611439
 20
-143.7567721537309
 30
0.0
 10
122.5062174172901
 20
-143.8499619866069
 30
0.0
 10
122.5062174172901
 20
-143.8499619866069
 30
0.0
 10
122.3136365796646
 20
-143.6701280022769
 30
0.0
 10
122.3136365796646
 20
-143.6701280022769
 30
0.0
 10
122.9547688494696
 20
-143.5178547818289
 30
0.0
 10
123.2848089969566
 20
-142.961471860961
 30
0.0
 10
123.3481987538851
 20
-142.5213609127203
 30
0.0
 10
123.3481987538851
 20
-142.5213609127203
 30
0.0
 10
122.5823540275141
 20
-142.5213609127203
 30
0.0
 10
122.5823540275141
 20
-142.5213609127203
 30
0.0
 10
122.4893364494124
 20
-142.5213609127203
 30
0.0
 10
122.3053683505
 20
-142.5256672820769
 30
0.0
 10
122.1486165059212
 20
-142.5446153072458
 30
0.0
 10
122.1486165059212
 20
-142.5446153072458
 30
0.0
 10
122.1486165059212
 20
-142.3246459605126
 30
0.0
 10
122.1486165059212
 20
-142.3246459605126
 30
0.0
 10
122.2354329121495
 20
-142.3458332977468
 30
0.0
 10
122.4872693921212
 20
-142.3458332977468
 30
0.0
 10
122.5864881420964
 20
-142.3458332977468
 30
0.0
 10
122.5864881420964
 20
-142.3458332977468
 30
0.0
 10
123.0181586063982
 20
-142.3458332977468
 30
0.0
 10
123.0181586063982
 20
-142.3458332977468
 30
0.0
 10
123.0605332808668
 20
-142.3458332977468
 30
0.0
 10
123.2951442834123
 20
-142.3435939856815
 30
0.0
 10
123.3333848432986
 20
-142.337392813808
 30
0.0
 10
123.3757595177672
 20
-142.3310193871603
 30
0.0
 10
123.3778265750583
 20
-142.3289523298691
 30
0.0
 10
123.4391492746958
 20
-142.2886447126917
 30
0.0
 10
123.4391492746958
 20
-142.2886447126917
 30
0.0
 10
123.6272514881904
 20
-142.4431572452052
 30
0.0
 10
123.6272514881904
 20
-142.4431572452052
 30
0.0
 10
123.5979681765658
 20
-142.4727850663783
 30
0.0
 10
123.5831542659792
 20
-142.5044799448426
 30
0.0
 10
123.5659287885529
 20
-142.5637355871889
 30
0.0
  0
HATCH
  5
113
330
FE
100
AcDbEntity
  8
レイヤー 1
 62
   250
420
  2299925
440
 33554687
100
AcDbHatch
 10
0.0
 20
0.0
 30
0.0
210
0.0
220
0.0
230
1.0
  2
SOLID
 70
     1
 71
     1
 91
        3
 92
        1
 93
        1
 72
     4
 94
        3
 73
     0
 74
     0
 95
       17
 96
       13
 40
0.0
 40
0.0
 40
0.0
 40
0.0
 40
1.0
 40
1.0
 40
1.0
 40
2.0
 40
2.0
 40
2.0
 40
3.0
 40
3.0
 40
3.0
 40
4.0
 40
4.0
 40
4.0
 40
4.0
 10
123.773323536765
 20
-142.0347411754288
 10
123.7185465185495
 20
-142.0347411754288
 10
123.6741047867898
 20
-142.0791829071885
 10
123.6741047867898
 20
-142.1343044349525
 10
123.6741047867898
 20
-142.1913207652334
 10
123.7185465185495
 20
-142.2400688663497
 10
123.7774576513473
 20
-142.2400688663497
 10
123.8367132936936
 20
-142.2400688663497
 10
123.877020910871
 20
-142.1892537079422
 10
123.877020910871
 20
-142.1363714922437
 10
123.877020910871
 20
-142.0791829071885
 10
123.8305121218201
 20
-142.0347411754288
 10
123.773323536765
 20
-142.0347411754288
 97
        0
 97
        1
330
110
 92
        1
 93
        1
 72
     4
 94
        3
 73
     0
 74
     0
 95
       17
 96
       13
 40
0.0
 40
0.0
 40
0.0
 40
0.0
 40
1.0
 40
1.0
 40
1.0
 40
2.0
 40
2.0
 40
2.0
 40
3.0
 40
3.0
 40
3.0
 40
4.0
 40
4.0
 40
4.0
 40
4.0
 10
123.7753905940561
 20
-142.3647813229157
 10
123.6486110801989
 20
-142.3647813229157
 10
123.5469807633841
 20
-142.2633232608751
 10
123.5469807633841
 20
-142.1363714922437
 10
123.5469807633841
 20
-142.0094197236122
 10
123.6486110801989
 20
-141.9057223495062
 10
123.7753905940561
 20
-141.9057223495062
 10
123.9025146174618
 20
-141.9057223495062
 10
124.0062119915679
 20
-142.0094197236122
 10
124.0062119915679
 20
-142.1363714922437
 10
124.0062119915679
 20
-142.2633232608751
 10
123.9025146174618
 20
-142.3647813229157
 10
123.7753905940561
 20
-142.3647813229157
 97
        0
 97
        1
330
111
 92
        1
 93
        1
 72
     4
 94
        3
 73
     0
 74
     0
 95
       44
 96
       40
 40
0.0
 40
0.0
 40
0.0
 40
0.0
 40
1.0
 40
1.0
 40
1.0
 40
2.0
 40
2.0
 40
2.0
 40
3.0
 40
3.0
 40
3.0
 40
4.0
 40
4.0
 40
4.0
 40
5.0
 40
5.0
 40
5.0
 40
6.0
 40
6.0
 40
6.0
 40
7.0
 40
7.0
 40
7.0
 40
8.0
 40
8.0
 40
8.0
 40
9.0
 40
9.0
 40
9.0
 40
10.0
 40
10.0
 40
10.0
 40
11.0
 40
11.0
 40
11.0
 40
12.0
 40
12.0
 40
12.0
 40
13.0
 40
13.0
 40
13.0
 40
13.0
 10
123.5659287885529
 20
-142.5637355871889
 10
123.4539631852823
 20
-142.9318440397878
 10
123.4033202816491
 20
-143.0904906868836
 10
123.2066053294414
 20
-143.3400878547899
 10
123.0222927209805
 20
-143.5707369975274
 10
122.7856146611439
 20
-143.7567721537309
 10
122.5062174172901
 20
-143.8499619866069
 10
122.5062174172901
 20
-143.8499619866069
 10
122.3136365796646
 20
-143.6701280022769
 10
122.3136365796646
 20
-143.6701280022769
 10
122.9547688494696
 20
-143.5178547818289
 10
123.2848089969566
 20
-142.961471860961
 10
123.3481987538851
 20
-142.5213609127203
 10
123.3481987538851
 20
-142.5213609127203
 10
122.5823540275141
 20
-142.5213609127203
 10
122.5823540275141
 20
-142.5213609127203
 10
122.4893364494124
 20
-142.5213609127203
 10
122.3053683505
 20
-142.5256672820769
 10
122.1486165059212
 20
-142.5446153072458
 10
122.1486165059212
 20
-142.5446153072458
 10
122.1486165059212
 20
-142.3246459605126
 10
122.1486165059212
 20
-142.3246459605126
 10
122.2354329121495
 20
-142.3458332977468
 10
122.4872693921212
 20
-142.3458332977468
 10
122.5864881420964
 20
-142.3458332977468
 10
122.5864881420964
 20
-142.3458332977468
 10
123.0181586063982
 20
-142.3458332977468
 10
123.0181586063982
 20
-142.3458332977468
 10
123.0605332808668
 20
-142.3458332977468
 10
123.2951442834123
 20
-142.3435939856815
 10
123.3333848432986
 20
-142.337392813808
 10
123.3757595177672
 20
-142.3310193871603
 10
123.3778265750583
 20
-142.3289523298691
 10
123.4391492746958
 20
-142.2886447126917
 10
123.4391492746958
 20
-142.2886447126917
 10
123.6272514881904
 20
-142.4431572452052
 10
123.6272514881904
 20
-142.4431572452052
 10
123.5979681765658
 20
-142.4727850663783
 10
123.5831542659792
 20
-142.5044799448426
 10
123.5659287885529
 20
-142.5637355871889
 97
        0
 97
        1
330
112
 75
     2
 76
     1
 98
        1
 10
0.0
 20
0.0
450
        0
451
        0
460
0.0
461
0.0
452
        0
462
0.0
453
        0
470

  0
ENDBLK
  5
101
330
FE
100
AcDbEntity
  8
0
100
AcDbBlockEnd
  0
ENDSEC
  0
SECTION
  2
ENTITIES
  0
INSERT
  5
7A
330
70
100
AcDbEntity
  8
レイヤー 1
100
AcDbBlockReference
  2
Block_0
 10
0.0
 20
0.0
 30
0.0
  0
LINE
  5
8B
330
70
100
AcDbEntity
  8
レイヤー 1
 62
   250
420
  2299925
370
     9
100
AcDbLine
 10
130.2910132048226
 20
-144.4882233322686
 30
0.0
 11
130.2910132048226
 21
-161.5199106755319
 31
0.0
  0
SPLINE
  5
8C
330
70
100
AcDbEntity
  8
レイヤー 1
 62
   250
420
  2299925
370
     9
100
AcDbSpline
210
0.0
220
0.0
230
1.0
 70
     9
 71
     3
 72
    17
 73
    13
 74
     0
 42
0.0000000001
 43
0.0000000001
 40
0.0
 40
0.0
 40
0.0
 40
0.0
 40
1.0
 40
1.0
 40
1.0
 40
2.0
 40
2.0
 40
2.0
 40
3.0
 40
3.0
 40
3.0
 40
4.0
 40
4.0
 40
4.0
 40
4.0
 10
130.3909198689405
 20
-146.7559493855252
 30
0.0
 10
130.3909198689405
 20
-146.7004927202737
 30
0.0
 10
130.3461523700826
 20
-146.6557252214155
 30
0.0
 10
130.2910132048226
 20
-146.6557252214155
 30
0.0
 10
130.2359133566746
 20
-146.6557252214155
 30
0.0
 10
130.1911105789079
 20
-146.7004927202737
 30
0.0
 10
130.1911105789079
 20
-146.7559493855252
 30
0.0
 10
130.1911105789079
 20
-146.8110822914654
 30
0.0
 10
130.2359133566746
 20
-146.8558560496431
 30
0.0
 10
130.2910132048226
 20
-146.8558560496431
 30
0.0
 10
130.3461523700826
 20
-146.8558560496431
 30
0.0
 10
130.3909198689405
 20
-146.8110822914654
 30
0.0
 10
130.3909198689405
 20
-146.7559493855252
 30
0.0
  0
SPLINE
  5
8D
330
70
100
AcDbEntity
  8
レイヤー 1
 62
   250
420
  2299925
370
     9
100
AcDbSpline
210
0.0
220
0.0
230
1.0
 70
     9
 71
     3
 72
    17
 73
    13
 74
     0
 42
0.0000000001
 43
0.0000000001
 40
0.0
 40
0.0
 40
0.0
 40
0.0
 40
1.0
 40
1.0
 40
1.0
 40
2.0
 40
2.0
 40
2.0
 40
3.0
 40
3.0
 40
3.0
 40
4.0
 40
4.0
 40
4.0
 40
4.0
 10
130.3854165357476
 20
-147.7812211801117
 30
0.0
 10
130.3854165357476
 20
-147.7257707496719
 30
0.0
 10
130.3406490368897
 20
-147.6809679730375
 30
0.0
 10
130.2855098716297
 20
-147.6809679730375
 30
0.0
 10
130.2304059841466
 20
-147.6809679730375
 30
0.0
 10
130.1856032075119
 20
-147.7257707496719
 30
0.0
 10
130.1856032075119
 20
-147.7812211801117
 30
0.0
 10
130.1856032075119
 20
-147.8363313024068
 30
0.0
 10
130.2304059841466
 20
-147.8811340790416
 30
0.0
 10
130.2855098716297
 20
-147.8811340790416
 30
0.0
 10
130.3406490368897
 20
-147.8811340790416
 30
0.0
 10
130.3854165357476
 20
-147.8363313024068
 30
0.0
 10
130.3854165357476
 20
-147.7812211801117
 30
0.0
  0
CIRCLE
  5
8E
330
70
100
AcDbEntity
  8
レイヤー 1
 62
   250
420
  2299925
370
     9
100
AcDbCircle
 10
130.2724218164081
 20
-157.5721863318022
 30
0.0
 40
0.0999066641178353
  0
SPLINE
  5
8F
330
70
100
AcDbEntity
  8
レイヤー 1
 62
   250
420
  2299925
370
     9
100
AcDbSpline
210
0.0
220
0.0
230
1.0
 70
     9
 71
     3
 72
    17
 73
    13
 74
     0
 42
0.0000000001
 43
0.0000000001
 40
0.0
 40
0.0
 40
0.0
 40
0.0
 40
1.0
 40
1.0
 40
1.0
 40
2.0
 40
2.0
 40
2.0
 40
3.0
 40
3.0
 40
3.0
 40
4.0
 40
4.0
 40
4.0
 40
4.0
 10
130.3723284805259
 20
-160.5866370882305
 30
0.0
 10
130.3723284805259
 20
-160.5311804229787
 30
0.0
 10
130.3275257038911
 20
-160.4863776463439
 30
0.0
 10
130.2724218164081
 20
-160.4863776463439
 30
0.0
 10
130.2172826511481
 20
-160.4863776463439
 30
0.0
 10
130.1725151522902
 20
-160.5311804229787
 30
0.0
 10
130.1725151522902
 20
-160.5866370882305
 30
0.0
 10
130.1725151522902
 20
-160.6417762534905
 30
0.0
 10
130.2172826511481
 20
-160.6865378435515
 30
0.0
 10
130.2724218164081
 20
-160.6865378435515
 30
0.0
 10
130.3275257038911
 20
-160.6865378435515
 30
0.0
 10
130.3723284805259
 20
-160.6417762534905
 30
0.0
 10
130.3723284805259
 20
-160.5866370882305
 30
0.0
  0
LINE
  5
90
330
70
100
AcDbEntity
  8
レイヤー 1
 62
   250
420
  2299925
370
     9
100
AcDbLine
 10
97.59705126113734
 20
-157.5754671650519
 30
0.0
 11
131.2914909570761
 21
-157.5721863318022
 31
0.0
  0
LINE
  5
91
330
70
100
AcDbEntity
  8
レイヤー 1
 62
   250
420
  2299925
370
     9
100
AcDbLine
 10
97.59705126113734
 20
-160.5811337550376
 30
0.0
 11
131.2928667903743
 21
-160.5811337550376
 31
0.0
  0
INSERT
  5
93
330
70
100
AcDbEntity
  8
レイヤー 1
100
AcDbBlockReference
  2
Block_2
 10
0.0
 20
0.0
 30
0.0
  0
INSERT
  5
99
330
70
100
AcDbEntity
  8
レイヤー 1
100
AcDbBlockReference
  2
Block_3
 10
0.0
 20
0.0
 30
0.0
  0
INSERT
  5
AA
330
70
100
AcDbEntity
  8
レイヤー 1
100
AcDbBlockReference
  2
Block_5
 10
0.0
 20
0.0
 30
0.0
  0
LINE
  5
AF
330
70
100
AcDbEntity
  8
レイヤー 1
 62
   250
420
  2299925
370
     9
100
AcDbLine
 10
127.7257896591558
 20
-146.749952163456
 30
0.0
 11
131.1853754042278
 21
-146.749952163456
 31
0.0
  0
LINE
  5
B0
330
70
100
AcDbEntity
  8
レイヤー 1
 62
   250
420
  2299925
370
     9
100
AcDbLine
 10
127.7257896591558
 20
-147.7720904707124
 30
0.0
 11
131.1853754042278
 21
-147.7720904707124
 31
0.0
  0
LINE
  5
B1
330
70
100
AcDbEntity
  8
レイヤー 1
 62
   250
420
  2299925
370
     9
100
AcDbLine
 10
85.10444963540571
 20
-136.095810071922
 30
0.0
 11
125.1040863927077
 21
-136.095810071922
 31
0.0
  0
INSERT
  5
B3
330
70
100
AcDbEntity
  8
レイヤー 1
100
AcDbBlockReference
  2
Block_6
 10
0.0
 20
0.0
 30
0.0
  0
SPLINE
  5
C0
330
70
100
AcDbEntity
  8
レイヤー 1
 62
   250
420
  2299925
370
     9
100
AcDbSpline
210
0.0
220
0.0
230
1.0
 70
     9
 71
     3
 72
    17
 73
    13
 74
     0
 42
0.0000000001
 43
0.0000000001
 40
0.0
 40
0.0
 40
0.0
 40
0.0
 40
1.0
 40
1.0
 40
1.0
 40
2.0
 40
2.0
 40
2.0
 40
3.0
 40
3.0
 40
3.0
 40
4.0
 40
4.0
 40
4.0
 40
4.0
 10
85.20989491049336
 20
-136.0975452129993
 30
0.0
 10
85.20989491049336
 20
-136.0420532699706
 30
0.0
 10
85.16509213385859
 20
-135.9972857711127
 30
0.0
 10
85.10999114573349
 20
-135.9972857711127
 30
0.0
 10
85.05484908111558
 20
-135.9972857711127
 30
0.0
 10
85.01008158225801
 20
-136.0420532699706
 30
0.0
 10
85.01008158225801
 20
-136.0975452129993
 30
0.0
 10
85.01008158225801
 20
-136.1526491004824
 30
0.0
 10
85.05484908111558
 20
-136.1974518771172
 30
0.0
 10
85.10999114573349
 20
-136.1974518771172
 30
0.0
 10
85.16509213385859
 20
-136.1974518771172
 30
0.0
 10
85.20989491049336
 20
-136.1526491004824
 30
0.0
 10
85.20989491049336
 20
-136.0975452129993
 30
0.0
  0
SPLINE
  5
C1
330
70
100
AcDbEntity
  8
レイヤー 1
 62
   250
420
  2299925
370
     9
100
AcDbSpline
210
0.0
220
0.0
230
1.0
 70
     9
 71
     3
 72
    17
 73
    13
 74
     0
 42
0.0000000001
 43
0.0000000001
 40
0.0
 40
0.0
 40
0.0
 40
0.0
 40
1.0
 40
1.0
 40
1.0
 40
2.0
 40
2.0
 40
2.0
 40
3.0
 40
3.0
 40
3.0
 40
4.0
 40
4.0
 40
4.0
 40
4.0
 10
125.2846027769912
 20
-136.1013199351256
 30
0.0
 10
125.2846027769912
 20
-136.0458632698734
 30
0.0
 10
125.2398352781334
 20
-136.0010604932387
 30
0.0
 10
125.1846961128734
 20
-136.0010604932387
 30
0.0
 10
125.1295922253903
 20
-136.0010604932387
 30
0.0
 10
125.0847894487556
 20
-136.0458632698734
 30
0.0
 10
125.0847894487556
 20
-136.1013199351256
 30
0.0
 10
125.0847894487556
 20
-136.1564238226083
 30
0.0
 10
125.1295922253903
 20
-136.2012265992431
 30
0.0
 10
125.1846961128734
 20
-136.2012265992431
 30
0.0
 10
125.2398352781334
 20
-136.2012265992431
 30
0.0
 10
125.2846027769912
 20
-136.1564238226083
 30
0.0
 10
125.2846027769912
 20
-136.1013199351256
 30
0.0
  0
LINE
  5
C2
330
70
100
AcDbEntity
  8
レイヤー 1
 62
   250
420
  2299925
370
     9
100
AcDbLine
 10
85.10444963540571
 20
-135.1354849597657
 30
0.0
 11
85.10444963540571
 21
-137.0928018542749
 31
0.0
  0
LINE
  5
C3
330
70
100
AcDbEntity
  8
レイヤー 1
 62
   250
420
  2299925
370
     9
100
AcDbLine
 10
125.1888236127681
 20
-135.1354849597657
 30
0.0
 11
125.1888236127681
 21
-144.2875633373879
 31
0.0
  0
LINE
  5
C4
330
70
100
AcDbEntity
  8
レイヤー 1
 62
   250
420
  2299925
370
     9
100
AcDbLine
 10
84.53118576114199
 20
-133.3268286170195
 30
0.0
 11
88.80861620757121
 21
-133.3268286170195
 31
0.0
  0
INSERT
  5
C6
330
70
100
AcDbEntity
  8
レイヤー 1
100
AcDbBlockReference
  2
Block_8
 10
0.0
 20
0.0
 30
0.0
  0
SPLINE
  5
CB
330
70
100
AcDbEntity
  8
レイヤー 1
 62
   250
420
  2299925
370
     9
100
AcDbSpline
210
0.0
220
0.0
230
1.0
 70
     9
 71
     3
 72
    17
 73
    13
 74
     0
 42
0.0000000001
 43
0.0000000001
 40
0.0
 40
0.0
 40
0.0
 40
0.0
 40
1.0
 40
1.0
 40
1.0
 40
2.0
 40
2.0
 40
2.0
 40
3.0
 40
3.0
 40
3.0
 40
4.0
 40
4.0
 40
4.0
 40
4.0
 10
85.30426296364138
 20
-133.3231950060011
 30
0.0
 10
85.30426296364138
 20
-133.2677383407493
 30
0.0
 10
85.25949546478349
 20
-133.2229355641145
 30
0.0
 10
85.20435629952356
 20
-133.2229355641145
 30
0.0
 10
85.14925241204046
 20
-133.2229355641145
 30
0.0
 10
85.10444963540571
 20
-133.2677383407493
 30
0.0
 10
85.10444963540571
 20
-133.3231950060011
 30
0.0
 10
85.10444963540571
 20
-133.3782988934842
 30
0.0
 10
85.14925241204046
 20
-133.4231016701193
 30
0.0
 10
85.20435629952356
 20
-133.4231016701193
 30
0.0
 10
85.25949546478349
 20
-133.4231016701193
 30
0.0
 10
85.30426296364138
 20
-133.3782988934842
 30
0.0
 10
85.30426296364138
 20
-133.3231950060011
 30
0.0
  0
SPLINE
  5
CC
330
70
100
AcDbEntity
  8
レイヤー 1
 62
   250
420
  2299925
370
     9
100
AcDbSpline
210
0.0
220
0.0
230
1.0
 70
     9
 71
     3
 72
    17
 73
    13
 74
     0
 42
0.0000000001
 43
0.0000000001
 40
0.0
 40
0.0
 40
0.0
 40
0.0
 40
1.0
 40
1.0
 40
1.0
 40
2.0
 40
2.0
 40
2.0
 40
3.0
 40
3.0
 40
3.0
 40
4.0
 40
4.0
 40
4.0
 40
4.0
 10
88.31391892271041
 20
-133.328698339194
 30
0.0
 10
88.31391892271041
 20
-133.2732350726276
 30
0.0
 10
88.26911614494465
 20
-133.2284322948609
 30
0.0
 10
88.21400927829646
 20
-133.2284322948609
 30
0.0
 10
88.15887011303651
 20
-133.2284322948609
 30
0.0
 10
88.11410261417861
 20
-133.2732350726276
 30
0.0
 10
88.11410261417861
 20
-133.328698339194
 30
0.0
 10
88.11410261417861
 20
-133.383837504454
 30
0.0
 10
88.15887011303651
 20
-133.4286050033119
 30
0.0
 10
88.21400927829646
 20
-133.4286050033119
 30
0.0
 10
88.26911614494465
 20
-133.4286050033119
 30
0.0
 10
88.31391892271041
 20
-133.383837504454
 30
0.0
 10
88.31391892271041
 20
-133.328698339194
 30
0.0
  0
LINE
  5
CD
330
70
100
AcDbEntity
  8
レイヤー 1
 62
   250
420
  2299925
370
     9
100
AcDbLine
 10
85.20435629952356
 20
-132.3522094752175
 30
0.0
 11
85.20435629952356
 21
-134.3362316468231
 31
0.0
  0
LINE
  5
CE
330
70
100
AcDbEntity
  8
レイヤー 1
 62
   250
420
  2299925
370
     9
100
AcDbLine
 10
88.21400927829646
 20
-132.3633925304877
 30
0.0
 11
88.21400927829646
 21
-134.3362316468231
 31
0.0
  0
INSERT
  5
D0
330
70
100
AcDbEntity
  8
レイヤー 1
100
AcDbBlockReference
  2
Block_9
 10
0.0
 20
0.0
 30
0.0
  0
LINE
  5
DB
330
70
100
AcDbEntity
  8
レイヤー 1
 62
   250
420
  2299925
370
     9
100
AcDbLine
 10
81.6476508347071
 20
-139.5972417903813
 30
0.0
 11
81.6476508347071
 21
-160.5971498657401
 31
0.0
  0
SPLINE
  5
DC
330
70
100
AcDbEntity
  8
レイヤー 1
 62
   250
420
  2299925
370
     9
100
AcDbSpline
210
0.0
220
0.0
230
1.0
 70
     9
 71
     3
 72
    17
 73
    13
 74
     0
 42
0.0000000001
 43
0.0000000001
 40
0.0
 40
0.0
 40
0.0
 40
0.0
 40
1.0
 40
1.0
 40
1.0
 40
2.0
 40
2.0
 40
2.0
 40
3.0
 40
3.0
 40
3.0
 40
4.0
 40
4.0
 40
4.0
 40
4.0
 10
81.74067833233378
 20
-139.603097901343
 30
0.0
 10
81.74067833233378
 20
-139.5476059583143
 30
0.0
 10
81.69587555569902
 20
-139.5028384594564
 30
0.0
 10
81.64077447993451
 20
-139.5028384594564
 30
0.0
 10
81.58563250295598
 20
-139.5028384594564
 30
0.0
 10
81.5408650040981
 20
-139.5476059583143
 30
0.0
 10
81.5408650040981
 20
-139.603097901343
 30
0.0
 10
81.5408650040981
 20
-139.6582017888261
 30
0.0
 10
81.58563250295598
 20
-139.7030045654608
 30
0.0
 10
81.64077447993451
 20
-139.7030045654608
 30
0.0
 10
81.69587555569902
 20
-139.7030045654608
 30
0.0
 10
81.74067833233378
 20
-139.6582017888261
 30
0.0
 10
81.74067833233378
 20
-139.603097901343
 30
0.0
  0
SPLINE
  5
DD
330
70
100
AcDbEntity
  8
レイヤー 1
 62
   250
420
  2299925
370
     9
100
AcDbSpline
210
0.0
220
0.0
230
1.0
 70
     9
 71
     3
 72
    17
 73
    13
 74
     0
 42
0.0000000001
 43
0.0000000001
 40
0.0
 40
0.0
 40
0.0
 40
0.0
 40
1.0
 40
1.0
 40
1.0
 40
2.0
 40
2.0
 40
2.0
 40
3.0
 40
3.0
 40
3.0
 40
4.0
 40
4.0
 40
4.0
 40
4.0
 10
81.74963888766074
 20
-160.6068100657941
 30
0.0
 10
81.74963888766074
 20
-160.5513240335759
 30
0.0
 10
81.70483611102596
 20
-160.506556534718
 30
0.0
 10
81.64973222354289
 20
-160.506556534718
 30
0.0
 10
81.59459305828294
 20
-160.506556534718
 30
0.0
 10
81.54982555942506
 20
-160.5513240335759
 30
0.0
 10
81.54982555942506
 20
-160.6068100657941
 30
0.0
 10
81.54982555942506
 20
-160.6619198640877
 30
0.0
 10
81.59459305828294
 20
-160.7067226407225
 30
0.0
 10
81.64973222354289
 20
-160.7067226407225
 30
0.0
 10
81.70483611102596
 20
-160.7067226407225
 30
0.0
 10
81.74963888766074
 20
-160.6619198640877
 30
0.0
 10
81.74963888766074
 20
-160.6068100657941
 30
0.0
  0
LINE
  5
DE
330
70
100
AcDbEntity
  8
レイヤー 1
 62
   250
420
  2299925
370
     9
100
AcDbLine
 10
80.6299575273373
 20
-139.5970654014969
 30
0.0
 11
82.61228636565276
 21
-139.5970654014969
 31
0.0
  0
LINE
  5
DF
330
70
100
AcDbEntity
  8
レイヤー 1
 62
   250
420
  2299925
370
     9
100
AcDbLine
 10
80.6299575273373
 20
-160.6055812544139
 30
0.0
 11
82.61228636565276
 21
-160.6055812544139
 31
0.0
  0
LINE
  5
E0
330
70
100
AcDbEntity
  8
レイヤー 1
 62
   250
420
  2299925
370
     9
100
AcDbLine
 10
85.20643768835933
 20
-165.7942366775958
 30
0.0
 11
95.20687604433801
 21
-165.7942366775958
 31
0.0
  0
INSERT
  5
E2
330
70
100
AcDbEntity
  8
レイヤー 1
100
AcDbBlockReference
  2
Block_11
 10
0.0
 20
0.0
 30
0.0
  0
SPLINE
  5
EE
330
70
100
AcDbEntity
  8
レイヤー 1
 62
   250
420
  2299925
370
     9
100
AcDbSpline
210
0.0
220
0.0
230
1.0
 70
     9
 71
     3
 72
    17
 73
    13
 74
     0
 42
0.0000000001
 43
0.0000000001
 40
0.0
 40
0.0
 40
0.0
 40
0.0
 40
1.0
 40
1.0
 40
1.0
 40
2.0
 40
2.0
 40
2.0
 40
3.0
 40
3.0
 40
3.0
 40
4.0
 40
4.0
 40
4.0
 40
4.0
 10
85.21194392348602
 20
-165.7997752885656
 30
0.0
 10
85.21194392348602
 20
-165.7439600645098
 30
0.0
 10
85.16717352269438
 20
-165.6991572867431
 30
0.0
 10
85.11203435743443
 20
-165.6991572867431
 30
0.0
 10
85.05693046995135
 20
-165.6991572867431
 30
0.0
 10
85.0121276933166
 20
-165.7439600645098
 30
0.0
 10
85.0121276933166
 20
-165.7997752885656
 30
0.0
 10
85.0121276933166
 20
-165.8548791760487
 30
0.0
 10
85.05693046995135
 20
-165.8996819526835
 30
0.0
 10
85.11203435743443
 20
-165.8996819526835
 30
0.0
 10
85.16717352269438
 20
-165.8996819526835
 30
0.0
 10
85.21194392348602
 20
-165.8548791760487
 30
0.0
 10
85.21194392348602
 20
-165.7997752885656
 30
0.0
  0
SPLINE
  5
EF
330
70
100
AcDbEntity
  8
レイヤー 1
 62
   250
420
  2299925
370
     9
100
AcDbSpline
210
0.0
220
0.0
230
1.0
 70
     9
 71
     3
 72
    17
 73
    13
 74
     0
 42
0.0000000001
 43
0.0000000001
 40
0.0
 40
0.0
 40
0.0
 40
0.0
 40
1.0
 40
1.0
 40
1.0
 40
2.0
 40
2.0
 40
2.0
 40
3.0
 40
3.0
 40
3.0
 40
4.0
 40
4.0
 40
4.0
 40
4.0
 10
95.19516382241459
 20
-165.7942366775958
 30
0.0
 10
95.19516382241459
 20
-165.7384272345752
 30
0.0
 10
95.15036104577983
 20
-165.6936597357173
 30
0.0
 10
95.09522188051986
 20
-165.6936597357173
 30
0.0
 10
95.04011799303681
 20
-165.6936597357173
 30
0.0
 10
94.99531521640205
 20
-165.7384272345752
 30
0.0
 10
94.99531521640205
 20
-165.7942366775958
 30
0.0
 10
94.99531521640205
 20
-165.8493758428558
 30
0.0
 10
95.04011799303681
 20
-165.8941433417137
 30
0.0
 10
95.09522188051986
 20
-165.8941433417137
 30
0.0
 10
95.15036104577983
 20
-165.8941433417137
 30
0.0
 10
95.19516382241459
 20
-165.8493758428558
 30
0.0
 10
95.19516382241459
 20
-165.7942366775958
 30
0.0
  0
LINE
  5
F0
330
70
100
AcDbEntity
  8
レイヤー 1
 62
   250
420
  2299925
370
     9
100
AcDbLine
 10
85.1065310242415
 20
-163.1633906207103
 30
0.0
 11
85.1065310242415
 21
-166.6913505435974
 31
0.0
  0
LINE
  5
F1
330
70
100
AcDbEntity
  8
レイヤー 1
 62
   250
420
  2299925
370
     9
100
AcDbLine
 10
95.0986791026539
 20
-163.1633906207103
 30
0.0
 11
95.0986791026539
 21
-166.6913505435974
 31
0.0
  0
INSERT
  5
F3
330
70
100
AcDbEntity
  8
レイヤー 1
100
AcDbBlockReference
  2
Block_13
 10
0.0
 20
0.0
 30
0.0
  0
ENDSEC
  0
SECTION
  2
OBJECTS
  0
DICTIONARY
  5
C
330
0
100
AcDbDictionary
281
     1
  3
ACAD_COLOR
350
63
  3
ACAD_DETAILVIEWSTYLE
350
6A
  3
ACAD_GROUP
350
D
  3
ACAD_LAYOUT
350
62
  3
ACAD_MATERIAL
350
10
  3
ACAD_MLEADERSTYLE
350
66
  3
ACAD_MLINESTYLE
350
5F
  3
ACAD_PLOTSETTINGS
350
61
  3
ACAD_PLOTSTYLENAME
350
E
  3
ACAD_SCALELIST
350
42
  3
ACAD_SECTIONVIEWSTYLE
350
68
  3
ACAD_TABLESTYLE
350
64
  3
ACAD_VISUALSTYLE
350
29
  3
ACDB_RECOMPOSE_DATA
350
11C
  3
AcDbVariableDictionary
350
114
  0
DICTIONARY
  5
63
102
{ACAD_REACTORS
330
C
102
}
330
C
100
AcDbDictionary
281
     1
  0
DICTIONARY
  5
6A
102
{ACAD_REACTORS
330
C
102
}
330
C
100
AcDbDictionary
281
     1
  3
Imperial24
350
6B
  0
DICTIONARY
  5
D
102
{ACAD_REACTORS
330
C
102
}
330
C
100
AcDbDictionary
281
     1
  0
DICTIONARY
  5
62
102
{ACAD_REACTORS
330
C
102
}
330
C
100
AcDbDictionary
281
     1
  3
Layout1
350
6F
  3
Layout2
350
77
  3
Model
350
73
  0
DICTIONARY
  5
10
102
{ACAD_REACTORS
330
C
102
}
330
C
100
AcDbDictionary
281
     1
  3
ByBlock
350
19
  3
ByLayer
350
11
  3
Global
350
21
  0
DICTIONARY
  5
66
102
{ACAD_REACTORS
330
C
102
}
330
C
100
AcDbDictionary
281
     1
  3
Standard
350
67
  0
DICTIONARY
  5
5F
102
{ACAD_REACTORS
330
C
102
}
330
C
100
AcDbDictionary
281
     1
  3
Standard
350
60
  0
DICTIONARY
  5
61
102
{ACAD_REACTORS
330
C
102
}
330
C
100
AcDbDictionary
281
     1
  0
ACDBDICTIONARYWDFLT
  5
E
102
{ACAD_REACTORS
330
C
102
}
330
C
100
AcDbDictionary
281
     1
  3
Normal
350
F
100
AcDbDictionaryWithDefault
340
F
  0
DICTIONARY
  5
42
102
{ACAD_REACTORS
330
C
102
}
330
C
100
AcDbDictionary
281
     1
  3
A0
350
43
  3
A1
350
44
  3
A2
350
45
  3
A3
350
46
  3
A4
350
47
  3
A5
350
48
  3
A6
350
49
  3
A7
350
4A
  3
A8
350
4B
  3
A9
350
4C
  3
B0
350
4D
  3
B1
350
4E
  3
B2
350
4F
  3
B3
350
50
  3
B4
350
51
  3
B5
350
52
  3
B6
350
53
  0
DICTIONARY
  5
68
102
{ACAD_REACTORS
330
C
102
}
330
C
100
AcDbDictionary
281
     1
  3
Imperial24
350
69
  0
DICTIONARY
  5
64
102
{ACAD_REACTORS
330
C
102
}
330
C
100
AcDbDictionary
281
     1
  3
Standard
350
65
  0
DICTIONARY
  5
29
102
{ACAD_REACTORS
330
C
102
}
330
C
100
AcDbDictionary
281
     1
  3
2dWireframe
350
2F
  3
Basic
350
2E
  3
Brighten
350
35
  3
ColorChange
350
39
  3
Conceptual
350
32
  3
Dim
350
34
  3
EdgeColorOff
350
41
  3
Facepattern
350
38
  3
Flat
350
2A
  3
FlatWithEdges
350
2B
  3
Gouraud
350
2C
  3
GouraudWithEdges
350
2D
  3
Hidden
350
31
  3
JitterOff
350
3F
  3
Linepattern
350
37
  3
OverhangOff
350
40
  3
Realistic
350
33
  3
Shaded
350
3E
  3
Shaded with edges
350
3D
  3
Shades of Gray
350
3A
  3
Sketchy
350
3B
  3
Thicken
350
36
  3
Wireframe
350
30
  3
X-Ray
350
3C
  0
XRECORD
  5
11C
102
{ACAD_REACTORS
330
C
102
}
330
C
100
AcDbXrecord
280
     1
 90
        1
330
65
  0
DICTIONARY
  5
114
102
{ACAD_REACTORS
330
C
102
}
330
C
100
AcDbDictionary
281
     1
  3
CANNOSCALE
350
119
  3
CMLEADERSTYLE
350
116
  3
CTABLESTYLE
350
115
  3
CVIEWDETAILSTYLE
350
117
  3
CVIEWSECTIONSTYLE
350
118
  0
ACDBDETAILVIEWSTYLE
  5
6B
102
{ACAD_XDICTIONARY
360
151
102
}
102
{ACAD_REACTORS
330
6A
102
}
330
6A
100
AcDbModelDocViewStyle
 70
     0
  3
Imperial24
290
     0
100
AcDbDetailViewStyle
 70
     0
 71
     0
 90
        3
 71
     1
340
55
 62
   256
 40
0.24
340
0
 62
   256
 40
0.24
300

 40
0.36
280
     3
 71
     2
340
5D
 90
       25
 62
   256
 71
     3
340
55
 62
   256
 40
0.24
 90
        1
 40
0.75
 90
        1
300
%<\AcVar ViewType \f "%tc1">% %<\AcVar ViewDetailId>%\PSCALE %<\AcVar ViewScale \f "%sn">%
 71
     4
340
5D
 90
       25
 62
   256
340
5D
 90
       25
 62
   256
280
     0
  0
LAYOUT
  5
6F
102
{ACAD_REACTORS
330
62
102
}
330
62
100
AcDbPlotSettings
  1

  2

  4

  6

 40
0.0
 41
0.0
 42
0.0
 43
0.0
 44
0.0
 45
0.0
 46
0.0
 47
0.0
 48
0.0
 49
0.0
140
0.0
141
0.0
142
1.0
143
1.0
 70
   688
 72
     0
 73
     0
 74
     5
  7

 75
    16
147
1.0
 76
     0
 77
     2
 78
   300
148
0.0
149
0.0
100
AcDbLayout
  1
Layout1
 70
     1
 71
     1
 10
0.0
 20
0.0
 11
12.0
 21
9.0
 12
0.0
 22
0.0
 32
0.0
 14
0.0
 24
0.0
 34
0.0
 15
0.0
 25
0.0
 35
0.0
146
0.0
 13
0.0
 23
0.0
 33
0.0
 16
1.0
 26
0.0
 36
0.0
 17
0.0
 27
1.0
 37
0.0
 76
     0
330
6C
  0
LAYOUT
  5
77
102
{ACAD_REACTORS
330
62
102
}
330
62
100
AcDbPlotSettings
  1

  2

  4

  6

 40
0.0
 41
0.0
 42
0.0
 43
0.0
 44
0.0
 45
0.0
 46
0.0
 47
0.0
 48
0.0
 49
0.0
140
0.0
141
0.0
142
1.0
143
1.0
 70
   688
 72
     0
 73
     0
 74
     5
  7

 75
    16
147
1.0
 76
     0
 77
     2
 78
   300
148
0.0
149
0.0
100
AcDbLayout
  1
Layout2
 70
     1
 71
     2
 10
0.0
 20
0.0
 11
12.0
 21
9.0
 12
0.0
 22
0.0
 32
0.0
 14
0.0
 24
0.0
 34
0.0
 15
0.0
 25
0.0
 35
0.0
146
0.0
 13
0.0
 23
0.0
 33
0.0
 16
1.0
 26
0.0
 36
0.0
 17
0.0
 27
1.0
 37
0.0
 76
     0
330
74
  0
LAYOUT
  5
73
102
{ACAD_REACTORS
330
62
102
}
330
62
100
AcDbPlotSettings
  1

  2

  4

  6

 40
0.0
 41
0.0
 42
0.0
 43
0.0
 44
0.0
 45
0.0
 46
0.0
 47
0.0
 48
0.0
 49
0.0
140
0.0
141
0.0
142
1.0
143
1.0
 70
  1712
 72
     0
 73
     0
 74
     0
  7

 75
     0
147
1.0
 76
     0
 77
     2
 78
   300
148
0.0
149
0.0
100
AcDbLayout
  1
Model
 70
     1
 71
     0
 10
0.0
 20
0.0
 11
12.0
 21
9.0
 12
0.0
 22
0.0
 32
0.0
 14
0.0
 24
0.0
 34
0.0
 15
0.0
 25
0.0
 35
0.0
146
0.0
 13
0.0
 23
0.0
 33
0.0
 16
1.0
 26
0.0
 36
0.0
 17
0.0
 27
1.0
 37
0.0
 76
     0
330
70
  0
MATERIAL
  5
19
102
{ACAD_XDICTIONARY
360
1A
102
}
102
{ACAD_REACTORS
330
10
102
}
330
10
100
AcDbMaterial
  1
ByBlock
 72
     0
 43
0.0208333333333333
 43
0.0
 43
0.0
 43
0.0
 43
0.0
 43
0.0208333333333333
 43
0.0
 43
0.0
 43
0.0
 43
0.0
 43
1.0
 43
0.0
 43
0.0
 43
0.0
 43
0.0
 43
1.0
 77
     0
 47
0.0208333333333333
 47
0.0
 47
0.0
 47
0.0
 47
0.0
 47
0.0208333333333333
 47
0.0
 47
0.0
 47
0.0
 47
0.0
 47
1.0
 47
0.0
 47
0.0
 47
0.0
 47
0.0
 47
1.0
171
     0
 49
0.0208333333333333
 49
0.0
 49
0.0
 49
0.0
 49
0.0
 49
0.0208333333333333
 49
0.0
 49
0.0
 49
0.0
 49
0.0
 49
1.0
 49
0.0
 49
0.0
 49
0.0
 49
0.0
 49
1.0
175
     0
142
0.0208333333333333
142
0.0
142
0.0
142
0.0
142
0.0
142
0.0208333333333333
142
0.0
142
0.0
142
0.0
142
0.0
142
1.0
142
0.0
142
0.0
142
0.0
142
0.0
142
1.0
179
     0
144
0.0208333333333333
144
0.0
144
0.0
144
0.0
144
0.0
144
0.0208333333333333
144
0.0
144
0.0
144
0.0
144
0.0
144
1.0
144
0.0
144
0.0
144
0.0
144
0.0
144
1.0
147
0.0208333333333333
147
0.0
147
0.0
147
0.0
147
0.0
147
0.0208333333333333
147
0.0
147
0.0
147
0.0
147
0.0
147
1.0
147
0.0
147
0.0
147
0.0
147
0.0
147
1.0
  0
MATERIAL
  5
11
102
{ACAD_XDICTIONARY
360
12
102
}
102
{ACAD_REACTORS
330
10
102
}
330
10
100
AcDbMaterial
  1
ByLayer
 72
     0
 43
0.0208333333333333
 43
0.0
 43
0.0
 43
0.0
 43
0.0
 43
0.0208333333333333
 43
0.0
 43
0.0
 43
0.0
 43
0.0
 43
1.0
 43
0.0
 43
0.0
 43
0.0
 43
0.0
 43
1.0
 77
     0
 47
0.0208333333333333
 47
0.0
 47
0.0
 47
0.0
 47
0.0
 47
0.0208333333333333
 47
0.0
 47
0.0
 47
0.0
 47
0.0
 47
1.0
 47
0.0
 47
0.0
 47
0.0
 47
0.0
 47
1.0
171
     0
 49
0.0208333333333333
 49
0.0
 49
0.0
 49
0.0
 49
0.0
 49
0.0208333333333333
 49
0.0
 49
0.0
 49
0.0
 49
0.0
 49
1.0
 49
0.0
 49
0.0
 49
0.0
 49
0.0
 49
1.0
175
     0
142
0.0208333333333333
142
0.0
142
0.0
142
0.0
142
0.0
142
0.0208333333333333
142
0.0
142
0.0
142
0.0
142
0.0
142
1.0
142
0.0
142
0.0
142
0.0
142
0.0
142
1.0
179
     0
144
0.0208333333333333
144
0.0
144
0.0
144
0.0
144
0.0
144
0.0208333333333333
144
0.0
144
0.0
144
0.0
144
0.0
144
1.0
144
0.0
144
0.0
144
0.0
144
0.0
144
1.0
147
0.0208333333333333
147
0.0
147
0.0
147
0.0
147
0.0
147
0.0208333333333333
147
0.0
147
0.0
147
0.0
147
0.0
147
1.0
147
0.0
147
0.0
147
0.0
147
0.0
147
1.0
  0
MATERIAL
  5
21
102
{ACAD_XDICTIONARY
360
22
102
}
102
{ACAD_REACTORS
330
10
102
}
330
10
100
AcDbMaterial
  1
Global
 72
     0
 43
0.0208333333333333
 43
0.0
 43
0.0
 43
0.0
 43
0.0
 43
0.0208333333333333
 43
0.0
 43
0.0
 43
0.0
 43
0.0
 43
1.0
 43
0.0
 43
0.0
 43
0.0
 43
0.0
 43
1.0
 77
     0
 47
0.0208333333333333
 47
0.0
 47
0.0
 47
0.0
 47
0.0
 47
0.0208333333333333
 47
0.0
 47
0.0
 47
0.0
 47
0.0
 47
1.0
 47
0.0
 47
0.0
 47
0.0
 47
0.0
 47
1.0
171
     0
 49
0.0208333333333333
 49
0.0
 49
0.0
 49
0.0
 49
0.0
 49
0.0208333333333333
 49
0.0
 49
0.0
 49
0.0
 49
0.0
 49
1.0
 49
0.0
 49
0.0
 49
0.0
 49
0.0
 49
1.0
175
     0
142
0.0208333333333333
142
0.0
142
0.0
142
0.0
142
0.0
142
0.0208333333333333
142
0.0
142
0.0
142
0.0
142
0.0
142
1.0
142
0.0
142
0.0
142
0.0
142
0.0
142
1.0
179
     0
144
0.0208333333333333
144
0.0
144
0.0
144
0.0
144
0.0
144
0.0208333333333333
144
0.0
144
0.0
144
0.0
144
0.0
144
1.0
144
0.0
144
0.0
144
0.0
144
0.0
144
1.0
147
0.0208333333333333
147
0.0
147
0.0
147
0.0
147
0.0
147
0.0208333333333333
147
0.0
147
0.0
147
0.0
147
0.0
147
1.0
147
0.0
147
0.0
147
0.0
147
0.0
147
1.0
  0
MLEADERSTYLE
  5
67
102
{ACAD_XDICTIONARY
360
14D
102
}
102
{ACAD_REACTORS
330
66
102
}
330
66
100
AcDbMLeaderStyle
179
     2
170
     2
171
     1
172
     0
 90
        2
 40
0.0
 41
0.0
173
     1
 91
-1056964608
340
5B
 92
       -2
290
     1
 42
0.09
291
     1
 43
0.36
  3
Standard
 44
0.18
300

342
55
174
     1
178
     6
175
     1
176
     0
 93
-1056964608
 45
0.18
292
     0
297
     0
 46
0.18
 94
-1056964608
 47
1.0
 49
1.0
140
1.0
293
     1
141
0.0
294
     1
177
     0
142
1.0
295
     0
296
     0
143
0.125
271
     0
272
     9
273
     9
  0
MLINESTYLE
  5
60
102
{ACAD_REACTORS
330
5F
102
}
330
5F
100
AcDbMlineStyle
  2
STANDARD
 70
     0
  3

 62
   256
 51
90.0
 52
90.0
 71
     2
 49
0.5
 62
   256
  6
BYLAYER
 49
-0.5
 62
   256
  6
BYLAYER
  0
ACDBPLACEHOLDER
  5
F
102
{ACAD_REACTORS
330
E
102
}
330
E
  0
SCALE
  5
43
102
{ACAD_REACTORS
330
42
102
}
330
42
100
AcDbScale
 70
     0
300
1:1
140
1.0
141
1.0
290
     1
  0
SCALE
  5
44
102
{ACAD_REACTORS
330
42
102
}
330
42
100
AcDbScale
 70
     0
300
1/128" = 1'-0"
140
0.0078125
141
12.0
290
     0
  0
SCALE
  5
45
102
{ACAD_REACTORS
330
42
102
}
330
42
100
AcDbScale
 70
     0
300
1/64" = 1'-0"
140
0.015625
141
12.0
290
     0
  0
SCALE
  5
46
102
{ACAD_REACTORS
330
42
102
}
330
42
100
AcDbScale
 70
     0
300
1/32" = 1'-0"
140
0.03125
141
12.0
290
     0
  0
SCALE
  5
47
102
{ACAD_REACTORS
330
42
102
}
330
42
100
AcDbScale
 70
     0
300
1/16" = 1'-0"
140
0.0625
141
12.0
290
     0
  0
SCALE
  5
48
102
{ACAD_REACTORS
330
42
102
}
330
42
100
AcDbScale
 70
     0
300
3/32" = 1'-0"
140
0.09375
141
12.0
290
     0
  0
SCALE
  5
49
102
{ACAD_REACTORS
330
42
102
}
330
42
100
AcDbScale
 70
     0
300
1/8" = 1'-0"
140
0.125
141
12.0
290
     0
  0
SCALE
  5
4A
102
{ACAD_REACTORS
330
42
102
}
330
42
100
AcDbScale
 70
     0
300
3/16" = 1'-0"
140
0.1875
141
12.0
290
     0
  0
SCALE
  5
4B
102
{ACAD_REACTORS
330
42
102
}
330
42
100
AcDbScale
 70
     0
300
1/4" = 1'-0"
140
0.25
141
12.0
290
     0
  0
SCALE
  5
4C
102
{ACAD_REACTORS
330
42
102
}
330
42
100
AcDbScale
 70
     0
300
3/8" = 1'-0"
140
0.375
141
12.0
290
     0
  0
SCALE
  5
4D
102
{ACAD_REACTORS
330
42
102
}
330
42
100
AcDbScale
 70
     0
300
1/2" = 1'-0"
140
0.5
141
12.0
290
     0
  0
SCALE
  5
4E
102
{ACAD_REACTORS
330
42
102
}
330
42
100
AcDbScale
 70
     0
300
3/4" = 1'-0"
140
0.75
141
12.0
290
     0
  0
SCALE
  5
4F
102
{ACAD_REACTORS
330
42
102
}
330
42
100
AcDbScale
 70
     0
300
1" = 1'-0"
140
1.0
141
12.0
290
     0
  0
SCALE
  5
50
102
{ACAD_REACTORS
330
42
102
}
330
42
100
AcDbScale
 70
     0
300
1-1/2" = 1'-0"
140
1.5
141
12.0
290
     0
  0
SCALE
  5
51
102
{ACAD_REACTORS
330
42
102
}
330
42
100
AcDbScale
 70
     0
300
3" = 1'-0"
140
3.0
141
12.0
290
     0
  0
SCALE
  5
52
102
{ACAD_REACTORS
330
42
102
}
330
42
100
AcDbScale
 70
     0
300
6" = 1'-0"
140
6.0
141
12.0
290
     0
  0
SCALE
  5
53
102
{ACAD_REACTORS
330
42
102
}
330
42
100
AcDbScale
 70
     0
300
1'-0" = 1'-0"
140
12.0
141
12.0
290
     0
  0
ACDBSECTIONVIEWSTYLE
  5
69
102
{ACAD_XDICTIONARY
360
14F
102
}
102
{ACAD_REACTORS
330
68
102
}
330
68
100
AcDbModelDocViewStyle
 70
     0
  3
Imperial24
290
     0
100
AcDbSectionViewStyle
 70
     0
 71
     0
 90
       78
 71
     1
340
55
 62
   256
 40
0.24
340
0
340
0
 62
   256
 40
0.24
300
I, O, Q, S, X, Z
 40
0.48
 90
        3
 40
0.18
 90
        1
 71
     2
340
5D
 90
       25
 62
   256
340
5D
 90
       50
 62
   256
 40
0.24
 40
0.0
 40
0.24
 71
     3
340
55
 62
   256
 40
0.24
 90
        1
 40
0.75
 90
        1
300
%<\AcVar ViewType \f "%tc1">% %<\AcVar ViewSectionStartId>%-%<\AcVar ViewSectionEndId>%\PSCALE %<\AcVar ViewScale \f "%sn">%
 71
     4
 62
   256
 62
   257
300
ANSI31
 40
1.0
 90
        0
290
     0
290
     0
 90
        6
 40
0.0
 40
1.570796326794896
 40
0.2617993877991494
 40
1.308996938995747
 40
-0.2617993877991494
 40
1.832595714594046
  0
TABLESTYLE
  5
65
102
{ACAD_XDICTIONARY
360
11A
102
}
102
{ACAD_REACTORS
330
64
102
}
330
64
100
AcDbTableStyle
280
     0
  3
Standard
 70
     0
 71
     0
 40
0.06
 41
0.06
280
     0
281
     0
  7
Standard
140
0.18
170
     2
 62
     0
 63
     7
283
     0
 90
      512
 91
        0
  1

274
    -2
284
     1
 64
     0
275
    -2
285
     1
 65
     0
276
    -2
286
     1
 66
     0
277
    -2
287
     1
 67
     0
278
    -2
288
     1
 68
     0
279
    -2
289
     1
 69
     0
  7
Standard
140
0.25
170
     5
 62
     0
 63
     7
283
     0
 90
      512
 91
        0
  1

274
    -2
284
     1
 64
     0
275
    -2
285
     1
 65
     0
276
    -2
286
     1
 66
     0
277
    -2
287
     1
 67
     0
278
    -2
288
     1
 68
     0
279
    -2
289
     1
 69
     0
  7
Standard
140
0.18
170
     5
 62
     0
 63
     7
283
     0
 90
      512
 91
        0
  1

274
    -2
284
     1
 64
     0
275
    -2
285
     1
 65
     0
276
    -2
286
     1
 66
     0
277
    -2
287
     1
 67
     0
278
    -2
288
     1
 68
     0
279
    -2
289
     1
 69
     0
  0
VISUALSTYLE
  5
2F
102
{ACAD_XDICTIONARY
360
127
102
}
102
{ACAD_REACTORS
330
29
102
}
330
29
100
AcDbVisualStyle
  2
2dWireframe
 70
     4
177
     2
291
     0
 71
     0
176
     1
 72
     2
176
     1
 73
     0
176
     1
 90
        0
176
     1
 40
0.6
176
     1
 41
30.0
176
     1
 63
     7
421
 16777215
176
     1
 74
     1
176
     1
 91
        4
176
     1
 64
     7
176
     1
 65
   257
176
     1
 75
     1
176
     1
175
     1
176
     1
 42
1.0
176
     1
 92
        0
176
     1
 66
   257
176
     1
 43
1.0
176
     1
 76
     1
176
     1
 77
     6
176
     1
 78
     2
176
     1
 67
     7
176
     1
 79
     5
176
     1
170
     0
176
     1
171
     0
176
     1
290
     0
176
     1
 93
        1
176
     1
 44
0.0
176
     1
173
     0
176
     1
1001
ACAD
1000
AcDbSavedByObjectVersion
1070
     0
  0
VISUALSTYLE
  5
2E
102
{ACAD_XDICTIONARY
360
125
102
}
102
{ACAD_REACTORS
330
29
102
}
330
29
100
AcDbVisualStyle
  2
Basic
 70
     7
177
     2
291
     1
 71
     1
176
     1
 72
     0
176
     1
 73
     1
176
     1
 90
        0
176
     1
 40
0.6
176
     1
 41
30.0
176
     1
 63
     7
421
 16777215
176
     1
 74
     0
176
     1
 91
        4
176
     1
 64
     7
176
     1
 65
   257
176
     1
 75
     1
176
     1
175
     1
176
     1
 42
1.0
176
     1
 92
        8
176
     1
 66
     7
176
     1
 43
1.0
176
     1
 76
     1
176
     1
 77
     6
176
     1
 78
     2
176
     1
 67
     7
176
     1
 79
     5
176
     1
170
     0
176
     1
171
     0
176
     1
290
     0
176
     1
 93
        1
176
     1
 44
0.0
176
     1
173
     0
176
     1
1001
ACAD
1000
AcDbSavedByObjectVersion
1070
     0
  0
VISUALSTYLE
  5
35
102
{ACAD_XDICTIONARY
360
133
102
}
102
{ACAD_REACTORS
330
29
102
}
330
29
100
AcDbVisualStyle
  2
Brighten
 70
    12
177
     2
291
     1
 71
     2
176
     1
 72
     2
176
     1
 73
     0
176
     1
 90
        0
176
     1
 40
0.6
176
     1
 41
30.0
176
     1
 63
     7
421
 16777215
176
     1
 74
     1
176
     1
 91
        4
176
     1
 64
     7
176
     1
 65
   257
176
     1
 75
     1
176
     1
175
     1
176
     1
 42
1.0
176
     1
 92
        8
176
     1
 66
     7
176
     1
 43
1.0
176
     1
 76
     1
176
     1
 77
     6
176
     1
 78
     2
176
     1
 67
     7
176
     1
 79
     5
176
     1
170
     0
176
     1
171
     0
176
     1
290
     0
176
     1
 93
        1
176
     1
 44
50.0
176
     1
173
     0
176
     1
1001
ACAD
1000
AcDbSavedByObjectVersion
1070
     0
  0
VISUALSTYLE
  5
39
102
{ACAD_XDICTIONARY
360
13B
102
}
102
{ACAD_REACTORS
330
29
102
}
330
29
100
AcDbVisualStyle
  2
ColorChange
 70
    16
177
     2
291
     1
 71
     2
176
     1
 72
     2
176
     1
 73
     3
176
     1
 90
        0
176
     1
 40
0.6
176
     1
 41
30.0
176
     1
 63
     8
421
  8421504
176
     1
 74
     1
176
     1
 91
        4
176
     1
 64
     7
176
     1
 65
   257
176
     1
 75
     1
176
     1
175
     1
176
     1
 42
1.0
176
     1
 92
        8
176
     1
 66
     8
424
  8421504
176
     1
 43
1.0
176
     1
 76
     1
176
     1
 77
     6
176
     1
 78
     2
176
     1
 67
     7
176
     1
 79
     5
176
     1
170
     0
176
     1
171
     0
176
     1
290
     0
176
     1
 93
        1
176
     1
 44
0.0
176
     1
173
     0
176
     1
1001
ACAD
1000
AcDbSavedByObjectVersion
1070
     0
  0
VISUALSTYLE
  5
32
102
{ACAD_XDICTIONARY
360
12D
102
}
102
{ACAD_REACTORS
330
29
102
}
330
29
100
AcDbVisualStyle
  2
Conceptual
 70
     9
177
     2
291
     0
 71
     3
176
     1
 72
     2
176
     1
 73
     0
176
     1
 90
        0
176
     1
 40
0.6
176
     1
 41
30.0
176
     1
 63
     7
421
 16777215
176
     1
 74
     2
176
     1
 91
        2
176
     1
 64
     7
176
     1
 65
   257
176
     1
 75
     1
176
     1
175
     1
176
     1
 42
179.0
176
     1
 92
        8
176
     1
 66
     7
176
     1
 43
1.0
176
     1
 76
     1
176
     1
 77
     6
176
     1
 78
     2
176
     1
 67
     7
176
     1
 79
     3
176
     1
170
     0
176
     1
171
     0
176
     1
290
     0
176
     1
 93
        1
176
     1
 44
0.0
176
     1
173
     0
176
     1
1001
ACAD
1000
AcDbSavedByObjectVersion
1070
     0
  0
VISUALSTYLE
  5
34
102
{ACAD_XDICTIONARY
360
131
102
}
102
{ACAD_REACTORS
330
29
102
}
330
29
100
AcDbVisualStyle
  2
Dim
 70
    11
177
     2
291
     1
 71
     2
176
     1
 72
     2
176
     1
 73
     0
176
     1
 90
        0
176
     1
 40
0.6
176
     1
 41
30.0
176
     1
 63
     7
421
 16777215
176
     1
 74
     1
176
     1
 91
        4
176
     1
 64
     7
176
     1
 65
   257
176
     1
 75
     1
176
     1
175
     1
176
     1
 42
1.0
176
     1
 92
        8
176
     1
 66
     7
176
     1
 43
1.0
176
     1
 76
     1
176
     1
 77
     6
176
     1
 78
     2
176
     1
 67
     7
176
     1
 79
     5
176
     1
170
     0
176
     1
171
     0
176
     1
290
     0
176
     1
 93
        1
176
     1
 44
-50.0
176
     1
173
     0
176
     1
1001
ACAD
1000
AcDbSavedByObjectVersion
1070
     0
  0
VISUALSTYLE
  5
41
102
{ACAD_XDICTIONARY
360
14B
102
}
102
{ACAD_REACTORS
330
29
102
}
330
29
100
AcDbVisualStyle
  2
EdgeColorOff
 70
    22
177
     2
291
     1
 71
     2
176
     0
 72
     2
176
     0
 73
     0
176
     0
 90
        0
176
     0
 40
0.6
176
     0
 41
30.0
176
     0
 63
     7
421
 16777215
176
     0
 74
     1
176
     0
 91
        4
176
     0
 64
     7
176
     0
 65
   257
176
     0
 75
     1
176
     0
175
     1
176
     0
 42
1.0
176
     0
 92
        8
176
     2
 66
     7
176
     0
 43
1.0
176
     0
 76
     1
176
     0
 77
     6
176
     0
 78
     2
176
     0
 67
     7
176
     0
 79
     5
176
     0
170
     0
176
     0
171
     0
176
     0
290
     0
176
     0
 93
        1
176
     0
 44
0.0
176
     0
173
     0
176
     0
1001
ACAD
1000
AcDbSavedByObjectVersion
1070
     0
  0
VISUALSTYLE
  5
38
102
{ACAD_XDICTIONARY
360
139
102
}
102
{ACAD_REACTORS
330
29
102
}
330
29
100
AcDbVisualStyle
  2
Facepattern
 70
    15
177
     2
291
     1
 71
     2
176
     1
 72
     2
176
     1
 73
     0
176
     1
 90
        0
176
     1
 40
0.6
176
     1
 41
30.0
176
     1
 63
     7
421
 16777215
176
     1
 74
     1
176
     1
 91
        4
176
     1
 64
     7
176
     1
 65
   257
176
     1
 75
     1
176
     1
175
     1
176
     1
 42
1.0
176
     1
 92
        8
176
     1
 66
     7
176
     1
 43
1.0
176
     1
 76
     1
176
     1
 77
     6
176
     1
 78
     2
176
     1
 67
     7
176
     1
 79
     5
176
     1
170
     0
176
     1
171
     0
176
     1
290
     0
176
     1
 93
        1
176
     1
 44
0.0
176
     1
173
     0
176
     1
1001
ACAD
1000
AcDbSavedByObjectVersion
1070
     0
  0
VISUALSTYLE
  5
2A
102
{ACAD_XDICTIONARY
360
11D
102
}
102
{ACAD_REACTORS
330
29
102
}
330
29
100
AcDbVisualStyle
  2
Flat
 70
     0
177
     2
291
     1
 71
     2
176
     1
 72
     1
176
     1
 73
     1
176
     1
 90
        2
176
     1
 40
0.6
176
     1
 41
30.0
176
     1
 63
     7
421
 16777215
176
     1
 74
     0
176
     1
 91
        0
176
     1
 64
     7
176
     1
 65
   257
176
     1
 75
     1
176
     1
175
     1
176
     1
 42
1.0
176
     1
 92
        8
176
     1
 66
     7
176
     1
 43
1.0
176
     1
 76
     1
176
     1
 77
     6
176
     1
 78
     2
176
     1
 67
     7
176
     1
 79
     5
176
     1
170
     0
176
     1
171
     0
176
     1
290
     0
176
     1
 93
       13
176
     1
 44
0.0
176
     1
173
     0
176
     1
1001
ACAD
1000
AcDbSavedByObjectVersion
1070
     0
  0
VISUALSTYLE
  5
2B
102
{ACAD_XDICTIONARY
360
11F
102
}
102
{ACAD_REACTORS
330
29
102
}
330
29
100
AcDbVisualStyle
  2
FlatWithEdges
 70
     1
177
     2
291
     1
 71
     2
176
     1
 72
     1
176
     1
 73
     1
176
     1
 90
        2
176
     1
 40
0.6
176
     1
 41
30.0
176
     1
 63
     7
421
 16777215
176
     1
 74
     1
176
     1
 91
        0
176
     1
 64
     7
176
     1
 65
   257
176
     1
 75
     1
176
     1
175
     1
176
     1
 42
1.0
176
     1
 92
        0
176
     1
 66
   257
176
     1
 43
1.0
176
     1
 76
     1
176
     1
 77
     6
176
     1
 78
     2
176
     1
 67
     7
176
     1
 79
     5
176
     1
170
     0
176
     1
171
     0
176
     1
290
     0
176
     1
 93
       13
176
     1
 44
0.0
176
     1
173
     0
176
     1
1001
ACAD
1000
AcDbSavedByObjectVersion
1070
     0
  0
VISUALSTYLE
  5
2C
102
{ACAD_XDICTIONARY
360
121
102
}
102
{ACAD_REACTORS
330
29
102
}
330
29
100
AcDbVisualStyle
  2
Gouraud
 70
     2
177
     2
291
     1
 71
     2
176
     1
 72
     2
176
     1
 73
     1
176
     1
 90
        2
176
     1
 40
0.6
176
     1
 41
30.0
176
     1
 63
     7
421
 16777215
176
     1
 74
     0
176
     1
 91
        0
176
     1
 64
     7
176
     1
 65
   257
176
     1
 75
     1
176
     1
175
     1
176
     1
 42
1.0
176
     1
 92
        0
176
     1
 66
     7
176
     1
 43
1.0
176
     1
 76
     1
176
     1
 77
     6
176
     1
 78
     2
176
     1
 67
     7
176
     1
 79
     5
176
     1
170
     0
176
     1
171
     0
176
     1
290
     0
176
     1
 93
       13
176
     1
 44
0.0
176
     1
173
     0
176
     1
1001
ACAD
1000
AcDbSavedByObjectVersion
1070
     0
  0
VISUALSTYLE
  5
2D
102
{ACAD_XDICTIONARY
360
123
102
}
102
{ACAD_REACTORS
330
29
102
}
330
29
100
AcDbVisualStyle
  2
GouraudWithEdges
 70
     3
177
     2
291
     1
 71
     2
176
     1
 72
     2
176
     1
 73
     1
176
     1
 90
        2
176
     1
 40
0.6
176
     1
 41
30.0
176
     1
 63
     7
421
 16777215
176
     1
 74
     1
176
     1
 91
        0
176
     1
 64
     7
176
     1
 65
   257
176
     1
 75
     1
176
     1
175
     1
176
     1
 42
1.0
176
     1
 92
        0
176
     1
 66
   257
176
     1
 43
1.0
176
     1
 76
     1
176
     1
 77
     6
176
     1
 78
     2
176
     1
 67
     7
176
     1
 79
     5
176
     1
170
     0
176
     1
171
     0
176
     1
290
     0
176
     1
 93
       13
176
     1
 44
0.0
176
     1
173
     0
176
     1
1001
ACAD
1000
AcDbSavedByObjectVersion
1070
     0
  0
VISUALSTYLE
  5
31
102
{ACAD_XDICTIONARY
360
12B
102
}
102
{ACAD_REACTORS
330
29
102
}
330
29
100
AcDbVisualStyle
  2
Hidden
 70
     6
177
     2
291
     0
 71
     1
176
     1
 72
     2
176
     1
 73
     2
176
     1
 90
        0
176
     1
 40
0.6
176
     1
 41
30.0
176
     1
 63
     7
421
 16777215
176
     1
 74
     2
176
     1
 91
        2
176
     1
 64
     7
176
     1
 65
   257
176
     1
 75
     2
176
     1
175
     1
176
     1
 42
40.0
176
     1
 92
        0
176
     1
 66
   257
176
     1
 43
1.0
176
     1
 76
     1
176
     1
 77
     6
176
     1
 78
     2
176
     1
 67
     7
176
     1
 79
     3
176
     1
170
     0
176
     1
171
     0
176
     1
290
     0
176
     1
 93
        1
176
     1
 44
0.0
176
     1
173
     0
176
     1
1001
ACAD
1000
AcDbSavedByObjectVersion
1070
     0
  0
VISUALSTYLE
  5
3F
102
{ACAD_XDICTIONARY
360
147
102
}
102
{ACAD_REACTORS
330
29
102
}
330
29
100
AcDbVisualStyle
  2
JitterOff
 70
    20
177
     2
291
     1
 71
     2
176
     0
 72
     2
176
     0
 73
     0
176
     0
 90
        0
176
     0
 40
0.6
176
     0
 41
30.0
176
     0
 63
     7
421
 16777215
176
     0
 74
     1
176
     0
 91
        4
176
     0
 64
     7
176
     0
 65
   257
176
     0
 75
     1
176
     0
175
     1
176
     0
 42
1.0
176
     0
 92
       10
176
     2
 66
     7
176
     0
 43
1.0
176
     0
 76
     1
176
     0
 77
     6
176
     0
 78
     2
176
     0
 67
     7
176
     0
 79
     5
176
     0
170
     0
176
     0
171
     0
176
     0
290
     0
176
     0
 93
        1
176
     0
 44
0.0
176
     0
173
     0
176
     0
1001
ACAD
1000
AcDbSavedByObjectVersion
1070
     0
  0
VISUALSTYLE
  5
37
102
{ACAD_XDICTIONARY
360
137
102
}
102
{ACAD_REACTORS
330
29
102
}
330
29
100
AcDbVisualStyle
  2
Linepattern
 70
    14
177
     2
291
     1
 71
     2
176
     1
 72
     2
176
     1
 73
     0
176
     1
 90
        0
176
     1
 40
0.6
176
     1
 41
30.0
176
     1
 63
     7
421
 16777215
176
     1
 74
     1
176
     1
 91
        4
176
     1
 64
     7
176
     1
 65
   257
176
     1
 75
     7
176
     1
175
     7
176
     1
 42
1.0
176
     1
 92
        8
176
     1
 66
     7
176
     1
 43
1.0
176
     1
 76
     1
176
     1
 77
     6
176
     1
 78
     2
176
     1
 67
     7
176
     1
 79
     5
176
     1
170
     0
176
     1
171
     0
176
     1
290
     0
176
     1
 93
        1
176
     1
 44
0.0
176
     1
173
     0
176
     1
1001
ACAD
1000
AcDbSavedByObjectVersion
1070
     0
  0
VISUALSTYLE
  5
40
102
{ACAD_XDICTIONARY
360
149
102
}
102
{ACAD_REACTORS
330
29
102
}
330
29
100
AcDbVisualStyle
  2
OverhangOff
 70
    21
177
     2
291
     1
 71
     2
176
     0
 72
     2
176
     0
 73
     0
176
     0
 90
        0
176
     0
 40
0.6
176
     0
 41
30.0
176
     0
 63
     7
421
 16777215
176
     0
 74
     1
176
     0
 91
        4
176
     0
 64
     7
176
     0
 65
   257
176
     0
 75
     1
176
     0
175
     1
176
     0
 42
1.0
176
     0
 92
        9
176
     2
 66
     7
176
     0
 43
1.0
176
     0
 76
     1
176
     0
 77
     6
176
     0
 78
     2
176
     0
 67
     7
176
     0
 79
     5
176
     0
170
     0
176
     0
171
     0
176
     0
290
     0
176
     0
 93
        1
176
     0
 44
0.0
176
     0
173
     0
176
     0
1001
ACAD
1000
AcDbSavedByObjectVersion
1070
     0
  0
VISUALSTYLE
  5
33
102
{ACAD_XDICTIONARY
360
12F
102
}
102
{ACAD_REACTORS
330
29
102
}
330
29
100
AcDbVisualStyle
  2
Realistic
 70
     8
177
     2
291
     0
 71
     2
176
     1
 72
     3
176
     1
 73
     0
176
     1
 90
        2
176
     1
 40
0.6
176
     1
 41
30.0
176
     1
 63
     7
421
 16777215
176
     1
 74
     0
176
     1
 91
        0
176
     1
 64
     7
176
     1
 65
   257
176
     1
 75
     1
176
     1
175
     1
176
     1
 42
1.0
176
     1
 92
        8
176
     1
 66
   257
176
     1
 43
1.0
176
     1
 76
     1
176
     1
 77
     6
176
     1
 78
     2
176
     1
 67
     7
176
     1
 79
     3
176
     1
170
     0
176
     1
171
     0
176
     1
290
     0
176
     1
 93
       13
176
     1
 44
0.0
176
     1
173
     0
176
     1
1001
ACAD
1000
AcDbSavedByObjectVersion
1070
     0
  0
VISUALSTYLE
  5
3E
102
{ACAD_XDICTIONARY
360
145
102
}
102
{ACAD_REACTORS
330
29
102
}
330
29
100
AcDbVisualStyle
  2
Shaded
 70
    27
177
     2
291
     0
 71
     2
176
     1
 72
     2
176
     1
 73
     1
176
     1
 90
        2
176
     1
 40
0.6
176
     1
 41
30.0
176
     1
 63
     7
421
 16777215
176
     1
 74
     0
176
     1
 91
        4
176
     1
 64
     7
176
     1
 65
   257
176
     1
 75
     1
176
     1
175
     1
176
     1
 42
1.0
176
     1
 92
        8
176
     1
 66
   257
176
     1
 43
1.0
176
     1
 76
     1
176
     1
 77
     6
176
     1
 78
     2
176
     1
 67
     8
425
  7895160
176
     1
 79
     3
176
     1
170
     0
176
     1
171
     0
176
     1
290
     0
176
     1
 93
        5
176
     1
 44
0.0
176
     1
173
     0
176
     1
1001
ACAD
1000
AcDbSavedByObjectVersion
1070
     0
  0
VISUALSTYLE
  5
3D
102
{ACAD_XDICTIONARY
360
143
102
}
102
{ACAD_REACTORS
330
29
102
}
330
29
100
AcDbVisualStyle
  2
Shaded with edges
 70
    26
177
     2
291
     0
 71
     2
176
     1
 72
     2
176
     1
 73
     1
176
     1
 90
        2
176
     1
 40
0.6
176
     1
 41
30.0
176
     1
 63
     7
421
 16777215
176
     1
 74
     1
176
     1
 91
        2
176
     1
 64
     7
176
     1
 65
   257
176
     1
 75
     2
176
     1
175
     1
176
     1
 42
1.0
176
     1
 92
        8
176
     1
 66
   257
176
     1
 43
1.0
176
     1
 76
     1
176
     1
 77
     6
176
     1
 78
     2
176
     1
 67
     7
176
     1
 79
     3
176
     1
170
     0
176
     1
171
     0
176
     1
290
     0
176
     1
 93
        5
176
     1
 44
0.0
176
     1
173
     0
176
     1
1001
ACAD
1000
AcDbSavedByObjectVersion
1070
     0
  0
VISUALSTYLE
  5
3A
102
{ACAD_XDICTIONARY
360
13D
102
}
102
{ACAD_REACTORS
330
29
102
}
330
29
100
AcDbVisualStyle
  2
Shades of Gray
 70
    23
177
     2
291
     0
 71
     2
176
     1
 72
     2
176
     1
 73
     3
176
     1
 90
        0
176
     1
 40
0.6
176
     1
 41
30.0
176
     1
 63
     7
421
 16777215
176
     1
 74
     2
176
     1
 91
        2
176
     1
 64
     7
176
     1
 65
     7
176
     1
 75
     1
176
     1
175
     1
176
     1
 42
40.0
176
     1
 92
        8
176
     1
 66
     7
176
     1
 43
1.0
176
     1
 76
     1
176
     1
 77
     6
176
     1
 78
     2
176
     1
 67
     7
176
     1
 79
     3
176
     1
170
     0
176
     1
171
     0
176
     1
290
     0
176
     1
 93
        1
176
     1
 44
0.0
176
     1
173
     0
176
     1
1001
ACAD
1000
AcDbSavedByObjectVersion
1070
     0
  0
VISUALSTYLE
  5
3B
102
{ACAD_XDICTIONARY
360
13F
102
}
102
{ACAD_REACTORS
330
29
102
}
330
29
100
AcDbVisualStyle
  2
Sketchy
 70
    24
177
     2
291
     0
 71
     1
176
     1
 72
     2
176
     1
 73
     2
176
     1
 90
        0
176
     1
 40
0.6
176
     1
 41
30.0
176
     1
 63
     7
421
 16777215
176
     1
 74
     2
176
     1
 91
        2
176
     1
 64
     7
176
     1
 65
     7
176
     1
 75
     1
176
     1
175
     1
176
     1
 42
40.0
176
     1
 92
       11
176
     1
 66
     7
176
     1
 43
1.0
176
     1
 76
     1
176
     1
 77
     6
176
     1
 78
     2
176
     1
 67
     7
176
     1
 79
     6
176
     1
170
     0
176
     1
171
     0
176
     1
290
     0
176
     1
 93
        1
176
     1
 44
0.0
176
     1
173
     0
176
     1
1001
ACAD
1000
AcDbSavedByObjectVersion
1070
     0
  0
VISUALSTYLE
  5
36
102
{ACAD_XDICTIONARY
360
135
102
}
102
{ACAD_REACTORS
330
29
102
}
330
29
100
AcDbVisualStyle
  2
Thicken
 70
    13
177
     2
291
     1
 71
     2
176
     1
 72
     2
176
     1
 73
     0
176
     1
 90
        0
176
     1
 40
0.6
176
     1
 41
30.0
176
     1
 63
     7
421
 16777215
176
     1
 74
     1
176
     1
 91
        4
176
     1
 64
     7
176
     1
 65
   257
176
     1
 75
     1
176
     1
175
     1
176
     1
 42
1.0
176
     1
 92
       12
176
     1
 66
     7
176
     1
 43
1.0
176
     1
 76
     1
176
     1
 77
     6
176
     1
 78
     2
176
     1
 67
     7
176
     1
 79
     5
176
     1
170
     0
176
     1
171
     0
176
     1
290
     0
176
     1
 93
        1
176
     1
 44
0.0
176
     1
173
     0
176
     1
1001
ACAD
1000
AcDbSavedByObjectVersion
1070
     0
  0
VISUALSTYLE
  5
30
102
{ACAD_XDICTIONARY
360
129
102
}
102
{ACAD_REACTORS
330
29
102
}
330
29
100
AcDbVisualStyle
  2
Wireframe
 70
     5
177
     2
291
     0
 71
     0
176
     1
 72
     2
176
     1
 73
     0
176
     1
 90
        0
176
     1
 40
0.6
176
     1
 41
30.0
176
     1
 63
     7
421
 16777215
176
     1
 74
     1
176
     1
 91
        4
176
     1
 64
     7
176
     1
 65
   257
176
     1
 75
     1
176
     1
175
     1
176
     1
 42
1.0
176
     1
 92
        0
176
     1
 66
   257
176
     1
 43
1.0
176
     1
 76
     1
176
     1
 77
     6
176
     1
 78
     2
176
     1
 67
     7
176
     1
 79
     3
176
     1
170
     0
176
     1
171
     0
176
     1
290
     0
176
     1
 93
        1
176
     1
 44
0.0
176
     1
173
     0
176
     1
1001
ACAD
1000
AcDbSavedByObjectVersion
1070
     0
  0
VISUALSTYLE
  5
3C
102
{ACAD_XDICTIONARY
360
141
102
}
102
{ACAD_REACTORS
330
29
102
}
330
29
100
AcDbVisualStyle
  2
X-Ray
 70
    25
177
     2
291
     0
 71
     2
176
     1
 72
     2
176
     1
 73
     1
176
     1
 90
        1
176
     1
 40
0.5
176
     1
 41
30.0
176
     1
 63
     7
421
 16777215
176
     1
 74
     1
176
     1
 91
        0
176
     1
 64
     7
176
     1
 65
   257
176
     1
 75
     1
176
     1
175
     1
176
     1
 42
1.0
176
     1
 92
        8
176
     1
 66
     7
176
     1
 43
1.0
176
     1
 76
     1
176
     1
 77
     6
176
     1
 78
     2
176
     1
 67
     7
176
     1
 79
     3
176
     1
170
     0
176
     1
171
     0
176
     1
290
     0
176
     1
 93
       13
176
     1
 44
0.0
176
     1
173
     0
176
     1
1001
ACAD
1000
AcDbSavedByObjectVersion
1070
     0
  0
DICTIONARYVAR
  5
119
102
{ACAD_REACTORS
330
114
102
}
330
114
100
DictionaryVariables
280
     0
  1
1:1
  0
DICTIONARYVAR
  5
116
102
{ACAD_REACTORS
330
114
102
}
330
114
100
DictionaryVariables
280
     0
  1
STANDARD
  0
DICTIONARYVAR
  5
115
102
{ACAD_REACTORS
330
114
102
}
330
114
100
DictionaryVariables
280
     0
  1
STANDARD
  0
DICTIONARYVAR
  5
117
102
{ACAD_REACTORS
330
114
102
}
330
114
100
DictionaryVariables
280
     0
  1
Imperial24
  0
DICTIONARYVAR
  5
118
102
{ACAD_REACTORS
330
114
102
}
330
114
100
DictionaryVariables
280
     0
  1
Imperial24
  0
DICTIONARY
  5
151
330
6B
100
AcDbDictionary
280
     1
281
     1
  3
ACAD_XREC_ROUNDTRIP
360
152
  0
DICTIONARY
  5
1A
330
19
100
AcDbDictionary
280
     1
281
     1
  3
BUMPTILE
360
1C
  3
DIFFUSETILE
360
1B
  3
OPACITYTILE
360
1F
  3
REFLECTIONTILE
360
1E
  3
REFRACTIONTILE
360
20
  3
SPECULARTILE
360
1D
  0
DICTIONARY
  5
12
330
11
100
AcDbDictionary
280
     1
281
     1
  3
BUMPTILE
360
14
  3
DIFFUSETILE
360
13
  3
OPACITYTILE
360
17
  3
REFLECTIONTILE
360
16
  3
REFRACTIONTILE
360
18
  3
SPECULARTILE
360
15
  0
DICTIONARY
  5
22
330
21
100
AcDbDictionary
280
     1
281
     1
  3
BUMPTILE
360
24
  3
DIFFUSETILE
360
23
  3
OPACITYTILE
360
27
  3
REFLECTIONTILE
360
26
  3
REFRACTIONTILE
360
28
  3
SPECULARTILE
360
25
  0
DICTIONARY
  5
14D
330
67
100
AcDbDictionary
280
     1
281
     1
  3
ACAD_XREC_ROUNDTRIP
360
14E
  0
DICTIONARY
  5
14F
330
69
100
AcDbDictionary
280
     1
281
     1
  3
ACAD_XREC_ROUNDTRIP
360
150
  0
DICTIONARY
  5
11A
330
65
100
AcDbDictionary
280
     1
281
     1
  3
ACAD_ROUNDTRIP_2008_TABLESTYLE_CELLSTYLEMAP
360
11B
  0
DICTIONARY
  5
127
330
2F
100
AcDbDictionary
280
     1
281
     1
  3
ACAD_XREC_ROUNDTRIP
360
128
  0
DICTIONARY
  5
125
330
2E
100
AcDbDictionary
280
     1
281
     1
  3
ACAD_XREC_ROUNDTRIP
360
126
  0
DICTIONARY
  5
133
330
35
100
AcDbDictionary
280
     1
281
     1
  3
ACAD_XREC_ROUNDTRIP
360
134
  0
DICTIONARY
  5
13B
330
39
100
AcDbDictionary
280
     1
281
     1
  3
ACAD_XREC_ROUNDTRIP
360
13C
  0
DICTIONARY
  5
12D
330
32
100
AcDbDictionary
280
     1
281
     1
  3
ACAD_XREC_ROUNDTRIP
360
12E
  0
DICTIONARY
  5
131
330
34
100
AcDbDictionary
280
     1
281
     1
  3
ACAD_XREC_ROUNDTRIP
360
132
  0
DICTIONARY
  5
14B
330
41
100
AcDbDictionary
280
     1
281
     1
  3
ACAD_XREC_ROUNDTRIP
360
14C
  0
DICTIONARY
  5
139
330
38
100
AcDbDictionary
280
     1
281
     1
  3
ACAD_XREC_ROUNDTRIP
360
13A
  0
DICTIONARY
  5
11D
330
2A
100
AcDbDictionary
280
     1
281
     1
  3
ACAD_XREC_ROUNDTRIP
360
11E
  0
DICTIONARY
  5
11F
330
2B
100
AcDbDictionary
280
     1
281
     1
  3
ACAD_XREC_ROUNDTRIP
360
120
  0
DICTIONARY
  5
121
330
2C
100
AcDbDictionary
280
     1
281
     1
  3
ACAD_XREC_ROUNDTRIP
360
122
  0
DICTIONARY
  5
123
330
2D
100
AcDbDictionary
280
     1
281
     1
  3
ACAD_XREC_ROUNDTRIP
360
124
  0
DICTIONARY
  5
12B
330
31
100
AcDbDictionary
280
     1
281
     1
  3
ACAD_XREC_ROUNDTRIP
360
12C
  0
DICTIONARY
  5
147
330
3F
100
AcDbDictionary
280
     1
281
     1
  3
ACAD_XREC_ROUNDTRIP
360
148
  0
DICTIONARY
  5
137
330
37
100
AcDbDictionary
280
     1
281
     1
  3
ACAD_XREC_ROUNDTRIP
360
138
  0
DICTIONARY
  5
149
330
40
100
AcDbDictionary
280
     1
281
     1
  3
ACAD_XREC_ROUNDTRIP
360
14A
  0
DICTIONARY
  5
12F
330
33
100
AcDbDictionary
280
     1
281
     1
  3
ACAD_XREC_ROUNDTRIP
360
130
  0
DICTIONARY
  5
145
330
3E
100
AcDbDictionary
280
     1
281
     1
  3
ACAD_XREC_ROUNDTRIP
360
146
  0
DICTIONARY
  5
143
330
3D
100
AcDbDictionary
280
     1
281
     1
  3
ACAD_XREC_ROUNDTRIP
360
144
  0
DICTIONARY
  5
13D
330
3A
100
AcDbDictionary
280
     1
281
     1
  3
ACAD_XREC_ROUNDTRIP
360
13E
  0
DICTIONARY
  5
13F
330
3B
100
AcDbDictionary
280
     1
281
     1
  3
ACAD_XREC_ROUNDTRIP
360
140
  0
DICTIONARY
  5
135
330
36
100
AcDbDictionary
280
     1
281
     1
  3
ACAD_XREC_ROUNDTRIP
360
136
  0
DICTIONARY
  5
129
330
30
100
AcDbDictionary
280
     1
281
     1
  3
ACAD_XREC_ROUNDTRIP
360
12A
  0
DICTIONARY
  5
141
330
3C
100
AcDbDictionary
280
     1
281
     1
  3
ACAD_XREC_ROUNDTRIP
360
142
  0
XRECORD
  5
152
102
{ACAD_REACTORS
330
151
102
}
330
151
100
AcDbXrecord
280
     1
102
DISPLAYNAME
  1
Imperial24
102
FLAGS
 90
        0
  0
XRECORD
  5
1C
102
{ACAD_REACTORS
330
1A
102
}
330
1A
100
AcDbXrecord
280
     1
270
     1
271
     1
  0
XRECORD
  5
1B
102
{ACAD_REACTORS
330
1A
102
}
330
1A
100
AcDbXrecord
280
     1
270
     1
271
     1
  0
XRECORD
  5
1F
102
{ACAD_REACTORS
330
1A
102
}
330
1A
100
AcDbXrecord
280
     1
270
     1
271
     1
  0
XRECORD
  5
1E
102
{ACAD_REACTORS
330
1A
102
}
330
1A
100
AcDbXrecord
280
     1
270
     1
271
     1
  0
XRECORD
  5
20
102
{ACAD_REACTORS
330
1A
102
}
330
1A
100
AcDbXrecord
280
     1
270
     1
271
     1
  0
XRECORD
  5
1D
102
{ACAD_REACTORS
330
1A
102
}
330
1A
100
AcDbXrecord
280
     1
270
     1
271
     1
  0
XRECORD
  5
14
102
{ACAD_REACTORS
330
12
102
}
330
12
100
AcDbXrecord
280
     1
270
     1
271
     1
  0
XRECORD
  5
13
102
{ACAD_REACTORS
330
12
102
}
330
12
100
AcDbXrecord
280
     1
270
     1
271
     1
  0
XRECORD
  5
17
102
{ACAD_REACTORS
330
12
102
}
330
12
100
AcDbXrecord
280
     1
270
     1
271
     1
  0
XRECORD
  5
16
102
{ACAD_REACTORS
330
12
102
}
330
12
100
AcDbXrecord
280
     1
270
     1
271
     1
  0
XRECORD
  5
18
102
{ACAD_REACTORS
330
12
102
}
330
12
100
AcDbXrecord
280
     1
270
     1
271
     1
  0
XRECORD
  5
15
102
{ACAD_REACTORS
330
12
102
}
330
12
100
AcDbXrecord
280
     1
270
     1
271
     1
  0
XRECORD
  5
24
102
{ACAD_REACTORS
330
22
102
}
330
22
100
AcDbXrecord
280
     1
270
     1
271
     1
  0
XRECORD
  5
23
102
{ACAD_REACTORS
330
22
102
}
330
22
100
AcDbXrecord
280
     1
270
     1
271
     1
  0
XRECORD
  5
27
102
{ACAD_REACTORS
330
22
102
}
330
22
100
AcDbXrecord
280
     1
270
     1
271
     1
  0
XRECORD
  5
26
102
{ACAD_REACTORS
330
22
102
}
330
22
100
AcDbXrecord
280
     1
270
     1
271
     1
  0
XRECORD
  5
28
102
{ACAD_REACTORS
330
22
102
}
330
22
100
AcDbXrecord
280
     1
270
     1
271
     1
  0
XRECORD
  5
25
102
{ACAD_REACTORS
330
22
102
}
330
22
100
AcDbXrecord
280
     1
270
     1
271
     1
  0
XRECORD
  5
14E
102
{ACAD_REACTORS
330
14D
102
}
330
14D
100
AcDbXrecord
280
     1
102
ACAD_ROUNDTRIP_2012_MLEADER_STYLE
298
     1
  0
XRECORD
  5
150
102
{ACAD_REACTORS
330
14F
102
}
330
14F
100
AcDbXrecord
280
     1
102
DISPLAYNAME
  1
Imperial24
102
FLAGS
 90
        0
  0
CELLSTYLEMAP
  5
11B
102
{ACAD_REACTORS
330
11A
102
}
330
11A
100
AcDbCellStyleMap
 90
        3
300
CELLSTYLE
  1
TABLEFORMAT_BEGIN
 90
        5
170
     1
 91
        0
 92
    32768
 62
   257
 93
        1
300
CONTENTFORMAT
  1
CONTENTFORMAT_BEGIN
 90
        0
 91
        0
 92
      512
 93
        0
300

 40
0.0
140
1.0
 94
        5
 62
     0
340
55
144
0.25
309
CONTENTFORMAT_END
171
     0
 94
        0
309
TABLEFORMAT_END
  1
CELLSTYLE_BEGIN
 90
        1
 91
        1
300
_TITLE
309
CELLSTYLE_END
300
CELLSTYLE
  1
TABLEFORMAT_BEGIN
 90
        5
170
     1
 91
        0
 92
        0
 62
   257
 93
        1
300
CONTENTFORMAT
  1
CONTENTFORMAT_BEGIN
 90
        0
 91
        0
 92
      512
 93
        0
300

 40
0.0
140
1.0
 94
        5
 62
     0
340
55
144
0.18
309
CONTENTFORMAT_END
171
     0
 94
        0
309
TABLEFORMAT_END
  1
CELLSTYLE_BEGIN
 90
        2
 91
        1
300
_HEADER
309
CELLSTYLE_END
300
CELLSTYLE
  1
TABLEFORMAT_BEGIN
 90
        5
170
     1
 91
        0
 92
        0
 62
   257
 93
        1
300
CONTENTFORMAT
  1
CONTENTFORMAT_BEGIN
 90
        0
 91
        0
 92
      512
 93
        0
300

 40
0.0
140
1.0
 94
        2
 62
     0
340
55
144
0.18
309
CONTENTFORMAT_END
171
     0
 94
        0
309
TABLEFORMAT_END
  1
CELLSTYLE_BEGIN
 90
        3
 91
        2
300
_DATA
309
CELLSTYLE_END
  0
XRECORD
  5
128
102
{ACAD_REACTORS
330
127
102
}
330
127
100
AcDbXrecord
280
     1
102
RTVSPost2010Prop28
280
     1
102
RTVSPost2010PropOp28
 70
     1
102
RTVSPost2010Prop29
280
     1
102
RTVSPost2010PropOp29
 70
     1
102
RTVSPost2010Prop30
280
     0
102
RTVSPost2010PropOp30
 70
     1
102
RTVSPost2010Prop31
280
     0
102
RTVSPost2010PropOp31
 70
     1
102
RTVSPost2010Prop32
280
     0
102
RTVSPost2010PropOp32
 70
     1
102
RTVSPost2010Prop33
280
     0
102
RTVSPost2010PropOp33
 70
     1
102
RTVSPost2010Prop34
280
     0
102
RTVSPost2010PropOp34
 70
     1
102
RTVSPost2010Prop35
280
     0
102
RTVSPost2010PropOp35
 70
     1
102
RTVSPost2010Prop36
280
     0
102
RTVSPost2010PropOp36
 70
     1
102
RTVSPost2010Prop37
 90
       50
102
RTVSPost2010PropOp37
 70
     1
102
RTVSPost2010Prop38
140
0.0
102
RTVSPost2010PropOp38
 70
     1
102
RTVSPost2010Prop39
140
1.0
102
RTVSPost2010PropOp39
 70
     1
102
RTVSPost2010Prop40
 90
        0
102
RTVSPost2010PropOp40
 70
     1
102
RTVSPost2010Prop41ColorIndex
 90
       18
102
RTVSPost2010Prop41ColorRGB
 90
        0
102
RTVSPost2010PropOp41
 70
     1
102
RTVSPost2010Prop42
 90
       50
102
RTVSPost2010PropOp42
 70
     1
102
RTVSPost2010Prop43
 90
        3
102
RTVSPost2010PropOp43
 70
     1
102
RTVSPost2010Prop44ColorIndex
 90
        5
102
RTVSPost2010Prop44ColorRGB
 90
      255
102
RTVSPost2010PropOp44
 70
     1
102
RTVSPost2010Prop45
280
     0
102
RTVSPost2010PropOp45
 70
     1
102
RTVSPost2010Prop46
 90
       50
102
RTVSPost2010PropOp46
 70
     1
102
RTVSPost2010Prop47
 90
       50
102
RTVSPost2010PropOp47
 70
     1
102
RTVSPost2010Prop48
 90
       50
102
RTVSPost2010PropOp48
 70
     1
102
RTVSPost2010Prop49
280
     0
102
RTVSPost2010PropOp49
 70
     1
102
RTVSPost2010Prop50
 90
       50
102
RTVSPost2010PropOp50
 70
     1
102
RTVSPost2010Prop51ColorIndex
 90
      256
102
RTVSPost2010Prop51ColorRGB
 90
-16777216
102
RTVSPost2010PropOp51
 70
     0
102
RTVSPost2010Prop52
140
1.0
102
RTVSPost2010PropOp52
 70
     0
102
RTVSPost2010Prop53
 90
        2
102
RTVSPost2010PropOp53
 70
     1
102
RTVSPost2010Prop54
  1
strokes_ogs.tif
102
RTVSPost2010PropOp54
 70
     1
102
RTVSPost2010Prop55
280
     0
102
RTVSPost2010PropOp55
 70
     1
102
RTVSPost2010Prop56
140
1.0
102
RTVSPost2010PropOp56
 70
     1
102
RTVSPost2010Prop57
140
1.0
102
RTVSPost2010PropOp57
 70
     1
  0
XRECORD
  5
126
102
{ACAD_REACTORS
330
125
102
}
330
125
100
AcDbXrecord
280
     1
102
RTVSPost2010Prop28
280
     0
102
RTVSPost2010PropOp28
 70
     1
102
RTVSPost2010Prop29
280
     1
102
RTVSPost2010PropOp29
 70
     1
102
RTVSPost2010Prop30
280
     1
102
RTVSPost2010PropOp30
 70
     1
102
RTVSPost2010Prop31
280
     0
102
RTVSPost2010PropOp31
 70
     1
102
RTVSPost2010Prop32
280
     0
102
RTVSPost2010PropOp32
 70
     1
102
RTVSPost2010Prop33
280
     0
102
RTVSPost2010PropOp33
 70
     1
102
RTVSPost2010Prop34
280
     0
102
RTVSPost2010PropOp34
 70
     1
102
RTVSPost2010Prop35
280
     0
102
RTVSPost2010PropOp35
 70
     1
102
RTVSPost2010Prop36
280
     0
102
RTVSPost2010PropOp36
 70
     1
102
RTVSPost2010Prop37
 90
       50
102
RTVSPost2010PropOp37
 70
     1
102
RTVSPost2010Prop38
140
0.0
102
RTVSPost2010PropOp38
 70
     1
102
RTVSPost2010Prop39
140
1.0
102
RTVSPost2010PropOp39
 70
     1
102
RTVSPost2010Prop40
 90
        0
102
RTVSPost2010PropOp40
 70
     1
102
RTVSPost2010Prop41ColorIndex
 90
       18
102
RTVSPost2010Prop41ColorRGB
 90
        0
102
RTVSPost2010PropOp41
 70
     1
102
RTVSPost2010Prop42
 90
       50
102
RTVSPost2010PropOp42
 70
     1
102
RTVSPost2010Prop43
 90
        3
102
RTVSPost2010PropOp43
 70
     1
102
RTVSPost2010Prop44ColorIndex
 90
        5
102
RTVSPost2010Prop44ColorRGB
 90
      255
102
RTVSPost2010PropOp44
 70
     1
102
RTVSPost2010Prop45
280
     0
102
RTVSPost2010PropOp45
 70
     1
102
RTVSPost2010Prop46
 90
       50
102
RTVSPost2010PropOp46
 70
     1
102
RTVSPost2010Prop47
 90
       50
102
RTVSPost2010PropOp47
 70
     1
102
RTVSPost2010Prop48
 90
       50
102
RTVSPost2010PropOp48
 70
     1
102
RTVSPost2010Prop49
280
     0
102
RTVSPost2010PropOp49
 70
     1
102
RTVSPost2010Prop50
 90
       50
102
RTVSPost2010PropOp50
 70
     1
102
RTVSPost2010Prop51ColorIndex
 90
      256
102
RTVSPost2010Prop51ColorRGB
 90
-16777216
102
RTVSPost2010PropOp51
 70
     0
102
RTVSPost2010Prop52
140
1.0
102
RTVSPost2010PropOp52
 70
     0
102
RTVSPost2010Prop53
 90
        2
102
RTVSPost2010PropOp53
 70
     1
102
RTVSPost2010Prop54
  1
strokes_ogs.tif
102
RTVSPost2010PropOp54
 70
     1
102
RTVSPost2010Prop55
280
     0
102
RTVSPost2010PropOp55
 70
     1
102
RTVSPost2010Prop56
140
1.0
102
RTVSPost2010PropOp56
 70
     1
102
RTVSPost2010Prop57
140
1.0
102
RTVSPost2010PropOp57
 70
     1
  0
XRECORD
  5
134
102
{ACAD_REACTORS
330
133
102
}
330
133
100
AcDbXrecord
280
     1
102
RTVSPost2010Prop28
280
     0
102
RTVSPost2010PropOp28
 70
     1
102
RTVSPost2010Prop29
280
     1
102
RTVSPost2010PropOp29
 70
     1
102
RTVSPost2010Prop30
280
     1
102
RTVSPost2010PropOp30
 70
     1
102
RTVSPost2010Prop31
280
     0
102
RTVSPost2010PropOp31
 70
     1
102
RTVSPost2010Prop32
280
     0
102
RTVSPost2010PropOp32
 70
     1
102
RTVSPost2010Prop33
280
     0
102
RTVSPost2010PropOp33
 70
     1
102
RTVSPost2010Prop34
280
     0
102
RTVSPost2010PropOp34
 70
     1
102
RTVSPost2010Prop35
280
     0
102
RTVSPost2010PropOp35
 70
     1
102
RTVSPost2010Prop36
280
     0
102
RTVSPost2010PropOp36
 70
     1
102
RTVSPost2010Prop37
 90
       50
102
RTVSPost2010PropOp37
 70
     1
102
RTVSPost2010Prop38
140
0.0
102
RTVSPost2010PropOp38
 70
     1
102
RTVSPost2010Prop39
140
1.0
102
RTVSPost2010PropOp39
 70
     1
102
RTVSPost2010Prop40
 90
        0
102
RTVSPost2010PropOp40
 70
     1
102
RTVSPost2010Prop41ColorIndex
 90
       18
102
RTVSPost2010Prop41ColorRGB
 90
        0
102
RTVSPost2010PropOp41
 70
     1
102
RTVSPost2010Prop42
 90
       50
102
RTVSPost2010PropOp42
 70
     1
102
RTVSPost2010Prop43
 90
        3
102
RTVSPost2010PropOp43
 70
     1
102
RTVSPost2010Prop44ColorIndex
 90
        5
102
RTVSPost2010Prop44ColorRGB
 90
      255
102
RTVSPost2010PropOp44
 70
     1
102
RTVSPost2010Prop45
280
     0
102
RTVSPost2010PropOp45
 70
     1
102
RTVSPost2010Prop46
 90
       50
102
RTVSPost2010PropOp46
 70
     1
102
RTVSPost2010Prop47
 90
       50
102
RTVSPost2010PropOp47
 70
     1
102
RTVSPost2010Prop48
 90
       50
102
RTVSPost2010PropOp48
 70
     1
102
RTVSPost2010Prop49
280
     0
102
RTVSPost2010PropOp49
 70
     1
102
RTVSPost2010Prop50
 90
       50
102
RTVSPost2010PropOp50
 70
     1
102
RTVSPost2010Prop51ColorIndex
 90
      256
102
RTVSPost2010Prop51ColorRGB
 90
-16777216
102
RTVSPost2010PropOp51
 70
     0
102
RTVSPost2010Prop52
140
1.0
102
RTVSPost2010PropOp52
 70
     0
102
RTVSPost2010Prop53
 90
        2
102
RTVSPost2010PropOp53
 70
     1
102
RTVSPost2010Prop54
  1
strokes_ogs.tif
102
RTVSPost2010PropOp54
 70
     1
102
RTVSPost2010Prop55
280
     0
102
RTVSPost2010PropOp55
 70
     1
102
RTVSPost2010Prop56
140
1.0
102
RTVSPost2010PropOp56
 70
     1
102
RTVSPost2010Prop57
140
1.0
102
RTVSPost2010PropOp57
 70
     1
  0
XRECORD
  5
13C
102
{ACAD_REACTORS
330
13B
102
}
330
13B
100
AcDbXrecord
280
     1
102
RTVSPost2010Prop28
280
     0
102
RTVSPost2010PropOp28
 70
     1
102
RTVSPost2010Prop29
280
     1
102
RTVSPost2010PropOp29
 70
     1
102
RTVSPost2010Prop30
280
     1
102
RTVSPost2010PropOp30
 70
     1
102
RTVSPost2010Prop31
280
     0
102
RTVSPost2010PropOp31
 70
     1
102
RTVSPost2010Prop32
280
     0
102
RTVSPost2010PropOp32
 70
     1
102
RTVSPost2010Prop33
280
     0
102
RTVSPost2010PropOp33
 70
     1
102
RTVSPost2010Prop34
280
     0
102
RTVSPost2010PropOp34
 70
     1
102
RTVSPost2010Prop35
280
     0
102
RTVSPost2010PropOp35
 70
     1
102
RTVSPost2010Prop36
280
     0
102
RTVSPost2010PropOp36
 70
     1
102
RTVSPost2010Prop37
 90
       50
102
RTVSPost2010PropOp37
 70
     1
102
RTVSPost2010Prop38
140
0.0
102
RTVSPost2010PropOp38
 70
     1
102
RTVSPost2010Prop39
140
1.0
102
RTVSPost2010PropOp39
 70
     1
102
RTVSPost2010Prop40
 90
        0
102
RTVSPost2010PropOp40
 70
     1
102
RTVSPost2010Prop41ColorIndex
 90
       18
102
RTVSPost2010Prop41ColorRGB
 90
        0
102
RTVSPost2010PropOp41
 70
     1
102
RTVSPost2010Prop42
 90
       50
102
RTVSPost2010PropOp42
 70
     1
102
RTVSPost2010Prop43
 90
        3
102
RTVSPost2010PropOp43
 70
     1
102
RTVSPost2010Prop44ColorIndex
 90
        5
102
RTVSPost2010Prop44ColorRGB
 90
      255
102
RTVSPost2010PropOp44
 70
     1
102
RTVSPost2010Prop45
280
     0
102
RTVSPost2010PropOp45
 70
     1
102
RTVSPost2010Prop46
 90
       50
102
RTVSPost2010PropOp46
 70
     1
102
RTVSPost2010Prop47
 90
       50
102
RTVSPost2010PropOp47
 70
     1
102
RTVSPost2010Prop48
 90
       50
102
RTVSPost2010PropOp48
 70
     1
102
RTVSPost2010Prop49
280
     0
102
RTVSPost2010PropOp49
 70
     1
102
RTVSPost2010Prop50
 90
       50
102
RTVSPost2010PropOp50
 70
     1
102
RTVSPost2010Prop51ColorIndex
 90
      256
102
RTVSPost2010Prop51ColorRGB
 90
-16777216
102
RTVSPost2010PropOp51
 70
     0
102
RTVSPost2010Prop52
140
1.0
102
RTVSPost2010PropOp52
 70
     0
102
RTVSPost2010Prop53
 90
        2
102
RTVSPost2010PropOp53
 70
     1
102
RTVSPost2010Prop54
  1
strokes_ogs.tif
102
RTVSPost2010PropOp54
 70
     1
102
RTVSPost2010Prop55
280
     0
102
RTVSPost2010PropOp55
 70
     1
102
RTVSPost2010Prop56
140
1.0
102
RTVSPost2010PropOp56
 70
     1
102
RTVSPost2010Prop57
140
1.0
102
RTVSPost2010PropOp57
 70
     1
  0
XRECORD
  5
12E
102
{ACAD_REACTORS
330
12D
102
}
330
12D
100
AcDbXrecord
280
     1
102
RTVSPost2010Prop28
280
     0
102
RTVSPost2010PropOp28
 70
     1
102
RTVSPost2010Prop29
280
     1
102
RTVSPost2010PropOp29
 70
     1
102
RTVSPost2010Prop30
280
     1
102
RTVSPost2010PropOp30
 70
     1
102
RTVSPost2010Prop31
280
     0
102
RTVSPost2010PropOp31
 70
     1
102
RTVSPost2010Prop32
280
     0
102
RTVSPost2010PropOp32
 70
     1
102
RTVSPost2010Prop33
280
     0
102
RTVSPost2010PropOp33
 70
     1
102
RTVSPost2010Prop34
280
     0
102
RTVSPost2010PropOp34
 70
     1
102
RTVSPost2010Prop35
280
     0
102
RTVSPost2010PropOp35
 70
     1
102
RTVSPost2010Prop36
280
     0
102
RTVSPost2010PropOp36
 70
     1
102
RTVSPost2010Prop37
 90
       50
102
RTVSPost2010PropOp37
 70
     1
102
RTVSPost2010Prop38
140
0.0
102
RTVSPost2010PropOp38
 70
     1
102
RTVSPost2010Prop39
140
1.0
102
RTVSPost2010PropOp39
 70
     1
102
RTVSPost2010Prop40
 90
        0
102
RTVSPost2010PropOp40
 70
     1
102
RTVSPost2010Prop41ColorIndex
 90
       18
102
RTVSPost2010Prop41ColorRGB
 90
        0
102
RTVSPost2010PropOp41
 70
     1
102
RTVSPost2010Prop42
 90
       50
102
RTVSPost2010PropOp42
 70
     1
102
RTVSPost2010Prop43
 90
        3
102
RTVSPost2010PropOp43
 70
     1
102
RTVSPost2010Prop44ColorIndex
 90
        5
102
RTVSPost2010Prop44ColorRGB
 90
      255
102
RTVSPost2010PropOp44
 70
     1
102
RTVSPost2010Prop45
280
     0
102
RTVSPost2010PropOp45
 70
     1
102
RTVSPost2010Prop46
 90
       50
102
RTVSPost2010PropOp46
 70
     1
102
RTVSPost2010Prop47
 90
       50
102
RTVSPost2010PropOp47
 70
     1
102
RTVSPost2010Prop48
 90
       50
102
RTVSPost2010PropOp48
 70
     1
102
RTVSPost2010Prop49
280
     0
102
RTVSPost2010PropOp49
 70
     1
102
RTVSPost2010Prop50
 90
       50
102
RTVSPost2010PropOp50
 70
     1
102
RTVSPost2010Prop51ColorIndex
 90
      256
102
RTVSPost2010Prop51ColorRGB
 90
-16777216
102
RTVSPost2010PropOp51
 70
     0
102
RTVSPost2010Prop52
140
1.0
102
RTVSPost2010PropOp52
 70
     0
102
RTVSPost2010Prop53
 90
        2
102
RTVSPost2010PropOp53
 70
     1
102
RTVSPost2010Prop54
  1
strokes_ogs.tif
102
RTVSPost2010PropOp54
 70
     1
102
RTVSPost2010Prop55
280
     0
102
RTVSPost2010PropOp55
 70
     1
102
RTVSPost2010Prop56
140
1.0
102
RTVSPost2010PropOp56
 70
     1
102
RTVSPost2010Prop57
140
1.0
102
RTVSPost2010PropOp57
 70
     1
  0
XRECORD
  5
132
102
{ACAD_REACTORS
330
131
102
}
330
131
100
AcDbXrecord
280
     1
102
RTVSPost2010Prop28
280
     0
102
RTVSPost2010PropOp28
 70
     1
102
RTVSPost2010Prop29
280
     1
102
RTVSPost2010PropOp29
 70
     1
102
RTVSPost2010Prop30
280
     1
102
RTVSPost2010PropOp30
 70
     1
102
RTVSPost2010Prop31
280
     0
102
RTVSPost2010PropOp31
 70
     1
102
RTVSPost2010Prop32
280
     0
102
RTVSPost2010PropOp32
 70
     1
102
RTVSPost2010Prop33
280
     0
102
RTVSPost2010PropOp33
 70
     1
102
RTVSPost2010Prop34
280
     0
102
RTVSPost2010PropOp34
 70
     1
102
RTVSPost2010Prop35
280
     0
102
RTVSPost2010PropOp35
 70
     1
102
RTVSPost2010Prop36
280
     0
102
RTVSPost2010PropOp36
 70
     1
102
RTVSPost2010Prop37
 90
       50
102
RTVSPost2010PropOp37
 70
     1
102
RTVSPost2010Prop38
140
0.0
102
RTVSPost2010PropOp38
 70
     1
102
RTVSPost2010Prop39
140
1.0
102
RTVSPost2010PropOp39
 70
     1
102
RTVSPost2010Prop40
 90
        0
102
RTVSPost2010PropOp40
 70
     1
102
RTVSPost2010Prop41ColorIndex
 90
       18
102
RTVSPost2010Prop41ColorRGB
 90
        0
102
RTVSPost2010PropOp41
 70
     1
102
RTVSPost2010Prop42
 90
       50
102
RTVSPost2010PropOp42
 70
     1
102
RTVSPost2010Prop43
 90
        3
102
RTVSPost2010PropOp43
 70
     1
102
RTVSPost2010Prop44ColorIndex
 90
        5
102
RTVSPost2010Prop44ColorRGB
 90
      255
102
RTVSPost2010PropOp44
 70
     1
102
RTVSPost2010Prop45
280
     0
102
RTVSPost2010PropOp45
 70
     1
102
RTVSPost2010Prop46
 90
       50
102
RTVSPost2010PropOp46
 70
     1
102
RTVSPost2010Prop47
 90
       50
102
RTVSPost2010PropOp47
 70
     1
102
RTVSPost2010Prop48
 90
       50
102
RTVSPost2010PropOp48
 70
     1
102
RTVSPost2010Prop49
280
     0
102
RTVSPost2010PropOp49
 70
     1
102
RTVSPost2010Prop50
 90
       50
102
RTVSPost2010PropOp50
 70
     1
102
RTVSPost2010Prop51ColorIndex
 90
      256
102
RTVSPost2010Prop51ColorRGB
 90
-16777216
102
RTVSPost2010PropOp51
 70
     0
102
RTVSPost2010Prop52
140
1.0
102
RTVSPost2010PropOp52
 70
     0
102
RTVSPost2010Prop53
 90
        2
102
RTVSPost2010PropOp53
 70
     1
102
RTVSPost2010Prop54
  1
strokes_ogs.tif
102
RTVSPost2010PropOp54
 70
     1
102
RTVSPost2010Prop55
280
     0
102
RTVSPost2010PropOp55
 70
     1
102
RTVSPost2010Prop56
140
1.0
102
RTVSPost2010PropOp56
 70
     1
102
RTVSPost2010Prop57
140
1.0
102
RTVSPost2010PropOp57
 70
     1
  0
XRECORD
  5
14C
102
{ACAD_REACTORS
330
14B
102
}
330
14B
100
AcDbXrecord
280
     1
102
RTVSPost2010Prop28
280
     0
102
RTVSPost2010PropOp28
 70
     0
102
RTVSPost2010Prop29
280
     1
102
RTVSPost2010PropOp29
 70
     0
102
RTVSPost2010Prop30
280
     1
102
RTVSPost2010PropOp30
 70
     0
102
RTVSPost2010Prop31
280
     0
102
RTVSPost2010PropOp31
 70
     0
102
RTVSPost2010Prop32
280
     0
102
RTVSPost2010PropOp32
 70
     0
102
RTVSPost2010Prop33
280
     0
102
RTVSPost2010PropOp33
 70
     0
102
RTVSPost2010Prop34
280
     0
102
RTVSPost2010PropOp34
 70
     0
102
RTVSPost2010Prop35
280
     0
102
RTVSPost2010PropOp35
 70
     0
102
RTVSPost2010Prop36
280
     0
102
RTVSPost2010PropOp36
 70
     0
102
RTVSPost2010Prop37
 90
       50
102
RTVSPost2010PropOp37
 70
     0
102
RTVSPost2010Prop38
140
0.0
102
RTVSPost2010PropOp38
 70
     0
102
RTVSPost2010Prop39
140
1.0
102
RTVSPost2010PropOp39
 70
     0
102
RTVSPost2010Prop40
 90
        0
102
RTVSPost2010PropOp40
 70
     0
102
RTVSPost2010Prop41ColorIndex
 90
       18
102
RTVSPost2010Prop41ColorRGB
 90
        0
102
RTVSPost2010PropOp41
 70
     0
102
RTVSPost2010Prop42
 90
       50
102
RTVSPost2010PropOp42
 70
     0
102
RTVSPost2010Prop43
 90
        3
102
RTVSPost2010PropOp43
 70
     0
102
RTVSPost2010Prop44ColorIndex
 90
        5
102
RTVSPost2010Prop44ColorRGB
 90
      255
102
RTVSPost2010PropOp44
 70
     0
102
RTVSPost2010Prop45
280
     0
102
RTVSPost2010PropOp45
 70
     0
102
RTVSPost2010Prop46
 90
       50
102
RTVSPost2010PropOp46
 70
     0
102
RTVSPost2010Prop47
 90
       50
102
RTVSPost2010PropOp47
 70
     0
102
RTVSPost2010Prop48
 90
       50
102
RTVSPost2010PropOp48
 70
     0
102
RTVSPost2010Prop49
280
     0
102
RTVSPost2010PropOp49
 70
     0
102
RTVSPost2010Prop50
 90
       50
102
RTVSPost2010PropOp50
 70
     0
102
RTVSPost2010Prop51ColorIndex
 90
      256
102
RTVSPost2010Prop51ColorRGB
 90
-16777216
102
RTVSPost2010PropOp51
 70
     0
102
RTVSPost2010Prop52
140
1.0
102
RTVSPost2010PropOp52
 70
     0
102
RTVSPost2010Prop53
 90
        2
102
RTVSPost2010PropOp53
 70
     0
102
RTVSPost2010Prop54
  1
strokes_ogs.tif
102
RTVSPost2010PropOp54
 70
     0
102
RTVSPost2010Prop55
280
     0
102
RTVSPost2010PropOp55
 70
     0
102
RTVSPost2010Prop56
140
1.0
102
RTVSPost2010PropOp56
 70
     0
102
RTVSPost2010Prop57
140
1.0
102
RTVSPost2010PropOp57
 70
     0
  0
XRECORD
  5
13A
102
{ACAD_REACTORS
330
139
102
}
330
139
100
AcDbXrecord
280
     1
102
RTVSPost2010Prop28
280
     0
102
RTVSPost2010PropOp28
 70
     1
102
RTVSPost2010Prop29
280
     1
102
RTVSPost2010PropOp29
 70
     1
102
RTVSPost2010Prop30
280
     1
102
RTVSPost2010PropOp30
 70
     1
102
RTVSPost2010Prop31
280
     0
102
RTVSPost2010PropOp31
 70
     1
102
RTVSPost2010Prop32
280
     0
102
RTVSPost2010PropOp32
 70
     1
102
RTVSPost2010Prop33
280
     0
102
RTVSPost2010PropOp33
 70
     1
102
RTVSPost2010Prop34
280
     0
102
RTVSPost2010PropOp34
 70
     1
102
RTVSPost2010Prop35
280
     0
102
RTVSPost2010PropOp35
 70
     1
102
RTVSPost2010Prop36
280
     0
102
RTVSPost2010PropOp36
 70
     1
102
RTVSPost2010Prop37
 90
       50
102
RTVSPost2010PropOp37
 70
     1
102
RTVSPost2010Prop38
140
0.0
102
RTVSPost2010PropOp38
 70
     1
102
RTVSPost2010Prop39
140
1.0
102
RTVSPost2010PropOp39
 70
     1
102
RTVSPost2010Prop40
 90
        0
102
RTVSPost2010PropOp40
 70
     1
102
RTVSPost2010Prop41ColorIndex
 90
       18
102
RTVSPost2010Prop41ColorRGB
 90
        0
102
RTVSPost2010PropOp41
 70
     1
102
RTVSPost2010Prop42
 90
       50
102
RTVSPost2010PropOp42
 70
     1
102
RTVSPost2010Prop43
 90
        3
102
RTVSPost2010PropOp43
 70
     1
102
RTVSPost2010Prop44ColorIndex
 90
        5
102
RTVSPost2010Prop44ColorRGB
 90
      255
102
RTVSPost2010PropOp44
 70
     1
102
RTVSPost2010Prop45
280
     0
102
RTVSPost2010PropOp45
 70
     1
102
RTVSPost2010Prop46
 90
       50
102
RTVSPost2010PropOp46
 70
     1
102
RTVSPost2010Prop47
 90
       50
102
RTVSPost2010PropOp47
 70
     1
102
RTVSPost2010Prop48
 90
       50
102
RTVSPost2010PropOp48
 70
     1
102
RTVSPost2010Prop49
280
     0
102
RTVSPost2010PropOp49
 70
     1
102
RTVSPost2010Prop50
 90
       50
102
RTVSPost2010PropOp50
 70
     1
102
RTVSPost2010Prop51ColorIndex
 90
      256
102
RTVSPost2010Prop51ColorRGB
 90
-16777216
102
RTVSPost2010PropOp51
 70
     0
102
RTVSPost2010Prop52
140
1.0
102
RTVSPost2010PropOp52
 70
     0
102
RTVSPost2010Prop53
 90
        2
102
RTVSPost2010PropOp53
 70
     1
102
RTVSPost2010Prop54
  1
strokes_ogs.tif
102
RTVSPost2010PropOp54
 70
     1
102
RTVSPost2010Prop55
280
     0
102
RTVSPost2010PropOp55
 70
     1
102
RTVSPost2010Prop56
140
1.0
102
RTVSPost2010PropOp56
 70
     1
102
RTVSPost2010Prop57
140
1.0
102
RTVSPost2010PropOp57
 70
     1
  0
XRECORD
  5
11E
102
{ACAD_REACTORS
330
11D
102
}
330
11D
100
AcDbXrecord
280
     1
102
RTVSPost2010Prop28
280
     0
102
RTVSPost2010PropOp28
 70
     1
102
RTVSPost2010Prop29
280
     1
102
RTVSPost2010PropOp29
 70
     1
102
RTVSPost2010Prop30
280
     1
102
RTVSPost2010PropOp30
 70
     1
102
RTVSPost2010Prop31
280
     0
102
RTVSPost2010PropOp31
 70
     1
102
RTVSPost2010Prop32
280
     0
102
RTVSPost2010PropOp32
 70
     1
102
RTVSPost2010Prop33
280
     0
102
RTVSPost2010PropOp33
 70
     1
102
RTVSPost2010Prop34
280
     0
102
RTVSPost2010PropOp34
 70
     1
102
RTVSPost2010Prop35
280
     0
102
RTVSPost2010PropOp35
 70
     1
102
RTVSPost2010Prop36
280
     0
102
RTVSPost2010PropOp36
 70
     1
102
RTVSPost2010Prop37
 90
       50
102
RTVSPost2010PropOp37
 70
     1
102
RTVSPost2010Prop38
140
0.0
102
RTVSPost2010PropOp38
 70
     1
102
RTVSPost2010Prop39
140
1.0
102
RTVSPost2010PropOp39
 70
     1
102
RTVSPost2010Prop40
 90
        0
102
RTVSPost2010PropOp40
 70
     1
102
RTVSPost2010Prop41ColorIndex
 90
       18
102
RTVSPost2010Prop41ColorRGB
 90
        0
102
RTVSPost2010PropOp41
 70
     1
102
RTVSPost2010Prop42
 90
       50
102
RTVSPost2010PropOp42
 70
     1
102
RTVSPost2010Prop43
 90
        3
102
RTVSPost2010PropOp43
 70
     1
102
RTVSPost2010Prop44ColorIndex
 90
        5
102
RTVSPost2010Prop44ColorRGB
 90
      255
102
RTVSPost2010PropOp44
 70
     1
102
RTVSPost2010Prop45
280
     0
102
RTVSPost2010PropOp45
 70
     1
102
RTVSPost2010Prop46
 90
       50
102
RTVSPost2010PropOp46
 70
     1
102
RTVSPost2010Prop47
 90
       50
102
RTVSPost2010PropOp47
 70
     1
102
RTVSPost2010Prop48
 90
       50
102
RTVSPost2010PropOp48
 70
     1
102
RTVSPost2010Prop49
280
     0
102
RTVSPost2010PropOp49
 70
     1
102
RTVSPost2010Prop50
 90
       50
102
RTVSPost2010PropOp50
 70
     1
102
RTVSPost2010Prop51ColorIndex
 90
      256
102
RTVSPost2010Prop51ColorRGB
 90
-16777216
102
RTVSPost2010PropOp51
 70
     0
102
RTVSPost2010Prop52
140
1.0
102
RTVSPost2010PropOp52
 70
     0
102
RTVSPost2010Prop53
 90
        2
102
RTVSPost2010PropOp53
 70
     1
102
RTVSPost2010Prop54
  1
strokes_ogs.tif
102
RTVSPost2010PropOp54
 70
     1
102
RTVSPost2010Prop55
280
     0
102
RTVSPost2010PropOp55
 70
     1
102
RTVSPost2010Prop56
140
1.0
102
RTVSPost2010PropOp56
 70
     1
102
RTVSPost2010Prop57
140
1.0
102
RTVSPost2010PropOp57
 70
     1
  0
XRECORD
  5
120
102
{ACAD_REACTORS
330
11F
102
}
330
11F
100
AcDbXrecord
280
     1
102
RTVSPost2010Prop28
280
     0
102
RTVSPost2010PropOp28
 70
     1
102
RTVSPost2010Prop29
280
     1
102
RTVSPost2010PropOp29
 70
     1
102
RTVSPost2010Prop30
280
     1
102
RTVSPost2010PropOp30
 70
     1
102
RTVSPost2010Prop31
280
     0
102
RTVSPost2010PropOp31
 70
     1
102
RTVSPost2010Prop32
280
     0
102
RTVSPost2010PropOp32
 70
     1
102
RTVSPost2010Prop33
280
     0
102
RTVSPost2010PropOp33
 70
     1
102
RTVSPost2010Prop34
280
     0
102
RTVSPost2010PropOp34
 70
     1
102
RTVSPost2010Prop35
280
     0
102
RTVSPost2010PropOp35
 70
     1
102
RTVSPost2010Prop36
280
     0
102
RTVSPost2010PropOp36
 70
     1
102
RTVSPost2010Prop37
 90
       50
102
RTVSPost2010PropOp37
 70
     1
102
RTVSPost2010Prop38
140
0.0
102
RTVSPost2010PropOp38
 70
     1
102
RTVSPost2010Prop39
140
1.0
102
RTVSPost2010PropOp39
 70
     1
102
RTVSPost2010Prop40
 90
        0
102
RTVSPost2010PropOp40
 70
     1
102
RTVSPost2010Prop41ColorIndex
 90
       18
102
RTVSPost2010Prop41ColorRGB
 90
        0
102
RTVSPost2010PropOp41
 70
     1
102
RTVSPost2010Prop42
 90
       50
102
RTVSPost2010PropOp42
 70
     1
102
RTVSPost2010Prop43
 90
        3
102
RTVSPost2010PropOp43
 70
     1
102
RTVSPost2010Prop44ColorIndex
 90
        5
102
RTVSPost2010Prop44ColorRGB
 90
      255
102
RTVSPost2010PropOp44
 70
     1
102
RTVSPost2010Prop45
280
     0
102
RTVSPost2010PropOp45
 70
     1
102
RTVSPost2010Prop46
 90
       50
102
RTVSPost2010PropOp46
 70
     1
102
RTVSPost2010Prop47
 90
       50
102
RTVSPost2010PropOp47
 70
     1
102
RTVSPost2010Prop48
 90
       50
102
RTVSPost2010PropOp48
 70
     1
102
RTVSPost2010Prop49
280
     0
102
RTVSPost2010PropOp49
 70
     1
102
RTVSPost2010Prop50
 90
       50
102
RTVSPost2010PropOp50
 70
     1
102
RTVSPost2010Prop51ColorIndex
 90
      256
102
RTVSPost2010Prop51ColorRGB
 90
-16777216
102
RTVSPost2010PropOp51
 70
     0
102
RTVSPost2010Prop52
140
1.0
102
RTVSPost2010PropOp52
 70
     0
102
RTVSPost2010Prop53
 90
        2
102
RTVSPost2010PropOp53
 70
     1
102
RTVSPost2010Prop54
  1
strokes_ogs.tif
102
RTVSPost2010PropOp54
 70
     1
102
RTVSPost2010Prop55
280
     0
102
RTVSPost2010PropOp55
 70
     1
102
RTVSPost2010Prop56
140
1.0
102
RTVSPost2010PropOp56
 70
     1
102
RTVSPost2010Prop57
140
1.0
102
RTVSPost2010PropOp57
 70
     1
  0
XRECORD
  5
122
102
{ACAD_REACTORS
330
121
102
}
330
121
100
AcDbXrecord
280
     1
102
RTVSPost2010Prop28
280
     0
102
RTVSPost2010PropOp28
 70
     1
102
RTVSPost2010Prop29
280
     1
102
RTVSPost2010PropOp29
 70
     1
102
RTVSPost2010Prop30
280
     1
102
RTVSPost2010PropOp30
 70
     1
102
RTVSPost2010Prop31
280
     0
102
RTVSPost2010PropOp31
 70
     1
102
RTVSPost2010Prop32
280
     0
102
RTVSPost2010PropOp32
 70
     1
102
RTVSPost2010Prop33
280
     0
102
RTVSPost2010PropOp33
 70
     1
102
RTVSPost2010Prop34
280
     0
102
RTVSPost2010PropOp34
 70
     1
102
RTVSPost2010Prop35
280
     0
102
RTVSPost2010PropOp35
 70
     1
102
RTVSPost2010Prop36
280
     0
102
RTVSPost2010PropOp36
 70
     1
102
RTVSPost2010Prop37
 90
       50
102
RTVSPost2010PropOp37
 70
     1
102
RTVSPost2010Prop38
140
0.0
102
RTVSPost2010PropOp38
 70
     1
102
RTVSPost2010Prop39
140
1.0
102
RTVSPost2010PropOp39
 70
     1
102
RTVSPost2010Prop40
 90
        0
102
RTVSPost2010PropOp40
 70
     1
102
RTVSPost2010Prop41ColorIndex
 90
       18
102
RTVSPost2010Prop41ColorRGB
 90
        0
102
RTVSPost2010PropOp41
 70
     1
102
RTVSPost2010Prop42
 90
       50
102
RTVSPost2010PropOp42
 70
     1
102
RTVSPost2010Prop43
 90
        3
102
RTVSPost2010PropOp43
 70
     1
102
RTVSPost2010Prop44ColorIndex
 90
        5
102
RTVSPost2010Prop44ColorRGB
 90
      255
102
RTVSPost2010PropOp44
 70
     1
102
RTVSPost2010Prop45
280
     0
102
RTVSPost2010PropOp45
 70
     1
102
RTVSPost2010Prop46
 90
       50
102
RTVSPost2010PropOp46
 70
     1
102
RTVSPost2010Prop47
 90
       50
102
RTVSPost2010PropOp47
 70
     1
102
RTVSPost2010Prop48
 90
       50
102
RTVSPost2010PropOp48
 70
     1
102
RTVSPost2010Prop49
280
     0
102
RTVSPost2010PropOp49
 70
     1
102
RTVSPost2010Prop50
 90
       50
102
RTVSPost2010PropOp50
 70
     1
102
RTVSPost2010Prop51ColorIndex
 90
      256
102
RTVSPost2010Prop51ColorRGB
 90
-16777216
102
RTVSPost2010PropOp51
 70
     0
102
RTVSPost2010Prop52
140
1.0
102
RTVSPost2010PropOp52
 70
     0
102
RTVSPost2010Prop53
 90
        2
102
RTVSPost2010PropOp53
 70
     1
102
RTVSPost2010Prop54
  1
strokes_ogs.tif
102
RTVSPost2010PropOp54
 70
     1
102
RTVSPost2010Prop55
280
     0
102
RTVSPost2010PropOp55
 70
     1
102
RTVSPost2010Prop56
140
1.0
102
RTVSPost2010PropOp56
 70
     1
102
RTVSPost2010Prop57
140
1.0
102
RTVSPost2010PropOp57
 70
     1
  0
XRECORD
  5
124
102
{ACAD_REACTORS
330
123
102
}
330
123
100
AcDbXrecord
280
     1
102
RTVSPost2010Prop28
280
     0
102
RTVSPost2010PropOp28
 70
     1
102
RTVSPost2010Prop29
280
     1
102
RTVSPost2010PropOp29
 70
     1
102
RTVSPost2010Prop30
280
     1
102
RTVSPost2010PropOp30
 70
     1
102
RTVSPost2010Prop31
280
     0
102
RTVSPost2010PropOp31
 70
     1
102
RTVSPost2010Prop32
280
     0
102
RTVSPost2010PropOp32
 70
     1
102
RTVSPost2010Prop33
280
     0
102
RTVSPost2010PropOp33
 70
     1
102
RTVSPost2010Prop34
280
     0
102
RTVSPost2010PropOp34
 70
     1
102
RTVSPost2010Prop35
280
     0
102
RTVSPost2010PropOp35
 70
     1
102
RTVSPost2010Prop36
280
     0
102
RTVSPost2010PropOp36
 70
     1
102
RTVSPost2010Prop37
 90
       50
102
RTVSPost2010PropOp37
 70
     1
102
RTVSPost2010Prop38
140
0.0
102
RTVSPost2010PropOp38
 70
     1
102
RTVSPost2010Prop39
140
1.0
102
RTVSPost2010PropOp39
 70
     1
102
RTVSPost2010Prop40
 90
        0
102
RTVSPost2010PropOp40
 70
     1
102
RTVSPost2010Prop41ColorIndex
 90
       18
102
RTVSPost2010Prop41ColorRGB
 90
        0
102
RTVSPost2010PropOp41
 70
     1
102
RTVSPost2010Prop42
 90
       50
102
RTVSPost2010PropOp42
 70
     1
102
RTVSPost2010Prop43
 90
        3
102
RTVSPost2010PropOp43
 70
     1
102
RTVSPost2010Prop44ColorIndex
 90
        5
102
RTVSPost2010Prop44ColorRGB
 90
      255
102
RTVSPost2010PropOp44
 70
     1
102
RTVSPost2010Prop45
280
     0
102
RTVSPost2010PropOp45
 70
     1
102
RTVSPost2010Prop46
 90
       50
102
RTVSPost2010PropOp46
 70
     1
102
RTVSPost2010Prop47
 90
       50
102
RTVSPost2010PropOp47
 70
     1
102
RTVSPost2010Prop48
 90
       50
102
RTVSPost2010PropOp48
 70
     1
102
RTVSPost2010Prop49
280
     0
102
RTVSPost2010PropOp49
 70
     1
102
RTVSPost2010Prop50
 90
       50
102
RTVSPost2010PropOp50
 70
     1
102
RTVSPost2010Prop51ColorIndex
 90
      256
102
RTVSPost2010Prop51ColorRGB
 90
-16777216
102
RTVSPost2010PropOp51
 70
     0
102
RTVSPost2010Prop52
140
1.0
102
RTVSPost2010PropOp52
 70
     0
102
RTVSPost2010Prop53
 90
        2
102
RTVSPost2010PropOp53
 70
     1
102
RTVSPost2010Prop54
  1
strokes_ogs.tif
102
RTVSPost2010PropOp54
 70
     1
102
RTVSPost2010Prop55
280
     0
102
RTVSPost2010PropOp55
 70
     1
102
RTVSPost2010Prop56
140
1.0
102
RTVSPost2010PropOp56
 70
     1
102
RTVSPost2010Prop57
140
1.0
102
RTVSPost2010PropOp57
 70
     1
  0
XRECORD
  5
12C
102
{ACAD_REACTORS
330
12B
102
}
330
12B
100
AcDbXrecord
280
     1
102
RTVSPost2010Prop28
280
     0
102
RTVSPost2010PropOp28
 70
     1
102
RTVSPost2010Prop29
280
     1
102
RTVSPost2010PropOp29
 70
     1
102
RTVSPost2010Prop30
280
     1
102
RTVSPost2010PropOp30
 70
     1
102
RTVSPost2010Prop31
280
     0
102
RTVSPost2010PropOp31
 70
     1
102
RTVSPost2010Prop32
280
     0
102
RTVSPost2010PropOp32
 70
     1
102
RTVSPost2010Prop33
280
     0
102
RTVSPost2010PropOp33
 70
     1
102
RTVSPost2010Prop34
280
     0
102
RTVSPost2010PropOp34
 70
     1
102
RTVSPost2010Prop35
280
     0
102
RTVSPost2010PropOp35
 70
     1
102
RTVSPost2010Prop36
280
     0
102
RTVSPost2010PropOp36
 70
     1
102
RTVSPost2010Prop37
 90
       50
102
RTVSPost2010PropOp37
 70
     1
102
RTVSPost2010Prop38
140
0.0
102
RTVSPost2010PropOp38
 70
     1
102
RTVSPost2010Prop39
140
1.0
102
RTVSPost2010PropOp39
 70
     1
102
RTVSPost2010Prop40
 90
        0
102
RTVSPost2010PropOp40
 70
     1
102
RTVSPost2010Prop41ColorIndex
 90
       18
102
RTVSPost2010Prop41ColorRGB
 90
        0
102
RTVSPost2010PropOp41
 70
     1
102
RTVSPost2010Prop42
 90
       50
102
RTVSPost2010PropOp42
 70
     1
102
RTVSPost2010Prop43
 90
        3
102
RTVSPost2010PropOp43
 70
     1
102
RTVSPost2010Prop44ColorIndex
 90
        5
102
RTVSPost2010Prop44ColorRGB
 90
      255
102
RTVSPost2010PropOp44
 70
     1
102
RTVSPost2010Prop45
280
     0
102
RTVSPost2010PropOp45
 70
     1
102
RTVSPost2010Prop46
 90
       50
102
RTVSPost2010PropOp46
 70
     1
102
RTVSPost2010Prop47
 90
       50
102
RTVSPost2010PropOp47
 70
     1
102
RTVSPost2010Prop48
 90
       50
102
RTVSPost2010PropOp48
 70
     1
102
RTVSPost2010Prop49
280
     0
102
RTVSPost2010PropOp49
 70
     1
102
RTVSPost2010Prop50
 90
       50
102
RTVSPost2010PropOp50
 70
     1
102
RTVSPost2010Prop51ColorIndex
 90
      256
102
RTVSPost2010Prop51ColorRGB
 90
-16777216
102
RTVSPost2010PropOp51
 70
     0
102
RTVSPost2010Prop52
140
1.0
102
RTVSPost2010PropOp52
 70
     0
102
RTVSPost2010Prop53
 90
        2
102
RTVSPost2010PropOp53
 70
     1
102
RTVSPost2010Prop54
  1
strokes_ogs.tif
102
RTVSPost2010PropOp54
 70
     1
102
RTVSPost2010Prop55
280
     0
102
RTVSPost2010PropOp55
 70
     1
102
RTVSPost2010Prop56
140
1.0
102
RTVSPost2010PropOp56
 70
     1
102
RTVSPost2010Prop57
140
1.0
102
RTVSPost2010PropOp57
 70
     1
  0
XRECORD
  5
148
102
{ACAD_REACTORS
330
147
102
}
330
147
100
AcDbXrecord
280
     1
102
RTVSPost2010Prop28
280
     0
102
RTVSPost2010PropOp28
 70
     0
102
RTVSPost2010Prop29
280
     1
102
RTVSPost2010PropOp29
 70
     0
102
RTVSPost2010Prop30
280
     1
102
RTVSPost2010PropOp30
 70
     0
102
RTVSPost2010Prop31
280
     0
102
RTVSPost2010PropOp31
 70
     0
102
RTVSPost2010Prop32
280
     0
102
RTVSPost2010PropOp32
 70
     0
102
RTVSPost2010Prop33
280
     0
102
RTVSPost2010PropOp33
 70
     0
102
RTVSPost2010Prop34
280
     0
102
RTVSPost2010PropOp34
 70
     0
102
RTVSPost2010Prop35
280
     0
102
RTVSPost2010PropOp35
 70
     0
102
RTVSPost2010Prop36
280
     0
102
RTVSPost2010PropOp36
 70
     0
102
RTVSPost2010Prop37
 90
       50
102
RTVSPost2010PropOp37
 70
     0
102
RTVSPost2010Prop38
140
0.0
102
RTVSPost2010PropOp38
 70
     0
102
RTVSPost2010Prop39
140
1.0
102
RTVSPost2010PropOp39
 70
     0
102
RTVSPost2010Prop40
 90
        0
102
RTVSPost2010PropOp40
 70
     0
102
RTVSPost2010Prop41ColorIndex
 90
       18
102
RTVSPost2010Prop41ColorRGB
 90
        0
102
RTVSPost2010PropOp41
 70
     0
102
RTVSPost2010Prop42
 90
       50
102
RTVSPost2010PropOp42
 70
     0
102
RTVSPost2010Prop43
 90
        3
102
RTVSPost2010PropOp43
 70
     0
102
RTVSPost2010Prop44ColorIndex
 90
        5
102
RTVSPost2010Prop44ColorRGB
 90
      255
102
RTVSPost2010PropOp44
 70
     0
102
RTVSPost2010Prop45
280
     0
102
RTVSPost2010PropOp45
 70
     0
102
RTVSPost2010Prop46
 90
       50
102
RTVSPost2010PropOp46
 70
     0
102
RTVSPost2010Prop47
 90
       50
102
RTVSPost2010PropOp47
 70
     0
102
RTVSPost2010Prop48
 90
       50
102
RTVSPost2010PropOp48
 70
     0
102
RTVSPost2010Prop49
280
     0
102
RTVSPost2010PropOp49
 70
     0
102
RTVSPost2010Prop50
 90
       50
102
RTVSPost2010PropOp50
 70
     0
102
RTVSPost2010Prop51ColorIndex
 90
      256
102
RTVSPost2010Prop51ColorRGB
 90
-16777216
102
RTVSPost2010PropOp51
 70
     0
102
RTVSPost2010Prop52
140
1.0
102
RTVSPost2010PropOp52
 70
     0
102
RTVSPost2010Prop53
 90
        2
102
RTVSPost2010PropOp53
 70
     0
102
RTVSPost2010Prop54
  1
strokes_ogs.tif
102
RTVSPost2010PropOp54
 70
     0
102
RTVSPost2010Prop55
280
     0
102
RTVSPost2010PropOp55
 70
     0
102
RTVSPost2010Prop56
140
1.0
102
RTVSPost2010PropOp56
 70
     0
102
RTVSPost2010Prop57
140
1.0
102
RTVSPost2010PropOp57
 70
     0
  0
XRECORD
  5
138
102
{ACAD_REACTORS
330
137
102
}
330
137
100
AcDbXrecord
280
     1
102
RTVSPost2010Prop28
280
     0
102
RTVSPost2010PropOp28
 70
     1
102
RTVSPost2010Prop29
280
     1
102
RTVSPost2010PropOp29
 70
     1
102
RTVSPost2010Prop30
280
     1
102
RTVSPost2010PropOp30
 70
     1
102
RTVSPost2010Prop31
280
     0
102
RTVSPost2010PropOp31
 70
     1
102
RTVSPost2010Prop32
280
     0
102
RTVSPost2010PropOp32
 70
     1
102
RTVSPost2010Prop33
280
     0
102
RTVSPost2010PropOp33
 70
     1
102
RTVSPost2010Prop34
280
     0
102
RTVSPost2010PropOp34
 70
     1
102
RTVSPost2010Prop35
280
     0
102
RTVSPost2010PropOp35
 70
     1
102
RTVSPost2010Prop36
280
     0
102
RTVSPost2010PropOp36
 70
     1
102
RTVSPost2010Prop37
 90
       50
102
RTVSPost2010PropOp37
 70
     1
102
RTVSPost2010Prop38
140
0.0
102
RTVSPost2010PropOp38
 70
     1
102
RTVSPost2010Prop39
140
1.0
102
RTVSPost2010PropOp39
 70
     1
102
RTVSPost2010Prop40
 90
        0
102
RTVSPost2010PropOp40
 70
     1
102
RTVSPost2010Prop41ColorIndex
 90
       18
102
RTVSPost2010Prop41ColorRGB
 90
        0
102
RTVSPost2010PropOp41
 70
     1
102
RTVSPost2010Prop42
 90
       50
102
RTVSPost2010PropOp42
 70
     1
102
RTVSPost2010Prop43
 90
        3
102
RTVSPost2010PropOp43
 70
     1
102
RTVSPost2010Prop44ColorIndex
 90
        5
102
RTVSPost2010Prop44ColorRGB
 90
      255
102
RTVSPost2010PropOp44
 70
     1
102
RTVSPost2010Prop45
280
     0
102
RTVSPost2010PropOp45
 70
     1
102
RTVSPost2010Prop46
 90
       50
102
RTVSPost2010PropOp46
 70
     1
102
RTVSPost2010Prop47
 90
       50
102
RTVSPost2010PropOp47
 70
     1
102
RTVSPost2010Prop48
 90
       50
102
RTVSPost2010PropOp48
 70
     1
102
RTVSPost2010Prop49
280
     0
102
RTVSPost2010PropOp49
 70
     1
102
RTVSPost2010Prop50
 90
       50
102
RTVSPost2010PropOp50
 70
     1
102
RTVSPost2010Prop51ColorIndex
 90
      256
102
RTVSPost2010Prop51ColorRGB
 90
-16777216
102
RTVSPost2010PropOp51
 70
     0
102
RTVSPost2010Prop52
140
1.0
102
RTVSPost2010PropOp52
 70
     0
102
RTVSPost2010Prop53
 90
        2
102
RTVSPost2010PropOp53
 70
     1
102
RTVSPost2010Prop54
  1
strokes_ogs.tif
102
RTVSPost2010PropOp54
 70
     1
102
RTVSPost2010Prop55
280
     0
102
RTVSPost2010PropOp55
 70
     1
102
RTVSPost2010Prop56
140
1.0
102
RTVSPost2010PropOp56
 70
     1
102
RTVSPost2010Prop57
140
1.0
102
RTVSPost2010PropOp57
 70
     1
  0
XRECORD
  5
14A
102
{ACAD_REACTORS
330
149
102
}
330
149
100
AcDbXrecord
280
     1
102
RTVSPost2010Prop28
280
     0
102
RTVSPost2010PropOp28
 70
     0
102
RTVSPost2010Prop29
280
     1
102
RTVSPost2010PropOp29
 70
     0
102
RTVSPost2010Prop30
280
     1
102
RTVSPost2010PropOp30
 70
     0
102
RTVSPost2010Prop31
280
     0
102
RTVSPost2010PropOp31
 70
     0
102
RTVSPost2010Prop32
280
     0
102
RTVSPost2010PropOp32
 70
     0
102
RTVSPost2010Prop33
280
     0
102
RTVSPost2010PropOp33
 70
     0
102
RTVSPost2010Prop34
280
     0
102
RTVSPost2010PropOp34
 70
     0
102
RTVSPost2010Prop35
280
     0
102
RTVSPost2010PropOp35
 70
     0
102
RTVSPost2010Prop36
280
     0
102
RTVSPost2010PropOp36
 70
     0
102
RTVSPost2010Prop37
 90
       50
102
RTVSPost2010PropOp37
 70
     0
102
RTVSPost2010Prop38
140
0.0
102
RTVSPost2010PropOp38
 70
     0
102
RTVSPost2010Prop39
140
1.0
102
RTVSPost2010PropOp39
 70
     0
102
RTVSPost2010Prop40
 90
        0
102
RTVSPost2010PropOp40
 70
     0
102
RTVSPost2010Prop41ColorIndex
 90
       18
102
RTVSPost2010Prop41ColorRGB
 90
        0
102
RTVSPost2010PropOp41
 70
     0
102
RTVSPost2010Prop42
 90
       50
102
RTVSPost2010PropOp42
 70
     0
102
RTVSPost2010Prop43
 90
        3
102
RTVSPost2010PropOp43
 70
     0
102
RTVSPost2010Prop44ColorIndex
 90
        5
102
RTVSPost2010Prop44ColorRGB
 90
      255
102
RTVSPost2010PropOp44
 70
     0
102
RTVSPost2010Prop45
280
     0
102
RTVSPost2010PropOp45
 70
     0
102
RTVSPost2010Prop46
 90
       50
102
RTVSPost2010PropOp46
 70
     0
102
RTVSPost2010Prop47
 90
       50
102
RTVSPost2010PropOp47
 70
     0
102
RTVSPost2010Prop48
 90
       50
102
RTVSPost2010PropOp48
 70
     0
102
RTVSPost2010Prop49
280
     0
102
RTVSPost2010PropOp49
 70
     0
102
RTVSPost2010Prop50
 90
       50
102
RTVSPost2010PropOp50
 70
     0
102
RTVSPost2010Prop51ColorIndex
 90
      256
102
RTVSPost2010Prop51ColorRGB
 90
-16777216
102
RTVSPost2010PropOp51
 70
     0
102
RTVSPost2010Prop52
140
1.0
102
RTVSPost2010PropOp52
 70
     0
102
RTVSPost2010Prop53
 90
        2
102
RTVSPost2010PropOp53
 70
     0
102
RTVSPost2010Prop54
  1
strokes_ogs.tif
102
RTVSPost2010PropOp54
 70
     0
102
RTVSPost2010Prop55
280
     0
102
RTVSPost2010PropOp55
 70
     0
102
RTVSPost2010Prop56
140
1.0
102
RTVSPost2010PropOp56
 70
     0
102
RTVSPost2010Prop57
140
1.0
102
RTVSPost2010PropOp57
 70
     0
  0
XRECORD
  5
130
102
{ACAD_REACTORS
330
12F
102
}
330
12F
100
AcDbXrecord
280
     1
102
RTVSPost2010Prop28
280
     0
102
RTVSPost2010PropOp28
 70
     1
102
RTVSPost2010Prop29
280
     1
102
RTVSPost2010PropOp29
 70
     1
102
RTVSPost2010Prop30
280
     1
102
RTVSPost2010PropOp30
 70
     1
102
RTVSPost2010Prop31
280
     0
102
RTVSPost2010PropOp31
 70
     1
102
RTVSPost2010Prop32
280
     0
102
RTVSPost2010PropOp32
 70
     1
102
RTVSPost2010Prop33
280
     0
102
RTVSPost2010PropOp33
 70
     1
102
RTVSPost2010Prop34
280
     0
102
RTVSPost2010PropOp34
 70
     1
102
RTVSPost2010Prop35
280
     0
102
RTVSPost2010PropOp35
 70
     1
102
RTVSPost2010Prop36
280
     0
102
RTVSPost2010PropOp36
 70
     1
102
RTVSPost2010Prop37
 90
       50
102
RTVSPost2010PropOp37
 70
     1
102
RTVSPost2010Prop38
140
0.0
102
RTVSPost2010PropOp38
 70
     1
102
RTVSPost2010Prop39
140
1.0
102
RTVSPost2010PropOp39
 70
     1
102
RTVSPost2010Prop40
 90
        0
102
RTVSPost2010PropOp40
 70
     1
102
RTVSPost2010Prop41ColorIndex
 90
       18
102
RTVSPost2010Prop41ColorRGB
 90
        0
102
RTVSPost2010PropOp41
 70
     1
102
RTVSPost2010Prop42
 90
       50
102
RTVSPost2010PropOp42
 70
     1
102
RTVSPost2010Prop43
 90
        3
102
RTVSPost2010PropOp43
 70
     1
102
RTVSPost2010Prop44ColorIndex
 90
        5
102
RTVSPost2010Prop44ColorRGB
 90
      255
102
RTVSPost2010PropOp44
 70
     1
102
RTVSPost2010Prop45
280
     0
102
RTVSPost2010PropOp45
 70
     1
102
RTVSPost2010Prop46
 90
       50
102
RTVSPost2010PropOp46
 70
     1
102
RTVSPost2010Prop47
 90
       50
102
RTVSPost2010PropOp47
 70
     1
102
RTVSPost2010Prop48
 90
       50
102
RTVSPost2010PropOp48
 70
     1
102
RTVSPost2010Prop49
280
     0
102
RTVSPost2010PropOp49
 70
     1
102
RTVSPost2010Prop50
 90
       50
102
RTVSPost2010PropOp50
 70
     1
102
RTVSPost2010Prop51ColorIndex
 90
      256
102
RTVSPost2010Prop51ColorRGB
 90
-16777216
102
RTVSPost2010PropOp51
 70
     0
102
RTVSPost2010Prop52
140
1.0
102
RTVSPost2010PropOp52
 70
     0
102
RTVSPost2010Prop53
 90
        2
102
RTVSPost2010PropOp53
 70
     1
102
RTVSPost2010Prop54
  1
strokes_ogs.tif
102
RTVSPost2010PropOp54
 70
     1
102
RTVSPost2010Prop55
280
     0
102
RTVSPost2010PropOp55
 70
     1
102
RTVSPost2010Prop56
140
1.0
102
RTVSPost2010PropOp56
 70
     1
102
RTVSPost2010Prop57
140
1.0
102
RTVSPost2010PropOp57
 70
     1
  0
XRECORD
  5
146
102
{ACAD_REACTORS
330
145
102
}
330
145
100
AcDbXrecord
280
     1
102
RTVSPost2010Prop28
280
     0
102
RTVSPost2010PropOp28
 70
     1
102
RTVSPost2010Prop29
280
     1
102
RTVSPost2010PropOp29
 70
     1
102
RTVSPost2010Prop30
280
     1
102
RTVSPost2010PropOp30
 70
     1
102
RTVSPost2010Prop31
280
     0
102
RTVSPost2010PropOp31
 70
     1
102
RTVSPost2010Prop32
280
     0
102
RTVSPost2010PropOp32
 70
     1
102
RTVSPost2010Prop33
280
     0
102
RTVSPost2010PropOp33
 70
     1
102
RTVSPost2010Prop34
280
     0
102
RTVSPost2010PropOp34
 70
     1
102
RTVSPost2010Prop35
280
     0
102
RTVSPost2010PropOp35
 70
     1
102
RTVSPost2010Prop36
280
     0
102
RTVSPost2010PropOp36
 70
     1
102
RTVSPost2010Prop37
 90
       50
102
RTVSPost2010PropOp37
 70
     1
102
RTVSPost2010Prop38
140
0.0
102
RTVSPost2010PropOp38
 70
     1
102
RTVSPost2010Prop39
140
1.0
102
RTVSPost2010PropOp39
 70
     1
102
RTVSPost2010Prop40
 90
        0
102
RTVSPost2010PropOp40
 70
     1
102
RTVSPost2010Prop41ColorIndex
 90
       18
102
RTVSPost2010Prop41ColorRGB
 90
        0
102
RTVSPost2010PropOp41
 70
     1
102
RTVSPost2010Prop42
 90
       50
102
RTVSPost2010PropOp42
 70
     1
102
RTVSPost2010Prop43
 90
        3
102
RTVSPost2010PropOp43
 70
     1
102
RTVSPost2010Prop44ColorIndex
 90
        5
102
RTVSPost2010Prop44ColorRGB
 90
      255
102
RTVSPost2010PropOp44
 70
     1
102
RTVSPost2010Prop45
280
     0
102
RTVSPost2010PropOp45
 70
     1
102
RTVSPost2010Prop46
 90
       50
102
RTVSPost2010PropOp46
 70
     1
102
RTVSPost2010Prop47
 90
       50
102
RTVSPost2010PropOp47
 70
     1
102
RTVSPost2010Prop48
 90
       50
102
RTVSPost2010PropOp48
 70
     1
102
RTVSPost2010Prop49
280
     0
102
RTVSPost2010PropOp49
 70
     1
102
RTVSPost2010Prop50
 90
       50
102
RTVSPost2010PropOp50
 70
     1
102
RTVSPost2010Prop51ColorIndex
 90
      256
102
RTVSPost2010Prop51ColorRGB
 90
-16777216
102
RTVSPost2010PropOp51
 70
     0
102
RTVSPost2010Prop52
140
1.0
102
RTVSPost2010PropOp52
 70
     0
102
RTVSPost2010Prop53
 90
        2
102
RTVSPost2010PropOp53
 70
     1
102
RTVSPost2010Prop54
  1
strokes_ogs.tif
102
RTVSPost2010PropOp54
 70
     1
102
RTVSPost2010Prop55
280
     0
102
RTVSPost2010PropOp55
 70
     1
102
RTVSPost2010Prop56
140
1.0
102
RTVSPost2010PropOp56
 70
     1
102
RTVSPost2010Prop57
140
1.0
102
RTVSPost2010PropOp57
 70
     1
  0
XRECORD
  5
144
102
{ACAD_REACTORS
330
143
102
}
330
143
100
AcDbXrecord
280
     1
102
RTVSPost2010Prop28
280
     0
102
RTVSPost2010PropOp28
 70
     1
102
RTVSPost2010Prop29
280
     1
102
RTVSPost2010PropOp29
 70
     1
102
RTVSPost2010Prop30
280
     1
102
RTVSPost2010PropOp30
 70
     1
102
RTVSPost2010Prop31
280
     0
102
RTVSPost2010PropOp31
 70
     1
102
RTVSPost2010Prop32
280
     0
102
RTVSPost2010PropOp32
 70
     1
102
RTVSPost2010Prop33
280
     0
102
RTVSPost2010PropOp33
 70
     1
102
RTVSPost2010Prop34
280
     0
102
RTVSPost2010PropOp34
 70
     1
102
RTVSPost2010Prop35
280
     0
102
RTVSPost2010PropOp35
 70
     1
102
RTVSPost2010Prop36
280
     0
102
RTVSPost2010PropOp36
 70
     1
102
RTVSPost2010Prop37
 90
       50
102
RTVSPost2010PropOp37
 70
     1
102
RTVSPost2010Prop38
140
0.0
102
RTVSPost2010PropOp38
 70
     1
102
RTVSPost2010Prop39
140
1.0
102
RTVSPost2010PropOp39
 70
     1
102
RTVSPost2010Prop40
 90
        0
102
RTVSPost2010PropOp40
 70
     1
102
RTVSPost2010Prop41ColorIndex
 90
       18
102
RTVSPost2010Prop41ColorRGB
 90
        0
102
RTVSPost2010PropOp41
 70
     1
102
RTVSPost2010Prop42
 90
       50
102
RTVSPost2010PropOp42
 70
     1
102
RTVSPost2010Prop43
 90
        3
102
RTVSPost2010PropOp43
 70
     1
102
RTVSPost2010Prop44ColorIndex
 90
        5
102
RTVSPost2010Prop44ColorRGB
 90
      255
102
RTVSPost2010PropOp44
 70
     1
102
RTVSPost2010Prop45
280
     0
102
RTVSPost2010PropOp45
 70
     1
102
RTVSPost2010Prop46
 90
       50
102
RTVSPost2010PropOp46
 70
     1
102
RTVSPost2010Prop47
 90
       50
102
RTVSPost2010PropOp47
 70
     1
102
RTVSPost2010Prop48
 90
       50
102
RTVSPost2010PropOp48
 70
     1
102
RTVSPost2010Prop49
280
     0
102
RTVSPost2010PropOp49
 70
     1
102
RTVSPost2010Prop50
 90
       50
102
RTVSPost2010PropOp50
 70
     1
102
RTVSPost2010Prop51ColorIndex
 90
      256
102
RTVSPost2010Prop51ColorRGB
 90
-16777216
102
RTVSPost2010PropOp51
 70
     0
102
RTVSPost2010Prop52
140
1.0
102
RTVSPost2010PropOp52
 70
     0
102
RTVSPost2010Prop53
 90
        2
102
RTVSPost2010PropOp53
 70
     1
102
RTVSPost2010Prop54
  1
strokes_ogs.tif
102
RTVSPost2010PropOp54
 70
     1
102
RTVSPost2010Prop55
280
     0
102
RTVSPost2010PropOp55
 70
     1
102
RTVSPost2010Prop56
140
1.0
102
RTVSPost2010PropOp56
 70
     1
102
RTVSPost2010Prop57
140
1.0
102
RTVSPost2010PropOp57
 70
     1
  0
XRECORD
  5
13E
102
{ACAD_REACTORS
330
13D
102
}
330
13D
100
AcDbXrecord
280
     1
102
RTVSPost2010Prop28
280
     0
102
RTVSPost2010PropOp28
 70
     1
102
RTVSPost2010Prop29
280
     1
102
RTVSPost2010PropOp29
 70
     1
102
RTVSPost2010Prop30
280
     1
102
RTVSPost2010PropOp30
 70
     1
102
RTVSPost2010Prop31
280
     0
102
RTVSPost2010PropOp31
 70
     1
102
RTVSPost2010Prop32
280
     0
102
RTVSPost2010PropOp32
 70
     1
102
RTVSPost2010Prop33
280
     0
102
RTVSPost2010PropOp33
 70
     1
102
RTVSPost2010Prop34
280
     0
102
RTVSPost2010PropOp34
 70
     1
102
RTVSPost2010Prop35
280
     0
102
RTVSPost2010PropOp35
 70
     1
102
RTVSPost2010Prop36
280
     0
102
RTVSPost2010PropOp36
 70
     1
102
RTVSPost2010Prop37
 90
       50
102
RTVSPost2010PropOp37
 70
     1
102
RTVSPost2010Prop38
140
0.0
102
RTVSPost2010PropOp38
 70
     1
102
RTVSPost2010Prop39
140
1.0
102
RTVSPost2010PropOp39
 70
     1
102
RTVSPost2010Prop40
 90
        0
102
RTVSPost2010PropOp40
 70
     1
102
RTVSPost2010Prop41ColorIndex
 90
       18
102
RTVSPost2010Prop41ColorRGB
 90
        0
102
RTVSPost2010PropOp41
 70
     1
102
RTVSPost2010Prop42
 90
       50
102
RTVSPost2010PropOp42
 70
     1
102
RTVSPost2010Prop43
 90
        3
102
RTVSPost2010PropOp43
 70
     1
102
RTVSPost2010Prop44ColorIndex
 90
        5
102
RTVSPost2010Prop44ColorRGB
 90
      255
102
RTVSPost2010PropOp44
 70
     1
102
RTVSPost2010Prop45
280
     0
102
RTVSPost2010PropOp45
 70
     1
102
RTVSPost2010Prop46
 90
       50
102
RTVSPost2010PropOp46
 70
     1
102
RTVSPost2010Prop47
 90
       50
102
RTVSPost2010PropOp47
 70
     1
102
RTVSPost2010Prop48
 90
       50
102
RTVSPost2010PropOp48
 70
     1
102
RTVSPost2010Prop49
280
     0
102
RTVSPost2010PropOp49
 70
     1
102
RTVSPost2010Prop50
 90
       50
102
RTVSPost2010PropOp50
 70
     1
102
RTVSPost2010Prop51ColorIndex
 90
      256
102
RTVSPost2010Prop51ColorRGB
 90
-16777216
102
RTVSPost2010PropOp51
 70
     0
102
RTVSPost2010Prop52
140
1.0
102
RTVSPost2010PropOp52
 70
     0
102
RTVSPost2010Prop53
 90
        2
102
RTVSPost2010PropOp53
 70
     1
102
RTVSPost2010Prop54
  1
strokes_ogs.tif
102
RTVSPost2010PropOp54
 70
     1
102
RTVSPost2010Prop55
280
     0
102
RTVSPost2010PropOp55
 70
     1
102
RTVSPost2010Prop56
140
1.0
102
RTVSPost2010PropOp56
 70
     1
102
RTVSPost2010Prop57
140
1.0
102
RTVSPost2010PropOp57
 70
     1
  0
XRECORD
  5
140
102
{ACAD_REACTORS
330
13F
102
}
330
13F
100
AcDbXrecord
280
     1
102
RTVSPost2010Prop28
280
     0
102
RTVSPost2010PropOp28
 70
     1
102
RTVSPost2010Prop29
280
     1
102
RTVSPost2010PropOp29
 70
     1
102
RTVSPost2010Prop30
280
     1
102
RTVSPost2010PropOp30
 70
     1
102
RTVSPost2010Prop31
280
     0
102
RTVSPost2010PropOp31
 70
     1
102
RTVSPost2010Prop32
280
     0
102
RTVSPost2010PropOp32
 70
     1
102
RTVSPost2010Prop33
280
     0
102
RTVSPost2010PropOp33
 70
     1
102
RTVSPost2010Prop34
280
     0
102
RTVSPost2010PropOp34
 70
     1
102
RTVSPost2010Prop35
280
     0
102
RTVSPost2010PropOp35
 70
     1
102
RTVSPost2010Prop36
280
     0
102
RTVSPost2010PropOp36
 70
     1
102
RTVSPost2010Prop37
 90
       50
102
RTVSPost2010PropOp37
 70
     1
102
RTVSPost2010Prop38
140
0.0
102
RTVSPost2010PropOp38
 70
     1
102
RTVSPost2010Prop39
140
1.0
102
RTVSPost2010PropOp39
 70
     1
102
RTVSPost2010Prop40
 90
        0
102
RTVSPost2010PropOp40
 70
     1
102
RTVSPost2010Prop41ColorIndex
 90
       18
102
RTVSPost2010Prop41ColorRGB
 90
        0
102
RTVSPost2010PropOp41
 70
     1
102
RTVSPost2010Prop42
 90
       50
102
RTVSPost2010PropOp42
 70
     1
102
RTVSPost2010Prop43
 90
        3
102
RTVSPost2010PropOp43
 70
     1
102
RTVSPost2010Prop44ColorIndex
 90
        5
102
RTVSPost2010Prop44ColorRGB
 90
      255
102
RTVSPost2010PropOp44
 70
     1
102
RTVSPost2010Prop45
280
     0
102
RTVSPost2010PropOp45
 70
     1
102
RTVSPost2010Prop46
 90
       50
102
RTVSPost2010PropOp46
 70
     1
102
RTVSPost2010Prop47
 90
       50
102
RTVSPost2010PropOp47
 70
     1
102
RTVSPost2010Prop48
 90
       50
102
RTVSPost2010PropOp48
 70
     1
102
RTVSPost2010Prop49
280
     0
102
RTVSPost2010PropOp49
 70
     1
102
RTVSPost2010Prop50
 90
       50
102
RTVSPost2010PropOp50
 70
     1
102
RTVSPost2010Prop51ColorIndex
 90
      256
102
RTVSPost2010Prop51ColorRGB
 90
-16777216
102
RTVSPost2010PropOp51
 70
     0
102
RTVSPost2010Prop52
140
1.0
102
RTVSPost2010PropOp52
 70
     0
102
RTVSPost2010Prop53
 90
        2
102
RTVSPost2010PropOp53
 70
     1
102
RTVSPost2010Prop54
  1
strokes_ogs.tif
102
RTVSPost2010PropOp54
 70
     1
102
RTVSPost2010Prop55
280
     0
102
RTVSPost2010PropOp55
 70
     1
102
RTVSPost2010Prop56
140
1.0
102
RTVSPost2010PropOp56
 70
     1
102
RTVSPost2010Prop57
140
1.0
102
RTVSPost2010PropOp57
 70
     1
  0
XRECORD
  5
136
102
{ACAD_REACTORS
330
135
102
}
330
135
100
AcDbXrecord
280
     1
102
RTVSPost2010Prop28
280
     0
102
RTVSPost2010PropOp28
 70
     1
102
RTVSPost2010Prop29
280
     1
102
RTVSPost2010PropOp29
 70
     1
102
RTVSPost2010Prop30
280
     1
102
RTVSPost2010PropOp30
 70
     1
102
RTVSPost2010Prop31
280
     0
102
RTVSPost2010PropOp31
 70
     1
102
RTVSPost2010Prop32
280
     0
102
RTVSPost2010PropOp32
 70
     1
102
RTVSPost2010Prop33
280
     0
102
RTVSPost2010PropOp33
 70
     1
102
RTVSPost2010Prop34
280
     0
102
RTVSPost2010PropOp34
 70
     1
102
RTVSPost2010Prop35
280
     0
102
RTVSPost2010PropOp35
 70
     1
102
RTVSPost2010Prop36
280
     0
102
RTVSPost2010PropOp36
 70
     1
102
RTVSPost2010Prop37
 90
       50
102
RTVSPost2010PropOp37
 70
     1
102
RTVSPost2010Prop38
140
0.0
102
RTVSPost2010PropOp38
 70
     1
102
RTVSPost2010Prop39
140
1.0
102
RTVSPost2010PropOp39
 70
     1
102
RTVSPost2010Prop40
 90
        0
102
RTVSPost2010PropOp40
 70
     1
102
RTVSPost2010Prop41ColorIndex
 90
       18
102
RTVSPost2010Prop41ColorRGB
 90
        0
102
RTVSPost2010PropOp41
 70
     1
102
RTVSPost2010Prop42
 90
       50
102
RTVSPost2010PropOp42
 70
     1
102
RTVSPost2010Prop43
 90
        3
102
RTVSPost2010PropOp43
 70
     1
102
RTVSPost2010Prop44ColorIndex
 90
        5
102
RTVSPost2010Prop44ColorRGB
 90
      255
102
RTVSPost2010PropOp44
 70
     1
102
RTVSPost2010Prop45
280
     0
102
RTVSPost2010PropOp45
 70
     1
102
RTVSPost2010Prop46
 90
       50
102
RTVSPost2010PropOp46
 70
     1
102
RTVSPost2010Prop47
 90
       50
102
RTVSPost2010PropOp47
 70
     1
102
RTVSPost2010Prop48
 90
       50
102
RTVSPost2010PropOp48
 70
     1
102
RTVSPost2010Prop49
280
     0
102
RTVSPost2010PropOp49
 70
     1
102
RTVSPost2010Prop50
 90
       50
102
RTVSPost2010PropOp50
 70
     1
102
RTVSPost2010Prop51ColorIndex
 90
      256
102
RTVSPost2010Prop51ColorRGB
 90
-16777216
102
RTVSPost2010PropOp51
 70
     0
102
RTVSPost2010Prop52
140
1.0
102
RTVSPost2010PropOp52
 70
     0
102
RTVSPost2010Prop53
 90
        2
102
RTVSPost2010PropOp53
 70
     1
102
RTVSPost2010Prop54
  1
strokes_ogs.tif
102
RTVSPost2010PropOp54
 70
     1
102
RTVSPost2010Prop55
280
     0
102
RTVSPost2010PropOp55
 70
     1
102
RTVSPost2010Prop56
140
1.0
102
RTVSPost2010PropOp56
 70
     1
102
RTVSPost2010Prop57
140
1.0
102
RTVSPost2010PropOp57
 70
     1
  0
XRECORD
  5
12A
102
{ACAD_REACTORS
330
129
102
}
330
129
100
AcDbXrecord
280
     1
102
RTVSPost2010Prop28
280
     0
102
RTVSPost2010PropOp28
 70
     1
102
RTVSPost2010Prop29
280
     1
102
RTVSPost2010PropOp29
 70
     1
102
RTVSPost2010Prop30
280
     1
102
RTVSPost2010PropOp30
 70
     1
102
RTVSPost2010Prop31
280
     0
102
RTVSPost2010PropOp31
 70
     1
102
RTVSPost2010Prop32
280
     0
102
RTVSPost2010PropOp32
 70
     1
102
RTVSPost2010Prop33
280
     0
102
RTVSPost2010PropOp33
 70
     1
102
RTVSPost2010Prop34
280
     0
102
RTVSPost2010PropOp34
 70
     1
102
RTVSPost2010Prop35
280
     0
102
RTVSPost2010PropOp35
 70
     1
102
RTVSPost2010Prop36
280
     0
102
RTVSPost2010PropOp36
 70
     1
102
RTVSPost2010Prop37
 90
       50
102
RTVSPost2010PropOp37
 70
     1
102
RTVSPost2010Prop38
140
0.0
102
RTVSPost2010PropOp38
 70
     1
102
RTVSPost2010Prop39
140
1.0
102
RTVSPost2010PropOp39
 70
     1
102
RTVSPost2010Prop40
 90
        0
102
RTVSPost2010PropOp40
 70
     1
102
RTVSPost2010Prop41ColorIndex
 90
       18
102
RTVSPost2010Prop41ColorRGB
 90
        0
102
RTVSPost2010PropOp41
 70
     1
102
RTVSPost2010Prop42
 90
       50
102
RTVSPost2010PropOp42
 70
     1
102
RTVSPost2010Prop43
 90
        3
102
RTVSPost2010PropOp43
 70
     1
102
RTVSPost2010Prop44ColorIndex
 90
        5
102
RTVSPost2010Prop44ColorRGB
 90
      255
102
RTVSPost2010PropOp44
 70
     1
102
RTVSPost2010Prop45
280
     0
102
RTVSPost2010PropOp45
 70
     1
102
RTVSPost2010Prop46
 90
       50
102
RTVSPost2010PropOp46
 70
     1
102
RTVSPost2010Prop47
 90
       50
102
RTVSPost2010PropOp47
 70
     1
102
RTVSPost2010Prop48
 90
       50
102
RTVSPost2010PropOp48
 70
     1
102
RTVSPost2010Prop49
280
     0
102
RTVSPost2010PropOp49
 70
     1
102
RTVSPost2010Prop50
 90
       50
102
RTVSPost2010PropOp50
 70
     1
102
RTVSPost2010Prop51ColorIndex
 90
      256
102
RTVSPost2010Prop51ColorRGB
 90
-16777216
102
RTVSPost2010PropOp51
 70
     0
102
RTVSPost2010Prop52
140
1.0
102
RTVSPost2010PropOp52
 70
     0
102
RTVSPost2010Prop53
 90
        2
102
RTVSPost2010PropOp53
 70
     1
102
RTVSPost2010Prop54
  1
strokes_ogs.tif
102
RTVSPost2010PropOp54
 70
     1
102
RTVSPost2010Prop55
280
     0
102
RTVSPost2010PropOp55
 70
     1
102
RTVSPost2010Prop56
140
1.0
102
RTVSPost2010PropOp56
 70
     1
102
RTVSPost2010Prop57
140
1.0
102
RTVSPost2010PropOp57
 70
     1
  0
XRECORD
  5
142
102
{ACAD_REACTORS
330
141
102
}
330
141
100
AcDbXrecord
280
     1
102
RTVSPost2010Prop28
280
     0
102
RTVSPost2010PropOp28
 70
     1
102
RTVSPost2010Prop29
280
     1
102
RTVSPost2010PropOp29
 70
     1
102
RTVSPost2010Prop30
280
     1
102
RTVSPost2010PropOp30
 70
     1
102
RTVSPost2010Prop31
280
     0
102
RTVSPost2010PropOp31
 70
     1
102
RTVSPost2010Prop32
280
     0
102
RTVSPost2010PropOp32
 70
     1
102
RTVSPost2010Prop33
280
     0
102
RTVSPost2010PropOp33
 70
     1
102
RTVSPost2010Prop34
280
     0
102
RTVSPost2010PropOp34
 70
     1
102
RTVSPost2010Prop35
280
     0
102
RTVSPost2010PropOp35
 70
     1
102
RTVSPost2010Prop36
280
     0
102
RTVSPost2010PropOp36
 70
     1
102
RTVSPost2010Prop37
 90
       50
102
RTVSPost2010PropOp37
 70
     1
102
RTVSPost2010Prop38
140
0.0
102
RTVSPost2010PropOp38
 70
     1
102
RTVSPost2010Prop39
140
1.0
102
RTVSPost2010PropOp39
 70
     1
102
RTVSPost2010Prop40
 90
        0
102
RTVSPost2010PropOp40
 70
     1
102
RTVSPost2010Prop41ColorIndex
 90
       18
102
RTVSPost2010Prop41ColorRGB
 90
        0
102
RTVSPost2010PropOp41
 70
     1
102
RTVSPost2010Prop42
 90
       50
102
RTVSPost2010PropOp42
 70
     1
102
RTVSPost2010Prop43
 90
        3
102
RTVSPost2010PropOp43
 70
     1
102
RTVSPost2010Prop44ColorIndex
 90
        5
102
RTVSPost2010Prop44ColorRGB
 90
      255
102
RTVSPost2010PropOp44
 70
     1
102
RTVSPost2010Prop45
280
     0
102
RTVSPost2010PropOp45
 70
     1
102
RTVSPost2010Prop46
 90
       50
102
RTVSPost2010PropOp46
 70
     1
102
RTVSPost2010Prop47
 90
       50
102
RTVSPost2010PropOp47
 70
     1
102
RTVSPost2010Prop48
 90
       50
102
RTVSPost2010PropOp48
 70
     1
102
RTVSPost2010Prop49
280
     0
102
RTVSPost2010PropOp49
 70
     1
102
RTVSPost2010Prop50
 90
       50
102
RTVSPost2010PropOp50
 70
     1
102
RTVSPost2010Prop51ColorIndex
 90
      256
102
RTVSPost2010Prop51ColorRGB
 90
-16777216
102
RTVSPost2010PropOp51
 70
     0
102
RTVSPost2010Prop52
140
1.0
102
RTVSPost2010PropOp52
 70
     0
102
RTVSPost2010Prop53
 90
        2
102
RTVSPost2010PropOp53
 70
     1
102
RTVSPost2010Prop54
  1
strokes_ogs.tif
102
RTVSPost2010PropOp54
 70
     1
102
RTVSPost2010Prop55
280
     0
102
RTVSPost2010PropOp55
 70
     1
102
RTVSPost2010Prop56
140
1.0
102
RTVSPost2010PropOp56
 70
     1
102
RTVSPost2010Prop57
140
1.0
102
RTVSPost2010PropOp57
 70
     1
  0
ENDSEC
  0
EOF
