  0
SECTION
  2
HEADER
  9
$ACADVER
  1
AC1024
  9
$ACADMAINTVER
 70
   226
  9
$DWGCODEPAGE
  3
ANSI_932
  9
$INSBASE
 10
0.0
 20
0.0
 30
0.0
  9
$EXTMIN
 10
1.000000000000000E+20
 20
1.000000000000000E+20
 30
1.000000000000000E+20
  9
$EXTMAX
 10
-1.000000000000000E+20
 20
-1.000000000000000E+20
 30
-1.000000000000000E+20
  9
$LIMMIN
 10
0.0
 20
0.0
  9
$LIMMAX
 10
12.0
 20
9.0
  9
$ORTHOMODE
 70
     0
  9
$REGENMODE
 70
     1
  9
$FILLMODE
 70
     1
  9
$QTEXTMODE
 70
     0
  9
$MIRRTEXT
 70
     0
  9
$LTSCALE
 40
1.0
  9
$ATTMODE
 70
     1
  9
$TEXTSIZE
 40
0.2
  9
$TRACEWID
 40
0.05
  9
$TEXTSTYLE
  7
Standard
  9
$CLAYER
  8
0
  9
$CELTYPE
  6
ByLayer
  9
$CECOLOR
 62
   256
  9
$CELTSCALE
 40
1.0
  9
$DISPSILH
 70
     0
  9
$DIMSCALE
 40
1.0
  9
$DIMASZ
 40
0.18
  9
$DIMEXO
 40
0.0625
  9
$DIMDLI
 40
0.38
  9
$DIMRND
 40
0.0
  9
$DIMDLE
 40
0.0
  9
$DIMEXE
 40
0.18
  9
$DIMTP
 40
0.0
  9
$DIMTM
 40
0.0
  9
$DIMTXT
 40
0.18
  9
$DIMCEN
 40
0.09
  9
$DIMTSZ
 40
0.0
  9
$DIMTOL
 70
     0
  9
$DIMLIM
 70
     0
  9
$DIMTIH
 70
     1
  9
$DIMTOH
 70
     1
  9
$DIMSE1
 70
     0
  9
$DIMSE2
 70
     0
  9
$DIMTAD
 70
     0
  9
$DIMZIN
 70
     0
  9
$DIMBLK
  1

  9
$DIMASO
 70
     1
  9
$DIMSHO
 70
     1
  9
$DIMPOST
  1

  9
$DIMAPOST
  1

  9
$DIMALT
 70
     0
  9
$DIMALTD
 70
     2
  9
$DIMALTF
 40
25.4
  9
$DIMLFAC
 40
1.0
  9
$DIMTOFL
 70
     0
  9
$DIMTVP
 40
0.0
  9
$DIMTIX
 70
     0
  9
$DIMSOXD
 70
     0
  9
$DIMSAH
 70
     0
  9
$DIMBLK1
  1

  9
$DIMBLK2
  1

  9
$DIMSTYLE
  2
Standard
  9
$DIMCLRD
 70
     0
  9
$DIMCLRE
 70
     0
  9
$DIMCLRT
 70
     0
  9
$DIMTFAC
 40
1.0
  9
$DIMGAP
 40
0.09
  9
$DIMJUST
 70
     0
  9
$DIMSD1
 70
     0
  9
$DIMSD2
 70
     0
  9
$DIMTOLJ
 70
     1
  9
$DIMTZIN
 70
     0
  9
$DIMALTZ
 70
     0
  9
$DIMALTTZ
 70
     0
  9
$DIMUPT
 70
     0
  9
$DIMDEC
 70
     4
  9
$DIMTDEC
 70
     4
  9
$DIMALTU
 70
     2
  9
$DIMALTTD
 70
     2
  9
$DIMTXSTY
  7
Standard
  9
$DIMAUNIT
 70
     0
  9
$DIMADEC
 70
     0
  9
$DIMALTRND
 40
0.0
  9
$DIMAZIN
 70
     0
  9
$DIMDSEP
 70
    46
  9
$DIMATFIT
 70
     3
  9
$DIMFRAC
 70
     0
  9
$DIMLDRBLK
  1

  9
$DIMLUNIT
 70
     2
  9
$DIMLWD
 70
    -2
  9
$DIMLWE
 70
    -2
  9
$DIMTMOVE
 70
     0
  9
$DIMFXL
 40
1.0
  9
$DIMFXLON
 70
     0
  9
$DIMJOGANG
 40
0.7853981633974483
  9
$DIMTFILL
 70
     0
  9
$DIMTFILLCLR
 70
     0
  9
$DIMARCSYM
 70
     0
  9
$DIMLTYPE
  6

  9
$DIMLTEX1
  6

  9
$DIMLTEX2
  6

  9
$DIMTXTDIRECTION
 70
     0
  9
$LUNITS
 70
     2
  9
$LUPREC
 70
     4
  9
$SKETCHINC
 40
0.1
  9
$FILLETRAD
 40
0.0
  9
$AUNITS
 70
     0
  9
$AUPREC
 70
     0
  9
$MENU
  1
.
  9
$ELEVATION
 40
0.0
  9
$PELEVATION
 40
0.0
  9
$THICKNESS
 40
0.0
  9
$LIMCHECK
 70
     0
  9
$CHAMFERA
 40
0.0
  9
$CHAMFERB
 40
0.0
  9
$CHAMFERC
 40
0.0
  9
$CHAMFERD
 40
0.0
  9
$SKPOLY
 70
     0
  9
$TDCREATE
 40
2459569.489317130
  9
$TDUCREATE
 40
2459569.114317130
  9
$TDUPDATE
 40
2459569.489317130
  9
$TDUUPDATE
 40
2459569.114317130
  9
$TDINDWG
 40
0.0000000000
  9
$TDUSRTIMER
 40
0.0000000000
  9
$USRTIMER
 70
     1
  9
$ANGBASE
 50
0.0
  9
$ANGDIR
 70
     0
  9
$PDMODE
 70
     0
  9
$PDSIZE
 40
0.0
  9
$PLINEWID
 40
0.0
  9
$SPLFRAME
 70
     0
  9
$SPLINETYPE
 70
     6
  9
$SPLINESEGS
 70
     8
  9
$HANDSEED
  5
14F
  9
$SURFTAB1
 70
     6
  9
$SURFTAB2
 70
     6
  9
$SURFTYPE
 70
     6
  9
$SURFU
 70
     6
  9
$SURFV
 70
     6
  9
$UCSBASE
  2

  9
$UCSNAME
  2

  9
$UCSORG
 10
0.0
 20
0.0
 30
0.0
  9
$UCSXDIR
 10
1.0
 20
0.0
 30
0.0
  9
$UCSYDIR
 10
0.0
 20
1.0
 30
0.0
  9
$UCSORTHOREF
  2

  9
$UCSORTHOVIEW
 70
     0
  9
$UCSORGTOP
 10
0.0
 20
0.0
 30
0.0
  9
$UCSORGBOTTOM
 10
0.0
 20
0.0
 30
0.0
  9
$UCSORGLEFT
 10
0.0
 20
0.0
 30
0.0
  9
$UCSORGRIGHT
 10
0.0
 20
0.0
 30
0.0
  9
$UCSORGFRONT
 10
0.0
 20
0.0
 30
0.0
  9
$UCSORGBACK
 10
0.0
 20
0.0
 30
0.0
  9
$PUCSBASE
  2

  9
$PUCSNAME
  2

  9
$PUCSORG
 10
0.0
 20
0.0
 30
0.0
  9
$PUCSXDIR
 10
1.0
 20
0.0
 30
0.0
  9
$PUCSYDIR
 10
0.0
 20
1.0
 30
0.0
  9
$PUCSORTHOREF
  2

  9
$PUCSORTHOVIEW
 70
     0
  9
$PUCSORGTOP
 10
0.0
 20
0.0
 30
0.0
  9
$PUCSORGBOTTOM
 10
0.0
 20
0.0
 30
0.0
  9
$PUCSORGLEFT
 10
0.0
 20
0.0
 30
0.0
  9
$PUCSORGRIGHT
 10
0.0
 20
0.0
 30
0.0
  9
$PUCSORGFRONT
 10
0.0
 20
0.0
 30
0.0
  9
$PUCSORGBACK
 10
0.0
 20
0.0
 30
0.0
  9
$USERI1
 70
     0
  9
$USERI2
 70
     0
  9
$USERI3
 70
     0
  9
$USERI4
 70
     0
  9
$USERI5
 70
     0
  9
$USERR1
 40
0.0
  9
$USERR2
 40
0.0
  9
$USERR3
 40
0.0
  9
$USERR4
 40
0.0
  9
$USERR5
 40
0.0
  9
$WORLDVIEW
 70
     1
  9
$SHADEDGE
 70
     3
  9
$SHADEDIF
 70
    70
  9
$TILEMODE
 70
     1
  9
$MAXACTVP
 70
    64
  9
$PINSBASE
 10
0.0
 20
0.0
 30
0.0
  9
$PLIMCHECK
 70
     0
  9
$PEXTMIN
 10
1.000000000000000E+20
 20
1.000000000000000E+20
 30
1.000000000000000E+20
  9
$PEXTMAX
 10
-1.000000000000000E+20
 20
-1.000000000000000E+20
 30
-1.000000000000000E+20
  9
$PLIMMIN
 10
0.0
 20
0.0
  9
$PLIMMAX
 10
12.0
 20
9.0
  9
$UNITMODE
 70
     0
  9
$VISRETAIN
 70
     1
  9
$PLINEGEN
 70
     0
  9
$PSLTSCALE
 70
     1
  9
$TREEDEPTH
 70
  3020
  9
$CMLSTYLE
  2
Standard
  9
$CMLJUST
 70
     0
  9
$CMLSCALE
 40
1.0
  9
$PROXYGRAPHICS
 70
     1
  9
$MEASUREMENT
 70
     0
  9
$CELWEIGHT
370
    -1
  9
$ENDCAPS
280
     0
  9
$JOINSTYLE
280
     0
  9
$LWDISPLAY
290
     1
  9
$INSUNITS
 70
     4
  9
$HYPERLINKBASE
  1

  9
$STYLESHEET
  1

  9
$XEDIT
290
     1
  9
$CEPSNTYPE
380
     0
  9
$PSTYLEMODE
290
     1
  9
$FINGERPRINTGUID
  2
{C1E14ECE-E9CE-A449-A13E-391147644991}
  9
$VERSIONGUID
  2
{B5811791-729E-3B42-8799-1A51147E517D}
  9
$EXTNAMES
290
     1
  9
$PSVPSCALE
 40
0.0
  9
$OLESTARTUP
290
     0
  9
$SORTENTS
280
   127
  9
$INDEXCTL
280
     0
  9
$HIDETEXT
280
     1
  9
$XCLIPFRAME
280
     2
  9
$HALOGAP
280
     0
  9
$OBSCOLOR
 70
   257
  9
$OBSLTYPE
280
     0
  9
$INTERSECTIONDISPLAY
280
     0
  9
$INTERSECTIONCOLOR
 70
   257
  9
$DIMASSOC
280
     2
  9
$PROJECTNAME
  1

  9
$CAMERADISPLAY
290
     0
  9
$LENSLENGTH
 40
50.0
  9
$CAMERAHEIGHT
 40
0.0
  9
$STEPSPERSEC
 40
2.0
  9
$STEPSIZE
 40
6.0
  9
$3DDWFPREC
 40
2.0
  9
$PSOLWIDTH
 40
0.25
  9
$PSOLHEIGHT
 40
4.0
  9
$LOFTANG1
 40
1.570796326794896
  9
$LOFTANG2
 40
1.570796326794896
  9
$LOFTMAG1
 40
0.0
  9
$LOFTMAG2
 40
0.0
  9
$LOFTPARAM
 70
     7
  9
$LOFTNORMALS
280
     1
  9
$LATITUDE
 40
37.795
  9
$LONGITUDE
 40
-122.394
  9
$NORTHDIRECTION
 40
0.0
  9
$TIMEZONE
 70
 -8000
  9
$LIGHTGLYPHDISPLAY
280
     1
  9
$TILEMODELIGHTSYNCH
280
     1
  9
$CMATERIAL
347
11
  9
$SOLIDHIST
280
     0
  9
$SHOWHIST
280
     1
  9
$DWFFRAME
280
     2
  9
$DGNFRAME
280
     0
  9
$REALWORLDSCALE
290
     1
  9
$INTERFERECOLOR
 62
     1
  9
$INTERFEREOBJVS
345
33
  9
$INTERFEREVPVS
346
30
  9
$CSHADOW
280
     0
  9
$SHADOWPLANELOCATION
 40
0.0
  0
ENDSEC
  0
SECTION
  2
CLASSES
  0
CLASS
  1
ACDBDICTIONARYWDFLT
  2
AcDbDictionaryWithDefault
  3
ObjectDBX Classes
 90
        0
 91
        1
280
     0
281
     0
  0
CLASS
  1
MATERIAL
  2
AcDbMaterial
  3
ObjectDBX Classes
 90
     1153
 91
        3
280
     0
281
     0
  0
CLASS
  1
VISUALSTYLE
  2
AcDbVisualStyle
  3
ObjectDBX Classes
 90
     4095
 91
       24
280
     0
281
     0
  0
CLASS
  1
SCALE
  2
AcDbScale
  3
ObjectDBX Classes
 90
     1153
 91
       17
280
     0
281
     0
  0
CLASS
  1
TABLESTYLE
  2
AcDbTableStyle
  3
ObjectDBX Classes
 90
     4095
 91
        1
280
     0
281
     0
  0
CLASS
  1
MLEADERSTYLE
  2
AcDbMLeaderStyle
  3
ACDB_MLEADERSTYLE_CLASS
 90
     4095
 91
        1
280
     0
281
     0
  0
CLASS
  1
ACDBSECTIONVIEWSTYLE
  2
AcDbSectionViewStyle
  3
ObjectDBX Classes
 90
     1025
 91
        1
280
     0
281
     0
  0
CLASS
  1
ACDBDETAILVIEWSTYLE
  2
AcDbDetailViewStyle
  3
ObjectDBX Classes
 90
     1025
 91
        1
280
     0
281
     0
  0
CLASS
  1
DICTIONARYVAR
  2
AcDbDictionaryVar
  3
ObjectDBX Classes
 90
        0
 91
        5
280
     0
281
     0
  0
CLASS
  1
CELLSTYLEMAP
  2
AcDbCellStyleMap
  3
ObjectDBX Classes
 90
     1152
 91
        1
280
     0
281
     0
  0
ENDSEC
  0
SECTION
  2
TABLES
  0
TABLE
  2
VPORT
  5
8
330
0
100
AcDbSymbolTable
 70
     1
  0
VPORT
  5
57
330
8
100
AcDbSymbolTableRecord
100
AcDbViewportTableRecord
  2
*Active
 70
     0
 10
0.0
 20
0.0
 11
1.0
 21
1.0
 12
0.0
 22
0.0
 13
0.0
 23
0.0
 14
1.0
 24
1.0
 15
0.0
 25
0.0
 16
0.0
 26
0.0
 36
1.0
 17
104.9999999737534
 27
-148.4999999628701
 37
0.0
 40
302.939999924255
 41
0.7070707070707534
 42
50.0
 43
0.0
 44
0.0
 50
0.0
 51
0.0
 71
     0
 72
   100
 73
     1
 74
     0
 75
     1
 76
     0
 77
     0
 78
     0
281
     0
 65
     1
110
0.0
120
0.0
130
0.0
111
1.0
121
0.0
131
0.0
112
0.0
122
1.0
132
0.0
 79
     0
146
0.0
 60
     3
 61
     5
292
     1
282
     1
141
0.0
142
0.0
 63
   250
421
  3355443
  0
ENDTAB
  0
TABLE
  2
LTYPE
  5
5
330
0
100
AcDbSymbolTable
 70
     2
  0
LTYPE
  5
5B
330
5
100
AcDbSymbolTableRecord
100
AcDbLinetypeTableRecord
  2
ByBlock
 70
     0
  3

 72
    65
 73
     0
 40
0.0
  0
LTYPE
  5
5C
330
5
100
AcDbSymbolTableRecord
100
AcDbLinetypeTableRecord
  2
ByLayer
 70
     0
  3

 72
    65
 73
     0
 40
0.0
  0
LTYPE
  5
5D
330
5
100
AcDbSymbolTableRecord
100
AcDbLinetypeTableRecord
  2
Continuous
 70
     0
  3
Solid line
 72
    65
 73
     0
 40
0.0
  0
LTYPE
  5
F3
330
5
100
AcDbSymbolTableRecord
100
AcDbLinetypeTableRecord
  2
AI-Linetype-0
 70
     0
  3
Adobe Illustrator Linetype No. 0
 72
    65
 73
     2
 40
1.411111110758333
 49
0.7055555553791667
 74
     0
 49
-0.7055555553791667
 74
     0
  0
ENDTAB
  0
TABLE
  2
LAYER
  5
2
330
0
100
AcDbSymbolTable
 70
     2
  0
LAYER
  5
54
330
2
100
AcDbSymbolTableRecord
100
AcDbLayerTableRecord
  2
0
 70
     0
 62
     7
  6
Continuous
370
    -3
390
F
347
21
  0
LAYER
  5
78
330
2
100
AcDbSymbolTableRecord
100
AcDbLayerTableRecord
  2
レイヤー 1
 70
     0
 62
     7
  6
Continuous
370
     0
390
F
347
21
  0
ENDTAB
  0
TABLE
  2
STYLE
  5
3
330
0
100
AcDbSymbolTable
 70
     2
  0
STYLE
  5
55
330
3
100
AcDbSymbolTableRecord
100
AcDbTextStyleTableRecord
  2
Standard
 70
     0
 40
0.0
 41
1.0
 50
0.0
 71
     0
 42
0.2
  3
txt
  4

  0
STYLE
  5
5A
330
3
100
AcDbSymbolTableRecord
100
AcDbTextStyleTableRecord
  2
Annotative
 70
     0
 40
0.0
 41
1.0
 50
0.0
 71
     0
 42
0.2
  3
txt
  4

1001
AcadAnnotative
1000
AnnotativeData
1002
{
1070
     1
1070
     1
1002
}
  0
ENDTAB
  0
TABLE
  2
VIEW
  5
6
330
0
100
AcDbSymbolTable
 70
     0
  0
ENDTAB
  0
TABLE
  2
UCS
  5
7
330
0
100
AcDbSymbolTable
 70
     0
  0
ENDTAB
  0
TABLE
  2
APPID
  5
9
330
0
100
AcDbSymbolTable
 70
     2
  0
APPID
  5
56
330
9
100
AcDbSymbolTableRecord
100
AcDbRegAppTableRecord
  2
ACAD
 70
     0
  0
APPID
  5
5E
330
9
100
AcDbSymbolTableRecord
100
AcDbRegAppTableRecord
  2
AcadAnnotative
 70
     0
  0
ENDTAB
  0
TABLE
  2
DIMSTYLE
  5
A
330
0
100
AcDbSymbolTable
 70
     2
100
AcDbDimStyleTable
 71
     0
  0
DIMSTYLE
105
58
330
A
100
AcDbSymbolTableRecord
100
AcDbDimStyleTableRecord
  2
Standard
 70
     0
340
55
  0
DIMSTYLE
105
59
330
A
100
AcDbSymbolTableRecord
100
AcDbDimStyleTableRecord
  2
Annotative
 70
     0
340
55
1001
AcadAnnotative
1000
AnnotativeData
1002
{
1070
     1
1070
     1
1002
}
  0
ENDTAB
  0
TABLE
  2
BLOCK_RECORD
  5
1
330
0
100
AcDbSymbolTable
 70
    16
  0
BLOCK_RECORD
  5
70
330
1
100
AcDbSymbolTableRecord
100
AcDbBlockTableRecord
  2
*Model_Space
340
73
 70
     0
280
     1
281
     0
  0
BLOCK_RECORD
  5
6C
330
1
100
AcDbSymbolTableRecord
100
AcDbBlockTableRecord
  2
*Paper_Space
340
6F
 70
     0
280
     1
281
     0
  0
BLOCK_RECORD
  5
74
330
1
100
AcDbSymbolTableRecord
100
AcDbBlockTableRecord
  2
*Paper_Space0
340
77
 70
     0
280
     1
281
     0
  0
BLOCK_RECORD
  5
7C
330
1
100
AcDbSymbolTableRecord
100
AcDbBlockTableRecord
  2
Block_0
340
0
102
{BLKREFS
331
7D
102
}
 70
     0
280
     1
281
     0
  0
BLOCK_RECORD
  5
80
330
1
100
AcDbSymbolTableRecord
100
AcDbBlockTableRecord
  2
Block_1
340
0
102
{BLKREFS
331
81
102
}
 70
     0
280
     1
281
     0
  0
BLOCK_RECORD
  5
8A
330
1
100
AcDbSymbolTableRecord
100
AcDbBlockTableRecord
  2
Block_2
340
0
102
{BLKREFS
331
8B
102
}
 70
     0
280
     1
281
     0
  0
BLOCK_RECORD
  5
8E
330
1
100
AcDbSymbolTableRecord
100
AcDbBlockTableRecord
  2
Block_3
340
0
102
{BLKREFS
331
8F
102
}
 70
     0
280
     1
281
     0
  0
BLOCK_RECORD
  5
A1
330
1
100
AcDbSymbolTableRecord
100
AcDbBlockTableRecord
  2
Block_4
340
0
102
{BLKREFS
331
A2
102
}
 70
     0
280
     1
281
     0
  0
BLOCK_RECORD
  5
AB
330
1
100
AcDbSymbolTableRecord
100
AcDbBlockTableRecord
  2
Block_5
340
0
102
{BLKREFS
331
AC
102
}
 70
     0
280
     1
281
     0
  0
BLOCK_RECORD
  5
B1
330
1
100
AcDbSymbolTableRecord
100
AcDbBlockTableRecord
  2
Block_6
340
0
102
{BLKREFS
331
B2
102
}
 70
     0
280
     1
281
     0
  0
BLOCK_RECORD
  5
B5
330
1
100
AcDbSymbolTableRecord
100
AcDbBlockTableRecord
  2
Block_7
340
0
102
{BLKREFS
331
B6
102
}
 70
     0
280
     1
281
     0
  0
BLOCK_RECORD
  5
C0
330
1
100
AcDbSymbolTableRecord
100
AcDbBlockTableRecord
  2
Block_8
340
0
102
{BLKREFS
331
C1
102
}
 70
     0
280
     1
281
     0
  0
BLOCK_RECORD
  5
C4
330
1
100
AcDbSymbolTableRecord
100
AcDbBlockTableRecord
  2
Block_9
340
0
102
{BLKREFS
331
C5
102
}
 70
     0
280
     1
281
     0
  0
BLOCK_RECORD
  5
CE
330
1
100
AcDbSymbolTableRecord
100
AcDbBlockTableRecord
  2
Block_10
340
0
102
{BLKREFS
331
CF
102
}
 70
     0
280
     1
281
     0
  0
BLOCK_RECORD
  5
DC
330
1
100
AcDbSymbolTableRecord
100
AcDbBlockTableRecord
  2
Block_11
340
0
102
{BLKREFS
331
DD
102
}
 70
     0
280
     1
281
     0
  0
BLOCK_RECORD
  5
EE
330
1
100
AcDbSymbolTableRecord
100
AcDbBlockTableRecord
  2
Block_12
340
0
102
{BLKREFS
331
EF
102
}
 70
     0
280
     1
281
     0
  0
BLOCK_RECORD
  5
F6
330
1
100
AcDbSymbolTableRecord
100
AcDbBlockTableRecord
  2
Block_13
340
0
102
{BLKREFS
331
F7
102
}
 70
     0
280
     1
281
     0
  0
BLOCK_RECORD
  5
FA
330
1
100
AcDbSymbolTableRecord
100
AcDbBlockTableRecord
  2
Block_14
340
0
102
{BLKREFS
331
FB
102
}
 70
     0
280
     1
281
     0
  0
ENDTAB
  0
ENDSEC
  0
SECTION
  2
BLOCKS
  0
BLOCK
  5
71
330
70
100
AcDbEntity
  8
0
100
AcDbBlockBegin
  2
*Model_Space
 70
     0
 10
0.0
 20
0.0
 30
0.0
  3
*Model_Space
  1

  0
ENDBLK
  5
72
330
70
100
AcDbEntity
  8
0
100
AcDbBlockEnd
  0
BLOCK
  5
6D
330
6C
100
AcDbEntity
 67
     1
  8
0
100
AcDbBlockBegin
  2
*Paper_Space
 70
     0
 10
0.0
 20
0.0
 30
0.0
  3
*Paper_Space
  1

  0
ENDBLK
  5
6E
330
6C
100
AcDbEntity
 67
     1
  8
0
100
AcDbBlockEnd
  0
BLOCK
  5
75
330
74
100
AcDbEntity
 67
     1
  8
0
100
AcDbBlockBegin
  2
*Paper_Space0
 70
     0
 10
0.0
 20
0.0
 30
0.0
  3
*Paper_Space0
  1

  0
ENDBLK
  5
76
330
74
100
AcDbEntity
 67
     1
  8
0
100
AcDbBlockEnd
  0
BLOCK
  5
7E
330
7C
100
AcDbEntity
  8
0
100
AcDbBlockBegin
  2
Block_0
 70
     0
 10
0.0
 20
0.0
 30
0.0
  3
Block_0
  1

  0
INSERT
  5
81
330
7C
100
AcDbEntity
  8
レイヤー 1
100
AcDbBlockReference
  2
Block_1
 10
0.0
 20
0.0
 30
0.0
  0
ENDBLK
  5
7F
330
7C
100
AcDbEntity
  8
0
100
AcDbBlockEnd
  0
BLOCK
  5
82
330
80
100
AcDbEntity
  8
0
100
AcDbBlockBegin
  2
Block_1
 70
     0
 10
0.0
 20
0.0
 30
0.0
  3
Block_1
  1

  0
SPLINE
  5
84
330
80
100
AcDbEntity
  8
レイヤー 1
100
AcDbSpline
210
0.0
220
0.0
230
1.0
 70
    11
 71
     3
 72
    14
 73
    10
 74
     0
 42
0.0000000001
 43
0.0000000001
 40
0.0
 40
0.0
 40
0.0
 40
0.0
 40
1.0
 40
1.0
 40
1.0
 40
2.0
 40
2.0
 40
2.0
 40
3.0
 40
3.0
 40
3.0
 40
3.0
 10
105.0473347719152
 20
-135.8809393649013
 30
0.0
 10
105.0473347719152
 20
-135.8809393649013
 30
0.0
 10
104.5588202321068
 20
-136.5368855452929
 30
0.0
 10
104.5588202321068
 20
-136.5368855452929
 30
0.0
 10
104.5588202321068
 20
-136.5368855452929
 30
0.0
 10
105.0473347719152
 20
-136.5368855452929
 30
0.0
 10
105.0473347719152
 20
-136.5368855452929
 30
0.0
 10
105.0473347719152
 20
-136.5368855452929
 30
0.0
 10
105.0473347719152
 20
-135.8809393649013
 30
0.0
 10
105.0473347719152
 20
-135.8809393649013
 30
0.0
  0
SPLINE
  5
85
330
80
100
AcDbEntity
  8
レイヤー 1
100
AcDbSpline
210
0.0
220
0.0
230
1.0
 70
    11
 71
     3
 72
    38
 73
    34
 74
     0
 42
0.0000000001
 43
0.0000000001
 40
0.0
 40
0.0
 40
0.0
 40
0.0
 40
1.0
 40
1.0
 40
1.0
 40
2.0
 40
2.0
 40
2.0
 40
3.0
 40
3.0
 40
3.0
 40
4.0
 40
4.0
 40
4.0
 40
5.0
 40
5.0
 40
5.0
 40
6.0
 40
6.0
 40
6.0
 40
7.0
 40
7.0
 40
7.0
 40
8.0
 40
8.0
 40
8.0
 40
9.0
 40
9.0
 40
9.0
 40
10.0
 40
10.0
 40
10.0
 40
11.0
 40
11.0
 40
11.0
 40
11.0
 10
105.2800509719439
 20
-136.7356675547918
 30
0.0
 10
105.2800509719439
 20
-136.7356675547918
 30
0.0
 10
105.2800509719439
 20
-137.0825886701564
 30
0.0
 10
105.2800509719439
 20
-137.0825886701564
 30
0.0
 10
105.2800509719439
 20
-137.0825886701564
 30
0.0
 10
105.0473347719152
 20
-137.0825886701564
 30
0.0
 10
105.0473347719152
 20
-137.0825886701564
 30
0.0
 10
105.0473347719152
 20
-137.0825886701564
 30
0.0
 10
105.0473347719152
 20
-136.7356675547918
 30
0.0
 10
105.0473347719152
 20
-136.7356675547918
 30
0.0
 10
105.0473347719152
 20
-136.7356675547918
 30
0.0
 10
104.3464300954412
 20
-136.7356675547918
 30
0.0
 10
104.3464300954412
 20
-136.7356675547918
 30
0.0
 10
104.3464300954412
 20
-136.7356675547918
 30
0.0
 10
104.3464300954412
 20
-136.511391838702
 30
0.0
 10
104.3464300954412
 20
-136.511391838702
 30
0.0
 10
104.3464300954412
 20
-136.511391838702
 30
0.0
 10
105.072139459409
 20
-135.5381523641189
 30
0.0
 10
105.072139459409
 20
-135.5381523641189
 30
0.0
 10
105.072139459409
 20
-135.5381523641189
 30
0.0
 10
105.2800509719439
 20
-135.5381523641189
 30
0.0
 10
105.2800509719439
 20
-135.5381523641189
 30
0.0
 10
105.2800509719439
 20
-135.5381523641189
 30
0.0
 10
105.2800509719439
 20
-136.5368855452929
 30
0.0
 10
105.2800509719439
 20
-136.5368855452929
 30
0.0
 10
105.2800509719439
 20
-136.5368855452929
 30
0.0
 10
105.501915121194
 20
-136.5368855452929
 30
0.0
 10
105.501915121194
 20
-136.5368855452929
 30
0.0
 10
105.501915121194
 20
-136.5368855452929
 30
0.0
 10
105.501915121194
 20
-136.7356675547918
 30
0.0
 10
105.501915121194
 20
-136.7356675547918
 30
0.0
 10
105.501915121194
 20
-136.7356675547918
 30
0.0
 10
105.2800509719439
 20
-136.7356675547918
 30
0.0
 10
105.2800509719439
 20
-136.7356675547918
 30
0.0
  0
HATCH
  5
86
330
80
100
AcDbEntity
  8
レイヤー 1
 62
   250
420
  2299925
440
 33554687
100
AcDbHatch
 10
0.0
 20
0.0
 30
0.0
210
0.0
220
0.0
230
1.0
  2
SOLID
 70
     1
 71
     1
 91
        2
 92
        1
 93
        1
 72
     4
 94
        3
 73
     0
 74
     0
 95
       14
 96
       10
 40
0.0
 40
0.0
 40
0.0
 40
0.0
 40
1.0
 40
1.0
 40
1.0
 40
2.0
 40
2.0
 40
2.0
 40
3.0
 40
3.0
 40
3.0
 40
3.0
 10
105.0473347719152
 20
-135.8809393649013
 10
105.0473347719152
 20
-135.8809393649013
 10
104.5588202321068
 20
-136.5368855452929
 10
104.5588202321068
 20
-136.5368855452929
 10
104.5588202321068
 20
-136.5368855452929
 10
105.0473347719152
 20
-136.5368855452929
 10
105.0473347719152
 20
-136.5368855452929
 10
105.0473347719152
 20
-136.5368855452929
 10
105.0473347719152
 20
-135.8809393649013
 10
105.0473347719152
 20
-135.8809393649013
 97
        0
 97
        1
330
84
 92
        1
 93
        1
 72
     4
 94
        3
 73
     0
 74
     0
 95
       38
 96
       34
 40
0.0
 40
0.0
 40
0.0
 40
0.0
 40
1.0
 40
1.0
 40
1.0
 40
2.0
 40
2.0
 40
2.0
 40
3.0
 40
3.0
 40
3.0
 40
4.0
 40
4.0
 40
4.0
 40
5.0
 40
5.0
 40
5.0
 40
6.0
 40
6.0
 40
6.0
 40
7.0
 40
7.0
 40
7.0
 40
8.0
 40
8.0
 40
8.0
 40
9.0
 40
9.0
 40
9.0
 40
10.0
 40
10.0
 40
10.0
 40
11.0
 40
11.0
 40
11.0
 40
11.0
 10
105.2800509719439
 20
-136.7356675547918
 10
105.2800509719439
 20
-136.7356675547918
 10
105.2800509719439
 20
-137.0825886701564
 10
105.2800509719439
 20
-137.0825886701564
 10
105.2800509719439
 20
-137.0825886701564
 10
105.0473347719152
 20
-137.0825886701564
 10
105.0473347719152
 20
-137.0825886701564
 10
105.0473347719152
 20
-137.0825886701564
 10
105.0473347719152
 20
-136.7356675547918
 10
105.0473347719152
 20
-136.7356675547918
 10
105.0473347719152
 20
-136.7356675547918
 10
104.3464300954412
 20
-136.7356675547918
 10
104.3464300954412
 20
-136.7356675547918
 10
104.3464300954412
 20
-136.7356675547918
 10
104.3464300954412
 20
-136.511391838702
 10
104.3464300954412
 20
-136.511391838702
 10
104.3464300954412
 20
-136.511391838702
 10
105.072139459409
 20
-135.5381523641189
 10
105.072139459409
 20
-135.5381523641189
 10
105.072139459409
 20
-135.5381523641189
 10
105.2800509719439
 20
-135.5381523641189
 10
105.2800509719439
 20
-135.5381523641189
 10
105.2800509719439
 20
-135.5381523641189
 10
105.2800509719439
 20
-136.5368855452929
 10
105.2800509719439
 20
-136.5368855452929
 10
105.2800509719439
 20
-136.5368855452929
 10
105.501915121194
 20
-136.5368855452929
 10
105.501915121194
 20
-136.5368855452929
 10
105.501915121194
 20
-136.5368855452929
 10
105.501915121194
 20
-136.7356675547918
 10
105.501915121194
 20
-136.7356675547918
 10
105.501915121194
 20
-136.7356675547918
 10
105.2800509719439
 20
-136.7356675547918
 10
105.2800509719439
 20
-136.7356675547918
 97
        0
 97
        1
330
85
 75
     2
 76
     1
 98
        1
 10
0.0
 20
0.0
450
        0
451
        0
460
0.0
461
0.0
452
        0
462
0.0
453
        0
470

  0
SPLINE
  5
87
330
80
100
AcDbEntity
  8
レイヤー 1
100
AcDbSpline
210
0.0
220
0.0
230
1.0
 70
     9
 71
     3
 72
    17
 73
    13
 74
     0
 42
0.0000000001
 43
0.0000000001
 40
0.0
 40
0.0
 40
0.0
 40
0.0
 40
1.0
 40
1.0
 40
1.0
 40
2.0
 40
2.0
 40
2.0
 40
3.0
 40
3.0
 40
3.0
 40
4.0
 40
4.0
 40
4.0
 40
4.0
 10
106.1830104986278
 20
-135.6821573554024
 30
0.0
 10
105.9163601080695
 20
-135.6821573554024
 30
0.0
 10
105.8664062235334
 20
-135.9656887138384
 30
0.0
 10
105.8664062235334
 20
-136.3105427719119
 30
0.0
 10
105.8664062235334
 20
-136.6299031233946
 30
0.0
 10
105.9049912929682
 20
-136.938583678873
 30
0.0
 10
106.1830104986278
 20
-136.938583678873
 30
0.0
 10
106.447593831895
 20
-136.938583678873
 30
0.0
 10
106.4996147737223
 20
-136.6574638872766
 30
0.0
 10
106.4996147737223
 20
-136.3105427719119
 30
0.0
 10
106.4996147737223
 20
-135.9908379108808
 30
0.0
 10
106.4589626469963
 20
-135.6821573554024
 30
0.0
 10
106.1830104986278
 20
-135.6821573554024
 30
0.0
  0
SPLINE
  5
88
330
80
100
AcDbEntity
  8
レイヤー 1
100
AcDbSpline
210
0.0
220
0.0
230
1.0
 70
     9
 71
     3
 72
    29
 73
    25
 74
     0
 42
0.0000000001
 43
0.0000000001
 40
0.0
 40
0.0
 40
0.0
 40
0.0
 40
1.0
 40
1.0
 40
1.0
 40
2.0
 40
2.0
 40
2.0
 40
3.0
 40
3.0
 40
3.0
 40
4.0
 40
4.0
 40
4.0
 40
5.0
 40
5.0
 40
5.0
 40
6.0
 40
6.0
 40
6.0
 40
7.0
 40
7.0
 40
7.0
 40
8.0
 40
8.0
 40
8.0
 40
8.0
 10
106.6081352815077
 20
-136.9048217431175
 30
0.0
 10
106.4927245827518
 20
-137.1142835486207
 30
0.0
 10
106.3073784456454
 20
-137.1332315737896
 30
0.0
 10
106.1830104986278
 20
-137.1332315737896
 30
0.0
 10
106.0111002339139
 20
-137.1332315737896
 30
0.0
 10
105.8598605421114
 20
-137.0867227847387
 30
0.0
 10
105.757885715748
 20
-136.9048217431175
 30
0.0
 10
105.6472981506715
 20
-136.7101738482009
 30
0.0
 10
105.6269720873085
 20
-136.4731512788157
 30
0.0
 10
105.6269720873085
 20
-136.3105427719119
 30
0.0
 10
105.6269720873085
 20
-136.1665377806285
 30
0.0
 10
105.6448865838318
 20
-135.9147013006567
 30
0.0
 10
105.757885715748
 20
-135.7159192911578
 30
0.0
 10
105.8732964145039
 20
-135.5130031670766
 30
0.0
 10
106.0452066792178
 20
-135.4895765177769
 30
0.0
 10
106.1830104986278
 20
-135.4895765177769
 30
0.0
 10
106.3525091965021
 20
-135.4895765177769
 30
0.0
 10
106.5065049646928
 20
-135.5340182495366
 30
0.0
 10
106.6081352815077
 20
-135.7159192911578
 30
0.0
 10
106.7142442224534
 20
-135.9085001287833
 30
0.0
 10
106.7393934194957
 20
-136.1369099594553
 30
0.0
 10
106.7393934194957
 20
-136.3105427719119
 30
0.0
 10
106.7393934194957
 20
-136.4817640175288
 30
0.0
 10
106.716655789293
 20
-136.712240905492
 30
0.0
 10
106.6081352815077
 20
-136.9048217431175
 30
0.0
  0
HATCH
  5
89
330
80
100
AcDbEntity
  8
レイヤー 1
 62
   250
420
  2299925
440
 33554687
100
AcDbHatch
 10
0.0
 20
0.0
 30
0.0
210
0.0
220
0.0
230
1.0
  2
SOLID
 70
     1
 71
     1
 91
        2
 92
        1
 93
        1
 72
     4
 94
        3
 73
     0
 74
     0
 95
       17
 96
       13
 40
0.0
 40
0.0
 40
0.0
 40
0.0
 40
1.0
 40
1.0
 40
1.0
 40
2.0
 40
2.0
 40
2.0
 40
3.0
 40
3.0
 40
3.0
 40
4.0
 40
4.0
 40
4.0
 40
4.0
 10
106.1830104986278
 20
-135.6821573554024
 10
105.9163601080695
 20
-135.6821573554024
 10
105.8664062235334
 20
-135.9656887138384
 10
105.8664062235334
 20
-136.3105427719119
 10
105.8664062235334
 20
-136.6299031233946
 10
105.9049912929682
 20
-136.938583678873
 10
106.1830104986278
 20
-136.938583678873
 10
106.447593831895
 20
-136.938583678873
 10
106.4996147737223
 20
-136.6574638872766
 10
106.4996147737223
 20
-136.3105427719119
 10
106.4996147737223
 20
-135.9908379108808
 10
106.4589626469963
 20
-135.6821573554024
 10
106.1830104986278
 20
-135.6821573554024
 97
        0
 97
        1
330
87
 92
        1
 93
        1
 72
     4
 94
        3
 73
     0
 74
     0
 95
       29
 96
       25
 40
0.0
 40
0.0
 40
0.0
 40
0.0
 40
1.0
 40
1.0
 40
1.0
 40
2.0
 40
2.0
 40
2.0
 40
3.0
 40
3.0
 40
3.0
 40
4.0
 40
4.0
 40
4.0
 40
5.0
 40
5.0
 40
5.0
 40
6.0
 40
6.0
 40
6.0
 40
7.0
 40
7.0
 40
7.0
 40
8.0
 40
8.0
 40
8.0
 40
8.0
 10
106.6081352815077
 20
-136.9048217431175
 10
106.4927245827518
 20
-137.1142835486207
 10
106.3073784456454
 20
-137.1332315737896
 10
106.1830104986278
 20
-137.1332315737896
 10
106.0111002339139
 20
-137.1332315737896
 10
105.8598605421114
 20
-137.0867227847387
 10
105.757885715748
 20
-136.9048217431175
 10
105.6472981506715
 20
-136.7101738482009
 10
105.6269720873085
 20
-136.4731512788157
 10
105.6269720873085
 20
-136.3105427719119
 10
105.6269720873085
 20
-136.1665377806285
 10
105.6448865838318
 20
-135.9147013006567
 10
105.757885715748
 20
-135.7159192911578
 10
105.8732964145039
 20
-135.5130031670766
 10
106.0452066792178
 20
-135.4895765177769
 10
106.1830104986278
 20
-135.4895765177769
 10
106.3525091965021
 20
-135.4895765177769
 10
106.5065049646928
 20
-135.5340182495366
 10
106.6081352815077
 20
-135.7159192911578
 10
106.7142442224534
 20
-135.9085001287833
 10
106.7393934194957
 20
-136.1369099594553
 10
106.7393934194957
 20
-136.3105427719119
 10
106.7393934194957
 20
-136.4817640175288
 10
106.716655789293
 20
-136.712240905492
 10
106.6081352815077
 20
-136.9048217431175
 97
        0
 97
        1
330
88
 75
     2
 76
     1
 98
        1
 10
0.0
 20
0.0
450
        0
451
        0
460
0.0
461
0.0
452
        0
462
0.0
453
        0
470

  0
ENDBLK
  5
83
330
80
100
AcDbEntity
  8
0
100
AcDbBlockEnd
  0
BLOCK
  5
8C
330
8A
100
AcDbEntity
  8
0
100
AcDbBlockBegin
  2
Block_2
 70
     0
 10
0.0
 20
0.0
 30
0.0
  3
Block_2
  1

  0
INSERT
  5
8F
330
8A
100
AcDbEntity
  8
レイヤー 1
100
AcDbBlockReference
  2
Block_3
 10
0.0
 20
0.0
 30
0.0
  0
ENDBLK
  5
8D
330
8A
100
AcDbEntity
  8
0
100
AcDbBlockEnd
  0
BLOCK
  5
90
330
8E
100
AcDbEntity
  8
0
100
AcDbBlockBegin
  2
Block_3
 70
     0
 10
0.0
 20
0.0
 30
0.0
  3
Block_3
  1

  0
SPLINE
  5
92
330
8E
100
AcDbEntity
  8
レイヤー 1
100
AcDbSpline
210
0.0
220
0.0
230
1.0
 70
    11
 71
     3
 72
    26
 73
    22
 74
     0
 42
0.0000000001
 43
0.0000000001
 40
0.0
 40
0.0
 40
0.0
 40
0.0
 40
1.0
 40
1.0
 40
1.0
 40
2.0
 40
2.0
 40
2.0
 40
3.0
 40
3.0
 40
3.0
 40
4.0
 40
4.0
 40
4.0
 40
5.0
 40
5.0
 40
5.0
 40
6.0
 40
6.0
 40
6.0
 40
7.0
 40
7.0
 40
7.0
 40
7.0
 10
89.527351865639
 20
-164.1098795162642
 30
0.0
 10
89.527351865639
 20
-164.1098795162642
 30
0.0
 10
89.527351865639
 20
-163.0057264132416
 30
0.0
 10
89.527351865639
 20
-163.0057264132416
 30
0.0
 10
89.527351865639
 20
-163.0057264132416
 30
0.0
 10
89.17457408794941
 20
-163.0057264132416
 30
0.0
 10
89.17457408794941
 20
-163.0057264132416
 30
0.0
 10
89.17457408794941
 20
-163.0057264132416
 30
0.0
 10
89.17457408794941
 20
-162.8575873073759
 30
0.0
 10
89.17457408794941
 20
-162.8575873073759
 30
0.0
 10
89.52959117770442
 20
-162.8427733967893
 30
0.0
 10
89.57937280746627
 20
-162.679820380337
 30
0.0
 10
89.61089543115631
 20
-162.5654432102267
 30
0.0
 10
89.61089543115631
 20
-162.5654432102267
 30
0.0
 10
89.76695825663812
 20
-162.5654432102267
 30
0.0
 10
89.76695825663812
 20
-162.5654432102267
 30
0.0
 10
89.76695825663812
 20
-162.5654432102267
 30
0.0
 10
89.76695825663812
 20
-164.1098795162642
 30
0.0
 10
89.76695825663812
 20
-164.1098795162642
 30
0.0
 10
89.76695825663812
 20
-164.1098795162642
 30
0.0
 10
89.527351865639
 20
-164.1098795162642
 30
0.0
 10
89.527351865639
 20
-164.1098795162642
 30
0.0
  0
HATCH
  5
93
330
8E
100
AcDbEntity
  8
レイヤー 1
 62
   250
420
  2299925
440
 33554687
100
AcDbHatch
 10
0.0
 20
0.0
 30
0.0
210
0.0
220
0.0
230
1.0
  2
SOLID
 70
     1
 71
     1
 91
        1
 92
        1
 93
        1
 72
     4
 94
        3
 73
     0
 74
     0
 95
       26
 96
       22
 40
0.0
 40
0.0
 40
0.0
 40
0.0
 40
1.0
 40
1.0
 40
1.0
 40
2.0
 40
2.0
 40
2.0
 40
3.0
 40
3.0
 40
3.0
 40
4.0
 40
4.0
 40
4.0
 40
5.0
 40
5.0
 40
5.0
 40
6.0
 40
6.0
 40
6.0
 40
7.0
 40
7.0
 40
7.0
 40
7.0
 10
89.527351865639
 20
-164.1098795162642
 10
89.527351865639
 20
-164.1098795162642
 10
89.527351865639
 20
-163.0057264132416
 10
89.527351865639
 20
-163.0057264132416
 10
89.527351865639
 20
-163.0057264132416
 10
89.17457408794941
 20
-163.0057264132416
 10
89.17457408794941
 20
-163.0057264132416
 10
89.17457408794941
 20
-163.0057264132416
 10
89.17457408794941
 20
-162.8575873073759
 10
89.17457408794941
 20
-162.8575873073759
 10
89.52959117770442
 20
-162.8427733967893
 10
89.57937280746627
 20
-162.679820380337
 10
89.61089543115631
 20
-162.5654432102267
 10
89.61089543115631
 20
-162.5654432102267
 10
89.76695825663812
 20
-162.5654432102267
 10
89.76695825663812
 20
-162.5654432102267
 10
89.76695825663812
 20
-162.5654432102267
 10
89.76695825663812
 20
-164.1098795162642
 10
89.76695825663812
 20
-164.1098795162642
 10
89.76695825663812
 20
-164.1098795162642
 10
89.527351865639
 20
-164.1098795162642
 10
89.527351865639
 20
-164.1098795162642
 97
        0
 97
        1
330
92
 75
     2
 76
     1
 98
        1
 10
0.0
 20
0.0
450
        0
451
        0
460
0.0
461
0.0
452
        0
462
0.0
453
        0
470

  0
SPLINE
  5
94
330
8E
100
AcDbEntity
  8
レイヤー 1
100
AcDbSpline
210
0.0
220
0.0
230
1.0
 70
     9
 71
     3
 72
    17
 73
    13
 74
     0
 42
0.0000000001
 43
0.0000000001
 40
0.0
 40
0.0
 40
0.0
 40
0.0
 40
1.0
 40
1.0
 40
1.0
 40
2.0
 40
2.0
 40
2.0
 40
3.0
 40
3.0
 40
3.0
 40
4.0
 40
4.0
 40
4.0
 40
4.0
 10
90.83717716913097
 20
-162.7094482015101
 30
0.0
 10
90.57035452379839
 20
-162.7094482015101
 30
0.0
 10
90.52057289403654
 20
-162.9929795599462
 30
0.0
 10
90.52057289403654
 20
-163.3378336180197
 30
0.0
 10
90.52057289403654
 20
-163.6571939695024
 30
0.0
 10
90.55898570869706
 20
-163.9658745249807
 30
0.0
 10
90.83717716913097
 20
-163.9658745249807
 30
0.0
 10
91.10158824762391
 20
-163.9658745249807
 30
0.0
 10
91.15360918945119
 20
-163.6847547333843
 30
0.0
 10
91.15360918945119
 20
-163.3378336180197
 30
0.0
 10
91.15360918945119
 20
-163.0181287569885
 30
0.0
 10
91.11295706272525
 20
-162.7094482015101
 30
0.0
 10
90.83717716913097
 20
-162.7094482015101
 30
0.0
  0
SPLINE
  5
95
330
8E
100
AcDbEntity
  8
レイヤー 1
100
AcDbSpline
210
0.0
220
0.0
230
1.0
 70
     9
 71
     3
 72
    29
 73
    25
 74
     0
 42
0.0000000001
 43
0.0000000001
 40
0.0
 40
0.0
 40
0.0
 40
0.0
 40
1.0
 40
1.0
 40
1.0
 40
2.0
 40
2.0
 40
2.0
 40
3.0
 40
3.0
 40
3.0
 40
4.0
 40
4.0
 40
4.0
 40
5.0
 40
5.0
 40
5.0
 40
6.0
 40
6.0
 40
6.0
 40
7.0
 40
7.0
 40
7.0
 40
8.0
 40
8.0
 40
8.0
 40
8.0
 10
91.26212969723656
 20
-163.9321125892253
 30
0.0
 10
91.14689125325496
 20
-164.1415743947285
 30
0.0
 10
90.9615451161485
 20
-164.1605224198974
 30
0.0
 10
90.83717716913097
 20
-164.1605224198974
 30
0.0
 10
90.66526690441703
 20
-164.1605224198974
 30
0.0
 10
90.5138549578403
 20
-164.1140136308465
 30
0.0
 10
90.41205238625115
 20
-163.9321125892253
 30
0.0
 10
90.30129256640037
 20
-163.7374646943087
 30
0.0
 10
90.28096650303741
 20
-163.5004421249235
 30
0.0
 10
90.28096650303741
 20
-163.3378336180197
 30
0.0
 10
90.28096650303741
 20
-163.1938286267362
 30
0.0
 10
90.29905325433496
 20
-162.9419921467645
 30
0.0
 10
90.41205238625115
 20
-162.7432101372656
 30
0.0
 10
90.52746308500703
 20
-162.5402940131843
 30
0.0
 10
90.69920109494672
 20
-162.5168673638846
 30
0.0
 10
90.83717716913097
 20
-162.5168673638846
 30
0.0
 10
91.00667586700529
 20
-162.5168673638846
 30
0.0
 10
91.16049938042168
 20
-162.5613090956444
 30
0.0
 10
91.26212969723656
 20
-162.7432101372656
 30
0.0
 10
91.36841089295652
 20
-162.935790974891
 30
0.0
 10
91.39338783522457
 20
-163.1642008055631
 30
0.0
 10
91.39338783522457
 20
-163.3378336180197
 30
0.0
 10
91.39338783522457
 20
-163.5090548636366
 30
0.0
 10
91.37065020502193
 20
-163.7395317515998
 30
0.0
 10
91.26212969723656
 20
-163.9321125892253
 30
0.0
  0
HATCH
  5
96
330
8E
100
AcDbEntity
  8
レイヤー 1
 62
   250
420
  2299925
440
 33554687
100
AcDbHatch
 10
0.0
 20
0.0
 30
0.0
210
0.0
220
0.0
230
1.0
  2
SOLID
 70
     1
 71
     1
 91
        2
 92
        1
 93
        1
 72
     4
 94
        3
 73
     0
 74
     0
 95
       17
 96
       13
 40
0.0
 40
0.0
 40
0.0
 40
0.0
 40
1.0
 40
1.0
 40
1.0
 40
2.0
 40
2.0
 40
2.0
 40
3.0
 40
3.0
 40
3.0
 40
4.0
 40
4.0
 40
4.0
 40
4.0
 10
90.83717716913097
 20
-162.7094482015101
 10
90.57035452379839
 20
-162.7094482015101
 10
90.52057289403654
 20
-162.9929795599462
 10
90.52057289403654
 20
-163.3378336180197
 10
90.52057289403654
 20
-163.6571939695024
 10
90.55898570869706
 20
-163.9658745249807
 10
90.83717716913097
 20
-163.9658745249807
 10
91.10158824762391
 20
-163.9658745249807
 10
91.15360918945119
 20
-163.6847547333843
 10
91.15360918945119
 20
-163.3378336180197
 10
91.15360918945119
 20
-163.0181287569885
 10
91.11295706272525
 20
-162.7094482015101
 10
90.83717716913097
 20
-162.7094482015101
 97
        0
 97
        1
330
94
 92
        1
 93
        1
 72
     4
 94
        3
 73
     0
 74
     0
 95
       29
 96
       25
 40
0.0
 40
0.0
 40
0.0
 40
0.0
 40
1.0
 40
1.0
 40
1.0
 40
2.0
 40
2.0
 40
2.0
 40
3.0
 40
3.0
 40
3.0
 40
4.0
 40
4.0
 40
4.0
 40
5.0
 40
5.0
 40
5.0
 40
6.0
 40
6.0
 40
6.0
 40
7.0
 40
7.0
 40
7.0
 40
8.0
 40
8.0
 40
8.0
 40
8.0
 10
91.26212969723656
 20
-163.9321125892253
 10
91.14689125325496
 20
-164.1415743947285
 10
90.9615451161485
 20
-164.1605224198974
 10
90.83717716913097
 20
-164.1605224198974
 10
90.66526690441703
 20
-164.1605224198974
 10
90.5138549578403
 20
-164.1140136308465
 10
90.41205238625115
 20
-163.9321125892253
 10
90.30129256640037
 20
-163.7374646943087
 10
90.28096650303741
 20
-163.5004421249235
 10
90.28096650303741
 20
-163.3378336180197
 10
90.28096650303741
 20
-163.1938286267362
 10
90.29905325433496
 20
-162.9419921467645
 10
90.41205238625115
 20
-162.7432101372656
 10
90.52746308500703
 20
-162.5402940131843
 10
90.69920109494672
 20
-162.5168673638846
 10
90.83717716913097
 20
-162.5168673638846
 10
91.00667586700529
 20
-162.5168673638846
 10
91.16049938042168
 20
-162.5613090956444
 10
91.26212969723656
 20
-162.7432101372656
 10
91.36841089295652
 20
-162.935790974891
 10
91.39338783522457
 20
-163.1642008055631
 10
91.39338783522457
 20
-163.3378336180197
 10
91.39338783522457
 20
-163.5090548636366
 10
91.37065020502193
 20
-163.7395317515998
 10
91.26212969723656
 20
-163.9321125892253
 97
        0
 97
        1
330
95
 75
     2
 76
     1
 98
        1
 10
0.0
 20
0.0
450
        0
451
        0
460
0.0
461
0.0
452
        0
462
0.0
453
        0
470

  0
ENDBLK
  5
91
330
8E
100
AcDbEntity
  8
0
100
AcDbBlockEnd
  0
BLOCK
  5
A3
330
A1
100
AcDbEntity
  8
0
100
AcDbBlockBegin
  2
Block_4
 70
     0
 10
0.0
 20
0.0
 30
0.0
  3
Block_4
  1

  0
SPLINE
  5
A5
330
A1
100
AcDbEntity
  8
レイヤー 1
100
AcDbSpline
210
0.0
220
0.0
230
1.0
 70
     9
 71
     3
 72
    62
 73
    58
 74
     0
 42
0.0000000001
 43
0.0000000001
 40
0.0
 40
0.0
 40
0.0
 40
0.0
 40
1.0
 40
1.0
 40
1.0
 40
2.0
 40
2.0
 40
2.0
 40
3.0
 40
3.0
 40
3.0
 40
4.0
 40
4.0
 40
4.0
 40
5.0
 40
5.0
 40
5.0
 40
6.0
 40
6.0
 40
6.0
 40
7.0
 40
7.0
 40
7.0
 40
8.0
 40
8.0
 40
8.0
 40
9.0
 40
9.0
 40
9.0
 40
10.0
 40
10.0
 40
10.0
 40
11.0
 40
11.0
 40
11.0
 40
12.0
 40
12.0
 40
12.0
 40
13.0
 40
13.0
 40
13.0
 40
14.0
 40
14.0
 40
14.0
 40
15.0
 40
15.0
 40
15.0
 40
16.0
 40
16.0
 40
16.0
 40
17.0
 40
17.0
 40
17.0
 40
18.0
 40
18.0
 40
18.0
 40
19.0
 40
19.0
 40
19.0
 40
19.0
 10
94.81987980485406
 20
-142.8153998123864
 30
0.0
 10
94.81987980485406
 20
-142.9170301292013
 30
0.0
 10
94.79886472239405
 20
-143.1499185840042
 30
0.0
 10
94.61282956619054
 20
-143.2834160340576
 30
0.0
 10
94.5005194533714
 20
-143.3624809754441
 30
0.0
 10
94.4013007033962
 20
-143.3669595995749
 30
0.0
 10
94.31655135445906
 20
-143.3714382237057
 30
0.0
 10
94.31655135445906
 20
-143.3714382237057
 30
0.0
 10
94.31655135445906
 20
-143.1364827116117
 30
0.0
 10
94.31655135445906
 20
-143.1364827116117
 30
0.0
 10
94.39062090739193
 20
-143.134071144772
 30
0.0
 10
94.62523190993744
 20
-143.122874584445
 30
0.0
 10
94.62523190993744
 20
-142.8198784365172
 30
0.0
 10
94.62523190993744
 20
-142.6729451140713
 30
0.0
 10
94.55564098113539
 20
-142.5101643523933
 30
0.0
 10
94.32723115046334
 20
-142.5101643523933
 30
0.0
 10
94.21078692306188
 20
-142.5101643523933
 30
0.0
 10
94.16221107671987
 20
-142.5508164791192
 30
0.0
 10
94.13051619825557
 20
-142.584750669649
 30
0.0
 10
94.05644664532269
 20
-142.6638156110354
 30
0.0
 10
94.04369979202726
 20
-142.7881835580529
 30
0.0
 10
94.04369979202726
 20
-142.8470946908507
 30
0.0
 10
94.04369979202726
 20
-142.8674207542137
 30
0.0
 10
94.04576684931843
 20
-142.9058335688742
 30
0.0
 10
94.04990096390072
 20
-142.9351168804988
 30
0.0
 10
94.04990096390072
 20
-142.9351168804988
 30
0.0
 10
93.85525306898411
 20
-142.9351168804988
 30
0.0
 10
93.85525306898411
 20
-142.9351168804988
 30
0.0
 10
93.86179875040609
 20
-142.8944647537729
 30
0.0
 10
93.86386580769723
 20
-142.8493340029161
 30
0.0
 10
93.86386580769723
 20
-142.8424438119456
 30
0.0
 10
93.86386580769723
 20
-142.7723361188208
 30
0.0
 10
93.84250621568869
 20
-142.5599459821552
 30
0.0
 10
93.60582815585201
 20
-142.5599459821552
 30
0.0
 10
93.42806122881311
 20
-142.5599459821552
 30
0.0
 10
93.37293970104914
 20
-142.6999891136305
 30
0.0
 10
93.37293970104914
 20
-142.8176391244518
 30
0.0
 10
93.37293970104914
 20
-143.1003092090166
 30
0.0
 10
93.60582815585201
 20
-143.1092664572782
 30
0.0
 10
93.67748614194521
 20
-143.113745081409
 30
0.0
 10
93.67748614194521
 20
-143.113745081409
 30
0.0
 10
93.67748614194521
 20
-143.3307860969798
 30
0.0
 10
93.67748614194521
 20
-143.3307860969798
 30
0.0
 10
93.55277368537917
 20
-143.3218288487181
 30
0.0
 10
93.17622474884137
 20
-143.2923732823192
 30
0.0
 10
93.17622474884137
 20
-142.8040309972851
 30
0.0
 10
93.17622474884137
 20
-142.564424606286
 30
0.0
 10
93.30334877224707
 20
-142.3067314639893
 30
0.0
 10
93.59928247443004
 20
-142.3067314639893
 30
0.0
 10
93.78566214018205
 20
-142.3067314639893
 30
0.0
 10
93.86799992227954
 20
-142.4083617808042
 30
0.0
 10
93.92932262191697
 20
-142.5146429765241
 30
0.0
 10
93.95688338579898
 20
-142.4491861623044
 30
0.0
 10
94.03715411060529
 20
-142.254710522162
 30
0.0
 10
94.31448429716791
 20
-142.254710522162
 30
0.0
 10
94.65279267381944
 20
-142.254710522162
 30
0.0
 10
94.81987980485406
 20
-142.5191216006549
 30
0.0
 10
94.81987980485406
 20
-142.8153998123864
 30
0.0
  0
HATCH
  5
A6
330
A1
100
AcDbEntity
  8
レイヤー 1
 62
   250
420
  2299925
440
 33554687
100
AcDbHatch
 10
0.0
 20
0.0
 30
0.0
210
0.0
220
0.0
230
1.0
  2
SOLID
 70
     1
 71
     1
 91
        1
 92
        1
 93
        1
 72
     4
 94
        3
 73
     0
 74
     0
 95
       62
 96
       58
 40
0.0
 40
0.0
 40
0.0
 40
0.0
 40
1.0
 40
1.0
 40
1.0
 40
2.0
 40
2.0
 40
2.0
 40
3.0
 40
3.0
 40
3.0
 40
4.0
 40
4.0
 40
4.0
 40
5.0
 40
5.0
 40
5.0
 40
6.0
 40
6.0
 40
6.0
 40
7.0
 40
7.0
 40
7.0
 40
8.0
 40
8.0
 40
8.0
 40
9.0
 40
9.0
 40
9.0
 40
10.0
 40
10.0
 40
10.0
 40
11.0
 40
11.0
 40
11.0
 40
12.0
 40
12.0
 40
12.0
 40
13.0
 40
13.0
 40
13.0
 40
14.0
 40
14.0
 40
14.0
 40
15.0
 40
15.0
 40
15.0
 40
16.0
 40
16.0
 40
16.0
 40
17.0
 40
17.0
 40
17.0
 40
18.0
 40
18.0
 40
18.0
 40
19.0
 40
19.0
 40
19.0
 40
19.0
 10
94.81987980485406
 20
-142.8153998123864
 10
94.81987980485406
 20
-142.9170301292013
 10
94.79886472239405
 20
-143.1499185840042
 10
94.61282956619054
 20
-143.2834160340576
 10
94.5005194533714
 20
-143.3624809754441
 10
94.4013007033962
 20
-143.3669595995749
 10
94.31655135445906
 20
-143.3714382237057
 10
94.31655135445906
 20
-143.3714382237057
 10
94.31655135445906
 20
-143.1364827116117
 10
94.31655135445906
 20
-143.1364827116117
 10
94.39062090739193
 20
-143.134071144772
 10
94.62523190993744
 20
-143.122874584445
 10
94.62523190993744
 20
-142.8198784365172
 10
94.62523190993744
 20
-142.6729451140713
 10
94.55564098113539
 20
-142.5101643523933
 10
94.32723115046334
 20
-142.5101643523933
 10
94.21078692306188
 20
-142.5101643523933
 10
94.16221107671987
 20
-142.5508164791192
 10
94.13051619825557
 20
-142.584750669649
 10
94.05644664532269
 20
-142.6638156110354
 10
94.04369979202726
 20
-142.7881835580529
 10
94.04369979202726
 20
-142.8470946908507
 10
94.04369979202726
 20
-142.8674207542137
 10
94.04576684931843
 20
-142.9058335688742
 10
94.04990096390072
 20
-142.9351168804988
 10
94.04990096390072
 20
-142.9351168804988
 10
93.85525306898411
 20
-142.9351168804988
 10
93.85525306898411
 20
-142.9351168804988
 10
93.86179875040609
 20
-142.8944647537729
 10
93.86386580769723
 20
-142.8493340029161
 10
93.86386580769723
 20
-142.8424438119456
 10
93.86386580769723
 20
-142.7723361188208
 10
93.84250621568869
 20
-142.5599459821552
 10
93.60582815585201
 20
-142.5599459821552
 10
93.42806122881311
 20
-142.5599459821552
 10
93.37293970104914
 20
-142.6999891136305
 10
93.37293970104914
 20
-142.8176391244518
 10
93.37293970104914
 20
-143.1003092090166
 10
93.60582815585201
 20
-143.1092664572782
 10
93.67748614194521
 20
-143.113745081409
 10
93.67748614194521
 20
-143.113745081409
 10
93.67748614194521
 20
-143.3307860969798
 10
93.67748614194521
 20
-143.3307860969798
 10
93.55277368537917
 20
-143.3218288487181
 10
93.17622474884137
 20
-143.2923732823192
 10
93.17622474884137
 20
-142.8040309972851
 10
93.17622474884137
 20
-142.564424606286
 10
93.30334877224707
 20
-142.3067314639893
 10
93.59928247443004
 20
-142.3067314639893
 10
93.78566214018205
 20
-142.3067314639893
 10
93.86799992227954
 20
-142.4083617808042
 10
93.92932262191697
 20
-142.5146429765241
 10
93.95688338579898
 20
-142.4491861623044
 10
94.03715411060529
 20
-142.254710522162
 10
94.31448429716791
 20
-142.254710522162
 10
94.65279267381944
 20
-142.254710522162
 10
94.81987980485406
 20
-142.5191216006549
 10
94.81987980485406
 20
-142.8153998123864
 97
        0
 97
        1
330
A5
 75
     2
 76
     1
 98
        1
 10
0.0
 20
0.0
450
        0
451
        0
460
0.0
461
0.0
452
        0
462
0.0
453
        0
470

  0
ENDBLK
  5
A4
330
A1
100
AcDbEntity
  8
0
100
AcDbBlockEnd
  0
BLOCK
  5
AD
330
AB
100
AcDbEntity
  8
0
100
AcDbBlockBegin
  2
Block_5
 70
     0
 10
0.0
 20
0.0
 30
0.0
  3
Block_5
  1

  0
SPLINE
  5
AF
330
AB
100
AcDbEntity
  8
レイヤー 1
100
AcDbSpline
210
0.0
220
0.0
230
1.0
 70
     9
 71
     3
 72
    62
 73
    58
 74
     0
 42
0.0000000001
 43
0.0000000001
 40
0.0
 40
0.0
 40
0.0
 40
0.0
 40
1.0
 40
1.0
 40
1.0
 40
2.0
 40
2.0
 40
2.0
 40
3.0
 40
3.0
 40
3.0
 40
4.0
 40
4.0
 40
4.0
 40
5.0
 40
5.0
 40
5.0
 40
6.0
 40
6.0
 40
6.0
 40
7.0
 40
7.0
 40
7.0
 40
8.0
 40
8.0
 40
8.0
 40
9.0
 40
9.0
 40
9.0
 40
10.0
 40
10.0
 40
10.0
 40
11.0
 40
11.0
 40
11.0
 40
12.0
 40
12.0
 40
12.0
 40
13.0
 40
13.0
 40
13.0
 40
14.0
 40
14.0
 40
14.0
 40
15.0
 40
15.0
 40
15.0
 40
16.0
 40
16.0
 40
16.0
 40
17.0
 40
17.0
 40
17.0
 40
18.0
 40
18.0
 40
18.0
 40
19.0
 40
19.0
 40
19.0
 40
19.0
 10
130.0433973199197
 20
-157.922143515207
 30
0.0
 10
130.0433973199197
 20
-158.0237738320218
 30
0.0
 10
130.0223822374596
 20
-158.2566622868247
 30
0.0
 10
129.8363470812562
 20
-158.3903319916524
 30
0.0
 10
129.724036968437
 20
-158.4692246782646
 30
0.0
 10
129.6248182184618
 20
-158.4737033023954
 30
0.0
 10
129.5400688695247
 20
-158.4781819265263
 30
0.0
 10
129.5400688695247
 20
-158.4781819265263
 30
0.0
 10
129.5400688695247
 20
-158.2432264144322
 30
0.0
 10
129.5400688695247
 20
-158.2432264144322
 30
0.0
 10
129.6141384224576
 20
-158.2408148475925
 30
0.0
 10
129.8487494250031
 20
-158.2297905420398
 30
0.0
 10
129.8487494250031
 20
-157.9266221393378
 30
0.0
 10
129.8487494250031
 20
-157.7798610716661
 30
0.0
 10
129.779158496201
 20
-157.6169080552138
 30
0.0
 10
129.550748665529
 20
-157.6169080552138
 30
0.0
 10
129.4343044381275
 20
-157.6169080552138
 30
0.0
 10
129.3857285917855
 20
-157.6575601819397
 30
0.0
 10
129.3540337133212
 20
-157.6916666272437
 30
0.0
 10
129.2799641603883
 20
-157.770559313856
 30
0.0
 10
129.2672173070929
 20
-157.8949272608735
 30
0.0
 10
129.2672173070929
 20
-157.9538383936712
 30
0.0
 10
129.2672173070929
 20
-157.9741644570342
 30
0.0
 10
129.269284364384
 20
-158.012749526469
 30
0.0
 10
129.2734184789663
 20
-158.0416883285451
 30
0.0
 10
129.2734184789663
 20
-158.0416883285451
 30
0.0
 10
129.0787705840497
 20
-158.0416883285451
 30
0.0
 10
129.0787705840497
 20
-158.0416883285451
 30
0.0
 10
129.0853162654717
 20
-158.0010362018192
 30
0.0
 10
129.0873833227629
 20
-157.9562499605109
 30
0.0
 10
129.0873833227629
 20
-157.9493597695404
 30
0.0
 10
129.0873833227629
 20
-157.8790798216413
 30
0.0
 10
129.0660237307543
 20
-157.6668619397499
 30
0.0
 10
128.8293456709176
 20
-157.6668619397499
 30
0.0
 10
128.6515787438788
 20
-157.6668619397499
 30
0.0
 10
128.5964572161147
 20
-157.8067328164511
 30
0.0
 10
128.5964572161147
 20
-157.9245550820466
 30
0.0
 10
128.5964572161147
 20
-158.2070529118371
 30
0.0
 10
128.8293456709176
 20
-158.2160101600988
 30
0.0
 10
128.9010036570108
 20
-158.2204887842296
 30
0.0
 10
128.9010036570108
 20
-158.2204887842296
 30
0.0
 10
128.9010036570108
 20
-158.4375297998003
 30
0.0
 10
128.9010036570108
 20
-158.4375297998003
 30
0.0
 10
128.7762912004448
 20
-158.4285725515387
 30
0.0
 10
128.399742263907
 20
-158.3992892399141
 30
0.0
 10
128.399742263907
 20
-157.9107747001056
 30
0.0
 10
128.399742263907
 20
-157.6709960543322
 30
0.0
 10
128.5268662873127
 20
-157.4133029120355
 30
0.0
 10
128.8227999894957
 20
-157.4133029120355
 30
0.0
 10
129.0091796552477
 20
-157.4133029120355
 30
0.0
 10
129.0915174373451
 20
-157.5152777383989
 30
0.0
 10
129.1528401369826
 20
-157.6213866793446
 30
0.0
 10
129.1804009008646
 20
-157.5559298651249
 30
0.0
 10
129.2606716256709
 20
-157.3616264797568
 30
0.0
 10
129.5380018122336
 20
-157.3616264797568
 30
0.0
 10
129.8763101888851
 20
-157.3616264797568
 30
0.0
 10
130.0433973199197
 20
-157.6258653034755
 30
0.0
 10
130.0433973199197
 20
-157.922143515207
 30
0.0
  0
HATCH
  5
B0
330
AB
100
AcDbEntity
  8
レイヤー 1
 62
   250
420
  2299925
440
 33554687
100
AcDbHatch
 10
0.0
 20
0.0
 30
0.0
210
0.0
220
0.0
230
1.0
  2
SOLID
 70
     1
 71
     1
 91
        1
 92
        1
 93
        1
 72
     4
 94
        3
 73
     0
 74
     0
 95
       62
 96
       58
 40
0.0
 40
0.0
 40
0.0
 40
0.0
 40
1.0
 40
1.0
 40
1.0
 40
2.0
 40
2.0
 40
2.0
 40
3.0
 40
3.0
 40
3.0
 40
4.0
 40
4.0
 40
4.0
 40
5.0
 40
5.0
 40
5.0
 40
6.0
 40
6.0
 40
6.0
 40
7.0
 40
7.0
 40
7.0
 40
8.0
 40
8.0
 40
8.0
 40
9.0
 40
9.0
 40
9.0
 40
10.0
 40
10.0
 40
10.0
 40
11.0
 40
11.0
 40
11.0
 40
12.0
 40
12.0
 40
12.0
 40
13.0
 40
13.0
 40
13.0
 40
14.0
 40
14.0
 40
14.0
 40
15.0
 40
15.0
 40
15.0
 40
16.0
 40
16.0
 40
16.0
 40
17.0
 40
17.0
 40
17.0
 40
18.0
 40
18.0
 40
18.0
 40
19.0
 40
19.0
 40
19.0
 40
19.0
 10
130.0433973199197
 20
-157.922143515207
 10
130.0433973199197
 20
-158.0237738320218
 10
130.0223822374596
 20
-158.2566622868247
 10
129.8363470812562
 20
-158.3903319916524
 10
129.724036968437
 20
-158.4692246782646
 10
129.6248182184618
 20
-158.4737033023954
 10
129.5400688695247
 20
-158.4781819265263
 10
129.5400688695247
 20
-158.4781819265263
 10
129.5400688695247
 20
-158.2432264144322
 10
129.5400688695247
 20
-158.2432264144322
 10
129.6141384224576
 20
-158.2408148475925
 10
129.8487494250031
 20
-158.2297905420398
 10
129.8487494250031
 20
-157.9266221393378
 10
129.8487494250031
 20
-157.7798610716661
 10
129.779158496201
 20
-157.6169080552138
 10
129.550748665529
 20
-157.6169080552138
 10
129.4343044381275
 20
-157.6169080552138
 10
129.3857285917855
 20
-157.6575601819397
 10
129.3540337133212
 20
-157.6916666272437
 10
129.2799641603883
 20
-157.770559313856
 10
129.2672173070929
 20
-157.8949272608735
 10
129.2672173070929
 20
-157.9538383936712
 10
129.2672173070929
 20
-157.9741644570342
 10
129.269284364384
 20
-158.012749526469
 10
129.2734184789663
 20
-158.0416883285451
 10
129.2734184789663
 20
-158.0416883285451
 10
129.0787705840497
 20
-158.0416883285451
 10
129.0787705840497
 20
-158.0416883285451
 10
129.0853162654717
 20
-158.0010362018192
 10
129.0873833227629
 20
-157.9562499605109
 10
129.0873833227629
 20
-157.9493597695404
 10
129.0873833227629
 20
-157.8790798216413
 10
129.0660237307543
 20
-157.6668619397499
 10
128.8293456709176
 20
-157.6668619397499
 10
128.6515787438788
 20
-157.6668619397499
 10
128.5964572161147
 20
-157.8067328164511
 10
128.5964572161147
 20
-157.9245550820466
 10
128.5964572161147
 20
-158.2070529118371
 10
128.8293456709176
 20
-158.2160101600988
 10
128.9010036570108
 20
-158.2204887842296
 10
128.9010036570108
 20
-158.2204887842296
 10
128.9010036570108
 20
-158.4375297998003
 10
128.9010036570108
 20
-158.4375297998003
 10
128.7762912004448
 20
-158.4285725515387
 10
128.399742263907
 20
-158.3992892399141
 10
128.399742263907
 20
-157.9107747001056
 10
128.399742263907
 20
-157.6709960543322
 10
128.5268662873127
 20
-157.4133029120355
 10
128.8227999894957
 20
-157.4133029120355
 10
129.0091796552477
 20
-157.4133029120355
 10
129.0915174373451
 20
-157.5152777383989
 10
129.1528401369826
 20
-157.6213866793446
 10
129.1804009008646
 20
-157.5559298651249
 10
129.2606716256709
 20
-157.3616264797568
 10
129.5380018122336
 20
-157.3616264797568
 10
129.8763101888851
 20
-157.3616264797568
 10
130.0433973199197
 20
-157.6258653034755
 10
130.0433973199197
 20
-157.922143515207
 97
        0
 97
        1
330
AF
 75
     2
 76
     1
 98
        1
 10
0.0
 20
0.0
450
        0
451
        0
460
0.0
461
0.0
452
        0
462
0.0
453
        0
470

  0
ENDBLK
  5
AE
330
AB
100
AcDbEntity
  8
0
100
AcDbBlockEnd
  0
BLOCK
  5
B3
330
B1
100
AcDbEntity
  8
0
100
AcDbBlockBegin
  2
Block_6
 70
     0
 10
0.0
 20
0.0
 30
0.0
  3
Block_6
  1

  0
INSERT
  5
B6
330
B1
100
AcDbEntity
  8
レイヤー 1
100
AcDbBlockReference
  2
Block_7
 10
0.0
 20
0.0
 30
0.0
  0
ENDBLK
  5
B4
330
B1
100
AcDbEntity
  8
0
100
AcDbBlockEnd
  0
BLOCK
  5
B7
330
B5
100
AcDbEntity
  8
0
100
AcDbBlockBegin
  2
Block_7
 70
     0
 10
0.0
 20
0.0
 30
0.0
  3
Block_7
  1

  0
SPLINE
  5
B9
330
B5
100
AcDbEntity
  8
レイヤー 1
100
AcDbSpline
210
0.0
220
0.0
230
1.0
 70
     9
 71
     3
 72
    17
 73
    13
 74
     0
 42
0.0000000001
 43
0.0000000001
 40
0.0
 40
0.0
 40
0.0
 40
0.0
 40
1.0
 40
1.0
 40
1.0
 40
2.0
 40
2.0
 40
2.0
 40
3.0
 40
3.0
 40
3.0
 40
4.0
 40
4.0
 40
4.0
 40
4.0
 10
129.1845350154469
 20
-154.0388318842333
 30
0.0
 10
129.1845350154469
 20
-154.3192626567327
 30
0.0
 10
129.3960638782412
 20
-154.3599147834586
 30
0.0
 10
129.5125081056427
 20
-154.3599147834586
 30
0.0
 10
129.6882079753904
 20
-154.3599147834586
 30
0.0
 10
129.8511609918427
 20
-154.2582844666438
 30
0.0
 10
129.8511609918427
 20
-154.0612250048875
 30
0.0
 10
129.8511609918427
 20
-153.9323784337391
 30
0.0
 10
129.7919053494964
 20
-153.7449652393415
 30
0.0
 10
129.5063069337692
 20
-153.7449652393415
 30
0.0
 10
129.2820312176795
 20
-153.7449652393415
 30
0.0
 10
129.1845350154469
 20
-153.8941378738528
 30
0.0
 10
129.1845350154469
 20
-154.0388318842333
 30
0.0
  0
SPLINE
  5
BA
330
B5
100
AcDbEntity
  8
レイヤー 1
100
AcDbSpline
210
0.0
220
0.0
230
1.0
 70
     9
 71
     3
 72
    32
 73
    28
 74
     0
 42
0.0000000001
 43
0.0000000001
 40
0.0
 40
0.0
 40
0.0
 40
0.0
 40
1.0
 40
1.0
 40
1.0
 40
2.0
 40
2.0
 40
2.0
 40
3.0
 40
3.0
 40
3.0
 40
4.0
 40
4.0
 40
4.0
 40
5.0
 40
5.0
 40
5.0
 40
6.0
 40
6.0
 40
6.0
 40
7.0
 40
7.0
 40
7.0
 40
8.0
 40
8.0
 40
8.0
 40
9.0
 40
9.0
 40
9.0
 40
9.0
 10
130.0433973199197
 20
-154.0570908903051
 30
0.0
 10
130.0433973199197
 20
-154.6086506774936
 30
0.0
 10
129.4894259658915
 20
-154.6176079257553
 30
0.0
 10
129.2754855362575
 20
-154.6176079257553
 30
0.0
 10
129.0450086482943
 20
-154.6176079257553
 30
0.0
 10
128.3976752066158
 20
-154.5972818623923
 30
0.0
 10
128.3976752066158
 20
-154.0164387635792
 30
0.0
 10
128.3976752066158
 20
-153.8307481169242
 30
0.0
 10
128.4676106449664
 20
-153.5685763504967
 30
0.0
 10
128.7997178497445
 20
-153.5279242237708
 30
0.0
 10
128.7997178497445
 20
-153.5279242237708
 30
0.0
 10
128.7997178497445
 20
-153.7559895448943
 30
0.0
 10
128.7997178497445
 20
-153.7559895448943
 30
0.0
 10
128.7425292646894
 20
-153.7677028695442
 30
0.0
 10
128.5943901588236
 20
-153.8014648052996
 30
0.0
 10
128.5943901588236
 20
-154.0185058208704
 30
0.0
 10
128.5943901588236
 20
-154.330631471834
 30
0.0
 10
128.9223632490194
 20
-154.3733506558511
 30
0.0
 10
129.1273464303918
 20
-154.3871310377921
 30
0.0
 10
129.0491427628766
 20
-154.2875677782684
 30
0.0
 10
128.9898871205303
 20
-154.2152207730781
 30
0.0
 10
128.9898871205303
 20
-154.0205728781615
 30
0.0
 10
128.9898871205303
 20
-153.8283365500846
 30
0.0
 10
129.0980631187671
 20
-153.5051865935681
 30
0.0
 10
129.5042398764781
 20
-153.5051865935681
 30
0.0
 10
129.8236002279607
 20
-153.5051865935681
 30
0.0
 10
130.0433973199197
 20
-153.717748985008
 30
0.0
 10
130.0433973199197
 20
-154.0570908903051
 30
0.0
  0
HATCH
  5
BB
330
B5
100
AcDbEntity
  8
レイヤー 1
 62
   250
420
  2299925
440
 33554687
100
AcDbHatch
 10
0.0
 20
0.0
 30
0.0
210
0.0
220
0.0
230
1.0
  2
SOLID
 70
     1
 71
     1
 91
        2
 92
        1
 93
        1
 72
     4
 94
        3
 73
     0
 74
     0
 95
       17
 96
       13
 40
0.0
 40
0.0
 40
0.0
 40
0.0
 40
1.0
 40
1.0
 40
1.0
 40
2.0
 40
2.0
 40
2.0
 40
3.0
 40
3.0
 40
3.0
 40
4.0
 40
4.0
 40
4.0
 40
4.0
 10
129.1845350154469
 20
-154.0388318842333
 10
129.1845350154469
 20
-154.3192626567327
 10
129.3960638782412
 20
-154.3599147834586
 10
129.5125081056427
 20
-154.3599147834586
 10
129.6882079753904
 20
-154.3599147834586
 10
129.8511609918427
 20
-154.2582844666438
 10
129.8511609918427
 20
-154.0612250048875
 10
129.8511609918427
 20
-153.9323784337391
 10
129.7919053494964
 20
-153.7449652393415
 10
129.5063069337692
 20
-153.7449652393415
 10
129.2820312176795
 20
-153.7449652393415
 10
129.1845350154469
 20
-153.8941378738528
 10
129.1845350154469
 20
-154.0388318842333
 97
        0
 97
        1
330
B9
 92
        1
 93
        1
 72
     4
 94
        3
 73
     0
 74
     0
 95
       32
 96
       28
 40
0.0
 40
0.0
 40
0.0
 40
0.0
 40
1.0
 40
1.0
 40
1.0
 40
2.0
 40
2.0
 40
2.0
 40
3.0
 40
3.0
 40
3.0
 40
4.0
 40
4.0
 40
4.0
 40
5.0
 40
5.0
 40
5.0
 40
6.0
 40
6.0
 40
6.0
 40
7.0
 40
7.0
 40
7.0
 40
8.0
 40
8.0
 40
8.0
 40
9.0
 40
9.0
 40
9.0
 40
9.0
 10
130.0433973199197
 20
-154.0570908903051
 10
130.0433973199197
 20
-154.6086506774936
 10
129.4894259658915
 20
-154.6176079257553
 10
129.2754855362575
 20
-154.6176079257553
 10
129.0450086482943
 20
-154.6176079257553
 10
128.3976752066158
 20
-154.5972818623923
 10
128.3976752066158
 20
-154.0164387635792
 10
128.3976752066158
 20
-153.8307481169242
 10
128.4676106449664
 20
-153.5685763504967
 10
128.7997178497445
 20
-153.5279242237708
 10
128.7997178497445
 20
-153.5279242237708
 10
128.7997178497445
 20
-153.7559895448943
 10
128.7997178497445
 20
-153.7559895448943
 10
128.7425292646894
 20
-153.7677028695442
 10
128.5943901588236
 20
-153.8014648052996
 10
128.5943901588236
 20
-154.0185058208704
 10
128.5943901588236
 20
-154.330631471834
 10
128.9223632490194
 20
-154.3733506558511
 10
129.1273464303918
 20
-154.3871310377921
 10
129.0491427628766
 20
-154.2875677782684
 10
128.9898871205303
 20
-154.2152207730781
 10
128.9898871205303
 20
-154.0205728781615
 10
128.9898871205303
 20
-153.8283365500846
 10
129.0980631187671
 20
-153.5051865935681
 10
129.5042398764781
 20
-153.5051865935681
 10
129.8236002279607
 20
-153.5051865935681
 10
130.0433973199197
 20
-153.717748985008
 10
130.0433973199197
 20
-154.0570908903051
 97
        0
 97
        1
330
BA
 75
     2
 76
     1
 98
        1
 10
0.0
 20
0.0
450
        0
451
        0
460
0.0
461
0.0
452
        0
462
0.0
453
        0
470

  0
SPLINE
  5
BC
330
B5
100
AcDbEntity
  8
レイヤー 1
100
AcDbSpline
210
0.0
220
0.0
230
1.0
 70
    11
 71
     3
 72
    17
 73
    13
 74
     0
 42
0.0000000001
 43
0.0000000001
 40
0.0
 40
0.0
 40
0.0
 40
0.0
 40
1.0
 40
1.0
 40
1.0
 40
2.0
 40
2.0
 40
2.0
 40
3.0
 40
3.0
 40
3.0
 40
4.0
 40
4.0
 40
4.0
 40
4.0
 10
129.9927544162865
 20
-153.2736761769593
 30
0.0
 10
129.9927544162865
 20
-153.2736761769593
 30
0.0
 10
129.7409179363148
 20
-153.2736761769593
 30
0.0
 10
129.7409179363148
 20
-153.2736761769593
 30
0.0
 10
129.7409179363148
 20
-153.2736761769593
 30
0.0
 10
129.7409179363148
 20
-153.0049587291099
 30
0.0
 10
129.7409179363148
 20
-153.0049587291099
 30
0.0
 10
129.7409179363148
 20
-153.0049587291099
 30
0.0
 10
129.9927544162865
 20
-153.0049587291099
 30
0.0
 10
129.9927544162865
 20
-153.0049587291099
 30
0.0
 10
129.9927544162865
 20
-153.0049587291099
 30
0.0
 10
129.9927544162865
 20
-153.2736761769593
 30
0.0
 10
129.9927544162865
 20
-153.2736761769593
 30
0.0
  0
HATCH
  5
BD
330
B5
100
AcDbEntity
  8
レイヤー 1
 62
   250
420
  2299925
440
 33554687
100
AcDbHatch
 10
0.0
 20
0.0
 30
0.0
210
0.0
220
0.0
230
1.0
  2
SOLID
 70
     1
 71
     1
 91
        1
 92
        1
 93
        1
 72
     4
 94
        3
 73
     0
 74
     0
 95
       17
 96
       13
 40
0.0
 40
0.0
 40
0.0
 40
0.0
 40
1.0
 40
1.0
 40
1.0
 40
2.0
 40
2.0
 40
2.0
 40
3.0
 40
3.0
 40
3.0
 40
4.0
 40
4.0
 40
4.0
 40
4.0
 10
129.9927544162865
 20
-153.2736761769593
 10
129.9927544162865
 20
-153.2736761769593
 10
129.7409179363148
 20
-153.2736761769593
 10
129.7409179363148
 20
-153.2736761769593
 10
129.7409179363148
 20
-153.2736761769593
 10
129.7409179363148
 20
-153.0049587291099
 10
129.7409179363148
 20
-153.0049587291099
 10
129.7409179363148
 20
-153.0049587291099
 10
129.9927544162865
 20
-153.0049587291099
 10
129.9927544162865
 20
-153.0049587291099
 10
129.9927544162865
 20
-153.0049587291099
 10
129.9927544162865
 20
-153.2736761769593
 10
129.9927544162865
 20
-153.2736761769593
 97
        0
 97
        1
330
BC
 75
     2
 76
     1
 98
        1
 10
0.0
 20
0.0
450
        0
451
        0
460
0.0
461
0.0
452
        0
462
0.0
453
        0
470

  0
SPLINE
  5
BE
330
B5
100
AcDbEntity
  8
レイヤー 1
100
AcDbSpline
210
0.0
220
0.0
230
1.0
 70
     9
 71
     3
 72
    62
 73
    58
 74
     0
 42
0.0000000001
 43
0.0000000001
 40
0.0
 40
0.0
 40
0.0
 40
0.0
 40
1.0
 40
1.0
 40
1.0
 40
2.0
 40
2.0
 40
2.0
 40
3.0
 40
3.0
 40
3.0
 40
4.0
 40
4.0
 40
4.0
 40
5.0
 40
5.0
 40
5.0
 40
6.0
 40
6.0
 40
6.0
 40
7.0
 40
7.0
 40
7.0
 40
8.0
 40
8.0
 40
8.0
 40
9.0
 40
9.0
 40
9.0
 40
10.0
 40
10.0
 40
10.0
 40
11.0
 40
11.0
 40
11.0
 40
12.0
 40
12.0
 40
12.0
 40
13.0
 40
13.0
 40
13.0
 40
14.0
 40
14.0
 40
14.0
 40
15.0
 40
15.0
 40
15.0
 40
16.0
 40
16.0
 40
16.0
 40
17.0
 40
17.0
 40
17.0
 40
18.0
 40
18.0
 40
18.0
 40
19.0
 40
19.0
 40
19.0
 40
19.0
 10
130.0433973199197
 20
-152.2270561685404
 30
0.0
 10
130.0433973199197
 20
-152.3283419758068
 30
0.0
 10
130.0223822374596
 20
-152.5612304306097
 30
0.0
 10
129.8363470812562
 20
-152.6949001354374
 30
0.0
 10
129.724036968437
 20
-152.7741373315981
 30
0.0
 10
129.6248182184618
 20
-152.7782714461804
 30
0.0
 10
129.5400688695247
 20
-152.7830945798598
 30
0.0
 10
129.5400688695247
 20
-152.7830945798598
 30
0.0
 10
129.5400688695247
 20
-152.5477945582172
 30
0.0
 10
129.5400688695247
 20
-152.5477945582172
 30
0.0
 10
129.6141384224576
 20
-152.5453829913775
 30
0.0
 10
129.8487494250031
 20
-152.5343586858247
 30
0.0
 10
129.8487494250031
 20
-152.2311902831227
 30
0.0
 10
129.8487494250031
 20
-152.0844292154511
 30
0.0
 10
129.779158496201
 20
-151.9218207085473
 30
0.0
 10
129.550748665529
 20
-151.9218207085473
 30
0.0
 10
129.4343044381275
 20
-151.9218207085473
 30
0.0
 10
129.3857285917855
 20
-151.9624728352733
 30
0.0
 10
129.3540337133212
 20
-151.9962347710287
 30
0.0
 10
129.2799641603883
 20
-152.0754719671895
 30
0.0
 10
129.2672173070929
 20
-152.1994954046585
 30
0.0
 10
129.2672173070929
 20
-152.2584065374562
 30
0.0
 10
129.2672173070929
 20
-152.2787326008192
 30
0.0
 10
129.269284364384
 20
-152.317317670254
 30
0.0
 10
129.2734184789663
 20
-152.3466009818786
 30
0.0
 10
129.2734184789663
 20
-152.3466009818786
 30
0.0
 10
129.0787705840497
 20
-152.3466009818786
 30
0.0
 10
129.0787705840497
 20
-152.3466009818786
 30
0.0
 10
129.0853162654717
 20
-152.3059488551526
 30
0.0
 10
129.0873833227629
 20
-152.2608181042959
 30
0.0
 10
129.0873833227629
 20
-152.2539279133254
 30
0.0
 10
129.0873833227629
 20
-152.1836479654263
 30
0.0
 10
129.0660237307543
 20
-151.9714300835349
 30
0.0
 10
128.8293456709176
 20
-151.9714300835349
 30
0.0
 10
128.6515787438788
 20
-151.9714300835349
 30
0.0
 10
128.5964572161147
 20
-152.111300960236
 30
0.0
 10
128.5964572161147
 20
-152.2291232258316
 30
0.0
 10
128.5964572161147
 20
-152.5116210556221
 30
0.0
 10
128.8293456709176
 20
-152.5205783038837
 30
0.0
 10
128.9010036570108
 20
-152.5254014375631
 30
0.0
 10
128.9010036570108
 20
-152.5254014375631
 30
0.0
 10
128.9010036570108
 20
-152.7424424531338
 30
0.0
 10
128.9010036570108
 20
-152.7424424531338
 30
0.0
 10
128.7762912004448
 20
-152.7334852048721
 30
0.0
 10
128.399742263907
 20
-152.703857383699
 30
0.0
 10
128.399742263907
 20
-152.2153428438906
 30
0.0
 10
128.399742263907
 20
-151.9759087076657
 30
0.0
 10
128.5268662873127
 20
-151.718215565369
 30
0.0
 10
128.8227999894957
 20
-151.718215565369
 30
0.0
 10
129.0091796552477
 20
-151.718215565369
 30
0.0
 10
129.0915174373451
 20
-151.8198458821839
 30
0.0
 10
129.1528401369826
 20
-151.9259548231296
 30
0.0
 10
129.1804009008646
 20
-151.8604980089099
 30
0.0
 10
129.2606716256709
 20
-151.6661946235418
 30
0.0
 10
129.5380018122336
 20
-151.6661946235418
 30
0.0
 10
129.8763101888851
 20
-151.6661946235418
 30
0.0
 10
130.0433973199197
 20
-151.930777956809
 30
0.0
 10
130.0433973199197
 20
-152.2270561685404
 30
0.0
  0
HATCH
  5
BF
330
B5
100
AcDbEntity
  8
レイヤー 1
 62
   250
420
  2299925
440
 33554687
100
AcDbHatch
 10
0.0
 20
0.0
 30
0.0
210
0.0
220
0.0
230
1.0
  2
SOLID
 70
     1
 71
     1
 91
        1
 92
        1
 93
        1
 72
     4
 94
        3
 73
     0
 74
     0
 95
       62
 96
       58
 40
0.0
 40
0.0
 40
0.0
 40
0.0
 40
1.0
 40
1.0
 40
1.0
 40
2.0
 40
2.0
 40
2.0
 40
3.0
 40
3.0
 40
3.0
 40
4.0
 40
4.0
 40
4.0
 40
5.0
 40
5.0
 40
5.0
 40
6.0
 40
6.0
 40
6.0
 40
7.0
 40
7.0
 40
7.0
 40
8.0
 40
8.0
 40
8.0
 40
9.0
 40
9.0
 40
9.0
 40
10.0
 40
10.0
 40
10.0
 40
11.0
 40
11.0
 40
11.0
 40
12.0
 40
12.0
 40
12.0
 40
13.0
 40
13.0
 40
13.0
 40
14.0
 40
14.0
 40
14.0
 40
15.0
 40
15.0
 40
15.0
 40
16.0
 40
16.0
 40
16.0
 40
17.0
 40
17.0
 40
17.0
 40
18.0
 40
18.0
 40
18.0
 40
19.0
 40
19.0
 40
19.0
 40
19.0
 10
130.0433973199197
 20
-152.2270561685404
 10
130.0433973199197
 20
-152.3283419758068
 10
130.0223822374596
 20
-152.5612304306097
 10
129.8363470812562
 20
-152.6949001354374
 10
129.724036968437
 20
-152.7741373315981
 10
129.6248182184618
 20
-152.7782714461804
 10
129.5400688695247
 20
-152.7830945798598
 10
129.5400688695247
 20
-152.7830945798598
 10
129.5400688695247
 20
-152.5477945582172
 10
129.5400688695247
 20
-152.5477945582172
 10
129.6141384224576
 20
-152.5453829913775
 10
129.8487494250031
 20
-152.5343586858247
 10
129.8487494250031
 20
-152.2311902831227
 10
129.8487494250031
 20
-152.0844292154511
 10
129.779158496201
 20
-151.9218207085473
 10
129.550748665529
 20
-151.9218207085473
 10
129.4343044381275
 20
-151.9218207085473
 10
129.3857285917855
 20
-151.9624728352733
 10
129.3540337133212
 20
-151.9962347710287
 10
129.2799641603883
 20
-152.0754719671895
 10
129.2672173070929
 20
-152.1994954046585
 10
129.2672173070929
 20
-152.2584065374562
 10
129.2672173070929
 20
-152.2787326008192
 10
129.269284364384
 20
-152.317317670254
 10
129.2734184789663
 20
-152.3466009818786
 10
129.2734184789663
 20
-152.3466009818786
 10
129.0787705840497
 20
-152.3466009818786
 10
129.0787705840497
 20
-152.3466009818786
 10
129.0853162654717
 20
-152.3059488551526
 10
129.0873833227629
 20
-152.2608181042959
 10
129.0873833227629
 20
-152.2539279133254
 10
129.0873833227629
 20
-152.1836479654263
 10
129.0660237307543
 20
-151.9714300835349
 10
128.8293456709176
 20
-151.9714300835349
 10
128.6515787438788
 20
-151.9714300835349
 10
128.5964572161147
 20
-152.111300960236
 10
128.5964572161147
 20
-152.2291232258316
 10
128.5964572161147
 20
-152.5116210556221
 10
128.8293456709176
 20
-152.5205783038837
 10
128.9010036570108
 20
-152.5254014375631
 10
128.9010036570108
 20
-152.5254014375631
 10
128.9010036570108
 20
-152.7424424531338
 10
128.9010036570108
 20
-152.7424424531338
 10
128.7762912004448
 20
-152.7334852048721
 10
128.399742263907
 20
-152.703857383699
 10
128.399742263907
 20
-152.2153428438906
 10
128.399742263907
 20
-151.9759087076657
 10
128.5268662873127
 20
-151.718215565369
 10
128.8227999894957
 20
-151.718215565369
 10
129.0091796552477
 20
-151.718215565369
 10
129.0915174373451
 20
-151.8198458821839
 10
129.1528401369826
 20
-151.9259548231296
 10
129.1804009008646
 20
-151.8604980089099
 10
129.2606716256709
 20
-151.6661946235418
 10
129.5380018122336
 20
-151.6661946235418
 10
129.8763101888851
 20
-151.6661946235418
 10
130.0433973199197
 20
-151.930777956809
 10
130.0433973199197
 20
-152.2270561685404
 97
        0
 97
        1
330
BE
 75
     2
 76
     1
 98
        1
 10
0.0
 20
0.0
450
        0
451
        0
460
0.0
461
0.0
452
        0
462
0.0
453
        0
470

  0
ENDBLK
  5
B8
330
B5
100
AcDbEntity
  8
0
100
AcDbBlockEnd
  0
BLOCK
  5
C2
330
C0
100
AcDbEntity
  8
0
100
AcDbBlockBegin
  2
Block_8
 70
     0
 10
0.0
 20
0.0
 30
0.0
  3
Block_8
  1

  0
INSERT
  5
C5
330
C0
100
AcDbEntity
  8
レイヤー 1
100
AcDbBlockReference
  2
Block_9
 10
0.0
 20
0.0
 30
0.0
  0
ENDBLK
  5
C3
330
C0
100
AcDbEntity
  8
0
100
AcDbBlockEnd
  0
BLOCK
  5
C6
330
C4
100
AcDbEntity
  8
0
100
AcDbBlockBegin
  2
Block_9
 70
     0
 10
0.0
 20
0.0
 30
0.0
  3
Block_9
  1

  0
SPLINE
  5
C8
330
C4
100
AcDbEntity
  8
レイヤー 1
100
AcDbSpline
210
0.0
220
0.0
230
1.0
 70
    11
 71
     3
 72
    26
 73
    22
 74
     0
 42
0.0000000001
 43
0.0000000001
 40
0.0
 40
0.0
 40
0.0
 40
0.0
 40
1.0
 40
1.0
 40
1.0
 40
2.0
 40
2.0
 40
2.0
 40
3.0
 40
3.0
 40
3.0
 40
4.0
 40
4.0
 40
4.0
 40
5.0
 40
5.0
 40
5.0
 40
6.0
 40
6.0
 40
6.0
 40
7.0
 40
7.0
 40
7.0
 40
7.0
 10
80.61540660962046
 20
-150.6781412383721
 30
0.0
 10
80.61540660962046
 20
-150.6781412383721
 30
0.0
 10
79.51125350659788
 20
-150.6781412383721
 30
0.0
 10
79.51125350659788
 20
-150.6781412383721
 30
0.0
 10
79.51125350659788
 20
-150.6781412383721
 30
0.0
 10
79.51125350659788
 20
-151.0309190160617
 30
0.0
 10
79.51125350659788
 20
-151.0309190160617
 30
0.0
 10
79.51125350659788
 20
-151.0309190160617
 30
0.0
 10
79.36311440073215
 20
-151.0309190160617
 30
0.0
 10
79.36311440073215
 20
-151.0309190160617
 30
0.0
 10
79.34830049014556
 20
-150.6757296715324
 30
0.0
 10
79.18534747369325
 20
-150.6257757869963
 30
0.0
 10
79.07097030358295
 20
-150.5944254180805
 30
0.0
 10
79.07097030358295
 20
-150.5944254180805
 30
0.0
 10
79.07097030358295
 20
-150.4383625925987
 30
0.0
 10
79.07097030358295
 20
-150.4383625925987
 30
0.0
 10
79.07097030358295
 20
-150.4383625925987
 30
0.0
 10
80.61540660962046
 20
-150.4383625925987
 30
0.0
 10
80.61540660962046
 20
-150.4383625925987
 30
0.0
 10
80.61540660962046
 20
-150.4383625925987
 30
0.0
 10
80.61540660962046
 20
-150.6781412383721
 30
0.0
 10
80.61540660962046
 20
-150.6781412383721
 30
0.0
  0
HATCH
  5
C9
330
C4
100
AcDbEntity
  8
レイヤー 1
 62
   250
420
  2299925
440
 33554687
100
AcDbHatch
 10
0.0
 20
0.0
 30
0.0
210
0.0
220
0.0
230
1.0
  2
SOLID
 70
     1
 71
     1
 91
        1
 92
        1
 93
        1
 72
     4
 94
        3
 73
     0
 74
     0
 95
       26
 96
       22
 40
0.0
 40
0.0
 40
0.0
 40
0.0
 40
1.0
 40
1.0
 40
1.0
 40
2.0
 40
2.0
 40
2.0
 40
3.0
 40
3.0
 40
3.0
 40
4.0
 40
4.0
 40
4.0
 40
5.0
 40
5.0
 40
5.0
 40
6.0
 40
6.0
 40
6.0
 40
7.0
 40
7.0
 40
7.0
 40
7.0
 10
80.61540660962046
 20
-150.6781412383721
 10
80.61540660962046
 20
-150.6781412383721
 10
79.51125350659788
 20
-150.6781412383721
 10
79.51125350659788
 20
-150.6781412383721
 10
79.51125350659788
 20
-150.6781412383721
 10
79.51125350659788
 20
-151.0309190160617
 10
79.51125350659788
 20
-151.0309190160617
 10
79.51125350659788
 20
-151.0309190160617
 10
79.36311440073215
 20
-151.0309190160617
 10
79.36311440073215
 20
-151.0309190160617
 10
79.34830049014556
 20
-150.6757296715324
 10
79.18534747369325
 20
-150.6257757869963
 10
79.07097030358295
 20
-150.5944254180805
 10
79.07097030358295
 20
-150.5944254180805
 10
79.07097030358295
 20
-150.4383625925987
 10
79.07097030358295
 20
-150.4383625925987
 10
79.07097030358295
 20
-150.4383625925987
 10
80.61540660962046
 20
-150.4383625925987
 10
80.61540660962046
 20
-150.4383625925987
 10
80.61540660962046
 20
-150.4383625925987
 10
80.61540660962046
 20
-150.6781412383721
 10
80.61540660962046
 20
-150.6781412383721
 97
        0
 97
        1
330
C8
 75
     2
 76
     1
 98
        1
 10
0.0
 20
0.0
450
        0
451
        0
460
0.0
461
0.0
452
        0
462
0.0
453
        0
470

  0
SPLINE
  5
CA
330
C4
100
AcDbEntity
  8
レイヤー 1
100
AcDbSpline
210
0.0
220
0.0
230
1.0
 70
     9
 71
     3
 72
    17
 73
    13
 74
     0
 42
0.0000000001
 43
0.0000000001
 40
0.0
 40
0.0
 40
0.0
 40
0.0
 40
1.0
 40
1.0
 40
1.0
 40
2.0
 40
2.0
 40
2.0
 40
3.0
 40
3.0
 40
3.0
 40
4.0
 40
4.0
 40
4.0
 40
4.0
 10
79.87505558984027
 20
-149.3683159348801
 30
0.0
 10
79.87505558984027
 20
-149.5219671935223
 30
0.0
 10
79.96187199606857
 20
-149.6845757004261
 30
0.0
 10
80.16478812014979
 20
-149.6845757004261
 30
0.0
 10
80.37011581107067
 20
-149.6845757004261
 30
0.0
 10
80.471401618337
 20
-149.5488389383072
 30
0.0
 10
80.471401618337
 20
-149.3683159348801
 30
0.0
 10
80.471401618337
 20
-149.1691894158327
 30
0.0
 10
80.34875621906213
 20
-149.0517116597857
 30
0.0
 10
80.17098929202322
 20
-149.0517116597857
 30
0.0
 10
79.94912514277314
 20
-149.0517116597857
 30
0.0
 10
79.87505558984027
 20
-149.2256889817908
 30
0.0
 10
79.87505558984027
 20
-149.3683159348801
 30
0.0
  0
SPLINE
  5
CB
330
C4
100
AcDbEntity
  8
レイヤー 1
100
AcDbSpline
210
0.0
220
0.0
230
1.0
 70
     9
 71
     3
 72
    17
 73
    13
 74
     0
 42
0.0000000001
 43
0.0000000001
 40
0.0
 40
0.0
 40
0.0
 40
0.0
 40
1.0
 40
1.0
 40
1.0
 40
2.0
 40
2.0
 40
2.0
 40
3.0
 40
3.0
 40
3.0
 40
4.0
 40
4.0
 40
4.0
 40
4.0
 10
79.21497529486639
 20
-149.3683159348801
 30
0.0
 10
79.21497529486639
 20
-149.5447048237249
 30
0.0
 10
79.3100599302593
 20
-149.6349663254385
 30
0.0
 10
79.44545218282961
 20
-149.6349663254385
 30
0.0
 10
79.56809758210451
 20
-149.6349663254385
 30
0.0
 10
79.6866088667971
 20
-149.5581406961174
 30
0.0
 10
79.6866088667971
 20
-149.3683159348801
 30
0.0
 10
79.6866088667971
 20
-149.1781466640943
 30
0.0
 10
79.56809758210451
 20
-149.1013210347733
 30
0.0
 10
79.44545218282961
 20
-149.1013210347733
 30
0.0
 10
79.3100599302593
 20
-149.1013210347733
 30
0.0
 10
79.21497529486639
 20
-149.1939941033265
 30
0.0
 10
79.21497529486639
 20
-149.3683159348801
 30
0.0
  0
SPLINE
  5
CC
330
C4
100
AcDbEntity
  8
レイヤー 1
100
AcDbSpline
210
0.0
220
0.0
230
1.0
 70
     9
 71
     3
 72
    29
 73
    25
 74
     0
 42
0.0000000001
 43
0.0000000001
 40
0.0
 40
0.0
 40
0.0
 40
0.0
 40
1.0
 40
1.0
 40
1.0
 40
2.0
 40
2.0
 40
2.0
 40
3.0
 40
3.0
 40
3.0
 40
4.0
 40
4.0
 40
4.0
 40
5.0
 40
5.0
 40
5.0
 40
6.0
 40
6.0
 40
6.0
 40
7.0
 40
7.0
 40
7.0
 40
8.0
 40
8.0
 40
8.0
 40
8.0
 10
80.66604951325363
 20
-149.3683159348801
 30
0.0
 10
80.66604951325363
 20
-149.6528808219618
 30
0.0
 10
80.52859020339216
 20
-149.9243543461994
 30
0.0
 10
80.17960203073634
 20
-149.9243543461994
 30
0.0
 10
79.92363143618229
 20
-149.9243543461994
 30
0.0
 10
79.8285468007894
 20
-149.7727701448485
 30
0.0
 10
79.76722410115195
 20
-149.6597710129323
 30
0.0
 10
79.70796845880565
 20
-149.7934407177599
 30
0.0
 10
79.59359128869535
 20
-149.8747449712118
 30
0.0
 10
79.43270532953419
 20
-149.8747449712118
 30
0.0
 10
79.15778670981125
 20
-149.8747449712118
 30
0.0
 10
79.02239445724093
 20
-149.6621825797719
 30
0.0
 10
79.02239445724093
 20
-149.3683159348801
 30
0.0
 10
79.02239445724093
 20
-149.0651475321781
 30
0.0
 10
79.16639944852438
 20
-148.8617146437741
 30
0.0
 10
79.43270532953419
 20
-148.8617146437741
 30
0.0
 10
79.59359128869535
 20
-148.8617146437741
 30
0.0
 10
79.70796845880565
 20
-148.9452582092915
 30
0.0
 10
79.76722410115195
 20
-149.0789279141191
 30
0.0
 10
79.81786700478512
 20
-148.9838432787262
 30
0.0
 10
79.91295164017802
 20
-148.814344580852
 30
0.0
 10
80.17546791615405
 20
-148.814344580852
 30
0.0
 10
80.54994979540071
 20
-148.814344580852
 30
0.0
 10
80.66604951325363
 20
-149.1126898498746
 30
0.0
 10
80.66604951325363
 20
-149.3683159348801
 30
0.0
  0
HATCH
  5
CD
330
C4
100
AcDbEntity
  8
レイヤー 1
 62
   250
420
  2299925
440
 33554687
100
AcDbHatch
 10
0.0
 20
0.0
 30
0.0
210
0.0
220
0.0
230
1.0
  2
SOLID
 70
     1
 71
     1
 91
        3
 92
        1
 93
        1
 72
     4
 94
        3
 73
     0
 74
     0
 95
       17
 96
       13
 40
0.0
 40
0.0
 40
0.0
 40
0.0
 40
1.0
 40
1.0
 40
1.0
 40
2.0
 40
2.0
 40
2.0
 40
3.0
 40
3.0
 40
3.0
 40
4.0
 40
4.0
 40
4.0
 40
4.0
 10
79.87505558984027
 20
-149.3683159348801
 10
79.87505558984027
 20
-149.5219671935223
 10
79.96187199606857
 20
-149.6845757004261
 10
80.16478812014979
 20
-149.6845757004261
 10
80.37011581107067
 20
-149.6845757004261
 10
80.471401618337
 20
-149.5488389383072
 10
80.471401618337
 20
-149.3683159348801
 10
80.471401618337
 20
-149.1691894158327
 10
80.34875621906213
 20
-149.0517116597857
 10
80.17098929202322
 20
-149.0517116597857
 10
79.94912514277314
 20
-149.0517116597857
 10
79.87505558984027
 20
-149.2256889817908
 10
79.87505558984027
 20
-149.3683159348801
 97
        0
 97
        1
330
CA
 92
        1
 93
        1
 72
     4
 94
        3
 73
     0
 74
     0
 95
       17
 96
       13
 40
0.0
 40
0.0
 40
0.0
 40
0.0
 40
1.0
 40
1.0
 40
1.0
 40
2.0
 40
2.0
 40
2.0
 40
3.0
 40
3.0
 40
3.0
 40
4.0
 40
4.0
 40
4.0
 40
4.0
 10
79.21497529486639
 20
-149.3683159348801
 10
79.21497529486639
 20
-149.5447048237249
 10
79.3100599302593
 20
-149.6349663254385
 10
79.44545218282961
 20
-149.6349663254385
 10
79.56809758210451
 20
-149.6349663254385
 10
79.6866088667971
 20
-149.5581406961174
 10
79.6866088667971
 20
-149.3683159348801
 10
79.6866088667971
 20
-149.1781466640943
 10
79.56809758210451
 20
-149.1013210347733
 10
79.44545218282961
 20
-149.1013210347733
 10
79.3100599302593
 20
-149.1013210347733
 10
79.21497529486639
 20
-149.1939941033265
 10
79.21497529486639
 20
-149.3683159348801
 97
        0
 97
        1
330
CB
 92
        1
 93
        1
 72
     4
 94
        3
 73
     0
 74
     0
 95
       29
 96
       25
 40
0.0
 40
0.0
 40
0.0
 40
0.0
 40
1.0
 40
1.0
 40
1.0
 40
2.0
 40
2.0
 40
2.0
 40
3.0
 40
3.0
 40
3.0
 40
4.0
 40
4.0
 40
4.0
 40
5.0
 40
5.0
 40
5.0
 40
6.0
 40
6.0
 40
6.0
 40
7.0
 40
7.0
 40
7.0
 40
8.0
 40
8.0
 40
8.0
 40
8.0
 10
80.66604951325363
 20
-149.3683159348801
 10
80.66604951325363
 20
-149.6528808219618
 10
80.52859020339216
 20
-149.9243543461994
 10
80.17960203073634
 20
-149.9243543461994
 10
79.92363143618229
 20
-149.9243543461994
 10
79.8285468007894
 20
-149.7727701448485
 10
79.76722410115195
 20
-149.6597710129323
 10
79.70796845880565
 20
-149.7934407177599
 10
79.59359128869535
 20
-149.8747449712118
 10
79.43270532953419
 20
-149.8747449712118
 10
79.15778670981125
 20
-149.8747449712118
 10
79.02239445724093
 20
-149.6621825797719
 10
79.02239445724093
 20
-149.3683159348801
 10
79.02239445724093
 20
-149.0651475321781
 10
79.16639944852438
 20
-148.8617146437741
 10
79.43270532953419
 20
-148.8617146437741
 10
79.59359128869535
 20
-148.8617146437741
 10
79.70796845880565
 20
-148.9452582092915
 10
79.76722410115195
 20
-149.0789279141191
 10
79.81786700478512
 20
-148.9838432787262
 10
79.91295164017802
 20
-148.814344580852
 10
80.17546791615405
 20
-148.814344580852
 10
80.54994979540071
 20
-148.814344580852
 10
80.66604951325363
 20
-149.1126898498746
 10
80.66604951325363
 20
-149.3683159348801
 97
        0
 97
        1
330
CC
 75
     2
 76
     1
 98
        1
 10
0.0
 20
0.0
450
        0
451
        0
460
0.0
461
0.0
452
        0
462
0.0
453
        0
470

  0
ENDBLK
  5
C7
330
C4
100
AcDbEntity
  8
0
100
AcDbBlockEnd
  0
BLOCK
  5
D0
330
CE
100
AcDbEntity
  8
0
100
AcDbBlockBegin
  2
Block_10
 70
     0
 10
0.0
 20
0.0
 30
0.0
  3
Block_10
  1

  0
SPLINE
  5
D2
330
CE
100
AcDbEntity
  8
レイヤー 1
100
AcDbSpline
210
0.0
220
0.0
230
1.0
 70
    11
 71
     3
 72
    26
 73
    22
 74
     0
 42
0.0000000001
 43
0.0000000001
 40
0.0
 40
0.0
 40
0.0
 40
0.0
 40
1.0
 40
1.0
 40
1.0
 40
2.0
 40
2.0
 40
2.0
 40
3.0
 40
3.0
 40
3.0
 40
4.0
 40
4.0
 40
4.0
 40
5.0
 40
5.0
 40
5.0
 40
6.0
 40
6.0
 40
6.0
 40
7.0
 40
7.0
 40
7.0
 40
7.0
 10
129.9927544162865
 20
-147.8557467620812
 30
0.0
 10
129.9927544162865
 20
-147.8557467620812
 30
0.0
 10
128.8886013132639
 20
-147.8557467620812
 30
0.0
 10
128.8886013132639
 20
-147.8557467620812
 30
0.0
 10
128.8886013132639
 20
-147.8557467620812
 30
0.0
 10
128.8886013132639
 20
-148.2085245397708
 30
0.0
 10
128.8886013132639
 20
-148.2085245397708
 30
0.0
 10
128.8886013132639
 20
-148.2085245397708
 30
0.0
 10
128.7404622073982
 20
-148.2085245397708
 30
0.0
 10
128.7404622073982
 20
-148.2085245397708
 30
0.0
 10
128.7256482968116
 20
-147.8535074500158
 30
0.0
 10
128.5626952803593
 20
-147.8037258202539
 30
0.0
 10
128.448318110249
 20
-147.7722031965639
 30
0.0
 10
128.448318110249
 20
-147.7722031965639
 30
0.0
 10
128.448318110249
 20
-147.6161403710821
 30
0.0
 10
128.448318110249
 20
-147.6161403710821
 30
0.0
 10
128.448318110249
 20
-147.6161403710821
 30
0.0
 10
129.9927544162865
 20
-147.6161403710821
 30
0.0
 10
129.9927544162865
 20
-147.6161403710821
 30
0.0
 10
129.9927544162865
 20
-147.6161403710821
 30
0.0
 10
129.9927544162865
 20
-147.8557467620812
 30
0.0
 10
129.9927544162865
 20
-147.8557467620812
 30
0.0
  0
HATCH
  5
D3
330
CE
100
AcDbEntity
  8
レイヤー 1
 62
   250
420
  2299925
440
 33554687
100
AcDbHatch
 10
0.0
 20
0.0
 30
0.0
210
0.0
220
0.0
230
1.0
  2
SOLID
 70
     1
 71
     1
 91
        1
 92
        1
 93
        1
 72
     4
 94
        3
 73
     0
 74
     0
 95
       26
 96
       22
 40
0.0
 40
0.0
 40
0.0
 40
0.0
 40
1.0
 40
1.0
 40
1.0
 40
2.0
 40
2.0
 40
2.0
 40
3.0
 40
3.0
 40
3.0
 40
4.0
 40
4.0
 40
4.0
 40
5.0
 40
5.0
 40
5.0
 40
6.0
 40
6.0
 40
6.0
 40
7.0
 40
7.0
 40
7.0
 40
7.0
 10
129.9927544162865
 20
-147.8557467620812
 10
129.9927544162865
 20
-147.8557467620812
 10
128.8886013132639
 20
-147.8557467620812
 10
128.8886013132639
 20
-147.8557467620812
 10
128.8886013132639
 20
-147.8557467620812
 10
128.8886013132639
 20
-148.2085245397708
 10
128.8886013132639
 20
-148.2085245397708
 10
128.8886013132639
 20
-148.2085245397708
 10
128.7404622073982
 20
-148.2085245397708
 10
128.7404622073982
 20
-148.2085245397708
 10
128.7256482968116
 20
-147.8535074500158
 10
128.5626952803593
 20
-147.8037258202539
 10
128.448318110249
 20
-147.7722031965639
 10
128.448318110249
 20
-147.7722031965639
 10
128.448318110249
 20
-147.6161403710821
 10
128.448318110249
 20
-147.6161403710821
 10
128.448318110249
 20
-147.6161403710821
 10
129.9927544162865
 20
-147.6161403710821
 10
129.9927544162865
 20
-147.6161403710821
 10
129.9927544162865
 20
-147.6161403710821
 10
129.9927544162865
 20
-147.8557467620812
 10
129.9927544162865
 20
-147.8557467620812
 97
        0
 97
        1
330
D2
 75
     2
 76
     1
 98
        1
 10
0.0
 20
0.0
450
        0
451
        0
460
0.0
461
0.0
452
        0
462
0.0
453
        0
470

  0
ENDBLK
  5
D1
330
CE
100
AcDbEntity
  8
0
100
AcDbBlockEnd
  0
BLOCK
  5
DE
330
DC
100
AcDbEntity
  8
0
100
AcDbBlockBegin
  2
Block_11
 70
     0
 10
0.0
 20
0.0
 30
0.0
  3
Block_11
  1

  0
SPLINE
  5
E0
330
DC
100
AcDbEntity
  8
レイヤー 1
100
AcDbSpline
210
0.0
220
0.0
230
1.0
 70
     9
 71
     3
 72
    62
 73
    58
 74
     0
 42
0.0000000001
 43
0.0000000001
 40
0.0
 40
0.0
 40
0.0
 40
0.0
 40
1.0
 40
1.0
 40
1.0
 40
2.0
 40
2.0
 40
2.0
 40
3.0
 40
3.0
 40
3.0
 40
4.0
 40
4.0
 40
4.0
 40
5.0
 40
5.0
 40
5.0
 40
6.0
 40
6.0
 40
6.0
 40
7.0
 40
7.0
 40
7.0
 40
8.0
 40
8.0
 40
8.0
 40
9.0
 40
9.0
 40
9.0
 40
10.0
 40
10.0
 40
10.0
 40
11.0
 40
11.0
 40
11.0
 40
12.0
 40
12.0
 40
12.0
 40
13.0
 40
13.0
 40
13.0
 40
14.0
 40
14.0
 40
14.0
 40
15.0
 40
15.0
 40
15.0
 40
16.0
 40
16.0
 40
16.0
 40
17.0
 40
17.0
 40
17.0
 40
18.0
 40
18.0
 40
18.0
 40
19.0
 40
19.0
 40
19.0
 40
19.0
 10
87.0832288736285
 20
-134.2173027550741
 30
0.0
 10
86.98159855681364
 20
-134.2173027550741
 30
0.0
 10
86.74871010201075
 20
-134.1962876726141
 30
0.0
 10
86.6152126519573
 20
-134.0102525164106
 30
0.0
 10
86.53614771057084
 20
-133.8979424035915
 30
0.0
 10
86.53166908644001
 20
-133.7987236536163
 30
0.0
 10
86.52719046230918
 20
-133.7139743046791
 30
0.0
 10
86.52719046230918
 20
-133.7139743046791
 30
0.0
 10
86.76214597440321
 20
-133.7139743046791
 30
0.0
 10
86.76214597440321
 20
-133.7139743046791
 30
0.0
 10
86.76455754124289
 20
-133.788043857612
 30
0.0
 10
86.77575410156995
 20
-134.0226548601575
 30
0.0
 10
87.07875024949768
 20
-134.0226548601575
 30
0.0
 10
87.22568357194358
 20
-134.0226548601575
 30
0.0
 10
87.38846433362164
 20
-133.9530639313555
 30
0.0
 10
87.38846433362164
 20
-133.7246541006834
 30
0.0
 10
87.38846433362164
 20
-133.608209873282
 30
0.0
 10
87.34781220689569
 20
-133.5596340269399
 30
0.0
 10
87.31387801636598
 20
-133.5279391484756
 30
0.0
 10
87.2348130749795
 20
-133.4538695955428
 30
0.0
 10
87.11044512796197
 20
-133.4411227422473
 30
0.0
 10
87.0515339951642
 20
-133.4411227422473
 30
0.0
 10
87.03120793180124
 20
-133.4411227422473
 30
0.0
 10
86.99279511714069
 20
-133.4431897995385
 30
0.0
 10
86.96351180551607
 20
-133.4473239141208
 30
0.0
 10
86.96351180551607
 20
-133.4473239141208
 30
0.0
 10
86.96351180551607
 20
-133.2526760192042
 30
0.0
 10
86.96351180551607
 20
-133.2526760192042
 30
0.0
 10
87.00416393224202
 20
-133.2592217006261
 30
0.0
 10
87.04929468309879
 20
-133.2612887579173
 30
0.0
 10
87.05618487406928
 20
-133.2612887579173
 30
0.0
 10
87.12629256719413
 20
-133.2612887579173
 30
0.0
 10
87.33868270385977
 20
-133.2399291659087
 30
0.0
 10
87.33868270385977
 20
-133.0032511060721
 30
0.0
 10
87.33868270385977
 20
-132.8254841790332
 30
0.0
 10
87.19863957238436
 20
-132.7703626512692
 30
0.0
 10
87.08098956156309
 20
-132.7703626512692
 30
0.0
 10
86.79831947699835
 20
-132.7703626512692
 30
0.0
 10
86.78936222873669
 20
-133.0032511060721
 30
0.0
 10
86.78488360460587
 20
-133.0749090921653
 30
0.0
 10
86.78488360460587
 20
-133.0749090921653
 30
0.0
 10
86.56784258903511
 20
-133.0749090921653
 30
0.0
 10
86.56784258903511
 20
-133.0749090921653
 30
0.0
 10
86.57679983729677
 20
-132.9501966355993
 30
0.0
 10
86.60625540369565
 20
-132.5736476990615
 30
0.0
 10
87.09459768872982
 20
-132.5736476990615
 30
0.0
 10
87.33420407972895
 20
-132.5736476990615
 30
0.0
 10
87.59189722202563
 20
-132.7007717224672
 30
0.0
 10
87.59189722202563
 20
-132.9967054246501
 30
0.0
 10
87.59189722202563
 20
-133.1830850904021
 30
0.0
 10
87.49026690521077
 20
-133.2654228724996
 30
0.0
 10
87.38398570949081
 20
-133.3267455721371
 30
0.0
 10
87.44944252371055
 20
-133.3543063360191
 30
0.0
 10
87.64391816385291
 20
-133.4345770608253
 30
0.0
 10
87.64391816385291
 20
-133.711907247388
 30
0.0
 10
87.64391816385291
 20
-134.0502156240395
 30
0.0
 10
87.37950708535999
 20
-134.2173027550741
 30
0.0
 10
87.0832288736285
 20
-134.2173027550741
 30
0.0
  0
HATCH
  5
E1
330
DC
100
AcDbEntity
  8
レイヤー 1
 62
   250
420
  2299925
440
 33554687
100
AcDbHatch
 10
0.0
 20
0.0
 30
0.0
210
0.0
220
0.0
230
1.0
  2
SOLID
 70
     1
 71
     1
 91
        1
 92
        1
 93
        1
 72
     4
 94
        3
 73
     0
 74
     0
 95
       62
 96
       58
 40
0.0
 40
0.0
 40
0.0
 40
0.0
 40
1.0
 40
1.0
 40
1.0
 40
2.0
 40
2.0
 40
2.0
 40
3.0
 40
3.0
 40
3.0
 40
4.0
 40
4.0
 40
4.0
 40
5.0
 40
5.0
 40
5.0
 40
6.0
 40
6.0
 40
6.0
 40
7.0
 40
7.0
 40
7.0
 40
8.0
 40
8.0
 40
8.0
 40
9.0
 40
9.0
 40
9.0
 40
10.0
 40
10.0
 40
10.0
 40
11.0
 40
11.0
 40
11.0
 40
12.0
 40
12.0
 40
12.0
 40
13.0
 40
13.0
 40
13.0
 40
14.0
 40
14.0
 40
14.0
 40
15.0
 40
15.0
 40
15.0
 40
16.0
 40
16.0
 40
16.0
 40
17.0
 40
17.0
 40
17.0
 40
18.0
 40
18.0
 40
18.0
 40
19.0
 40
19.0
 40
19.0
 40
19.0
 10
87.0832288736285
 20
-134.2173027550741
 10
86.98159855681364
 20
-134.2173027550741
 10
86.74871010201075
 20
-134.1962876726141
 10
86.6152126519573
 20
-134.0102525164106
 10
86.53614771057084
 20
-133.8979424035915
 10
86.53166908644001
 20
-133.7987236536163
 10
86.52719046230918
 20
-133.7139743046791
 10
86.52719046230918
 20
-133.7139743046791
 10
86.76214597440321
 20
-133.7139743046791
 10
86.76214597440321
 20
-133.7139743046791
 10
86.76455754124289
 20
-133.788043857612
 10
86.77575410156995
 20
-134.0226548601575
 10
87.07875024949768
 20
-134.0226548601575
 10
87.22568357194358
 20
-134.0226548601575
 10
87.38846433362164
 20
-133.9530639313555
 10
87.38846433362164
 20
-133.7246541006834
 10
87.38846433362164
 20
-133.608209873282
 10
87.34781220689569
 20
-133.5596340269399
 10
87.31387801636598
 20
-133.5279391484756
 10
87.2348130749795
 20
-133.4538695955428
 10
87.11044512796197
 20
-133.4411227422473
 10
87.0515339951642
 20
-133.4411227422473
 10
87.03120793180124
 20
-133.4411227422473
 10
86.99279511714069
 20
-133.4431897995385
 10
86.96351180551607
 20
-133.4473239141208
 10
86.96351180551607
 20
-133.4473239141208
 10
86.96351180551607
 20
-133.2526760192042
 10
86.96351180551607
 20
-133.2526760192042
 10
87.00416393224202
 20
-133.2592217006261
 10
87.04929468309879
 20
-133.2612887579173
 10
87.05618487406928
 20
-133.2612887579173
 10
87.12629256719413
 20
-133.2612887579173
 10
87.33868270385977
 20
-133.2399291659087
 10
87.33868270385977
 20
-133.0032511060721
 10
87.33868270385977
 20
-132.8254841790332
 10
87.19863957238436
 20
-132.7703626512692
 10
87.08098956156309
 20
-132.7703626512692
 10
86.79831947699835
 20
-132.7703626512692
 10
86.78936222873669
 20
-133.0032511060721
 10
86.78488360460587
 20
-133.0749090921653
 10
86.78488360460587
 20
-133.0749090921653
 10
86.56784258903511
 20
-133.0749090921653
 10
86.56784258903511
 20
-133.0749090921653
 10
86.57679983729677
 20
-132.9501966355993
 10
86.60625540369565
 20
-132.5736476990615
 10
87.09459768872982
 20
-132.5736476990615
 10
87.33420407972895
 20
-132.5736476990615
 10
87.59189722202563
 20
-132.7007717224672
 10
87.59189722202563
 20
-132.9967054246501
 10
87.59189722202563
 20
-133.1830850904021
 10
87.49026690521077
 20
-133.2654228724996
 10
87.38398570949081
 20
-133.3267455721371
 10
87.44944252371055
 20
-133.3543063360191
 10
87.64391816385291
 20
-133.4345770608253
 10
87.64391816385291
 20
-133.711907247388
 10
87.64391816385291
 20
-134.0502156240395
 10
87.37950708535999
 20
-134.2173027550741
 10
87.0832288736285
 20
-134.2173027550741
 97
        0
 97
        1
330
E0
 75
     2
 76
     1
 98
        1
 10
0.0
 20
0.0
450
        0
451
        0
460
0.0
461
0.0
452
        0
462
0.0
453
        0
470

  0
ENDBLK
  5
DF
330
DC
100
AcDbEntity
  8
0
100
AcDbBlockEnd
  0
BLOCK
  5
F0
330
EE
100
AcDbEntity
  8
0
100
AcDbBlockBegin
  2
Block_12
 70
     0
 10
0.0
 20
0.0
 30
0.0
  3
Block_12
  1

  0
LINE
  5
F2
330
EE
100
AcDbEntity
  8
レイヤー 1
  6
AI-Linetype-0
 62
   154
420
    23468
370
    25
100
AcDbLine
 10
124.5423042328378
 20
-148.3772205517841
 30
0.0
 11
104.5385981072431
 21
-148.3772205517841
 31
0.0
  0
LINE
  5
F4
330
EE
100
AcDbEntity
  8
レイヤー 1
 62
   250
420
  2299925
370
     9
100
AcDbLine
 10
114.9189339074568
 20
-148.0100664021966
 30
0.0
 11
116.7782986667296
 21
-146.2431800796446
 31
0.0
  0
LWPOLYLINE
  5
F5
330
EE
100
AcDbEntity
  8
レイヤー 1
 62
   250
420
  2299925
370
     9
100
AcDbPolyline
 90
        3
 70
     0
 43
0.0
 10
115.4419946975688
 20
-147.1673731278101
 10
114.9417558213644
 20
-148.0334778278912
 10
115.8078623846784
 20
-147.5332389518421
  0
INSERT
  5
F7
330
EE
100
AcDbEntity
  8
レイヤー 1
100
AcDbBlockReference
  2
Block_13
 10
0.0
 20
0.0
 30
0.0
  0
ENDBLK
  5
F1
330
EE
100
AcDbEntity
  8
0
100
AcDbBlockEnd
  0
BLOCK
  5
F8
330
F6
100
AcDbEntity
  8
0
100
AcDbBlockBegin
  2
Block_13
 70
     0
 10
0.0
 20
0.0
 30
0.0
  3
Block_13
  1

  0
INSERT
  5
FB
330
F6
100
AcDbEntity
  8
レイヤー 1
100
AcDbBlockReference
  2
Block_14
 10
0.0
 20
0.0
 30
0.0
  0
ENDBLK
  5
F9
330
F6
100
AcDbEntity
  8
0
100
AcDbBlockEnd
  0
BLOCK
  5
FC
330
FA
100
AcDbEntity
  8
0
100
AcDbBlockBegin
  2
Block_14
 70
     0
 10
0.0
 20
0.0
 30
0.0
  3
Block_14
  1

  0
SPLINE
  5
FE
330
FA
100
AcDbEntity
  8
レイヤー 1
100
AcDbSpline
210
0.0
220
0.0
230
1.0
 70
     9
 71
     3
 72
    17
 73
    13
 74
     0
 42
0.0000000001
 43
0.0000000001
 40
0.0
 40
0.0
 40
0.0
 40
0.0
 40
1.0
 40
1.0
 40
1.0
 40
2.0
 40
2.0
 40
2.0
 40
3.0
 40
3.0
 40
3.0
 40
4.0
 40
4.0
 40
4.0
 40
4.0
 10
115.4293022714899
 20
-145.3425496055914
 30
0.0
 10
115.4124213036122
 20
-145.3720051719903
 30
0.0
 10
115.361778399979
 20
-145.4651950048663
 30
0.0
 10
115.3510986039747
 20
-145.4841430300352
 30
0.0
 10
115.541612384309
 20
-145.5433986723815
 30
0.0
 10
115.5626274667691
 20
-145.5497720990292
 30
0.0
 10
115.6346299624108
 20
-145.5773328629112
 30
0.0
 10
115.6897514901748
 20
-145.4905164566829
 30
0.0
 10
115.7128336299259
 20
-145.41644690375
 30
0.0
 10
115.7276475405125
 20
-145.3425496055914
 30
0.0
 10
115.7276475405125
 20
-145.3425496055914
 30
0.0
 10
115.4293022714899
 20
-145.3425496055914
 30
0.0
 10
115.4293022714899
 20
-145.3425496055914
 30
0.0
  0
SPLINE
  5
FF
330
FA
100
AcDbEntity
  8
レイヤー 1
100
AcDbSpline
210
0.0
220
0.0
230
1.0
 70
    11
 71
     3
 72
    20
 73
    16
 74
     0
 42
0.0000000001
 43
0.0000000001
 40
0.0
 40
0.0
 40
0.0
 40
0.0
 40
1.0
 40
1.0
 40
1.0
 40
2.0
 40
2.0
 40
2.0
 40
3.0
 40
3.0
 40
3.0
 40
4.0
 40
4.0
 40
4.0
 40
5.0
 40
5.0
 40
5.0
 40
5.0
 10
115.3659125145613
 20
-144.4921277850575
 30
0.0
 10
115.3659125145613
 20
-144.4921277850575
 30
0.0
 10
115.334217636097
 20
-144.4921277850575
 30
0.0
 10
115.334217636097
 20
-144.4921277850575
 30
0.0
 10
115.3807264251479
 20
-144.591518789807
 30
0.0
 10
115.4124213036122
 20
-144.6717895146133
 30
0.0
 10
115.4461832393676
 20
-144.7987412832447
 30
0.0
 10
115.4461832393676
 20
-144.7987412832447
 30
0.0
 10
115.6535779875796
 20
-144.7987412832447
 30
0.0
 10
115.6535779875796
 20
-144.7987412832447
 30
0.0
 10
115.6852728660439
 20
-144.705723705143
 30
0.0
 10
115.7086995153436
 20
-144.6211466109801
 30
0.0
 10
115.7317816550948
 20
-144.4921277850575
 30
0.0
 10
115.7317816550948
 20
-144.4921277850575
 30
0.0
 10
115.3659125145613
 20
-144.4921277850575
 30
0.0
 10
115.3659125145613
 20
-144.4921277850575
 30
0.0
  0
SPLINE
  5
100
330
FA
100
AcDbEntity
  8
レイヤー 1
100
AcDbSpline
210
0.0
220
0.0
230
1.0
 70
     9
 71
     3
 72
   242
 73
   238
 74
     0
 42
0.0000000001
 43
0.0000000001
 40
0.0
 40
0.0
 40
0.0
 40
0.0
 40
1.0
 40
1.0
 40
1.0
 40
2.0
 40
2.0
 40
2.0
 40
3.0
 40
3.0
 40
3.0
 40
4.0
 40
4.0
 40
4.0
 40
5.0
 40
5.0
 40
5.0
 40
6.0
 40
6.0
 40
6.0
 40
7.0
 40
7.0
 40
7.0
 40
8.0
 40
8.0
 40
8.0
 40
9.0
 40
9.0
 40
9.0
 40
10.0
 40
10.0
 40
10.0
 40
11.0
 40
11.0
 40
11.0
 40
12.0
 40
12.0
 40
12.0
 40
13.0
 40
13.0
 40
13.0
 40
14.0
 40
14.0
 40
14.0
 40
15.0
 40
15.0
 40
15.0
 40
16.0
 40
16.0
 40
16.0
 40
17.0
 40
17.0
 40
17.0
 40
18.0
 40
18.0
 40
18.0
 40
19.0
 40
19.0
 40
19.0
 40
20.0
 40
20.0
 40
20.0
 40
21.0
 40
21.0
 40
21.0
 40
22.0
 40
22.0
 40
22.0
 40
23.0
 40
23.0
 40
23.0
 40
24.0
 40
24.0
 40
24.0
 40
25.0
 40
25.0
 40
25.0
 40
26.0
 40
26.0
 40
26.0
 40
27.0
 40
27.0
 40
27.0
 40
28.0
 40
28.0
 40
28.0
 40
29.0
 40
29.0
 40
29.0
 40
30.0
 40
30.0
 40
30.0
 40
31.0
 40
31.0
 40
31.0
 40
32.0
 40
32.0
 40
32.0
 40
33.0
 40
33.0
 40
33.0
 40
34.0
 40
34.0
 40
34.0
 40
35.0
 40
35.0
 40
35.0
 40
36.0
 40
36.0
 40
36.0
 40
37.0
 40
37.0
 40
37.0
 40
38.0
 40
38.0
 40
38.0
 40
39.0
 40
39.0
 40
39.0
 40
40.0
 40
40.0
 40
40.0
 40
41.0
 40
41.0
 40
41.0
 40
42.0
 40
42.0
 40
42.0
 40
43.0
 40
43.0
 40
43.0
 40
44.0
 40
44.0
 40
44.0
 40
45.0
 40
45.0
 40
45.0
 40
46.0
 40
46.0
 40
46.0
 40
47.0
 40
47.0
 40
47.0
 40
48.0
 40
48.0
 40
48.0
 40
49.0
 40
49.0
 40
49.0
 40
50.0
 40
50.0
 40
50.0
 40
51.0
 40
51.0
 40
51.0
 40
52.0
 40
52.0
 40
52.0
 40
53.0
 40
53.0
 40
53.0
 40
54.0
 40
54.0
 40
54.0
 40
55.0
 40
55.0
 40
55.0
 40
56.0
 40
56.0
 40
56.0
 40
57.0
 40
57.0
 40
57.0
 40
58.0
 40
58.0
 40
58.0
 40
59.0
 40
59.0
 40
59.0
 40
60.0
 40
60.0
 40
60.0
 40
61.0
 40
61.0
 40
61.0
 40
62.0
 40
62.0
 40
62.0
 40
63.0
 40
63.0
 40
63.0
 40
64.0
 40
64.0
 40
64.0
 40
65.0
 40
65.0
 40
65.0
 40
66.0
 40
66.0
 40
66.0
 40
67.0
 40
67.0
 40
67.0
 40
68.0
 40
68.0
 40
68.0
 40
69.0
 40
69.0
 40
69.0
 40
70.0
 40
70.0
 40
70.0
 40
71.0
 40
71.0
 40
71.0
 40
72.0
 40
72.0
 40
72.0
 40
73.0
 40
73.0
 40
73.0
 40
74.0
 40
74.0
 40
74.0
 40
75.0
 40
75.0
 40
75.0
 40
76.0
 40
76.0
 40
76.0
 40
77.0
 40
77.0
 40
77.0
 40
78.0
 40
78.0
 40
78.0
 40
79.0
 40
79.0
 40
79.0
 40
79.0
 10
115.9942979310708
 20
-144.9573879303405
 30
0.0
 10
115.9942979310708
 20
-144.9573879303405
 30
0.0
 10
115.7403943938079
 20
-144.9573879303405
 30
0.0
 10
115.7403943938079
 20
-144.9573879303405
 30
0.0
 10
115.7403943938079
 20
-144.9573879303405
 30
0.0
 10
115.4634087167939
 20
-144.9573879303405
 30
0.0
 10
115.4634087167939
 20
-144.9573879303405
 30
0.0
 10
115.4634087167939
 20
-144.9573879303405
 30
0.0
 10
115.590188230651
 20
-144.9997626048091
 30
0.0
 10
115.590188230651
 20
-144.9997626048091
 30
0.0
 10
115.6008680266553
 20
-145.0040689741656
 30
0.0
 10
115.6136148799507
 20
-145.0102701460391
 30
0.0
 10
115.6136148799507
 20
-145.0230169993345
 30
0.0
 10
115.6136148799507
 20
-145.0442043365688
 30
0.0
 10
115.5815754919379
 20
-145.0505777632165
 30
0.0
 10
115.5605604094779
 20
-145.0547118777988
 30
0.0
 10
115.5498806134736
 20
-145.0779662723242
 30
0.0
 10
115.5202527923005
 20
-145.1435953413183
 30
0.0
 10
115.5013047671316
 20
-145.188037073078
 30
0.0
 10
115.5013047671316
 20
-145.188037073078
 30
0.0
 10
115.7720892722722
 20
-145.188037073078
 30
0.0
 10
115.7720892722722
 20
-145.188037073078
 30
0.0
 10
115.8630397930828
 20
-145.188037073078
 30
0.0
 10
116.0597547452906
 20
-145.1837307037214
 30
0.0
 10
116.2016926792829
 20
-145.1752902197825
 30
0.0
 10
116.2016926792829
 20
-145.1752902197825
 30
0.0
 10
116.2016926792829
 20
-145.3530571468214
 30
0.0
 10
116.2016926792829
 20
-145.3530571468214
 30
0.0
 10
116.1190103876369
 20
-145.3487507774649
 30
0.0
 10
116.0979953051769
 20
-145.3487507774649
 30
0.0
 10
115.9181613208468
 20
-145.3446166628826
 30
0.0
 10
115.8864664423825
 20
-145.4989569406218
 30
0.0
 10
115.8420247106228
 20
-145.5793999202024
 30
0.0
 10
115.7975829788631
 20
-145.6491631037787
 30
0.0
 10
115.9181613208468
 20
-145.708418746125
 30
0.0
 10
116.023925752244
 20
-145.7761148724101
 30
0.0
 10
116.12762312635
 20
-145.8586249092818
 30
0.0
 10
116.12762312635
 20
-145.8586249092818
 30
0.0
 10
116.0091118416574
 20
-146.0257120403165
 30
0.0
 10
116.0091118416574
 20
-146.0257120403165
 30
0.0
 10
115.9856851923577
 20
-146.0067640151476
 30
0.0
 10
115.9729383390623
 20
-145.9983235312087
 30
0.0
 10
115.8609727357917
 20
-145.9135741822716
 30
0.0
 10
115.8123968894497
 20
-145.8755058771596
 30
0.0
 10
115.7531412471034
 20
-145.839676884113
 30
0.0
 10
115.6725260127485
 20
-145.7952351523533
 30
0.0
 10
115.4609971499542
 20
-145.981442563331
 30
0.0
 10
115.2560139685818
 20
-146.0046969578565
 30
0.0
 10
114.9659369287238
 20
-146.0343247790296
 30
0.0
 10
114.9659369287238
 20
-146.0343247790296
 30
0.0
 10
114.8625840641663
 20
-145.8544907946996
 30
0.0
 10
114.8625840641663
 20
-145.8544907946996
 30
0.0
 10
115.1798773583578
 20
-145.850184425343
 30
0.0
 10
115.355232718557
 20
-145.8248629735264
 30
0.0
 10
115.507505939005
 20
-145.7147921727727
 30
0.0
 10
115.389339163861
 20
-145.6639770143652
 30
0.0
 10
115.3004557003415
 20
-145.6365885052575
 30
0.0
 10
115.2642821977464
 20
-145.6238416519621
 30
0.0
 10
115.2453341725775
 20
-145.6514024158441
 30
0.0
 10
115.230520261991
 20
-145.6703504410129
 30
0.0
 10
115.202959498109
 20
-145.7042846315427
 30
0.0
 10
115.202959498109
 20
-145.7042846315427
 30
0.0
 10
115.0062445459012
 20
-145.6217745946709
 30
0.0
 10
115.0062445459012
 20
-145.6217745946709
 30
0.0
 10
115.0889268375472
 20
-145.5413316150903
 30
0.0
 10
115.1502495371846
 20
-145.4460747249232
 30
0.0
 10
115.2070936126913
 20
-145.3446166628826
 30
0.0
 10
115.0169243419055
 20
-145.3487507774649
 30
0.0
 10
114.9955647498969
 20
-145.3487507774649
 30
0.0
 10
114.9132269677995
 20
-145.3530571468214
 30
0.0
 10
114.9132269677995
 20
-145.3530571468214
 30
0.0
 10
114.9132269677995
 20
-145.1752902197825
 30
0.0
 10
114.9132269677995
 20
-145.1752902197825
 30
0.0
 10
115.0527533349521
 20
-145.1816636464303
 30
0.0
 10
115.2622151404553
 20
-145.1859700157868
 30
0.0
 10
115.2877088470461
 20
-145.1859700157868
 30
0.0
 10
115.3045898149238
 20
-145.1520358252571
 30
0.0
 10
115.3597113426878
 20
-145.0314574832734
 30
0.0
 10
115.3786593678567
 20
-144.9573879303405
 30
0.0
 10
115.3597113426878
 20
-144.9573879303405
 30
0.0
 10
115.1819444156489
 20
-144.9637613569882
 30
0.0
 10
114.9872965207323
 20
-144.9765082102836
 30
0.0
 10
114.9872965207323
 20
-144.9765082102836
 30
0.0
 10
114.9872965207323
 20
-145.1098334055628
 30
0.0
 10
114.9872965207323
 20
-145.1098334055628
 30
0.0
 10
114.9387206743903
 20
-145.1351548573794
 30
0.0
 10
114.879465032044
 20
-145.1668497358437
 30
0.0
 10
114.7461398367648
 20
-145.2324788048377
 30
0.0
 10
114.7461398367648
 20
-145.2324788048377
 30
0.0
 10
114.7461398367648
 20
-145.378378598638
 30
0.0
 10
114.7461398367648
 20
-145.378378598638
 30
0.0
 10
114.7461398367648
 20
-145.378378598638
 30
0.0
 10
114.7461398367648
 20
-145.8460503107607
 30
0.0
 10
114.7461398367648
 20
-145.8460503107607
 30
0.0
 10
114.7461398367648
 20
-145.9728298246179
 30
0.0
 10
114.7099663341697
 20
-146.0320854669642
 30
0.0
 10
114.4267794852822
 20
-146.0236449830253
 30
0.0
 10
114.4267794852822
 20
-146.0236449830253
 30
0.0
 10
114.3230821111762
 20
-145.8164224895876
 30
0.0
 10
114.3230821111762
 20
-145.8164224895876
 30
0.0
 10
114.3864718681047
 20
-145.8289970881087
 30
0.0
 10
114.4350477144468
 20
-145.8333034574653
 30
0.0
 10
114.4753553316242
 20
-145.8333034574653
 30
0.0
 10
114.5514919418482
 20
-145.8333034574653
 30
0.0
 10
114.5621717378525
 20
-145.8100490629398
 30
0.0
 10
114.5621717378525
 20
-145.7444199939458
 30
0.0
 10
114.5621717378525
 20
-145.7444199939458
 30
0.0
 10
114.5621717378525
 20
-145.3149888417094
 30
0.0
 10
114.5621717378525
 20
-145.3149888417094
 30
0.0
 10
114.4646755356199
 20
-145.3551242041126
 30
0.0
 10
114.4477945677422
 20
-145.3614976307603
 30
0.0
 10
114.4012857786913
 20
-145.3806179107034
 30
0.0
 10
114.397151664109
 20
-145.4016329931635
 30
0.0
 10
114.3926730399782
 20
-145.4312608143366
 30
0.0
 10
114.3737250148093
 20
-145.4312608143366
 30
0.0
 10
114.3654567856447
 20
-145.4312608143366
 30
0.0
 10
114.3547769896405
 20
-145.4271266997543
 30
0.0
 10
114.3482313082185
 20
-145.4038723052289
 30
0.0
 10
114.3482313082185
 20
-145.4038723052289
 30
0.0
 10
114.2955213472942
 20
-145.2112914676034
 30
0.0
 10
114.2955213472942
 20
-145.2112914676034
 30
0.0
 10
114.4415933958688
 20
-145.1647826785525
 30
0.0
 10
114.5070502100885
 20
-145.1415282840271
 30
0.0
 10
114.5621717378525
 20
-145.1203409467928
 30
0.0
 10
114.5621717378525
 20
-145.1203409467928
 30
0.0
 10
114.5621717378525
 20
-144.7077907624342
 30
0.0
 10
114.5621717378525
 20
-144.7077907624342
 30
0.0
 10
114.5621717378525
 20
-144.7077907624342
 30
0.0
 10
114.5091172673796
 20
-144.7077907624342
 30
0.0
 10
114.5091172673796
 20
-144.7077907624342
 30
0.0
 10
114.5091172673796
 20
-144.7077907624342
 30
0.0
 10
114.4309135998645
 20
-144.7077907624342
 30
0.0
 10
114.4309135998645
 20
-144.7077907624342
 30
0.0
 10
114.3630452188051
 20
-144.7077907624342
 30
0.0
 10
114.3547769896405
 20
-144.7077907624342
 30
0.0
 10
114.3186034870453
 20
-144.7141641890819
 30
0.0
 10
114.3186034870453
 20
-144.7141641890819
 30
0.0
 10
114.3186034870453
 20
-144.5195162941653
 30
0.0
 10
114.3186034870453
 20
-144.5195162941653
 30
0.0
 10
114.3461642509273
 20
-144.525889720813
 30
0.0
 10
114.3547769896405
 20
-144.525889720813
 30
0.0
 10
114.4243679184425
 20
-144.525889720813
 30
0.0
 10
114.4243679184425
 20
-144.525889720813
 30
0.0
 10
114.5576931137217
 20
-144.525889720813
 30
0.0
 10
114.5576931137217
 20
-144.525889720813
 30
0.0
 10
114.5576931137217
 20
-144.4561265372366
 30
0.0
 10
114.5576931137217
 20
-144.3736165003649
 30
0.0
 10
114.5556260564305
 20
-144.3693101310083
 30
0.0
 10
114.5473578272659
 20
-144.1894761466783
 30
0.0
 10
114.5473578272659
 20
-144.1705281215094
 30
0.0
 10
114.5449462604263
 20
-144.1240193324586
 30
0.0
 10
114.5449462604263
 20
-144.1240193324586
 30
0.0
 10
114.7609537473514
 20
-144.1324598163974
 30
0.0
 10
114.7609537473514
 20
-144.1324598163974
 30
0.0
 10
114.7716335433557
 20
-144.1324598163974
 30
0.0
 10
114.7926486258157
 20
-144.1345268736886
 30
0.0
 10
114.7926486258157
 20
-144.1514078415663
 30
0.0
 10
114.7926486258157
 20
-144.1705281215094
 30
0.0
 10
114.7778347152291
 20
-144.1810356627394
 30
0.0
 10
114.7523410086383
 20
-144.2001559426826
 30
0.0
 10
114.7523410086383
 20
-144.2507988463157
 30
0.0
 10
114.7461398367648
 20
-144.4793809317621
 30
0.0
 10
114.748206894056
 20
-144.525889720813
 30
0.0
 10
114.8773979747529
 20
-144.525889720813
 30
0.0
 10
114.8898003184998
 20
-144.525889720813
 30
0.0
 10
114.9872965207323
 20
-144.5174492368741
 30
0.0
 10
114.9872965207323
 20
-144.5174492368741
 30
0.0
 10
114.9872965207323
 20
-144.7120971317907
 30
0.0
 10
114.9872965207323
 20
-144.7120971317907
 30
0.0
 10
114.9490559608461
 20
-144.7098578197253
 30
0.0
 10
114.8815320893352
 20
-144.705723705143
 30
0.0
 10
114.7461398367648
 20
-144.7077907624342
 30
0.0
 10
114.7461398367648
 20
-144.7077907624342
 30
0.0
 10
114.7461398367648
 20
-145.0462713938599
 30
0.0
 10
114.7461398367648
 20
-145.0462713938599
 30
0.0
 10
114.8012613645288
 20
-145.0230169993345
 30
0.0
 10
114.8667181787486
 20
-144.9954562354525
 30
0.0
 10
114.9152940250906
 20
-144.9722018409271
 30
0.0
 10
114.9152940250906
 20
-144.9722018409271
 30
0.0
 10
114.9152940250906
 20
-144.7946071686624
 30
0.0
 10
114.9152940250906
 20
-144.7946071686624
 30
0.0
 10
115.0296711952009
 20
-144.8071817671836
 30
0.0
 10
115.1481824798935
 20
-144.8071817671836
 30
0.0
 10
115.2642821977464
 20
-144.8071817671836
 30
0.0
 10
115.2412000579952
 20
-144.7120971317907
 30
0.0
 10
115.2136392941132
 20
-144.629587094919
 30
0.0
 10
115.1502495371846
 20
-144.4962618996398
 30
0.0
 10
115.1058078054249
 20
-144.4983289569309
 30
0.0
 10
115.0231255137789
 20
-144.5026353262875
 30
0.0
 10
114.9852294634412
 20
-144.5047023835787
 30
0.0
 10
114.9852294634412
 20
-144.5047023835787
 30
0.0
 10
114.9852294634412
 20
-144.3248683992486
 30
0.0
 10
114.9852294634412
 20
-144.3248683992486
 30
0.0
 10
115.1099419200072
 20
-144.3333088831875
 30
0.0
 10
115.2835747324638
 20
-144.3376152525441
 30
0.0
 10
115.3659125145613
 20
-144.3376152525441
 30
0.0
 10
115.3659125145613
 20
-144.3376152525441
 30
0.0
 10
115.4485948062073
 20
-144.3376152525441
 30
0.0
 10
115.4485948062073
 20
-144.3376152525441
 30
0.0
 10
115.4485948062073
 20
-144.1746622360917
 30
0.0
 10
115.4485948062073
 20
-144.1641546948617
 30
0.0
 10
115.4461832393676
 20
-144.109205421872
 30
0.0
 10
115.4461832393676
 20
-144.109205421872
 30
0.0
 10
115.6704589554574
 20
-144.1345268736886
 30
0.0
 10
115.6704589554574
 20
-144.1345268736886
 30
0.0
 10
115.6749375795882
 20
-144.1345268736886
 30
0.0
 10
115.6959526620482
 20
-144.1365939309797
 30
0.0
 10
115.6959526620482
 20
-144.1534748988575
 30
0.0
 10
115.6959526620482
 20
-144.168288809444
 30
0.0
 10
115.6852728660439
 20
-144.1769015481571
 30
0.0
 10
115.6577121021619
 20
-144.1917154587437
 30
0.0
 10
115.6515109302885
 20
-144.2571722729635
 30
0.0
 10
115.6494438729973
 20
-144.2783596101978
 30
0.0
 10
115.6494438729973
 20
-144.3376152525441
 30
0.0
 10
115.6494438729973
 20
-144.3376152525441
 30
0.0
 10
115.7445285083902
 20
-144.3376152525441
 30
0.0
 10
115.7445285083902
 20
-144.3376152525441
 30
0.0
 10
115.8272108000362
 20
-144.3376152525441
 30
0.0
 10
116.0004991029443
 20
-144.3333088831875
 30
0.0
 10
116.1255560690589
 20
-144.3248683992486
 30
0.0
 10
116.1255560690589
 20
-144.3248683992486
 30
0.0
 10
116.1255560690589
 20
-144.5047023835787
 30
0.0
 10
116.1255560690589
 20
-144.5047023835787
 30
0.0
 10
116.0959282478857
 20
-144.5026353262875
 30
0.0
 10
115.9774169631931
 20
-144.4983289569309
 30
0.0
 10
115.9371093460157
 20
-144.4962618996398
 30
0.0
 10
115.9222954354291
 20
-144.5470770580473
 30
0.0
 10
115.8885334996737
 20
-144.6592149160921
 30
0.0
 10
115.8227321759054
 20
-144.7987412832447
 30
0.0
 10
115.865106850374
 20
-144.7987412832447
 30
0.0
 10
116.1424370369366
 20
-144.7797932580759
 30
0.0
 10
116.203759736574
 20
-144.7775539460105
 30
0.0
 10
116.203759736574
 20
-144.7775539460105
 30
0.0
 10
116.203759736574
 20
-144.9616942996971
 30
0.0
 10
116.203759736574
 20
-144.9616942996971
 30
0.0
 10
116.1741319154009
 20
-144.9616942996971
 30
0.0
 10
116.1572509475232
 20
-144.9573879303405
 30
0.0
 10
115.9942979310708
 20
-144.9573879303405
 30
0.0
  0
HATCH
  5
101
330
FA
100
AcDbEntity
  8
レイヤー 1
 62
   250
420
  2299925
440
 33554687
100
AcDbHatch
 10
0.0
 20
0.0
 30
0.0
210
0.0
220
0.0
230
1.0
  2
SOLID
 70
     1
 71
     1
 91
        3
 92
        1
 93
        1
 72
     4
 94
        3
 73
     0
 74
     0
 95
       17
 96
       13
 40
0.0
 40
0.0
 40
0.0
 40
0.0
 40
1.0
 40
1.0
 40
1.0
 40
2.0
 40
2.0
 40
2.0
 40
3.0
 40
3.0
 40
3.0
 40
4.0
 40
4.0
 40
4.0
 40
4.0
 10
115.4293022714899
 20
-145.3425496055914
 10
115.4124213036122
 20
-145.3720051719903
 10
115.361778399979
 20
-145.4651950048663
 10
115.3510986039747
 20
-145.4841430300352
 10
115.541612384309
 20
-145.5433986723815
 10
115.5626274667691
 20
-145.5497720990292
 10
115.6346299624108
 20
-145.5773328629112
 10
115.6897514901748
 20
-145.4905164566829
 10
115.7128336299259
 20
-145.41644690375
 10
115.7276475405125
 20
-145.3425496055914
 10
115.7276475405125
 20
-145.3425496055914
 10
115.4293022714899
 20
-145.3425496055914
 10
115.4293022714899
 20
-145.3425496055914
 97
        0
 97
        1
330
FE
 92
        1
 93
        1
 72
     4
 94
        3
 73
     0
 74
     0
 95
       20
 96
       16
 40
0.0
 40
0.0
 40
0.0
 40
0.0
 40
1.0
 40
1.0
 40
1.0
 40
2.0
 40
2.0
 40
2.0
 40
3.0
 40
3.0
 40
3.0
 40
4.0
 40
4.0
 40
4.0
 40
5.0
 40
5.0
 40
5.0
 40
5.0
 10
115.3659125145613
 20
-144.4921277850575
 10
115.3659125145613
 20
-144.4921277850575
 10
115.334217636097
 20
-144.4921277850575
 10
115.334217636097
 20
-144.4921277850575
 10
115.3807264251479
 20
-144.591518789807
 10
115.4124213036122
 20
-144.6717895146133
 10
115.4461832393676
 20
-144.7987412832447
 10
115.4461832393676
 20
-144.7987412832447
 10
115.6535779875796
 20
-144.7987412832447
 10
115.6535779875796
 20
-144.7987412832447
 10
115.6852728660439
 20
-144.705723705143
 10
115.7086995153436
 20
-144.6211466109801
 10
115.7317816550948
 20
-144.4921277850575
 10
115.7317816550948
 20
-144.4921277850575
 10
115.3659125145613
 20
-144.4921277850575
 10
115.3659125145613
 20
-144.4921277850575
 97
        0
 97
        1
330
FF
 92
        1
 93
        1
 72
     4
 94
        3
 73
     0
 74
     0
 95
      242
 96
      238
 40
0.0
 40
0.0
 40
0.0
 40
0.0
 40
1.0
 40
1.0
 40
1.0
 40
2.0
 40
2.0
 40
2.0
 40
3.0
 40
3.0
 40
3.0
 40
4.0
 40
4.0
 40
4.0
 40
5.0
 40
5.0
 40
5.0
 40
6.0
 40
6.0
 40
6.0
 40
7.0
 40
7.0
 40
7.0
 40
8.0
 40
8.0
 40
8.0
 40
9.0
 40
9.0
 40
9.0
 40
10.0
 40
10.0
 40
10.0
 40
11.0
 40
11.0
 40
11.0
 40
12.0
 40
12.0
 40
12.0
 40
13.0
 40
13.0
 40
13.0
 40
14.0
 40
14.0
 40
14.0
 40
15.0
 40
15.0
 40
15.0
 40
16.0
 40
16.0
 40
16.0
 40
17.0
 40
17.0
 40
17.0
 40
18.0
 40
18.0
 40
18.0
 40
19.0
 40
19.0
 40
19.0
 40
20.0
 40
20.0
 40
20.0
 40
21.0
 40
21.0
 40
21.0
 40
22.0
 40
22.0
 40
22.0
 40
23.0
 40
23.0
 40
23.0
 40
24.0
 40
24.0
 40
24.0
 40
25.0
 40
25.0
 40
25.0
 40
26.0
 40
26.0
 40
26.0
 40
27.0
 40
27.0
 40
27.0
 40
28.0
 40
28.0
 40
28.0
 40
29.0
 40
29.0
 40
29.0
 40
30.0
 40
30.0
 40
30.0
 40
31.0
 40
31.0
 40
31.0
 40
32.0
 40
32.0
 40
32.0
 40
33.0
 40
33.0
 40
33.0
 40
34.0
 40
34.0
 40
34.0
 40
35.0
 40
35.0
 40
35.0
 40
36.0
 40
36.0
 40
36.0
 40
37.0
 40
37.0
 40
37.0
 40
38.0
 40
38.0
 40
38.0
 40
39.0
 40
39.0
 40
39.0
 40
40.0
 40
40.0
 40
40.0
 40
41.0
 40
41.0
 40
41.0
 40
42.0
 40
42.0
 40
42.0
 40
43.0
 40
43.0
 40
43.0
 40
44.0
 40
44.0
 40
44.0
 40
45.0
 40
45.0
 40
45.0
 40
46.0
 40
46.0
 40
46.0
 40
47.0
 40
47.0
 40
47.0
 40
48.0
 40
48.0
 40
48.0
 40
49.0
 40
49.0
 40
49.0
 40
50.0
 40
50.0
 40
50.0
 40
51.0
 40
51.0
 40
51.0
 40
52.0
 40
52.0
 40
52.0
 40
53.0
 40
53.0
 40
53.0
 40
54.0
 40
54.0
 40
54.0
 40
55.0
 40
55.0
 40
55.0
 40
56.0
 40
56.0
 40
56.0
 40
57.0
 40
57.0
 40
57.0
 40
58.0
 40
58.0
 40
58.0
 40
59.0
 40
59.0
 40
59.0
 40
60.0
 40
60.0
 40
60.0
 40
61.0
 40
61.0
 40
61.0
 40
62.0
 40
62.0
 40
62.0
 40
63.0
 40
63.0
 40
63.0
 40
64.0
 40
64.0
 40
64.0
 40
65.0
 40
65.0
 40
65.0
 40
66.0
 40
66.0
 40
66.0
 40
67.0
 40
67.0
 40
67.0
 40
68.0
 40
68.0
 40
68.0
 40
69.0
 40
69.0
 40
69.0
 40
70.0
 40
70.0
 40
70.0
 40
71.0
 40
71.0
 40
71.0
 40
72.0
 40
72.0
 40
72.0
 40
73.0
 40
73.0
 40
73.0
 40
74.0
 40
74.0
 40
74.0
 40
75.0
 40
75.0
 40
75.0
 40
76.0
 40
76.0
 40
76.0
 40
77.0
 40
77.0
 40
77.0
 40
78.0
 40
78.0
 40
78.0
 40
79.0
 40
79.0
 40
79.0
 40
79.0
 10
115.9942979310708
 20
-144.9573879303405
 10
115.9942979310708
 20
-144.9573879303405
 10
115.7403943938079
 20
-144.9573879303405
 10
115.7403943938079
 20
-144.9573879303405
 10
115.7403943938079
 20
-144.9573879303405
 10
115.4634087167939
 20
-144.9573879303405
 10
115.4634087167939
 20
-144.9573879303405
 10
115.4634087167939
 20
-144.9573879303405
 10
115.590188230651
 20
-144.9997626048091
 10
115.590188230651
 20
-144.9997626048091
 10
115.6008680266553
 20
-145.0040689741656
 10
115.6136148799507
 20
-145.0102701460391
 10
115.6136148799507
 20
-145.0230169993345
 10
115.6136148799507
 20
-145.0442043365688
 10
115.5815754919379
 20
-145.0505777632165
 10
115.5605604094779
 20
-145.0547118777988
 10
115.5498806134736
 20
-145.0779662723242
 10
115.5202527923005
 20
-145.1435953413183
 10
115.5013047671316
 20
-145.188037073078
 10
115.5013047671316
 20
-145.188037073078
 10
115.7720892722722
 20
-145.188037073078
 10
115.7720892722722
 20
-145.188037073078
 10
115.8630397930828
 20
-145.188037073078
 10
116.0597547452906
 20
-145.1837307037214
 10
116.2016926792829
 20
-145.1752902197825
 10
116.2016926792829
 20
-145.1752902197825
 10
116.2016926792829
 20
-145.3530571468214
 10
116.2016926792829
 20
-145.3530571468214
 10
116.1190103876369
 20
-145.3487507774649
 10
116.0979953051769
 20
-145.3487507774649
 10
115.9181613208468
 20
-145.3446166628826
 10
115.8864664423825
 20
-145.4989569406218
 10
115.8420247106228
 20
-145.5793999202024
 10
115.7975829788631
 20
-145.6491631037787
 10
115.9181613208468
 20
-145.708418746125
 10
116.023925752244
 20
-145.7761148724101
 10
116.12762312635
 20
-145.8586249092818
 10
116.12762312635
 20
-145.8586249092818
 10
116.0091118416574
 20
-146.0257120403165
 10
116.0091118416574
 20
-146.0257120403165
 10
115.9856851923577
 20
-146.0067640151476
 10
115.9729383390623
 20
-145.9983235312087
 10
115.8609727357917
 20
-145.9135741822716
 10
115.8123968894497
 20
-145.8755058771596
 10
115.7531412471034
 20
-145.839676884113
 10
115.6725260127485
 20
-145.7952351523533
 10
115.4609971499542
 20
-145.981442563331
 10
115.2560139685818
 20
-146.0046969578565
 10
114.9659369287238
 20
-146.0343247790296
 10
114.9659369287238
 20
-146.0343247790296
 10
114.8625840641663
 20
-145.8544907946996
 10
114.8625840641663
 20
-145.8544907946996
 10
115.1798773583578
 20
-145.850184425343
 10
115.355232718557
 20
-145.8248629735264
 10
115.507505939005
 20
-145.7147921727727
 10
115.389339163861
 20
-145.6639770143652
 10
115.3004557003415
 20
-145.6365885052575
 10
115.2642821977464
 20
-145.6238416519621
 10
115.2453341725775
 20
-145.6514024158441
 10
115.230520261991
 20
-145.6703504410129
 10
115.202959498109
 20
-145.7042846315427
 10
115.202959498109
 20
-145.7042846315427
 10
115.0062445459012
 20
-145.6217745946709
 10
115.0062445459012
 20
-145.6217745946709
 10
115.0889268375472
 20
-145.5413316150903
 10
115.1502495371846
 20
-145.4460747249232
 10
115.2070936126913
 20
-145.3446166628826
 10
115.0169243419055
 20
-145.3487507774649
 10
114.9955647498969
 20
-145.3487507774649
 10
114.9132269677995
 20
-145.3530571468214
 10
114.9132269677995
 20
-145.3530571468214
 10
114.9132269677995
 20
-145.1752902197825
 10
114.9132269677995
 20
-145.1752902197825
 10
115.0527533349521
 20
-145.1816636464303
 10
115.2622151404553
 20
-145.1859700157868
 10
115.2877088470461
 20
-145.1859700157868
 10
115.3045898149238
 20
-145.1520358252571
 10
115.3597113426878
 20
-145.0314574832734
 10
115.3786593678567
 20
-144.9573879303405
 10
115.3597113426878
 20
-144.9573879303405
 10
115.1819444156489
 20
-144.9637613569882
 10
114.9872965207323
 20
-144.9765082102836
 10
114.9872965207323
 20
-144.9765082102836
 10
114.9872965207323
 20
-145.1098334055628
 10
114.9872965207323
 20
-145.1098334055628
 10
114.9387206743903
 20
-145.1351548573794
 10
114.879465032044
 20
-145.1668497358437
 10
114.7461398367648
 20
-145.2324788048377
 10
114.7461398367648
 20
-145.2324788048377
 10
114.7461398367648
 20
-145.378378598638
 10
114.7461398367648
 20
-145.378378598638
 10
114.7461398367648
 20
-145.378378598638
 10
114.7461398367648
 20
-145.8460503107607
 10
114.7461398367648
 20
-145.8460503107607
 10
114.7461398367648
 20
-145.9728298246179
 10
114.7099663341697
 20
-146.0320854669642
 10
114.4267794852822
 20
-146.0236449830253
 10
114.4267794852822
 20
-146.0236449830253
 10
114.3230821111762
 20
-145.8164224895876
 10
114.3230821111762
 20
-145.8164224895876
 10
114.3864718681047
 20
-145.8289970881087
 10
114.4350477144468
 20
-145.8333034574653
 10
114.4753553316242
 20
-145.8333034574653
 10
114.5514919418482
 20
-145.8333034574653
 10
114.5621717378525
 20
-145.8100490629398
 10
114.5621717378525
 20
-145.7444199939458
 10
114.5621717378525
 20
-145.7444199939458
 10
114.5621717378525
 20
-145.3149888417094
 10
114.5621717378525
 20
-145.3149888417094
 10
114.4646755356199
 20
-145.3551242041126
 10
114.4477945677422
 20
-145.3614976307603
 10
114.4012857786913
 20
-145.3806179107034
 10
114.397151664109
 20
-145.4016329931635
 10
114.3926730399782
 20
-145.4312608143366
 10
114.3737250148093
 20
-145.4312608143366
 10
114.3654567856447
 20
-145.4312608143366
 10
114.3547769896405
 20
-145.4271266997543
 10
114.3482313082185
 20
-145.4038723052289
 10
114.3482313082185
 20
-145.4038723052289
 10
114.2955213472942
 20
-145.2112914676034
 10
114.2955213472942
 20
-145.2112914676034
 10
114.4415933958688
 20
-145.1647826785525
 10
114.5070502100885
 20
-145.1415282840271
 10
114.5621717378525
 20
-145.1203409467928
 10
114.5621717378525
 20
-145.1203409467928
 10
114.5621717378525
 20
-144.7077907624342
 10
114.5621717378525
 20
-144.7077907624342
 10
114.5621717378525
 20
-144.7077907624342
 10
114.5091172673796
 20
-144.7077907624342
 10
114.5091172673796
 20
-144.7077907624342
 10
114.5091172673796
 20
-144.7077907624342
 10
114.4309135998645
 20
-144.7077907624342
 10
114.4309135998645
 20
-144.7077907624342
 10
114.3630452188051
 20
-144.7077907624342
 10
114.3547769896405
 20
-144.7077907624342
 10
114.3186034870453
 20
-144.7141641890819
 10
114.3186034870453
 20
-144.7141641890819
 10
114.3186034870453
 20
-144.5195162941653
 10
114.3186034870453
 20
-144.5195162941653
 10
114.3461642509273
 20
-144.525889720813
 10
114.3547769896405
 20
-144.525889720813
 10
114.4243679184425
 20
-144.525889720813
 10
114.4243679184425
 20
-144.525889720813
 10
114.5576931137217
 20
-144.525889720813
 10
114.5576931137217
 20
-144.525889720813
 10
114.5576931137217
 20
-144.4561265372366
 10
114.5576931137217
 20
-144.3736165003649
 10
114.5556260564305
 20
-144.3693101310083
 10
114.5473578272659
 20
-144.1894761466783
 10
114.5473578272659
 20
-144.1705281215094
 10
114.5449462604263
 20
-144.1240193324586
 10
114.5449462604263
 20
-144.1240193324586
 10
114.7609537473514
 20
-144.1324598163974
 10
114.7609537473514
 20
-144.1324598163974
 10
114.7716335433557
 20
-144.1324598163974
 10
114.7926486258157
 20
-144.1345268736886
 10
114.7926486258157
 20
-144.1514078415663
 10
114.7926486258157
 20
-144.1705281215094
 10
114.7778347152291
 20
-144.1810356627394
 10
114.7523410086383
 20
-144.2001559426826
 10
114.7523410086383
 20
-144.2507988463157
 10
114.7461398367648
 20
-144.4793809317621
 10
114.748206894056
 20
-144.525889720813
 10
114.8773979747529
 20
-144.525889720813
 10
114.8898003184998
 20
-144.525889720813
 10
114.9872965207323
 20
-144.5174492368741
 10
114.9872965207323
 20
-144.5174492368741
 10
114.9872965207323
 20
-144.7120971317907
 10
114.9872965207323
 20
-144.7120971317907
 10
114.9490559608461
 20
-144.7098578197253
 10
114.8815320893352
 20
-144.705723705143
 10
114.7461398367648
 20
-144.7077907624342
 10
114.7461398367648
 20
-144.7077907624342
 10
114.7461398367648
 20
-145.0462713938599
 10
114.7461398367648
 20
-145.0462713938599
 10
114.8012613645288
 20
-145.0230169993345
 10
114.8667181787486
 20
-144.9954562354525
 10
114.9152940250906
 20
-144.9722018409271
 10
114.9152940250906
 20
-144.9722018409271
 10
114.9152940250906
 20
-144.7946071686624
 10
114.9152940250906
 20
-144.7946071686624
 10
115.0296711952009
 20
-144.8071817671836
 10
115.1481824798935
 20
-144.8071817671836
 10
115.2642821977464
 20
-144.8071817671836
 10
115.2412000579952
 20
-144.7120971317907
 10
115.2136392941132
 20
-144.629587094919
 10
115.1502495371846
 20
-144.4962618996398
 10
115.1058078054249
 20
-144.4983289569309
 10
115.0231255137789
 20
-144.5026353262875
 10
114.9852294634412
 20
-144.5047023835787
 10
114.9852294634412
 20
-144.5047023835787
 10
114.9852294634412
 20
-144.3248683992486
 10
114.9852294634412
 20
-144.3248683992486
 10
115.1099419200072
 20
-144.3333088831875
 10
115.2835747324638
 20
-144.3376152525441
 10
115.3659125145613
 20
-144.3376152525441
 10
115.3659125145613
 20
-144.3376152525441
 10
115.4485948062073
 20
-144.3376152525441
 10
115.4485948062073
 20
-144.3376152525441
 10
115.4485948062073
 20
-144.1746622360917
 10
115.4485948062073
 20
-144.1641546948617
 10
115.4461832393676
 20
-144.109205421872
 10
115.4461832393676
 20
-144.109205421872
 10
115.6704589554574
 20
-144.1345268736886
 10
115.6704589554574
 20
-144.1345268736886
 10
115.6749375795882
 20
-144.1345268736886
 10
115.6959526620482
 20
-144.1365939309797
 10
115.6959526620482
 20
-144.1534748988575
 10
115.6959526620482
 20
-144.168288809444
 10
115.6852728660439
 20
-144.1769015481571
 10
115.6577121021619
 20
-144.1917154587437
 10
115.6515109302885
 20
-144.2571722729635
 10
115.6494438729973
 20
-144.2783596101978
 10
115.6494438729973
 20
-144.3376152525441
 10
115.6494438729973
 20
-144.3376152525441
 10
115.7445285083902
 20
-144.3376152525441
 10
115.7445285083902
 20
-144.3376152525441
 10
115.8272108000362
 20
-144.3376152525441
 10
116.0004991029443
 20
-144.3333088831875
 10
116.1255560690589
 20
-144.3248683992486
 10
116.1255560690589
 20
-144.3248683992486
 10
116.1255560690589
 20
-144.5047023835787
 10
116.1255560690589
 20
-144.5047023835787
 10
116.0959282478857
 20
-144.5026353262875
 10
115.9774169631931
 20
-144.4983289569309
 10
115.9371093460157
 20
-144.4962618996398
 10
115.9222954354291
 20
-144.5470770580473
 10
115.8885334996737
 20
-144.6592149160921
 10
115.8227321759054
 20
-144.7987412832447
 10
115.865106850374
 20
-144.7987412832447
 10
116.1424370369366
 20
-144.7797932580759
 10
116.203759736574
 20
-144.7775539460105
 10
116.203759736574
 20
-144.7775539460105
 10
116.203759736574
 20
-144.9616942996971
 10
116.203759736574
 20
-144.9616942996971
 10
116.1741319154009
 20
-144.9616942996971
 10
116.1572509475232
 20
-144.9573879303405
 10
115.9942979310708
 20
-144.9573879303405
 97
        0
 97
        1
330
100
 75
     2
 76
     1
 98
        1
 10
0.0
 20
0.0
450
        0
451
        0
460
0.0
461
0.0
452
        0
462
0.0
453
        0
470

  0
SPLINE
  5
102
330
FA
100
AcDbEntity
  8
レイヤー 1
100
AcDbSpline
210
0.0
220
0.0
230
1.0
 70
    11
 71
     3
 72
    17
 73
    13
 74
     0
 42
0.0000000001
 43
0.0000000001
 40
0.0
 40
0.0
 40
0.0
 40
0.0
 40
1.0
 40
1.0
 40
1.0
 40
2.0
 40
2.0
 40
2.0
 40
3.0
 40
3.0
 40
3.0
 40
4.0
 40
4.0
 40
4.0
 40
4.0
 10
117.850859888072
 20
-145.7571668472413
 30
0.0
 10
117.850859888072
 20
-145.7571668472413
 30
0.0
 10
117.1442708040473
 20
-145.7571668472413
 30
0.0
 10
117.1442708040473
 20
-145.7571668472413
 30
0.0
 10
117.1442708040473
 20
-145.7571668472413
 30
0.0
 10
117.1442708040473
 20
-145.8713717625773
 30
0.0
 10
117.1442708040473
 20
-145.8713717625773
 30
0.0
 10
117.1442708040473
 20
-145.8713717625773
 30
0.0
 10
117.850859888072
 20
-145.8713717625773
 30
0.0
 10
117.850859888072
 20
-145.8713717625773
 30
0.0
 10
117.850859888072
 20
-145.8713717625773
 30
0.0
 10
117.850859888072
 20
-145.7571668472413
 30
0.0
 10
117.850859888072
 20
-145.7571668472413
 30
0.0
  0
SPLINE
  5
103
330
FA
100
AcDbEntity
  8
レイヤー 1
100
AcDbSpline
210
0.0
220
0.0
230
1.0
 70
    11
 71
     3
 72
    17
 73
    13
 74
     0
 42
0.0000000001
 43
0.0000000001
 40
0.0
 40
0.0
 40
0.0
 40
0.0
 40
1.0
 40
1.0
 40
1.0
 40
2.0
 40
2.0
 40
2.0
 40
3.0
 40
3.0
 40
3.0
 40
4.0
 40
4.0
 40
4.0
 40
4.0
 10
117.850859888072
 20
-145.5137708512083
 30
0.0
 10
117.850859888072
 20
-145.5137708512083
 30
0.0
 10
117.1442708040473
 20
-145.5137708512083
 30
0.0
 10
117.1442708040473
 20
-145.5137708512083
 30
0.0
 10
117.1442708040473
 20
-145.5137708512083
 30
0.0
 10
117.1442708040473
 20
-145.6281480213186
 30
0.0
 10
117.1442708040473
 20
-145.6281480213186
 30
0.0
 10
117.1442708040473
 20
-145.6281480213186
 30
0.0
 10
117.850859888072
 20
-145.6281480213186
 30
0.0
 10
117.850859888072
 20
-145.6281480213186
 30
0.0
 10
117.850859888072
 20
-145.6281480213186
 30
0.0
 10
117.850859888072
 20
-145.5137708512083
 30
0.0
 10
117.850859888072
 20
-145.5137708512083
 30
0.0
  0
SPLINE
  5
104
330
FA
100
AcDbEntity
  8
レイヤー 1
100
AcDbSpline
210
0.0
220
0.0
230
1.0
 70
    11
 71
     3
 72
    17
 73
    13
 74
     0
 42
0.0000000001
 43
0.0000000001
 40
0.0
 40
0.0
 40
0.0
 40
0.0
 40
1.0
 40
1.0
 40
1.0
 40
2.0
 40
2.0
 40
2.0
 40
3.0
 40
3.0
 40
3.0
 40
4.0
 40
4.0
 40
4.0
 40
4.0
 10
117.850859888072
 20
-145.2810546511797
 30
0.0
 10
117.850859888072
 20
-145.2810546511797
 30
0.0
 10
117.1442708040473
 20
-145.2810546511797
 30
0.0
 10
117.1442708040473
 20
-145.2810546511797
 30
0.0
 10
117.1442708040473
 20
-145.2810546511797
 30
0.0
 10
117.1442708040473
 20
-145.3890583946423
 30
0.0
 10
117.1442708040473
 20
-145.3890583946423
 30
0.0
 10
117.1442708040473
 20
-145.3890583946423
 30
0.0
 10
117.850859888072
 20
-145.3890583946423
 30
0.0
 10
117.850859888072
 20
-145.3890583946423
 30
0.0
 10
117.850859888072
 20
-145.3890583946423
 30
0.0
 10
117.850859888072
 20
-145.2810546511797
 30
0.0
 10
117.850859888072
 20
-145.2810546511797
 30
0.0
  0
SPLINE
  5
105
330
FA
100
AcDbEntity
  8
レイヤー 1
100
AcDbSpline
210
0.0
220
0.0
230
1.0
 70
     9
 71
     3
 72
   203
 73
   199
 74
     0
 42
0.0000000001
 43
0.0000000001
 40
0.0
 40
0.0
 40
0.0
 40
0.0
 40
1.0
 40
1.0
 40
1.0
 40
2.0
 40
2.0
 40
2.0
 40
3.0
 40
3.0
 40
3.0
 40
4.0
 40
4.0
 40
4.0
 40
5.0
 40
5.0
 40
5.0
 40
6.0
 40
6.0
 40
6.0
 40
7.0
 40
7.0
 40
7.0
 40
8.0
 40
8.0
 40
8.0
 40
9.0
 40
9.0
 40
9.0
 40
10.0
 40
10.0
 40
10.0
 40
11.0
 40
11.0
 40
11.0
 40
12.0
 40
12.0
 40
12.0
 40
13.0
 40
13.0
 40
13.0
 40
14.0
 40
14.0
 40
14.0
 40
15.0
 40
15.0
 40
15.0
 40
16.0
 40
16.0
 40
16.0
 40
17.0
 40
17.0
 40
17.0
 40
18.0
 40
18.0
 40
18.0
 40
19.0
 40
19.0
 40
19.0
 40
20.0
 40
20.0
 40
20.0
 40
21.0
 40
21.0
 40
21.0
 40
22.0
 40
22.0
 40
22.0
 40
23.0
 40
23.0
 40
23.0
 40
24.0
 40
24.0
 40
24.0
 40
25.0
 40
25.0
 40
25.0
 40
26.0
 40
26.0
 40
26.0
 40
27.0
 40
27.0
 40
27.0
 40
28.0
 40
28.0
 40
28.0
 40
29.0
 40
29.0
 40
29.0
 40
30.0
 40
30.0
 40
30.0
 40
31.0
 40
31.0
 40
31.0
 40
32.0
 40
32.0
 40
32.0
 40
33.0
 40
33.0
 40
33.0
 40
34.0
 40
34.0
 40
34.0
 40
35.0
 40
35.0
 40
35.0
 40
36.0
 40
36.0
 40
36.0
 40
37.0
 40
37.0
 40
37.0
 40
38.0
 40
38.0
 40
38.0
 40
39.0
 40
39.0
 40
39.0
 40
40.0
 40
40.0
 40
40.0
 40
41.0
 40
41.0
 40
41.0
 40
42.0
 40
42.0
 40
42.0
 40
43.0
 40
43.0
 40
43.0
 40
44.0
 40
44.0
 40
44.0
 40
45.0
 40
45.0
 40
45.0
 40
46.0
 40
46.0
 40
46.0
 40
47.0
 40
47.0
 40
47.0
 40
48.0
 40
48.0
 40
48.0
 40
49.0
 40
49.0
 40
49.0
 40
50.0
 40
50.0
 40
50.0
 40
51.0
 40
51.0
 40
51.0
 40
52.0
 40
52.0
 40
52.0
 40
53.0
 40
53.0
 40
53.0
 40
54.0
 40
54.0
 40
54.0
 40
55.0
 40
55.0
 40
55.0
 40
56.0
 40
56.0
 40
56.0
 40
57.0
 40
57.0
 40
57.0
 40
58.0
 40
58.0
 40
58.0
 40
59.0
 40
59.0
 40
59.0
 40
60.0
 40
60.0
 40
60.0
 40
61.0
 40
61.0
 40
61.0
 40
62.0
 40
62.0
 40
62.0
 40
63.0
 40
63.0
 40
63.0
 40
64.0
 40
64.0
 40
64.0
 40
65.0
 40
65.0
 40
65.0
 40
66.0
 40
66.0
 40
66.0
 40
66.0
 10
117.6858398143285
 20
-145.0250840566257
 30
0.0
 10
117.6858398143285
 20
-145.0250840566257
 30
0.0
 10
117.127045326621
 20
-145.0250840566257
 30
0.0
 10
117.127045326621
 20
-145.0250840566257
 30
0.0
 10
117.1167100401653
 20
-145.0695257883854
 30
0.0
 10
117.1080973014521
 20
-145.1012206668497
 30
0.0
 10
117.0953504481567
 20
-145.1394612267359
 30
0.0
 10
117.1208441547475
 20
-145.1394612267359
 30
0.0
 10
117.1356580653341
 20
-145.1415282840271
 30
0.0
 10
117.1418592372076
 20
-145.1415282840271
 30
0.0
 10
117.1418592372076
 20
-145.1415282840271
 30
0.0
 10
117.3303059602508
 20
-145.1415282840271
 30
0.0
 10
117.3303059602508
 20
-145.1415282840271
 30
0.0
 10
117.3303059602508
 20
-145.1415282840271
 30
0.0
 10
117.7047878394974
 20
-145.1415282840271
 30
0.0
 10
117.7047878394974
 20
-145.1415282840271
 30
0.0
 10
117.7554307431306
 20
-145.1415282840271
 30
0.0
 10
118.0389621015666
 20
-145.1287814307317
 30
0.0
 10
118.0706569800309
 20
-145.1287814307317
 30
0.0
 10
118.0685899227398
 20
-145.1563421946137
 30
0.0
 10
118.0665228654486
 20
-145.1752902197825
 30
0.0
 10
118.0665228654486
 20
-145.2049180409557
 30
0.0
 10
118.0644558081575
 20
-145.23661291942
 30
0.0
 10
118.0644558081575
 20
-145.3720051719903
 30
0.0
 10
118.0644558081575
 20
-145.3995659358723
 30
0.0
 10
118.0644558081575
 20
-145.3995659358723
 30
0.0
 10
118.0644558081575
 20
-145.6450289891964
 30
0.0
 10
118.0644558081575
 20
-145.6450289891964
 30
0.0
 10
118.0644558081575
 20
-145.6894707209561
 30
0.0
 10
118.0685899227398
 20
-145.8861856731639
 30
0.0
 10
118.0727240373221
 20
-146.0384588936119
 30
0.0
 10
118.0727240373221
 20
-146.0384588936119
 30
0.0
 10
117.8463812639412
 20
-146.0384588936119
 30
0.0
 10
117.8463812639412
 20
-146.0384588936119
 30
0.0
 10
117.8463812639412
 20
-146.0384588936119
 30
0.0
 10
117.8484483212323
 20
-146.0046969578565
 30
0.0
 10
117.8484483212323
 20
-146.0046969578565
 30
0.0
 10
117.8484483212323
 20
-146.0046969578565
 30
0.0
 10
117.1463378613384
 20
-146.0046969578565
 30
0.0
 10
117.1463378613384
 20
-146.0046969578565
 30
0.0
 10
117.1463378613384
 20
-146.0046969578565
 30
0.0
 10
117.1484049186295
 20
-146.0384588936119
 30
0.0
 10
117.1484049186295
 20
-146.0384588936119
 30
0.0
 10
117.1484049186295
 20
-146.0384588936119
 30
0.0
 10
116.9303303744132
 20
-146.0384588936119
 30
0.0
 10
116.9303303744132
 20
-146.0384588936119
 30
0.0
 10
116.9348089985441
 20
-145.9835096206222
 30
0.0
 10
116.9348089985441
 20
-145.9707627673267
 30
0.0
 10
116.9410101704175
 20
-145.8565578519907
 30
0.0
 10
116.9430772277087
 20
-145.8289970881087
 30
0.0
 10
116.9451442849998
 20
-145.6958441476038
 30
0.0
 10
116.9451442849998
 20
-145.6767238676607
 30
0.0
 10
116.9451442849998
 20
-145.6767238676607
 30
0.0
 10
116.9451442849998
 20
-145.4736354888052
 30
0.0
 10
116.9451442849998
 20
-145.4736354888052
 30
0.0
 10
116.8056179178472
 20
-145.7232326567115
 30
0.0
 10
116.6364637295214
 20
-145.8544907946996
 30
0.0
 10
116.5306992981242
 20
-145.9199476089193
 30
0.0
 10
116.5306992981242
 20
-145.9199476089193
 30
0.0
 10
116.3570664856677
 20
-145.7804212417667
 30
0.0
 10
116.3570664856677
 20
-145.7804212417667
 30
0.0
 10
116.4459499491871
 20
-145.7296060833592
 30
0.0
 10
116.5899549404705
 20
-145.6427896771309
 30
0.0
 10
116.727414250332
 20
-145.4483140369886
 30
0.0
 10
116.8183647711426
 20
-145.3213622683572
 30
0.0
 10
116.8838215853624
 20
-145.177529531848
 30
0.0
 10
116.9179280306663
 20
-145.0250840566257
 30
0.0
 10
116.6891736904458
 20
-145.0273233686911
 30
0.0
 10
116.5093397061157
 20
-145.0336967953388
 30
0.0
 10
116.4142550707228
 20
-145.0357638526299
 30
0.0
 10
116.4142550707228
 20
-145.0357638526299
 30
0.0
 10
116.4142550707228
 20
-144.857996925591
 30
0.0
 10
116.4142550707228
 20
-144.857996925591
 30
0.0
 10
116.6109700229306
 20
-144.8643703522388
 30
0.0
 10
116.8945013813666
 20
-144.8686767215953
 30
0.0
 10
117.0447075445235
 20
-144.8686767215953
 30
0.0
 10
117.0447075445235
 20
-144.8686767215953
 30
0.0
 10
117.258303464609
 20
-144.8686767215953
 30
0.0
 10
117.258303464609
 20
-144.8686767215953
 30
0.0
 10
117.258303464609
 20
-144.8686767215953
 30
0.0
 10
117.258303464609
 20
-144.7606729781327
 30
0.0
 10
117.258303464609
 20
-144.7606729781327
 30
0.0
 10
117.258303464609
 20
-144.7606729781327
 30
0.0
 10
117.1122314160344
 20
-144.7606729781327
 30
0.0
 10
117.1122314160344
 20
-144.7606729781327
 30
0.0
 10
116.9430772277087
 20
-144.7606729781327
 30
0.0
 10
116.7739230393829
 20
-144.7649793474893
 30
0.0
 10
116.6068359083483
 20
-144.771352774137
 30
0.0
 10
116.6068359083483
 20
-144.771352774137
 30
0.0
 10
116.6068359083483
 20
-144.5999592737458
 30
0.0
 10
116.6068359083483
 20
-144.5999592737458
 30
0.0
 10
116.7611761860875
 20
-144.6104668149758
 30
0.0
 10
116.947211342291
 20
-144.6104668149758
 30
0.0
 10
117.1122314160344
 20
-144.6104668149758
 30
0.0
 10
117.1122314160344
 20
-144.6104668149758
 30
0.0
 10
117.258303464609
 20
-144.6104668149758
 30
0.0
 10
117.258303464609
 20
-144.6104668149758
 30
0.0
 10
117.258303464609
 20
-144.6104668149758
 30
0.0
 10
117.258303464609
 20
-144.4921277850575
 30
0.0
 10
117.258303464609
 20
-144.4921277850575
 30
0.0
 10
117.258303464609
 20
-144.4921277850575
 30
0.0
 10
117.127045326621
 20
-144.4921277850575
 30
0.0
 10
117.127045326621
 20
-144.4921277850575
 30
0.0
 10
117.0805365375701
 20
-144.4921277850575
 30
0.0
 10
116.8776204134889
 20
-144.5005682689964
 30
0.0
 10
116.8352457390203
 20
-144.5005682689964
 30
0.0
 10
116.6323296149391
 20
-144.5047023835787
 30
0.0
 10
116.5558484951666
 20
-144.5067694408698
 30
0.0
 10
116.4776448276514
 20
-144.5090087529352
 30
0.0
 10
116.4776448276514
 20
-144.5090087529352
 30
0.0
 10
116.4776448276514
 20
-144.3248683992486
 30
0.0
 10
116.4776448276514
 20
-144.3248683992486
 30
0.0
 10
116.5920219977617
 20
-144.3333088831875
 30
0.0
 10
116.6364637295214
 20
-144.3333088831875
 30
0.0
 10
117.0192138379327
 20
-144.3419216219006
 30
0.0
 10
116.9558240810041
 20
-144.2466647317335
 30
0.0
 10
116.9282633171221
 20
-144.2191039678515
 30
0.0
 10
116.8924343240755
 20
-144.1831027200306
 30
0.0
 10
116.8924343240755
 20
-144.1831027200306
 30
0.0
 10
117.0677896842747
 20
-144.1005926831589
 30
0.0
 10
117.0677896842747
 20
-144.1005926831589
 30
0.0
 10
117.1080973014521
 20
-144.1365939309797
 30
0.0
 10
117.1525390332118
 20
-144.1789686054483
 30
0.0
 10
117.2266085861447
 20
-144.2888671514278
 30
0.0
 10
117.2266085861447
 20
-144.2888671514278
 30
0.0
 10
117.1122314160344
 20
-144.3439886791918
 30
0.0
 10
117.1122314160344
 20
-144.3439886791918
 30
0.0
 10
117.1122314160344
 20
-144.3439886791918
 30
0.0
 10
117.1229112120387
 20
-144.3439886791918
 30
0.0
 10
117.1229112120387
 20
-144.3439886791918
 30
0.0
 10
117.1229112120387
 20
-144.3439886791918
 30
0.0
 10
117.6455321971511
 20
-144.3439886791918
 30
0.0
 10
117.6455321971511
 20
-144.3439886791918
 30
0.0
 10
117.6455321971511
 20
-144.3439886791918
 30
0.0
 10
117.5504475617582
 20
-144.2995469474321
 30
0.0
 10
117.5504475617582
 20
-144.2995469474321
 30
0.0
 10
117.5776638160917
 20
-144.26147864232
 30
0.0
 10
117.6348524011468
 20
-144.1810356627394
 30
0.0
 10
117.6496663117334
 20
-144.1069661098066
 30
0.0
 10
117.6496663117334
 20
-144.1069661098066
 30
0.0
 10
117.8632622318189
 20
-144.1705281215094
 30
0.0
 10
117.8632622318189
 20
-144.1705281215094
 30
0.0
 10
117.871874970532
 20
-144.1725951788006
 30
0.0
 10
117.892890052992
 20
-144.1831027200306
 30
0.0
 10
117.892890052992
 20
-144.2042900572649
 30
0.0
 10
117.892890052992
 20
-144.2423583623769
 30
0.0
 10
117.8274332387723
 20
-144.2423583623769
 30
0.0
 10
117.8084852136034
 20
-144.2423583623769
 30
0.0
 10
117.7978054175991
 20
-144.26147864232
 30
0.0
 10
117.7743787682995
 20
-144.3016140047232
 30
0.0
 10
117.7447509471263
 20
-144.3419216219006
 30
0.0
 10
118.1447265329638
 20
-144.3355481952529
 30
0.0
 10
118.1743543541369
 20
-144.3333088831875
 30
0.0
 10
118.250490964361
 20
-144.327107711314
 30
0.0
 10
118.250490964361
 20
-144.327107711314
 30
0.0
 10
118.250490964361
 20
-144.5090087529352
 30
0.0
 10
118.250490964361
 20
-144.5090087529352
 30
0.0
 10
118.2315429391921
 20
-144.5090087529352
 30
0.0
 10
118.2060492326012
 20
-144.5067694408698
 30
0.0
 10
117.9862521406423
 20
-144.4983289569309
 30
0.0
 10
117.9352647274606
 20
-144.4962618996398
 30
0.0
 10
117.7154676355017
 20
-144.4921277850575
 30
0.0
 10
117.671025903742
 20
-144.4921277850575
 30
0.0
 10
117.671025903742
 20
-144.4921277850575
 30
0.0
 10
117.4550184168168
 20
-144.4921277850575
 30
0.0
 10
117.4550184168168
 20
-144.4921277850575
 30
0.0
 10
117.4550184168168
 20
-144.4921277850575
 30
0.0
 10
117.4550184168168
 20
-144.6104668149758
 30
0.0
 10
117.4550184168168
 20
-144.6104668149758
 30
0.0
 10
117.4550184168168
 20
-144.6104668149758
 30
0.0
 10
117.6286512292734
 20
-144.6104668149758
 30
0.0
 10
117.6286512292734
 20
-144.6104668149758
 30
0.0
 10
117.7916042457257
 20
-144.6104668149758
 30
0.0
 10
117.9817735165115
 20
-144.6104668149758
 30
0.0
 10
118.1385253610903
 20
-144.5999592737458
 30
0.0
 10
118.1385253610903
 20
-144.5999592737458
 30
0.0
 10
118.1385253610903
 20
-144.771352774137
 30
0.0
 10
118.1385253610903
 20
-144.771352774137
 30
0.0
 10
117.9290635555872
 20
-144.7629122901981
 30
0.0
 10
117.7323486033794
 20
-144.7606729781327
 30
0.0
 10
117.6286512292734
 20
-144.7606729781327
 30
0.0
 10
117.6286512292734
 20
-144.7606729781327
 30
0.0
 10
117.4550184168168
 20
-144.7606729781327
 30
0.0
 10
117.4550184168168
 20
-144.7606729781327
 30
0.0
 10
117.4550184168168
 20
-144.7606729781327
 30
0.0
 10
117.4550184168168
 20
-144.8686767215953
 30
0.0
 10
117.4550184168168
 20
-144.8686767215953
 30
0.0
 10
117.4550184168168
 20
-144.8686767215953
 30
0.0
 10
117.6858398143285
 20
-144.8686767215953
 30
0.0
 10
117.6858398143285
 20
-144.8686767215953
 30
0.0
 10
117.8188205000592
 20
-144.8686767215953
 30
0.0
 10
118.1068304826261
 20
-144.8643703522388
 30
0.0
 10
118.3159477785807
 20
-144.857996925591
 30
0.0
 10
118.3159477785807
 20
-144.857996925591
 30
0.0
 10
118.3159477785807
 20
-145.0357638526299
 30
0.0
 10
118.3159477785807
 20
-145.0357638526299
 30
0.0
 10
118.1237114505038
 20
-145.0293904259822
 30
0.0
 10
117.8105522708946
 20
-145.0250840566257
 30
0.0
 10
117.6858398143285
 20
-145.0250840566257
 30
0.0
  0
HATCH
  5
106
330
FA
100
AcDbEntity
  8
レイヤー 1
 62
   250
420
  2299925
440
 33554687
100
AcDbHatch
 10
0.0
 20
0.0
 30
0.0
210
0.0
220
0.0
230
1.0
  2
SOLID
 70
     1
 71
     1
 91
        4
 92
        1
 93
        1
 72
     4
 94
        3
 73
     0
 74
     0
 95
       17
 96
       13
 40
0.0
 40
0.0
 40
0.0
 40
0.0
 40
1.0
 40
1.0
 40
1.0
 40
2.0
 40
2.0
 40
2.0
 40
3.0
 40
3.0
 40
3.0
 40
4.0
 40
4.0
 40
4.0
 40
4.0
 10
117.850859888072
 20
-145.7571668472413
 10
117.850859888072
 20
-145.7571668472413
 10
117.1442708040473
 20
-145.7571668472413
 10
117.1442708040473
 20
-145.7571668472413
 10
117.1442708040473
 20
-145.7571668472413
 10
117.1442708040473
 20
-145.8713717625773
 10
117.1442708040473
 20
-145.8713717625773
 10
117.1442708040473
 20
-145.8713717625773
 10
117.850859888072
 20
-145.8713717625773
 10
117.850859888072
 20
-145.8713717625773
 10
117.850859888072
 20
-145.8713717625773
 10
117.850859888072
 20
-145.7571668472413
 10
117.850859888072
 20
-145.7571668472413
 97
        0
 97
        1
330
102
 92
        1
 93
        1
 72
     4
 94
        3
 73
     0
 74
     0
 95
       17
 96
       13
 40
0.0
 40
0.0
 40
0.0
 40
0.0
 40
1.0
 40
1.0
 40
1.0
 40
2.0
 40
2.0
 40
2.0
 40
3.0
 40
3.0
 40
3.0
 40
4.0
 40
4.0
 40
4.0
 40
4.0
 10
117.850859888072
 20
-145.5137708512083
 10
117.850859888072
 20
-145.5137708512083
 10
117.1442708040473
 20
-145.5137708512083
 10
117.1442708040473
 20
-145.5137708512083
 10
117.1442708040473
 20
-145.5137708512083
 10
117.1442708040473
 20
-145.6281480213186
 10
117.1442708040473
 20
-145.6281480213186
 10
117.1442708040473
 20
-145.6281480213186
 10
117.850859888072
 20
-145.6281480213186
 10
117.850859888072
 20
-145.6281480213186
 10
117.850859888072
 20
-145.6281480213186
 10
117.850859888072
 20
-145.5137708512083
 10
117.850859888072
 20
-145.5137708512083
 97
        0
 97
        1
330
103
 92
        1
 93
        1
 72
     4
 94
        3
 73
     0
 74
     0
 95
       17
 96
       13
 40
0.0
 40
0.0
 40
0.0
 40
0.0
 40
1.0
 40
1.0
 40
1.0
 40
2.0
 40
2.0
 40
2.0
 40
3.0
 40
3.0
 40
3.0
 40
4.0
 40
4.0
 40
4.0
 40
4.0
 10
117.850859888072
 20
-145.2810546511797
 10
117.850859888072
 20
-145.2810546511797
 10
117.1442708040473
 20
-145.2810546511797
 10
117.1442708040473
 20
-145.2810546511797
 10
117.1442708040473
 20
-145.2810546511797
 10
117.1442708040473
 20
-145.3890583946423
 10
117.1442708040473
 20
-145.3890583946423
 10
117.1442708040473
 20
-145.3890583946423
 10
117.850859888072
 20
-145.3890583946423
 10
117.850859888072
 20
-145.3890583946423
 10
117.850859888072
 20
-145.3890583946423
 10
117.850859888072
 20
-145.2810546511797
 10
117.850859888072
 20
-145.2810546511797
 97
        0
 97
        1
330
104
 92
        1
 93
        1
 72
     4
 94
        3
 73
     0
 74
     0
 95
      203
 96
      199
 40
0.0
 40
0.0
 40
0.0
 40
0.0
 40
1.0
 40
1.0
 40
1.0
 40
2.0
 40
2.0
 40
2.0
 40
3.0
 40
3.0
 40
3.0
 40
4.0
 40
4.0
 40
4.0
 40
5.0
 40
5.0
 40
5.0
 40
6.0
 40
6.0
 40
6.0
 40
7.0
 40
7.0
 40
7.0
 40
8.0
 40
8.0
 40
8.0
 40
9.0
 40
9.0
 40
9.0
 40
10.0
 40
10.0
 40
10.0
 40
11.0
 40
11.0
 40
11.0
 40
12.0
 40
12.0
 40
12.0
 40
13.0
 40
13.0
 40
13.0
 40
14.0
 40
14.0
 40
14.0
 40
15.0
 40
15.0
 40
15.0
 40
16.0
 40
16.0
 40
16.0
 40
17.0
 40
17.0
 40
17.0
 40
18.0
 40
18.0
 40
18.0
 40
19.0
 40
19.0
 40
19.0
 40
20.0
 40
20.0
 40
20.0
 40
21.0
 40
21.0
 40
21.0
 40
22.0
 40
22.0
 40
22.0
 40
23.0
 40
23.0
 40
23.0
 40
24.0
 40
24.0
 40
24.0
 40
25.0
 40
25.0
 40
25.0
 40
26.0
 40
26.0
 40
26.0
 40
27.0
 40
27.0
 40
27.0
 40
28.0
 40
28.0
 40
28.0
 40
29.0
 40
29.0
 40
29.0
 40
30.0
 40
30.0
 40
30.0
 40
31.0
 40
31.0
 40
31.0
 40
32.0
 40
32.0
 40
32.0
 40
33.0
 40
33.0
 40
33.0
 40
34.0
 40
34.0
 40
34.0
 40
35.0
 40
35.0
 40
35.0
 40
36.0
 40
36.0
 40
36.0
 40
37.0
 40
37.0
 40
37.0
 40
38.0
 40
38.0
 40
38.0
 40
39.0
 40
39.0
 40
39.0
 40
40.0
 40
40.0
 40
40.0
 40
41.0
 40
41.0
 40
41.0
 40
42.0
 40
42.0
 40
42.0
 40
43.0
 40
43.0
 40
43.0
 40
44.0
 40
44.0
 40
44.0
 40
45.0
 40
45.0
 40
45.0
 40
46.0
 40
46.0
 40
46.0
 40
47.0
 40
47.0
 40
47.0
 40
48.0
 40
48.0
 40
48.0
 40
49.0
 40
49.0
 40
49.0
 40
50.0
 40
50.0
 40
50.0
 40
51.0
 40
51.0
 40
51.0
 40
52.0
 40
52.0
 40
52.0
 40
53.0
 40
53.0
 40
53.0
 40
54.0
 40
54.0
 40
54.0
 40
55.0
 40
55.0
 40
55.0
 40
56.0
 40
56.0
 40
56.0
 40
57.0
 40
57.0
 40
57.0
 40
58.0
 40
58.0
 40
58.0
 40
59.0
 40
59.0
 40
59.0
 40
60.0
 40
60.0
 40
60.0
 40
61.0
 40
61.0
 40
61.0
 40
62.0
 40
62.0
 40
62.0
 40
63.0
 40
63.0
 40
63.0
 40
64.0
 40
64.0
 40
64.0
 40
65.0
 40
65.0
 40
65.0
 40
66.0
 40
66.0
 40
66.0
 40
66.0
 10
117.6858398143285
 20
-145.0250840566257
 10
117.6858398143285
 20
-145.0250840566257
 10
117.127045326621
 20
-145.0250840566257
 10
117.127045326621
 20
-145.0250840566257
 10
117.1167100401653
 20
-145.0695257883854
 10
117.1080973014521
 20
-145.1012206668497
 10
117.0953504481567
 20
-145.1394612267359
 10
117.1208441547475
 20
-145.1394612267359
 10
117.1356580653341
 20
-145.1415282840271
 10
117.1418592372076
 20
-145.1415282840271
 10
117.1418592372076
 20
-145.1415282840271
 10
117.3303059602508
 20
-145.1415282840271
 10
117.3303059602508
 20
-145.1415282840271
 10
117.3303059602508
 20
-145.1415282840271
 10
117.7047878394974
 20
-145.1415282840271
 10
117.7047878394974
 20
-145.1415282840271
 10
117.7554307431306
 20
-145.1415282840271
 10
118.0389621015666
 20
-145.1287814307317
 10
118.0706569800309
 20
-145.1287814307317
 10
118.0685899227398
 20
-145.1563421946137
 10
118.0665228654486
 20
-145.1752902197825
 10
118.0665228654486
 20
-145.2049180409557
 10
118.0644558081575
 20
-145.23661291942
 10
118.0644558081575
 20
-145.3720051719903
 10
118.0644558081575
 20
-145.3995659358723
 10
118.0644558081575
 20
-145.3995659358723
 10
118.0644558081575
 20
-145.6450289891964
 10
118.0644558081575
 20
-145.6450289891964
 10
118.0644558081575
 20
-145.6894707209561
 10
118.0685899227398
 20
-145.8861856731639
 10
118.0727240373221
 20
-146.0384588936119
 10
118.0727240373221
 20
-146.0384588936119
 10
117.8463812639412
 20
-146.0384588936119
 10
117.8463812639412
 20
-146.0384588936119
 10
117.8463812639412
 20
-146.0384588936119
 10
117.8484483212323
 20
-146.0046969578565
 10
117.8484483212323
 20
-146.0046969578565
 10
117.8484483212323
 20
-146.0046969578565
 10
117.1463378613384
 20
-146.0046969578565
 10
117.1463378613384
 20
-146.0046969578565
 10
117.1463378613384
 20
-146.0046969578565
 10
117.1484049186295
 20
-146.0384588936119
 10
117.1484049186295
 20
-146.0384588936119
 10
117.1484049186295
 20
-146.0384588936119
 10
116.9303303744132
 20
-146.0384588936119
 10
116.9303303744132
 20
-146.0384588936119
 10
116.9348089985441
 20
-145.9835096206222
 10
116.9348089985441
 20
-145.9707627673267
 10
116.9410101704175
 20
-145.8565578519907
 10
116.9430772277087
 20
-145.8289970881087
 10
116.9451442849998
 20
-145.6958441476038
 10
116.9451442849998
 20
-145.6767238676607
 10
116.9451442849998
 20
-145.6767238676607
 10
116.9451442849998
 20
-145.4736354888052
 10
116.9451442849998
 20
-145.4736354888052
 10
116.8056179178472
 20
-145.7232326567115
 10
116.6364637295214
 20
-145.8544907946996
 10
116.5306992981242
 20
-145.9199476089193
 10
116.5306992981242
 20
-145.9199476089193
 10
116.3570664856677
 20
-145.7804212417667
 10
116.3570664856677
 20
-145.7804212417667
 10
116.4459499491871
 20
-145.7296060833592
 10
116.5899549404705
 20
-145.6427896771309
 10
116.727414250332
 20
-145.4483140369886
 10
116.8183647711426
 20
-145.3213622683572
 10
116.8838215853624
 20
-145.177529531848
 10
116.9179280306663
 20
-145.0250840566257
 10
116.6891736904458
 20
-145.0273233686911
 10
116.5093397061157
 20
-145.0336967953388
 10
116.4142550707228
 20
-145.0357638526299
 10
116.4142550707228
 20
-145.0357638526299
 10
116.4142550707228
 20
-144.857996925591
 10
116.4142550707228
 20
-144.857996925591
 10
116.6109700229306
 20
-144.8643703522388
 10
116.8945013813666
 20
-144.8686767215953
 10
117.0447075445235
 20
-144.8686767215953
 10
117.0447075445235
 20
-144.8686767215953
 10
117.258303464609
 20
-144.8686767215953
 10
117.258303464609
 20
-144.8686767215953
 10
117.258303464609
 20
-144.8686767215953
 10
117.258303464609
 20
-144.7606729781327
 10
117.258303464609
 20
-144.7606729781327
 10
117.258303464609
 20
-144.7606729781327
 10
117.1122314160344
 20
-144.7606729781327
 10
117.1122314160344
 20
-144.7606729781327
 10
116.9430772277087
 20
-144.7606729781327
 10
116.7739230393829
 20
-144.7649793474893
 10
116.6068359083483
 20
-144.771352774137
 10
116.6068359083483
 20
-144.771352774137
 10
116.6068359083483
 20
-144.5999592737458
 10
116.6068359083483
 20
-144.5999592737458
 10
116.7611761860875
 20
-144.6104668149758
 10
116.947211342291
 20
-144.6104668149758
 10
117.1122314160344
 20
-144.6104668149758
 10
117.1122314160344
 20
-144.6104668149758
 10
117.258303464609
 20
-144.6104668149758
 10
117.258303464609
 20
-144.6104668149758
 10
117.258303464609
 20
-144.6104668149758
 10
117.258303464609
 20
-144.4921277850575
 10
117.258303464609
 20
-144.4921277850575
 10
117.258303464609
 20
-144.4921277850575
 10
117.127045326621
 20
-144.4921277850575
 10
117.127045326621
 20
-144.4921277850575
 10
117.0805365375701
 20
-144.4921277850575
 10
116.8776204134889
 20
-144.5005682689964
 10
116.8352457390203
 20
-144.5005682689964
 10
116.6323296149391
 20
-144.5047023835787
 10
116.5558484951666
 20
-144.5067694408698
 10
116.4776448276514
 20
-144.5090087529352
 10
116.4776448276514
 20
-144.5090087529352
 10
116.4776448276514
 20
-144.3248683992486
 10
116.4776448276514
 20
-144.3248683992486
 10
116.5920219977617
 20
-144.3333088831875
 10
116.6364637295214
 20
-144.3333088831875
 10
117.0192138379327
 20
-144.3419216219006
 10
116.9558240810041
 20
-144.2466647317335
 10
116.9282633171221
 20
-144.2191039678515
 10
116.8924343240755
 20
-144.1831027200306
 10
116.8924343240755
 20
-144.1831027200306
 10
117.0677896842747
 20
-144.1005926831589
 10
117.0677896842747
 20
-144.1005926831589
 10
117.1080973014521
 20
-144.1365939309797
 10
117.1525390332118
 20
-144.1789686054483
 10
117.2266085861447
 20
-144.2888671514278
 10
117.2266085861447
 20
-144.2888671514278
 10
117.1122314160344
 20
-144.3439886791918
 10
117.1122314160344
 20
-144.3439886791918
 10
117.1122314160344
 20
-144.3439886791918
 10
117.1229112120387
 20
-144.3439886791918
 10
117.1229112120387
 20
-144.3439886791918
 10
117.1229112120387
 20
-144.3439886791918
 10
117.6455321971511
 20
-144.3439886791918
 10
117.6455321971511
 20
-144.3439886791918
 10
117.6455321971511
 20
-144.3439886791918
 10
117.5504475617582
 20
-144.2995469474321
 10
117.5504475617582
 20
-144.2995469474321
 10
117.5776638160917
 20
-144.26147864232
 10
117.6348524011468
 20
-144.1810356627394
 10
117.6496663117334
 20
-144.1069661098066
 10
117.6496663117334
 20
-144.1069661098066
 10
117.8632622318189
 20
-144.1705281215094
 10
117.8632622318189
 20
-144.1705281215094
 10
117.871874970532
 20
-144.1725951788006
 10
117.892890052992
 20
-144.1831027200306
 10
117.892890052992
 20
-144.2042900572649
 10
117.892890052992
 20
-144.2423583623769
 10
117.8274332387723
 20
-144.2423583623769
 10
117.8084852136034
 20
-144.2423583623769
 10
117.7978054175991
 20
-144.26147864232
 10
117.7743787682995
 20
-144.3016140047232
 10
117.7447509471263
 20
-144.3419216219006
 10
118.1447265329638
 20
-144.3355481952529
 10
118.1743543541369
 20
-144.3333088831875
 10
118.250490964361
 20
-144.327107711314
 10
118.250490964361
 20
-144.327107711314
 10
118.250490964361
 20
-144.5090087529352
 10
118.250490964361
 20
-144.5090087529352
 10
118.2315429391921
 20
-144.5090087529352
 10
118.2060492326012
 20
-144.5067694408698
 10
117.9862521406423
 20
-144.4983289569309
 10
117.9352647274606
 20
-144.4962618996398
 10
117.7154676355017
 20
-144.4921277850575
 10
117.671025903742
 20
-144.4921277850575
 10
117.671025903742
 20
-144.4921277850575
 10
117.4550184168168
 20
-144.4921277850575
 10
117.4550184168168
 20
-144.4921277850575
 10
117.4550184168168
 20
-144.4921277850575
 10
117.4550184168168
 20
-144.6104668149758
 10
117.4550184168168
 20
-144.6104668149758
 10
117.4550184168168
 20
-144.6104668149758
 10
117.6286512292734
 20
-144.6104668149758
 10
117.6286512292734
 20
-144.6104668149758
 10
117.7916042457257
 20
-144.6104668149758
 10
117.9817735165115
 20
-144.6104668149758
 10
118.1385253610903
 20
-144.5999592737458
 10
118.1385253610903
 20
-144.5999592737458
 10
118.1385253610903
 20
-144.771352774137
 10
118.1385253610903
 20
-144.771352774137
 10
117.9290635555872
 20
-144.7629122901981
 10
117.7323486033794
 20
-144.7606729781327
 10
117.6286512292734
 20
-144.7606729781327
 10
117.6286512292734
 20
-144.7606729781327
 10
117.4550184168168
 20
-144.7606729781327
 10
117.4550184168168
 20
-144.7606729781327
 10
117.4550184168168
 20
-144.7606729781327
 10
117.4550184168168
 20
-144.8686767215953
 10
117.4550184168168
 20
-144.8686767215953
 10
117.4550184168168
 20
-144.8686767215953
 10
117.6858398143285
 20
-144.8686767215953
 10
117.6858398143285
 20
-144.8686767215953
 10
117.8188205000592
 20
-144.8686767215953
 10
118.1068304826261
 20
-144.8643703522388
 10
118.3159477785807
 20
-144.857996925591
 10
118.3159477785807
 20
-144.857996925591
 10
118.3159477785807
 20
-145.0357638526299
 10
118.3159477785807
 20
-145.0357638526299
 10
118.1237114505038
 20
-145.0293904259822
 10
117.8105522708946
 20
-145.0250840566257
 10
117.6858398143285
 20
-145.0250840566257
 97
        0
 97
        1
330
105
 75
     2
 76
     1
 98
        1
 10
0.0
 20
0.0
450
        0
451
        0
460
0.0
461
0.0
452
        0
462
0.0
453
        0
470

  0
SPLINE
  5
107
330
FA
100
AcDbEntity
  8
レイヤー 1
100
AcDbSpline
210
0.0
220
0.0
230
1.0
 70
     9
 71
     3
 72
    29
 73
    25
 74
     0
 42
0.0000000001
 43
0.0000000001
 40
0.0
 40
0.0
 40
0.0
 40
0.0
 40
1.0
 40
1.0
 40
1.0
 40
2.0
 40
2.0
 40
2.0
 40
3.0
 40
3.0
 40
3.0
 40
4.0
 40
4.0
 40
4.0
 40
5.0
 40
5.0
 40
5.0
 40
6.0
 40
6.0
 40
6.0
 40
7.0
 40
7.0
 40
7.0
 40
8.0
 40
8.0
 40
8.0
 40
8.0
 10
119.56100528695
 20
-144.4730075051144
 30
0.0
 10
119.56100528695
 20
-144.4730075051144
 30
0.0
 10
119.2075384901634
 20
-144.4730075051144
 30
0.0
 10
119.2075384901634
 20
-144.4730075051144
 30
0.0
 10
119.0955728868928
 20
-144.4730075051144
 30
0.0
 10
118.9560465197401
 20
-144.4793809317621
 30
0.0
 10
118.8482150310518
 20
-144.4921277850575
 30
0.0
 10
118.8482150310518
 20
-144.4921277850575
 30
0.0
 10
118.8482150310518
 20
-144.2571722729635
 30
0.0
 10
118.8482150310518
 20
-144.2571722729635
 30
0.0
 10
118.9663818061959
 20
-144.2719861835501
 30
0.0
 10
119.1506944146567
 20
-144.2762925529066
 30
0.0
 10
119.2075384901634
 20
-144.2762925529066
 30
0.0
 10
119.2075384901634
 20
-144.2762925529066
 30
0.0
 10
119.56100528695
 20
-144.2762925529066
 30
0.0
 10
119.56100528695
 20
-144.2762925529066
 30
0.0
 10
119.5799533121189
 20
-144.2762925529066
 30
0.0
 10
119.7832139457486
 20
-144.2762925529066
 30
0.0
 10
119.9248073701924
 20
-144.2571722729635
 30
0.0
 10
119.9248073701924
 20
-144.2571722729635
 30
0.0
 10
119.9248073701924
 20
-144.4921277850575
 30
0.0
 10
119.9248073701924
 20
-144.4921277850575
 30
0.0
 10
119.768400035162
 20
-144.4730075051144
 30
0.0
 10
119.5778862548277
 20
-144.4730075051144
 30
0.0
 10
119.56100528695
 20
-144.4730075051144
 30
0.0
  0
SPLINE
  5
108
330
FA
100
AcDbEntity
  8
レイヤー 1
100
AcDbSpline
210
0.0
220
0.0
230
1.0
 70
     9
 71
     3
 72
    47
 73
    43
 74
     0
 42
0.0000000001
 43
0.0000000001
 40
0.0
 40
0.0
 40
0.0
 40
0.0
 40
1.0
 40
1.0
 40
1.0
 40
2.0
 40
2.0
 40
2.0
 40
3.0
 40
3.0
 40
3.0
 40
4.0
 40
4.0
 40
4.0
 40
5.0
 40
5.0
 40
5.0
 40
6.0
 40
6.0
 40
6.0
 40
7.0
 40
7.0
 40
7.0
 40
8.0
 40
8.0
 40
8.0
 40
9.0
 40
9.0
 40
9.0
 40
10.0
 40
10.0
 40
10.0
 40
11.0
 40
11.0
 40
11.0
 40
12.0
 40
12.0
 40
12.0
 40
13.0
 40
13.0
 40
13.0
 40
14.0
 40
14.0
 40
14.0
 40
14.0
 10
119.6626356037649
 20
-145.0018296621002
 30
0.0
 10
119.6626356037649
 20
-145.0018296621002
 30
0.0
 10
119.56100528695
 20
-145.0018296621002
 30
0.0
 10
119.56100528695
 20
-145.0018296621002
 30
0.0
 10
119.56100528695
 20
-145.0886460683285
 30
0.0
 10
119.53999020449
 20
-145.4779418581618
 30
0.0
 10
119.3432752522822
 20
-145.697911204895
 30
0.0
 10
119.1906575222857
 20
-145.8670653932207
 30
0.0
 10
118.9836072836221
 20
-145.9370008315713
 30
0.0
 10
118.898857934685
 20
-145.964389340679
 30
0.0
 10
118.898857934685
 20
-145.964389340679
 30
0.0
 10
118.7042100397684
 20
-145.7973022096444
 30
0.0
 10
118.7042100397684
 20
-145.7973022096444
 30
0.0
 10
118.8017062420009
 20
-145.784555356349
 30
0.0
 10
118.9770616022002
 20
-145.7613009618235
 30
0.0
 10
119.1655083252433
 20
-145.5730264935546
 30
0.0
 10
119.2395778781762
 20
-145.5011962526872
 30
0.0
 10
119.3432752522822
 20
-145.3614976307603
 30
0.0
 10
119.3432752522822
 20
-145.0018296621002
 30
0.0
 10
119.3432752522822
 20
-145.0018296621002
 30
0.0
 10
119.1124538547705
 20
-145.0018296621002
 30
0.0
 10
119.1124538547705
 20
-145.0018296621002
 30
0.0
 10
118.926418698567
 20
-145.0018296621002
 30
0.0
 10
118.740039032815
 20
-145.0061360314568
 30
0.0
 10
118.5540038766115
 20
-145.0209499420434
 30
0.0
 10
118.5540038766115
 20
-145.0209499420434
 30
0.0
 10
118.5540038766115
 20
-144.8009805953101
 30
0.0
 10
118.5540038766115
 20
-144.8009805953101
 30
0.0
 10
118.7424505996546
 20
-144.8157945058967
 30
0.0
 10
119.0280490153819
 20
-144.819928620479
 30
0.0
 10
119.1124538547705
 20
-144.819928620479
 30
0.0
 10
119.1124538547705
 20
-144.819928620479
 30
0.0
 10
119.6626356037649
 20
-144.819928620479
 30
0.0
 10
119.6626356037649
 20
-144.819928620479
 30
0.0
 10
119.6815836289337
 20
-144.819928620479
 30
0.0
 10
119.9988769231252
 20
-144.819928620479
 30
0.0
 10
120.2272867537973
 20
-144.8009805953101
 30
0.0
 10
120.2272867537973
 20
-144.8009805953101
 30
0.0
 10
120.2272867537973
 20
-145.0209499420434
 30
0.0
 10
120.2272867537973
 20
-145.0209499420434
 30
0.0
 10
120.0391845403027
 20
-145.0061360314568
 30
0.0
 10
119.8507378172595
 20
-145.0018296621002
 30
0.0
 10
119.6626356037649
 20
-145.0018296621002
 30
0.0
  0
HATCH
  5
109
330
FA
100
AcDbEntity
  8
レイヤー 1
 62
   250
420
  2299925
440
 33554687
100
AcDbHatch
 10
0.0
 20
0.0
 30
0.0
210
0.0
220
0.0
230
1.0
  2
SOLID
 70
     1
 71
     1
 91
        2
 92
        1
 93
        1
 72
     4
 94
        3
 73
     0
 74
     0
 95
       29
 96
       25
 40
0.0
 40
0.0
 40
0.0
 40
0.0
 40
1.0
 40
1.0
 40
1.0
 40
2.0
 40
2.0
 40
2.0
 40
3.0
 40
3.0
 40
3.0
 40
4.0
 40
4.0
 40
4.0
 40
5.0
 40
5.0
 40
5.0
 40
6.0
 40
6.0
 40
6.0
 40
7.0
 40
7.0
 40
7.0
 40
8.0
 40
8.0
 40
8.0
 40
8.0
 10
119.56100528695
 20
-144.4730075051144
 10
119.56100528695
 20
-144.4730075051144
 10
119.2075384901634
 20
-144.4730075051144
 10
119.2075384901634
 20
-144.4730075051144
 10
119.0955728868928
 20
-144.4730075051144
 10
118.9560465197401
 20
-144.4793809317621
 10
118.8482150310518
 20
-144.4921277850575
 10
118.8482150310518
 20
-144.4921277850575
 10
118.8482150310518
 20
-144.2571722729635
 10
118.8482150310518
 20
-144.2571722729635
 10
118.9663818061959
 20
-144.2719861835501
 10
119.1506944146567
 20
-144.2762925529066
 10
119.2075384901634
 20
-144.2762925529066
 10
119.2075384901634
 20
-144.2762925529066
 10
119.56100528695
 20
-144.2762925529066
 10
119.56100528695
 20
-144.2762925529066
 10
119.5799533121189
 20
-144.2762925529066
 10
119.7832139457486
 20
-144.2762925529066
 10
119.9248073701924
 20
-144.2571722729635
 10
119.9248073701924
 20
-144.2571722729635
 10
119.9248073701924
 20
-144.4921277850575
 10
119.9248073701924
 20
-144.4921277850575
 10
119.768400035162
 20
-144.4730075051144
 10
119.5778862548277
 20
-144.4730075051144
 10
119.56100528695
 20
-144.4730075051144
 97
        0
 97
        1
330
107
 92
        1
 93
        1
 72
     4
 94
        3
 73
     0
 74
     0
 95
       47
 96
       43
 40
0.0
 40
0.0
 40
0.0
 40
0.0
 40
1.0
 40
1.0
 40
1.0
 40
2.0
 40
2.0
 40
2.0
 40
3.0
 40
3.0
 40
3.0
 40
4.0
 40
4.0
 40
4.0
 40
5.0
 40
5.0
 40
5.0
 40
6.0
 40
6.0
 40
6.0
 40
7.0
 40
7.0
 40
7.0
 40
8.0
 40
8.0
 40
8.0
 40
9.0
 40
9.0
 40
9.0
 40
10.0
 40
10.0
 40
10.0
 40
11.0
 40
11.0
 40
11.0
 40
12.0
 40
12.0
 40
12.0
 40
13.0
 40
13.0
 40
13.0
 40
14.0
 40
14.0
 40
14.0
 40
14.0
 10
119.6626356037649
 20
-145.0018296621002
 10
119.6626356037649
 20
-145.0018296621002
 10
119.56100528695
 20
-145.0018296621002
 10
119.56100528695
 20
-145.0018296621002
 10
119.56100528695
 20
-145.0886460683285
 10
119.53999020449
 20
-145.4779418581618
 10
119.3432752522822
 20
-145.697911204895
 10
119.1906575222857
 20
-145.8670653932207
 10
118.9836072836221
 20
-145.9370008315713
 10
118.898857934685
 20
-145.964389340679
 10
118.898857934685
 20
-145.964389340679
 10
118.7042100397684
 20
-145.7973022096444
 10
118.7042100397684
 20
-145.7973022096444
 10
118.8017062420009
 20
-145.784555356349
 10
118.9770616022002
 20
-145.7613009618235
 10
119.1655083252433
 20
-145.5730264935546
 10
119.2395778781762
 20
-145.5011962526872
 10
119.3432752522822
 20
-145.3614976307603
 10
119.3432752522822
 20
-145.0018296621002
 10
119.3432752522822
 20
-145.0018296621002
 10
119.1124538547705
 20
-145.0018296621002
 10
119.1124538547705
 20
-145.0018296621002
 10
118.926418698567
 20
-145.0018296621002
 10
118.740039032815
 20
-145.0061360314568
 10
118.5540038766115
 20
-145.0209499420434
 10
118.5540038766115
 20
-145.0209499420434
 10
118.5540038766115
 20
-144.8009805953101
 10
118.5540038766115
 20
-144.8009805953101
 10
118.7424505996546
 20
-144.8157945058967
 10
119.0280490153819
 20
-144.819928620479
 10
119.1124538547705
 20
-144.819928620479
 10
119.1124538547705
 20
-144.819928620479
 10
119.6626356037649
 20
-144.819928620479
 10
119.6626356037649
 20
-144.819928620479
 10
119.6815836289337
 20
-144.819928620479
 10
119.9988769231252
 20
-144.819928620479
 10
120.2272867537973
 20
-144.8009805953101
 10
120.2272867537973
 20
-144.8009805953101
 10
120.2272867537973
 20
-145.0209499420434
 10
120.2272867537973
 20
-145.0209499420434
 10
120.0391845403027
 20
-145.0061360314568
 10
119.8507378172595
 20
-145.0018296621002
 10
119.6626356037649
 20
-145.0018296621002
 97
        0
 97
        1
330
108
 75
     2
 76
     1
 98
        1
 10
0.0
 20
0.0
450
        0
451
        0
460
0.0
461
0.0
452
        0
462
0.0
453
        0
470

  0
SPLINE
  5
10A
330
FA
100
AcDbEntity
  8
レイヤー 1
100
AcDbSpline
210
0.0
220
0.0
230
1.0
 70
     9
 71
     3
 72
    29
 73
    25
 74
     0
 42
0.0000000001
 43
0.0000000001
 40
0.0
 40
0.0
 40
0.0
 40
0.0
 40
1.0
 40
1.0
 40
1.0
 40
2.0
 40
2.0
 40
2.0
 40
3.0
 40
3.0
 40
3.0
 40
4.0
 40
4.0
 40
4.0
 40
5.0
 40
5.0
 40
5.0
 40
6.0
 40
6.0
 40
6.0
 40
7.0
 40
7.0
 40
7.0
 40
8.0
 40
8.0
 40
8.0
 40
8.0
 10
121.5085177647617
 20
-145.1647826785525
 30
0.0
 10
121.5085177647617
 20
-145.1647826785525
 30
0.0
 10
121.0241373395356
 20
-145.1647826785525
 30
0.0
 10
121.0241373395356
 20
-145.1647826785525
 30
0.0
 10
120.9965765756536
 20
-145.1647826785525
 30
0.0
 10
120.6792832814621
 20
-145.1647826785525
 30
0.0
 10
120.4677544186678
 20
-145.1901041303691
 30
0.0
 10
120.4677544186678
 20
-145.1901041303691
 30
0.0
 10
120.4677544186678
 20
-144.9596272424059
 30
0.0
 10
120.4677544186678
 20
-144.9596272424059
 30
0.0
 10
120.6262288109892
 20
-144.9828816369314
 30
0.0
 10
120.8167425913236
 20
-144.9849486942225
 30
0.0
 10
121.0241373395356
 20
-144.9849486942225
 30
0.0
 10
121.0241373395356
 20
-144.9849486942225
 30
0.0
 10
121.5085177647617
 20
-144.9849486942225
 30
0.0
 10
121.5085177647617
 20
-144.9849486942225
 30
0.0
 10
121.6945529209652
 20
-144.9849486942225
 30
0.0
 10
121.8809325867173
 20
-144.9828816369314
 30
0.0
 10
122.0649006856296
 20
-144.9596272424059
 30
0.0
 10
122.0649006856296
 20
-144.9596272424059
 30
0.0
 10
122.0649006856296
 20
-145.1901041303691
 30
0.0
 10
122.0649006856296
 20
-145.1901041303691
 30
0.0
 10
121.8809325867173
 20
-145.1668497358437
 30
0.0
 10
121.6332302213278
 20
-145.1647826785525
 30
0.0
 10
121.5085177647617
 20
-145.1647826785525
 30
0.0
  0
HATCH
  5
10B
330
FA
100
AcDbEntity
  8
レイヤー 1
 62
   250
420
  2299925
440
 33554687
100
AcDbHatch
 10
0.0
 20
0.0
 30
0.0
210
0.0
220
0.0
230
1.0
  2
SOLID
 70
     1
 71
     1
 91
        1
 92
        1
 93
        1
 72
     4
 94
        3
 73
     0
 74
     0
 95
       29
 96
       25
 40
0.0
 40
0.0
 40
0.0
 40
0.0
 40
1.0
 40
1.0
 40
1.0
 40
2.0
 40
2.0
 40
2.0
 40
3.0
 40
3.0
 40
3.0
 40
4.0
 40
4.0
 40
4.0
 40
5.0
 40
5.0
 40
5.0
 40
6.0
 40
6.0
 40
6.0
 40
7.0
 40
7.0
 40
7.0
 40
8.0
 40
8.0
 40
8.0
 40
8.0
 10
121.5085177647617
 20
-145.1647826785525
 10
121.5085177647617
 20
-145.1647826785525
 10
121.0241373395356
 20
-145.1647826785525
 10
121.0241373395356
 20
-145.1647826785525
 10
120.9965765756536
 20
-145.1647826785525
 10
120.6792832814621
 20
-145.1647826785525
 10
120.4677544186678
 20
-145.1901041303691
 10
120.4677544186678
 20
-145.1901041303691
 10
120.4677544186678
 20
-144.9596272424059
 10
120.4677544186678
 20
-144.9596272424059
 10
120.6262288109892
 20
-144.9828816369314
 10
120.8167425913236
 20
-144.9849486942225
 10
121.0241373395356
 20
-144.9849486942225
 10
121.0241373395356
 20
-144.9849486942225
 10
121.5085177647617
 20
-144.9849486942225
 10
121.5085177647617
 20
-144.9849486942225
 10
121.6945529209652
 20
-144.9849486942225
 10
121.8809325867173
 20
-144.9828816369314
 10
122.0649006856296
 20
-144.9596272424059
 10
122.0649006856296
 20
-144.9596272424059
 10
122.0649006856296
 20
-145.1901041303691
 10
122.0649006856296
 20
-145.1901041303691
 10
121.8809325867173
 20
-145.1668497358437
 10
121.6332302213278
 20
-145.1647826785525
 10
121.5085177647617
 20
-145.1647826785525
 97
        0
 97
        1
330
10A
 75
     2
 76
     1
 98
        1
 10
0.0
 20
0.0
450
        0
451
        0
460
0.0
461
0.0
452
        0
462
0.0
453
        0
470

  0
SPLINE
  5
10C
330
FA
100
AcDbEntity
  8
レイヤー 1
100
AcDbSpline
210
0.0
220
0.0
230
1.0
 70
     9
 71
     3
 72
    17
 73
    13
 74
     0
 42
0.0000000001
 43
0.0000000001
 40
0.0
 40
0.0
 40
0.0
 40
0.0
 40
1.0
 40
1.0
 40
1.0
 40
2.0
 40
2.0
 40
2.0
 40
3.0
 40
3.0
 40
3.0
 40
4.0
 40
4.0
 40
4.0
 40
4.0
 10
123.9273193049557
 20
-144.1979166306172
 30
0.0
 10
123.8725422867402
 20
-144.1979166306172
 30
0.0
 10
123.8281005549805
 20
-144.2423583623769
 30
0.0
 10
123.8281005549805
 20
-144.2974798901409
 30
0.0
 10
123.8281005549805
 20
-144.3544962204218
 30
0.0
 10
123.8725422867402
 20
-144.4032443215381
 30
0.0
 10
123.9314534195379
 20
-144.4032443215381
 30
0.0
 10
123.9907090618842
 20
-144.4032443215381
 30
0.0
 10
124.0310166790617
 20
-144.3524291631306
 30
0.0
 10
124.0310166790617
 20
-144.2995469474321
 30
0.0
 10
124.0310166790617
 20
-144.2423583623769
 30
0.0
 10
123.9845078900108
 20
-144.1979166306172
 30
0.0
 10
123.9273193049557
 20
-144.1979166306172
 30
0.0
  0
SPLINE
  5
10D
330
FA
100
AcDbEntity
  8
レイヤー 1
100
AcDbSpline
210
0.0
220
0.0
230
1.0
 70
     9
 71
     3
 72
    17
 73
    13
 74
     0
 42
0.0000000001
 43
0.0000000001
 40
0.0
 40
0.0
 40
0.0
 40
0.0
 40
1.0
 40
1.0
 40
1.0
 40
2.0
 40
2.0
 40
2.0
 40
3.0
 40
3.0
 40
3.0
 40
4.0
 40
4.0
 40
4.0
 40
4.0
 10
123.9293863622468
 20
-144.5279567781041
 30
0.0
 10
123.8026068483896
 20
-144.5279567781041
 30
0.0
 10
123.7009765315747
 20
-144.4264987160635
 30
0.0
 10
123.7009765315747
 20
-144.2995469474321
 30
0.0
 10
123.7009765315747
 20
-144.1725951788006
 30
0.0
 10
123.8026068483896
 20
-144.0688978046946
 30
0.0
 10
123.9293863622468
 20
-144.0688978046946
 30
0.0
 10
124.0565103856525
 20
-144.0688978046946
 30
0.0
 10
124.1602077597585
 20
-144.1725951788006
 30
0.0
 10
124.1602077597585
 20
-144.2995469474321
 30
0.0
 10
124.1602077597585
 20
-144.4264987160635
 30
0.0
 10
124.0565103856525
 20
-144.5279567781041
 30
0.0
 10
123.9293863622468
 20
-144.5279567781041
 30
0.0
  0
SPLINE
  5
10E
330
FA
100
AcDbEntity
  8
レイヤー 1
100
AcDbSpline
210
0.0
220
0.0
230
1.0
 70
     9
 71
     3
 72
    44
 73
    40
 74
     0
 42
0.0000000001
 43
0.0000000001
 40
0.0
 40
0.0
 40
0.0
 40
0.0
 40
1.0
 40
1.0
 40
1.0
 40
2.0
 40
2.0
 40
2.0
 40
3.0
 40
3.0
 40
3.0
 40
4.0
 40
4.0
 40
4.0
 40
5.0
 40
5.0
 40
5.0
 40
6.0
 40
6.0
 40
6.0
 40
7.0
 40
7.0
 40
7.0
 40
8.0
 40
8.0
 40
8.0
 40
9.0
 40
9.0
 40
9.0
 40
10.0
 40
10.0
 40
10.0
 40
11.0
 40
11.0
 40
11.0
 40
12.0
 40
12.0
 40
12.0
 40
13.0
 40
13.0
 40
13.0
 40
13.0
 10
123.7199245567436
 20
-144.7269110423773
 30
0.0
 10
123.607958953473
 20
-145.0950194949762
 30
0.0
 10
123.5573160498398
 20
-145.253666142072
 30
0.0
 10
123.3606010976321
 20
-145.5032633099783
 30
0.0
 10
123.1762884891712
 20
-145.7339124527158
 30
0.0
 10
122.9396104293345
 20
-145.9199476089193
 30
0.0
 10
122.6602131854808
 20
-146.0131374417953
 30
0.0
 10
122.6602131854808
 20
-146.0131374417953
 30
0.0
 10
122.4676323478553
 20
-145.8333034574653
 30
0.0
 10
122.4676323478553
 20
-145.8333034574653
 30
0.0
 10
123.1087646176603
 20
-145.6810302370172
 30
0.0
 10
123.4388047651472
 20
-145.1246473161494
 30
0.0
 10
123.5021945220758
 20
-144.6845363679087
 30
0.0
 10
123.5021945220758
 20
-144.6845363679087
 30
0.0
 10
122.7363497957048
 20
-144.6845363679087
 30
0.0
 10
122.7363497957048
 20
-144.6845363679087
 30
0.0
 10
122.643332217603
 20
-144.6845363679087
 30
0.0
 10
122.4593641186907
 20
-144.6888427372653
 30
0.0
 10
122.3026122741118
 20
-144.7077907624342
 30
0.0
 10
122.3026122741118
 20
-144.7077907624342
 30
0.0
 10
122.3026122741118
 20
-144.487821415701
 30
0.0
 10
122.3026122741118
 20
-144.487821415701
 30
0.0
 10
122.3894286803401
 20
-144.5090087529352
 30
0.0
 10
122.6412651603119
 20
-144.5090087529352
 30
0.0
 10
122.7404839102871
 20
-144.5090087529352
 30
0.0
 10
122.7404839102871
 20
-144.5090087529352
 30
0.0
 10
123.1721543745889
 20
-144.5090087529352
 30
0.0
 10
123.1721543745889
 20
-144.5090087529352
 30
0.0
 10
123.2145290490575
 20
-144.5090087529352
 30
0.0
 10
123.449140051603
 20
-144.5067694408698
 30
0.0
 10
123.4873806114892
 20
-144.5005682689964
 30
0.0
 10
123.5297552859578
 20
-144.4941948423487
 30
0.0
 10
123.531822343249
 20
-144.4921277850575
 30
0.0
 10
123.5931450428864
 20
-144.4518201678801
 30
0.0
 10
123.5931450428864
 20
-144.4518201678801
 30
0.0
 10
123.7812472563811
 20
-144.6063327003935
 30
0.0
 10
123.7812472563811
 20
-144.6063327003935
 30
0.0
 10
123.7519639447564
 20
-144.6359605215667
 30
0.0
 10
123.7371500341699
 20
-144.667655400031
 30
0.0
 10
123.7199245567436
 20
-144.7269110423773
 30
0.0
  0
HATCH
  5
10F
330
FA
100
AcDbEntity
  8
レイヤー 1
 62
   250
420
  2299925
440
 33554687
100
AcDbHatch
 10
0.0
 20
0.0
 30
0.0
210
0.0
220
0.0
230
1.0
  2
SOLID
 70
     1
 71
     1
 91
        3
 92
        1
 93
        1
 72
     4
 94
        3
 73
     0
 74
     0
 95
       17
 96
       13
 40
0.0
 40
0.0
 40
0.0
 40
0.0
 40
1.0
 40
1.0
 40
1.0
 40
2.0
 40
2.0
 40
2.0
 40
3.0
 40
3.0
 40
3.0
 40
4.0
 40
4.0
 40
4.0
 40
4.0
 10
123.9273193049557
 20
-144.1979166306172
 10
123.8725422867402
 20
-144.1979166306172
 10
123.8281005549805
 20
-144.2423583623769
 10
123.8281005549805
 20
-144.2974798901409
 10
123.8281005549805
 20
-144.3544962204218
 10
123.8725422867402
 20
-144.4032443215381
 10
123.9314534195379
 20
-144.4032443215381
 10
123.9907090618842
 20
-144.4032443215381
 10
124.0310166790617
 20
-144.3524291631306
 10
124.0310166790617
 20
-144.2995469474321
 10
124.0310166790617
 20
-144.2423583623769
 10
123.9845078900108
 20
-144.1979166306172
 10
123.9273193049557
 20
-144.1979166306172
 97
        0
 97
        1
330
10C
 92
        1
 93
        1
 72
     4
 94
        3
 73
     0
 74
     0
 95
       17
 96
       13
 40
0.0
 40
0.0
 40
0.0
 40
0.0
 40
1.0
 40
1.0
 40
1.0
 40
2.0
 40
2.0
 40
2.0
 40
3.0
 40
3.0
 40
3.0
 40
4.0
 40
4.0
 40
4.0
 40
4.0
 10
123.9293863622468
 20
-144.5279567781041
 10
123.8026068483896
 20
-144.5279567781041
 10
123.7009765315747
 20
-144.4264987160635
 10
123.7009765315747
 20
-144.2995469474321
 10
123.7009765315747
 20
-144.1725951788006
 10
123.8026068483896
 20
-144.0688978046946
 10
123.9293863622468
 20
-144.0688978046946
 10
124.0565103856525
 20
-144.0688978046946
 10
124.1602077597585
 20
-144.1725951788006
 10
124.1602077597585
 20
-144.2995469474321
 10
124.1602077597585
 20
-144.4264987160635
 10
124.0565103856525
 20
-144.5279567781041
 10
123.9293863622468
 20
-144.5279567781041
 97
        0
 97
        1
330
10D
 92
        1
 93
        1
 72
     4
 94
        3
 73
     0
 74
     0
 95
       44
 96
       40
 40
0.0
 40
0.0
 40
0.0
 40
0.0
 40
1.0
 40
1.0
 40
1.0
 40
2.0
 40
2.0
 40
2.0
 40
3.0
 40
3.0
 40
3.0
 40
4.0
 40
4.0
 40
4.0
 40
5.0
 40
5.0
 40
5.0
 40
6.0
 40
6.0
 40
6.0
 40
7.0
 40
7.0
 40
7.0
 40
8.0
 40
8.0
 40
8.0
 40
9.0
 40
9.0
 40
9.0
 40
10.0
 40
10.0
 40
10.0
 40
11.0
 40
11.0
 40
11.0
 40
12.0
 40
12.0
 40
12.0
 40
13.0
 40
13.0
 40
13.0
 40
13.0
 10
123.7199245567436
 20
-144.7269110423773
 10
123.607958953473
 20
-145.0950194949762
 10
123.5573160498398
 20
-145.253666142072
 10
123.3606010976321
 20
-145.5032633099783
 10
123.1762884891712
 20
-145.7339124527158
 10
122.9396104293345
 20
-145.9199476089193
 10
122.6602131854808
 20
-146.0131374417953
 10
122.6602131854808
 20
-146.0131374417953
 10
122.4676323478553
 20
-145.8333034574653
 10
122.4676323478553
 20
-145.8333034574653
 10
123.1087646176603
 20
-145.6810302370172
 10
123.4388047651472
 20
-145.1246473161494
 10
123.5021945220758
 20
-144.6845363679087
 10
123.5021945220758
 20
-144.6845363679087
 10
122.7363497957048
 20
-144.6845363679087
 10
122.7363497957048
 20
-144.6845363679087
 10
122.643332217603
 20
-144.6845363679087
 10
122.4593641186907
 20
-144.6888427372653
 10
122.3026122741118
 20
-144.7077907624342
 10
122.3026122741118
 20
-144.7077907624342
 10
122.3026122741118
 20
-144.487821415701
 10
122.3026122741118
 20
-144.487821415701
 10
122.3894286803401
 20
-144.5090087529352
 10
122.6412651603119
 20
-144.5090087529352
 10
122.7404839102871
 20
-144.5090087529352
 10
122.7404839102871
 20
-144.5090087529352
 10
123.1721543745889
 20
-144.5090087529352
 10
123.1721543745889
 20
-144.5090087529352
 10
123.2145290490575
 20
-144.5090087529352
 10
123.449140051603
 20
-144.5067694408698
 10
123.4873806114892
 20
-144.5005682689964
 10
123.5297552859578
 20
-144.4941948423487
 10
123.531822343249
 20
-144.4921277850575
 10
123.5931450428864
 20
-144.4518201678801
 10
123.5931450428864
 20
-144.4518201678801
 10
123.7812472563811
 20
-144.6063327003935
 10
123.7812472563811
 20
-144.6063327003935
 10
123.7519639447564
 20
-144.6359605215667
 10
123.7371500341699
 20
-144.667655400031
 10
123.7199245567436
 20
-144.7269110423773
 97
        0
 97
        1
330
10E
 75
     2
 76
     1
 98
        1
 10
0.0
 20
0.0
450
        0
451
        0
460
0.0
461
0.0
452
        0
462
0.0
453
        0
470

  0
ENDBLK
  5
FD
330
FA
100
AcDbEntity
  8
0
100
AcDbBlockEnd
  0
ENDSEC
  0
SECTION
  2
ENTITIES
  0
LINE
  5
79
330
70
100
AcDbEntity
  8
レイヤー 1
 62
   250
420
  2299925
370
     9
100
AcDbLine
 10
130.6008178841004
 20
-146.8694952856644
 30
0.0
 11
130.6008178841004
 21
-159.2718210803658
 31
0.0
  0
LINE
  5
7A
330
70
100
AcDbEntity
  8
レイヤー 1
 62
   250
420
  2299925
370
     9
100
AcDbLine
 10
85.4540482266416
 20
-137.4621469145547
 30
0.0
 11
125.453860793188
 21
-137.4621469145547
 31
0.0
  0
LINE
  5
7B
330
70
100
AcDbEntity
  8
レイヤー 1
 62
   250
420
  2299925
370
     9
100
AcDbLine
 10
85.321756560008
 20
-164.4418851151332
 30
0.0
 11
95.32184239084134
 21
-164.4418851151332
 31
0.0
  0
INSERT
  5
7D
330
70
100
AcDbEntity
  8
レイヤー 1
100
AcDbBlockReference
  2
Block_0
 10
0.0
 20
0.0
 30
0.0
  0
INSERT
  5
8B
330
70
100
AcDbEntity
  8
レイヤー 1
100
AcDbBlockReference
  2
Block_2
 10
0.0
 20
0.0
 30
0.0
  0
LWPOLYLINE
  5
97
330
70
100
AcDbEntity
  8
レイヤー 1
 62
   250
420
  2299925
370
    25
100
AcDbPolyline
 90
       12
 70
     1
 43
0.0
 10
85.321756560008
 20
-141.2579298732718
 10
88.38651350368627
 20
-141.2579298732718
 10
88.38651350368627
 20
-142.2280687374104
 10
86.38008989307676
 20
-144.1022006340417
 10
86.38008989307676
 20
-149.0410893969291
 10
125.5385980132484
 20
-149.0410893969291
 10
125.5385980132484
 20
-150.0326065938556
 10
86.38008989307676
 20
-150.0326065938556
 10
86.38008989307676
 20
-156.339179488517
 10
95.19953433531634
 20
-156.339179488517
 10
95.19953433531634
 20
-159.2881899688371
 10
85.321756560008
 20
-159.2881899688371
  0
LWPOLYLINE
  5
98
330
70
100
AcDbEntity
  8
レイヤー 1
 62
   250
420
  2299925
370
    25
100
AcDbPolyline
 90
        3
 70
     0
 43
0.0
 10
85.321756560008
 20
-141.2579298732718
 10
86.3783612819661
 20
-142.2391106815731
 10
86.38008989307676
 20
-144.1022006340417
  0
LWPOLYLINE
  5
99
330
70
100
AcDbEntity
  8
レイヤー 1
 62
   250
420
  2299925
370
    25
100
AcDbPolyline
 90
        3
 70
     0
 43
0.0
 10
86.38008989307676
 20
-156.339179488517
 10
86.38008989307676
 20
-158.3511416594099
 10
85.321756560008
 20
-159.2881899688371
  0
SPLINE
  5
9A
330
70
100
AcDbEntity
  8
レイヤー 1
 62
   250
420
  2299925
370
     9
100
AcDbSpline
210
0.0
220
0.0
230
1.0
 70
     9
 71
     3
 72
    17
 73
    13
 74
     0
 42
0.0000000001
 43
0.0000000001
 40
0.0
 40
0.0
 40
0.0
 40
0.0
 40
1.0
 40
1.0
 40
1.0
 40
2.0
 40
2.0
 40
2.0
 40
3.0
 40
3.0
 40
3.0
 40
4.0
 40
4.0
 40
4.0
 40
4.0
 10
130.7014301037558
 20
-149.0471218967752
 30
0.0
 10
130.7014301037558
 20
-148.9916652315233
 30
0.0
 10
130.656627327121
 20
-148.9468624548885
 30
0.0
 10
130.601523439638
 20
-148.9468624548885
 30
0.0
 10
130.546384274378
 20
-148.9468624548885
 30
0.0
 10
130.5016167755201
 20
-148.9916652315233
 30
0.0
 10
130.5016167755201
 20
-149.0471218967752
 30
0.0
 10
130.5016167755201
 20
-149.1022548953721
 30
0.0
 10
130.546384274378
 20
-149.147028560893
 30
0.0
 10
130.601523439638
 20
-149.147028560893
 30
0.0
 10
130.656627327121
 20
-149.147028560893
 30
0.0
 10
130.7014301037558
 20
-149.1022548953721
 30
0.0
 10
130.7014301037558
 20
-149.0471218967752
 30
0.0
  0
SPLINE
  5
9B
330
70
100
AcDbEntity
  8
レイヤー 1
 62
   250
420
  2299925
370
     9
100
AcDbSpline
210
0.0
220
0.0
230
1.0
 70
     9
 71
     3
 72
    17
 73
    13
 74
     0
 42
0.0000000001
 43
0.0000000001
 40
0.0
 40
0.0
 40
0.0
 40
0.0
 40
1.0
 40
1.0
 40
1.0
 40
2.0
 40
2.0
 40
2.0
 40
3.0
 40
3.0
 40
3.0
 40
4.0
 40
4.0
 40
4.0
 40
4.0
 10
130.7014301037558
 20
-150.0284790939609
 30
0.0
 10
130.7014301037558
 20
-149.9729871509321
 30
0.0
 10
130.656627327121
 20
-149.9282196520743
 30
0.0
 10
130.601523439638
 20
-149.9282196520743
 30
0.0
 10
130.546384274378
 20
-149.9282196520743
 30
0.0
 10
130.5016167755201
 20
-149.9729871509321
 30
0.0
 10
130.5016167755201
 20
-150.0284790939609
 30
0.0
 10
130.5016167755201
 20
-150.0835829814439
 30
0.0
 10
130.546384274378
 20
-150.1283857580787
 30
0.0
 10
130.601523439638
 20
-150.1283857580787
 30
0.0
 10
130.656627327121
 20
-150.1283857580787
 30
0.0
 10
130.7014301037558
 20
-150.0835829814439
 30
0.0
 10
130.7014301037558
 20
-150.0284790939609
 30
0.0
  0
CIRCLE
  5
9C
330
70
100
AcDbEntity
  8
レイヤー 1
 62
   250
420
  2299925
370
     9
100
AcDbCircle
 10
95.414869890818
 20
-141.2641387620023
 30
0.0
 40
0.0999066653796162
  0
SPLINE
  5
9D
330
70
100
AcDbEntity
  8
レイヤー 1
 62
   250
420
  2299925
370
     9
100
AcDbSpline
210
0.0
220
0.0
230
1.0
 70
     9
 71
     3
 72
    17
 73
    13
 74
     0
 42
0.0000000001
 43
0.0000000001
 40
0.0
 40
0.0
 40
0.0
 40
0.0
 40
1.0
 40
1.0
 40
1.0
 40
2.0
 40
2.0
 40
2.0
 40
3.0
 40
3.0
 40
3.0
 40
4.0
 40
4.0
 40
4.0
 40
4.0
 10
95.51477655745955
 20
-144.2730798965793
 30
0.0
 10
95.51477655745955
 20
-144.2176295199858
 30
0.0
 10
95.46997377969315
 20
-144.172826743351
 30
0.0
 10
95.41486989081791
 20
-144.172826743351
 30
0.0
 10
95.35973072416515
 20
-144.172826743351
 30
0.0
 10
95.31496322417659
 20
-144.2176295199858
 30
0.0
 10
95.31496322417659
 20
-144.2730798965793
 30
0.0
 10
95.31496322417659
 20
-144.3282253504976
 30
0.0
 10
95.35973072416515
 20
-144.3729928493555
 30
0.0
 10
95.41486989081791
 20
-144.3729928493555
 30
0.0
 10
95.46997377969315
 20
-144.3729928493555
 30
0.0
 10
95.51477655745955
 20
-144.3282253504976
 30
0.0
 10
95.51477655745955
 20
-144.2730798965793
 30
0.0
  0
LINE
  5
9E
330
70
100
AcDbEntity
  8
レイヤー 1
 62
   250
420
  2299925
370
     9
100
AcDbLine
 10
95.41486989081791
 20
-141.2641387620023
 30
0.0
 11
95.41486989081791
 21
-144.2641256299107
 31
0.0
  0
LINE
  5
9F
330
70
100
AcDbEntity
  8
レイヤー 1
 62
   250
420
  2299925
370
     9
100
AcDbLine
 10
90.88936600306011
 20
-141.2641387620023
 30
0.0
 11
96.43669072389574
 21
-141.2641387620023
 31
0.0
  0
LINE
  5
A0
330
70
100
AcDbEntity
  8
レイヤー 1
 62
   250
420
  2299925
370
     9
100
AcDbLine
 10
90.87800655861896
 20
-144.2658542409777
 30
0.0
 11
96.43669072389574
 21
-144.2658542409777
 31
0.0
  0
INSERT
  5
A2
330
70
100
AcDbEntity
  8
レイヤー 1
100
AcDbBlockReference
  2
Block_4
 10
0.0
 20
0.0
 30
0.0
  0
CIRCLE
  5
A7
330
70
100
AcDbEntity
  8
レイヤー 1
 62
   250
420
  2299925
370
     9
100
AcDbCircle
 10
130.5822264956862
 20
-156.3346992108536
 30
0.0
 40
0.0999066641179958
  0
SPLINE
  5
A8
330
70
100
AcDbEntity
  8
レイヤー 1
 62
   250
420
  2299925
370
     9
100
AcDbSpline
210
0.0
220
0.0
230
1.0
 70
     9
 71
     3
 72
    17
 73
    13
 74
     0
 42
0.0000000001
 43
0.0000000001
 40
0.0
 40
0.0
 40
0.0
 40
0.0
 40
1.0
 40
1.0
 40
1.0
 40
2.0
 40
2.0
 40
2.0
 40
3.0
 40
3.0
 40
3.0
 40
4.0
 40
4.0
 40
4.0
 40
4.0
 10
130.6821331598037
 20
-159.2775008024431
 30
0.0
 10
130.6821331598037
 20
-159.2220382261754
 30
0.0
 10
130.6373303831689
 20
-159.1772766383334
 30
0.0
 10
130.5822264956865
 20
-159.1772766383334
 30
0.0
 10
130.5270873304259
 20
-159.1772766383334
 30
0.0
 10
130.482319831568
 20
-159.2220382261754
 30
0.0
 10
130.482319831568
 20
-159.2775008024431
 30
0.0
 10
130.482319831568
 20
-159.3326399677031
 30
0.0
 10
130.5270873304259
 20
-159.377407466561
 30
0.0
 10
130.5822264956865
 20
-159.377407466561
 30
0.0
 10
130.6373303831689
 20
-159.377407466561
 30
0.0
 10
130.6821331598037
 20
-159.3326399677031
 30
0.0
 10
130.6821331598037
 20
-159.2775008024431
 30
0.0
  0
LINE
  5
A9
330
70
100
AcDbEntity
  8
レイヤー 1
 62
   250
420
  2299925
370
     9
100
AcDbLine
 10
97.69653072358121
 20
-156.3379800441032
 30
0.0
 11
131.6026732151043
 21
-156.3346992108536
 31
0.0
  0
LINE
  5
AA
330
70
100
AcDbEntity
  8
レイヤー 1
 62
   250
420
  2299925
370
     9
100
AcDbLine
 10
97.69653072358121
 20
-159.2719974692502
 30
0.0
 11
131.6040473029503
 21
-159.2718210803658
 31
0.0
  0
INSERT
  5
AC
330
70
100
AcDbEntity
  8
レイヤー 1
100
AcDbBlockReference
  2
Block_5
 10
0.0
 20
0.0
 30
0.0
  0
INSERT
  5
B2
330
70
100
AcDbEntity
  8
レイヤー 1
100
AcDbBlockReference
  2
Block_6
 10
0.0
 20
0.0
 30
0.0
  0
INSERT
  5
C1
330
70
100
AcDbEntity
  8
レイヤー 1
100
AcDbBlockReference
  2
Block_8
 10
0.0
 20
0.0
 30
0.0
  0
INSERT
  5
CF
330
70
100
AcDbEntity
  8
レイヤー 1
100
AcDbBlockReference
  2
Block_10
 10
0.0
 20
0.0
 30
0.0
  0
LINE
  5
D4
330
70
100
AcDbEntity
  8
レイヤー 1
 62
   250
420
  2299925
370
     9
100
AcDbLine
 10
128.0362998939712
 20
-149.0410893969291
 30
0.0
 11
131.4958503612662
 21
-149.0410893969291
 31
0.0
  0
LINE
  5
D5
330
70
100
AcDbEntity
  8
レイヤー 1
 62
   250
420
  2299925
370
     9
100
AcDbLine
 10
128.0362998939712
 20
-150.0303488161354
 30
0.0
 11
131.4958503612662
 21
-150.0303488161354
 31
0.0
  0
SPLINE
  5
D6
330
70
100
AcDbEntity
  8
レイヤー 1
 62
   250
420
  2299925
370
     9
100
AcDbSpline
210
0.0
220
0.0
230
1.0
 70
     9
 71
     3
 72
    17
 73
    13
 74
     0
 42
0.0000000001
 43
0.0000000001
 40
0.0
 40
0.0
 40
0.0
 40
0.0
 40
1.0
 40
1.0
 40
1.0
 40
2.0
 40
2.0
 40
2.0
 40
3.0
 40
3.0
 40
3.0
 40
4.0
 40
4.0
 40
4.0
 40
4.0
 10
85.55945822661511
 20
-137.4638402478449
 30
0.0
 10
85.55945822661511
 20
-137.4083771205181
 30
0.0
 10
85.51469072662653
 20
-137.3636160837351
 30
0.0
 10
85.45955155997379
 20
-137.3636160837351
 30
0.0
 10
85.40444767109855
 20
-137.3636160837351
 30
0.0
 10
85.35964489333181
 20
-137.4083771205181
 30
0.0
 10
85.35964489333181
 20
-137.4638402478449
 30
0.0
 10
85.35964489333181
 20
-137.5189794131048
 30
0.0
 10
85.40444767109855
 20
-137.5637469119627
 30
0.0
 10
85.45955155997379
 20
-137.5637469119627
 30
0.0
 10
85.51469072662653
 20
-137.5637469119627
 30
0.0
 10
85.55945822661511
 20
-137.5189794131048
 30
0.0
 10
85.55945822661511
 20
-137.4638402478449
 30
0.0
  0
SPLINE
  5
D7
330
70
100
AcDbEntity
  8
レイヤー 1
 62
   250
420
  2299925
370
     9
100
AcDbSpline
210
0.0
220
0.0
230
1.0
 70
     9
 71
     3
 72
    17
 73
    13
 74
     0
 42
0.0000000001
 43
0.0000000001
 40
0.0
 40
0.0
 40
0.0
 40
0.0
 40
1.0
 40
1.0
 40
1.0
 40
2.0
 40
2.0
 40
2.0
 40
3.0
 40
3.0
 40
3.0
 40
4.0
 40
4.0
 40
4.0
 40
4.0
 10
125.634378772152
 20
-137.4676437871698
 30
0.0
 10
125.634378772152
 20
-137.4121935824958
 30
0.0
 10
125.5895759943853
 20
-137.367390805861
 30
0.0
 10
125.5344705133537
 20
-137.367390805861
 30
0.0
 10
125.4793313480937
 20
-137.367390805861
 30
0.0
 10
125.4345638492359
 20
-137.4121935824958
 30
0.0
 10
125.4345638492359
 20
-137.4676437871698
 30
0.0
 10
125.4345638492359
 20
-137.5227541352307
 30
0.0
 10
125.4793313480937
 20
-137.5675569118655
 30
0.0
 10
125.5344705133537
 20
-137.5675569118655
 30
0.0
 10
125.5895759943853
 20
-137.5675569118655
 30
0.0
 10
125.634378772152
 20
-137.5227541352307
 30
0.0
 10
125.634378772152
 20
-137.4676437871698
 30
0.0
  0
LINE
  5
D8
330
70
100
AcDbEntity
  8
レイヤー 1
 62
   250
420
  2299925
370
     9
100
AcDbLine
 10
85.4540482266416
 20
-136.5018152723882
 30
0.0
 11
85.4540482266416
 21
-138.7583582703745
 31
0.0
  0
LINE
  5
D9
330
70
100
AcDbEntity
  8
レイヤー 1
 62
   250
420
  2299925
370
     9
100
AcDbLine
 10
125.5385980132484
 20
-136.503014716802
 30
0.0
 11
125.5385980132484
 21
-146.4691630736555
 31
0.0
  0
LINE
  5
DA
330
70
100
AcDbEntity
  8
レイヤー 1
 62
   250
420
  2299925
370
     9
100
AcDbLine
 10
81.33579100544876
 20
-141.2653382064161
 30
0.0
 11
81.3430229498916
 21
-159.2652946916434
 31
0.0
  0
LINE
  5
DB
330
70
100
AcDbEntity
  8
レイヤー 1
 62
   250
420
  2299925
370
     9
100
AcDbLine
 10
84.70439544905124
 20
-134.6778130967001
 30
0.0
 11
89.35665239233262
 21
-134.6778130967001
 31
0.0
  0
INSERT
  5
DD
330
70
100
AcDbEntity
  8
レイヤー 1
100
AcDbBlockReference
  2
Block_11
 10
0.0
 20
0.0
 30
0.0
  0
SPLINE
  5
E2
330
70
100
AcDbEntity
  8
レイヤー 1
 62
   250
420
  2299925
370
     9
100
AcDbSpline
210
0.0
220
0.0
230
1.0
 70
     9
 71
     3
 72
    17
 73
    13
 74
     0
 42
0.0000000001
 43
0.0000000001
 40
0.0
 40
0.0
 40
0.0
 40
0.0
 40
1.0
 40
1.0
 40
1.0
 40
2.0
 40
2.0
 40
2.0
 40
3.0
 40
3.0
 40
3.0
 40
4.0
 40
4.0
 40
4.0
 40
4.0
 10
85.6538615599252
 20
-134.674179485682
 30
0.0
 10
85.6538615599252
 20
-134.6187228204298
 30
0.0
 10
85.609094059936
 20
-134.573955321572
 30
0.0
 10
85.55395489328324
 20
-134.573955321572
 30
0.0
 10
85.49885100440802
 20
-134.573955321572
 30
0.0
 10
85.4540482266416
 20
-134.6187228204298
 30
0.0
 10
85.4540482266416
 20
-134.674179485682
 30
0.0
 10
85.4540482266416
 20
-134.7293186509417
 30
0.0
 10
85.49885100440802
 20
-134.7740861497995
 30
0.0
 10
85.55395489328324
 20
-134.7740861497995
 30
0.0
 10
85.609094059936
 20
-134.7740861497995
 30
0.0
 10
85.6538615599252
 20
-134.7293186509417
 30
0.0
 10
85.6538615599252
 20
-134.674179485682
 30
0.0
  0
SPLINE
  5
E3
330
70
100
AcDbEntity
  8
レイヤー 1
 62
   250
420
  2299925
370
     9
100
AcDbSpline
210
0.0
220
0.0
230
1.0
 70
     9
 71
     3
 72
    17
 73
    13
 74
     0
 42
0.0000000001
 43
0.0000000001
 40
0.0
 40
0.0
 40
0.0
 40
0.0
 40
1.0
 40
1.0
 40
1.0
 40
2.0
 40
2.0
 40
2.0
 40
3.0
 40
3.0
 40
3.0
 40
4.0
 40
4.0
 40
4.0
 40
4.0
 10
88.66351461472822
 20
-134.6797180966515
 30
0.0
 10
88.66351461472822
 20
-134.6242261536228
 30
0.0
 10
88.6187118369615
 20
-134.5794521212253
 30
0.0
 10
88.56360794808626
 20
-134.5794521212253
 30
0.0
 10
88.5084687814335
 20
-134.5794521212253
 30
0.0
 10
88.46370128144462
 20
-134.6242261536228
 30
0.0
 10
88.46370128144462
 20
-134.6797180966515
 30
0.0
 10
88.46370128144462
 20
-134.7348219841346
 30
0.0
 10
88.5084687814335
 20
-134.7796247607693
 30
0.0
 10
88.56360794808626
 20
-134.7796247607693
 30
0.0
 10
88.6187118369615
 20
-134.7796247607693
 30
0.0
 10
88.66351461472822
 20
-134.7348219841346
 30
0.0
 10
88.66351461472822
 20
-134.6797180966515
 30
0.0
  0
LINE
  5
E4
330
70
100
AcDbEntity
  8
レイヤー 1
 62
   250
420
  2299925
370
     9
100
AcDbLine
 10
85.55395489328324
 20
-133.8118847854584
 30
0.0
 11
85.55395489328324
 21
-135.672399460215
 31
0.0
  0
LINE
  5
E5
330
70
100
AcDbEntity
  8
レイヤー 1
 62
   250
420
  2299925
370
     9
100
AcDbLine
 10
88.56360794808626
 20
-133.8399658958531
 30
0.0
 11
88.56360794808626
 21
-135.672399460215
 31
0.0
  0
SPLINE
  5
E6
330
70
100
AcDbEntity
  8
レイヤー 1
 62
   250
420
  2299925
370
     9
100
AcDbSpline
210
0.0
220
0.0
230
1.0
 70
     9
 71
     3
 72
    17
 73
    13
 74
     0
 42
0.0000000001
 43
0.0000000001
 40
0.0
 40
0.0
 40
0.0
 40
0.0
 40
1.0
 40
1.0
 40
1.0
 40
2.0
 40
2.0
 40
2.0
 40
3.0
 40
3.0
 40
3.0
 40
4.0
 40
4.0
 40
4.0
 40
4.0
 10
81.42881850542567
 20
-141.2711943173778
 30
0.0
 10
81.42881850542567
 20
-141.215737652126
 30
0.0
 10
81.38401572765895
 20
-141.1709348754912
 30
0.0
 10
81.32891183878404
 20
-141.1709348754912
 30
0.0
 10
81.27377267213097
 20
-141.1709348754912
 30
0.0
 10
81.22900517214239
 20
-141.215737652126
 30
0.0
 10
81.22900517214239
 20
-141.2711943173778
 30
0.0
 10
81.22900517214239
 20
-141.3263271195386
 30
0.0
 10
81.27377267213097
 20
-141.3711009814957
 30
0.0
 10
81.32891183878404
 20
-141.3711009814957
 30
0.0
 10
81.38401572765895
 20
-141.3711009814957
 30
0.0
 10
81.42881850542567
 20
-141.3263271195386
 30
0.0
 10
81.42881850542567
 20
-141.2711943173778
 30
0.0
  0
SPLINE
  5
E7
330
70
100
AcDbEntity
  8
レイヤー 1
 62
   250
420
  2299925
370
     9
100
AcDbSpline
210
0.0
220
0.0
230
1.0
 70
     9
 71
     3
 72
    17
 73
    13
 74
     0
 42
0.0000000001
 43
0.0000000001
 40
0.0
 40
0.0
 40
0.0
 40
0.0
 40
1.0
 40
1.0
 40
1.0
 40
2.0
 40
2.0
 40
2.0
 40
3.0
 40
3.0
 40
3.0
 40
4.0
 40
4.0
 40
4.0
 40
4.0
 10
81.44501100542164
 20
-159.2690694137693
 30
0.0
 10
81.44501100542164
 20
-159.2136127485175
 30
0.0
 10
81.40020822765492
 20
-159.1688099718827
 30
0.0
 10
81.34510433878
 20
-159.1688099718827
 30
0.0
 10
81.28996517212693
 20
-159.1688099718827
 30
0.0
 10
81.24519767213804
 20
-159.2136127485175
 30
0.0
 10
81.24519767213804
 20
-159.2690694137693
 30
0.0
 10
81.24519767213804
 20
-159.3242085790293
 30
0.0
 10
81.28996517212693
 20
-159.3689760778872
 30
0.0
 10
81.34510433878
 20
-159.3689760778872
 30
0.0
 10
81.40020822765492
 20
-159.3689760778872
 30
0.0
 10
81.44501100542164
 20
-159.3242085790293
 30
0.0
 10
81.44501100542164
 20
-159.2690694137693
 30
0.0
  0
SPLINE
  5
E8
330
70
100
AcDbEntity
  8
レイヤー 1
 62
   250
420
  2299925
370
     9
100
AcDbSpline
210
0.0
220
0.0
230
1.0
 70
     9
 71
     3
 72
    17
 73
    13
 74
     0
 42
0.0000000001
 43
0.0000000001
 40
0.0
 40
0.0
 40
0.0
 40
0.0
 40
1.0
 40
1.0
 40
1.0
 40
2.0
 40
2.0
 40
2.0
 40
3.0
 40
3.0
 40
3.0
 40
4.0
 40
4.0
 40
4.0
 40
4.0
 10
85.4271665599815
 20
-164.4473826693142
 30
0.0
 10
85.4271665599815
 20
-164.3919317830742
 30
0.0
 10
85.38239905999295
 20
-164.3471290064395
 30
0.0
 10
85.32725989334018
 20
-164.3471290064395
 30
0.0
 10
85.27215600446494
 20
-164.3471290064395
 30
0.0
 10
85.22735322669822
 20
-164.3919317830742
 30
0.0
 10
85.22735322669822
 20
-164.4473826693142
 30
0.0
 10
85.22735322669822
 20
-164.502527613586
 30
0.0
 10
85.27215600446494
 20
-164.5472951124439
 30
0.0
 10
85.32725989334018
 20
-164.5472951124439
 30
0.0
 10
85.38239905999295
 20
-164.5472951124439
 30
0.0
 10
85.4271665599815
 20
-164.502527613586
 30
0.0
 10
85.4271665599815
 20
-164.4473826693142
 30
0.0
  0
SPLINE
  5
E9
330
70
100
AcDbEntity
  8
レイヤー 1
 62
   250
420
  2299925
370
     9
100
AcDbSpline
210
0.0
220
0.0
230
1.0
 70
     9
 71
     3
 72
    17
 73
    13
 74
     0
 42
0.0000000001
 43
0.0000000001
 40
0.0
 40
0.0
 40
0.0
 40
0.0
 40
1.0
 40
1.0
 40
1.0
 40
2.0
 40
2.0
 40
2.0
 40
3.0
 40
3.0
 40
3.0
 40
4.0
 40
4.0
 40
4.0
 40
4.0
 10
95.31048294639955
 20
-164.4418851151332
 30
0.0
 10
95.31048294639955
 20
-164.3864284498813
 30
0.0
 10
95.26568016863313
 20
-164.3416256732465
 30
0.0
 10
95.21057627975791
 20
-164.3416256732465
 30
0.0
 10
95.15543711310515
 20
-164.3416256732465
 30
0.0
 10
95.11066961311627
 20
-164.3864284498813
 30
0.0
 10
95.11066961311627
 20
-164.4418851151332
 30
0.0
 10
95.11066961311627
 20
-164.4969890026162
 30
0.0
 10
95.15543711310515
 20
-164.541791779251
 30
0.0
 10
95.21057627975791
 20
-164.541791779251
 30
0.0
 10
95.26568016863313
 20
-164.541791779251
 30
0.0
 10
95.31048294639955
 20
-164.4969890026162
 30
0.0
 10
95.31048294639955
 20
-164.4418851151332
 30
0.0
  0
LINE
  5
EA
330
70
100
AcDbEntity
  8
レイヤー 1
 62
   250
420
  2299925
370
     9
100
AcDbLine
 10
80.31774489459216
 20
-141.2651618175317
 30
0.0
 11
82.79583239397281
 21
-141.2651618175317
 31
0.0
  0
LINE
  5
EB
330
70
100
AcDbEntity
  8
レイヤー 1
 62
   250
420
  2299925
370
     9
100
AcDbLine
 10
80.32360100570178
 20
-159.2678699693555
 30
0.0
 11
82.80133572730434
 21
-159.2678699693555
 31
0.0
  0
LINE
  5
EC
330
70
100
AcDbEntity
  8
レイヤー 1
 62
   250
420
  2299925
370
     9
100
AcDbLine
 10
85.321756560008
 20
-161.8096632255288
 30
0.0
 11
85.321756560008
 21
-165.3394928700111
 31
0.0
  0
LINE
  5
ED
330
70
100
AcDbEntity
  8
レイヤー 1
 62
   250
420
  2299925
370
     9
100
AcDbLine
 10
95.21399822420168
 20
-161.8096632255288
 30
0.0
 11
95.21399822420168
 21
-165.3394928700111
 31
0.0
  0
INSERT
  5
EF
330
70
100
AcDbEntity
  8
レイヤー 1
100
AcDbBlockReference
  2
Block_12
 10
0.0
 20
0.0
 30
0.0
  0
ENDSEC
  0
SECTION
  2
OBJECTS
  0
DICTIONARY
  5
C
330
0
100
AcDbDictionary
281
     1
  3
ACAD_COLOR
350
63
  3
ACAD_DETAILVIEWSTYLE
350
6A
  3
ACAD_GROUP
350
D
  3
ACAD_LAYOUT
350
62
  3
ACAD_MATERIAL
350
10
  3
ACAD_MLEADERSTYLE
350
66
  3
ACAD_MLINESTYLE
350
5F
  3
ACAD_PLOTSETTINGS
350
61
  3
ACAD_PLOTSTYLENAME
350
E
  3
ACAD_SCALELIST
350
42
  3
ACAD_SECTIONVIEWSTYLE
350
68
  3
ACAD_TABLESTYLE
350
64
  3
ACAD_VISUALSTYLE
350
29
  3
ACDB_RECOMPOSE_DATA
350
118
  3
AcDbVariableDictionary
350
110
  0
DICTIONARY
  5
63
102
{ACAD_REACTORS
330
C
102
}
330
C
100
AcDbDictionary
281
     1
  0
DICTIONARY
  5
6A
102
{ACAD_REACTORS
330
C
102
}
330
C
100
AcDbDictionary
281
     1
  3
Imperial24
350
6B
  0
DICTIONARY
  5
D
102
{ACAD_REACTORS
330
C
102
}
330
C
100
AcDbDictionary
281
     1
  0
DICTIONARY
  5
62
102
{ACAD_REACTORS
330
C
102
}
330
C
100
AcDbDictionary
281
     1
  3
Layout1
350
6F
  3
Layout2
350
77
  3
Model
350
73
  0
DICTIONARY
  5
10
102
{ACAD_REACTORS
330
C
102
}
330
C
100
AcDbDictionary
281
     1
  3
ByBlock
350
19
  3
ByLayer
350
11
  3
Global
350
21
  0
DICTIONARY
  5
66
102
{ACAD_REACTORS
330
C
102
}
330
C
100
AcDbDictionary
281
     1
  3
Standard
350
67
  0
DICTIONARY
  5
5F
102
{ACAD_REACTORS
330
C
102
}
330
C
100
AcDbDictionary
281
     1
  3
Standard
350
60
  0
DICTIONARY
  5
61
102
{ACAD_REACTORS
330
C
102
}
330
C
100
AcDbDictionary
281
     1
  0
ACDBDICTIONARYWDFLT
  5
E
102
{ACAD_REACTORS
330
C
102
}
330
C
100
AcDbDictionary
281
     1
  3
Normal
350
F
100
AcDbDictionaryWithDefault
340
F
  0
DICTIONARY
  5
42
102
{ACAD_REACTORS
330
C
102
}
330
C
100
AcDbDictionary
281
     1
  3
A0
350
43
  3
A1
350
44
  3
A2
350
45
  3
A3
350
46
  3
A4
350
47
  3
A5
350
48
  3
A6
350
49
  3
A7
350
4A
  3
A8
350
4B
  3
A9
350
4C
  3
B0
350
4D
  3
B1
350
4E
  3
B2
350
4F
  3
B3
350
50
  3
B4
350
51
  3
B5
350
52
  3
B6
350
53
  0
DICTIONARY
  5
68
102
{ACAD_REACTORS
330
C
102
}
330
C
100
AcDbDictionary
281
     1
  3
Imperial24
350
69
  0
DICTIONARY
  5
64
102
{ACAD_REACTORS
330
C
102
}
330
C
100
AcDbDictionary
281
     1
  3
Standard
350
65
  0
DICTIONARY
  5
29
102
{ACAD_REACTORS
330
C
102
}
330
C
100
AcDbDictionary
281
     1
  3
2dWireframe
350
2F
  3
Basic
350
2E
  3
Brighten
350
35
  3
ColorChange
350
39
  3
Conceptual
350
32
  3
Dim
350
34
  3
EdgeColorOff
350
41
  3
Facepattern
350
38
  3
Flat
350
2A
  3
FlatWithEdges
350
2B
  3
Gouraud
350
2C
  3
GouraudWithEdges
350
2D
  3
Hidden
350
31
  3
JitterOff
350
3F
  3
Linepattern
350
37
  3
OverhangOff
350
40
  3
Realistic
350
33
  3
Shaded
350
3E
  3
Shaded with edges
350
3D
  3
Shades of Gray
350
3A
  3
Sketchy
350
3B
  3
Thicken
350
36
  3
Wireframe
350
30
  3
X-Ray
350
3C
  0
XRECORD
  5
118
102
{ACAD_REACTORS
330
C
102
}
330
C
100
AcDbXrecord
280
     1
 90
        1
330
65
  0
DICTIONARY
  5
110
102
{ACAD_REACTORS
330
C
102
}
330
C
100
AcDbDictionary
281
     1
  3
CANNOSCALE
350
115
  3
CMLEADERSTYLE
350
112
  3
CTABLESTYLE
350
111
  3
CVIEWDETAILSTYLE
350
113
  3
CVIEWSECTIONSTYLE
350
114
  0
ACDBDETAILVIEWSTYLE
  5
6B
102
{ACAD_XDICTIONARY
360
14D
102
}
102
{ACAD_REACTORS
330
6A
102
}
330
6A
100
AcDbModelDocViewStyle
 70
     0
  3
Imperial24
290
     0
100
AcDbDetailViewStyle
 70
     0
 71
     0
 90
        3
 71
     1
340
55
 62
   256
 40
0.24
340
0
 62
   256
 40
0.24
300

 40
0.36
280
     3
 71
     2
340
5D
 90
       25
 62
   256
 71
     3
340
55
 62
   256
 40
0.24
 90
        1
 40
0.75
 90
        1
300
%<\AcVar ViewType \f "%tc1">% %<\AcVar ViewDetailId>%\PSCALE %<\AcVar ViewScale \f "%sn">%
 71
     4
340
5D
 90
       25
 62
   256
340
5D
 90
       25
 62
   256
280
     0
  0
LAYOUT
  5
6F
102
{ACAD_REACTORS
330
62
102
}
330
62
100
AcDbPlotSettings
  1

  2

  4

  6

 40
0.0
 41
0.0
 42
0.0
 43
0.0
 44
0.0
 45
0.0
 46
0.0
 47
0.0
 48
0.0
 49
0.0
140
0.0
141
0.0
142
1.0
143
1.0
 70
   688
 72
     0
 73
     0
 74
     5
  7

 75
    16
147
1.0
 76
     0
 77
     2
 78
   300
148
0.0
149
0.0
100
AcDbLayout
  1
Layout1
 70
     1
 71
     1
 10
0.0
 20
0.0
 11
12.0
 21
9.0
 12
0.0
 22
0.0
 32
0.0
 14
0.0
 24
0.0
 34
0.0
 15
0.0
 25
0.0
 35
0.0
146
0.0
 13
0.0
 23
0.0
 33
0.0
 16
1.0
 26
0.0
 36
0.0
 17
0.0
 27
1.0
 37
0.0
 76
     0
330
6C
  0
LAYOUT
  5
77
102
{ACAD_REACTORS
330
62
102
}
330
62
100
AcDbPlotSettings
  1

  2

  4

  6

 40
0.0
 41
0.0
 42
0.0
 43
0.0
 44
0.0
 45
0.0
 46
0.0
 47
0.0
 48
0.0
 49
0.0
140
0.0
141
0.0
142
1.0
143
1.0
 70
   688
 72
     0
 73
     0
 74
     5
  7

 75
    16
147
1.0
 76
     0
 77
     2
 78
   300
148
0.0
149
0.0
100
AcDbLayout
  1
Layout2
 70
     1
 71
     2
 10
0.0
 20
0.0
 11
12.0
 21
9.0
 12
0.0
 22
0.0
 32
0.0
 14
0.0
 24
0.0
 34
0.0
 15
0.0
 25
0.0
 35
0.0
146
0.0
 13
0.0
 23
0.0
 33
0.0
 16
1.0
 26
0.0
 36
0.0
 17
0.0
 27
1.0
 37
0.0
 76
     0
330
74
  0
LAYOUT
  5
73
102
{ACAD_REACTORS
330
62
102
}
330
62
100
AcDbPlotSettings
  1

  2

  4

  6

 40
0.0
 41
0.0
 42
0.0
 43
0.0
 44
0.0
 45
0.0
 46
0.0
 47
0.0
 48
0.0
 49
0.0
140
0.0
141
0.0
142
1.0
143
1.0
 70
  1712
 72
     0
 73
     0
 74
     0
  7

 75
     0
147
1.0
 76
     0
 77
     2
 78
   300
148
0.0
149
0.0
100
AcDbLayout
  1
Model
 70
     1
 71
     0
 10
0.0
 20
0.0
 11
12.0
 21
9.0
 12
0.0
 22
0.0
 32
0.0
 14
0.0
 24
0.0
 34
0.0
 15
0.0
 25
0.0
 35
0.0
146
0.0
 13
0.0
 23
0.0
 33
0.0
 16
1.0
 26
0.0
 36
0.0
 17
0.0
 27
1.0
 37
0.0
 76
     0
330
70
  0
MATERIAL
  5
19
102
{ACAD_XDICTIONARY
360
1A
102
}
102
{ACAD_REACTORS
330
10
102
}
330
10
100
AcDbMaterial
  1
ByBlock
 72
     0
 43
0.0208333333333333
 43
0.0
 43
0.0
 43
0.0
 43
0.0
 43
0.0208333333333333
 43
0.0
 43
0.0
 43
0.0
 43
0.0
 43
1.0
 43
0.0
 43
0.0
 43
0.0
 43
0.0
 43
1.0
 77
     0
 47
0.0208333333333333
 47
0.0
 47
0.0
 47
0.0
 47
0.0
 47
0.0208333333333333
 47
0.0
 47
0.0
 47
0.0
 47
0.0
 47
1.0
 47
0.0
 47
0.0
 47
0.0
 47
0.0
 47
1.0
171
     0
 49
0.0208333333333333
 49
0.0
 49
0.0
 49
0.0
 49
0.0
 49
0.0208333333333333
 49
0.0
 49
0.0
 49
0.0
 49
0.0
 49
1.0
 49
0.0
 49
0.0
 49
0.0
 49
0.0
 49
1.0
175
     0
142
0.0208333333333333
142
0.0
142
0.0
142
0.0
142
0.0
142
0.0208333333333333
142
0.0
142
0.0
142
0.0
142
0.0
142
1.0
142
0.0
142
0.0
142
0.0
142
0.0
142
1.0
179
     0
144
0.0208333333333333
144
0.0
144
0.0
144
0.0
144
0.0
144
0.0208333333333333
144
0.0
144
0.0
144
0.0
144
0.0
144
1.0
144
0.0
144
0.0
144
0.0
144
0.0
144
1.0
147
0.0208333333333333
147
0.0
147
0.0
147
0.0
147
0.0
147
0.0208333333333333
147
0.0
147
0.0
147
0.0
147
0.0
147
1.0
147
0.0
147
0.0
147
0.0
147
0.0
147
1.0
  0
MATERIAL
  5
11
102
{ACAD_XDICTIONARY
360
12
102
}
102
{ACAD_REACTORS
330
10
102
}
330
10
100
AcDbMaterial
  1
ByLayer
 72
     0
 43
0.0208333333333333
 43
0.0
 43
0.0
 43
0.0
 43
0.0
 43
0.0208333333333333
 43
0.0
 43
0.0
 43
0.0
 43
0.0
 43
1.0
 43
0.0
 43
0.0
 43
0.0
 43
0.0
 43
1.0
 77
     0
 47
0.0208333333333333
 47
0.0
 47
0.0
 47
0.0
 47
0.0
 47
0.0208333333333333
 47
0.0
 47
0.0
 47
0.0
 47
0.0
 47
1.0
 47
0.0
 47
0.0
 47
0.0
 47
0.0
 47
1.0
171
     0
 49
0.0208333333333333
 49
0.0
 49
0.0
 49
0.0
 49
0.0
 49
0.0208333333333333
 49
0.0
 49
0.0
 49
0.0
 49
0.0
 49
1.0
 49
0.0
 49
0.0
 49
0.0
 49
0.0
 49
1.0
175
     0
142
0.0208333333333333
142
0.0
142
0.0
142
0.0
142
0.0
142
0.0208333333333333
142
0.0
142
0.0
142
0.0
142
0.0
142
1.0
142
0.0
142
0.0
142
0.0
142
0.0
142
1.0
179
     0
144
0.0208333333333333
144
0.0
144
0.0
144
0.0
144
0.0
144
0.0208333333333333
144
0.0
144
0.0
144
0.0
144
0.0
144
1.0
144
0.0
144
0.0
144
0.0
144
0.0
144
1.0
147
0.0208333333333333
147
0.0
147
0.0
147
0.0
147
0.0
147
0.0208333333333333
147
0.0
147
0.0
147
0.0
147
0.0
147
1.0
147
0.0
147
0.0
147
0.0
147
0.0
147
1.0
  0
MATERIAL
  5
21
102
{ACAD_XDICTIONARY
360
22
102
}
102
{ACAD_REACTORS
330
10
102
}
330
10
100
AcDbMaterial
  1
Global
 72
     0
 43
0.0208333333333333
 43
0.0
 43
0.0
 43
0.0
 43
0.0
 43
0.0208333333333333
 43
0.0
 43
0.0
 43
0.0
 43
0.0
 43
1.0
 43
0.0
 43
0.0
 43
0.0
 43
0.0
 43
1.0
 77
     0
 47
0.0208333333333333
 47
0.0
 47
0.0
 47
0.0
 47
0.0
 47
0.0208333333333333
 47
0.0
 47
0.0
 47
0.0
 47
0.0
 47
1.0
 47
0.0
 47
0.0
 47
0.0
 47
0.0
 47
1.0
171
     0
 49
0.0208333333333333
 49
0.0
 49
0.0
 49
0.0
 49
0.0
 49
0.0208333333333333
 49
0.0
 49
0.0
 49
0.0
 49
0.0
 49
1.0
 49
0.0
 49
0.0
 49
0.0
 49
0.0
 49
1.0
175
     0
142
0.0208333333333333
142
0.0
142
0.0
142
0.0
142
0.0
142
0.0208333333333333
142
0.0
142
0.0
142
0.0
142
0.0
142
1.0
142
0.0
142
0.0
142
0.0
142
0.0
142
1.0
179
     0
144
0.0208333333333333
144
0.0
144
0.0
144
0.0
144
0.0
144
0.0208333333333333
144
0.0
144
0.0
144
0.0
144
0.0
144
1.0
144
0.0
144
0.0
144
0.0
144
0.0
144
1.0
147
0.0208333333333333
147
0.0
147
0.0
147
0.0
147
0.0
147
0.0208333333333333
147
0.0
147
0.0
147
0.0
147
0.0
147
1.0
147
0.0
147
0.0
147
0.0
147
0.0
147
1.0
  0
MLEADERSTYLE
  5
67
102
{ACAD_XDICTIONARY
360
149
102
}
102
{ACAD_REACTORS
330
66
102
}
330
66
100
AcDbMLeaderStyle
179
     2
170
     2
171
     1
172
     0
 90
        2
 40
0.0
 41
0.0
173
     1
 91
-1056964608
340
5B
 92
       -2
290
     1
 42
0.09
291
     1
 43
0.36
  3
Standard
 44
0.18
300

342
55
174
     1
178
     6
175
     1
176
     0
 93
-1056964608
 45
0.18
292
     0
297
     0
 46
0.18
 94
-1056964608
 47
1.0
 49
1.0
140
1.0
293
     1
141
0.0
294
     1
177
     0
142
1.0
295
     0
296
     0
143
0.125
271
     0
272
     9
273
     9
  0
MLINESTYLE
  5
60
102
{ACAD_REACTORS
330
5F
102
}
330
5F
100
AcDbMlineStyle
  2
STANDARD
 70
     0
  3

 62
   256
 51
90.0
 52
90.0
 71
     2
 49
0.5
 62
   256
  6
BYLAYER
 49
-0.5
 62
   256
  6
BYLAYER
  0
ACDBPLACEHOLDER
  5
F
102
{ACAD_REACTORS
330
E
102
}
330
E
  0
SCALE
  5
43
102
{ACAD_REACTORS
330
42
102
}
330
42
100
AcDbScale
 70
     0
300
1:1
140
1.0
141
1.0
290
     1
  0
SCALE
  5
44
102
{ACAD_REACTORS
330
42
102
}
330
42
100
AcDbScale
 70
     0
300
1/128" = 1'-0"
140
0.0078125
141
12.0
290
     0
  0
SCALE
  5
45
102
{ACAD_REACTORS
330
42
102
}
330
42
100
AcDbScale
 70
     0
300
1/64" = 1'-0"
140
0.015625
141
12.0
290
     0
  0
SCALE
  5
46
102
{ACAD_REACTORS
330
42
102
}
330
42
100
AcDbScale
 70
     0
300
1/32" = 1'-0"
140
0.03125
141
12.0
290
     0
  0
SCALE
  5
47
102
{ACAD_REACTORS
330
42
102
}
330
42
100
AcDbScale
 70
     0
300
1/16" = 1'-0"
140
0.0625
141
12.0
290
     0
  0
SCALE
  5
48
102
{ACAD_REACTORS
330
42
102
}
330
42
100
AcDbScale
 70
     0
300
3/32" = 1'-0"
140
0.09375
141
12.0
290
     0
  0
SCALE
  5
49
102
{ACAD_REACTORS
330
42
102
}
330
42
100
AcDbScale
 70
     0
300
1/8" = 1'-0"
140
0.125
141
12.0
290
     0
  0
SCALE
  5
4A
102
{ACAD_REACTORS
330
42
102
}
330
42
100
AcDbScale
 70
     0
300
3/16" = 1'-0"
140
0.1875
141
12.0
290
     0
  0
SCALE
  5
4B
102
{ACAD_REACTORS
330
42
102
}
330
42
100
AcDbScale
 70
     0
300
1/4" = 1'-0"
140
0.25
141
12.0
290
     0
  0
SCALE
  5
4C
102
{ACAD_REACTORS
330
42
102
}
330
42
100
AcDbScale
 70
     0
300
3/8" = 1'-0"
140
0.375
141
12.0
290
     0
  0
SCALE
  5
4D
102
{ACAD_REACTORS
330
42
102
}
330
42
100
AcDbScale
 70
     0
300
1/2" = 1'-0"
140
0.5
141
12.0
290
     0
  0
SCALE
  5
4E
102
{ACAD_REACTORS
330
42
102
}
330
42
100
AcDbScale
 70
     0
300
3/4" = 1'-0"
140
0.75
141
12.0
290
     0
  0
SCALE
  5
4F
102
{ACAD_REACTORS
330
42
102
}
330
42
100
AcDbScale
 70
     0
300
1" = 1'-0"
140
1.0
141
12.0
290
     0
  0
SCALE
  5
50
102
{ACAD_REACTORS
330
42
102
}
330
42
100
AcDbScale
 70
     0
300
1-1/2" = 1'-0"
140
1.5
141
12.0
290
     0
  0
SCALE
  5
51
102
{ACAD_REACTORS
330
42
102
}
330
42
100
AcDbScale
 70
     0
300
3" = 1'-0"
140
3.0
141
12.0
290
     0
  0
SCALE
  5
52
102
{ACAD_REACTORS
330
42
102
}
330
42
100
AcDbScale
 70
     0
300
6" = 1'-0"
140
6.0
141
12.0
290
     0
  0
SCALE
  5
53
102
{ACAD_REACTORS
330
42
102
}
330
42
100
AcDbScale
 70
     0
300
1'-0" = 1'-0"
140
12.0
141
12.0
290
     0
  0
ACDBSECTIONVIEWSTYLE
  5
69
102
{ACAD_XDICTIONARY
360
14B
102
}
102
{ACAD_REACTORS
330
68
102
}
330
68
100
AcDbModelDocViewStyle
 70
     0
  3
Imperial24
290
     0
100
AcDbSectionViewStyle
 70
     0
 71
     0
 90
       78
 71
     1
340
55
 62
   256
 40
0.24
340
0
340
0
 62
   256
 40
0.24
300
I, O, Q, S, X, Z
 40
0.48
 90
        3
 40
0.18
 90
        1
 71
     2
340
5D
 90
       25
 62
   256
340
5D
 90
       50
 62
   256
 40
0.24
 40
0.0
 40
0.24
 71
     3
340
55
 62
   256
 40
0.24
 90
        1
 40
0.75
 90
        1
300
%<\AcVar ViewType \f "%tc1">% %<\AcVar ViewSectionStartId>%-%<\AcVar ViewSectionEndId>%\PSCALE %<\AcVar ViewScale \f "%sn">%
 71
     4
 62
   256
 62
   257
300
ANSI31
 40
1.0
 90
        0
290
     0
290
     0
 90
        6
 40
0.0
 40
1.570796326794896
 40
0.2617993877991494
 40
1.308996938995747
 40
-0.2617993877991494
 40
1.832595714594046
  0
TABLESTYLE
  5
65
102
{ACAD_XDICTIONARY
360
116
102
}
102
{ACAD_REACTORS
330
64
102
}
330
64
100
AcDbTableStyle
280
     0
  3
Standard
 70
     0
 71
     0
 40
0.06
 41
0.06
280
     0
281
     0
  7
Standard
140
0.18
170
     2
 62
     0
 63
     7
283
     0
 90
      512
 91
        0
  1

274
    -2
284
     1
 64
     0
275
    -2
285
     1
 65
     0
276
    -2
286
     1
 66
     0
277
    -2
287
     1
 67
     0
278
    -2
288
     1
 68
     0
279
    -2
289
     1
 69
     0
  7
Standard
140
0.25
170
     5
 62
     0
 63
     7
283
     0
 90
      512
 91
        0
  1

274
    -2
284
     1
 64
     0
275
    -2
285
     1
 65
     0
276
    -2
286
     1
 66
     0
277
    -2
287
     1
 67
     0
278
    -2
288
     1
 68
     0
279
    -2
289
     1
 69
     0
  7
Standard
140
0.18
170
     5
 62
     0
 63
     7
283
     0
 90
      512
 91
        0
  1

274
    -2
284
     1
 64
     0
275
    -2
285
     1
 65
     0
276
    -2
286
     1
 66
     0
277
    -2
287
     1
 67
     0
278
    -2
288
     1
 68
     0
279
    -2
289
     1
 69
     0
  0
VISUALSTYLE
  5
2F
102
{ACAD_XDICTIONARY
360
123
102
}
102
{ACAD_REACTORS
330
29
102
}
330
29
100
AcDbVisualStyle
  2
2dWireframe
 70
     4
177
     2
291
     0
 71
     0
176
     1
 72
     2
176
     1
 73
     0
176
     1
 90
        0
176
     1
 40
0.6
176
     1
 41
30.0
176
     1
 63
     7
421
 16777215
176
     1
 74
     1
176
     1
 91
        4
176
     1
 64
     7
176
     1
 65
   257
176
     1
 75
     1
176
     1
175
     1
176
     1
 42
1.0
176
     1
 92
        0
176
     1
 66
   257
176
     1
 43
1.0
176
     1
 76
     1
176
     1
 77
     6
176
     1
 78
     2
176
     1
 67
     7
176
     1
 79
     5
176
     1
170
     0
176
     1
171
     0
176
     1
290
     0
176
     1
 93
        1
176
     1
 44
0.0
176
     1
173
     0
176
     1
1001
ACAD
1000
AcDbSavedByObjectVersion
1070
     0
  0
VISUALSTYLE
  5
2E
102
{ACAD_XDICTIONARY
360
121
102
}
102
{ACAD_REACTORS
330
29
102
}
330
29
100
AcDbVisualStyle
  2
Basic
 70
     7
177
     2
291
     1
 71
     1
176
     1
 72
     0
176
     1
 73
     1
176
     1
 90
        0
176
     1
 40
0.6
176
     1
 41
30.0
176
     1
 63
     7
421
 16777215
176
     1
 74
     0
176
     1
 91
        4
176
     1
 64
     7
176
     1
 65
   257
176
     1
 75
     1
176
     1
175
     1
176
     1
 42
1.0
176
     1
 92
        8
176
     1
 66
     7
176
     1
 43
1.0
176
     1
 76
     1
176
     1
 77
     6
176
     1
 78
     2
176
     1
 67
     7
176
     1
 79
     5
176
     1
170
     0
176
     1
171
     0
176
     1
290
     0
176
     1
 93
        1
176
     1
 44
0.0
176
     1
173
     0
176
     1
1001
ACAD
1000
AcDbSavedByObjectVersion
1070
     0
  0
VISUALSTYLE
  5
35
102
{ACAD_XDICTIONARY
360
12F
102
}
102
{ACAD_REACTORS
330
29
102
}
330
29
100
AcDbVisualStyle
  2
Brighten
 70
    12
177
     2
291
     1
 71
     2
176
     1
 72
     2
176
     1
 73
     0
176
     1
 90
        0
176
     1
 40
0.6
176
     1
 41
30.0
176
     1
 63
     7
421
 16777215
176
     1
 74
     1
176
     1
 91
        4
176
     1
 64
     7
176
     1
 65
   257
176
     1
 75
     1
176
     1
175
     1
176
     1
 42
1.0
176
     1
 92
        8
176
     1
 66
     7
176
     1
 43
1.0
176
     1
 76
     1
176
     1
 77
     6
176
     1
 78
     2
176
     1
 67
     7
176
     1
 79
     5
176
     1
170
     0
176
     1
171
     0
176
     1
290
     0
176
     1
 93
        1
176
     1
 44
50.0
176
     1
173
     0
176
     1
1001
ACAD
1000
AcDbSavedByObjectVersion
1070
     0
  0
VISUALSTYLE
  5
39
102
{ACAD_XDICTIONARY
360
137
102
}
102
{ACAD_REACTORS
330
29
102
}
330
29
100
AcDbVisualStyle
  2
ColorChange
 70
    16
177
     2
291
     1
 71
     2
176
     1
 72
     2
176
     1
 73
     3
176
     1
 90
        0
176
     1
 40
0.6
176
     1
 41
30.0
176
     1
 63
     8
421
  8421504
176
     1
 74
     1
176
     1
 91
        4
176
     1
 64
     7
176
     1
 65
   257
176
     1
 75
     1
176
     1
175
     1
176
     1
 42
1.0
176
     1
 92
        8
176
     1
 66
     8
424
  8421504
176
     1
 43
1.0
176
     1
 76
     1
176
     1
 77
     6
176
     1
 78
     2
176
     1
 67
     7
176
     1
 79
     5
176
     1
170
     0
176
     1
171
     0
176
     1
290
     0
176
     1
 93
        1
176
     1
 44
0.0
176
     1
173
     0
176
     1
1001
ACAD
1000
AcDbSavedByObjectVersion
1070
     0
  0
VISUALSTYLE
  5
32
102
{ACAD_XDICTIONARY
360
129
102
}
102
{ACAD_REACTORS
330
29
102
}
330
29
100
AcDbVisualStyle
  2
Conceptual
 70
     9
177
     2
291
     0
 71
     3
176
     1
 72
     2
176
     1
 73
     0
176
     1
 90
        0
176
     1
 40
0.6
176
     1
 41
30.0
176
     1
 63
     7
421
 16777215
176
     1
 74
     2
176
     1
 91
        2
176
     1
 64
     7
176
     1
 65
   257
176
     1
 75
     1
176
     1
175
     1
176
     1
 42
179.0
176
     1
 92
        8
176
     1
 66
     7
176
     1
 43
1.0
176
     1
 76
     1
176
     1
 77
     6
176
     1
 78
     2
176
     1
 67
     7
176
     1
 79
     3
176
     1
170
     0
176
     1
171
     0
176
     1
290
     0
176
     1
 93
        1
176
     1
 44
0.0
176
     1
173
     0
176
     1
1001
ACAD
1000
AcDbSavedByObjectVersion
1070
     0
  0
VISUALSTYLE
  5
34
102
{ACAD_XDICTIONARY
360
12D
102
}
102
{ACAD_REACTORS
330
29
102
}
330
29
100
AcDbVisualStyle
  2
Dim
 70
    11
177
     2
291
     1
 71
     2
176
     1
 72
     2
176
     1
 73
     0
176
     1
 90
        0
176
     1
 40
0.6
176
     1
 41
30.0
176
     1
 63
     7
421
 16777215
176
     1
 74
     1
176
     1
 91
        4
176
     1
 64
     7
176
     1
 65
   257
176
     1
 75
     1
176
     1
175
     1
176
     1
 42
1.0
176
     1
 92
        8
176
     1
 66
     7
176
     1
 43
1.0
176
     1
 76
     1
176
     1
 77
     6
176
     1
 78
     2
176
     1
 67
     7
176
     1
 79
     5
176
     1
170
     0
176
     1
171
     0
176
     1
290
     0
176
     1
 93
        1
176
     1
 44
-50.0
176
     1
173
     0
176
     1
1001
ACAD
1000
AcDbSavedByObjectVersion
1070
     0
  0
VISUALSTYLE
  5
41
102
{ACAD_XDICTIONARY
360
147
102
}
102
{ACAD_REACTORS
330
29
102
}
330
29
100
AcDbVisualStyle
  2
EdgeColorOff
 70
    22
177
     2
291
     1
 71
     2
176
     0
 72
     2
176
     0
 73
     0
176
     0
 90
        0
176
     0
 40
0.6
176
     0
 41
30.0
176
     0
 63
     7
421
 16777215
176
     0
 74
     1
176
     0
 91
        4
176
     0
 64
     7
176
     0
 65
   257
176
     0
 75
     1
176
     0
175
     1
176
     0
 42
1.0
176
     0
 92
        8
176
     2
 66
     7
176
     0
 43
1.0
176
     0
 76
     1
176
     0
 77
     6
176
     0
 78
     2
176
     0
 67
     7
176
     0
 79
     5
176
     0
170
     0
176
     0
171
     0
176
     0
290
     0
176
     0
 93
        1
176
     0
 44
0.0
176
     0
173
     0
176
     0
1001
ACAD
1000
AcDbSavedByObjectVersion
1070
     0
  0
VISUALSTYLE
  5
38
102
{ACAD_XDICTIONARY
360
135
102
}
102
{ACAD_REACTORS
330
29
102
}
330
29
100
AcDbVisualStyle
  2
Facepattern
 70
    15
177
     2
291
     1
 71
     2
176
     1
 72
     2
176
     1
 73
     0
176
     1
 90
        0
176
     1
 40
0.6
176
     1
 41
30.0
176
     1
 63
     7
421
 16777215
176
     1
 74
     1
176
     1
 91
        4
176
     1
 64
     7
176
     1
 65
   257
176
     1
 75
     1
176
     1
175
     1
176
     1
 42
1.0
176
     1
 92
        8
176
     1
 66
     7
176
     1
 43
1.0
176
     1
 76
     1
176
     1
 77
     6
176
     1
 78
     2
176
     1
 67
     7
176
     1
 79
     5
176
     1
170
     0
176
     1
171
     0
176
     1
290
     0
176
     1
 93
        1
176
     1
 44
0.0
176
     1
173
     0
176
     1
1001
ACAD
1000
AcDbSavedByObjectVersion
1070
     0
  0
VISUALSTYLE
  5
2A
102
{ACAD_XDICTIONARY
360
119
102
}
102
{ACAD_REACTORS
330
29
102
}
330
29
100
AcDbVisualStyle
  2
Flat
 70
     0
177
     2
291
     1
 71
     2
176
     1
 72
     1
176
     1
 73
     1
176
     1
 90
        2
176
     1
 40
0.6
176
     1
 41
30.0
176
     1
 63
     7
421
 16777215
176
     1
 74
     0
176
     1
 91
        0
176
     1
 64
     7
176
     1
 65
   257
176
     1
 75
     1
176
     1
175
     1
176
     1
 42
1.0
176
     1
 92
        8
176
     1
 66
     7
176
     1
 43
1.0
176
     1
 76
     1
176
     1
 77
     6
176
     1
 78
     2
176
     1
 67
     7
176
     1
 79
     5
176
     1
170
     0
176
     1
171
     0
176
     1
290
     0
176
     1
 93
       13
176
     1
 44
0.0
176
     1
173
     0
176
     1
1001
ACAD
1000
AcDbSavedByObjectVersion
1070
     0
  0
VISUALSTYLE
  5
2B
102
{ACAD_XDICTIONARY
360
11B
102
}
102
{ACAD_REACTORS
330
29
102
}
330
29
100
AcDbVisualStyle
  2
FlatWithEdges
 70
     1
177
     2
291
     1
 71
     2
176
     1
 72
     1
176
     1
 73
     1
176
     1
 90
        2
176
     1
 40
0.6
176
     1
 41
30.0
176
     1
 63
     7
421
 16777215
176
     1
 74
     1
176
     1
 91
        0
176
     1
 64
     7
176
     1
 65
   257
176
     1
 75
     1
176
     1
175
     1
176
     1
 42
1.0
176
     1
 92
        0
176
     1
 66
   257
176
     1
 43
1.0
176
     1
 76
     1
176
     1
 77
     6
176
     1
 78
     2
176
     1
 67
     7
176
     1
 79
     5
176
     1
170
     0
176
     1
171
     0
176
     1
290
     0
176
     1
 93
       13
176
     1
 44
0.0
176
     1
173
     0
176
     1
1001
ACAD
1000
AcDbSavedByObjectVersion
1070
     0
  0
VISUALSTYLE
  5
2C
102
{ACAD_XDICTIONARY
360
11D
102
}
102
{ACAD_REACTORS
330
29
102
}
330
29
100
AcDbVisualStyle
  2
Gouraud
 70
     2
177
     2
291
     1
 71
     2
176
     1
 72
     2
176
     1
 73
     1
176
     1
 90
        2
176
     1
 40
0.6
176
     1
 41
30.0
176
     1
 63
     7
421
 16777215
176
     1
 74
     0
176
     1
 91
        0
176
     1
 64
     7
176
     1
 65
   257
176
     1
 75
     1
176
     1
175
     1
176
     1
 42
1.0
176
     1
 92
        0
176
     1
 66
     7
176
     1
 43
1.0
176
     1
 76
     1
176
     1
 77
     6
176
     1
 78
     2
176
     1
 67
     7
176
     1
 79
     5
176
     1
170
     0
176
     1
171
     0
176
     1
290
     0
176
     1
 93
       13
176
     1
 44
0.0
176
     1
173
     0
176
     1
1001
ACAD
1000
AcDbSavedByObjectVersion
1070
     0
  0
VISUALSTYLE
  5
2D
102
{ACAD_XDICTIONARY
360
11F
102
}
102
{ACAD_REACTORS
330
29
102
}
330
29
100
AcDbVisualStyle
  2
GouraudWithEdges
 70
     3
177
     2
291
     1
 71
     2
176
     1
 72
     2
176
     1
 73
     1
176
     1
 90
        2
176
     1
 40
0.6
176
     1
 41
30.0
176
     1
 63
     7
421
 16777215
176
     1
 74
     1
176
     1
 91
        0
176
     1
 64
     7
176
     1
 65
   257
176
     1
 75
     1
176
     1
175
     1
176
     1
 42
1.0
176
     1
 92
        0
176
     1
 66
   257
176
     1
 43
1.0
176
     1
 76
     1
176
     1
 77
     6
176
     1
 78
     2
176
     1
 67
     7
176
     1
 79
     5
176
     1
170
     0
176
     1
171
     0
176
     1
290
     0
176
     1
 93
       13
176
     1
 44
0.0
176
     1
173
     0
176
     1
1001
ACAD
1000
AcDbSavedByObjectVersion
1070
     0
  0
VISUALSTYLE
  5
31
102
{ACAD_XDICTIONARY
360
127
102
}
102
{ACAD_REACTORS
330
29
102
}
330
29
100
AcDbVisualStyle
  2
Hidden
 70
     6
177
     2
291
     0
 71
     1
176
     1
 72
     2
176
     1
 73
     2
176
     1
 90
        0
176
     1
 40
0.6
176
     1
 41
30.0
176
     1
 63
     7
421
 16777215
176
     1
 74
     2
176
     1
 91
        2
176
     1
 64
     7
176
     1
 65
   257
176
     1
 75
     2
176
     1
175
     1
176
     1
 42
40.0
176
     1
 92
        0
176
     1
 66
   257
176
     1
 43
1.0
176
     1
 76
     1
176
     1
 77
     6
176
     1
 78
     2
176
     1
 67
     7
176
     1
 79
     3
176
     1
170
     0
176
     1
171
     0
176
     1
290
     0
176
     1
 93
        1
176
     1
 44
0.0
176
     1
173
     0
176
     1
1001
ACAD
1000
AcDbSavedByObjectVersion
1070
     0
  0
VISUALSTYLE
  5
3F
102
{ACAD_XDICTIONARY
360
143
102
}
102
{ACAD_REACTORS
330
29
102
}
330
29
100
AcDbVisualStyle
  2
JitterOff
 70
    20
177
     2
291
     1
 71
     2
176
     0
 72
     2
176
     0
 73
     0
176
     0
 90
        0
176
     0
 40
0.6
176
     0
 41
30.0
176
     0
 63
     7
421
 16777215
176
     0
 74
     1
176
     0
 91
        4
176
     0
 64
     7
176
     0
 65
   257
176
     0
 75
     1
176
     0
175
     1
176
     0
 42
1.0
176
     0
 92
       10
176
     2
 66
     7
176
     0
 43
1.0
176
     0
 76
     1
176
     0
 77
     6
176
     0
 78
     2
176
     0
 67
     7
176
     0
 79
     5
176
     0
170
     0
176
     0
171
     0
176
     0
290
     0
176
     0
 93
        1
176
     0
 44
0.0
176
     0
173
     0
176
     0
1001
ACAD
1000
AcDbSavedByObjectVersion
1070
     0
  0
VISUALSTYLE
  5
37
102
{ACAD_XDICTIONARY
360
133
102
}
102
{ACAD_REACTORS
330
29
102
}
330
29
100
AcDbVisualStyle
  2
Linepattern
 70
    14
177
     2
291
     1
 71
     2
176
     1
 72
     2
176
     1
 73
     0
176
     1
 90
        0
176
     1
 40
0.6
176
     1
 41
30.0
176
     1
 63
     7
421
 16777215
176
     1
 74
     1
176
     1
 91
        4
176
     1
 64
     7
176
     1
 65
   257
176
     1
 75
     7
176
     1
175
     7
176
     1
 42
1.0
176
     1
 92
        8
176
     1
 66
     7
176
     1
 43
1.0
176
     1
 76
     1
176
     1
 77
     6
176
     1
 78
     2
176
     1
 67
     7
176
     1
 79
     5
176
     1
170
     0
176
     1
171
     0
176
     1
290
     0
176
     1
 93
        1
176
     1
 44
0.0
176
     1
173
     0
176
     1
1001
ACAD
1000
AcDbSavedByObjectVersion
1070
     0
  0
VISUALSTYLE
  5
40
102
{ACAD_XDICTIONARY
360
145
102
}
102
{ACAD_REACTORS
330
29
102
}
330
29
100
AcDbVisualStyle
  2
OverhangOff
 70
    21
177
     2
291
     1
 71
     2
176
     0
 72
     2
176
     0
 73
     0
176
     0
 90
        0
176
     0
 40
0.6
176
     0
 41
30.0
176
     0
 63
     7
421
 16777215
176
     0
 74
     1
176
     0
 91
        4
176
     0
 64
     7
176
     0
 65
   257
176
     0
 75
     1
176
     0
175
     1
176
     0
 42
1.0
176
     0
 92
        9
176
     2
 66
     7
176
     0
 43
1.0
176
     0
 76
     1
176
     0
 77
     6
176
     0
 78
     2
176
     0
 67
     7
176
     0
 79
     5
176
     0
170
     0
176
     0
171
     0
176
     0
290
     0
176
     0
 93
        1
176
     0
 44
0.0
176
     0
173
     0
176
     0
1001
ACAD
1000
AcDbSavedByObjectVersion
1070
     0
  0
VISUALSTYLE
  5
33
102
{ACAD_XDICTIONARY
360
12B
102
}
102
{ACAD_REACTORS
330
29
102
}
330
29
100
AcDbVisualStyle
  2
Realistic
 70
     8
177
     2
291
     0
 71
     2
176
     1
 72
     3
176
     1
 73
     0
176
     1
 90
        2
176
     1
 40
0.6
176
     1
 41
30.0
176
     1
 63
     7
421
 16777215
176
     1
 74
     0
176
     1
 91
        0
176
     1
 64
     7
176
     1
 65
   257
176
     1
 75
     1
176
     1
175
     1
176
     1
 42
1.0
176
     1
 92
        8
176
     1
 66
   257
176
     1
 43
1.0
176
     1
 76
     1
176
     1
 77
     6
176
     1
 78
     2
176
     1
 67
     7
176
     1
 79
     3
176
     1
170
     0
176
     1
171
     0
176
     1
290
     0
176
     1
 93
       13
176
     1
 44
0.0
176
     1
173
     0
176
     1
1001
ACAD
1000
AcDbSavedByObjectVersion
1070
     0
  0
VISUALSTYLE
  5
3E
102
{ACAD_XDICTIONARY
360
141
102
}
102
{ACAD_REACTORS
330
29
102
}
330
29
100
AcDbVisualStyle
  2
Shaded
 70
    27
177
     2
291
     0
 71
     2
176
     1
 72
     2
176
     1
 73
     1
176
     1
 90
        2
176
     1
 40
0.6
176
     1
 41
30.0
176
     1
 63
     7
421
 16777215
176
     1
 74
     0
176
     1
 91
        4
176
     1
 64
     7
176
     1
 65
   257
176
     1
 75
     1
176
     1
175
     1
176
     1
 42
1.0
176
     1
 92
        8
176
     1
 66
   257
176
     1
 43
1.0
176
     1
 76
     1
176
     1
 77
     6
176
     1
 78
     2
176
     1
 67
     8
425
  7895160
176
     1
 79
     3
176
     1
170
     0
176
     1
171
     0
176
     1
290
     0
176
     1
 93
        5
176
     1
 44
0.0
176
     1
173
     0
176
     1
1001
ACAD
1000
AcDbSavedByObjectVersion
1070
     0
  0
VISUALSTYLE
  5
3D
102
{ACAD_XDICTIONARY
360
13F
102
}
102
{ACAD_REACTORS
330
29
102
}
330
29
100
AcDbVisualStyle
  2
Shaded with edges
 70
    26
177
     2
291
     0
 71
     2
176
     1
 72
     2
176
     1
 73
     1
176
     1
 90
        2
176
     1
 40
0.6
176
     1
 41
30.0
176
     1
 63
     7
421
 16777215
176
     1
 74
     1
176
     1
 91
        2
176
     1
 64
     7
176
     1
 65
   257
176
     1
 75
     2
176
     1
175
     1
176
     1
 42
1.0
176
     1
 92
        8
176
     1
 66
   257
176
     1
 43
1.0
176
     1
 76
     1
176
     1
 77
     6
176
     1
 78
     2
176
     1
 67
     7
176
     1
 79
     3
176
     1
170
     0
176
     1
171
     0
176
     1
290
     0
176
     1
 93
        5
176
     1
 44
0.0
176
     1
173
     0
176
     1
1001
ACAD
1000
AcDbSavedByObjectVersion
1070
     0
  0
VISUALSTYLE
  5
3A
102
{ACAD_XDICTIONARY
360
139
102
}
102
{ACAD_REACTORS
330
29
102
}
330
29
100
AcDbVisualStyle
  2
Shades of Gray
 70
    23
177
     2
291
     0
 71
     2
176
     1
 72
     2
176
     1
 73
     3
176
     1
 90
        0
176
     1
 40
0.6
176
     1
 41
30.0
176
     1
 63
     7
421
 16777215
176
     1
 74
     2
176
     1
 91
        2
176
     1
 64
     7
176
     1
 65
     7
176
     1
 75
     1
176
     1
175
     1
176
     1
 42
40.0
176
     1
 92
        8
176
     1
 66
     7
176
     1
 43
1.0
176
     1
 76
     1
176
     1
 77
     6
176
     1
 78
     2
176
     1
 67
     7
176
     1
 79
     3
176
     1
170
     0
176
     1
171
     0
176
     1
290
     0
176
     1
 93
        1
176
     1
 44
0.0
176
     1
173
     0
176
     1
1001
ACAD
1000
AcDbSavedByObjectVersion
1070
     0
  0
VISUALSTYLE
  5
3B
102
{ACAD_XDICTIONARY
360
13B
102
}
102
{ACAD_REACTORS
330
29
102
}
330
29
100
AcDbVisualStyle
  2
Sketchy
 70
    24
177
     2
291
     0
 71
     1
176
     1
 72
     2
176
     1
 73
     2
176
     1
 90
        0
176
     1
 40
0.6
176
     1
 41
30.0
176
     1
 63
     7
421
 16777215
176
     1
 74
     2
176
     1
 91
        2
176
     1
 64
     7
176
     1
 65
     7
176
     1
 75
     1
176
     1
175
     1
176
     1
 42
40.0
176
     1
 92
       11
176
     1
 66
     7
176
     1
 43
1.0
176
     1
 76
     1
176
     1
 77
     6
176
     1
 78
     2
176
     1
 67
     7
176
     1
 79
     6
176
     1
170
     0
176
     1
171
     0
176
     1
290
     0
176
     1
 93
        1
176
     1
 44
0.0
176
     1
173
     0
176
     1
1001
ACAD
1000
AcDbSavedByObjectVersion
1070
     0
  0
VISUALSTYLE
  5
36
102
{ACAD_XDICTIONARY
360
131
102
}
102
{ACAD_REACTORS
330
29
102
}
330
29
100
AcDbVisualStyle
  2
Thicken
 70
    13
177
     2
291
     1
 71
     2
176
     1
 72
     2
176
     1
 73
     0
176
     1
 90
        0
176
     1
 40
0.6
176
     1
 41
30.0
176
     1
 63
     7
421
 16777215
176
     1
 74
     1
176
     1
 91
        4
176
     1
 64
     7
176
     1
 65
   257
176
     1
 75
     1
176
     1
175
     1
176
     1
 42
1.0
176
     1
 92
       12
176
     1
 66
     7
176
     1
 43
1.0
176
     1
 76
     1
176
     1
 77
     6
176
     1
 78
     2
176
     1
 67
     7
176
     1
 79
     5
176
     1
170
     0
176
     1
171
     0
176
     1
290
     0
176
     1
 93
        1
176
     1
 44
0.0
176
     1
173
     0
176
     1
1001
ACAD
1000
AcDbSavedByObjectVersion
1070
     0
  0
VISUALSTYLE
  5
30
102
{ACAD_XDICTIONARY
360
125
102
}
102
{ACAD_REACTORS
330
29
102
}
330
29
100
AcDbVisualStyle
  2
Wireframe
 70
     5
177
     2
291
     0
 71
     0
176
     1
 72
     2
176
     1
 73
     0
176
     1
 90
        0
176
     1
 40
0.6
176
     1
 41
30.0
176
     1
 63
     7
421
 16777215
176
     1
 74
     1
176
     1
 91
        4
176
     1
 64
     7
176
     1
 65
   257
176
     1
 75
     1
176
     1
175
     1
176
     1
 42
1.0
176
     1
 92
        0
176
     1
 66
   257
176
     1
 43
1.0
176
     1
 76
     1
176
     1
 77
     6
176
     1
 78
     2
176
     1
 67
     7
176
     1
 79
     3
176
     1
170
     0
176
     1
171
     0
176
     1
290
     0
176
     1
 93
        1
176
     1
 44
0.0
176
     1
173
     0
176
     1
1001
ACAD
1000
AcDbSavedByObjectVersion
1070
     0
  0
VISUALSTYLE
  5
3C
102
{ACAD_XDICTIONARY
360
13D
102
}
102
{ACAD_REACTORS
330
29
102
}
330
29
100
AcDbVisualStyle
  2
X-Ray
 70
    25
177
     2
291
     0
 71
     2
176
     1
 72
     2
176
     1
 73
     1
176
     1
 90
        1
176
     1
 40
0.5
176
     1
 41
30.0
176
     1
 63
     7
421
 16777215
176
     1
 74
     1
176
     1
 91
        0
176
     1
 64
     7
176
     1
 65
   257
176
     1
 75
     1
176
     1
175
     1
176
     1
 42
1.0
176
     1
 92
        8
176
     1
 66
     7
176
     1
 43
1.0
176
     1
 76
     1
176
     1
 77
     6
176
     1
 78
     2
176
     1
 67
     7
176
     1
 79
     3
176
     1
170
     0
176
     1
171
     0
176
     1
290
     0
176
     1
 93
       13
176
     1
 44
0.0
176
     1
173
     0
176
     1
1001
ACAD
1000
AcDbSavedByObjectVersion
1070
     0
  0
DICTIONARYVAR
  5
115
102
{ACAD_REACTORS
330
110
102
}
330
110
100
DictionaryVariables
280
     0
  1
1:1
  0
DICTIONARYVAR
  5
112
102
{ACAD_REACTORS
330
110
102
}
330
110
100
DictionaryVariables
280
     0
  1
STANDARD
  0
DICTIONARYVAR
  5
111
102
{ACAD_REACTORS
330
110
102
}
330
110
100
DictionaryVariables
280
     0
  1
STANDARD
  0
DICTIONARYVAR
  5
113
102
{ACAD_REACTORS
330
110
102
}
330
110
100
DictionaryVariables
280
     0
  1
Imperial24
  0
DICTIONARYVAR
  5
114
102
{ACAD_REACTORS
330
110
102
}
330
110
100
DictionaryVariables
280
     0
  1
Imperial24
  0
DICTIONARY
  5
14D
330
6B
100
AcDbDictionary
280
     1
281
     1
  3
ACAD_XREC_ROUNDTRIP
360
14E
  0
DICTIONARY
  5
1A
330
19
100
AcDbDictionary
280
     1
281
     1
  3
BUMPTILE
360
1C
  3
DIFFUSETILE
360
1B
  3
OPACITYTILE
360
1F
  3
REFLECTIONTILE
360
1E
  3
REFRACTIONTILE
360
20
  3
SPECULARTILE
360
1D
  0
DICTIONARY
  5
12
330
11
100
AcDbDictionary
280
     1
281
     1
  3
BUMPTILE
360
14
  3
DIFFUSETILE
360
13
  3
OPACITYTILE
360
17
  3
REFLECTIONTILE
360
16
  3
REFRACTIONTILE
360
18
  3
SPECULARTILE
360
15
  0
DICTIONARY
  5
22
330
21
100
AcDbDictionary
280
     1
281
     1
  3
BUMPTILE
360
24
  3
DIFFUSETILE
360
23
  3
OPACITYTILE
360
27
  3
REFLECTIONTILE
360
26
  3
REFRACTIONTILE
360
28
  3
SPECULARTILE
360
25
  0
DICTIONARY
  5
149
330
67
100
AcDbDictionary
280
     1
281
     1
  3
ACAD_XREC_ROUNDTRIP
360
14A
  0
DICTIONARY
  5
14B
330
69
100
AcDbDictionary
280
     1
281
     1
  3
ACAD_XREC_ROUNDTRIP
360
14C
  0
DICTIONARY
  5
116
330
65
100
AcDbDictionary
280
     1
281
     1
  3
ACAD_ROUNDTRIP_2008_TABLESTYLE_CELLSTYLEMAP
360
117
  0
DICTIONARY
  5
123
330
2F
100
AcDbDictionary
280
     1
281
     1
  3
ACAD_XREC_ROUNDTRIP
360
124
  0
DICTIONARY
  5
121
330
2E
100
AcDbDictionary
280
     1
281
     1
  3
ACAD_XREC_ROUNDTRIP
360
122
  0
DICTIONARY
  5
12F
330
35
100
AcDbDictionary
280
     1
281
     1
  3
ACAD_XREC_ROUNDTRIP
360
130
  0
DICTIONARY
  5
137
330
39
100
AcDbDictionary
280
     1
281
     1
  3
ACAD_XREC_ROUNDTRIP
360
138
  0
DICTIONARY
  5
129
330
32
100
AcDbDictionary
280
     1
281
     1
  3
ACAD_XREC_ROUNDTRIP
360
12A
  0
DICTIONARY
  5
12D
330
34
100
AcDbDictionary
280
     1
281
     1
  3
ACAD_XREC_ROUNDTRIP
360
12E
  0
DICTIONARY
  5
147
330
41
100
AcDbDictionary
280
     1
281
     1
  3
ACAD_XREC_ROUNDTRIP
360
148
  0
DICTIONARY
  5
135
330
38
100
AcDbDictionary
280
     1
281
     1
  3
ACAD_XREC_ROUNDTRIP
360
136
  0
DICTIONARY
  5
119
330
2A
100
AcDbDictionary
280
     1
281
     1
  3
ACAD_XREC_ROUNDTRIP
360
11A
  0
DICTIONARY
  5
11B
330
2B
100
AcDbDictionary
280
     1
281
     1
  3
ACAD_XREC_ROUNDTRIP
360
11C
  0
DICTIONARY
  5
11D
330
2C
100
AcDbDictionary
280
     1
281
     1
  3
ACAD_XREC_ROUNDTRIP
360
11E
  0
DICTIONARY
  5
11F
330
2D
100
AcDbDictionary
280
     1
281
     1
  3
ACAD_XREC_ROUNDTRIP
360
120
  0
DICTIONARY
  5
127
330
31
100
AcDbDictionary
280
     1
281
     1
  3
ACAD_XREC_ROUNDTRIP
360
128
  0
DICTIONARY
  5
143
330
3F
100
AcDbDictionary
280
     1
281
     1
  3
ACAD_XREC_ROUNDTRIP
360
144
  0
DICTIONARY
  5
133
330
37
100
AcDbDictionary
280
     1
281
     1
  3
ACAD_XREC_ROUNDTRIP
360
134
  0
DICTIONARY
  5
145
330
40
100
AcDbDictionary
280
     1
281
     1
  3
ACAD_XREC_ROUNDTRIP
360
146
  0
DICTIONARY
  5
12B
330
33
100
AcDbDictionary
280
     1
281
     1
  3
ACAD_XREC_ROUNDTRIP
360
12C
  0
DICTIONARY
  5
141
330
3E
100
AcDbDictionary
280
     1
281
     1
  3
ACAD_XREC_ROUNDTRIP
360
142
  0
DICTIONARY
  5
13F
330
3D
100
AcDbDictionary
280
     1
281
     1
  3
ACAD_XREC_ROUNDTRIP
360
140
  0
DICTIONARY
  5
139
330
3A
100
AcDbDictionary
280
     1
281
     1
  3
ACAD_XREC_ROUNDTRIP
360
13A
  0
DICTIONARY
  5
13B
330
3B
100
AcDbDictionary
280
     1
281
     1
  3
ACAD_XREC_ROUNDTRIP
360
13C
  0
DICTIONARY
  5
131
330
36
100
AcDbDictionary
280
     1
281
     1
  3
ACAD_XREC_ROUNDTRIP
360
132
  0
DICTIONARY
  5
125
330
30
100
AcDbDictionary
280
     1
281
     1
  3
ACAD_XREC_ROUNDTRIP
360
126
  0
DICTIONARY
  5
13D
330
3C
100
AcDbDictionary
280
     1
281
     1
  3
ACAD_XREC_ROUNDTRIP
360
13E
  0
XRECORD
  5
14E
102
{ACAD_REACTORS
330
14D
102
}
330
14D
100
AcDbXrecord
280
     1
102
DISPLAYNAME
  1
Imperial24
102
FLAGS
 90
        0
  0
XRECORD
  5
1C
102
{ACAD_REACTORS
330
1A
102
}
330
1A
100
AcDbXrecord
280
     1
270
     1
271
     1
  0
XRECORD
  5
1B
102
{ACAD_REACTORS
330
1A
102
}
330
1A
100
AcDbXrecord
280
     1
270
     1
271
     1
  0
XRECORD
  5
1F
102
{ACAD_REACTORS
330
1A
102
}
330
1A
100
AcDbXrecord
280
     1
270
     1
271
     1
  0
XRECORD
  5
1E
102
{ACAD_REACTORS
330
1A
102
}
330
1A
100
AcDbXrecord
280
     1
270
     1
271
     1
  0
XRECORD
  5
20
102
{ACAD_REACTORS
330
1A
102
}
330
1A
100
AcDbXrecord
280
     1
270
     1
271
     1
  0
XRECORD
  5
1D
102
{ACAD_REACTORS
330
1A
102
}
330
1A
100
AcDbXrecord
280
     1
270
     1
271
     1
  0
XRECORD
  5
14
102
{ACAD_REACTORS
330
12
102
}
330
12
100
AcDbXrecord
280
     1
270
     1
271
     1
  0
XRECORD
  5
13
102
{ACAD_REACTORS
330
12
102
}
330
12
100
AcDbXrecord
280
     1
270
     1
271
     1
  0
XRECORD
  5
17
102
{ACAD_REACTORS
330
12
102
}
330
12
100
AcDbXrecord
280
     1
270
     1
271
     1
  0
XRECORD
  5
16
102
{ACAD_REACTORS
330
12
102
}
330
12
100
AcDbXrecord
280
     1
270
     1
271
     1
  0
XRECORD
  5
18
102
{ACAD_REACTORS
330
12
102
}
330
12
100
AcDbXrecord
280
     1
270
     1
271
     1
  0
XRECORD
  5
15
102
{ACAD_REACTORS
330
12
102
}
330
12
100
AcDbXrecord
280
     1
270
     1
271
     1
  0
XRECORD
  5
24
102
{ACAD_REACTORS
330
22
102
}
330
22
100
AcDbXrecord
280
     1
270
     1
271
     1
  0
XRECORD
  5
23
102
{ACAD_REACTORS
330
22
102
}
330
22
100
AcDbXrecord
280
     1
270
     1
271
     1
  0
XRECORD
  5
27
102
{ACAD_REACTORS
330
22
102
}
330
22
100
AcDbXrecord
280
     1
270
     1
271
     1
  0
XRECORD
  5
26
102
{ACAD_REACTORS
330
22
102
}
330
22
100
AcDbXrecord
280
     1
270
     1
271
     1
  0
XRECORD
  5
28
102
{ACAD_REACTORS
330
22
102
}
330
22
100
AcDbXrecord
280
     1
270
     1
271
     1
  0
XRECORD
  5
25
102
{ACAD_REACTORS
330
22
102
}
330
22
100
AcDbXrecord
280
     1
270
     1
271
     1
  0
XRECORD
  5
14A
102
{ACAD_REACTORS
330
149
102
}
330
149
100
AcDbXrecord
280
     1
102
ACAD_ROUNDTRIP_2012_MLEADER_STYLE
298
     1
  0
XRECORD
  5
14C
102
{ACAD_REACTORS
330
14B
102
}
330
14B
100
AcDbXrecord
280
     1
102
DISPLAYNAME
  1
Imperial24
102
FLAGS
 90
        0
  0
CELLSTYLEMAP
  5
117
102
{ACAD_REACTORS
330
116
102
}
330
116
100
AcDbCellStyleMap
 90
        3
300
CELLSTYLE
  1
TABLEFORMAT_BEGIN
 90
        5
170
     1
 91
        0
 92
    32768
 62
   257
 93
        1
300
CONTENTFORMAT
  1
CONTENTFORMAT_BEGIN
 90
        0
 91
        0
 92
      512
 93
        0
300

 40
0.0
140
1.0
 94
        5
 62
     0
340
55
144
0.25
309
CONTENTFORMAT_END
171
     0
 94
        0
309
TABLEFORMAT_END
  1
CELLSTYLE_BEGIN
 90
        1
 91
        1
300
_TITLE
309
CELLSTYLE_END
300
CELLSTYLE
  1
TABLEFORMAT_BEGIN
 90
        5
170
     1
 91
        0
 92
        0
 62
   257
 93
        1
300
CONTENTFORMAT
  1
CONTENTFORMAT_BEGIN
 90
        0
 91
        0
 92
      512
 93
        0
300

 40
0.0
140
1.0
 94
        5
 62
     0
340
55
144
0.18
309
CONTENTFORMAT_END
171
     0
 94
        0
309
TABLEFORMAT_END
  1
CELLSTYLE_BEGIN
 90
        2
 91
        1
300
_HEADER
309
CELLSTYLE_END
300
CELLSTYLE
  1
TABLEFORMAT_BEGIN
 90
        5
170
     1
 91
        0
 92
        0
 62
   257
 93
        1
300
CONTENTFORMAT
  1
CONTENTFORMAT_BEGIN
 90
        0
 91
        0
 92
      512
 93
        0
300

 40
0.0
140
1.0
 94
        2
 62
     0
340
55
144
0.18
309
CONTENTFORMAT_END
171
     0
 94
        0
309
TABLEFORMAT_END
  1
CELLSTYLE_BEGIN
 90
        3
 91
        2
300
_DATA
309
CELLSTYLE_END
  0
XRECORD
  5
124
102
{ACAD_REACTORS
330
123
102
}
330
123
100
AcDbXrecord
280
     1
102
RTVSPost2010Prop28
280
     1
102
RTVSPost2010PropOp28
 70
     1
102
RTVSPost2010Prop29
280
     1
102
RTVSPost2010PropOp29
 70
     1
102
RTVSPost2010Prop30
280
     0
102
RTVSPost2010PropOp30
 70
     1
102
RTVSPost2010Prop31
280
     0
102
RTVSPost2010PropOp31
 70
     1
102
RTVSPost2010Prop32
280
     0
102
RTVSPost2010PropOp32
 70
     1
102
RTVSPost2010Prop33
280
     0
102
RTVSPost2010PropOp33
 70
     1
102
RTVSPost2010Prop34
280
     0
102
RTVSPost2010PropOp34
 70
     1
102
RTVSPost2010Prop35
280
     0
102
RTVSPost2010PropOp35
 70
     1
102
RTVSPost2010Prop36
280
     0
102
RTVSPost2010PropOp36
 70
     1
102
RTVSPost2010Prop37
 90
       50
102
RTVSPost2010PropOp37
 70
     1
102
RTVSPost2010Prop38
140
0.0
102
RTVSPost2010PropOp38
 70
     1
102
RTVSPost2010Prop39
140
1.0
102
RTVSPost2010PropOp39
 70
     1
102
RTVSPost2010Prop40
 90
        0
102
RTVSPost2010PropOp40
 70
     1
102
RTVSPost2010Prop41ColorIndex
 90
       18
102
RTVSPost2010Prop41ColorRGB
 90
        0
102
RTVSPost2010PropOp41
 70
     1
102
RTVSPost2010Prop42
 90
       50
102
RTVSPost2010PropOp42
 70
     1
102
RTVSPost2010Prop43
 90
        3
102
RTVSPost2010PropOp43
 70
     1
102
RTVSPost2010Prop44ColorIndex
 90
        5
102
RTVSPost2010Prop44ColorRGB
 90
      255
102
RTVSPost2010PropOp44
 70
     1
102
RTVSPost2010Prop45
280
     0
102
RTVSPost2010PropOp45
 70
     1
102
RTVSPost2010Prop46
 90
       50
102
RTVSPost2010PropOp46
 70
     1
102
RTVSPost2010Prop47
 90
       50
102
RTVSPost2010PropOp47
 70
     1
102
RTVSPost2010Prop48
 90
       50
102
RTVSPost2010PropOp48
 70
     1
102
RTVSPost2010Prop49
280
     0
102
RTVSPost2010PropOp49
 70
     1
102
RTVSPost2010Prop50
 90
       50
102
RTVSPost2010PropOp50
 70
     1
102
RTVSPost2010Prop51ColorIndex
 90
      256
102
RTVSPost2010Prop51ColorRGB
 90
-16777216
102
RTVSPost2010PropOp51
 70
     0
102
RTVSPost2010Prop52
140
1.0
102
RTVSPost2010PropOp52
 70
     0
102
RTVSPost2010Prop53
 90
        2
102
RTVSPost2010PropOp53
 70
     1
102
RTVSPost2010Prop54
  1
strokes_ogs.tif
102
RTVSPost2010PropOp54
 70
     1
102
RTVSPost2010Prop55
280
     0
102
RTVSPost2010PropOp55
 70
     1
102
RTVSPost2010Prop56
140
1.0
102
RTVSPost2010PropOp56
 70
     1
102
RTVSPost2010Prop57
140
1.0
102
RTVSPost2010PropOp57
 70
     1
  0
XRECORD
  5
122
102
{ACAD_REACTORS
330
121
102
}
330
121
100
AcDbXrecord
280
     1
102
RTVSPost2010Prop28
280
     0
102
RTVSPost2010PropOp28
 70
     1
102
RTVSPost2010Prop29
280
     1
102
RTVSPost2010PropOp29
 70
     1
102
RTVSPost2010Prop30
280
     1
102
RTVSPost2010PropOp30
 70
     1
102
RTVSPost2010Prop31
280
     0
102
RTVSPost2010PropOp31
 70
     1
102
RTVSPost2010Prop32
280
     0
102
RTVSPost2010PropOp32
 70
     1
102
RTVSPost2010Prop33
280
     0
102
RTVSPost2010PropOp33
 70
     1
102
RTVSPost2010Prop34
280
     0
102
RTVSPost2010PropOp34
 70
     1
102
RTVSPost2010Prop35
280
     0
102
RTVSPost2010PropOp35
 70
     1
102
RTVSPost2010Prop36
280
     0
102
RTVSPost2010PropOp36
 70
     1
102
RTVSPost2010Prop37
 90
       50
102
RTVSPost2010PropOp37
 70
     1
102
RTVSPost2010Prop38
140
0.0
102
RTVSPost2010PropOp38
 70
     1
102
RTVSPost2010Prop39
140
1.0
102
RTVSPost2010PropOp39
 70
     1
102
RTVSPost2010Prop40
 90
        0
102
RTVSPost2010PropOp40
 70
     1
102
RTVSPost2010Prop41ColorIndex
 90
       18
102
RTVSPost2010Prop41ColorRGB
 90
        0
102
RTVSPost2010PropOp41
 70
     1
102
RTVSPost2010Prop42
 90
       50
102
RTVSPost2010PropOp42
 70
     1
102
RTVSPost2010Prop43
 90
        3
102
RTVSPost2010PropOp43
 70
     1
102
RTVSPost2010Prop44ColorIndex
 90
        5
102
RTVSPost2010Prop44ColorRGB
 90
      255
102
RTVSPost2010PropOp44
 70
     1
102
RTVSPost2010Prop45
280
     0
102
RTVSPost2010PropOp45
 70
     1
102
RTVSPost2010Prop46
 90
       50
102
RTVSPost2010PropOp46
 70
     1
102
RTVSPost2010Prop47
 90
       50
102
RTVSPost2010PropOp47
 70
     1
102
RTVSPost2010Prop48
 90
       50
102
RTVSPost2010PropOp48
 70
     1
102
RTVSPost2010Prop49
280
     0
102
RTVSPost2010PropOp49
 70
     1
102
RTVSPost2010Prop50
 90
       50
102
RTVSPost2010PropOp50
 70
     1
102
RTVSPost2010Prop51ColorIndex
 90
      256
102
RTVSPost2010Prop51ColorRGB
 90
-16777216
102
RTVSPost2010PropOp51
 70
     0
102
RTVSPost2010Prop52
140
1.0
102
RTVSPost2010PropOp52
 70
     0
102
RTVSPost2010Prop53
 90
        2
102
RTVSPost2010PropOp53
 70
     1
102
RTVSPost2010Prop54
  1
strokes_ogs.tif
102
RTVSPost2010PropOp54
 70
     1
102
RTVSPost2010Prop55
280
     0
102
RTVSPost2010PropOp55
 70
     1
102
RTVSPost2010Prop56
140
1.0
102
RTVSPost2010PropOp56
 70
     1
102
RTVSPost2010Prop57
140
1.0
102
RTVSPost2010PropOp57
 70
     1
  0
XRECORD
  5
130
102
{ACAD_REACTORS
330
12F
102
}
330
12F
100
AcDbXrecord
280
     1
102
RTVSPost2010Prop28
280
     0
102
RTVSPost2010PropOp28
 70
     1
102
RTVSPost2010Prop29
280
     1
102
RTVSPost2010PropOp29
 70
     1
102
RTVSPost2010Prop30
280
     1
102
RTVSPost2010PropOp30
 70
     1
102
RTVSPost2010Prop31
280
     0
102
RTVSPost2010PropOp31
 70
     1
102
RTVSPost2010Prop32
280
     0
102
RTVSPost2010PropOp32
 70
     1
102
RTVSPost2010Prop33
280
     0
102
RTVSPost2010PropOp33
 70
     1
102
RTVSPost2010Prop34
280
     0
102
RTVSPost2010PropOp34
 70
     1
102
RTVSPost2010Prop35
280
     0
102
RTVSPost2010PropOp35
 70
     1
102
RTVSPost2010Prop36
280
     0
102
RTVSPost2010PropOp36
 70
     1
102
RTVSPost2010Prop37
 90
       50
102
RTVSPost2010PropOp37
 70
     1
102
RTVSPost2010Prop38
140
0.0
102
RTVSPost2010PropOp38
 70
     1
102
RTVSPost2010Prop39
140
1.0
102
RTVSPost2010PropOp39
 70
     1
102
RTVSPost2010Prop40
 90
        0
102
RTVSPost2010PropOp40
 70
     1
102
RTVSPost2010Prop41ColorIndex
 90
       18
102
RTVSPost2010Prop41ColorRGB
 90
        0
102
RTVSPost2010PropOp41
 70
     1
102
RTVSPost2010Prop42
 90
       50
102
RTVSPost2010PropOp42
 70
     1
102
RTVSPost2010Prop43
 90
        3
102
RTVSPost2010PropOp43
 70
     1
102
RTVSPost2010Prop44ColorIndex
 90
        5
102
RTVSPost2010Prop44ColorRGB
 90
      255
102
RTVSPost2010PropOp44
 70
     1
102
RTVSPost2010Prop45
280
     0
102
RTVSPost2010PropOp45
 70
     1
102
RTVSPost2010Prop46
 90
       50
102
RTVSPost2010PropOp46
 70
     1
102
RTVSPost2010Prop47
 90
       50
102
RTVSPost2010PropOp47
 70
     1
102
RTVSPost2010Prop48
 90
       50
102
RTVSPost2010PropOp48
 70
     1
102
RTVSPost2010Prop49
280
     0
102
RTVSPost2010PropOp49
 70
     1
102
RTVSPost2010Prop50
 90
       50
102
RTVSPost2010PropOp50
 70
     1
102
RTVSPost2010Prop51ColorIndex
 90
      256
102
RTVSPost2010Prop51ColorRGB
 90
-16777216
102
RTVSPost2010PropOp51
 70
     0
102
RTVSPost2010Prop52
140
1.0
102
RTVSPost2010PropOp52
 70
     0
102
RTVSPost2010Prop53
 90
        2
102
RTVSPost2010PropOp53
 70
     1
102
RTVSPost2010Prop54
  1
strokes_ogs.tif
102
RTVSPost2010PropOp54
 70
     1
102
RTVSPost2010Prop55
280
     0
102
RTVSPost2010PropOp55
 70
     1
102
RTVSPost2010Prop56
140
1.0
102
RTVSPost2010PropOp56
 70
     1
102
RTVSPost2010Prop57
140
1.0
102
RTVSPost2010PropOp57
 70
     1
  0
XRECORD
  5
138
102
{ACAD_REACTORS
330
137
102
}
330
137
100
AcDbXrecord
280
     1
102
RTVSPost2010Prop28
280
     0
102
RTVSPost2010PropOp28
 70
     1
102
RTVSPost2010Prop29
280
     1
102
RTVSPost2010PropOp29
 70
     1
102
RTVSPost2010Prop30
280
     1
102
RTVSPost2010PropOp30
 70
     1
102
RTVSPost2010Prop31
280
     0
102
RTVSPost2010PropOp31
 70
     1
102
RTVSPost2010Prop32
280
     0
102
RTVSPost2010PropOp32
 70
     1
102
RTVSPost2010Prop33
280
     0
102
RTVSPost2010PropOp33
 70
     1
102
RTVSPost2010Prop34
280
     0
102
RTVSPost2010PropOp34
 70
     1
102
RTVSPost2010Prop35
280
     0
102
RTVSPost2010PropOp35
 70
     1
102
RTVSPost2010Prop36
280
     0
102
RTVSPost2010PropOp36
 70
     1
102
RTVSPost2010Prop37
 90
       50
102
RTVSPost2010PropOp37
 70
     1
102
RTVSPost2010Prop38
140
0.0
102
RTVSPost2010PropOp38
 70
     1
102
RTVSPost2010Prop39
140
1.0
102
RTVSPost2010PropOp39
 70
     1
102
RTVSPost2010Prop40
 90
        0
102
RTVSPost2010PropOp40
 70
     1
102
RTVSPost2010Prop41ColorIndex
 90
       18
102
RTVSPost2010Prop41ColorRGB
 90
        0
102
RTVSPost2010PropOp41
 70
     1
102
RTVSPost2010Prop42
 90
       50
102
RTVSPost2010PropOp42
 70
     1
102
RTVSPost2010Prop43
 90
        3
102
RTVSPost2010PropOp43
 70
     1
102
RTVSPost2010Prop44ColorIndex
 90
        5
102
RTVSPost2010Prop44ColorRGB
 90
      255
102
RTVSPost2010PropOp44
 70
     1
102
RTVSPost2010Prop45
280
     0
102
RTVSPost2010PropOp45
 70
     1
102
RTVSPost2010Prop46
 90
       50
102
RTVSPost2010PropOp46
 70
     1
102
RTVSPost2010Prop47
 90
       50
102
RTVSPost2010PropOp47
 70
     1
102
RTVSPost2010Prop48
 90
       50
102
RTVSPost2010PropOp48
 70
     1
102
RTVSPost2010Prop49
280
     0
102
RTVSPost2010PropOp49
 70
     1
102
RTVSPost2010Prop50
 90
       50
102
RTVSPost2010PropOp50
 70
     1
102
RTVSPost2010Prop51ColorIndex
 90
      256
102
RTVSPost2010Prop51ColorRGB
 90
-16777216
102
RTVSPost2010PropOp51
 70
     0
102
RTVSPost2010Prop52
140
1.0
102
RTVSPost2010PropOp52
 70
     0
102
RTVSPost2010Prop53
 90
        2
102
RTVSPost2010PropOp53
 70
     1
102
RTVSPost2010Prop54
  1
strokes_ogs.tif
102
RTVSPost2010PropOp54
 70
     1
102
RTVSPost2010Prop55
280
     0
102
RTVSPost2010PropOp55
 70
     1
102
RTVSPost2010Prop56
140
1.0
102
RTVSPost2010PropOp56
 70
     1
102
RTVSPost2010Prop57
140
1.0
102
RTVSPost2010PropOp57
 70
     1
  0
XRECORD
  5
12A
102
{ACAD_REACTORS
330
129
102
}
330
129
100
AcDbXrecord
280
     1
102
RTVSPost2010Prop28
280
     0
102
RTVSPost2010PropOp28
 70
     1
102
RTVSPost2010Prop29
280
     1
102
RTVSPost2010PropOp29
 70
     1
102
RTVSPost2010Prop30
280
     1
102
RTVSPost2010PropOp30
 70
     1
102
RTVSPost2010Prop31
280
     0
102
RTVSPost2010PropOp31
 70
     1
102
RTVSPost2010Prop32
280
     0
102
RTVSPost2010PropOp32
 70
     1
102
RTVSPost2010Prop33
280
     0
102
RTVSPost2010PropOp33
 70
     1
102
RTVSPost2010Prop34
280
     0
102
RTVSPost2010PropOp34
 70
     1
102
RTVSPost2010Prop35
280
     0
102
RTVSPost2010PropOp35
 70
     1
102
RTVSPost2010Prop36
280
     0
102
RTVSPost2010PropOp36
 70
     1
102
RTVSPost2010Prop37
 90
       50
102
RTVSPost2010PropOp37
 70
     1
102
RTVSPost2010Prop38
140
0.0
102
RTVSPost2010PropOp38
 70
     1
102
RTVSPost2010Prop39
140
1.0
102
RTVSPost2010PropOp39
 70
     1
102
RTVSPost2010Prop40
 90
        0
102
RTVSPost2010PropOp40
 70
     1
102
RTVSPost2010Prop41ColorIndex
 90
       18
102
RTVSPost2010Prop41ColorRGB
 90
        0
102
RTVSPost2010PropOp41
 70
     1
102
RTVSPost2010Prop42
 90
       50
102
RTVSPost2010PropOp42
 70
     1
102
RTVSPost2010Prop43
 90
        3
102
RTVSPost2010PropOp43
 70
     1
102
RTVSPost2010Prop44ColorIndex
 90
        5
102
RTVSPost2010Prop44ColorRGB
 90
      255
102
RTVSPost2010PropOp44
 70
     1
102
RTVSPost2010Prop45
280
     0
102
RTVSPost2010PropOp45
 70
     1
102
RTVSPost2010Prop46
 90
       50
102
RTVSPost2010PropOp46
 70
     1
102
RTVSPost2010Prop47
 90
       50
102
RTVSPost2010PropOp47
 70
     1
102
RTVSPost2010Prop48
 90
       50
102
RTVSPost2010PropOp48
 70
     1
102
RTVSPost2010Prop49
280
     0
102
RTVSPost2010PropOp49
 70
     1
102
RTVSPost2010Prop50
 90
       50
102
RTVSPost2010PropOp50
 70
     1
102
RTVSPost2010Prop51ColorIndex
 90
      256
102
RTVSPost2010Prop51ColorRGB
 90
-16777216
102
RTVSPost2010PropOp51
 70
     0
102
RTVSPost2010Prop52
140
1.0
102
RTVSPost2010PropOp52
 70
     0
102
RTVSPost2010Prop53
 90
        2
102
RTVSPost2010PropOp53
 70
     1
102
RTVSPost2010Prop54
  1
strokes_ogs.tif
102
RTVSPost2010PropOp54
 70
     1
102
RTVSPost2010Prop55
280
     0
102
RTVSPost2010PropOp55
 70
     1
102
RTVSPost2010Prop56
140
1.0
102
RTVSPost2010PropOp56
 70
     1
102
RTVSPost2010Prop57
140
1.0
102
RTVSPost2010PropOp57
 70
     1
  0
XRECORD
  5
12E
102
{ACAD_REACTORS
330
12D
102
}
330
12D
100
AcDbXrecord
280
     1
102
RTVSPost2010Prop28
280
     0
102
RTVSPost2010PropOp28
 70
     1
102
RTVSPost2010Prop29
280
     1
102
RTVSPost2010PropOp29
 70
     1
102
RTVSPost2010Prop30
280
     1
102
RTVSPost2010PropOp30
 70
     1
102
RTVSPost2010Prop31
280
     0
102
RTVSPost2010PropOp31
 70
     1
102
RTVSPost2010Prop32
280
     0
102
RTVSPost2010PropOp32
 70
     1
102
RTVSPost2010Prop33
280
     0
102
RTVSPost2010PropOp33
 70
     1
102
RTVSPost2010Prop34
280
     0
102
RTVSPost2010PropOp34
 70
     1
102
RTVSPost2010Prop35
280
     0
102
RTVSPost2010PropOp35
 70
     1
102
RTVSPost2010Prop36
280
     0
102
RTVSPost2010PropOp36
 70
     1
102
RTVSPost2010Prop37
 90
       50
102
RTVSPost2010PropOp37
 70
     1
102
RTVSPost2010Prop38
140
0.0
102
RTVSPost2010PropOp38
 70
     1
102
RTVSPost2010Prop39
140
1.0
102
RTVSPost2010PropOp39
 70
     1
102
RTVSPost2010Prop40
 90
        0
102
RTVSPost2010PropOp40
 70
     1
102
RTVSPost2010Prop41ColorIndex
 90
       18
102
RTVSPost2010Prop41ColorRGB
 90
        0
102
RTVSPost2010PropOp41
 70
     1
102
RTVSPost2010Prop42
 90
       50
102
RTVSPost2010PropOp42
 70
     1
102
RTVSPost2010Prop43
 90
        3
102
RTVSPost2010PropOp43
 70
     1
102
RTVSPost2010Prop44ColorIndex
 90
        5
102
RTVSPost2010Prop44ColorRGB
 90
      255
102
RTVSPost2010PropOp44
 70
     1
102
RTVSPost2010Prop45
280
     0
102
RTVSPost2010PropOp45
 70
     1
102
RTVSPost2010Prop46
 90
       50
102
RTVSPost2010PropOp46
 70
     1
102
RTVSPost2010Prop47
 90
       50
102
RTVSPost2010PropOp47
 70
     1
102
RTVSPost2010Prop48
 90
       50
102
RTVSPost2010PropOp48
 70
     1
102
RTVSPost2010Prop49
280
     0
102
RTVSPost2010PropOp49
 70
     1
102
RTVSPost2010Prop50
 90
       50
102
RTVSPost2010PropOp50
 70
     1
102
RTVSPost2010Prop51ColorIndex
 90
      256
102
RTVSPost2010Prop51ColorRGB
 90
-16777216
102
RTVSPost2010PropOp51
 70
     0
102
RTVSPost2010Prop52
140
1.0
102
RTVSPost2010PropOp52
 70
     0
102
RTVSPost2010Prop53
 90
        2
102
RTVSPost2010PropOp53
 70
     1
102
RTVSPost2010Prop54
  1
strokes_ogs.tif
102
RTVSPost2010PropOp54
 70
     1
102
RTVSPost2010Prop55
280
     0
102
RTVSPost2010PropOp55
 70
     1
102
RTVSPost2010Prop56
140
1.0
102
RTVSPost2010PropOp56
 70
     1
102
RTVSPost2010Prop57
140
1.0
102
RTVSPost2010PropOp57
 70
     1
  0
XRECORD
  5
148
102
{ACAD_REACTORS
330
147
102
}
330
147
100
AcDbXrecord
280
     1
102
RTVSPost2010Prop28
280
     0
102
RTVSPost2010PropOp28
 70
     0
102
RTVSPost2010Prop29
280
     1
102
RTVSPost2010PropOp29
 70
     0
102
RTVSPost2010Prop30
280
     1
102
RTVSPost2010PropOp30
 70
     0
102
RTVSPost2010Prop31
280
     0
102
RTVSPost2010PropOp31
 70
     0
102
RTVSPost2010Prop32
280
     0
102
RTVSPost2010PropOp32
 70
     0
102
RTVSPost2010Prop33
280
     0
102
RTVSPost2010PropOp33
 70
     0
102
RTVSPost2010Prop34
280
     0
102
RTVSPost2010PropOp34
 70
     0
102
RTVSPost2010Prop35
280
     0
102
RTVSPost2010PropOp35
 70
     0
102
RTVSPost2010Prop36
280
     0
102
RTVSPost2010PropOp36
 70
     0
102
RTVSPost2010Prop37
 90
       50
102
RTVSPost2010PropOp37
 70
     0
102
RTVSPost2010Prop38
140
0.0
102
RTVSPost2010PropOp38
 70
     0
102
RTVSPost2010Prop39
140
1.0
102
RTVSPost2010PropOp39
 70
     0
102
RTVSPost2010Prop40
 90
        0
102
RTVSPost2010PropOp40
 70
     0
102
RTVSPost2010Prop41ColorIndex
 90
       18
102
RTVSPost2010Prop41ColorRGB
 90
        0
102
RTVSPost2010PropOp41
 70
     0
102
RTVSPost2010Prop42
 90
       50
102
RTVSPost2010PropOp42
 70
     0
102
RTVSPost2010Prop43
 90
        3
102
RTVSPost2010PropOp43
 70
     0
102
RTVSPost2010Prop44ColorIndex
 90
        5
102
RTVSPost2010Prop44ColorRGB
 90
      255
102
RTVSPost2010PropOp44
 70
     0
102
RTVSPost2010Prop45
280
     0
102
RTVSPost2010PropOp45
 70
     0
102
RTVSPost2010Prop46
 90
       50
102
RTVSPost2010PropOp46
 70
     0
102
RTVSPost2010Prop47
 90
       50
102
RTVSPost2010PropOp47
 70
     0
102
RTVSPost2010Prop48
 90
       50
102
RTVSPost2010PropOp48
 70
     0
102
RTVSPost2010Prop49
280
     0
102
RTVSPost2010PropOp49
 70
     0
102
RTVSPost2010Prop50
 90
       50
102
RTVSPost2010PropOp50
 70
     0
102
RTVSPost2010Prop51ColorIndex
 90
      256
102
RTVSPost2010Prop51ColorRGB
 90
-16777216
102
RTVSPost2010PropOp51
 70
     0
102
RTVSPost2010Prop52
140
1.0
102
RTVSPost2010PropOp52
 70
     0
102
RTVSPost2010Prop53
 90
        2
102
RTVSPost2010PropOp53
 70
     0
102
RTVSPost2010Prop54
  1
strokes_ogs.tif
102
RTVSPost2010PropOp54
 70
     0
102
RTVSPost2010Prop55
280
     0
102
RTVSPost2010PropOp55
 70
     0
102
RTVSPost2010Prop56
140
1.0
102
RTVSPost2010PropOp56
 70
     0
102
RTVSPost2010Prop57
140
1.0
102
RTVSPost2010PropOp57
 70
     0
  0
XRECORD
  5
136
102
{ACAD_REACTORS
330
135
102
}
330
135
100
AcDbXrecord
280
     1
102
RTVSPost2010Prop28
280
     0
102
RTVSPost2010PropOp28
 70
     1
102
RTVSPost2010Prop29
280
     1
102
RTVSPost2010PropOp29
 70
     1
102
RTVSPost2010Prop30
280
     1
102
RTVSPost2010PropOp30
 70
     1
102
RTVSPost2010Prop31
280
     0
102
RTVSPost2010PropOp31
 70
     1
102
RTVSPost2010Prop32
280
     0
102
RTVSPost2010PropOp32
 70
     1
102
RTVSPost2010Prop33
280
     0
102
RTVSPost2010PropOp33
 70
     1
102
RTVSPost2010Prop34
280
     0
102
RTVSPost2010PropOp34
 70
     1
102
RTVSPost2010Prop35
280
     0
102
RTVSPost2010PropOp35
 70
     1
102
RTVSPost2010Prop36
280
     0
102
RTVSPost2010PropOp36
 70
     1
102
RTVSPost2010Prop37
 90
       50
102
RTVSPost2010PropOp37
 70
     1
102
RTVSPost2010Prop38
140
0.0
102
RTVSPost2010PropOp38
 70
     1
102
RTVSPost2010Prop39
140
1.0
102
RTVSPost2010PropOp39
 70
     1
102
RTVSPost2010Prop40
 90
        0
102
RTVSPost2010PropOp40
 70
     1
102
RTVSPost2010Prop41ColorIndex
 90
       18
102
RTVSPost2010Prop41ColorRGB
 90
        0
102
RTVSPost2010PropOp41
 70
     1
102
RTVSPost2010Prop42
 90
       50
102
RTVSPost2010PropOp42
 70
     1
102
RTVSPost2010Prop43
 90
        3
102
RTVSPost2010PropOp43
 70
     1
102
RTVSPost2010Prop44ColorIndex
 90
        5
102
RTVSPost2010Prop44ColorRGB
 90
      255
102
RTVSPost2010PropOp44
 70
     1
102
RTVSPost2010Prop45
280
     0
102
RTVSPost2010PropOp45
 70
     1
102
RTVSPost2010Prop46
 90
       50
102
RTVSPost2010PropOp46
 70
     1
102
RTVSPost2010Prop47
 90
       50
102
RTVSPost2010PropOp47
 70
     1
102
RTVSPost2010Prop48
 90
       50
102
RTVSPost2010PropOp48
 70
     1
102
RTVSPost2010Prop49
280
     0
102
RTVSPost2010PropOp49
 70
     1
102
RTVSPost2010Prop50
 90
       50
102
RTVSPost2010PropOp50
 70
     1
102
RTVSPost2010Prop51ColorIndex
 90
      256
102
RTVSPost2010Prop51ColorRGB
 90
-16777216
102
RTVSPost2010PropOp51
 70
     0
102
RTVSPost2010Prop52
140
1.0
102
RTVSPost2010PropOp52
 70
     0
102
RTVSPost2010Prop53
 90
        2
102
RTVSPost2010PropOp53
 70
     1
102
RTVSPost2010Prop54
  1
strokes_ogs.tif
102
RTVSPost2010PropOp54
 70
     1
102
RTVSPost2010Prop55
280
     0
102
RTVSPost2010PropOp55
 70
     1
102
RTVSPost2010Prop56
140
1.0
102
RTVSPost2010PropOp56
 70
     1
102
RTVSPost2010Prop57
140
1.0
102
RTVSPost2010PropOp57
 70
     1
  0
XRECORD
  5
11A
102
{ACAD_REACTORS
330
119
102
}
330
119
100
AcDbXrecord
280
     1
102
RTVSPost2010Prop28
280
     0
102
RTVSPost2010PropOp28
 70
     1
102
RTVSPost2010Prop29
280
     1
102
RTVSPost2010PropOp29
 70
     1
102
RTVSPost2010Prop30
280
     1
102
RTVSPost2010PropOp30
 70
     1
102
RTVSPost2010Prop31
280
     0
102
RTVSPost2010PropOp31
 70
     1
102
RTVSPost2010Prop32
280
     0
102
RTVSPost2010PropOp32
 70
     1
102
RTVSPost2010Prop33
280
     0
102
RTVSPost2010PropOp33
 70
     1
102
RTVSPost2010Prop34
280
     0
102
RTVSPost2010PropOp34
 70
     1
102
RTVSPost2010Prop35
280
     0
102
RTVSPost2010PropOp35
 70
     1
102
RTVSPost2010Prop36
280
     0
102
RTVSPost2010PropOp36
 70
     1
102
RTVSPost2010Prop37
 90
       50
102
RTVSPost2010PropOp37
 70
     1
102
RTVSPost2010Prop38
140
0.0
102
RTVSPost2010PropOp38
 70
     1
102
RTVSPost2010Prop39
140
1.0
102
RTVSPost2010PropOp39
 70
     1
102
RTVSPost2010Prop40
 90
        0
102
RTVSPost2010PropOp40
 70
     1
102
RTVSPost2010Prop41ColorIndex
 90
       18
102
RTVSPost2010Prop41ColorRGB
 90
        0
102
RTVSPost2010PropOp41
 70
     1
102
RTVSPost2010Prop42
 90
       50
102
RTVSPost2010PropOp42
 70
     1
102
RTVSPost2010Prop43
 90
        3
102
RTVSPost2010PropOp43
 70
     1
102
RTVSPost2010Prop44ColorIndex
 90
        5
102
RTVSPost2010Prop44ColorRGB
 90
      255
102
RTVSPost2010PropOp44
 70
     1
102
RTVSPost2010Prop45
280
     0
102
RTVSPost2010PropOp45
 70
     1
102
RTVSPost2010Prop46
 90
       50
102
RTVSPost2010PropOp46
 70
     1
102
RTVSPost2010Prop47
 90
       50
102
RTVSPost2010PropOp47
 70
     1
102
RTVSPost2010Prop48
 90
       50
102
RTVSPost2010PropOp48
 70
     1
102
RTVSPost2010Prop49
280
     0
102
RTVSPost2010PropOp49
 70
     1
102
RTVSPost2010Prop50
 90
       50
102
RTVSPost2010PropOp50
 70
     1
102
RTVSPost2010Prop51ColorIndex
 90
      256
102
RTVSPost2010Prop51ColorRGB
 90
-16777216
102
RTVSPost2010PropOp51
 70
     0
102
RTVSPost2010Prop52
140
1.0
102
RTVSPost2010PropOp52
 70
     0
102
RTVSPost2010Prop53
 90
        2
102
RTVSPost2010PropOp53
 70
     1
102
RTVSPost2010Prop54
  1
strokes_ogs.tif
102
RTVSPost2010PropOp54
 70
     1
102
RTVSPost2010Prop55
280
     0
102
RTVSPost2010PropOp55
 70
     1
102
RTVSPost2010Prop56
140
1.0
102
RTVSPost2010PropOp56
 70
     1
102
RTVSPost2010Prop57
140
1.0
102
RTVSPost2010PropOp57
 70
     1
  0
XRECORD
  5
11C
102
{ACAD_REACTORS
330
11B
102
}
330
11B
100
AcDbXrecord
280
     1
102
RTVSPost2010Prop28
280
     0
102
RTVSPost2010PropOp28
 70
     1
102
RTVSPost2010Prop29
280
     1
102
RTVSPost2010PropOp29
 70
     1
102
RTVSPost2010Prop30
280
     1
102
RTVSPost2010PropOp30
 70
     1
102
RTVSPost2010Prop31
280
     0
102
RTVSPost2010PropOp31
 70
     1
102
RTVSPost2010Prop32
280
     0
102
RTVSPost2010PropOp32
 70
     1
102
RTVSPost2010Prop33
280
     0
102
RTVSPost2010PropOp33
 70
     1
102
RTVSPost2010Prop34
280
     0
102
RTVSPost2010PropOp34
 70
     1
102
RTVSPost2010Prop35
280
     0
102
RTVSPost2010PropOp35
 70
     1
102
RTVSPost2010Prop36
280
     0
102
RTVSPost2010PropOp36
 70
     1
102
RTVSPost2010Prop37
 90
       50
102
RTVSPost2010PropOp37
 70
     1
102
RTVSPost2010Prop38
140
0.0
102
RTVSPost2010PropOp38
 70
     1
102
RTVSPost2010Prop39
140
1.0
102
RTVSPost2010PropOp39
 70
     1
102
RTVSPost2010Prop40
 90
        0
102
RTVSPost2010PropOp40
 70
     1
102
RTVSPost2010Prop41ColorIndex
 90
       18
102
RTVSPost2010Prop41ColorRGB
 90
        0
102
RTVSPost2010PropOp41
 70
     1
102
RTVSPost2010Prop42
 90
       50
102
RTVSPost2010PropOp42
 70
     1
102
RTVSPost2010Prop43
 90
        3
102
RTVSPost2010PropOp43
 70
     1
102
RTVSPost2010Prop44ColorIndex
 90
        5
102
RTVSPost2010Prop44ColorRGB
 90
      255
102
RTVSPost2010PropOp44
 70
     1
102
RTVSPost2010Prop45
280
     0
102
RTVSPost2010PropOp45
 70
     1
102
RTVSPost2010Prop46
 90
       50
102
RTVSPost2010PropOp46
 70
     1
102
RTVSPost2010Prop47
 90
       50
102
RTVSPost2010PropOp47
 70
     1
102
RTVSPost2010Prop48
 90
       50
102
RTVSPost2010PropOp48
 70
     1
102
RTVSPost2010Prop49
280
     0
102
RTVSPost2010PropOp49
 70
     1
102
RTVSPost2010Prop50
 90
       50
102
RTVSPost2010PropOp50
 70
     1
102
RTVSPost2010Prop51ColorIndex
 90
      256
102
RTVSPost2010Prop51ColorRGB
 90
-16777216
102
RTVSPost2010PropOp51
 70
     0
102
RTVSPost2010Prop52
140
1.0
102
RTVSPost2010PropOp52
 70
     0
102
RTVSPost2010Prop53
 90
        2
102
RTVSPost2010PropOp53
 70
     1
102
RTVSPost2010Prop54
  1
strokes_ogs.tif
102
RTVSPost2010PropOp54
 70
     1
102
RTVSPost2010Prop55
280
     0
102
RTVSPost2010PropOp55
 70
     1
102
RTVSPost2010Prop56
140
1.0
102
RTVSPost2010PropOp56
 70
     1
102
RTVSPost2010Prop57
140
1.0
102
RTVSPost2010PropOp57
 70
     1
  0
XRECORD
  5
11E
102
{ACAD_REACTORS
330
11D
102
}
330
11D
100
AcDbXrecord
280
     1
102
RTVSPost2010Prop28
280
     0
102
RTVSPost2010PropOp28
 70
     1
102
RTVSPost2010Prop29
280
     1
102
RTVSPost2010PropOp29
 70
     1
102
RTVSPost2010Prop30
280
     1
102
RTVSPost2010PropOp30
 70
     1
102
RTVSPost2010Prop31
280
     0
102
RTVSPost2010PropOp31
 70
     1
102
RTVSPost2010Prop32
280
     0
102
RTVSPost2010PropOp32
 70
     1
102
RTVSPost2010Prop33
280
     0
102
RTVSPost2010PropOp33
 70
     1
102
RTVSPost2010Prop34
280
     0
102
RTVSPost2010PropOp34
 70
     1
102
RTVSPost2010Prop35
280
     0
102
RTVSPost2010PropOp35
 70
     1
102
RTVSPost2010Prop36
280
     0
102
RTVSPost2010PropOp36
 70
     1
102
RTVSPost2010Prop37
 90
       50
102
RTVSPost2010PropOp37
 70
     1
102
RTVSPost2010Prop38
140
0.0
102
RTVSPost2010PropOp38
 70
     1
102
RTVSPost2010Prop39
140
1.0
102
RTVSPost2010PropOp39
 70
     1
102
RTVSPost2010Prop40
 90
        0
102
RTVSPost2010PropOp40
 70
     1
102
RTVSPost2010Prop41ColorIndex
 90
       18
102
RTVSPost2010Prop41ColorRGB
 90
        0
102
RTVSPost2010PropOp41
 70
     1
102
RTVSPost2010Prop42
 90
       50
102
RTVSPost2010PropOp42
 70
     1
102
RTVSPost2010Prop43
 90
        3
102
RTVSPost2010PropOp43
 70
     1
102
RTVSPost2010Prop44ColorIndex
 90
        5
102
RTVSPost2010Prop44ColorRGB
 90
      255
102
RTVSPost2010PropOp44
 70
     1
102
RTVSPost2010Prop45
280
     0
102
RTVSPost2010PropOp45
 70
     1
102
RTVSPost2010Prop46
 90
       50
102
RTVSPost2010PropOp46
 70
     1
102
RTVSPost2010Prop47
 90
       50
102
RTVSPost2010PropOp47
 70
     1
102
RTVSPost2010Prop48
 90
       50
102
RTVSPost2010PropOp48
 70
     1
102
RTVSPost2010Prop49
280
     0
102
RTVSPost2010PropOp49
 70
     1
102
RTVSPost2010Prop50
 90
       50
102
RTVSPost2010PropOp50
 70
     1
102
RTVSPost2010Prop51ColorIndex
 90
      256
102
RTVSPost2010Prop51ColorRGB
 90
-16777216
102
RTVSPost2010PropOp51
 70
     0
102
RTVSPost2010Prop52
140
1.0
102
RTVSPost2010PropOp52
 70
     0
102
RTVSPost2010Prop53
 90
        2
102
RTVSPost2010PropOp53
 70
     1
102
RTVSPost2010Prop54
  1
strokes_ogs.tif
102
RTVSPost2010PropOp54
 70
     1
102
RTVSPost2010Prop55
280
     0
102
RTVSPost2010PropOp55
 70
     1
102
RTVSPost2010Prop56
140
1.0
102
RTVSPost2010PropOp56
 70
     1
102
RTVSPost2010Prop57
140
1.0
102
RTVSPost2010PropOp57
 70
     1
  0
XRECORD
  5
120
102
{ACAD_REACTORS
330
11F
102
}
330
11F
100
AcDbXrecord
280
     1
102
RTVSPost2010Prop28
280
     0
102
RTVSPost2010PropOp28
 70
     1
102
RTVSPost2010Prop29
280
     1
102
RTVSPost2010PropOp29
 70
     1
102
RTVSPost2010Prop30
280
     1
102
RTVSPost2010PropOp30
 70
     1
102
RTVSPost2010Prop31
280
     0
102
RTVSPost2010PropOp31
 70
     1
102
RTVSPost2010Prop32
280
     0
102
RTVSPost2010PropOp32
 70
     1
102
RTVSPost2010Prop33
280
     0
102
RTVSPost2010PropOp33
 70
     1
102
RTVSPost2010Prop34
280
     0
102
RTVSPost2010PropOp34
 70
     1
102
RTVSPost2010Prop35
280
     0
102
RTVSPost2010PropOp35
 70
     1
102
RTVSPost2010Prop36
280
     0
102
RTVSPost2010PropOp36
 70
     1
102
RTVSPost2010Prop37
 90
       50
102
RTVSPost2010PropOp37
 70
     1
102
RTVSPost2010Prop38
140
0.0
102
RTVSPost2010PropOp38
 70
     1
102
RTVSPost2010Prop39
140
1.0
102
RTVSPost2010PropOp39
 70
     1
102
RTVSPost2010Prop40
 90
        0
102
RTVSPost2010PropOp40
 70
     1
102
RTVSPost2010Prop41ColorIndex
 90
       18
102
RTVSPost2010Prop41ColorRGB
 90
        0
102
RTVSPost2010PropOp41
 70
     1
102
RTVSPost2010Prop42
 90
       50
102
RTVSPost2010PropOp42
 70
     1
102
RTVSPost2010Prop43
 90
        3
102
RTVSPost2010PropOp43
 70
     1
102
RTVSPost2010Prop44ColorIndex
 90
        5
102
RTVSPost2010Prop44ColorRGB
 90
      255
102
RTVSPost2010PropOp44
 70
     1
102
RTVSPost2010Prop45
280
     0
102
RTVSPost2010PropOp45
 70
     1
102
RTVSPost2010Prop46
 90
       50
102
RTVSPost2010PropOp46
 70
     1
102
RTVSPost2010Prop47
 90
       50
102
RTVSPost2010PropOp47
 70
     1
102
RTVSPost2010Prop48
 90
       50
102
RTVSPost2010PropOp48
 70
     1
102
RTVSPost2010Prop49
280
     0
102
RTVSPost2010PropOp49
 70
     1
102
RTVSPost2010Prop50
 90
       50
102
RTVSPost2010PropOp50
 70
     1
102
RTVSPost2010Prop51ColorIndex
 90
      256
102
RTVSPost2010Prop51ColorRGB
 90
-16777216
102
RTVSPost2010PropOp51
 70
     0
102
RTVSPost2010Prop52
140
1.0
102
RTVSPost2010PropOp52
 70
     0
102
RTVSPost2010Prop53
 90
        2
102
RTVSPost2010PropOp53
 70
     1
102
RTVSPost2010Prop54
  1
strokes_ogs.tif
102
RTVSPost2010PropOp54
 70
     1
102
RTVSPost2010Prop55
280
     0
102
RTVSPost2010PropOp55
 70
     1
102
RTVSPost2010Prop56
140
1.0
102
RTVSPost2010PropOp56
 70
     1
102
RTVSPost2010Prop57
140
1.0
102
RTVSPost2010PropOp57
 70
     1
  0
XRECORD
  5
128
102
{ACAD_REACTORS
330
127
102
}
330
127
100
AcDbXrecord
280
     1
102
RTVSPost2010Prop28
280
     0
102
RTVSPost2010PropOp28
 70
     1
102
RTVSPost2010Prop29
280
     1
102
RTVSPost2010PropOp29
 70
     1
102
RTVSPost2010Prop30
280
     1
102
RTVSPost2010PropOp30
 70
     1
102
RTVSPost2010Prop31
280
     0
102
RTVSPost2010PropOp31
 70
     1
102
RTVSPost2010Prop32
280
     0
102
RTVSPost2010PropOp32
 70
     1
102
RTVSPost2010Prop33
280
     0
102
RTVSPost2010PropOp33
 70
     1
102
RTVSPost2010Prop34
280
     0
102
RTVSPost2010PropOp34
 70
     1
102
RTVSPost2010Prop35
280
     0
102
RTVSPost2010PropOp35
 70
     1
102
RTVSPost2010Prop36
280
     0
102
RTVSPost2010PropOp36
 70
     1
102
RTVSPost2010Prop37
 90
       50
102
RTVSPost2010PropOp37
 70
     1
102
RTVSPost2010Prop38
140
0.0
102
RTVSPost2010PropOp38
 70
     1
102
RTVSPost2010Prop39
140
1.0
102
RTVSPost2010PropOp39
 70
     1
102
RTVSPost2010Prop40
 90
        0
102
RTVSPost2010PropOp40
 70
     1
102
RTVSPost2010Prop41ColorIndex
 90
       18
102
RTVSPost2010Prop41ColorRGB
 90
        0
102
RTVSPost2010PropOp41
 70
     1
102
RTVSPost2010Prop42
 90
       50
102
RTVSPost2010PropOp42
 70
     1
102
RTVSPost2010Prop43
 90
        3
102
RTVSPost2010PropOp43
 70
     1
102
RTVSPost2010Prop44ColorIndex
 90
        5
102
RTVSPost2010Prop44ColorRGB
 90
      255
102
RTVSPost2010PropOp44
 70
     1
102
RTVSPost2010Prop45
280
     0
102
RTVSPost2010PropOp45
 70
     1
102
RTVSPost2010Prop46
 90
       50
102
RTVSPost2010PropOp46
 70
     1
102
RTVSPost2010Prop47
 90
       50
102
RTVSPost2010PropOp47
 70
     1
102
RTVSPost2010Prop48
 90
       50
102
RTVSPost2010PropOp48
 70
     1
102
RTVSPost2010Prop49
280
     0
102
RTVSPost2010PropOp49
 70
     1
102
RTVSPost2010Prop50
 90
       50
102
RTVSPost2010PropOp50
 70
     1
102
RTVSPost2010Prop51ColorIndex
 90
      256
102
RTVSPost2010Prop51ColorRGB
 90
-16777216
102
RTVSPost2010PropOp51
 70
     0
102
RTVSPost2010Prop52
140
1.0
102
RTVSPost2010PropOp52
 70
     0
102
RTVSPost2010Prop53
 90
        2
102
RTVSPost2010PropOp53
 70
     1
102
RTVSPost2010Prop54
  1
strokes_ogs.tif
102
RTVSPost2010PropOp54
 70
     1
102
RTVSPost2010Prop55
280
     0
102
RTVSPost2010PropOp55
 70
     1
102
RTVSPost2010Prop56
140
1.0
102
RTVSPost2010PropOp56
 70
     1
102
RTVSPost2010Prop57
140
1.0
102
RTVSPost2010PropOp57
 70
     1
  0
XRECORD
  5
144
102
{ACAD_REACTORS
330
143
102
}
330
143
100
AcDbXrecord
280
     1
102
RTVSPost2010Prop28
280
     0
102
RTVSPost2010PropOp28
 70
     0
102
RTVSPost2010Prop29
280
     1
102
RTVSPost2010PropOp29
 70
     0
102
RTVSPost2010Prop30
280
     1
102
RTVSPost2010PropOp30
 70
     0
102
RTVSPost2010Prop31
280
     0
102
RTVSPost2010PropOp31
 70
     0
102
RTVSPost2010Prop32
280
     0
102
RTVSPost2010PropOp32
 70
     0
102
RTVSPost2010Prop33
280
     0
102
RTVSPost2010PropOp33
 70
     0
102
RTVSPost2010Prop34
280
     0
102
RTVSPost2010PropOp34
 70
     0
102
RTVSPost2010Prop35
280
     0
102
RTVSPost2010PropOp35
 70
     0
102
RTVSPost2010Prop36
280
     0
102
RTVSPost2010PropOp36
 70
     0
102
RTVSPost2010Prop37
 90
       50
102
RTVSPost2010PropOp37
 70
     0
102
RTVSPost2010Prop38
140
0.0
102
RTVSPost2010PropOp38
 70
     0
102
RTVSPost2010Prop39
140
1.0
102
RTVSPost2010PropOp39
 70
     0
102
RTVSPost2010Prop40
 90
        0
102
RTVSPost2010PropOp40
 70
     0
102
RTVSPost2010Prop41ColorIndex
 90
       18
102
RTVSPost2010Prop41ColorRGB
 90
        0
102
RTVSPost2010PropOp41
 70
     0
102
RTVSPost2010Prop42
 90
       50
102
RTVSPost2010PropOp42
 70
     0
102
RTVSPost2010Prop43
 90
        3
102
RTVSPost2010PropOp43
 70
     0
102
RTVSPost2010Prop44ColorIndex
 90
        5
102
RTVSPost2010Prop44ColorRGB
 90
      255
102
RTVSPost2010PropOp44
 70
     0
102
RTVSPost2010Prop45
280
     0
102
RTVSPost2010PropOp45
 70
     0
102
RTVSPost2010Prop46
 90
       50
102
RTVSPost2010PropOp46
 70
     0
102
RTVSPost2010Prop47
 90
       50
102
RTVSPost2010PropOp47
 70
     0
102
RTVSPost2010Prop48
 90
       50
102
RTVSPost2010PropOp48
 70
     0
102
RTVSPost2010Prop49
280
     0
102
RTVSPost2010PropOp49
 70
     0
102
RTVSPost2010Prop50
 90
       50
102
RTVSPost2010PropOp50
 70
     0
102
RTVSPost2010Prop51ColorIndex
 90
      256
102
RTVSPost2010Prop51ColorRGB
 90
-16777216
102
RTVSPost2010PropOp51
 70
     0
102
RTVSPost2010Prop52
140
1.0
102
RTVSPost2010PropOp52
 70
     0
102
RTVSPost2010Prop53
 90
        2
102
RTVSPost2010PropOp53
 70
     0
102
RTVSPost2010Prop54
  1
strokes_ogs.tif
102
RTVSPost2010PropOp54
 70
     0
102
RTVSPost2010Prop55
280
     0
102
RTVSPost2010PropOp55
 70
     0
102
RTVSPost2010Prop56
140
1.0
102
RTVSPost2010PropOp56
 70
     0
102
RTVSPost2010Prop57
140
1.0
102
RTVSPost2010PropOp57
 70
     0
  0
XRECORD
  5
134
102
{ACAD_REACTORS
330
133
102
}
330
133
100
AcDbXrecord
280
     1
102
RTVSPost2010Prop28
280
     0
102
RTVSPost2010PropOp28
 70
     1
102
RTVSPost2010Prop29
280
     1
102
RTVSPost2010PropOp29
 70
     1
102
RTVSPost2010Prop30
280
     1
102
RTVSPost2010PropOp30
 70
     1
102
RTVSPost2010Prop31
280
     0
102
RTVSPost2010PropOp31
 70
     1
102
RTVSPost2010Prop32
280
     0
102
RTVSPost2010PropOp32
 70
     1
102
RTVSPost2010Prop33
280
     0
102
RTVSPost2010PropOp33
 70
     1
102
RTVSPost2010Prop34
280
     0
102
RTVSPost2010PropOp34
 70
     1
102
RTVSPost2010Prop35
280
     0
102
RTVSPost2010PropOp35
 70
     1
102
RTVSPost2010Prop36
280
     0
102
RTVSPost2010PropOp36
 70
     1
102
RTVSPost2010Prop37
 90
       50
102
RTVSPost2010PropOp37
 70
     1
102
RTVSPost2010Prop38
140
0.0
102
RTVSPost2010PropOp38
 70
     1
102
RTVSPost2010Prop39
140
1.0
102
RTVSPost2010PropOp39
 70
     1
102
RTVSPost2010Prop40
 90
        0
102
RTVSPost2010PropOp40
 70
     1
102
RTVSPost2010Prop41ColorIndex
 90
       18
102
RTVSPost2010Prop41ColorRGB
 90
        0
102
RTVSPost2010PropOp41
 70
     1
102
RTVSPost2010Prop42
 90
       50
102
RTVSPost2010PropOp42
 70
     1
102
RTVSPost2010Prop43
 90
        3
102
RTVSPost2010PropOp43
 70
     1
102
RTVSPost2010Prop44ColorIndex
 90
        5
102
RTVSPost2010Prop44ColorRGB
 90
      255
102
RTVSPost2010PropOp44
 70
     1
102
RTVSPost2010Prop45
280
     0
102
RTVSPost2010PropOp45
 70
     1
102
RTVSPost2010Prop46
 90
       50
102
RTVSPost2010PropOp46
 70
     1
102
RTVSPost2010Prop47
 90
       50
102
RTVSPost2010PropOp47
 70
     1
102
RTVSPost2010Prop48
 90
       50
102
RTVSPost2010PropOp48
 70
     1
102
RTVSPost2010Prop49
280
     0
102
RTVSPost2010PropOp49
 70
     1
102
RTVSPost2010Prop50
 90
       50
102
RTVSPost2010PropOp50
 70
     1
102
RTVSPost2010Prop51ColorIndex
 90
      256
102
RTVSPost2010Prop51ColorRGB
 90
-16777216
102
RTVSPost2010PropOp51
 70
     0
102
RTVSPost2010Prop52
140
1.0
102
RTVSPost2010PropOp52
 70
     0
102
RTVSPost2010Prop53
 90
        2
102
RTVSPost2010PropOp53
 70
     1
102
RTVSPost2010Prop54
  1
strokes_ogs.tif
102
RTVSPost2010PropOp54
 70
     1
102
RTVSPost2010Prop55
280
     0
102
RTVSPost2010PropOp55
 70
     1
102
RTVSPost2010Prop56
140
1.0
102
RTVSPost2010PropOp56
 70
     1
102
RTVSPost2010Prop57
140
1.0
102
RTVSPost2010PropOp57
 70
     1
  0
XRECORD
  5
146
102
{ACAD_REACTORS
330
145
102
}
330
145
100
AcDbXrecord
280
     1
102
RTVSPost2010Prop28
280
     0
102
RTVSPost2010PropOp28
 70
     0
102
RTVSPost2010Prop29
280
     1
102
RTVSPost2010PropOp29
 70
     0
102
RTVSPost2010Prop30
280
     1
102
RTVSPost2010PropOp30
 70
     0
102
RTVSPost2010Prop31
280
     0
102
RTVSPost2010PropOp31
 70
     0
102
RTVSPost2010Prop32
280
     0
102
RTVSPost2010PropOp32
 70
     0
102
RTVSPost2010Prop33
280
     0
102
RTVSPost2010PropOp33
 70
     0
102
RTVSPost2010Prop34
280
     0
102
RTVSPost2010PropOp34
 70
     0
102
RTVSPost2010Prop35
280
     0
102
RTVSPost2010PropOp35
 70
     0
102
RTVSPost2010Prop36
280
     0
102
RTVSPost2010PropOp36
 70
     0
102
RTVSPost2010Prop37
 90
       50
102
RTVSPost2010PropOp37
 70
     0
102
RTVSPost2010Prop38
140
0.0
102
RTVSPost2010PropOp38
 70
     0
102
RTVSPost2010Prop39
140
1.0
102
RTVSPost2010PropOp39
 70
     0
102
RTVSPost2010Prop40
 90
        0
102
RTVSPost2010PropOp40
 70
     0
102
RTVSPost2010Prop41ColorIndex
 90
       18
102
RTVSPost2010Prop41ColorRGB
 90
        0
102
RTVSPost2010PropOp41
 70
     0
102
RTVSPost2010Prop42
 90
       50
102
RTVSPost2010PropOp42
 70
     0
102
RTVSPost2010Prop43
 90
        3
102
RTVSPost2010PropOp43
 70
     0
102
RTVSPost2010Prop44ColorIndex
 90
        5
102
RTVSPost2010Prop44ColorRGB
 90
      255
102
RTVSPost2010PropOp44
 70
     0
102
RTVSPost2010Prop45
280
     0
102
RTVSPost2010PropOp45
 70
     0
102
RTVSPost2010Prop46
 90
       50
102
RTVSPost2010PropOp46
 70
     0
102
RTVSPost2010Prop47
 90
       50
102
RTVSPost2010PropOp47
 70
     0
102
RTVSPost2010Prop48
 90
       50
102
RTVSPost2010PropOp48
 70
     0
102
RTVSPost2010Prop49
280
     0
102
RTVSPost2010PropOp49
 70
     0
102
RTVSPost2010Prop50
 90
       50
102
RTVSPost2010PropOp50
 70
     0
102
RTVSPost2010Prop51ColorIndex
 90
      256
102
RTVSPost2010Prop51ColorRGB
 90
-16777216
102
RTVSPost2010PropOp51
 70
     0
102
RTVSPost2010Prop52
140
1.0
102
RTVSPost2010PropOp52
 70
     0
102
RTVSPost2010Prop53
 90
        2
102
RTVSPost2010PropOp53
 70
     0
102
RTVSPost2010Prop54
  1
strokes_ogs.tif
102
RTVSPost2010PropOp54
 70
     0
102
RTVSPost2010Prop55
280
     0
102
RTVSPost2010PropOp55
 70
     0
102
RTVSPost2010Prop56
140
1.0
102
RTVSPost2010PropOp56
 70
     0
102
RTVSPost2010Prop57
140
1.0
102
RTVSPost2010PropOp57
 70
     0
  0
XRECORD
  5
12C
102
{ACAD_REACTORS
330
12B
102
}
330
12B
100
AcDbXrecord
280
     1
102
RTVSPost2010Prop28
280
     0
102
RTVSPost2010PropOp28
 70
     1
102
RTVSPost2010Prop29
280
     1
102
RTVSPost2010PropOp29
 70
     1
102
RTVSPost2010Prop30
280
     1
102
RTVSPost2010PropOp30
 70
     1
102
RTVSPost2010Prop31
280
     0
102
RTVSPost2010PropOp31
 70
     1
102
RTVSPost2010Prop32
280
     0
102
RTVSPost2010PropOp32
 70
     1
102
RTVSPost2010Prop33
280
     0
102
RTVSPost2010PropOp33
 70
     1
102
RTVSPost2010Prop34
280
     0
102
RTVSPost2010PropOp34
 70
     1
102
RTVSPost2010Prop35
280
     0
102
RTVSPost2010PropOp35
 70
     1
102
RTVSPost2010Prop36
280
     0
102
RTVSPost2010PropOp36
 70
     1
102
RTVSPost2010Prop37
 90
       50
102
RTVSPost2010PropOp37
 70
     1
102
RTVSPost2010Prop38
140
0.0
102
RTVSPost2010PropOp38
 70
     1
102
RTVSPost2010Prop39
140
1.0
102
RTVSPost2010PropOp39
 70
     1
102
RTVSPost2010Prop40
 90
        0
102
RTVSPost2010PropOp40
 70
     1
102
RTVSPost2010Prop41ColorIndex
 90
       18
102
RTVSPost2010Prop41ColorRGB
 90
        0
102
RTVSPost2010PropOp41
 70
     1
102
RTVSPost2010Prop42
 90
       50
102
RTVSPost2010PropOp42
 70
     1
102
RTVSPost2010Prop43
 90
        3
102
RTVSPost2010PropOp43
 70
     1
102
RTVSPost2010Prop44ColorIndex
 90
        5
102
RTVSPost2010Prop44ColorRGB
 90
      255
102
RTVSPost2010PropOp44
 70
     1
102
RTVSPost2010Prop45
280
     0
102
RTVSPost2010PropOp45
 70
     1
102
RTVSPost2010Prop46
 90
       50
102
RTVSPost2010PropOp46
 70
     1
102
RTVSPost2010Prop47
 90
       50
102
RTVSPost2010PropOp47
 70
     1
102
RTVSPost2010Prop48
 90
       50
102
RTVSPost2010PropOp48
 70
     1
102
RTVSPost2010Prop49
280
     0
102
RTVSPost2010PropOp49
 70
     1
102
RTVSPost2010Prop50
 90
       50
102
RTVSPost2010PropOp50
 70
     1
102
RTVSPost2010Prop51ColorIndex
 90
      256
102
RTVSPost2010Prop51ColorRGB
 90
-16777216
102
RTVSPost2010PropOp51
 70
     0
102
RTVSPost2010Prop52
140
1.0
102
RTVSPost2010PropOp52
 70
     0
102
RTVSPost2010Prop53
 90
        2
102
RTVSPost2010PropOp53
 70
     1
102
RTVSPost2010Prop54
  1
strokes_ogs.tif
102
RTVSPost2010PropOp54
 70
     1
102
RTVSPost2010Prop55
280
     0
102
RTVSPost2010PropOp55
 70
     1
102
RTVSPost2010Prop56
140
1.0
102
RTVSPost2010PropOp56
 70
     1
102
RTVSPost2010Prop57
140
1.0
102
RTVSPost2010PropOp57
 70
     1
  0
XRECORD
  5
142
102
{ACAD_REACTORS
330
141
102
}
330
141
100
AcDbXrecord
280
     1
102
RTVSPost2010Prop28
280
     0
102
RTVSPost2010PropOp28
 70
     1
102
RTVSPost2010Prop29
280
     1
102
RTVSPost2010PropOp29
 70
     1
102
RTVSPost2010Prop30
280
     1
102
RTVSPost2010PropOp30
 70
     1
102
RTVSPost2010Prop31
280
     0
102
RTVSPost2010PropOp31
 70
     1
102
RTVSPost2010Prop32
280
     0
102
RTVSPost2010PropOp32
 70
     1
102
RTVSPost2010Prop33
280
     0
102
RTVSPost2010PropOp33
 70
     1
102
RTVSPost2010Prop34
280
     0
102
RTVSPost2010PropOp34
 70
     1
102
RTVSPost2010Prop35
280
     0
102
RTVSPost2010PropOp35
 70
     1
102
RTVSPost2010Prop36
280
     0
102
RTVSPost2010PropOp36
 70
     1
102
RTVSPost2010Prop37
 90
       50
102
RTVSPost2010PropOp37
 70
     1
102
RTVSPost2010Prop38
140
0.0
102
RTVSPost2010PropOp38
 70
     1
102
RTVSPost2010Prop39
140
1.0
102
RTVSPost2010PropOp39
 70
     1
102
RTVSPost2010Prop40
 90
        0
102
RTVSPost2010PropOp40
 70
     1
102
RTVSPost2010Prop41ColorIndex
 90
       18
102
RTVSPost2010Prop41ColorRGB
 90
        0
102
RTVSPost2010PropOp41
 70
     1
102
RTVSPost2010Prop42
 90
       50
102
RTVSPost2010PropOp42
 70
     1
102
RTVSPost2010Prop43
 90
        3
102
RTVSPost2010PropOp43
 70
     1
102
RTVSPost2010Prop44ColorIndex
 90
        5
102
RTVSPost2010Prop44ColorRGB
 90
      255
102
RTVSPost2010PropOp44
 70
     1
102
RTVSPost2010Prop45
280
     0
102
RTVSPost2010PropOp45
 70
     1
102
RTVSPost2010Prop46
 90
       50
102
RTVSPost2010PropOp46
 70
     1
102
RTVSPost2010Prop47
 90
       50
102
RTVSPost2010PropOp47
 70
     1
102
RTVSPost2010Prop48
 90
       50
102
RTVSPost2010PropOp48
 70
     1
102
RTVSPost2010Prop49
280
     0
102
RTVSPost2010PropOp49
 70
     1
102
RTVSPost2010Prop50
 90
       50
102
RTVSPost2010PropOp50
 70
     1
102
RTVSPost2010Prop51ColorIndex
 90
      256
102
RTVSPost2010Prop51ColorRGB
 90
-16777216
102
RTVSPost2010PropOp51
 70
     0
102
RTVSPost2010Prop52
140
1.0
102
RTVSPost2010PropOp52
 70
     0
102
RTVSPost2010Prop53
 90
        2
102
RTVSPost2010PropOp53
 70
     1
102
RTVSPost2010Prop54
  1
strokes_ogs.tif
102
RTVSPost2010PropOp54
 70
     1
102
RTVSPost2010Prop55
280
     0
102
RTVSPost2010PropOp55
 70
     1
102
RTVSPost2010Prop56
140
1.0
102
RTVSPost2010PropOp56
 70
     1
102
RTVSPost2010Prop57
140
1.0
102
RTVSPost2010PropOp57
 70
     1
  0
XRECORD
  5
140
102
{ACAD_REACTORS
330
13F
102
}
330
13F
100
AcDbXrecord
280
     1
102
RTVSPost2010Prop28
280
     0
102
RTVSPost2010PropOp28
 70
     1
102
RTVSPost2010Prop29
280
     1
102
RTVSPost2010PropOp29
 70
     1
102
RTVSPost2010Prop30
280
     1
102
RTVSPost2010PropOp30
 70
     1
102
RTVSPost2010Prop31
280
     0
102
RTVSPost2010PropOp31
 70
     1
102
RTVSPost2010Prop32
280
     0
102
RTVSPost2010PropOp32
 70
     1
102
RTVSPost2010Prop33
280
     0
102
RTVSPost2010PropOp33
 70
     1
102
RTVSPost2010Prop34
280
     0
102
RTVSPost2010PropOp34
 70
     1
102
RTVSPost2010Prop35
280
     0
102
RTVSPost2010PropOp35
 70
     1
102
RTVSPost2010Prop36
280
     0
102
RTVSPost2010PropOp36
 70
     1
102
RTVSPost2010Prop37
 90
       50
102
RTVSPost2010PropOp37
 70
     1
102
RTVSPost2010Prop38
140
0.0
102
RTVSPost2010PropOp38
 70
     1
102
RTVSPost2010Prop39
140
1.0
102
RTVSPost2010PropOp39
 70
     1
102
RTVSPost2010Prop40
 90
        0
102
RTVSPost2010PropOp40
 70
     1
102
RTVSPost2010Prop41ColorIndex
 90
       18
102
RTVSPost2010Prop41ColorRGB
 90
        0
102
RTVSPost2010PropOp41
 70
     1
102
RTVSPost2010Prop42
 90
       50
102
RTVSPost2010PropOp42
 70
     1
102
RTVSPost2010Prop43
 90
        3
102
RTVSPost2010PropOp43
 70
     1
102
RTVSPost2010Prop44ColorIndex
 90
        5
102
RTVSPost2010Prop44ColorRGB
 90
      255
102
RTVSPost2010PropOp44
 70
     1
102
RTVSPost2010Prop45
280
     0
102
RTVSPost2010PropOp45
 70
     1
102
RTVSPost2010Prop46
 90
       50
102
RTVSPost2010PropOp46
 70
     1
102
RTVSPost2010Prop47
 90
       50
102
RTVSPost2010PropOp47
 70
     1
102
RTVSPost2010Prop48
 90
       50
102
RTVSPost2010PropOp48
 70
     1
102
RTVSPost2010Prop49
280
     0
102
RTVSPost2010PropOp49
 70
     1
102
RTVSPost2010Prop50
 90
       50
102
RTVSPost2010PropOp50
 70
     1
102
RTVSPost2010Prop51ColorIndex
 90
      256
102
RTVSPost2010Prop51ColorRGB
 90
-16777216
102
RTVSPost2010PropOp51
 70
     0
102
RTVSPost2010Prop52
140
1.0
102
RTVSPost2010PropOp52
 70
     0
102
RTVSPost2010Prop53
 90
        2
102
RTVSPost2010PropOp53
 70
     1
102
RTVSPost2010Prop54
  1
strokes_ogs.tif
102
RTVSPost2010PropOp54
 70
     1
102
RTVSPost2010Prop55
280
     0
102
RTVSPost2010PropOp55
 70
     1
102
RTVSPost2010Prop56
140
1.0
102
RTVSPost2010PropOp56
 70
     1
102
RTVSPost2010Prop57
140
1.0
102
RTVSPost2010PropOp57
 70
     1
  0
XRECORD
  5
13A
102
{ACAD_REACTORS
330
139
102
}
330
139
100
AcDbXrecord
280
     1
102
RTVSPost2010Prop28
280
     0
102
RTVSPost2010PropOp28
 70
     1
102
RTVSPost2010Prop29
280
     1
102
RTVSPost2010PropOp29
 70
     1
102
RTVSPost2010Prop30
280
     1
102
RTVSPost2010PropOp30
 70
     1
102
RTVSPost2010Prop31
280
     0
102
RTVSPost2010PropOp31
 70
     1
102
RTVSPost2010Prop32
280
     0
102
RTVSPost2010PropOp32
 70
     1
102
RTVSPost2010Prop33
280
     0
102
RTVSPost2010PropOp33
 70
     1
102
RTVSPost2010Prop34
280
     0
102
RTVSPost2010PropOp34
 70
     1
102
RTVSPost2010Prop35
280
     0
102
RTVSPost2010PropOp35
 70
     1
102
RTVSPost2010Prop36
280
     0
102
RTVSPost2010PropOp36
 70
     1
102
RTVSPost2010Prop37
 90
       50
102
RTVSPost2010PropOp37
 70
     1
102
RTVSPost2010Prop38
140
0.0
102
RTVSPost2010PropOp38
 70
     1
102
RTVSPost2010Prop39
140
1.0
102
RTVSPost2010PropOp39
 70
     1
102
RTVSPost2010Prop40
 90
        0
102
RTVSPost2010PropOp40
 70
     1
102
RTVSPost2010Prop41ColorIndex
 90
       18
102
RTVSPost2010Prop41ColorRGB
 90
        0
102
RTVSPost2010PropOp41
 70
     1
102
RTVSPost2010Prop42
 90
       50
102
RTVSPost2010PropOp42
 70
     1
102
RTVSPost2010Prop43
 90
        3
102
RTVSPost2010PropOp43
 70
     1
102
RTVSPost2010Prop44ColorIndex
 90
        5
102
RTVSPost2010Prop44ColorRGB
 90
      255
102
RTVSPost2010PropOp44
 70
     1
102
RTVSPost2010Prop45
280
     0
102
RTVSPost2010PropOp45
 70
     1
102
RTVSPost2010Prop46
 90
       50
102
RTVSPost2010PropOp46
 70
     1
102
RTVSPost2010Prop47
 90
       50
102
RTVSPost2010PropOp47
 70
     1
102
RTVSPost2010Prop48
 90
       50
102
RTVSPost2010PropOp48
 70
     1
102
RTVSPost2010Prop49
280
     0
102
RTVSPost2010PropOp49
 70
     1
102
RTVSPost2010Prop50
 90
       50
102
RTVSPost2010PropOp50
 70
     1
102
RTVSPost2010Prop51ColorIndex
 90
      256
102
RTVSPost2010Prop51ColorRGB
 90
-16777216
102
RTVSPost2010PropOp51
 70
     0
102
RTVSPost2010Prop52
140
1.0
102
RTVSPost2010PropOp52
 70
     0
102
RTVSPost2010Prop53
 90
        2
102
RTVSPost2010PropOp53
 70
     1
102
RTVSPost2010Prop54
  1
strokes_ogs.tif
102
RTVSPost2010PropOp54
 70
     1
102
RTVSPost2010Prop55
280
     0
102
RTVSPost2010PropOp55
 70
     1
102
RTVSPost2010Prop56
140
1.0
102
RTVSPost2010PropOp56
 70
     1
102
RTVSPost2010Prop57
140
1.0
102
RTVSPost2010PropOp57
 70
     1
  0
XRECORD
  5
13C
102
{ACAD_REACTORS
330
13B
102
}
330
13B
100
AcDbXrecord
280
     1
102
RTVSPost2010Prop28
280
     0
102
RTVSPost2010PropOp28
 70
     1
102
RTVSPost2010Prop29
280
     1
102
RTVSPost2010PropOp29
 70
     1
102
RTVSPost2010Prop30
280
     1
102
RTVSPost2010PropOp30
 70
     1
102
RTVSPost2010Prop31
280
     0
102
RTVSPost2010PropOp31
 70
     1
102
RTVSPost2010Prop32
280
     0
102
RTVSPost2010PropOp32
 70
     1
102
RTVSPost2010Prop33
280
     0
102
RTVSPost2010PropOp33
 70
     1
102
RTVSPost2010Prop34
280
     0
102
RTVSPost2010PropOp34
 70
     1
102
RTVSPost2010Prop35
280
     0
102
RTVSPost2010PropOp35
 70
     1
102
RTVSPost2010Prop36
280
     0
102
RTVSPost2010PropOp36
 70
     1
102
RTVSPost2010Prop37
 90
       50
102
RTVSPost2010PropOp37
 70
     1
102
RTVSPost2010Prop38
140
0.0
102
RTVSPost2010PropOp38
 70
     1
102
RTVSPost2010Prop39
140
1.0
102
RTVSPost2010PropOp39
 70
     1
102
RTVSPost2010Prop40
 90
        0
102
RTVSPost2010PropOp40
 70
     1
102
RTVSPost2010Prop41ColorIndex
 90
       18
102
RTVSPost2010Prop41ColorRGB
 90
        0
102
RTVSPost2010PropOp41
 70
     1
102
RTVSPost2010Prop42
 90
       50
102
RTVSPost2010PropOp42
 70
     1
102
RTVSPost2010Prop43
 90
        3
102
RTVSPost2010PropOp43
 70
     1
102
RTVSPost2010Prop44ColorIndex
 90
        5
102
RTVSPost2010Prop44ColorRGB
 90
      255
102
RTVSPost2010PropOp44
 70
     1
102
RTVSPost2010Prop45
280
     0
102
RTVSPost2010PropOp45
 70
     1
102
RTVSPost2010Prop46
 90
       50
102
RTVSPost2010PropOp46
 70
     1
102
RTVSPost2010Prop47
 90
       50
102
RTVSPost2010PropOp47
 70
     1
102
RTVSPost2010Prop48
 90
       50
102
RTVSPost2010PropOp48
 70
     1
102
RTVSPost2010Prop49
280
     0
102
RTVSPost2010PropOp49
 70
     1
102
RTVSPost2010Prop50
 90
       50
102
RTVSPost2010PropOp50
 70
     1
102
RTVSPost2010Prop51ColorIndex
 90
      256
102
RTVSPost2010Prop51ColorRGB
 90
-16777216
102
RTVSPost2010PropOp51
 70
     0
102
RTVSPost2010Prop52
140
1.0
102
RTVSPost2010PropOp52
 70
     0
102
RTVSPost2010Prop53
 90
        2
102
RTVSPost2010PropOp53
 70
     1
102
RTVSPost2010Prop54
  1
strokes_ogs.tif
102
RTVSPost2010PropOp54
 70
     1
102
RTVSPost2010Prop55
280
     0
102
RTVSPost2010PropOp55
 70
     1
102
RTVSPost2010Prop56
140
1.0
102
RTVSPost2010PropOp56
 70
     1
102
RTVSPost2010Prop57
140
1.0
102
RTVSPost2010PropOp57
 70
     1
  0
XRECORD
  5
132
102
{ACAD_REACTORS
330
131
102
}
330
131
100
AcDbXrecord
280
     1
102
RTVSPost2010Prop28
280
     0
102
RTVSPost2010PropOp28
 70
     1
102
RTVSPost2010Prop29
280
     1
102
RTVSPost2010PropOp29
 70
     1
102
RTVSPost2010Prop30
280
     1
102
RTVSPost2010PropOp30
 70
     1
102
RTVSPost2010Prop31
280
     0
102
RTVSPost2010PropOp31
 70
     1
102
RTVSPost2010Prop32
280
     0
102
RTVSPost2010PropOp32
 70
     1
102
RTVSPost2010Prop33
280
     0
102
RTVSPost2010PropOp33
 70
     1
102
RTVSPost2010Prop34
280
     0
102
RTVSPost2010PropOp34
 70
     1
102
RTVSPost2010Prop35
280
     0
102
RTVSPost2010PropOp35
 70
     1
102
RTVSPost2010Prop36
280
     0
102
RTVSPost2010PropOp36
 70
     1
102
RTVSPost2010Prop37
 90
       50
102
RTVSPost2010PropOp37
 70
     1
102
RTVSPost2010Prop38
140
0.0
102
RTVSPost2010PropOp38
 70
     1
102
RTVSPost2010Prop39
140
1.0
102
RTVSPost2010PropOp39
 70
     1
102
RTVSPost2010Prop40
 90
        0
102
RTVSPost2010PropOp40
 70
     1
102
RTVSPost2010Prop41ColorIndex
 90
       18
102
RTVSPost2010Prop41ColorRGB
 90
        0
102
RTVSPost2010PropOp41
 70
     1
102
RTVSPost2010Prop42
 90
       50
102
RTVSPost2010PropOp42
 70
     1
102
RTVSPost2010Prop43
 90
        3
102
RTVSPost2010PropOp43
 70
     1
102
RTVSPost2010Prop44ColorIndex
 90
        5
102
RTVSPost2010Prop44ColorRGB
 90
      255
102
RTVSPost2010PropOp44
 70
     1
102
RTVSPost2010Prop45
280
     0
102
RTVSPost2010PropOp45
 70
     1
102
RTVSPost2010Prop46
 90
       50
102
RTVSPost2010PropOp46
 70
     1
102
RTVSPost2010Prop47
 90
       50
102
RTVSPost2010PropOp47
 70
     1
102
RTVSPost2010Prop48
 90
       50
102
RTVSPost2010PropOp48
 70
     1
102
RTVSPost2010Prop49
280
     0
102
RTVSPost2010PropOp49
 70
     1
102
RTVSPost2010Prop50
 90
       50
102
RTVSPost2010PropOp50
 70
     1
102
RTVSPost2010Prop51ColorIndex
 90
      256
102
RTVSPost2010Prop51ColorRGB
 90
-16777216
102
RTVSPost2010PropOp51
 70
     0
102
RTVSPost2010Prop52
140
1.0
102
RTVSPost2010PropOp52
 70
     0
102
RTVSPost2010Prop53
 90
        2
102
RTVSPost2010PropOp53
 70
     1
102
RTVSPost2010Prop54
  1
strokes_ogs.tif
102
RTVSPost2010PropOp54
 70
     1
102
RTVSPost2010Prop55
280
     0
102
RTVSPost2010PropOp55
 70
     1
102
RTVSPost2010Prop56
140
1.0
102
RTVSPost2010PropOp56
 70
     1
102
RTVSPost2010Prop57
140
1.0
102
RTVSPost2010PropOp57
 70
     1
  0
XRECORD
  5
126
102
{ACAD_REACTORS
330
125
102
}
330
125
100
AcDbXrecord
280
     1
102
RTVSPost2010Prop28
280
     0
102
RTVSPost2010PropOp28
 70
     1
102
RTVSPost2010Prop29
280
     1
102
RTVSPost2010PropOp29
 70
     1
102
RTVSPost2010Prop30
280
     1
102
RTVSPost2010PropOp30
 70
     1
102
RTVSPost2010Prop31
280
     0
102
RTVSPost2010PropOp31
 70
     1
102
RTVSPost2010Prop32
280
     0
102
RTVSPost2010PropOp32
 70
     1
102
RTVSPost2010Prop33
280
     0
102
RTVSPost2010PropOp33
 70
     1
102
RTVSPost2010Prop34
280
     0
102
RTVSPost2010PropOp34
 70
     1
102
RTVSPost2010Prop35
280
     0
102
RTVSPost2010PropOp35
 70
     1
102
RTVSPost2010Prop36
280
     0
102
RTVSPost2010PropOp36
 70
     1
102
RTVSPost2010Prop37
 90
       50
102
RTVSPost2010PropOp37
 70
     1
102
RTVSPost2010Prop38
140
0.0
102
RTVSPost2010PropOp38
 70
     1
102
RTVSPost2010Prop39
140
1.0
102
RTVSPost2010PropOp39
 70
     1
102
RTVSPost2010Prop40
 90
        0
102
RTVSPost2010PropOp40
 70
     1
102
RTVSPost2010Prop41ColorIndex
 90
       18
102
RTVSPost2010Prop41ColorRGB
 90
        0
102
RTVSPost2010PropOp41
 70
     1
102
RTVSPost2010Prop42
 90
       50
102
RTVSPost2010PropOp42
 70
     1
102
RTVSPost2010Prop43
 90
        3
102
RTVSPost2010PropOp43
 70
     1
102
RTVSPost2010Prop44ColorIndex
 90
        5
102
RTVSPost2010Prop44ColorRGB
 90
      255
102
RTVSPost2010PropOp44
 70
     1
102
RTVSPost2010Prop45
280
     0
102
RTVSPost2010PropOp45
 70
     1
102
RTVSPost2010Prop46
 90
       50
102
RTVSPost2010PropOp46
 70
     1
102
RTVSPost2010Prop47
 90
       50
102
RTVSPost2010PropOp47
 70
     1
102
RTVSPost2010Prop48
 90
       50
102
RTVSPost2010PropOp48
 70
     1
102
RTVSPost2010Prop49
280
     0
102
RTVSPost2010PropOp49
 70
     1
102
RTVSPost2010Prop50
 90
       50
102
RTVSPost2010PropOp50
 70
     1
102
RTVSPost2010Prop51ColorIndex
 90
      256
102
RTVSPost2010Prop51ColorRGB
 90
-16777216
102
RTVSPost2010PropOp51
 70
     0
102
RTVSPost2010Prop52
140
1.0
102
RTVSPost2010PropOp52
 70
     0
102
RTVSPost2010Prop53
 90
        2
102
RTVSPost2010PropOp53
 70
     1
102
RTVSPost2010Prop54
  1
strokes_ogs.tif
102
RTVSPost2010PropOp54
 70
     1
102
RTVSPost2010Prop55
280
     0
102
RTVSPost2010PropOp55
 70
     1
102
RTVSPost2010Prop56
140
1.0
102
RTVSPost2010PropOp56
 70
     1
102
RTVSPost2010Prop57
140
1.0
102
RTVSPost2010PropOp57
 70
     1
  0
XRECORD
  5
13E
102
{ACAD_REACTORS
330
13D
102
}
330
13D
100
AcDbXrecord
280
     1
102
RTVSPost2010Prop28
280
     0
102
RTVSPost2010PropOp28
 70
     1
102
RTVSPost2010Prop29
280
     1
102
RTVSPost2010PropOp29
 70
     1
102
RTVSPost2010Prop30
280
     1
102
RTVSPost2010PropOp30
 70
     1
102
RTVSPost2010Prop31
280
     0
102
RTVSPost2010PropOp31
 70
     1
102
RTVSPost2010Prop32
280
     0
102
RTVSPost2010PropOp32
 70
     1
102
RTVSPost2010Prop33
280
     0
102
RTVSPost2010PropOp33
 70
     1
102
RTVSPost2010Prop34
280
     0
102
RTVSPost2010PropOp34
 70
     1
102
RTVSPost2010Prop35
280
     0
102
RTVSPost2010PropOp35
 70
     1
102
RTVSPost2010Prop36
280
     0
102
RTVSPost2010PropOp36
 70
     1
102
RTVSPost2010Prop37
 90
       50
102
RTVSPost2010PropOp37
 70
     1
102
RTVSPost2010Prop38
140
0.0
102
RTVSPost2010PropOp38
 70
     1
102
RTVSPost2010Prop39
140
1.0
102
RTVSPost2010PropOp39
 70
     1
102
RTVSPost2010Prop40
 90
        0
102
RTVSPost2010PropOp40
 70
     1
102
RTVSPost2010Prop41ColorIndex
 90
       18
102
RTVSPost2010Prop41ColorRGB
 90
        0
102
RTVSPost2010PropOp41
 70
     1
102
RTVSPost2010Prop42
 90
       50
102
RTVSPost2010PropOp42
 70
     1
102
RTVSPost2010Prop43
 90
        3
102
RTVSPost2010PropOp43
 70
     1
102
RTVSPost2010Prop44ColorIndex
 90
        5
102
RTVSPost2010Prop44ColorRGB
 90
      255
102
RTVSPost2010PropOp44
 70
     1
102
RTVSPost2010Prop45
280
     0
102
RTVSPost2010PropOp45
 70
     1
102
RTVSPost2010Prop46
 90
       50
102
RTVSPost2010PropOp46
 70
     1
102
RTVSPost2010Prop47
 90
       50
102
RTVSPost2010PropOp47
 70
     1
102
RTVSPost2010Prop48
 90
       50
102
RTVSPost2010PropOp48
 70
     1
102
RTVSPost2010Prop49
280
     0
102
RTVSPost2010PropOp49
 70
     1
102
RTVSPost2010Prop50
 90
       50
102
RTVSPost2010PropOp50
 70
     1
102
RTVSPost2010Prop51ColorIndex
 90
      256
102
RTVSPost2010Prop51ColorRGB
 90
-16777216
102
RTVSPost2010PropOp51
 70
     0
102
RTVSPost2010Prop52
140
1.0
102
RTVSPost2010PropOp52
 70
     0
102
RTVSPost2010Prop53
 90
        2
102
RTVSPost2010PropOp53
 70
     1
102
RTVSPost2010Prop54
  1
strokes_ogs.tif
102
RTVSPost2010PropOp54
 70
     1
102
RTVSPost2010Prop55
280
     0
102
RTVSPost2010PropOp55
 70
     1
102
RTVSPost2010Prop56
140
1.0
102
RTVSPost2010PropOp56
 70
     1
102
RTVSPost2010Prop57
140
1.0
102
RTVSPost2010PropOp57
 70
     1
  0
ENDSEC
  0
EOF
