  0
SECTION
  2
HEADER
  9
$ACADVER
  1
AC1024
  9
$ACADMAINTVER
 70
     6
  9
$DWGCODEPAGE
  3
UNDEFINED
  9
$INSBASE
 10
0.0
 20
0.0
 30
0.0
  9
$EXTMIN
 10
1.000000000000000E+20
 20
1.000000000000000E+20
 30
1.000000000000000E+20
  9
$EXTMAX
 10
-1.000000000000000E+20
 20
-1.000000000000000E+20
 30
-1.000000000000000E+20
  9
$LIMMIN
 10
0.0
 20
0.0
  9
$LIMMAX
 10
12.0
 20
9.0
  9
$ORTHOMODE
 70
     0
  9
$REGENMODE
 70
     1
  9
$FILLMODE
 70
     1
  9
$QTEXTMODE
 70
     0
  9
$MIRRTEXT
 70
     1
  9
$LTSCALE
 40
1.0
  9
$ATTMODE
 70
     1
  9
$TEXTSIZE
 40
0.2
  9
$TRACEWID
 40
0.05
  9
$TEXTSTYLE
  7
Standard
  9
$CLAYER
  8
0
  9
$CELTYPE
  6
ByLayer
  9
$CECOLOR
 62
   256
  9
$CELTSCALE
 40
1.0
  9
$DISPSILH
 70
     0
  9
$DIMSCALE
 40
1.0
  9
$DIMASZ
 40
0.18
  9
$DIMEXO
 40
0.0625
  9
$DIMDLI
 40
0.38
  9
$DIMRND
 40
0.0
  9
$DIMDLE
 40
0.0
  9
$DIMEXE
 40
0.18
  9
$DIMTP
 40
0.0
  9
$DIMTM
 40
0.0
  9
$DIMTXT
 40
0.18
  9
$DIMCEN
 40
0.09
  9
$DIMTSZ
 40
0.0
  9
$DIMTOL
 70
     0
  9
$DIMLIM
 70
     0
  9
$DIMTIH
 70
     1
  9
$DIMTOH
 70
     1
  9
$DIMSE1
 70
     0
  9
$DIMSE2
 70
     0
  9
$DIMTAD
 70
     0
  9
$DIMZIN
 70
     0
  9
$DIMBLK
  1

  9
$DIMASO
 70
     1
  9
$DIMSHO
 70
     1
  9
$DIMPOST
  1

  9
$DIMAPOST
  1

  9
$DIMALT
 70
     0
  9
$DIMALTD
 70
     2
  9
$DIMALTF
 40
25.4
  9
$DIMLFAC
 40
1.0
  9
$DIMTOFL
 70
     0
  9
$DIMTVP
 40
0.0
  9
$DIMTIX
 70
     0
  9
$DIMSOXD
 70
     0
  9
$DIMSAH
 70
     0
  9
$DIMBLK1
  1

  9
$DIMBLK2
  1

  9
$DIMSTYLE
  2
Standard
  9
$DIMCLRD
 70
     0
  9
$DIMCLRE
 70
     0
  9
$DIMCLRT
 70
     0
  9
$DIMTFAC
 40
1.0
  9
$DIMGAP
 40
0.09
  9
$DIMJUST
 70
     0
  9
$DIMSD1
 70
     0
  9
$DIMSD2
 70
     0
  9
$DIMTOLJ
 70
     1
  9
$DIMTZIN
 70
     0
  9
$DIMALTZ
 70
     0
  9
$DIMALTTZ
 70
     0
  9
$DIMUPT
 70
     0
  9
$DIMDEC
 70
     4
  9
$DIMTDEC
 70
     4
  9
$DIMALTU
 70
     2
  9
$DIMALTTD
 70
     2
  9
$DIMTXSTY
  7
Standard
  9
$DIMAUNIT
 70
     0
  9
$DIMADEC
 70
     0
  9
$DIMALTRND
 40
0.0
  9
$DIMAZIN
 70
     0
  9
$DIMDSEP
 70
    46
  9
$DIMATFIT
 70
     3
  9
$DIMFRAC
 70
     0
  9
$DIMLDRBLK
  1

  9
$DIMLUNIT
 70
     2
  9
$DIMLWD
 70
    -2
  9
$DIMLWE
 70
    -2
  9
$DIMTMOVE
 70
     0
  9
$DIMFXL
 40
1.0
  9
$DIMFXLON
 70
     0
  9
$DIMJOGANG
 40
0.7853981633974483
  9
$DIMTFILL
 70
     0
  9
$DIMTFILLCLR
 70
     0
  9
$DIMARCSYM
 70
     0
  9
$DIMLTYPE
  6

  9
$DIMLTEX1
  6

  9
$DIMLTEX2
  6

  9
$DIMTXTDIRECTION
 70
     0
  9
$LUNITS
 70
     2
  9
$LUPREC
 70
     4
  9
$SKETCHINC
 40
0.1
  9
$FILLETRAD
 40
0.5
  9
$AUNITS
 70
     0
  9
$AUPREC
 70
     0
  9
$MENU
  1
.
  9
$ELEVATION
 40
0.0
  9
$PELEVATION
 40
0.0
  9
$THICKNESS
 40
0.0
  9
$LIMCHECK
 70
     0
  9
$CHAMFERA
 40
0.5
  9
$CHAMFERB
 40
0.5
  9
$CHAMFERC
 40
1.0
  9
$CHAMFERD
 40
0.0
  9
$SKPOLY
 70
     0
  9
$TDCREATE
 40
2457917.601145822
  9
$TDUCREATE
 40
2457917.226145833
  9
$TDUPDATE
 40
2457917.601145822
  9
$TDUUPDATE
 40
2457917.226145833
  9
$TDINDWG
 40
0.0000000116
  9
$TDUSRTIMER
 40
0.0000000116
  9
$USRTIMER
 70
     1
  9
$ANGBASE
 50
0.0
  9
$ANGDIR
 70
     0
  9
$PDMODE
 70
     0
  9
$PDSIZE
 40
0.0
  9
$PLINEWID
 40
0.0
  9
$SPLFRAME
 70
     0
  9
$SPLINETYPE
 70
     6
  9
$SPLINESEGS
 70
     8
  9
$HANDSEED
  5
112
  9
$SURFTAB1
 70
     6
  9
$SURFTAB2
 70
     6
  9
$SURFTYPE
 70
     6
  9
$SURFU
 70
     6
  9
$SURFV
 70
     6
  9
$UCSBASE
  2

  9
$UCSNAME
  2

  9
$UCSORG
 10
0.0
 20
0.0
 30
0.0
  9
$UCSXDIR
 10
1.0
 20
0.0
 30
0.0
  9
$UCSYDIR
 10
0.0
 20
1.0
 30
0.0
  9
$UCSORTHOREF
  2

  9
$UCSORTHOVIEW
 70
     0
  9
$UCSORGTOP
 10
0.0
 20
0.0
 30
0.0
  9
$UCSORGBOTTOM
 10
0.0
 20
0.0
 30
0.0
  9
$UCSORGLEFT
 10
0.0
 20
0.0
 30
0.0
  9
$UCSORGRIGHT
 10
0.0
 20
0.0
 30
0.0
  9
$UCSORGFRONT
 10
0.0
 20
0.0
 30
0.0
  9
$UCSORGBACK
 10
0.0
 20
0.0
 30
0.0
  9
$PUCSBASE
  2

  9
$PUCSNAME
  2

  9
$PUCSORG
 10
0.0
 20
0.0
 30
0.0
  9
$PUCSXDIR
 10
1.0
 20
0.0
 30
0.0
  9
$PUCSYDIR
 10
0.0
 20
1.0
 30
0.0
  9
$PUCSORTHOREF
  2

  9
$PUCSORTHOVIEW
 70
     0
  9
$PUCSORGTOP
 10
0.0
 20
0.0
 30
0.0
  9
$PUCSORGBOTTOM
 10
0.0
 20
0.0
 30
0.0
  9
$PUCSORGLEFT
 10
0.0
 20
0.0
 30
0.0
  9
$PUCSORGRIGHT
 10
0.0
 20
0.0
 30
0.0
  9
$PUCSORGFRONT
 10
0.0
 20
0.0
 30
0.0
  9
$PUCSORGBACK
 10
0.0
 20
0.0
 30
0.0
  9
$USERI1
 70
     0
  9
$USERI2
 70
     0
  9
$USERI3
 70
     0
  9
$USERI4
 70
     0
  9
$USERI5
 70
     0
  9
$USERR1
 40
0.0
  9
$USERR2
 40
0.0
  9
$USERR3
 40
0.0
  9
$USERR4
 40
0.0
  9
$USERR5
 40
0.0
  9
$WORLDVIEW
 70
     1
  9
$SHADEDGE
 70
     3
  9
$SHADEDIF
 70
    70
  9
$TILEMODE
 70
     1
  9
$MAXACTVP
 70
    64
  9
$PINSBASE
 10
0.0
 20
0.0
 30
0.0
  9
$PLIMCHECK
 70
     0
  9
$PEXTMIN
 10
1.000000000000000E+20
 20
1.000000000000000E+20
 30
1.000000000000000E+20
  9
$PEXTMAX
 10
-1.000000000000000E+20
 20
-1.000000000000000E+20
 30
-1.000000000000000E+20
  9
$PLIMMIN
 10
0.0
 20
0.0
  9
$PLIMMAX
 10
12.0
 20
9.0
  9
$UNITMODE
 70
     0
  9
$VISRETAIN
 70
     1
  9
$PLINEGEN
 70
     0
  9
$PSLTSCALE
 70
     1
  9
$TREEDEPTH
 70
  3020
  9
$CMLSTYLE
  2
Standard
  9
$CMLJUST
 70
     0
  9
$CMLSCALE
 40
1.0
  9
$PROXYGRAPHICS
 70
     1
  9
$MEASUREMENT
 70
     0
  9
$CELWEIGHT
370
    -1
  9
$ENDCAPS
280
     0
  9
$JOINSTYLE
280
     0
  9
$LWDISPLAY
290
     1
  9
$INSUNITS
 70
     1
  9
$HYPERLINKBASE
  1

  9
$STYLESHEET
  1

  9
$XEDIT
290
     1
  9
$CEPSNTYPE
380
     0
  9
$PSTYLEMODE
290
     1
  9
$FINGERPRINTGUID
  2
{60203332-AD18-48AE-21AA-F947743BD9AE}
  9
$VERSIONGUID
  2
{FAEB1C32-E019-11D5-929B-00C0DF256EC4}
  9
$EXTNAMES
290
     1
  9
$PSVPSCALE
 40
0.0
  9
$OLESTARTUP
290
     0
  9
$SORTENTS
280
   127
  9
$INDEXCTL
280
     0
  9
$HIDETEXT
280
     1
  9
$XCLIPFRAME
280
     2
  9
$HALOGAP
280
     0
  9
$OBSCOLOR
 70
   257
  9
$OBSLTYPE
280
     0
  9
$INTERSECTIONDISPLAY
280
     0
  9
$INTERSECTIONCOLOR
 70
   257
  9
$DIMASSOC
280
     2
  9
$PROJECTNAME
  1

  9
$CAMERADISPLAY
290
     0
  9
$LENSLENGTH
 40
50.0
  9
$CAMERAHEIGHT
 40
0.0
  9
$STEPSPERSEC
 40
2.0
  9
$STEPSIZE
 40
6.0
  9
$3DDWFPREC
 40
2.0
  9
$PSOLWIDTH
 40
0.25
  9
$PSOLHEIGHT
 40
4.0
  9
$LOFTANG1
 40
1.570796326794897
  9
$LOFTANG2
 40
1.570796326794897
  9
$LOFTMAG1
 40
0.0
  9
$LOFTMAG2
 40
0.0
  9
$LOFTPARAM
 70
     7
  9
$LOFTNORMALS
280
     1
  9
$LATITUDE
 40
37.795
  9
$LONGITUDE
 40
-122.394
  9
$NORTHDIRECTION
 40
0.0
  9
$TIMEZONE
 70
 -8000
  9
$LIGHTGLYPHDISPLAY
280
     1
  9
$TILEMODELIGHTSYNCH
280
     1
  9
$CMATERIAL
347
3C
  9
$SOLIDHIST
280
     1
  9
$SHOWHIST
280
     1
  9
$DWFFRAME
280
     2
  9
$DGNFRAME
280
     2
  9
$REALWORLDSCALE
290
     1
  9
$INTERFERECOLOR
 62
   256
  9
$CSHADOW
280
     0
  9
$SHADOWPLANELOCATION
 40
0.0
  0
ENDSEC
  0
SECTION
  2
CLASSES
  0
CLASS
  1
ACDBDICTIONARYWDFLT
  2
AcDbDictionaryWithDefault
  3
ObjectDBX Classes
 90
        0
 91
        4
280
     0
281
     0
  0
CLASS
  1
VISUALSTYLE
  2
AcDbVisualStyle
  3
ObjectDBX Classes
 90
     4095
 91
        4
280
     0
281
     0
  0
CLASS
  1
MATERIAL
  2
AcDbMaterial
  3
ObjectDBX Classes
 90
     1153
 91
        4
280
     0
281
     0
  0
CLASS
  1
SUN
  2
AcDbSun
  3
SCENEOE
 90
     1024
 91
        4
280
     0
281
     0
  0
ENDSEC
  0
SECTION
  2
TABLES
  0
TABLE
  2
VPORT
  5
8
330
0
100
AcDbSymbolTable
 70
     1
  0
VPORT
  5
29
330
8
100
AcDbSymbolTableRecord
100
AcDbViewportTableRecord
  2
*Active
 70
     0
 10
0.0
 20
0.0
 11
1.0
 21
1.0
 12
0.0
 22
0.0
 13
0.0
 23
0.0
 14
0.5
 24
0.5
 15
0.5
 25
0.5
 16
0.0
 26
0.0
 36
1.0
 17
91.00082462281999
 27
-128.4993055234307
 37
0.0
 40
256.9986110468615
 41
0.7081814508812795
 42
50.0
 43
0.0
 44
0.0
 50
0.0
 51
0.0
 71
     0
 72
   100
 73
     1
 74
     3
 75
     0
 76
     0
 77
     0
 78
     0
281
     0
 65
     1
110
0.0
120
0.0
130
0.0
111
1.0
121
0.0
131
0.0
112
0.0
122
1.0
132
0.0
 79
     0
146
0.0
 60
     3
 61
     5
292
     1
282
     1
141
0.0
142
0.0
 63
   250
361
3F
  0
ENDTAB
  0
TABLE
  2
LTYPE
  5
5
330
0
100
AcDbSymbolTable
 70
     1
  0
LTYPE
  5
14
330
5
100
AcDbSymbolTableRecord
100
AcDbLinetypeTableRecord
  2
ByBlock
 70
     0
  3

 72
    65
 73
     0
 40
0.0
  0
LTYPE
  5
15
330
5
100
AcDbSymbolTableRecord
100
AcDbLinetypeTableRecord
  2
ByLayer
 70
     0
  3

 72
    65
 73
     0
 40
0.0
  0
LTYPE
  5
16
330
5
100
AcDbSymbolTableRecord
100
AcDbLinetypeTableRecord
  2
Continuous
 70
     0
  3
Solid line
 72
    65
 73
     0
 40
0.0
  0
ENDTAB
  0
TABLE
  2
LAYER
  5
2
330
0
100
AcDbSymbolTable
 70
     2
  0
LAYER
  5
10
330
2
100
AcDbSymbolTableRecord
100
AcDbLayerTableRecord
  2
0
 70
     0
 62
     7
  6
Continuous
370
    -3
390
F
347
3E
  0
LAYER
  5
40
330
2
100
AcDbSymbolTableRecord
100
AcDbLayerTableRecord
  2
_U+30EC_U+30A4_U+30E4_U+30FC 1
 70
     0
 62
     7
  6
Continuous
370
    -3
390
F
347
3E
  0
ENDTAB
  0
TABLE
  2
STYLE
  5
3
330
0
100
AcDbSymbolTable
 70
     1
  0
STYLE
  5
11
330
3
100
AcDbSymbolTableRecord
100
AcDbTextStyleTableRecord
  2
Standard
 70
     0
 40
0.0
 41
1.0
 50
0.0
 71
     0
 42
0.2
  3
txt
  4

  0
ENDTAB
  0
TABLE
  2
VIEW
  5
6
330
0
100
AcDbSymbolTable
 70
     0
  0
ENDTAB
  0
TABLE
  2
UCS
  5
7
330
0
100
AcDbSymbolTable
 70
     0
  0
ENDTAB
  0
TABLE
  2
APPID
  5
9
330
0
100
AcDbSymbolTable
 70
     1
  0
APPID
  5
12
330
9
100
AcDbSymbolTableRecord
100
AcDbRegAppTableRecord
  2
ACAD
 70
     0
  0
ENDTAB
  0
TABLE
  2
DIMSTYLE
  5
A
330
0
100
AcDbSymbolTable
 70
     1
100
AcDbDimStyleTable
  0
DIMSTYLE
105
27
330
A
100
AcDbSymbolTableRecord
100
AcDbDimStyleTableRecord
  2
Standard
 70
     0
178
     0
340
11
  0
ENDTAB
  0
TABLE
  2
BLOCK_RECORD
  5
1
330
0
100
AcDbSymbolTable
 70
     9
  0
BLOCK_RECORD
  5
1F
330
1
100
AcDbSymbolTableRecord
100
AcDbBlockTableRecord
  2
*Model_Space
340
22
 70
     0
280
     1
281
     0
  0
BLOCK_RECORD
  5
1B
330
1
100
AcDbSymbolTableRecord
100
AcDbBlockTableRecord
  2
*Paper_Space
340
1E
 70
     0
280
     1
281
     0
  0
BLOCK_RECORD
  5
23
330
1
100
AcDbSymbolTableRecord
100
AcDbBlockTableRecord
  2
*Paper_Space0
340
26
 70
     0
280
     1
281
     0
  0
BLOCK_RECORD
  5
4D
330
1
100
AcDbSymbolTableRecord
100
AcDbBlockTableRecord
  2
block 2
340
0
102
{BLKREFS
331
4E
102
}
 70
     0
280
     1
281
     0
  0
BLOCK_RECORD
  5
69
330
1
100
AcDbSymbolTableRecord
100
AcDbBlockTableRecord
  2
block 3
340
0
102
{BLKREFS
331
6A
102
}
 70
     0
280
     1
281
     0
  0
BLOCK_RECORD
  5
9B
330
1
100
AcDbSymbolTableRecord
100
AcDbBlockTableRecord
  2
block 4
340
0
102
{BLKREFS
331
9C
102
}
 70
     0
280
     1
281
     0
  0
BLOCK_RECORD
  5
AB
330
1
100
AcDbSymbolTableRecord
100
AcDbBlockTableRecord
  2
block 5
340
0
102
{BLKREFS
331
AC
102
}
 70
     0
280
     1
281
     0
  0
BLOCK_RECORD
  5
B1
330
1
100
AcDbSymbolTableRecord
100
AcDbBlockTableRecord
  2
block 6
340
0
102
{BLKREFS
331
B2
102
}
 70
     0
280
     1
281
     0
  0
BLOCK_RECORD
  5
C2
330
1
100
AcDbSymbolTableRecord
100
AcDbBlockTableRecord
  2
block 7
340
0
102
{BLKREFS
331
C3
102
}
 70
     0
280
     1
281
     0
  0
BLOCK_RECORD
  5
CC
330
1
100
AcDbSymbolTableRecord
100
AcDbBlockTableRecord
  2
block 8
340
0
102
{BLKREFS
331
CD
102
}
 70
     0
280
     1
281
     0
  0
BLOCK_RECORD
  5
EC
330
1
100
AcDbSymbolTableRecord
100
AcDbBlockTableRecord
  2
block 9
340
0
102
{BLKREFS
331
ED
102
}
 70
     0
280
     1
281
     0
  0
ENDTAB
  0
ENDSEC
  0
SECTION
  2
BLOCKS
  0
BLOCK
  5
20
330
1F
100
AcDbEntity
  8
0
100
AcDbBlockBegin
  2
*Model_Space
 70
     0
 10
0.0
 20
0.0
 30
0.0
  3
*Model_Space
  1

  0
ENDBLK
  5
21
330
1F
100
AcDbEntity
  8
0
100
AcDbBlockEnd
  0
BLOCK
  5
1C
330
1B
100
AcDbEntity
 67
     1
  8
0
100
AcDbBlockBegin
  2
*Paper_Space
 70
     0
 10
0.0
 20
0.0
 30
0.0
  3
*Paper_Space
  1

  0
ENDBLK
  5
1D
330
1B
100
AcDbEntity
 67
     1
  8
0
100
AcDbBlockEnd
  0
BLOCK
  5
24
330
23
100
AcDbEntity
  8
0
100
AcDbBlockBegin
  2
*Paper_Space0
 70
     0
 10
0.0
 20
0.0
 30
0.0
  3
*Paper_Space0
  1

  0
ENDBLK
  5
25
330
23
100
AcDbEntity
  8
0
100
AcDbBlockEnd
  0
BLOCK
  5
4F
330
4D
100
AcDbEntity
  8
0
100
AcDbBlockBegin
  2
block 2
 70
     0
 10
0.0
 20
0.0
 30
0.0
  3
block 2
  1

  0
POLYLINE
  5
51
330
4D
100
AcDbEntity
  8
_U+30EC_U+30A4_U+30E4_U+30FC 1
370
     0
100
AcDb2dPolyline
 66
     1
 10
0.0
 20
0.0
 30
0.0
  0
VERTEX
  5
52
330
51
100
AcDbEntity
  8
_U+30EC_U+30A4_U+30E4_U+30FC 1
370
     0
100
AcDbVertex
100
AcDb2dVertex
 10
91.45419377053923
 20
-116.3736029439969
 30
0.0
  0
VERTEX
  5
53
330
51
100
AcDbEntity
  8
_U+30EC_U+30A4_U+30E4_U+30FC 1
370
     0
100
AcDbVertex
100
AcDb2dVertex
 10
91.45419377053923
 20
-116.7205240593615
 30
0.0
  0
VERTEX
  5
54
330
51
100
AcDbEntity
  8
_U+30EC_U+30A4_U+30E4_U+30FC 1
370
     0
100
AcDbVertex
100
AcDb2dVertex
 10
91.22164982528487
 20
-116.7205240593615
 30
0.0
  0
VERTEX
  5
55
330
51
100
AcDbEntity
  8
_U+30EC_U+30A4_U+30E4_U+30FC 1
370
     0
100
AcDbVertex
100
AcDb2dVertex
 10
91.22164982528487
 20
-116.3736029439969
 30
0.0
  0
VERTEX
  5
56
330
51
100
AcDbEntity
  8
_U+30EC_U+30A4_U+30E4_U+30FC 1
370
     0
100
AcDbVertex
100
AcDb2dVertex
 10
90.52074514881079
 20
-116.3736029439969
 30
0.0
  0
VERTEX
  5
57
330
51
100
AcDbEntity
  8
_U+30EC_U+30A4_U+30E4_U+30FC 1
370
     0
100
AcDbVertex
100
AcDb2dVertex
 10
90.52074514881079
 20
-116.1493272279071
 30
0.0
  0
VERTEX
  5
58
330
51
100
AcDbEntity
  8
_U+30EC_U+30A4_U+30E4_U+30FC 1
370
     0
100
AcDbVertex
100
AcDb2dVertex
 10
91.24645451277867
 20
-115.176087753324
 30
0.0
  0
VERTEX
  5
59
330
51
100
AcDbEntity
  8
_U+30EC_U+30A4_U+30E4_U+30FC 1
370
     0
100
AcDbVertex
100
AcDb2dVertex
 10
91.45419377053923
 20
-115.176087753324
 30
0.0
  0
VERTEX
  5
5A
330
51
100
AcDbEntity
  8
_U+30EC_U+30A4_U+30E4_U+30FC 1
370
     0
100
AcDbVertex
100
AcDb2dVertex
 10
91.45419377053923
 20
-116.174820934498
 30
0.0
  0
VERTEX
  5
5B
330
51
100
AcDbEntity
  8
_U+30EC_U+30A4_U+30E4_U+30FC 1
370
     0
100
AcDbVertex
100
AcDb2dVertex
 10
91.67605791978933
 20
-116.174820934498
 30
0.0
  0
VERTEX
  5
5C
330
51
100
AcDbEntity
  8
_U+30EC_U+30A4_U+30E4_U+30FC 1
370
     0
100
AcDbVertex
100
AcDb2dVertex
 10
91.67605791978933
 20
-116.3736029439969
 30
0.0
  0
VERTEX
  5
5D
330
51
100
AcDbEntity
  8
_U+30EC_U+30A4_U+30E4_U+30FC 1
370
     0
100
AcDbVertex
100
AcDb2dVertex
 10
91.45419377053923
 20
-116.3736029439969
 30
0.0
  0
SEQEND
  5
5E
330
51
100
AcDbEntity
  8
_U+30EC_U+30A4_U+30E4_U+30FC 1
370
     0
  0
POLYLINE
  5
5F
330
4D
100
AcDbEntity
  8
_U+30EC_U+30A4_U+30E4_U+30FC 1
370
     0
100
AcDb2dPolyline
 66
     1
 10
0.0
 20
0.0
 30
0.0
  0
VERTEX
  5
60
330
5F
100
AcDbEntity
  8
_U+30EC_U+30A4_U+30E4_U+30FC 1
370
     0
100
AcDbVertex
100
AcDb2dVertex
 10
91.22164982528487
 20
-115.5188747541064
 30
0.0
  0
VERTEX
  5
61
330
5F
100
AcDbEntity
  8
_U+30EC_U+30A4_U+30E4_U+30FC 1
370
     0
100
AcDbVertex
100
AcDb2dVertex
 10
90.73313528547644
 20
-116.174820934498
 30
0.0
  0
VERTEX
  5
62
330
5F
100
AcDbEntity
  8
_U+30EC_U+30A4_U+30E4_U+30FC 1
370
     0
100
AcDbVertex
100
AcDb2dVertex
 10
91.22164982528487
 20
-116.174820934498
 30
0.0
  0
VERTEX
  5
63
330
5F
100
AcDbEntity
  8
_U+30EC_U+30A4_U+30E4_U+30FC 1
370
     0
100
AcDbVertex
100
AcDb2dVertex
 10
91.22164982528487
 20
-115.5188747541064
 30
0.0
  0
SEQEND
  5
64
330
5F
100
AcDbEntity
  8
_U+30EC_U+30A4_U+30E4_U+30FC 1
370
     0
  0
HATCH
  5
65
330
4D
100
AcDbEntity
  8
_U+30EC_U+30A4_U+30E4_U+30FC 1
 62
   179
420
  2234388
100
AcDbHatch
 10
0.0
 20
0.0
 30
0.0
210
0.0
220
0.0
230
1.0
  2
SOLID
 70
     1
 71
     0
 91
        2
 92
        1
 93
       11
 72
     1
 10
91.45419377053923
 20
-116.3736029439969
 11
91.45419377053923
 21
-116.7205240593615
 72
     1
 10
91.45419377053923
 20
-116.7205240593615
 11
91.22164982528487
 21
-116.7205240593615
 72
     1
 10
91.22164982528487
 20
-116.7205240593615
 11
91.22164982528487
 21
-116.3736029439969
 72
     1
 10
91.22164982528487
 20
-116.3736029439969
 11
90.52074514881079
 21
-116.3736029439969
 72
     1
 10
90.52074514881079
 20
-116.3736029439969
 11
90.52074514881079
 21
-116.1493272279071
 72
     1
 10
90.52074514881079
 20
-116.1493272279071
 11
91.24645451277867
 21
-115.176087753324
 72
     1
 10
91.24645451277867
 20
-115.176087753324
 11
91.45419377053923
 21
-115.176087753324
 72
     1
 10
91.45419377053923
 20
-115.176087753324
 11
91.45419377053923
 21
-116.174820934498
 72
     1
 10
91.45419377053923
 20
-116.174820934498
 11
91.67605791978933
 21
-116.174820934498
 72
     1
 10
91.67605791978933
 20
-116.174820934498
 11
91.67605791978933
 21
-116.3736029439969
 72
     1
 10
91.67605791978933
 20
-116.3736029439969
 11
91.45419377053923
 21
-116.3736029439969
 97
        0
 92
        1
 93
        3
 72
     1
 10
91.22164982528487
 20
-115.5188747541064
 11
90.73313528547644
 21
-116.174820934498
 72
     1
 10
90.73313528547644
 20
-116.174820934498
 11
91.22164982528487
 21
-116.174820934498
 72
     1
 10
91.22164982528487
 20
-116.174820934498
 11
91.22164982528487
 21
-115.5188747541064
 97
        0
 75
     2
 76
     1
 98
        0
  0
SPLINE
  5
66
330
4D
100
AcDbEntity
  8
_U+30EC_U+30A4_U+30E4_U+30FC 1
370
     0
100
AcDbSpline
210
0.0
220
0.0
230
1.0
 70
    11
 71
     3
 72
    29
 73
    25
 74
     0
 42
0.0000000001
 43
0.0000000001
 12
1.0
 22
0.0
 32
0.0
 13
1.0
 23
0.0
 33
0.0
 40
0.0
 40
0.0
 40
0.0
 40
0.0
 40
1.0
 40
1.0
 40
1.0
 40
2.0
 40
2.0
 40
2.0
 40
3.0
 40
3.0
 40
3.0
 40
4.0
 40
4.0
 40
4.0
 40
5.0
 40
5.0
 40
5.0
 40
6.0
 40
6.0
 40
6.0
 40
7.0
 40
7.0
 40
7.0
 40
8.0
 40
8.0
 40
8.0
 40
8.0
 10
92.78227808010304
 20
-116.5427571323226
 30
0.0
 10
92.66686738134717
 20
-116.7522189378258
 30
0.0
 10
92.48152124424074
 20
-116.7711669629947
 30
0.0
 10
92.35749780677175
 20
-116.7711669629947
 30
0.0
 10
92.18524303250925
 20
-116.7711669629947
 30
0.0
 10
92.03400334070678
 20
-116.7246581739438
 30
0.0
 10
91.93237302389191
 20
-116.5427571323226
 30
0.0
 10
91.82144094926687
 20
-116.348109237406
 30
0.0
 10
91.80111488590389
 20
-116.1110866680208
 30
0.0
 10
91.80111488590389
 20
-115.9484781611171
 30
0.0
 10
91.80111488590389
 20
-115.8044731698336
 30
0.0
 10
91.81937389197572
 20
-115.5526366898618
 30
0.0
 10
91.93237302389191
 20
-115.3538546803629
 30
0.0
 10
92.04743921309925
 20
-115.1509385562817
 30
0.0
 10
92.21934947781322
 20
-115.127511906982
 30
0.0
 10
92.35749780677175
 20
-115.127511906982
 30
0.0
 10
92.52699650464604
 20
-115.127511906982
 30
0.0
 10
92.68064776328818
 20
-115.1719536387417
 30
0.0
 10
92.78227808010304
 20
-115.3538546803629
 30
0.0
 10
92.88873153059727
 20
-115.5464355179884
 30
0.0
 10
92.91353621809107
 20
-115.7748453486605
 30
0.0
 10
92.91353621809107
 20
-115.9484781611171
 30
0.0
 10
92.91353621809107
 20
-116.119699406734
 30
0.0
 10
92.89079858788841
 20
-116.3501762946972
 30
0.0
 10
92.78227808010304
 20
-116.5427571323226
 30
0.0
  0
SPLINE
  5
67
330
4D
100
AcDbEntity
  8
_U+30EC_U+30A4_U+30E4_U+30FC 1
370
     0
100
AcDbSpline
210
0.0
220
0.0
230
1.0
 70
    11
 71
     3
 72
    17
 73
    13
 74
     0
 42
0.0000000001
 43
0.0000000001
 12
1.0
 22
0.0
 32
0.0
 13
1.0
 23
0.0
 33
0.0
 40
0.0
 40
0.0
 40
0.0
 40
0.0
 40
1.0
 40
1.0
 40
1.0
 40
2.0
 40
2.0
 40
2.0
 40
3.0
 40
3.0
 40
3.0
 40
4.0
 40
4.0
 40
4.0
 40
4.0
 10
92.35749780677175
 20
-115.3200927446075
 30
0.0
 10
92.09050290666488
 20
-115.3200927446075
 30
0.0
 10
92.04054902212876
 20
-115.6036241030435
 30
0.0
 10
92.04054902212876
 20
-115.9484781611171
 30
0.0
 10
92.04054902212876
 20
-116.2678385125997
 30
0.0
 10
92.07913409156356
 20
-116.5765190680781
 30
0.0
 10
92.35749780677175
 20
-116.5765190680781
 30
0.0
 10
92.6217366304904
 20
-116.5765190680781
 30
0.0
 10
92.67375757231767
 20
-116.2953992764817
 30
0.0
 10
92.67375757231767
 20
-115.9484781611171
 30
0.0
 10
92.67375757231767
 20
-115.6287733000859
 30
0.0
 10
92.63310544559172
 20
-115.3200927446075
 30
0.0
 10
92.35749780677175
 20
-115.3200927446075
 30
0.0
  0
HATCH
  5
68
330
4D
100
AcDbEntity
  8
_U+30EC_U+30A4_U+30E4_U+30FC 1
 62
   179
420
  2234388
100
AcDbHatch
 10
0.0
 20
0.0
 30
0.0
210
0.0
220
0.0
230
1.0
  2
SOLID
 70
     1
 71
     0
 91
        2
 92
        1
 93
        1
 72
     4
 94
        3
 73
     0
 74
     1
 95
       29
 96
       25
 40
0.0
 40
0.0
 40
0.0
 40
0.0
 40
1.0
 40
1.0
 40
1.0
 40
2.0
 40
2.0
 40
2.0
 40
3.0
 40
3.0
 40
3.0
 40
4.0
 40
4.0
 40
4.0
 40
5.0
 40
5.0
 40
5.0
 40
6.0
 40
6.0
 40
6.0
 40
7.0
 40
7.0
 40
7.0
 40
8.0
 40
8.0
 40
8.0
 40
8.0
 10
92.78227808010304
 20
-116.5427571323226
 10
92.66686738134717
 20
-116.7522189378258
 10
92.48152124424074
 20
-116.7711669629947
 10
92.35749780677175
 20
-116.7711669629947
 10
92.18524303250925
 20
-116.7711669629947
 10
92.03400334070678
 20
-116.7246581739438
 10
91.93237302389191
 20
-116.5427571323226
 10
91.82144094926687
 20
-116.348109237406
 10
91.80111488590389
 20
-116.1110866680208
 10
91.80111488590389
 20
-115.9484781611171
 10
91.80111488590389
 20
-115.8044731698336
 10
91.81937389197572
 20
-115.5526366898618
 10
91.93237302389191
 20
-115.3538546803629
 10
92.04743921309925
 20
-115.1509385562817
 10
92.21934947781322
 20
-115.127511906982
 10
92.35749780677175
 20
-115.127511906982
 10
92.52699650464604
 20
-115.127511906982
 10
92.68064776328818
 20
-115.1719536387417
 10
92.78227808010304
 20
-115.3538546803629
 10
92.88873153059727
 20
-115.5464355179884
 10
92.91353621809107
 20
-115.7748453486605
 10
92.91353621809107
 20
-115.9484781611171
 10
92.91353621809107
 20
-116.119699406734
 10
92.89079858788841
 20
-116.3501762946972
 10
92.78227808010304
 20
-116.5427571323226
 97
        0
 97
        0
 92
        1
 93
        1
 72
     4
 94
        3
 73
     0
 74
     1
 95
       17
 96
       13
 40
0.0
 40
0.0
 40
0.0
 40
0.0
 40
1.0
 40
1.0
 40
1.0
 40
2.0
 40
2.0
 40
2.0
 40
3.0
 40
3.0
 40
3.0
 40
4.0
 40
4.0
 40
4.0
 40
4.0
 10
92.35749780677175
 20
-115.3200927446075
 10
92.09050290666488
 20
-115.3200927446075
 10
92.04054902212876
 20
-115.6036241030435
 10
92.04054902212876
 20
-115.9484781611171
 10
92.04054902212876
 20
-116.2678385125997
 10
92.07913409156356
 20
-116.5765190680781
 10
92.35749780677175
 20
-116.5765190680781
 10
92.6217366304904
 20
-116.5765190680781
 10
92.67375757231767
 20
-116.2953992764817
 10
92.67375757231767
 20
-115.9484781611171
 10
92.67375757231767
 20
-115.6287733000859
 10
92.63310544559172
 20
-115.3200927446075
 10
92.35749780677175
 20
-115.3200927446075
 97
        0
 97
        0
 75
     2
 76
     1
 98
        0
  0
ENDBLK
  5
50
330
4D
100
AcDbEntity
  8
0
100
AcDbBlockEnd
  0
BLOCK
  5
6B
330
69
100
AcDbEntity
  8
0
100
AcDbBlockBegin
  2
block 3
 70
     0
 10
0.0
 20
0.0
 30
0.0
  3
block 3
  1

  0
SPLINE
  5
6D
330
69
100
AcDbEntity
  8
_U+30EC_U+30A4_U+30E4_U+30FC 1
370
     0
100
AcDbSpline
210
0.0
220
0.0
230
1.0
 70
    11
 71
     3
 72
    26
 73
    22
 74
     0
 42
0.0000000001
 43
0.0000000001
 12
1.0
 22
0.0
 32
0.0
 13
1.0
 23
0.0
 33
0.0
 40
0.0
 40
0.0
 40
0.0
 40
0.0
 40
1.0
 40
1.0
 40
1.0
 40
2.0
 40
2.0
 40
2.0
 40
3.0
 40
3.0
 40
3.0
 40
4.0
 40
4.0
 40
4.0
 40
5.0
 40
5.0
 40
5.0
 40
6.0
 40
6.0
 40
6.0
 40
7.0
 40
7.0
 40
7.0
 40
7.0
 10
75.70166691900862
 20
-143.747642650695
 30
0.0
 10
75.70166691900862
 20
-143.747642650695
 30
0.0
 10
75.70166691900862
 20
-142.6434895476725
 30
0.0
 10
75.70166691900862
 20
-142.6434895476725
 30
0.0
 10
75.70166691900862
 20
-142.6434895476725
 30
0.0
 10
75.34888914131903
 20
-142.6434895476725
 30
0.0
 10
75.34888914131903
 20
-142.6434895476725
 30
0.0
 10
75.34888914131903
 20
-142.6434895476725
 30
0.0
 10
75.34888914131903
 20
-142.4953504418067
 30
0.0
 10
75.34888914131903
 20
-142.4953504418067
 30
0.0
 10
75.70390623107403
 20
-142.4805365312201
 30
0.0
 10
75.75368786083588
 20
-142.3175835147678
 30
0.0
 10
75.78521048452592
 20
-142.2032063446575
 30
0.0
 10
75.78521048452592
 20
-142.2032063446575
 30
0.0
 10
75.94127331000774
 20
-142.2032063446575
 30
0.0
 10
75.94127331000774
 20
-142.2032063446575
 30
0.0
 10
75.94127331000774
 20
-142.2032063446575
 30
0.0
 10
75.94127331000774
 20
-143.747642650695
 30
0.0
 10
75.94127331000774
 20
-143.747642650695
 30
0.0
 10
75.94127331000774
 20
-143.747642650695
 30
0.0
 10
75.70166691900862
 20
-143.747642650695
 30
0.0
 10
75.70166691900862
 20
-143.747642650695
 30
0.0
  0
HATCH
  5
6E
330
69
100
AcDbEntity
  8
_U+30EC_U+30A4_U+30E4_U+30FC 1
 62
   179
420
  2234388
100
AcDbHatch
 10
0.0
 20
0.0
 30
0.0
210
0.0
220
0.0
230
1.0
  2
SOLID
 70
     1
 71
     0
 91
        1
 92
        1
 93
        1
 72
     4
 94
        3
 73
     0
 74
     1
 95
       26
 96
       22
 40
0.0
 40
0.0
 40
0.0
 40
0.0
 40
1.0
 40
1.0
 40
1.0
 40
2.0
 40
2.0
 40
2.0
 40
3.0
 40
3.0
 40
3.0
 40
4.0
 40
4.0
 40
4.0
 40
5.0
 40
5.0
 40
5.0
 40
6.0
 40
6.0
 40
6.0
 40
7.0
 40
7.0
 40
7.0
 40
7.0
 10
75.70166691900862
 20
-143.747642650695
 10
75.70166691900862
 20
-143.747642650695
 10
75.70166691900862
 20
-142.6434895476725
 10
75.70166691900862
 20
-142.6434895476725
 10
75.70166691900862
 20
-142.6434895476725
 10
75.34888914131903
 20
-142.6434895476725
 10
75.34888914131903
 20
-142.6434895476725
 10
75.34888914131903
 20
-142.6434895476725
 10
75.34888914131903
 20
-142.4953504418067
 10
75.34888914131903
 20
-142.4953504418067
 10
75.70390623107403
 20
-142.4805365312201
 10
75.75368786083588
 20
-142.3175835147678
 10
75.78521048452592
 20
-142.2032063446575
 10
75.78521048452592
 20
-142.2032063446575
 10
75.94127331000774
 20
-142.2032063446575
 10
75.94127331000774
 20
-142.2032063446575
 10
75.94127331000774
 20
-142.2032063446575
 10
75.94127331000774
 20
-143.747642650695
 10
75.94127331000774
 20
-143.747642650695
 10
75.94127331000774
 20
-143.747642650695
 10
75.70166691900862
 20
-143.747642650695
 10
75.70166691900862
 20
-143.747642650695
 97
        0
 97
        0
 75
     2
 76
     1
 98
        0
  0
SPLINE
  5
6F
330
69
100
AcDbEntity
  8
_U+30EC_U+30A4_U+30E4_U+30FC 1
370
     0
100
AcDbSpline
210
0.0
220
0.0
230
1.0
 70
    11
 71
     3
 72
    29
 73
    25
 74
     0
 42
0.0000000001
 43
0.0000000001
 12
1.0
 22
0.0
 32
0.0
 13
1.0
 23
0.0
 33
0.0
 40
0.0
 40
0.0
 40
0.0
 40
0.0
 40
1.0
 40
1.0
 40
1.0
 40
2.0
 40
2.0
 40
2.0
 40
3.0
 40
3.0
 40
3.0
 40
4.0
 40
4.0
 40
4.0
 40
5.0
 40
5.0
 40
5.0
 40
6.0
 40
6.0
 40
6.0
 40
7.0
 40
7.0
 40
7.0
 40
8.0
 40
8.0
 40
8.0
 40
8.0
 10
77.43644475060617
 20
-143.5698757236561
 30
0.0
 10
77.32120630662456
 20
-143.7793375291593
 30
0.0
 10
77.13586016951812
 20
-143.7982855543282
 30
0.0
 10
77.0114922225006
 20
-143.7982855543282
 30
0.0
 10
76.83958195778663
 20
-143.7982855543282
 30
0.0
 10
76.6881700112099
 20
-143.7517767652773
 30
0.0
 10
76.58636743962077
 20
-143.5698757236561
 30
0.0
 10
76.47560761976999
 20
-143.3752278287395
 30
0.0
 10
76.45528155640702
 20
-143.1382052593544
 30
0.0
 10
76.45528155640702
 20
-142.9755967524505
 30
0.0
 10
76.45528155640702
 20
-142.8315917611671
 30
0.0
 10
76.47336830770458
 20
-142.5797552811953
 30
0.0
 10
76.58636743962077
 20
-142.3809732716964
 30
0.0
 10
76.70177813837664
 20
-142.1780571476152
 30
0.0
 10
76.87351614831634
 20
-142.1546304983155
 30
0.0
 10
77.0114922225006
 20
-142.1546304983155
 30
0.0
 10
77.1809909203749
 20
-142.1546304983155
 30
0.0
 10
77.3348144337913
 20
-142.1990722300752
 30
0.0
 10
77.43644475060617
 20
-142.3809732716964
 30
0.0
 10
77.54272594632613
 20
-142.5735541093219
 30
0.0
 10
77.56770288859418
 20
-142.801963939994
 30
0.0
 10
77.56770288859418
 20
-142.9755967524505
 30
0.0
 10
77.56770288859418
 20
-143.1468179980675
 30
0.0
 10
77.54496525839154
 20
-143.3772948860307
 30
0.0
 10
77.43644475060617
 20
-143.5698757236561
 30
0.0
  0
SPLINE
  5
70
330
69
100
AcDbEntity
  8
_U+30EC_U+30A4_U+30E4_U+30FC 1
370
     0
100
AcDbSpline
210
0.0
220
0.0
230
1.0
 70
    11
 71
     3
 72
    17
 73
    13
 74
     0
 42
0.0000000001
 43
0.0000000001
 12
1.0
 22
0.0
 32
0.0
 13
1.0
 23
0.0
 33
0.0
 40
0.0
 40
0.0
 40
0.0
 40
0.0
 40
1.0
 40
1.0
 40
1.0
 40
2.0
 40
2.0
 40
2.0
 40
3.0
 40
3.0
 40
3.0
 40
4.0
 40
4.0
 40
4.0
 40
4.0
 10
77.0114922225006
 20
-142.347211335941
 30
0.0
 10
76.744669577168
 20
-142.347211335941
 30
0.0
 10
76.69488794740614
 20
-142.630742694377
 30
0.0
 10
76.69488794740614
 20
-142.9755967524505
 30
0.0
 10
76.69488794740614
 20
-143.2949571039332
 30
0.0
 10
76.73330076206668
 20
-143.6036376594116
 30
0.0
 10
77.0114922225006
 20
-143.6036376594116
 30
0.0
 10
77.27590330099353
 20
-143.6036376594116
 30
0.0
 10
77.3279242428208
 20
-143.3225178678152
 30
0.0
 10
77.3279242428208
 20
-142.9755967524505
 30
0.0
 10
77.3279242428208
 20
-142.6558918914194
 30
0.0
 10
77.28727211609485
 20
-142.347211335941
 30
0.0
 10
77.0114922225006
 20
-142.347211335941
 30
0.0
  0
HATCH
  5
71
330
69
100
AcDbEntity
  8
_U+30EC_U+30A4_U+30E4_U+30FC 1
 62
   179
420
  2234388
100
AcDbHatch
 10
0.0
 20
0.0
 30
0.0
210
0.0
220
0.0
230
1.0
  2
SOLID
 70
     1
 71
     0
 91
        2
 92
        1
 93
        1
 72
     4
 94
        3
 73
     0
 74
     1
 95
       29
 96
       25
 40
0.0
 40
0.0
 40
0.0
 40
0.0
 40
1.0
 40
1.0
 40
1.0
 40
2.0
 40
2.0
 40
2.0
 40
3.0
 40
3.0
 40
3.0
 40
4.0
 40
4.0
 40
4.0
 40
5.0
 40
5.0
 40
5.0
 40
6.0
 40
6.0
 40
6.0
 40
7.0
 40
7.0
 40
7.0
 40
8.0
 40
8.0
 40
8.0
 40
8.0
 10
77.43644475060617
 20
-143.5698757236561
 10
77.32120630662456
 20
-143.7793375291593
 10
77.13586016951812
 20
-143.7982855543282
 10
77.0114922225006
 20
-143.7982855543282
 10
76.83958195778663
 20
-143.7982855543282
 10
76.6881700112099
 20
-143.7517767652773
 10
76.58636743962077
 20
-143.5698757236561
 10
76.47560761976999
 20
-143.3752278287395
 10
76.45528155640702
 20
-143.1382052593544
 10
76.45528155640702
 20
-142.9755967524505
 10
76.45528155640702
 20
-142.8315917611671
 10
76.47336830770458
 20
-142.5797552811953
 10
76.58636743962077
 20
-142.3809732716964
 10
76.70177813837664
 20
-142.1780571476152
 10
76.87351614831634
 20
-142.1546304983155
 10
77.0114922225006
 20
-142.1546304983155
 10
77.1809909203749
 20
-142.1546304983155
 10
77.3348144337913
 20
-142.1990722300752
 10
77.43644475060617
 20
-142.3809732716964
 10
77.54272594632613
 20
-142.5735541093219
 10
77.56770288859418
 20
-142.801963939994
 10
77.56770288859418
 20
-142.9755967524505
 10
77.56770288859418
 20
-143.1468179980675
 10
77.54496525839154
 20
-143.3772948860307
 10
77.43644475060617
 20
-143.5698757236561
 97
        0
 97
        0
 92
        1
 93
        1
 72
     4
 94
        3
 73
     0
 74
     1
 95
       17
 96
       13
 40
0.0
 40
0.0
 40
0.0
 40
0.0
 40
1.0
 40
1.0
 40
1.0
 40
2.0
 40
2.0
 40
2.0
 40
3.0
 40
3.0
 40
3.0
 40
4.0
 40
4.0
 40
4.0
 40
4.0
 10
77.0114922225006
 20
-142.347211335941
 10
76.744669577168
 20
-142.347211335941
 10
76.69488794740614
 20
-142.630742694377
 10
76.69488794740614
 20
-142.9755967524505
 10
76.69488794740614
 20
-143.2949571039332
 10
76.73330076206668
 20
-143.6036376594116
 10
77.0114922225006
 20
-143.6036376594116
 10
77.27590330099353
 20
-143.6036376594116
 10
77.3279242428208
 20
-143.3225178678152
 10
77.3279242428208
 20
-142.9755967524505
 10
77.3279242428208
 20
-142.6558918914194
 10
77.28727211609485
 20
-142.347211335941
 10
77.0114922225006
 20
-142.347211335941
 97
        0
 97
        0
 75
     2
 76
     1
 98
        0
  0
ENDBLK
  5
6C
330
69
100
AcDbEntity
  8
0
100
AcDbBlockEnd
  0
BLOCK
  5
9D
330
9B
100
AcDbEntity
  8
0
100
AcDbBlockBegin
  2
block 4
 70
     0
 10
0.0
 20
0.0
 30
0.0
  3
block 4
  1

  0
SPLINE
  5
9F
330
9B
100
AcDbEntity
  8
_U+30EC_U+30A4_U+30E4_U+30FC 1
370
     0
100
AcDbSpline
210
0.0
220
0.0
230
1.0
 70
    11
 71
     3
 72
    62
 73
    58
 74
     0
 42
0.0000000001
 43
0.0000000001
 12
1.0
 22
0.0
 32
0.0
 13
1.0
 23
0.0
 33
0.0
 40
0.0
 40
0.0
 40
0.0
 40
0.0
 40
1.0
 40
1.0
 40
1.0
 40
2.0
 40
2.0
 40
2.0
 40
3.0
 40
3.0
 40
3.0
 40
4.0
 40
4.0
 40
4.0
 40
5.0
 40
5.0
 40
5.0
 40
6.0
 40
6.0
 40
6.0
 40
7.0
 40
7.0
 40
7.0
 40
8.0
 40
8.0
 40
8.0
 40
9.0
 40
9.0
 40
9.0
 40
10.0
 40
10.0
 40
10.0
 40
11.0
 40
11.0
 40
11.0
 40
12.0
 40
12.0
 40
12.0
 40
13.0
 40
13.0
 40
13.0
 40
14.0
 40
14.0
 40
14.0
 40
15.0
 40
15.0
 40
15.0
 40
16.0
 40
16.0
 40
16.0
 40
17.0
 40
17.0
 40
17.0
 40
18.0
 40
18.0
 40
18.0
 40
19.0
 40
19.0
 40
19.0
 40
19.0
 10
80.99419485822368
 20
-122.4535074563658
 30
0.0
 10
80.99419485822368
 20
-122.5551377731807
 30
0.0
 10
80.97317977576365
 20
-122.7880262279836
 30
0.0
 10
80.78714461956017
 20
-122.921523678037
 30
0.0
 10
80.67483450674102
 20
-123.0005886194235
 30
0.0
 10
80.57561575676583
 20
-123.0050672435543
 30
0.0
 10
80.49086640782868
 20
-123.0095458676851
 30
0.0
 10
80.49086640782868
 20
-123.0095458676851
 30
0.0
 10
80.49086640782868
 20
-122.7745903555911
 30
0.0
 10
80.49086640782868
 20
-122.7745903555911
 30
0.0
 10
80.56493596076155
 20
-122.7721787887514
 30
0.0
 10
80.79954696330707
 20
-122.7609822284243
 30
0.0
 10
80.79954696330707
 20
-122.4579860804966
 30
0.0
 10
80.79954696330707
 20
-122.3110527580507
 30
0.0
 10
80.72995603450501
 20
-122.1482719963727
 30
0.0
 10
80.50154620383294
 20
-122.1482719963727
 30
0.0
 10
80.3851019764315
 20
-122.1482719963727
 30
0.0
 10
80.33652613008948
 20
-122.1889241230986
 30
0.0
 10
80.30483125162519
 20
-122.2228583136283
 30
0.0
 10
80.23076169869232
 20
-122.3019232550148
 30
0.0
 10
80.2180148453969
 20
-122.4262912020323
 30
0.0
 10
80.2180148453969
 20
-122.4852023348301
 30
0.0
 10
80.2180148453969
 20
-122.5055283981931
 30
0.0
 10
80.22008190268804
 20
-122.5439412128536
 30
0.0
 10
80.22421601727034
 20
-122.5732245244782
 30
0.0
 10
80.22421601727034
 20
-122.5732245244782
 30
0.0
 10
80.02956812235372
 20
-122.5732245244782
 30
0.0
 10
80.02956812235372
 20
-122.5732245244782
 30
0.0
 10
80.03611380377569
 20
-122.5325723977523
 30
0.0
 10
80.03818086106685
 20
-122.4874416468955
 30
0.0
 10
80.03818086106685
 20
-122.480551455925
 30
0.0
 10
80.03818086106685
 20
-122.4104437628002
 30
0.0
 10
80.0168212690583
 20
-122.1980536261345
 30
0.0
 10
79.78014320922163
 20
-122.1980536261345
 30
0.0
 10
79.60237628218275
 20
-122.1980536261345
 30
0.0
 10
79.54725475441874
 20
-122.3380967576099
 30
0.0
 10
79.54725475441874
 20
-122.4557467684312
 30
0.0
 10
79.54725475441874
 20
-122.738416852996
 30
0.0
 10
79.78014320922163
 20
-122.7473741012576
 30
0.0
 10
79.85180119531483
 20
-122.7518527253884
 30
0.0
 10
79.85180119531483
 20
-122.7518527253884
 30
0.0
 10
79.85180119531483
 20
-122.9688937409592
 30
0.0
 10
79.85180119531483
 20
-122.9688937409592
 30
0.0
 10
79.72708873874879
 20
-122.9599364926975
 30
0.0
 10
79.35053980221097
 20
-122.9304809262986
 30
0.0
 10
79.35053980221097
 20
-122.4421386412645
 30
0.0
 10
79.35053980221097
 20
-122.2025322502653
 30
0.0
 10
79.4776638256167
 20
-121.9448391079687
 30
0.0
 10
79.77359752779967
 20
-121.9448391079687
 30
0.0
 10
79.95997719355168
 20
-121.9448391079687
 30
0.0
 10
80.04231497564915
 20
-122.0464694247835
 30
0.0
 10
80.10363767528659
 20
-122.1527506205035
 30
0.0
 10
80.1311984391686
 20
-122.0872938062837
 30
0.0
 10
80.21146916397491
 20
-121.8928181661414
 30
0.0
 10
80.48879935053752
 20
-121.8928181661414
 30
0.0
 10
80.82710772718906
 20
-121.8928181661414
 30
0.0
 10
80.99419485822368
 20
-122.1572292446343
 30
0.0
 10
80.99419485822368
 20
-122.4535074563658
 30
0.0
  0
HATCH
  5
A0
330
9B
100
AcDbEntity
  8
_U+30EC_U+30A4_U+30E4_U+30FC 1
 62
   179
420
  2234388
100
AcDbHatch
 10
0.0
 20
0.0
 30
0.0
210
0.0
220
0.0
230
1.0
  2
SOLID
 70
     1
 71
     0
 91
        1
 92
        1
 93
        1
 72
     4
 94
        3
 73
     0
 74
     1
 95
       62
 96
       58
 40
0.0
 40
0.0
 40
0.0
 40
0.0
 40
1.0
 40
1.0
 40
1.0
 40
2.0
 40
2.0
 40
2.0
 40
3.0
 40
3.0
 40
3.0
 40
4.0
 40
4.0
 40
4.0
 40
5.0
 40
5.0
 40
5.0
 40
6.0
 40
6.0
 40
6.0
 40
7.0
 40
7.0
 40
7.0
 40
8.0
 40
8.0
 40
8.0
 40
9.0
 40
9.0
 40
9.0
 40
10.0
 40
10.0
 40
10.0
 40
11.0
 40
11.0
 40
11.0
 40
12.0
 40
12.0
 40
12.0
 40
13.0
 40
13.0
 40
13.0
 40
14.0
 40
14.0
 40
14.0
 40
15.0
 40
15.0
 40
15.0
 40
16.0
 40
16.0
 40
16.0
 40
17.0
 40
17.0
 40
17.0
 40
18.0
 40
18.0
 40
18.0
 40
19.0
 40
19.0
 40
19.0
 40
19.0
 10
80.99419485822368
 20
-122.4535074563658
 10
80.99419485822368
 20
-122.5551377731807
 10
80.97317977576365
 20
-122.7880262279836
 10
80.78714461956017
 20
-122.921523678037
 10
80.67483450674102
 20
-123.0005886194235
 10
80.57561575676583
 20
-123.0050672435543
 10
80.49086640782868
 20
-123.0095458676851
 10
80.49086640782868
 20
-123.0095458676851
 10
80.49086640782868
 20
-122.7745903555911
 10
80.49086640782868
 20
-122.7745903555911
 10
80.56493596076155
 20
-122.7721787887514
 10
80.79954696330707
 20
-122.7609822284243
 10
80.79954696330707
 20
-122.4579860804966
 10
80.79954696330707
 20
-122.3110527580507
 10
80.72995603450501
 20
-122.1482719963727
 10
80.50154620383294
 20
-122.1482719963727
 10
80.3851019764315
 20
-122.1482719963727
 10
80.33652613008948
 20
-122.1889241230986
 10
80.30483125162519
 20
-122.2228583136283
 10
80.23076169869232
 20
-122.3019232550148
 10
80.2180148453969
 20
-122.4262912020323
 10
80.2180148453969
 20
-122.4852023348301
 10
80.2180148453969
 20
-122.5055283981931
 10
80.22008190268804
 20
-122.5439412128536
 10
80.22421601727034
 20
-122.5732245244782
 10
80.22421601727034
 20
-122.5732245244782
 10
80.02956812235372
 20
-122.5732245244782
 10
80.02956812235372
 20
-122.5732245244782
 10
80.03611380377569
 20
-122.5325723977523
 10
80.03818086106685
 20
-122.4874416468955
 10
80.03818086106685
 20
-122.480551455925
 10
80.03818086106685
 20
-122.4104437628002
 10
80.0168212690583
 20
-122.1980536261345
 10
79.78014320922163
 20
-122.1980536261345
 10
79.60237628218275
 20
-122.1980536261345
 10
79.54725475441874
 20
-122.3380967576099
 10
79.54725475441874
 20
-122.4557467684312
 10
79.54725475441874
 20
-122.738416852996
 10
79.78014320922163
 20
-122.7473741012576
 10
79.85180119531483
 20
-122.7518527253884
 10
79.85180119531483
 20
-122.7518527253884
 10
79.85180119531483
 20
-122.9688937409592
 10
79.85180119531483
 20
-122.9688937409592
 10
79.72708873874879
 20
-122.9599364926975
 10
79.35053980221097
 20
-122.9304809262986
 10
79.35053980221097
 20
-122.4421386412645
 10
79.35053980221097
 20
-122.2025322502653
 10
79.4776638256167
 20
-121.9448391079687
 10
79.77359752779967
 20
-121.9448391079687
 10
79.95997719355168
 20
-121.9448391079687
 10
80.04231497564915
 20
-122.0464694247835
 10
80.10363767528659
 20
-122.1527506205035
 10
80.1311984391686
 20
-122.0872938062837
 10
80.21146916397491
 20
-121.8928181661414
 10
80.48879935053752
 20
-121.8928181661414
 10
80.82710772718906
 20
-121.8928181661414
 10
80.99419485822368
 20
-122.1572292446343
 10
80.99419485822368
 20
-122.4535074563658
 97
        0
 97
        0
 75
     2
 76
     1
 98
        0
  0
ENDBLK
  5
9E
330
9B
100
AcDbEntity
  8
0
100
AcDbBlockEnd
  0
BLOCK
  5
AD
330
AB
100
AcDbEntity
  8
0
100
AcDbBlockBegin
  2
block 5
 70
     0
 10
0.0
 20
0.0
 30
0.0
  3
block 5
  1

  0
SPLINE
  5
AF
330
AB
100
AcDbEntity
  8
_U+30EC_U+30A4_U+30E4_U+30FC 1
370
     0
100
AcDbSpline
210
0.0
220
0.0
230
1.0
 70
    11
 71
     3
 72
    62
 73
    58
 74
     0
 42
0.0000000001
 43
0.0000000001
 12
1.0
 22
0.0
 32
0.0
 13
1.0
 23
0.0
 33
0.0
 40
0.0
 40
0.0
 40
0.0
 40
0.0
 40
1.0
 40
1.0
 40
1.0
 40
2.0
 40
2.0
 40
2.0
 40
3.0
 40
3.0
 40
3.0
 40
4.0
 40
4.0
 40
4.0
 40
5.0
 40
5.0
 40
5.0
 40
6.0
 40
6.0
 40
6.0
 40
7.0
 40
7.0
 40
7.0
 40
8.0
 40
8.0
 40
8.0
 40
9.0
 40
9.0
 40
9.0
 40
10.0
 40
10.0
 40
10.0
 40
11.0
 40
11.0
 40
11.0
 40
12.0
 40
12.0
 40
12.0
 40
13.0
 40
13.0
 40
13.0
 40
14.0
 40
14.0
 40
14.0
 40
15.0
 40
15.0
 40
15.0
 40
16.0
 40
16.0
 40
16.0
 40
17.0
 40
17.0
 40
17.0
 40
18.0
 40
18.0
 40
18.0
 40
19.0
 40
19.0
 40
19.0
 40
19.0
 10
116.2175401185151
 20
-137.5602511591863
 30
0.0
 10
116.2175401185151
 20
-137.6618814760012
 30
0.0
 10
116.196525036055
 20
-137.8947699308041
 30
0.0
 10
116.0104898798515
 20
-138.0284396356318
 30
0.0
 10
115.8981797670324
 20
-138.107332322244
 30
0.0
 10
115.7989610170572
 20
-138.1118109463748
 30
0.0
 10
115.7142116681201
 20
-138.1162895705056
 30
0.0
 10
115.7142116681201
 20
-138.1162895705056
 30
0.0
 10
115.7142116681201
 20
-137.8813340584116
 30
0.0
 10
115.7142116681201
 20
-137.8813340584116
 30
0.0
 10
115.7882812210529
 20
-137.878922491572
 30
0.0
 10
116.0228922235984
 20
-137.8678981860191
 30
0.0
 10
116.0228922235984
 20
-137.5647297833171
 30
0.0
 10
116.0228922235984
 20
-137.4179687156455
 30
0.0
 10
115.9533012947964
 20
-137.2550156991932
 30
0.0
 10
115.7248914641243
 20
-137.2550156991932
 30
0.0
 10
115.6084472367229
 20
-137.2550156991932
 30
0.0
 10
115.5598713903809
 20
-137.2956678259191
 30
0.0
 10
115.5281765119166
 20
-137.3297742712231
 30
0.0
 10
115.4541069589837
 20
-137.4086669578354
 30
0.0
 10
115.4413601056883
 20
-137.5330349048529
 30
0.0
 10
115.4413601056883
 20
-137.5919460376506
 30
0.0
 10
115.4413601056883
 20
-137.6122721010136
 30
0.0
 10
115.4434271629794
 20
-137.6508571704484
 30
0.0
 10
115.4475612775617
 20
-137.6797959725245
 30
0.0
 10
115.4475612775617
 20
-137.6797959725245
 30
0.0
 10
115.2529133826451
 20
-137.6797959725245
 30
0.0
 10
115.2529133826451
 20
-137.6797959725245
 30
0.0
 10
115.2594590640671
 20
-137.6391438457985
 30
0.0
 10
115.2615261213582
 20
-137.5943576044903
 30
0.0
 10
115.2615261213582
 20
-137.5874674135198
 30
0.0
 10
115.2615261213582
 20
-137.5171874656207
 30
0.0
 10
115.2401665293497
 20
-137.3049695837293
 30
0.0
 10
115.003488469513
 20
-137.3049695837293
 30
0.0
 10
114.8257215424741
 20
-137.3049695837293
 30
0.0
 10
114.7706000147101
 20
-137.4448404604305
 30
0.0
 10
114.7706000147101
 20
-137.562662726026
 30
0.0
 10
114.7706000147101
 20
-137.8451605558165
 30
0.0
 10
115.003488469513
 20
-137.8541178040782
 30
0.0
 10
115.0751464556062
 20
-137.858596428209
 30
0.0
 10
115.0751464556062
 20
-137.858596428209
 30
0.0
 10
115.0751464556062
 20
-138.0756374437797
 30
0.0
 10
115.0751464556062
 20
-138.0756374437797
 30
0.0
 10
114.9504339990402
 20
-138.066680195518
 30
0.0
 10
114.5738850625024
 20
-138.0373968838934
 30
0.0
 10
114.5738850625024
 20
-137.548882344085
 30
0.0
 10
114.5738850625024
 20
-137.3091036983116
 30
0.0
 10
114.7010090859081
 20
-137.0514105560149
 30
0.0
 10
114.996942788091
 20
-137.0514105560149
 30
0.0
 10
115.1833224538431
 20
-137.0514105560149
 30
0.0
 10
115.2656602359405
 20
-137.1533853823783
 30
0.0
 10
115.326982935578
 20
-137.259494323324
 30
0.0
 10
115.35454369946
 20
-137.1940375091043
 30
0.0
 10
115.4348144242663
 20
-136.9997341237362
 30
0.0
 10
115.7121446108289
 20
-136.9997341237362
 30
0.0
 10
116.0504529874805
 20
-136.9997341237362
 30
0.0
 10
116.2175401185151
 20
-137.2639729474548
 30
0.0
 10
116.2175401185151
 20
-137.5602511591863
 30
0.0
  0
HATCH
  5
B0
330
AB
100
AcDbEntity
  8
_U+30EC_U+30A4_U+30E4_U+30FC 1
 62
   179
420
  2234388
100
AcDbHatch
 10
0.0
 20
0.0
 30
0.0
210
0.0
220
0.0
230
1.0
  2
SOLID
 70
     1
 71
     0
 91
        1
 92
        1
 93
        1
 72
     4
 94
        3
 73
     0
 74
     1
 95
       62
 96
       58
 40
0.0
 40
0.0
 40
0.0
 40
0.0
 40
1.0
 40
1.0
 40
1.0
 40
2.0
 40
2.0
 40
2.0
 40
3.0
 40
3.0
 40
3.0
 40
4.0
 40
4.0
 40
4.0
 40
5.0
 40
5.0
 40
5.0
 40
6.0
 40
6.0
 40
6.0
 40
7.0
 40
7.0
 40
7.0
 40
8.0
 40
8.0
 40
8.0
 40
9.0
 40
9.0
 40
9.0
 40
10.0
 40
10.0
 40
10.0
 40
11.0
 40
11.0
 40
11.0
 40
12.0
 40
12.0
 40
12.0
 40
13.0
 40
13.0
 40
13.0
 40
14.0
 40
14.0
 40
14.0
 40
15.0
 40
15.0
 40
15.0
 40
16.0
 40
16.0
 40
16.0
 40
17.0
 40
17.0
 40
17.0
 40
18.0
 40
18.0
 40
18.0
 40
19.0
 40
19.0
 40
19.0
 40
19.0
 10
116.2175401185151
 20
-137.5602511591863
 10
116.2175401185151
 20
-137.6618814760012
 10
116.196525036055
 20
-137.8947699308041
 10
116.0104898798515
 20
-138.0284396356318
 10
115.8981797670324
 20
-138.107332322244
 10
115.7989610170572
 20
-138.1118109463748
 10
115.7142116681201
 20
-138.1162895705056
 10
115.7142116681201
 20
-138.1162895705056
 10
115.7142116681201
 20
-137.8813340584116
 10
115.7142116681201
 20
-137.8813340584116
 10
115.7882812210529
 20
-137.878922491572
 10
116.0228922235984
 20
-137.8678981860191
 10
116.0228922235984
 20
-137.5647297833171
 10
116.0228922235984
 20
-137.4179687156455
 10
115.9533012947964
 20
-137.2550156991932
 10
115.7248914641243
 20
-137.2550156991932
 10
115.6084472367229
 20
-137.2550156991932
 10
115.5598713903809
 20
-137.2956678259191
 10
115.5281765119166
 20
-137.3297742712231
 10
115.4541069589837
 20
-137.4086669578354
 10
115.4413601056883
 20
-137.5330349048529
 10
115.4413601056883
 20
-137.5919460376506
 10
115.4413601056883
 20
-137.6122721010136
 10
115.4434271629794
 20
-137.6508571704484
 10
115.4475612775617
 20
-137.6797959725245
 10
115.4475612775617
 20
-137.6797959725245
 10
115.2529133826451
 20
-137.6797959725245
 10
115.2529133826451
 20
-137.6797959725245
 10
115.2594590640671
 20
-137.6391438457985
 10
115.2615261213582
 20
-137.5943576044903
 10
115.2615261213582
 20
-137.5874674135198
 10
115.2615261213582
 20
-137.5171874656207
 10
115.2401665293497
 20
-137.3049695837293
 10
115.003488469513
 20
-137.3049695837293
 10
114.8257215424741
 20
-137.3049695837293
 10
114.7706000147101
 20
-137.4448404604305
 10
114.7706000147101
 20
-137.562662726026
 10
114.7706000147101
 20
-137.8451605558165
 10
115.003488469513
 20
-137.8541178040782
 10
115.0751464556062
 20
-137.858596428209
 10
115.0751464556062
 20
-137.858596428209
 10
115.0751464556062
 20
-138.0756374437797
 10
115.0751464556062
 20
-138.0756374437797
 10
114.9504339990402
 20
-138.066680195518
 10
114.5738850625024
 20
-138.0373968838934
 10
114.5738850625024
 20
-137.548882344085
 10
114.5738850625024
 20
-137.3091036983116
 10
114.7010090859081
 20
-137.0514105560149
 10
114.996942788091
 20
-137.0514105560149
 10
115.1833224538431
 20
-137.0514105560149
 10
115.2656602359405
 20
-137.1533853823783
 10
115.326982935578
 20
-137.259494323324
 10
115.35454369946
 20
-137.1940375091043
 10
115.4348144242663
 20
-136.9997341237362
 10
115.7121446108289
 20
-136.9997341237362
 10
116.0504529874805
 20
-136.9997341237362
 10
116.2175401185151
 20
-137.2639729474548
 10
116.2175401185151
 20
-137.5602511591863
 97
        0
 97
        0
 75
     2
 76
     1
 98
        0
  0
ENDBLK
  5
AE
330
AB
100
AcDbEntity
  8
0
100
AcDbBlockEnd
  0
BLOCK
  5
B3
330
B1
100
AcDbEntity
  8
0
100
AcDbBlockBegin
  2
block 6
 70
     0
 10
0.0
 20
0.0
 30
0.0
  3
block 6
  1

  0
SPLINE
  5
B5
330
B1
100
AcDbEntity
  8
_U+30EC_U+30A4_U+30E4_U+30FC 1
370
     0
100
AcDbSpline
210
0.0
220
0.0
230
1.0
 70
    11
 71
     3
 72
    32
 73
    28
 74
     0
 42
0.0000000001
 43
0.0000000001
 12
1.0
 22
0.0
 32
0.0
 13
1.0
 23
0.0
 33
0.0
 40
0.0
 40
0.0
 40
0.0
 40
0.0
 40
1.0
 40
1.0
 40
1.0
 40
2.0
 40
2.0
 40
2.0
 40
3.0
 40
3.0
 40
3.0
 40
4.0
 40
4.0
 40
4.0
 40
5.0
 40
5.0
 40
5.0
 40
6.0
 40
6.0
 40
6.0
 40
7.0
 40
7.0
 40
7.0
 40
8.0
 40
8.0
 40
8.0
 40
9.0
 40
9.0
 40
9.0
 40
9.0
 10
116.2175401185151
 20
-133.6951985342845
 30
0.0
 10
116.2175401185151
 20
-134.246758321473
 30
0.0
 10
115.6635687644869
 20
-134.2557155697347
 30
0.0
 10
115.4496283348529
 20
-134.2557155697347
 30
0.0
 10
115.2191514468897
 20
-134.2557155697347
 30
0.0
 10
114.5718180052112
 20
-134.2353895063717
 30
0.0
 10
114.5718180052112
 20
-133.6545464075586
 30
0.0
 10
114.5718180052112
 20
-133.4688557609036
 30
0.0
 10
114.6417534435618
 20
-133.2066839944761
 30
0.0
 10
114.9738606483399
 20
-133.1660318677502
 30
0.0
 10
114.9738606483399
 20
-133.1660318677502
 30
0.0
 10
114.9738606483399
 20
-133.3940971888737
 30
0.0
 10
114.9738606483399
 20
-133.3940971888737
 30
0.0
 10
114.9166720632847
 20
-133.4058105135236
 30
0.0
 10
114.768532957419
 20
-133.439572449279
 30
0.0
 10
114.768532957419
 20
-133.6566134648498
 30
0.0
 10
114.768532957419
 20
-133.9687391158134
 30
0.0
 10
115.0965060476148
 20
-134.0114582998305
 30
0.0
 10
115.3014892289871
 20
-134.0252386817715
 30
0.0
 10
115.223285561472
 20
-133.9256754222478
 30
0.0
 10
115.1640299191257
 20
-133.8533284170575
 30
0.0
 10
115.1640299191257
 20
-133.6586805221409
 30
0.0
 10
115.1640299191257
 20
-133.4664441940639
 30
0.0
 10
115.2722059173625
 20
-133.1432942375475
 30
0.0
 10
115.6783826750735
 20
-133.1432942375475
 30
0.0
 10
115.9977430265561
 20
-133.1432942375475
 30
0.0
 10
116.2175401185151
 20
-133.3558566289874
 30
0.0
 10
116.2175401185151
 20
-133.6951985342845
 30
0.0
  0
SPLINE
  5
B6
330
B1
100
AcDbEntity
  8
_U+30EC_U+30A4_U+30E4_U+30FC 1
370
     0
100
AcDbSpline
210
0.0
220
0.0
230
1.0
 70
    11
 71
     3
 72
    17
 73
    13
 74
     0
 42
0.0000000001
 43
0.0000000001
 12
1.0
 22
0.0
 32
0.0
 13
1.0
 23
0.0
 33
0.0
 40
0.0
 40
0.0
 40
0.0
 40
0.0
 40
1.0
 40
1.0
 40
1.0
 40
2.0
 40
2.0
 40
2.0
 40
3.0
 40
3.0
 40
3.0
 40
4.0
 40
4.0
 40
4.0
 40
4.0
 10
115.3586778140423
 20
-133.6769395282127
 30
0.0
 10
115.3586778140423
 20
-133.9573703007121
 30
0.0
 10
115.5702066768366
 20
-133.998022427438
 30
0.0
 10
115.6866509042381
 20
-133.998022427438
 30
0.0
 10
115.8623507739858
 20
-133.998022427438
 30
0.0
 10
116.0253037904381
 20
-133.8963921106231
 30
0.0
 10
116.0253037904381
 20
-133.6993326488668
 30
0.0
 10
116.0253037904381
 20
-133.5704860777185
 30
0.0
 10
115.9660481480918
 20
-133.3830728833209
 30
0.0
 10
115.6804497323646
 20
-133.3830728833209
 30
0.0
 10
115.4561740162749
 20
-133.3830728833209
 30
0.0
 10
115.3586778140423
 20
-133.5322455178322
 30
0.0
 10
115.3586778140423
 20
-133.6769395282127
 30
0.0
  0
HATCH
  5
B7
330
B1
100
AcDbEntity
  8
_U+30EC_U+30A4_U+30E4_U+30FC 1
 62
   179
420
  2234388
100
AcDbHatch
 10
0.0
 20
0.0
 30
0.0
210
0.0
220
0.0
230
1.0
  2
SOLID
 70
     1
 71
     0
 91
        2
 92
        1
 93
        1
 72
     4
 94
        3
 73
     0
 74
     1
 95
       32
 96
       28
 40
0.0
 40
0.0
 40
0.0
 40
0.0
 40
1.0
 40
1.0
 40
1.0
 40
2.0
 40
2.0
 40
2.0
 40
3.0
 40
3.0
 40
3.0
 40
4.0
 40
4.0
 40
4.0
 40
5.0
 40
5.0
 40
5.0
 40
6.0
 40
6.0
 40
6.0
 40
7.0
 40
7.0
 40
7.0
 40
8.0
 40
8.0
 40
8.0
 40
9.0
 40
9.0
 40
9.0
 40
9.0
 10
116.2175401185151
 20
-133.6951985342845
 10
116.2175401185151
 20
-134.246758321473
 10
115.6635687644869
 20
-134.2557155697347
 10
115.4496283348529
 20
-134.2557155697347
 10
115.2191514468897
 20
-134.2557155697347
 10
114.5718180052112
 20
-134.2353895063717
 10
114.5718180052112
 20
-133.6545464075586
 10
114.5718180052112
 20
-133.4688557609036
 10
114.6417534435618
 20
-133.2066839944761
 10
114.9738606483399
 20
-133.1660318677502
 10
114.9738606483399
 20
-133.1660318677502
 10
114.9738606483399
 20
-133.3940971888737
 10
114.9738606483399
 20
-133.3940971888737
 10
114.9166720632847
 20
-133.4058105135236
 10
114.768532957419
 20
-133.439572449279
 10
114.768532957419
 20
-133.6566134648498
 10
114.768532957419
 20
-133.9687391158134
 10
115.0965060476148
 20
-134.0114582998305
 10
115.3014892289871
 20
-134.0252386817715
 10
115.223285561472
 20
-133.9256754222478
 10
115.1640299191257
 20
-133.8533284170575
 10
115.1640299191257
 20
-133.6586805221409
 10
115.1640299191257
 20
-133.4664441940639
 10
115.2722059173625
 20
-133.1432942375475
 10
115.6783826750735
 20
-133.1432942375475
 10
115.9977430265561
 20
-133.1432942375475
 10
116.2175401185151
 20
-133.3558566289874
 10
116.2175401185151
 20
-133.6951985342845
 97
        0
 97
        0
 92
        1
 93
        1
 72
     4
 94
        3
 73
     0
 74
     1
 95
       17
 96
       13
 40
0.0
 40
0.0
 40
0.0
 40
0.0
 40
1.0
 40
1.0
 40
1.0
 40
2.0
 40
2.0
 40
2.0
 40
3.0
 40
3.0
 40
3.0
 40
4.0
 40
4.0
 40
4.0
 40
4.0
 10
115.3586778140423
 20
-133.6769395282127
 10
115.3586778140423
 20
-133.9573703007121
 10
115.5702066768366
 20
-133.998022427438
 10
115.6866509042381
 20
-133.998022427438
 10
115.8623507739858
 20
-133.998022427438
 10
116.0253037904381
 20
-133.8963921106231
 10
116.0253037904381
 20
-133.6993326488668
 10
116.0253037904381
 20
-133.5704860777185
 10
115.9660481480918
 20
-133.3830728833209
 10
115.6804497323646
 20
-133.3830728833209
 10
115.4561740162749
 20
-133.3830728833209
 10
115.3586778140423
 20
-133.5322455178322
 10
115.3586778140423
 20
-133.6769395282127
 97
        0
 97
        0
 75
     2
 76
     1
 98
        0
  0
POLYLINE
  5
B8
330
B1
100
AcDbEntity
  8
_U+30EC_U+30A4_U+30E4_U+30FC 1
370
     0
100
AcDb2dPolyline
 66
     1
 10
0.0
 20
0.0
 30
0.0
  0
VERTEX
  5
B9
330
B8
100
AcDbEntity
  8
_U+30EC_U+30A4_U+30E4_U+30FC 1
370
     0
100
AcDbVertex
100
AcDb2dVertex
 10
116.1668972148819
 20
-132.9117838209387
 30
0.0
  0
VERTEX
  5
BA
330
B8
100
AcDbEntity
  8
_U+30EC_U+30A4_U+30E4_U+30FC 1
370
     0
100
AcDbVertex
100
AcDb2dVertex
 10
115.9150607349101
 20
-132.9117838209387
 30
0.0
  0
VERTEX
  5
BB
330
B8
100
AcDbEntity
  8
_U+30EC_U+30A4_U+30E4_U+30FC 1
370
     0
100
AcDbVertex
100
AcDb2dVertex
 10
115.9150607349101
 20
-132.6430663730892
 30
0.0
  0
VERTEX
  5
BC
330
B8
100
AcDbEntity
  8
_U+30EC_U+30A4_U+30E4_U+30FC 1
370
     0
100
AcDbVertex
100
AcDb2dVertex
 10
116.1668972148819
 20
-132.6430663730892
 30
0.0
  0
VERTEX
  5
BD
330
B8
100
AcDbEntity
  8
_U+30EC_U+30A4_U+30E4_U+30FC 1
370
     0
100
AcDbVertex
100
AcDb2dVertex
 10
116.1668972148819
 20
-132.9117838209387
 30
0.0
  0
SEQEND
  5
BE
330
B8
100
AcDbEntity
  8
_U+30EC_U+30A4_U+30E4_U+30FC 1
370
     0
  0
HATCH
  5
BF
330
B1
100
AcDbEntity
  8
_U+30EC_U+30A4_U+30E4_U+30FC 1
 62
   179
420
  2234388
100
AcDbHatch
 10
0.0
 20
0.0
 30
0.0
210
0.0
220
0.0
230
1.0
  2
SOLID
 70
     1
 71
     0
 91
        1
 92
        1
 93
        4
 72
     1
 10
116.1668972148819
 20
-132.9117838209387
 11
115.9150607349101
 21
-132.9117838209387
 72
     1
 10
115.9150607349101
 20
-132.9117838209387
 11
115.9150607349101
 21
-132.6430663730892
 72
     1
 10
115.9150607349101
 20
-132.6430663730892
 11
116.1668972148819
 21
-132.6430663730892
 72
     1
 10
116.1668972148819
 20
-132.6430663730892
 11
116.1668972148819
 21
-132.9117838209387
 97
        0
 75
     2
 76
     1
 98
        0
  0
SPLINE
  5
C0
330
B1
100
AcDbEntity
  8
_U+30EC_U+30A4_U+30E4_U+30FC 1
370
     0
100
AcDbSpline
210
0.0
220
0.0
230
1.0
 70
    11
 71
     3
 72
    62
 73
    58
 74
     0
 42
0.0000000001
 43
0.0000000001
 12
1.0
 22
0.0
 32
0.0
 13
1.0
 23
0.0
 33
0.0
 40
0.0
 40
0.0
 40
0.0
 40
0.0
 40
1.0
 40
1.0
 40
1.0
 40
2.0
 40
2.0
 40
2.0
 40
3.0
 40
3.0
 40
3.0
 40
4.0
 40
4.0
 40
4.0
 40
5.0
 40
5.0
 40
5.0
 40
6.0
 40
6.0
 40
6.0
 40
7.0
 40
7.0
 40
7.0
 40
8.0
 40
8.0
 40
8.0
 40
9.0
 40
9.0
 40
9.0
 40
10.0
 40
10.0
 40
10.0
 40
11.0
 40
11.0
 40
11.0
 40
12.0
 40
12.0
 40
12.0
 40
13.0
 40
13.0
 40
13.0
 40
14.0
 40
14.0
 40
14.0
 40
15.0
 40
15.0
 40
15.0
 40
16.0
 40
16.0
 40
16.0
 40
17.0
 40
17.0
 40
17.0
 40
18.0
 40
18.0
 40
18.0
 40
19.0
 40
19.0
 40
19.0
 40
19.0
 10
116.2175401185151
 20
-131.8651638125198
 30
0.0
 10
116.2175401185151
 20
-131.9664496197862
 30
0.0
 10
116.196525036055
 20
-132.1993380745891
 30
0.0
 10
116.0104898798515
 20
-132.3330077794168
 30
0.0
 10
115.8981797670324
 20
-132.4122449755775
 30
0.0
 10
115.7989610170572
 20
-132.4163790901598
 30
0.0
 10
115.7142116681201
 20
-132.4212022238391
 30
0.0
 10
115.7142116681201
 20
-132.4212022238391
 30
0.0
 10
115.7142116681201
 20
-132.1859022021966
 30
0.0
 10
115.7142116681201
 20
-132.1859022021966
 30
0.0
 10
115.7882812210529
 20
-132.1834906353569
 30
0.0
 10
116.0228922235984
 20
-132.1724663298041
 30
0.0
 10
116.0228922235984
 20
-131.8692979271021
 30
0.0
 10
116.0228922235984
 20
-131.7225368594305
 30
0.0
 10
115.9533012947964
 20
-131.5599283525267
 30
0.0
 10
115.7248914641243
 20
-131.5599283525267
 30
0.0
 10
115.6084472367229
 20
-131.5599283525267
 30
0.0
 10
115.5598713903809
 20
-131.6005804792526
 30
0.0
 10
115.5281765119166
 20
-131.6343424150081
 30
0.0
 10
115.4541069589837
 20
-131.7135796111688
 30
0.0
 10
115.4413601056883
 20
-131.8376030486378
 30
0.0
 10
115.4413601056883
 20
-131.8965141814356
 30
0.0
 10
115.4413601056883
 20
-131.9168402447986
 30
0.0
 10
115.4434271629794
 20
-131.9554253142334
 30
0.0
 10
115.4475612775617
 20
-131.984708625858
 30
0.0
 10
115.4475612775617
 20
-131.984708625858
 30
0.0
 10
115.2529133826451
 20
-131.984708625858
 30
0.0
 10
115.2529133826451
 20
-131.984708625858
 30
0.0
 10
115.2594590640671
 20
-131.944056499132
 30
0.0
 10
115.2615261213582
 20
-131.8989257482753
 30
0.0
 10
115.2615261213582
 20
-131.8920355573048
 30
0.0
 10
115.2615261213582
 20
-131.8217556094057
 30
0.0
 10
115.2401665293497
 20
-131.6095377275143
 30
0.0
 10
115.003488469513
 20
-131.6095377275143
 30
0.0
 10
114.8257215424741
 20
-131.6095377275143
 30
0.0
 10
114.7706000147101
 20
-131.7494086042154
 30
0.0
 10
114.7706000147101
 20
-131.867230869811
 30
0.0
 10
114.7706000147101
 20
-132.1497286996015
 30
0.0
 10
115.003488469513
 20
-132.1586859478631
 30
0.0
 10
115.0751464556062
 20
-132.1635090815425
 30
0.0
 10
115.0751464556062
 20
-132.1635090815425
 30
0.0
 10
115.0751464556062
 20
-132.3805500971132
 30
0.0
 10
115.0751464556062
 20
-132.3805500971132
 30
0.0
 10
114.9504339990402
 20
-132.3715928488515
 30
0.0
 10
114.5738850625024
 20
-132.3419650276784
 30
0.0
 10
114.5738850625024
 20
-131.85345048787
 30
0.0
 10
114.5738850625024
 20
-131.6140163516451
 30
0.0
 10
114.7010090859081
 20
-131.3563232093484
 30
0.0
 10
114.996942788091
 20
-131.3563232093484
 30
0.0
 10
115.1833224538431
 20
-131.3563232093484
 30
0.0
 10
115.2656602359405
 20
-131.4579535261633
 30
0.0
 10
115.326982935578
 20
-131.564062467109
 30
0.0
 10
115.35454369946
 20
-131.4986056528892
 30
0.0
 10
115.4348144242663
 20
-131.3043022675212
 30
0.0
 10
115.7121446108289
 20
-131.3043022675212
 30
0.0
 10
116.0504529874805
 20
-131.3043022675212
 30
0.0
 10
116.2175401185151
 20
-131.5688856007883
 30
0.0
 10
116.2175401185151
 20
-131.8651638125198
 30
0.0
  0
HATCH
  5
C1
330
B1
100
AcDbEntity
  8
_U+30EC_U+30A4_U+30E4_U+30FC 1
 62
   179
420
  2234388
100
AcDbHatch
 10
0.0
 20
0.0
 30
0.0
210
0.0
220
0.0
230
1.0
  2
SOLID
 70
     1
 71
     0
 91
        1
 92
        1
 93
        1
 72
     4
 94
        3
 73
     0
 74
     1
 95
       62
 96
       58
 40
0.0
 40
0.0
 40
0.0
 40
0.0
 40
1.0
 40
1.0
 40
1.0
 40
2.0
 40
2.0
 40
2.0
 40
3.0
 40
3.0
 40
3.0
 40
4.0
 40
4.0
 40
4.0
 40
5.0
 40
5.0
 40
5.0
 40
6.0
 40
6.0
 40
6.0
 40
7.0
 40
7.0
 40
7.0
 40
8.0
 40
8.0
 40
8.0
 40
9.0
 40
9.0
 40
9.0
 40
10.0
 40
10.0
 40
10.0
 40
11.0
 40
11.0
 40
11.0
 40
12.0
 40
12.0
 40
12.0
 40
13.0
 40
13.0
 40
13.0
 40
14.0
 40
14.0
 40
14.0
 40
15.0
 40
15.0
 40
15.0
 40
16.0
 40
16.0
 40
16.0
 40
17.0
 40
17.0
 40
17.0
 40
18.0
 40
18.0
 40
18.0
 40
19.0
 40
19.0
 40
19.0
 40
19.0
 10
116.2175401185151
 20
-131.8651638125198
 10
116.2175401185151
 20
-131.9664496197862
 10
116.196525036055
 20
-132.1993380745891
 10
116.0104898798515
 20
-132.3330077794168
 10
115.8981797670324
 20
-132.4122449755775
 10
115.7989610170572
 20
-132.4163790901598
 10
115.7142116681201
 20
-132.4212022238391
 10
115.7142116681201
 20
-132.4212022238391
 10
115.7142116681201
 20
-132.1859022021966
 10
115.7142116681201
 20
-132.1859022021966
 10
115.7882812210529
 20
-132.1834906353569
 10
116.0228922235984
 20
-132.1724663298041
 10
116.0228922235984
 20
-131.8692979271021
 10
116.0228922235984
 20
-131.7225368594305
 10
115.9533012947964
 20
-131.5599283525267
 10
115.7248914641243
 20
-131.5599283525267
 10
115.6084472367229
 20
-131.5599283525267
 10
115.5598713903809
 20
-131.6005804792526
 10
115.5281765119166
 20
-131.6343424150081
 10
115.4541069589837
 20
-131.7135796111688
 10
115.4413601056883
 20
-131.8376030486378
 10
115.4413601056883
 20
-131.8965141814356
 10
115.4413601056883
 20
-131.9168402447986
 10
115.4434271629794
 20
-131.9554253142334
 10
115.4475612775617
 20
-131.984708625858
 10
115.4475612775617
 20
-131.984708625858
 10
115.2529133826451
 20
-131.984708625858
 10
115.2529133826451
 20
-131.984708625858
 10
115.2594590640671
 20
-131.944056499132
 10
115.2615261213582
 20
-131.8989257482753
 10
115.2615261213582
 20
-131.8920355573048
 10
115.2615261213582
 20
-131.8217556094057
 10
115.2401665293497
 20
-131.6095377275143
 10
115.003488469513
 20
-131.6095377275143
 10
114.8257215424741
 20
-131.6095377275143
 10
114.7706000147101
 20
-131.7494086042154
 10
114.7706000147101
 20
-131.867230869811
 10
114.7706000147101
 20
-132.1497286996015
 10
115.003488469513
 20
-132.1586859478631
 10
115.0751464556062
 20
-132.1635090815425
 10
115.0751464556062
 20
-132.1635090815425
 10
115.0751464556062
 20
-132.3805500971132
 10
115.0751464556062
 20
-132.3805500971132
 10
114.9504339990402
 20
-132.3715928488515
 10
114.5738850625024
 20
-132.3419650276784
 10
114.5738850625024
 20
-131.85345048787
 10
114.5738850625024
 20
-131.6140163516451
 10
114.7010090859081
 20
-131.3563232093484
 10
114.996942788091
 20
-131.3563232093484
 10
115.1833224538431
 20
-131.3563232093484
 10
115.2656602359405
 20
-131.4579535261633
 10
115.326982935578
 20
-131.564062467109
 10
115.35454369946
 20
-131.4986056528892
 10
115.4348144242663
 20
-131.3043022675212
 10
115.7121446108289
 20
-131.3043022675212
 10
116.0504529874805
 20
-131.3043022675212
 10
116.2175401185151
 20
-131.5688856007883
 10
116.2175401185151
 20
-131.8651638125198
 97
        0
 97
        0
 75
     2
 76
     1
 98
        0
  0
ENDBLK
  5
B4
330
B1
100
AcDbEntity
  8
0
100
AcDbBlockEnd
  0
BLOCK
  5
C4
330
C2
100
AcDbEntity
  8
0
100
AcDbBlockBegin
  2
block 7
 70
     0
 10
0.0
 20
0.0
 30
0.0
  3
block 7
  1

  0
SPLINE
  5
C6
330
C2
100
AcDbEntity
  8
_U+30EC_U+30A4_U+30E4_U+30FC 1
370
     0
100
AcDbSpline
210
0.0
220
0.0
230
1.0
 70
    11
 71
     3
 72
    26
 73
    22
 74
     0
 42
0.0000000001
 43
0.0000000001
 12
1.0
 22
0.0
 32
0.0
 13
1.0
 23
0.0
 33
0.0
 40
0.0
 40
0.0
 40
0.0
 40
0.0
 40
1.0
 40
1.0
 40
1.0
 40
2.0
 40
2.0
 40
2.0
 40
3.0
 40
3.0
 40
3.0
 40
4.0
 40
4.0
 40
4.0
 40
5.0
 40
5.0
 40
5.0
 40
6.0
 40
6.0
 40
6.0
 40
7.0
 40
7.0
 40
7.0
 40
7.0
 10
66.78972166299008
 20
-130.3162488823515
 30
0.0
 10
66.78972166299008
 20
-130.3162488823515
 30
0.0
 10
65.68556855996749
 20
-130.3162488823515
 30
0.0
 10
65.68556855996749
 20
-130.3162488823515
 30
0.0
 10
65.68556855996749
 20
-130.3162488823515
 30
0.0
 10
65.68556855996749
 20
-130.6690266600411
 30
0.0
 10
65.68556855996749
 20
-130.6690266600411
 30
0.0
 10
65.68556855996749
 20
-130.6690266600411
 30
0.0
 10
65.53742945410175
 20
-130.6690266600411
 30
0.0
 10
65.53742945410175
 20
-130.6690266600411
 30
0.0
 10
65.52261554351519
 20
-130.3138373155118
 30
0.0
 10
65.35966252706287
 20
-130.2638834309757
 30
0.0
 10
65.24528535695256
 20
-130.2325330620599
 30
0.0
 10
65.24528535695256
 20
-130.2325330620599
 30
0.0
 10
65.24528535695256
 20
-130.0764702365781
 30
0.0
 10
65.24528535695256
 20
-130.0764702365781
 30
0.0
 10
65.24528535695256
 20
-130.0764702365781
 30
0.0
 10
66.78972166299008
 20
-130.0764702365781
 30
0.0
 10
66.78972166299008
 20
-130.0764702365781
 30
0.0
 10
66.78972166299008
 20
-130.0764702365781
 30
0.0
 10
66.78972166299008
 20
-130.3162488823515
 30
0.0
 10
66.78972166299008
 20
-130.3162488823515
 30
0.0
  0
HATCH
  5
C7
330
C2
100
AcDbEntity
  8
_U+30EC_U+30A4_U+30E4_U+30FC 1
 62
   179
420
  2234388
100
AcDbHatch
 10
0.0
 20
0.0
 30
0.0
210
0.0
220
0.0
230
1.0
  2
SOLID
 70
     1
 71
     0
 91
        1
 92
        1
 93
        1
 72
     4
 94
        3
 73
     0
 74
     1
 95
       26
 96
       22
 40
0.0
 40
0.0
 40
0.0
 40
0.0
 40
1.0
 40
1.0
 40
1.0
 40
2.0
 40
2.0
 40
2.0
 40
3.0
 40
3.0
 40
3.0
 40
4.0
 40
4.0
 40
4.0
 40
5.0
 40
5.0
 40
5.0
 40
6.0
 40
6.0
 40
6.0
 40
7.0
 40
7.0
 40
7.0
 40
7.0
 10
66.78972166299008
 20
-130.3162488823515
 10
66.78972166299008
 20
-130.3162488823515
 10
65.68556855996749
 20
-130.3162488823515
 10
65.68556855996749
 20
-130.3162488823515
 10
65.68556855996749
 20
-130.3162488823515
 10
65.68556855996749
 20
-130.6690266600411
 10
65.68556855996749
 20
-130.6690266600411
 10
65.68556855996749
 20
-130.6690266600411
 10
65.53742945410175
 20
-130.6690266600411
 10
65.53742945410175
 20
-130.6690266600411
 10
65.52261554351519
 20
-130.3138373155118
 10
65.35966252706287
 20
-130.2638834309757
 10
65.24528535695256
 20
-130.2325330620599
 10
65.24528535695256
 20
-130.2325330620599
 10
65.24528535695256
 20
-130.0764702365781
 10
65.24528535695256
 20
-130.0764702365781
 10
65.24528535695256
 20
-130.0764702365781
 10
66.78972166299008
 20
-130.0764702365781
 10
66.78972166299008
 20
-130.0764702365781
 10
66.78972166299008
 20
-130.0764702365781
 10
66.78972166299008
 20
-130.3162488823515
 10
66.78972166299008
 20
-130.3162488823515
 97
        0
 97
        0
 75
     2
 76
     1
 98
        0
  0
SPLINE
  5
C8
330
C2
100
AcDbEntity
  8
_U+30EC_U+30A4_U+30E4_U+30FC 1
370
     0
100
AcDbSpline
210
0.0
220
0.0
230
1.0
 70
    11
 71
     3
 72
    29
 73
    25
 74
     0
 42
0.0000000001
 43
0.0000000001
 12
1.0
 22
0.0
 32
0.0
 13
1.0
 23
0.0
 33
0.0
 40
0.0
 40
0.0
 40
0.0
 40
0.0
 40
1.0
 40
1.0
 40
1.0
 40
2.0
 40
2.0
 40
2.0
 40
3.0
 40
3.0
 40
3.0
 40
4.0
 40
4.0
 40
4.0
 40
5.0
 40
5.0
 40
5.0
 40
6.0
 40
6.0
 40
6.0
 40
7.0
 40
7.0
 40
7.0
 40
8.0
 40
8.0
 40
8.0
 40
8.0
 10
66.84036456662325
 20
-129.0064235788595
 30
0.0
 10
66.84036456662325
 20
-129.2909884659412
 30
0.0
 10
66.70290525676178
 20
-129.5624619901788
 30
0.0
 10
66.35391708410597
 20
-129.5624619901788
 30
0.0
 10
66.0979464895519
 20
-129.5624619901788
 30
0.0
 10
66.00286185415901
 20
-129.4108777888278
 30
0.0
 10
65.94153915452156
 20
-129.2978786569116
 30
0.0
 10
65.88228351217526
 20
-129.4315483617393
 30
0.0
 10
65.76790634206498
 20
-129.5128526151912
 30
0.0
 10
65.6070203829038
 20
-129.5128526151912
 30
0.0
 10
65.33210176318087
 20
-129.5128526151912
 30
0.0
 10
65.19670951061055
 20
-129.3002902237513
 30
0.0
 10
65.19670951061055
 20
-129.0064235788595
 30
0.0
 10
65.19670951061055
 20
-128.7032551761575
 30
0.0
 10
65.34071450189398
 20
-128.4998222877535
 30
0.0
 10
65.6070203829038
 20
-128.4998222877535
 30
0.0
 10
65.76790634206498
 20
-128.4998222877535
 30
0.0
 10
65.88228351217526
 20
-128.5835381080451
 30
0.0
 10
65.94153915452156
 20
-128.7168633033243
 30
0.0
 10
65.99218205815474
 20
-128.6219509227056
 30
0.0
 10
66.08726669354763
 20
-128.4524522248313
 30
0.0
 10
66.34978296952367
 20
-128.4524522248313
 30
0.0
 10
66.72426484877033
 20
-128.4524522248313
 30
0.0
 10
66.84036456662325
 20
-128.750797493854
 30
0.0
 10
66.84036456662325
 20
-129.0064235788595
 30
0.0
  0
SPLINE
  5
C9
330
C2
100
AcDbEntity
  8
_U+30EC_U+30A4_U+30E4_U+30FC 1
370
     0
100
AcDbSpline
210
0.0
220
0.0
230
1.0
 70
    11
 71
     3
 72
    17
 73
    13
 74
     0
 42
0.0000000001
 43
0.0000000001
 12
1.0
 22
0.0
 32
0.0
 13
1.0
 23
0.0
 33
0.0
 40
0.0
 40
0.0
 40
0.0
 40
0.0
 40
1.0
 40
1.0
 40
1.0
 40
2.0
 40
2.0
 40
2.0
 40
3.0
 40
3.0
 40
3.0
 40
4.0
 40
4.0
 40
4.0
 40
4.0
 10
65.38929034823602
 20
-129.0064235788595
 30
0.0
 10
65.38929034823602
 20
-129.1828124677043
 30
0.0
 10
65.48437498362891
 20
-129.2730739694179
 30
0.0
 10
65.61976723619922
 20
-129.2730739694179
 30
0.0
 10
65.74241263547412
 20
-129.2730739694179
 30
0.0
 10
65.86092392016671
 20
-129.1962483400968
 30
0.0
 10
65.86092392016671
 20
-129.0064235788595
 30
0.0
 10
65.86092392016671
 20
-128.8162543080737
 30
0.0
 10
65.74241263547412
 20
-128.7394286787527
 30
0.0
 10
65.61976723619922
 20
-128.7394286787527
 30
0.0
 10
65.48437498362891
 20
-128.7394286787527
 30
0.0
 10
65.38929034823602
 20
-128.8321017473059
 30
0.0
 10
65.38929034823602
 20
-129.0064235788595
 30
0.0
  0
SPLINE
  5
CA
330
C2
100
AcDbEntity
  8
_U+30EC_U+30A4_U+30E4_U+30FC 1
370
     0
100
AcDbSpline
210
0.0
220
0.0
230
1.0
 70
    11
 71
     3
 72
    17
 73
    13
 74
     0
 42
0.0000000001
 43
0.0000000001
 12
1.0
 22
0.0
 32
0.0
 13
1.0
 23
0.0
 33
0.0
 40
0.0
 40
0.0
 40
0.0
 40
0.0
 40
1.0
 40
1.0
 40
1.0
 40
2.0
 40
2.0
 40
2.0
 40
3.0
 40
3.0
 40
3.0
 40
4.0
 40
4.0
 40
4.0
 40
4.0
 10
66.04937064320988
 20
-129.0064235788595
 30
0.0
 10
66.04937064320988
 20
-129.1600748375017
 30
0.0
 10
66.13618704943818
 20
-129.3226833444054
 30
0.0
 10
66.33910317351939
 20
-129.3226833444054
 30
0.0
 10
66.54443086444029
 20
-129.3226833444054
 30
0.0
 10
66.64571667170662
 20
-129.1869465822866
 30
0.0
 10
66.64571667170662
 20
-129.0064235788595
 30
0.0
 10
66.64571667170662
 20
-128.8072970598121
 30
0.0
 10
66.52307127243174
 20
-128.6898193037651
 30
0.0
 10
66.34530434539285
 20
-128.6898193037651
 30
0.0
 10
66.12344019614275
 20
-128.6898193037651
 30
0.0
 10
66.04937064320988
 20
-128.8637966257702
 30
0.0
 10
66.04937064320988
 20
-129.0064235788595
 30
0.0
  0
HATCH
  5
CB
330
C2
100
AcDbEntity
  8
_U+30EC_U+30A4_U+30E4_U+30FC 1
 62
   179
420
  2234388
100
AcDbHatch
 10
0.0
 20
0.0
 30
0.0
210
0.0
220
0.0
230
1.0
  2
SOLID
 70
     1
 71
     0
 91
        3
 92
        1
 93
        1
 72
     4
 94
        3
 73
     0
 74
     1
 95
       29
 96
       25
 40
0.0
 40
0.0
 40
0.0
 40
0.0
 40
1.0
 40
1.0
 40
1.0
 40
2.0
 40
2.0
 40
2.0
 40
3.0
 40
3.0
 40
3.0
 40
4.0
 40
4.0
 40
4.0
 40
5.0
 40
5.0
 40
5.0
 40
6.0
 40
6.0
 40
6.0
 40
7.0
 40
7.0
 40
7.0
 40
8.0
 40
8.0
 40
8.0
 40
8.0
 10
66.84036456662325
 20
-129.0064235788595
 10
66.84036456662325
 20
-129.2909884659412
 10
66.70290525676178
 20
-129.5624619901788
 10
66.35391708410597
 20
-129.5624619901788
 10
66.0979464895519
 20
-129.5624619901788
 10
66.00286185415901
 20
-129.4108777888278
 10
65.94153915452156
 20
-129.2978786569116
 10
65.88228351217526
 20
-129.4315483617393
 10
65.76790634206498
 20
-129.5128526151912
 10
65.6070203829038
 20
-129.5128526151912
 10
65.33210176318087
 20
-129.5128526151912
 10
65.19670951061055
 20
-129.3002902237513
 10
65.19670951061055
 20
-129.0064235788595
 10
65.19670951061055
 20
-128.7032551761575
 10
65.34071450189398
 20
-128.4998222877535
 10
65.6070203829038
 20
-128.4998222877535
 10
65.76790634206498
 20
-128.4998222877535
 10
65.88228351217526
 20
-128.5835381080451
 10
65.94153915452156
 20
-128.7168633033243
 10
65.99218205815474
 20
-128.6219509227056
 10
66.08726669354763
 20
-128.4524522248313
 10
66.34978296952367
 20
-128.4524522248313
 10
66.72426484877033
 20
-128.4524522248313
 10
66.84036456662325
 20
-128.750797493854
 10
66.84036456662325
 20
-129.0064235788595
 97
        0
 97
        0
 92
        1
 93
        1
 72
     4
 94
        3
 73
     0
 74
     1
 95
       17
 96
       13
 40
0.0
 40
0.0
 40
0.0
 40
0.0
 40
1.0
 40
1.0
 40
1.0
 40
2.0
 40
2.0
 40
2.0
 40
3.0
 40
3.0
 40
3.0
 40
4.0
 40
4.0
 40
4.0
 40
4.0
 10
65.38929034823602
 20
-129.0064235788595
 10
65.38929034823602
 20
-129.1828124677043
 10
65.48437498362891
 20
-129.2730739694179
 10
65.61976723619922
 20
-129.2730739694179
 10
65.74241263547412
 20
-129.2730739694179
 10
65.86092392016671
 20
-129.1962483400968
 10
65.86092392016671
 20
-129.0064235788595
 10
65.86092392016671
 20
-128.8162543080737
 10
65.74241263547412
 20
-128.7394286787527
 10
65.61976723619922
 20
-128.7394286787527
 10
65.48437498362891
 20
-128.7394286787527
 10
65.38929034823602
 20
-128.8321017473059
 10
65.38929034823602
 20
-129.0064235788595
 97
        0
 97
        0
 92
        1
 93
        1
 72
     4
 94
        3
 73
     0
 74
     1
 95
       17
 96
       13
 40
0.0
 40
0.0
 40
0.0
 40
0.0
 40
1.0
 40
1.0
 40
1.0
 40
2.0
 40
2.0
 40
2.0
 40
3.0
 40
3.0
 40
3.0
 40
4.0
 40
4.0
 40
4.0
 40
4.0
 10
66.04937064320988
 20
-129.0064235788595
 10
66.04937064320988
 20
-129.1600748375017
 10
66.13618704943818
 20
-129.3226833444054
 10
66.33910317351939
 20
-129.3226833444054
 10
66.54443086444029
 20
-129.3226833444054
 10
66.64571667170662
 20
-129.1869465822866
 10
66.64571667170662
 20
-129.0064235788595
 10
66.64571667170662
 20
-128.8072970598121
 10
66.52307127243174
 20
-128.6898193037651
 10
66.34530434539285
 20
-128.6898193037651
 10
66.12344019614275
 20
-128.6898193037651
 10
66.04937064320988
 20
-128.8637966257702
 10
66.04937064320988
 20
-129.0064235788595
 97
        0
 97
        0
 75
     2
 76
     1
 98
        0
  0
ENDBLK
  5
C5
330
C2
100
AcDbEntity
  8
0
100
AcDbBlockEnd
  0
BLOCK
  5
CE
330
CC
100
AcDbEntity
  8
0
100
AcDbBlockBegin
  2
block 8
 70
     0
 10
0.0
 20
0.0
 30
0.0
  3
block 8
  1

  0
SPLINE
  5
D0
330
CC
100
AcDbEntity
  8
_U+30EC_U+30A4_U+30E4_U+30FC 1
370
     0
100
AcDbSpline
210
0.0
220
0.0
230
1.0
 70
    11
 71
     3
 72
    26
 73
    22
 74
     0
 42
0.0000000001
 43
0.0000000001
 12
1.0
 22
0.0
 32
0.0
 13
1.0
 23
0.0
 33
0.0
 40
0.0
 40
0.0
 40
0.0
 40
0.0
 40
1.0
 40
1.0
 40
1.0
 40
2.0
 40
2.0
 40
2.0
 40
3.0
 40
3.0
 40
3.0
 40
4.0
 40
4.0
 40
4.0
 40
5.0
 40
5.0
 40
5.0
 40
6.0
 40
6.0
 40
6.0
 40
7.0
 40
7.0
 40
7.0
 40
7.0
 10
116.1668972148819
 20
-127.4938544060606
 30
0.0
 10
116.1668972148819
 20
-127.4938544060606
 30
0.0
 10
115.0627441118593
 20
-127.4938544060606
 30
0.0
 10
115.0627441118593
 20
-127.4938544060606
 30
0.0
 10
115.0627441118593
 20
-127.4938544060606
 30
0.0
 10
115.0627441118593
 20
-127.8466321837502
 30
0.0
 10
115.0627441118593
 20
-127.8466321837502
 30
0.0
 10
115.0627441118593
 20
-127.8466321837502
 30
0.0
 10
114.9146050059936
 20
-127.8466321837502
 30
0.0
 10
114.9146050059936
 20
-127.8466321837502
 30
0.0
 10
114.899791095407
 20
-127.4916150939952
 30
0.0
 10
114.7368380789547
 20
-127.4418334642333
 30
0.0
 10
114.6224609088444
 20
-127.4103108405433
 30
0.0
 10
114.6224609088444
 20
-127.4103108405433
 30
0.0
 10
114.6224609088444
 20
-127.2542480150614
 30
0.0
 10
114.6224609088444
 20
-127.2542480150614
 30
0.0
 10
114.6224609088444
 20
-127.2542480150614
 30
0.0
 10
116.1668972148819
 20
-127.2542480150614
 30
0.0
 10
116.1668972148819
 20
-127.2542480150614
 30
0.0
 10
116.1668972148819
 20
-127.2542480150614
 30
0.0
 10
116.1668972148819
 20
-127.4938544060606
 30
0.0
 10
116.1668972148819
 20
-127.4938544060606
 30
0.0
  0
HATCH
  5
D1
330
CC
100
AcDbEntity
  8
_U+30EC_U+30A4_U+30E4_U+30FC 1
 62
   179
420
  2234388
100
AcDbHatch
 10
0.0
 20
0.0
 30
0.0
210
0.0
220
0.0
230
1.0
  2
SOLID
 70
     1
 71
     0
 91
        1
 92
        1
 93
        1
 72
     4
 94
        3
 73
     0
 74
     1
 95
       26
 96
       22
 40
0.0
 40
0.0
 40
0.0
 40
0.0
 40
1.0
 40
1.0
 40
1.0
 40
2.0
 40
2.0
 40
2.0
 40
3.0
 40
3.0
 40
3.0
 40
4.0
 40
4.0
 40
4.0
 40
5.0
 40
5.0
 40
5.0
 40
6.0
 40
6.0
 40
6.0
 40
7.0
 40
7.0
 40
7.0
 40
7.0
 10
116.1668972148819
 20
-127.4938544060606
 10
116.1668972148819
 20
-127.4938544060606
 10
115.0627441118593
 20
-127.4938544060606
 10
115.0627441118593
 20
-127.4938544060606
 10
115.0627441118593
 20
-127.4938544060606
 10
115.0627441118593
 20
-127.8466321837502
 10
115.0627441118593
 20
-127.8466321837502
 10
115.0627441118593
 20
-127.8466321837502
 10
114.9146050059936
 20
-127.8466321837502
 10
114.9146050059936
 20
-127.8466321837502
 10
114.899791095407
 20
-127.4916150939952
 10
114.7368380789547
 20
-127.4418334642333
 10
114.6224609088444
 20
-127.4103108405433
 10
114.6224609088444
 20
-127.4103108405433
 10
114.6224609088444
 20
-127.2542480150614
 10
114.6224609088444
 20
-127.2542480150614
 10
114.6224609088444
 20
-127.2542480150614
 10
116.1668972148819
 20
-127.2542480150614
 10
116.1668972148819
 20
-127.2542480150614
 10
116.1668972148819
 20
-127.2542480150614
 10
116.1668972148819
 20
-127.4938544060606
 10
116.1668972148819
 20
-127.4938544060606
 97
        0
 97
        0
 75
     2
 76
     1
 98
        0
  0
ENDBLK
  5
CF
330
CC
100
AcDbEntity
  8
0
100
AcDbBlockEnd
  0
BLOCK
  5
EE
330
EC
100
AcDbEntity
  8
0
100
AcDbBlockBegin
  2
block 9
 70
     0
 10
0.0
 20
0.0
 30
0.0
  3
block 9
  1

  0
SPLINE
  5
F0
330
EC
100
AcDbEntity
  8
_U+30EC_U+30A4_U+30E4_U+30FC 1
370
     0
100
AcDbSpline
210
0.0
220
0.0
230
1.0
 70
    11
 71
     3
 72
    62
 73
    58
 74
     0
 42
0.0000000001
 43
0.0000000001
 12
1.0
 22
0.0
 32
0.0
 13
1.0
 23
0.0
 33
0.0
 40
0.0
 40
0.0
 40
0.0
 40
0.0
 40
1.0
 40
1.0
 40
1.0
 40
2.0
 40
2.0
 40
2.0
 40
3.0
 40
3.0
 40
3.0
 40
4.0
 40
4.0
 40
4.0
 40
5.0
 40
5.0
 40
5.0
 40
6.0
 40
6.0
 40
6.0
 40
7.0
 40
7.0
 40
7.0
 40
8.0
 40
8.0
 40
8.0
 40
9.0
 40
9.0
 40
9.0
 40
10.0
 40
10.0
 40
10.0
 40
11.0
 40
11.0
 40
11.0
 40
12.0
 40
12.0
 40
12.0
 40
13.0
 40
13.0
 40
13.0
 40
14.0
 40
14.0
 40
14.0
 40
15.0
 40
15.0
 40
15.0
 40
16.0
 40
16.0
 40
16.0
 40
17.0
 40
17.0
 40
17.0
 40
18.0
 40
18.0
 40
18.0
 40
19.0
 40
19.0
 40
19.0
 40
19.0
 10
73.25754392699811
 20
-113.8552381442793
 30
0.0
 10
73.15591361018325
 20
-113.8552381442793
 30
0.0
 10
72.92302515538036
 20
-113.8342230618192
 30
0.0
 10
72.78952770532693
 20
-113.6481879056157
 30
0.0
 10
72.71046276394044
 20
-113.5358777927966
 30
0.0
 10
72.70598413980962
 20
-113.4366590428214
 30
0.0
 10
72.70150551567879
 20
-113.3519096938843
 30
0.0
 10
72.70150551567879
 20
-113.3519096938843
 30
0.0
 10
72.93646102777284
 20
-113.3519096938843
 30
0.0
 10
72.93646102777284
 20
-113.3519096938843
 30
0.0
 10
72.9388725946125
 20
-113.4259792468171
 30
0.0
 10
72.95006915493957
 20
-113.6605902493626
 30
0.0
 10
73.2530653028673
 20
-113.6605902493626
 30
0.0
 10
73.3999986253132
 20
-113.6605902493626
 30
0.0
 10
73.56277938699125
 20
-113.5909993205606
 30
0.0
 10
73.56277938699125
 20
-113.3625894898885
 30
0.0
 10
73.56277938699125
 20
-113.2461452624871
 30
0.0
 10
73.52212726026531
 20
-113.1975694161451
 30
0.0
 10
73.48819306973559
 20
-113.1658745376808
 30
0.0
 10
73.40912812834911
 20
-113.0918049847479
 30
0.0
 10
73.28476018133159
 20
-113.0790581314525
 30
0.0
 10
73.22584904853382
 20
-113.0790581314525
 30
0.0
 10
73.20552298517084
 20
-113.0790581314525
 30
0.0
 10
73.16711017051031
 20
-113.0811251887436
 30
0.0
 10
73.13782685888569
 20
-113.0852593033259
 30
0.0
 10
73.13782685888569
 20
-113.0852593033259
 30
0.0
 10
73.13782685888569
 20
-112.8906114084093
 30
0.0
 10
73.13782685888569
 20
-112.8906114084093
 30
0.0
 10
73.17847898561163
 20
-112.8971570898313
 30
0.0
 10
73.2236097364684
 20
-112.8992241471224
 30
0.0
 10
73.23049992743891
 20
-112.8992241471224
 30
0.0
 10
73.30060762056374
 20
-112.8992241471224
 30
0.0
 10
73.5129977572294
 20
-112.8778645551139
 30
0.0
 10
73.5129977572294
 20
-112.6411864952772
 30
0.0
 10
73.5129977572294
 20
-112.4634195682383
 30
0.0
 10
73.37295462575399
 20
-112.4082980404743
 30
0.0
 10
73.25530461493271
 20
-112.4082980404743
 30
0.0
 10
72.97263453036796
 20
-112.4082980404743
 30
0.0
 10
72.9636772821063
 20
-112.6411864952772
 30
0.0
 10
72.95919865797548
 20
-112.7128444813704
 30
0.0
 10
72.95919865797548
 20
-112.7128444813704
 30
0.0
 10
72.74215764240475
 20
-112.7128444813704
 30
0.0
 10
72.74215764240475
 20
-112.7128444813704
 30
0.0
 10
72.75111489066639
 20
-112.5881320248044
 30
0.0
 10
72.78057045706528
 20
-112.2115830882666
 30
0.0
 10
73.26891274209945
 20
-112.2115830882666
 30
0.0
 10
73.50851913309857
 20
-112.2115830882666
 30
0.0
 10
73.76621227539526
 20
-112.3387071116723
 30
0.0
 10
73.76621227539526
 20
-112.6346408138552
 30
0.0
 10
73.76621227539526
 20
-112.8210204796073
 30
0.0
 10
73.66458195858038
 20
-112.9033582617047
 30
0.0
 10
73.55830076286043
 20
-112.9646809613422
 30
0.0
 10
73.62375757708017
 20
-112.9922417252242
 30
0.0
 10
73.81823321722253
 20
-113.0725124500305
 30
0.0
 10
73.81823321722253
 20
-113.3498426365931
 30
0.0
 10
73.81823321722253
 20
-113.6881510132446
 30
0.0
 10
73.5538221387296
 20
-113.8552381442793
 30
0.0
 10
73.25754392699811
 20
-113.8552381442793
 30
0.0
  0
HATCH
  5
F1
330
EC
100
AcDbEntity
  8
_U+30EC_U+30A4_U+30E4_U+30FC 1
 62
   179
420
  2234388
100
AcDbHatch
 10
0.0
 20
0.0
 30
0.0
210
0.0
220
0.0
230
1.0
  2
SOLID
 70
     1
 71
     0
 91
        1
 92
        1
 93
        1
 72
     4
 94
        3
 73
     0
 74
     1
 95
       62
 96
       58
 40
0.0
 40
0.0
 40
0.0
 40
0.0
 40
1.0
 40
1.0
 40
1.0
 40
2.0
 40
2.0
 40
2.0
 40
3.0
 40
3.0
 40
3.0
 40
4.0
 40
4.0
 40
4.0
 40
5.0
 40
5.0
 40
5.0
 40
6.0
 40
6.0
 40
6.0
 40
7.0
 40
7.0
 40
7.0
 40
8.0
 40
8.0
 40
8.0
 40
9.0
 40
9.0
 40
9.0
 40
10.0
 40
10.0
 40
10.0
 40
11.0
 40
11.0
 40
11.0
 40
12.0
 40
12.0
 40
12.0
 40
13.0
 40
13.0
 40
13.0
 40
14.0
 40
14.0
 40
14.0
 40
15.0
 40
15.0
 40
15.0
 40
16.0
 40
16.0
 40
16.0
 40
17.0
 40
17.0
 40
17.0
 40
18.0
 40
18.0
 40
18.0
 40
19.0
 40
19.0
 40
19.0
 40
19.0
 10
73.25754392699811
 20
-113.8552381442793
 10
73.15591361018325
 20
-113.8552381442793
 10
72.92302515538036
 20
-113.8342230618192
 10
72.78952770532693
 20
-113.6481879056157
 10
72.71046276394044
 20
-113.5358777927966
 10
72.70598413980962
 20
-113.4366590428214
 10
72.70150551567879
 20
-113.3519096938843
 10
72.70150551567879
 20
-113.3519096938843
 10
72.93646102777284
 20
-113.3519096938843
 10
72.93646102777284
 20
-113.3519096938843
 10
72.9388725946125
 20
-113.4259792468171
 10
72.95006915493957
 20
-113.6605902493626
 10
73.2530653028673
 20
-113.6605902493626
 10
73.3999986253132
 20
-113.6605902493626
 10
73.56277938699125
 20
-113.5909993205606
 10
73.56277938699125
 20
-113.3625894898885
 10
73.56277938699125
 20
-113.2461452624871
 10
73.52212726026531
 20
-113.1975694161451
 10
73.48819306973559
 20
-113.1658745376808
 10
73.40912812834911
 20
-113.0918049847479
 10
73.28476018133159
 20
-113.0790581314525
 10
73.22584904853382
 20
-113.0790581314525
 10
73.20552298517084
 20
-113.0790581314525
 10
73.16711017051031
 20
-113.0811251887436
 10
73.13782685888569
 20
-113.0852593033259
 10
73.13782685888569
 20
-113.0852593033259
 10
73.13782685888569
 20
-112.8906114084093
 10
73.13782685888569
 20
-112.8906114084093
 10
73.17847898561163
 20
-112.8971570898313
 10
73.2236097364684
 20
-112.8992241471224
 10
73.23049992743891
 20
-112.8992241471224
 10
73.30060762056374
 20
-112.8992241471224
 10
73.5129977572294
 20
-112.8778645551139
 10
73.5129977572294
 20
-112.6411864952772
 10
73.5129977572294
 20
-112.4634195682383
 10
73.37295462575399
 20
-112.4082980404743
 10
73.25530461493271
 20
-112.4082980404743
 10
72.97263453036796
 20
-112.4082980404743
 10
72.9636772821063
 20
-112.6411864952772
 10
72.95919865797548
 20
-112.7128444813704
 10
72.95919865797548
 20
-112.7128444813704
 10
72.74215764240475
 20
-112.7128444813704
 10
72.74215764240475
 20
-112.7128444813704
 10
72.75111489066639
 20
-112.5881320248044
 10
72.78057045706528
 20
-112.2115830882666
 10
73.26891274209945
 20
-112.2115830882666
 10
73.50851913309857
 20
-112.2115830882666
 10
73.76621227539526
 20
-112.3387071116723
 10
73.76621227539526
 20
-112.6346408138552
 10
73.76621227539526
 20
-112.8210204796073
 10
73.66458195858038
 20
-112.9033582617047
 10
73.55830076286043
 20
-112.9646809613422
 10
73.62375757708017
 20
-112.9922417252242
 10
73.81823321722253
 20
-113.0725124500305
 10
73.81823321722253
 20
-113.3498426365931
 10
73.81823321722253
 20
-113.6881510132446
 10
73.5538221387296
 20
-113.8552381442793
 10
73.25754392699811
 20
-113.8552381442793
 97
        0
 97
        0
 75
     2
 76
     1
 98
        0
  0
ENDBLK
  5
EF
330
EC
100
AcDbEntity
  8
0
100
AcDbBlockEnd
  0
ENDSEC
  0
SECTION
  2
ENTITIES
  0
POLYLINE
  5
41
330
1F
100
AcDbEntity
  8
_U+30EC_U+30A4_U+30E4_U+30FC 1
 62
   179
420
  2234388
370
     9
100
AcDb2dPolyline
 66
     1
 10
0.0
 20
0.0
 30
0.0
  0
VERTEX
  5
42
330
41
100
AcDbEntity
  8
_U+30EC_U+30A4_U+30E4_U+30FC 1
 62
   179
420
  2234388
370
     9
100
AcDbVertex
100
AcDb2dVertex
 10
116.7749447986007
 20
-126.5073458017066
 30
0.0
  0
VERTEX
  5
43
330
41
100
AcDbEntity
  8
_U+30EC_U+30A4_U+30E4_U+30FC 1
 62
   179
420
  2234388
370
     9
100
AcDbVertex
100
AcDb2dVertex
 10
116.7749447986007
 20
-138.9097071874947
 30
0.0
  0
SEQEND
  5
44
330
41
100
AcDbEntity
  8
_U+30EC_U+30A4_U+30E4_U+30FC 1
 62
   179
420
  2234388
370
     9
  0
POLYLINE
  5
45
330
1F
100
AcDbEntity
  8
_U+30EC_U+30A4_U+30E4_U+30FC 1
 62
   179
420
  2234388
370
     9
100
AcDb2dPolyline
 66
     1
 10
0.0
 20
0.0
 30
0.0
  0
VERTEX
  5
46
330
45
100
AcDbEntity
  8
_U+30EC_U+30A4_U+30E4_U+30FC 1
 62
   179
420
  2234388
370
     9
100
AcDbVertex
100
AcDb2dVertex
 10
71.62835275987075
 20
-117.0999971929472
 30
0.0
  0
VERTEX
  5
47
330
45
100
AcDbEntity
  8
_U+30EC_U+30A4_U+30E4_U+30FC 1
 62
   179
420
  2234388
370
     9
100
AcDbVertex
100
AcDb2dVertex
 10
111.6279877076883
 20
-117.0999971929472
 30
0.0
  0
SEQEND
  5
48
330
45
100
AcDbEntity
  8
_U+30EC_U+30A4_U+30E4_U+30FC 1
 62
   179
420
  2234388
370
     9
  0
POLYLINE
  5
49
330
1F
100
AcDbEntity
  8
_U+30EC_U+30A4_U+30E4_U+30FC 1
 62
   179
420
  2234388
370
     9
100
AcDb2dPolyline
 66
     1
 10
0.0
 20
0.0
 30
0.0
  0
VERTEX
  5
4A
330
49
100
AcDbEntity
  8
_U+30EC_U+30A4_U+30E4_U+30FC 1
 62
   179
420
  2234388
370
     9
100
AcDbVertex
100
AcDb2dVertex
 10
71.49606109323716
 20
-144.0797360750915
 30
0.0
  0
VERTEX
  5
4B
330
49
100
AcDbEntity
  8
_U+30EC_U+30A4_U+30E4_U+30FC 1
 62
   179
420
  2234388
370
     9
100
AcDbVertex
100
AcDb2dVertex
 10
81.49614486530457
 20
-144.0797360750915
 30
0.0
  0
SEQEND
  5
4C
330
49
100
AcDbEntity
  8
_U+30EC_U+30A4_U+30E4_U+30FC 1
 62
   179
420
  2234388
370
     9
  0
INSERT
  5
4E
330
1F
100
AcDbEntity
  8
_U+30EC_U+30A4_U+30E4_U+30FC 1
100
AcDbBlockReference
  2
block 2
 10
0.0
 20
0.0
 30
0.0
  0
INSERT
  5
6A
330
1F
100
AcDbEntity
  8
_U+30EC_U+30A4_U+30E4_U+30FC 1
100
AcDbBlockReference
  2
block 3
 10
0.0
 20
0.0
 30
0.0
  0
POLYLINE
  5
72
330
1F
100
AcDbEntity
  8
_U+30EC_U+30A4_U+30E4_U+30FC 1
 62
   179
420
  2234388
370
    25
100
AcDb2dPolyline
 66
     1
 10
0.0
 20
0.0
 30
0.0
  0
VERTEX
  5
73
330
72
100
AcDbEntity
  8
_U+30EC_U+30A4_U+30E4_U+30FC 1
 62
   179
420
  2234388
370
    25
100
AcDbVertex
100
AcDb2dVertex
 10
71.49606109323716
 20
-120.8958155253315
 30
0.0
  0
VERTEX
  5
74
330
72
100
AcDbEntity
  8
_U+30EC_U+30A4_U+30E4_U+30FC 1
 62
   179
420
  2234388
370
    25
100
AcDbVertex
100
AcDb2dVertex
 10
74.56081615335066
 20
-120.8958155253315
 30
0.0
  0
VERTEX
  5
75
330
72
100
AcDbEntity
  8
_U+30EC_U+30A4_U+30E4_U+30FC 1
 62
   179
420
  2234388
370
    25
100
AcDbVertex
100
AcDb2dVertex
 10
74.56081615335066
 20
-121.8659544139779
 30
0.0
  0
VERTEX
  5
76
330
72
100
AcDbEntity
  8
_U+30EC_U+30A4_U+30E4_U+30FC 1
 62
   179
420
  2234388
370
    25
100
AcDbVertex
100
AcDb2dVertex
 10
72.5543944263059
 20
-123.7400863579538
 30
0.0
  0
VERTEX
  5
77
330
72
100
AcDbEntity
  8
_U+30EC_U+30A4_U+30E4_U+30FC 1
 62
   179
420
  2234388
370
    25
100
AcDbVertex
100
AcDb2dVertex
 10
72.5543944263059
 20
-128.6789752456079
 30
0.0
  0
VERTEX
  5
78
330
72
100
AcDbEntity
  8
_U+30EC_U+30A4_U+30E4_U+30FC 1
 62
   179
420
  2234388
370
    25
100
AcDbVertex
100
AcDb2dVertex
 10
111.7127277498493
 20
-128.6789752456079
 30
0.0
  0
VERTEX
  5
79
330
72
100
AcDbEntity
  8
_U+30EC_U+30A4_U+30E4_U+30FC 1
 62
   179
420
  2234388
370
    25
100
AcDbVertex
100
AcDb2dVertex
 10
111.7127277498493
 20
-129.6706335786932
 30
0.0
  0
VERTEX
  5
7A
330
72
100
AcDbEntity
  8
_U+30EC_U+30A4_U+30E4_U+30FC 1
 62
   179
420
  2234388
370
    25
100
AcDbVertex
100
AcDb2dVertex
 10
72.5543944263059
 20
-129.6706335786932
 30
0.0
  0
VERTEX
  5
7B
330
72
100
AcDbEntity
  8
_U+30EC_U+30A4_U+30E4_U+30FC 1
 62
   179
420
  2234388
370
    25
100
AcDbVertex
100
AcDb2dVertex
 10
72.5543944263059
 20
-135.9772419104501
 30
0.0
  0
VERTEX
  5
7C
330
72
100
AcDbEntity
  8
_U+30EC_U+30A4_U+30E4_U+30FC 1
 62
   179
420
  2234388
370
    25
100
AcDbVertex
100
AcDb2dVertex
 10
81.37383886854549
 20
-135.9772419104501
 30
0.0
  0
VERTEX
  5
7D
330
72
100
AcDbEntity
  8
_U+30EC_U+30A4_U+30E4_U+30FC 1
 62
   179
420
  2234388
370
    25
100
AcDbVertex
100
AcDb2dVertex
 10
81.37383886854549
 20
-138.9262171874906
 30
0.0
  0
VERTEX
  5
7E
330
72
100
AcDbEntity
  8
_U+30EC_U+30A4_U+30E4_U+30FC 1
 62
   179
420
  2234388
370
    25
100
AcDbVertex
100
AcDb2dVertex
 10
71.49606109323716
 20
-138.9262171874906
 30
0.0
  0
VERTEX
  5
7F
330
72
100
AcDbEntity
  8
_U+30EC_U+30A4_U+30E4_U+30FC 1
 62
   179
420
  2234388
370
    25
100
AcDbVertex
100
AcDb2dVertex
 10
71.49606109323716
 20
-120.8958155253315
 30
0.0
  0
SEQEND
  5
80
330
72
100
AcDbEntity
  8
_U+30EC_U+30A4_U+30E4_U+30FC 1
 62
   179
420
  2234388
370
    25
  0
POLYLINE
  5
81
330
1F
100
AcDbEntity
  8
_U+30EC_U+30A4_U+30E4_U+30FC 1
 62
   179
420
  2234388
370
    25
100
AcDb2dPolyline
 66
     1
 10
0.0
 20
0.0
 30
0.0
  0
VERTEX
  5
82
330
81
100
AcDbEntity
  8
_U+30EC_U+30A4_U+30E4_U+30FC 1
 62
   179
420
  2234388
370
    25
100
AcDbVertex
100
AcDb2dVertex
 10
71.49606109323716
 20
-120.8958155253315
 30
0.0
  0
VERTEX
  5
83
330
81
100
AcDbEntity
  8
_U+30EC_U+30A4_U+30E4_U+30FC 1
 62
   179
420
  2234388
370
    25
100
AcDbVertex
100
AcDb2dVertex
 10
72.55266398236067
 20
-121.8769610806419
 30
0.0
  0
VERTEX
  5
84
330
81
100
AcDbEntity
  8
_U+30EC_U+30A4_U+30E4_U+30FC 1
 62
   179
420
  2234388
370
    25
100
AcDbVertex
100
AcDb2dVertex
 10
72.5543944263059
 20
-123.7400863579538
 30
0.0
  0
SEQEND
  5
85
330
81
100
AcDbEntity
  8
_U+30EC_U+30A4_U+30E4_U+30FC 1
 62
   179
420
  2234388
370
    25
  0
POLYLINE
  5
86
330
1F
100
AcDbEntity
  8
_U+30EC_U+30A4_U+30E4_U+30FC 1
 62
   179
420
  2234388
370
    25
100
AcDb2dPolyline
 66
     1
 10
0.0
 20
0.0
 30
0.0
  0
VERTEX
  5
87
330
86
100
AcDbEntity
  8
_U+30EC_U+30A4_U+30E4_U+30FC 1
 62
   179
420
  2234388
370
    25
100
AcDbVertex
100
AcDb2dVertex
 10
72.5543944263059
 20
-135.9772419104501
 30
0.0
  0
VERTEX
  5
88
330
86
100
AcDbEntity
  8
_U+30EC_U+30A4_U+30E4_U+30FC 1
 62
   179
420
  2234388
370
    25
100
AcDbVertex
100
AcDb2dVertex
 10
72.5543944263059
 20
-137.9891688543917
 30
0.0
  0
VERTEX
  5
89
330
86
100
AcDbEntity
  8
_U+30EC_U+30A4_U+30E4_U+30FC 1
 62
   179
420
  2234388
370
    25
100
AcDbVertex
100
AcDb2dVertex
 10
71.49606109323716
 20
-138.9262171874906
 30
0.0
  0
SEQEND
  5
8A
330
86
100
AcDbEntity
  8
_U+30EC_U+30A4_U+30E4_U+30FC 1
 62
   179
420
  2234388
370
    25
  0
SPLINE
  5
8B
330
1F
100
AcDbEntity
  8
_U+30EC_U+30A4_U+30E4_U+30FC 1
 62
   179
420
  2234388
370
     9
100
AcDbSpline
210
0.0
220
0.0
230
1.0
 70
    11
 71
     3
 72
    17
 73
    13
 74
     0
 42
0.0000000001
 43
0.0000000001
 12
1.0
 22
0.0
 32
0.0
 13
1.0
 23
0.0
 33
0.0
 40
0.0
 40
0.0
 40
0.0
 40
0.0
 40
1.0
 40
1.0
 40
1.0
 40
2.0
 40
2.0
 40
2.0
 40
3.0
 40
3.0
 40
3.0
 40
4.0
 40
4.0
 40
4.0
 40
4.0
 10
116.8755570182561
 20
-128.6850077456064
 30
0.0
 10
116.8755570182561
 20
-128.6295158011759
 30
0.0
 10
116.8307542416214
 20
-128.584748301187
 30
0.0
 10
116.7756503541383
 20
-128.584748301187
 30
0.0
 10
116.7205111888783
 20
-128.584748301187
 30
0.0
 10
116.6757436900205
 20
-128.6295158011759
 30
0.0
 10
116.6757436900205
 20
-128.6850077456064
 30
0.0
 10
116.6757436900205
 20
-128.7401116344817
 30
0.0
 10
116.7205111888783
 20
-128.7849144122484
 30
0.0
 10
116.7756503541383
 20
-128.7849144122484
 30
0.0
 10
116.8307542416214
 20
-128.7849144122484
 30
0.0
 10
116.8755570182561
 20
-128.7401116344817
 30
0.0
 10
116.8755570182561
 20
-128.6850077456064
 30
0.0
  0
SPLINE
  5
8C
330
1F
100
AcDbEntity
  8
_U+30EC_U+30A4_U+30E4_U+30FC 1
 62
   179
420
  2234388
370
     9
100
AcDbSpline
210
0.0
220
0.0
230
1.0
 70
    11
 71
     3
 72
    17
 73
    13
 74
     0
 42
0.0000000001
 43
0.0000000001
 12
1.0
 22
0.0
 32
0.0
 13
1.0
 23
0.0
 33
0.0
 40
0.0
 40
0.0
 40
0.0
 40
0.0
 40
1.0
 40
1.0
 40
1.0
 40
2.0
 40
2.0
 40
2.0
 40
3.0
 40
3.0
 40
3.0
 40
4.0
 40
4.0
 40
4.0
 40
4.0
 10
116.8755570182561
 20
-129.6665060786946
 30
0.0
 10
116.8755570182561
 20
-129.6106966342641
 30
0.0
 10
116.8307542416214
 20
-129.5658938564974
 30
0.0
 10
116.7756503541383
 20
-129.5658938564974
 30
0.0
 10
116.7205111888783
 20
-129.5658938564974
 30
0.0
 10
116.6757436900205
 20
-129.6106966342641
 30
0.0
 10
116.6757436900205
 20
-129.6665060786946
 30
0.0
 10
116.6757436900205
 20
-129.7216099675695
 30
0.0
 10
116.7205111888783
 20
-129.7664127453362
 30
0.0
 10
116.7756503541383
 20
-129.7664127453362
 30
0.0
 10
116.8307542416214
 20
-129.7664127453362
 30
0.0
 10
116.8755570182561
 20
-129.7216099675695
 30
0.0
 10
116.8755570182561
 20
-129.6665060786946
 30
0.0
  0
SPLINE
  5
8D
330
1F
100
AcDbEntity
  8
_U+30EC_U+30A4_U+30E4_U+30FC 1
 62
   179
420
  2234388
370
     9
100
AcDbSpline
210
0.0
220
0.0
230
1.0
 70
    11
 71
     3
 72
    17
 73
    13
 74
     0
 42
0.0000000001
 43
0.0000000001
 12
1.0
 22
0.0
 32
0.0
 13
1.0
 23
0.0
 33
0.0
 40
0.0
 40
0.0
 40
0.0
 40
0.0
 40
1.0
 40
1.0
 40
1.0
 40
2.0
 40
2.0
 40
2.0
 40
3.0
 40
3.0
 40
3.0
 40
4.0
 40
4.0
 40
4.0
 40
4.0
 10
81.68907902704908
 20
-120.9020244142189
 30
0.0
 10
81.68907902704908
 20
-120.8468852475661
 30
0.0
 10
81.64427625041432
 20
-120.8021177475773
 30
0.0
 10
81.58917236293125
 20
-120.8021177475773
 30
0.0
 10
81.53403319767129
 20
-120.8021177475773
 30
0.0
 10
81.48926569881341
 20
-120.8468852475661
 30
0.0
 10
81.48926569881341
 20
-120.9020244142189
 30
0.0
 10
81.48926569881341
 20
-120.9571283030941
 30
0.0
 10
81.53403319767129
 20
-121.0019310808605
 30
0.0
 10
81.58917236293125
 20
-121.0019310808605
 30
0.0
 10
81.64427625041432
 20
-121.0019310808605
 30
0.0
 10
81.68907902704908
 20
-120.9571283030941
 30
0.0
 10
81.68907902704908
 20
-120.9020244142189
 30
0.0
  0
SPLINE
  5
8E
330
1F
100
AcDbEntity
  8
_U+30EC_U+30A4_U+30E4_U+30FC 1
 62
   179
420
  2234388
370
     9
100
AcDbSpline
210
0.0
220
0.0
230
1.0
 70
    11
 71
     3
 72
    17
 73
    13
 74
     0
 42
0.0000000001
 43
0.0000000001
 12
1.0
 22
0.0
 32
0.0
 13
1.0
 23
0.0
 33
0.0
 40
0.0
 40
0.0
 40
0.0
 40
0.0
 40
1.0
 40
1.0
 40
1.0
 40
2.0
 40
2.0
 40
2.0
 40
3.0
 40
3.0
 40
3.0
 40
4.0
 40
4.0
 40
4.0
 40
4.0
 10
81.68907902704908
 20
-123.9109719134667
 30
0.0
 10
81.68907902704908
 20
-123.8554799690362
 30
0.0
 10
81.64427625041432
 20
-123.8107124690473
 30
0.0
 10
81.58917236293125
 20
-123.8107124690473
 30
0.0
 10
81.53403319767129
 20
-123.8107124690473
 30
0.0
 10
81.48926569881341
 20
-123.8554799690362
 30
0.0
 10
81.48926569881341
 20
-123.9109719134667
 30
0.0
 10
81.48926569881341
 20
-123.9660758023419
 30
0.0
 10
81.53403319767129
 20
-124.0108785801083
 30
0.0
 10
81.58917236293125
 20
-124.0108785801083
 30
0.0
 10
81.64427625041432
 20
-124.0108785801083
 30
0.0
 10
81.68907902704908
 20
-123.9660758023419
 30
0.0
 10
81.68907902704908
 20
-123.9109719134667
 30
0.0
  0
POLYLINE
  5
8F
330
1F
100
AcDbEntity
  8
_U+30EC_U+30A4_U+30E4_U+30FC 1
 62
   179
420
  2234388
370
     9
100
AcDb2dPolyline
 66
     1
 10
0.0
 20
0.0
 30
0.0
  0
VERTEX
  5
90
330
8F
100
AcDbEntity
  8
_U+30EC_U+30A4_U+30E4_U+30FC 1
 62
   179
420
  2234388
370
     9
100
AcDbVertex
100
AcDb2dVertex
 10
81.58917236293125
 20
-120.9020244142189
 30
0.0
  0
VERTEX
  5
91
330
8F
100
AcDbEntity
  8
_U+30EC_U+30A4_U+30E4_U+30FC 1
 62
   179
420
  2234388
370
     9
100
AcDbVertex
100
AcDb2dVertex
 10
81.58917236293125
 20
-123.9020113579136
 30
0.0
  0
SEQEND
  5
92
330
8F
100
AcDbEntity
  8
_U+30EC_U+30A4_U+30E4_U+30FC 1
 62
   179
420
  2234388
370
     9
  0
POLYLINE
  5
93
330
1F
100
AcDbEntity
  8
_U+30EC_U+30A4_U+30E4_U+30FC 1
 62
   179
420
  2234388
370
     9
100
AcDb2dPolyline
 66
     1
 10
0.0
 20
0.0
 30
0.0
  0
VERTEX
  5
94
330
93
100
AcDbEntity
  8
_U+30EC_U+30A4_U+30E4_U+30FC 1
 62
   179
420
  2234388
370
     9
100
AcDbVertex
100
AcDb2dVertex
 10
77.06366858949758
 20
-120.9020244142189
 30
0.0
  0
VERTEX
  5
95
330
93
100
AcDbEntity
  8
_U+30EC_U+30A4_U+30E4_U+30FC 1
 62
   179
420
  2234388
370
     9
100
AcDbVertex
100
AcDb2dVertex
 10
82.61099317019575
 20
-120.9020244142189
 30
0.0
  0
SEQEND
  5
96
330
93
100
AcDbEntity
  8
_U+30EC_U+30A4_U+30E4_U+30FC 1
 62
   179
420
  2234388
370
     9
  0
POLYLINE
  5
97
330
1F
100
AcDbEntity
  8
_U+30EC_U+30A4_U+30E4_U+30FC 1
 62
   179
420
  2234388
370
     9
100
AcDb2dPolyline
 66
     1
 10
0.0
 20
0.0
 30
0.0
  0
VERTEX
  5
98
330
97
100
AcDbEntity
  8
_U+30EC_U+30A4_U+30E4_U+30FC 1
 62
   179
420
  2234388
370
     9
100
AcDbVertex
100
AcDb2dVertex
 10
77.0523110918481
 20
-123.9037046912464
 30
0.0
  0
VERTEX
  5
99
330
97
100
AcDbEntity
  8
_U+30EC_U+30A4_U+30E4_U+30FC 1
 62
   179
420
  2234388
370
     9
100
AcDbVertex
100
AcDb2dVertex
 10
82.61099317019575
 20
-123.9037046912464
 30
0.0
  0
SEQEND
  5
9A
330
97
100
AcDbEntity
  8
_U+30EC_U+30A4_U+30E4_U+30FC 1
 62
   179
420
  2234388
370
     9
  0
INSERT
  5
9C
330
1F
100
AcDbEntity
  8
_U+30EC_U+30A4_U+30E4_U+30FC 1
100
AcDbBlockReference
  2
block 4
 10
0.0
 20
0.0
 30
0.0
  0
SPLINE
  5
A1
330
1F
100
AcDbEntity
  8
_U+30EC_U+30A4_U+30E4_U+30FC 1
 62
   179
420
  2234388
370
     9
100
AcDbSpline
210
0.0
220
0.0
230
1.0
 70
    11
 71
     3
 72
    17
 73
    13
 74
     0
 42
0.0000000001
 43
0.0000000001
 12
1.0
 22
0.0
 32
0.0
 13
1.0
 23
0.0
 33
0.0
 40
0.0
 40
0.0
 40
0.0
 40
0.0
 40
1.0
 40
1.0
 40
1.0
 40
2.0
 40
2.0
 40
2.0
 40
3.0
 40
3.0
 40
3.0
 40
4.0
 40
4.0
 40
4.0
 40
4.0
 10
116.856260074304
 20
-135.9724088548959
 30
0.0
 10
116.856260074304
 20
-135.9172696882428
 30
0.0
 10
116.8114572976692
 20
-135.8725021882543
 30
0.0
 10
116.7563534101862
 20
-135.8725021882543
 30
0.0
 10
116.7012142449262
 20
-135.8725021882543
 30
0.0
 10
116.6564467460683
 20
-135.9172696882428
 30
0.0
 10
116.6564467460683
 20
-135.9724088548959
 30
0.0
 10
116.6564467460683
 20
-136.0275127437708
 30
0.0
 10
116.7012142449262
 20
-136.0723155215375
 30
0.0
 10
116.7563534101862
 20
-136.0723155215375
 30
0.0
 10
116.8114572976692
 20
-136.0723155215375
 30
0.0
 10
116.856260074304
 20
-136.0275127437708
 30
0.0
 10
116.856260074304
 20
-135.9724088548959
 30
0.0
  0
SPLINE
  5
A2
330
1F
100
AcDbEntity
  8
_U+30EC_U+30A4_U+30E4_U+30FC 1
 62
   179
420
  2234388
370
     9
100
AcDbSpline
210
0.0
220
0.0
230
1.0
 70
    11
 71
     3
 72
    17
 73
    13
 74
     0
 42
0.0000000001
 43
0.0000000001
 12
1.0
 22
0.0
 32
0.0
 13
1.0
 23
0.0
 33
0.0
 40
0.0
 40
0.0
 40
0.0
 40
0.0
 40
1.0
 40
1.0
 40
1.0
 40
2.0
 40
2.0
 40
2.0
 40
3.0
 40
3.0
 40
3.0
 40
4.0
 40
4.0
 40
4.0
 40
4.0
 10
116.856260074304
 20
-138.9152105208269
 30
0.0
 10
116.856260074304
 20
-138.8600713541738
 30
0.0
 10
116.8114572976692
 20
-138.8153038541853
 30
0.0
 10
116.7563534101862
 20
-138.8153038541853
 30
0.0
 10
116.7012142449262
 20
-138.8153038541853
 30
0.0
 10
116.6564467460683
 20
-138.8600713541738
 30
0.0
 10
116.6564467460683
 20
-138.9152105208269
 30
0.0
 10
116.6564467460683
 20
-138.9703144097018
 30
0.0
 10
116.7012142449262
 20
-139.0151171874685
 30
0.0
 10
116.7563534101862
 20
-139.0151171874685
 30
0.0
 10
116.8114572976692
 20
-139.0151171874685
 30
0.0
 10
116.856260074304
 20
-138.9703144097018
 30
0.0
 10
116.856260074304
 20
-138.9152105208269
 30
0.0
  0
POLYLINE
  5
A3
330
1F
100
AcDbEntity
  8
_U+30EC_U+30A4_U+30E4_U+30FC 1
 62
   179
420
  2234388
370
     9
100
AcDb2dPolyline
 66
     1
 10
0.0
 20
0.0
 30
0.0
  0
VERTEX
  5
A4
330
A3
100
AcDbEntity
  8
_U+30EC_U+30A4_U+30E4_U+30FC 1
 62
   179
420
  2234388
370
     9
100
AcDbVertex
100
AcDb2dVertex
 10
83.87083313805456
 20
-135.9758660771172
 30
0.0
  0
VERTEX
  5
A5
330
A3
100
AcDbEntity
  8
_U+30EC_U+30A4_U+30E4_U+30FC 1
 62
   179
420
  2234388
370
     9
100
AcDbVertex
100
AcDb2dVertex
 10
117.7767983841524
 20
-135.9724088548959
 30
0.0
  0
SEQEND
  5
A6
330
A3
100
AcDbEntity
  8
_U+30EC_U+30A4_U+30E4_U+30FC 1
 62
   179
420
  2234388
370
     9
  0
POLYLINE
  5
A7
330
1F
100
AcDbEntity
  8
_U+30EC_U+30A4_U+30E4_U+30FC 1
 62
   179
420
  2234388
370
     9
100
AcDb2dPolyline
 66
     1
 10
0.0
 20
0.0
 30
0.0
  0
VERTEX
  5
A8
330
A7
100
AcDbEntity
  8
_U+30EC_U+30A4_U+30E4_U+30FC 1
 62
   179
420
  2234388
370
     9
100
AcDbVertex
100
AcDb2dVertex
 10
83.87083313805456
 20
-138.9097071874947
 30
0.0
  0
VERTEX
  5
A9
330
A7
100
AcDbEntity
  8
_U+30EC_U+30A4_U+30E4_U+30FC 1
 62
   179
420
  2234388
370
     9
100
AcDbVertex
100
AcDb2dVertex
 10
117.7781742174507
 20
-138.9097071874947
 30
0.0
  0
SEQEND
  5
AA
330
A7
100
AcDbEntity
  8
_U+30EC_U+30A4_U+30E4_U+30FC 1
 62
   179
420
  2234388
370
     9
  0
INSERT
  5
AC
330
1F
100
AcDbEntity
  8
_U+30EC_U+30A4_U+30E4_U+30FC 1
100
AcDbBlockReference
  2
block 5
 10
0.0
 20
0.0
 30
0.0
  0
INSERT
  5
B2
330
1F
100
AcDbEntity
  8
_U+30EC_U+30A4_U+30E4_U+30FC 1
100
AcDbBlockReference
  2
block 6
 10
0.0
 20
0.0
 30
0.0
  0
INSERT
  5
C3
330
1F
100
AcDbEntity
  8
_U+30EC_U+30A4_U+30E4_U+30FC 1
100
AcDbBlockReference
  2
block 7
 10
0.0
 20
0.0
 30
0.0
  0
INSERT
  5
CD
330
1F
100
AcDbEntity
  8
_U+30EC_U+30A4_U+30E4_U+30FC 1
100
AcDbBlockReference
  2
block 8
 10
0.0
 20
0.0
 30
0.0
  0
POLYLINE
  5
D2
330
1F
100
AcDbEntity
  8
_U+30EC_U+30A4_U+30E4_U+30FC 1
 62
   179
420
  2234388
370
     9
100
AcDb2dPolyline
 66
     1
 10
0.0
 20
0.0
 30
0.0
  0
VERTEX
  5
D3
330
D2
100
AcDbEntity
  8
_U+30EC_U+30A4_U+30E4_U+30FC 1
 62
   179
420
  2234388
370
     9
100
AcDbVertex
100
AcDb2dVertex
 10
114.2104268084715
 20
-128.6789752456079
 30
0.0
  0
VERTEX
  5
D4
330
D2
100
AcDbEntity
  8
_U+30EC_U+30A4_U+30E4_U+30FC 1
 62
   179
420
  2234388
370
     9
100
AcDbVertex
100
AcDb2dVertex
 10
117.6699772757666
 20
-128.6789752456079
 30
0.0
  0
SEQEND
  5
D5
330
D2
100
AcDbEntity
  8
_U+30EC_U+30A4_U+30E4_U+30FC 1
 62
   179
420
  2234388
370
     9
  0
POLYLINE
  5
D6
330
1F
100
AcDbEntity
  8
_U+30EC_U+30A4_U+30E4_U+30FC 1
 62
   179
420
  2234388
370
     9
100
AcDb2dPolyline
 66
     1
 10
0.0
 20
0.0
 30
0.0
  0
VERTEX
  5
D7
330
D6
100
AcDbEntity
  8
_U+30EC_U+30A4_U+30E4_U+30FC 1
 62
   179
420
  2234388
370
     9
100
AcDbVertex
100
AcDb2dVertex
 10
114.2104268084715
 20
-129.6682346898052
 30
0.0
  0
VERTEX
  5
D8
330
D6
100
AcDbEntity
  8
_U+30EC_U+30A4_U+30E4_U+30FC 1
 62
   179
420
  2234388
370
     9
100
AcDbVertex
100
AcDb2dVertex
 10
117.6699772757666
 20
-129.6682346898052
 30
0.0
  0
SEQEND
  5
D9
330
D6
100
AcDbEntity
  8
_U+30EC_U+30A4_U+30E4_U+30FC 1
 62
   179
420
  2234388
370
     9
  0
SPLINE
  5
DA
330
1F
100
AcDbEntity
  8
_U+30EC_U+30A4_U+30E4_U+30FC 1
 62
   179
420
  2234388
370
     9
100
AcDbSpline
210
0.0
220
0.0
230
1.0
 70
    11
 71
     3
 72
    17
 73
    13
 74
     0
 42
0.0000000001
 43
0.0000000001
 12
1.0
 22
0.0
 32
0.0
 13
1.0
 23
0.0
 33
0.0
 40
0.0
 40
0.0
 40
0.0
 40
0.0
 40
1.0
 40
1.0
 40
1.0
 40
2.0
 40
2.0
 40
2.0
 40
3.0
 40
3.0
 40
3.0
 40
4.0
 40
4.0
 40
4.0
 40
4.0
 10
71.73376094769706
 20
-117.1017258040578
 30
0.0
 10
71.73376094769706
 20
-117.0462691374052
 30
0.0
 10
71.68899344883918
 20
-117.0014663596384
 30
0.0
 10
71.63385428357924
 20
-117.0014663596384
 30
0.0
 10
71.57875039609617
 20
-117.0014663596384
 30
0.0
 10
71.5339476194614
 20
-117.0462691374052
 30
0.0
 10
71.5339476194614
 20
-117.1017258040578
 30
0.0
 10
71.5339476194614
 20
-117.1568296929331
 30
0.0
 10
71.57875039609617
 20
-117.2016324706995
 30
0.0
 10
71.63385428357924
 20
-117.2016324706995
 30
0.0
 10
71.68899344883918
 20
-117.2016324706995
 30
0.0
 10
71.73376094769706
 20
-117.1568296929331
 30
0.0
 10
71.73376094769706
 20
-117.1017258040578
 30
0.0
  0
SPLINE
  5
DB
330
1F
100
AcDbEntity
  8
_U+30EC_U+30A4_U+30E4_U+30FC 1
 62
   179
420
  2234388
370
     9
100
AcDbSpline
210
0.0
220
0.0
230
1.0
 70
    11
 71
     3
 72
    17
 73
    13
 74
     0
 42
0.0000000001
 43
0.0000000001
 12
1.0
 22
0.0
 32
0.0
 13
1.0
 23
0.0
 33
0.0
 40
0.0
 40
0.0
 40
0.0
 40
0.0
 40
1.0
 40
1.0
 40
1.0
 40
2.0
 40
2.0
 40
2.0
 40
3.0
 40
3.0
 40
3.0
 40
4.0
 40
4.0
 40
4.0
 40
4.0
 10
111.8085040919719
 20
-117.1055005262791
 30
0.0
 10
111.8085040919719
 20
-117.0500438596264
 30
0.0
 10
111.7637013153371
 20
-117.0052763596375
 30
0.0
 10
111.708597427854
 20
-117.0052763596375
 30
0.0
 10
111.6534610831976
 20
-117.0052763596375
 30
0.0
 10
111.6086907637362
 20
-117.0500438596264
 30
0.0
 10
111.6086907637362
 20
-117.1055005262791
 30
0.0
 10
111.6086907637362
 20
-117.1606396929321
 30
0.0
 10
111.6534610831976
 20
-117.205407192921
 30
0.0
 10
111.708597427854
 20
-117.205407192921
 30
0.0
 10
111.7637013153371
 20
-117.205407192921
 30
0.0
 10
111.8085040919719
 20
-117.1606396929321
 30
0.0
 10
111.8085040919719
 20
-117.1055005262791
 30
0.0
  0
POLYLINE
  5
DC
330
1F
100
AcDbEntity
  8
_U+30EC_U+30A4_U+30E4_U+30FC 1
 62
   179
420
  2234388
370
     9
100
AcDb2dPolyline
 66
     1
 10
0.0
 20
0.0
 30
0.0
  0
VERTEX
  5
DD
330
DC
100
AcDbEntity
  8
_U+30EC_U+30A4_U+30E4_U+30FC 1
 62
   179
420
  2234388
370
     9
100
AcDbVertex
100
AcDb2dVertex
 10
71.62835275987075
 20
-116.1396655265206
 30
0.0
  0
VERTEX
  5
DE
330
DC
100
AcDbEntity
  8
_U+30EC_U+30A4_U+30E4_U+30FC 1
 62
   179
420
  2234388
370
     9
100
AcDbVertex
100
AcDb2dVertex
 10
71.62835275987075
 20
-118.3962085815122
 30
0.0
  0
SEQEND
  5
DF
330
DC
100
AcDbEntity
  8
_U+30EC_U+30A4_U+30E4_U+30FC 1
 62
   179
420
  2234388
370
     9
  0
POLYLINE
  5
E0
330
1F
100
AcDbEntity
  8
_U+30EC_U+30A4_U+30E4_U+30FC 1
 62
   179
420
  2234388
370
     9
100
AcDb2dPolyline
 66
     1
 10
0.0
 20
0.0
 30
0.0
  0
VERTEX
  5
E1
330
E0
100
AcDbEntity
  8
_U+30EC_U+30A4_U+30E4_U+30FC 1
 62
   179
420
  2234388
370
     9
100
AcDbVertex
100
AcDb2dVertex
 10
111.7127277498493
 20
-116.1409002487427
 30
0.0
  0
VERTEX
  5
E2
330
E0
100
AcDbEntity
  8
_U+30EC_U+30A4_U+30E4_U+30FC 1
 62
   179
420
  2234388
370
     9
100
AcDbVertex
100
AcDb2dVertex
 10
111.7127277498493
 20
-126.107048857362
 30
0.0
  0
SEQEND
  5
E3
330
E0
100
AcDbEntity
  8
_U+30EC_U+30A4_U+30E4_U+30FC 1
 62
   179
420
  2234388
370
     9
  0
POLYLINE
  5
E4
330
1F
100
AcDbEntity
  8
_U+30EC_U+30A4_U+30E4_U+30FC 1
 62
   179
420
  2234388
370
     9
100
AcDb2dPolyline
 66
     1
 10
0.0
 20
0.0
 30
0.0
  0
VERTEX
  5
E5
330
E4
100
AcDbEntity
  8
_U+30EC_U+30A4_U+30E4_U+30FC 1
 62
   179
420
  2234388
370
     9
100
AcDbVertex
100
AcDb2dVertex
 10
67.51009383322958
 20
-120.9032238586632
 30
0.0
  0
VERTEX
  5
E6
330
E4
100
AcDbEntity
  8
_U+30EC_U+30A4_U+30E4_U+30FC 1
 62
   179
420
  2234388
370
     9
100
AcDbVertex
100
AcDb2dVertex
 10
67.51732577748952
 20
-138.9031455208299
 30
0.0
  0
SEQEND
  5
E7
330
E4
100
AcDbEntity
  8
_U+30EC_U+30A4_U+30E4_U+30FC 1
 62
   179
420
  2234388
370
     9
  0
POLYLINE
  5
E8
330
1F
100
AcDbEntity
  8
_U+30EC_U+30A4_U+30E4_U+30FC 1
 62
   179
420
  2234388
370
     9
100
AcDb2dPolyline
 66
     1
 10
0.0
 20
0.0
 30
0.0
  0
VERTEX
  5
E9
330
E8
100
AcDbEntity
  8
_U+30EC_U+30A4_U+30E4_U+30FC 1
 62
   179
420
  2234388
370
     9
100
AcDbVertex
100
AcDb2dVertex
 10
70.87869998228038
 20
-114.3156633047543
 30
0.0
  0
VERTEX
  5
EA
330
E8
100
AcDbEntity
  8
_U+30EC_U+30A4_U+30E4_U+30FC 1
 62
   179
420
  2234388
370
     9
100
AcDbVertex
100
AcDb2dVertex
 10
75.53095501748925
 20
-114.3156633047543
 30
0.0
  0
SEQEND
  5
EB
330
E8
100
AcDbEntity
  8
_U+30EC_U+30A4_U+30E4_U+30FC 1
 62
   179
420
  2234388
370
     9
  0
INSERT
  5
ED
330
1F
100
AcDbEntity
  8
_U+30EC_U+30A4_U+30E4_U+30FC 1
100
AcDbBlockReference
  2
block 9
 10
0.0
 20
0.0
 30
0.0
  0
SPLINE
  5
F2
330
1F
100
AcDbEntity
  8
_U+30EC_U+30A4_U+30E4_U+30FC 1
 62
   179
420
  2234388
370
     9
100
AcDbSpline
210
0.0
220
0.0
230
1.0
 70
    11
 71
     3
 72
    17
 73
    13
 74
     0
 42
0.0000000001
 43
0.0000000001
 12
1.0
 22
0.0
 32
0.0
 13
1.0
 23
0.0
 33
0.0
 40
0.0
 40
0.0
 40
0.0
 40
0.0
 40
1.0
 40
1.0
 40
1.0
 40
2.0
 40
2.0
 40
2.0
 40
3.0
 40
3.0
 40
3.0
 40
4.0
 40
4.0
 40
4.0
 40
4.0
 10
71.82816427862197
 20
-114.312064971422
 30
0.0
 10
71.82816427862197
 20
-114.2566083047693
 30
0.0
 10
71.78339677976409
 20
-114.2118055270026
 30
0.0
 10
71.72825761450414
 20
-114.2118055270026
 30
0.0
 10
71.67315553763716
 20
-114.2118055270026
 30
0.0
 10
71.62835275987075
 20
-114.2566083047693
 30
0.0
 10
71.62835275987075
 20
-114.312064971422
 30
0.0
 10
71.62835275987075
 20
-114.3671688602972
 30
0.0
 10
71.67315553763716
 20
-114.4119716380636
 30
0.0
 10
71.72825761450414
 20
-114.4119716380636
 30
0.0
 10
71.78339677976409
 20
-114.4119716380636
 30
0.0
 10
71.82816427862197
 20
-114.3671688602972
 30
0.0
 10
71.82816427862197
 20
-114.312064971422
 30
0.0
  0
SPLINE
  5
F3
330
1F
100
AcDbEntity
  8
_U+30EC_U+30A4_U+30E4_U+30FC 1
 62
   179
420
  2234388
370
     9
100
AcDbSpline
210
0.0
220
0.0
230
1.0
 70
    11
 71
     3
 72
    17
 73
    13
 74
     0
 42
0.0000000001
 43
0.0000000001
 12
1.0
 22
0.0
 32
0.0
 13
1.0
 23
0.0
 33
0.0
 40
0.0
 40
0.0
 40
0.0
 40
0.0
 40
1.0
 40
1.0
 40
1.0
 40
2.0
 40
2.0
 40
2.0
 40
3.0
 40
3.0
 40
3.0
 40
4.0
 40
4.0
 40
4.0
 40
4.0
 10
74.83781725739489
 20
-114.3175683047539
 30
0.0
 10
74.83781725739489
 20
-114.2621116381012
 30
0.0
 10
74.79301448076012
 20
-114.2173088603345
 30
0.0
 10
74.73791059327705
 20
-114.2173088603345
 30
0.0
 10
74.6827714280171
 20
-114.2173088603345
 30
0.0
 10
74.63800392915921
 20
-114.2621116381012
 30
0.0
 10
74.63800392915921
 20
-114.3175683047539
 30
0.0
 10
74.63800392915921
 20
-114.3727074714069
 30
0.0
 10
74.6827714280171
 20
-114.4174749713955
 30
0.0
 10
74.73791059327705
 20
-114.4174749713955
 30
0.0
 10
74.79301448076012
 20
-114.4174749713955
 30
0.0
 10
74.83781725739489
 20
-114.3727074714069
 30
0.0
 10
74.83781725739489
 20
-114.3175683047539
 30
0.0
  0
POLYLINE
  5
F4
330
1F
100
AcDbEntity
  8
_U+30EC_U+30A4_U+30E4_U+30FC 1
 62
   179
420
  2234388
370
     9
100
AcDb2dPolyline
 66
     1
 10
0.0
 20
0.0
 30
0.0
  0
VERTEX
  5
F5
330
F4
100
AcDbEntity
  8
_U+30EC_U+30A4_U+30E4_U+30FC 1
 62
   179
420
  2234388
370
     9
100
AcDbVertex
100
AcDb2dVertex
 10
71.72825761450414
 20
-113.4497349716375
 30
0.0
  0
VERTEX
  5
F6
330
F4
100
AcDbEntity
  8
_U+30EC_U+30A4_U+30E4_U+30FC 1
 62
   179
420
  2234388
370
     9
100
AcDbVertex
100
AcDb2dVertex
 10
71.72825761450414
 20
-115.3102849711725
 30
0.0
  0
SEQEND
  5
F7
330
F4
100
AcDbEntity
  8
_U+30EC_U+30A4_U+30E4_U+30FC 1
 62
   179
420
  2234388
370
     9
  0
POLYLINE
  5
F8
330
1F
100
AcDbEntity
  8
_U+30EC_U+30A4_U+30E4_U+30FC 1
 62
   179
420
  2234388
370
     9
100
AcDb2dPolyline
 66
     1
 10
0.0
 20
0.0
 30
0.0
  0
VERTEX
  5
F9
330
F8
100
AcDbEntity
  8
_U+30EC_U+30A4_U+30E4_U+30FC 1
 62
   179
420
  2234388
370
     9
100
AcDbVertex
100
AcDb2dVertex
 10
74.73791059327705
 20
-113.4778160827416
 30
0.0
  0
VERTEX
  5
FA
330
F8
100
AcDbEntity
  8
_U+30EC_U+30A4_U+30E4_U+30FC 1
 62
   179
420
  2234388
370
     9
100
AcDbVertex
100
AcDb2dVertex
 10
74.73791059327705
 20
-115.3102849711725
 30
0.0
  0
SEQEND
  5
FB
330
F8
100
AcDbEntity
  8
_U+30EC_U+30A4_U+30E4_U+30FC 1
 62
   179
420
  2234388
370
     9
  0
SPLINE
  5
FC
330
1F
100
AcDbEntity
  8
_U+30EC_U+30A4_U+30E4_U+30FC 1
 62
   179
420
  2234388
370
     9
100
AcDbSpline
210
0.0
220
0.0
230
1.0
 70
    11
 71
     3
 72
    17
 73
    13
 74
     0
 42
0.0000000001
 43
0.0000000001
 12
1.0
 22
0.0
 32
0.0
 13
1.0
 23
0.0
 33
0.0
 40
0.0
 40
0.0
 40
0.0
 40
0.0
 40
1.0
 40
1.0
 40
1.0
 40
2.0
 40
2.0
 40
2.0
 40
3.0
 40
3.0
 40
3.0
 40
4.0
 40
4.0
 40
4.0
 40
4.0
 10
67.60312133085624
 20
-120.9090799697728
 30
0.0
 10
67.60312133085624
 20
-120.8535880253423
 30
0.0
 10
67.55831855422149
 20
-120.8088205253534
 30
0.0
 10
67.50321466673842
 20
-120.8088205253534
 30
0.0
 10
67.44807550147846
 20
-120.8088205253534
 30
0.0
 10
67.40330800262058
 20
-120.8535880253423
 30
0.0
 10
67.40330800262058
 20
-120.9090799697728
 30
0.0
 10
67.40330800262058
 20
-120.9641838586477
 30
0.0
 10
67.44807550147846
 20
-121.0089866364145
 30
0.0
 10
67.50321466673842
 20
-121.0089866364145
 30
0.0
 10
67.55831855422149
 20
-121.0089866364145
 30
0.0
 10
67.60312133085624
 20
-120.9641838586477
 30
0.0
 10
67.60312133085624
 20
-120.9090799697728
 30
0.0
  0
SPLINE
  5
FD
330
1F
100
AcDbEntity
  8
_U+30EC_U+30A4_U+30E4_U+30FC 1
 62
   179
420
  2234388
370
     9
100
AcDbSpline
210
0.0
220
0.0
230
1.0
 70
    11
 71
     3
 72
    17
 73
    13
 74
     0
 42
0.0000000001
 43
0.0000000001
 12
1.0
 22
0.0
 32
0.0
 13
1.0
 23
0.0
 33
0.0
 40
0.0
 40
0.0
 40
0.0
 40
0.0
 40
1.0
 40
1.0
 40
1.0
 40
2.0
 40
2.0
 40
2.0
 40
3.0
 40
3.0
 40
3.0
 40
4.0
 40
4.0
 40
4.0
 40
4.0
 10
67.61931383044313
 20
-138.906955520829
 30
0.0
 10
67.61931383044313
 20
-138.8514635763981
 30
0.0
 10
67.57451105380838
 20
-138.8066960764096
 30
0.0
 10
67.51940716632531
 20
-138.8066960764096
 30
0.0
 10
67.46426800106535
 20
-138.8066960764096
 30
0.0
 10
67.41950050220747
 20
-138.8514635763981
 30
0.0
 10
67.41950050220747
 20
-138.906955520829
 30
0.0
 10
67.41950050220747
 20
-138.9620594097039
 30
0.0
 10
67.46426800106535
 20
-139.0068621874706
 30
0.0
 10
67.51940716632531
 20
-139.0068621874706
 30
0.0
 10
67.57451105380838
 20
-139.0068621874706
 30
0.0
 10
67.61931383044313
 20
-138.9620594097039
 30
0.0
 10
67.61931383044313
 20
-138.906955520829
 30
0.0
  0
SPLINE
  5
FE
330
1F
100
AcDbEntity
  8
_U+30EC_U+30A4_U+30E4_U+30FC 1
 62
   179
420
  2234388
370
     9
100
AcDbSpline
210
0.0
220
0.0
230
1.0
 70
    11
 71
     3
 72
    17
 73
    13
 74
     0
 42
0.0000000001
 43
0.0000000001
 12
1.0
 22
0.0
 32
0.0
 13
1.0
 23
0.0
 33
0.0
 40
0.0
 40
0.0
 40
0.0
 40
0.0
 40
1.0
 40
1.0
 40
1.0
 40
2.0
 40
2.0
 40
2.0
 40
3.0
 40
3.0
 40
3.0
 40
4.0
 40
4.0
 40
4.0
 40
4.0
 10
71.60146928440544
 20
-144.0852746862012
 30
0.0
 10
71.60146928440544
 20
-144.0297827417704
 30
0.0
 10
71.55670178554756
 20
-143.9850152417818
 30
0.0
 10
71.50156262028761
 20
-143.9850152417818
 30
0.0
 10
71.44645873280454
 20
-143.9850152417818
 30
0.0
 10
71.40165595616978
 20
-144.0297827417704
 30
0.0
 10
71.40165595616978
 20
-144.0852746862012
 30
0.0
 10
71.40165595616978
 20
-144.1403785750761
 30
0.0
 10
71.44645873280454
 20
-144.1851813528428
 30
0.0
 10
71.50156262028761
 20
-144.1851813528428
 30
0.0
 10
71.55670178554756
 20
-144.1851813528428
 30
0.0
 10
71.60146928440544
 20
-144.1403785750761
 30
0.0
 10
71.60146928440544
 20
-144.0852746862012
 30
0.0
  0
SPLINE
  5
FF
330
1F
100
AcDbEntity
  8
_U+30EC_U+30A4_U+30E4_U+30FC 1
 62
   179
420
  2234388
370
     9
100
AcDbSpline
210
0.0
220
0.0
230
1.0
 70
    11
 71
     3
 72
    17
 73
    13
 74
     0
 42
0.0000000001
 43
0.0000000001
 12
1.0
 22
0.0
 32
0.0
 13
1.0
 23
0.0
 33
0.0
 40
0.0
 40
0.0
 40
0.0
 40
0.0
 40
1.0
 40
1.0
 40
1.0
 40
2.0
 40
2.0
 40
2.0
 40
3.0
 40
3.0
 40
3.0
 40
4.0
 40
4.0
 40
4.0
 40
4.0
 10
81.48478542114994
 20
-144.0797360750915
 30
0.0
 10
81.48478542114994
 20
-144.0242794084382
 30
0.0
 10
81.43998264451517
 20
-143.9795119084496
 30
0.0
 10
81.3848787570321
 20
-143.9795119084496
 30
0.0
 10
81.3297416463343
 20
-143.9795119084496
 30
0.0
 10
81.28497209291426
 20
-144.0242794084382
 30
0.0
 10
81.28497209291426
 20
-144.0797360750915
 30
0.0
 10
81.28497209291426
 20
-144.1348752417439
 30
0.0
 10
81.3297416463343
 20
-144.1796427417331
 30
0.0
 10
81.3848787570321
 20
-144.1796427417331
 30
0.0
 10
81.43998264451517
 20
-144.1796427417331
 30
0.0
 10
81.48478542114994
 20
-144.1348752417439
 30
0.0
 10
81.48478542114994
 20
-144.0797360750915
 30
0.0
  0
POLYLINE
  5
100
330
1F
100
AcDbEntity
  8
_U+30EC_U+30A4_U+30E4_U+30FC 1
 62
   179
420
  2234388
370
     9
100
AcDb2dPolyline
 66
     1
 10
0.0
 20
0.0
 30
0.0
  0
VERTEX
  5
101
330
100
100
AcDbEntity
  8
_U+30EC_U+30A4_U+30E4_U+30FC 1
 62
   179
420
  2234388
370
     9
100
AcDbVertex
100
AcDb2dVertex
 10
66.49204774809098
 20
-120.9030474697743
 30
0.0
  0
VERTEX
  5
102
330
100
100
AcDbEntity
  8
_U+30EC_U+30A4_U+30E4_U+30FC 1
 62
   179
420
  2234388
370
     9
100
AcDbVertex
100
AcDb2dVertex
 10
68.9701351848697
 20
-120.9030474697743
 30
0.0
  0
SEQEND
  5
103
330
100
100
AcDbEntity
  8
_U+30EC_U+30A4_U+30E4_U+30FC 1
 62
   179
420
  2234388
370
     9
  0
POLYLINE
  5
104
330
1F
100
AcDbEntity
  8
_U+30EC_U+30A4_U+30E4_U+30FC 1
 62
   179
420
  2234388
370
     9
100
AcDb2dPolyline
 66
     1
 10
0.0
 20
0.0
 30
0.0
  0
VERTEX
  5
105
330
104
100
AcDbEntity
  8
_U+30EC_U+30A4_U+30E4_U+30FC 1
 62
   179
420
  2234388
370
     9
100
AcDbVertex
100
AcDb2dVertex
 10
66.49790553893094
 20
-138.9055444097179
 30
0.0
  0
VERTEX
  5
106
330
104
100
AcDbEntity
  8
_U+30EC_U+30A4_U+30E4_U+30FC 1
 62
   179
420
  2234388
370
     9
100
AcDbVertex
100
AcDb2dVertex
 10
68.97563851806264
 20
-138.9055444097179
 30
0.0
  0
SEQEND
  5
107
330
104
100
AcDbEntity
  8
_U+30EC_U+30A4_U+30E4_U+30FC 1
 62
   179
420
  2234388
370
     9
  0
POLYLINE
  5
108
330
1F
100
AcDbEntity
  8
_U+30EC_U+30A4_U+30E4_U+30FC 1
 62
   179
420
  2234388
370
     9
100
AcDb2dPolyline
 66
     1
 10
0.0
 20
0.0
 30
0.0
  0
VERTEX
  5
109
330
108
100
AcDbEntity
  8
_U+30EC_U+30A4_U+30E4_U+30FC 1
 62
   179
420
  2234388
370
     9
100
AcDbVertex
100
AcDb2dVertex
 10
71.49606109323716
 20
-141.4473435757495
 30
0.0
  0
VERTEX
  5
10A
330
108
100
AcDbEntity
  8
_U+30EC_U+30A4_U+30E4_U+30FC 1
 62
   179
420
  2234388
370
     9
100
AcDbVertex
100
AcDb2dVertex
 10
71.49606109323716
 20
-144.9772027415337
 30
0.0
  0
SEQEND
  5
10B
330
108
100
AcDbEntity
  8
_U+30EC_U+30A4_U+30E4_U+30FC 1
 62
   179
420
  2234388
370
     9
  0
POLYLINE
  5
10C
330
1F
100
AcDbEntity
  8
_U+30EC_U+30A4_U+30E4_U+30FC 1
 62
   179
420
  2234388
370
     9
100
AcDb2dPolyline
 66
     1
 10
0.0
 20
0.0
 30
0.0
  0
VERTEX
  5
10D
330
10C
100
AcDbEntity
  8
_U+30EC_U+30A4_U+30E4_U+30FC 1
 62
   179
420
  2234388
370
     9
100
AcDbVertex
100
AcDb2dVertex
 10
81.38830275743082
 20
-141.4473435757495
 30
0.0
  0
VERTEX
  5
10E
330
10C
100
AcDbEntity
  8
_U+30EC_U+30A4_U+30E4_U+30FC 1
 62
   179
420
  2234388
370
     9
100
AcDbVertex
100
AcDb2dVertex
 10
81.38830275743082
 20
-144.9772027415337
 30
0.0
  0
SEQEND
  5
10F
330
10C
100
AcDbEntity
  8
_U+30EC_U+30A4_U+30E4_U+30FC 1
 62
   179
420
  2234388
370
     9
  0
ENDSEC
  0
SECTION
  2
OBJECTS
  0
DICTIONARY
  5
C
330
0
100
AcDbDictionary
281
     1
  3
ACAD_GROUP
350
D
  3
ACAD_LAYOUT
350
1A
  3
ACAD_MATERIAL
350
3B
  3
ACAD_MLEADERSTYLE
350
111
  3
ACAD_MLINESTYLE
350
17
  3
ACAD_PLOTSETTINGS
350
19
  3
ACAD_PLOTSTYLENAME
350
E
  3
ACAD_TABLESTYLE
350
110
  3
ACAD_VISUALSTYLE
350
2A
  0
SUN
  5
3F
330
29
100
AcDbSun
 90
        1
290
     0
 63
     7
421
 16777215
 40
1.0
291
     1
 91
  2455826
 92
 54000000
292
     0
 70
     2
 71
   256
280
     1
  0
DICTIONARY
  5
D
102
{ACAD_REACTORS
330
C
102
}
330
C
100
AcDbDictionary
281
     1
  0
DICTIONARY
  5
1A
102
{ACAD_REACTORS
330
C
102
}
330
C
100
AcDbDictionary
281
     1
  3
Layout1
350
1E
  3
Layout2
350
26
  3
Model
350
22
  0
DICTIONARY
  5
3B
102
{ACAD_REACTORS
330
C
102
}
330
C
100
AcDbDictionary
281
     1
  3
ByBlock
350
3D
  3
ByLayer
350
3C
  3
Global
350
3E
  0
DICTIONARY
  5
111
102
{ACAD_REACTORS
330
C
102
}
330
C
100
AcDbDictionary
281
     1
  0
DICTIONARY
  5
17
102
{ACAD_REACTORS
330
C
102
}
330
C
100
AcDbDictionary
281
     1
  3
Standard
350
18
  0
DICTIONARY
  5
19
102
{ACAD_REACTORS
330
C
102
}
330
C
100
AcDbDictionary
281
     1
  0
ACDBDICTIONARYWDFLT
  5
E
102
{ACAD_REACTORS
330
C
102
}
330
C
100
AcDbDictionary
281
     1
  3
Normal
350
F
100
AcDbDictionaryWithDefault
340
F
  0
DICTIONARY
  5
110
102
{ACAD_REACTORS
330
C
102
}
330
C
100
AcDbDictionary
281
     1
  0
DICTIONARY
  5
2A
102
{ACAD_REACTORS
330
C
102
}
330
C
100
AcDbDictionary
281
     1
  3
2dWireframe
350
2F
  3
3D Hidden
350
31
  3
3dWireframe
350
30
  3
Basic
350
32
  3
Brighten
350
36
  3
ColorChange
350
3A
  3
Conceptual
350
34
  3
Dim
350
35
  3
Facepattern
350
39
  3
Flat
350
2B
  3
FlatWithEdges
350
2C
  3
Gouraud
350
2D
  3
GouraudWithEdges
350
2E
  3
Linepattern
350
38
  3
Realistic
350
33
  3
Thicken
350
37
  0
LAYOUT
  5
1E
102
{ACAD_REACTORS
330
1A
102
}
330
1A
100
AcDbPlotSettings
  1

  2
none_device
  4

  6

 40
0.0
 41
0.0
 42
0.0
 43
0.0
 44
0.0
 45
0.0
 46
0.0
 47
0.0
 48
0.0
 49
0.0
140
0.0
141
0.0
142
1.0
143
1.0
 70
   688
 72
     0
 73
     0
 74
     5
  7

 75
    16
 76
     0
 77
     2
 78
   300
147
1.0
148
0.0
149
0.0
100
AcDbLayout
  1
Layout1
 70
     1
 71
     1
 10
0.0
 20
0.0
 11
12.0
 21
9.0
 12
0.0
 22
0.0
 32
0.0
 14
1.000000000000000E+20
 24
1.000000000000000E+20
 34
1.000000000000000E+20
 15
-1.000000000000000E+20
 25
-1.000000000000000E+20
 35
-1.000000000000000E+20
146
0.0
 13
0.0
 23
0.0
 33
0.0
 16
1.0
 26
0.0
 36
0.0
 17
0.0
 27
1.0
 37
0.0
 76
     0
330
1B
  0
LAYOUT
  5
26
102
{ACAD_REACTORS
330
1A
102
}
330
1A
100
AcDbPlotSettings
  1

  2
none_device
  4

  6

 40
0.0
 41
0.0
 42
0.0
 43
0.0
 44
0.0
 45
0.0
 46
0.0
 47
0.0
 48
0.0
 49
0.0
140
0.0
141
0.0
142
1.0
143
1.0
 70
   688
 72
     0
 73
     0
 74
     5
  7

 75
    16
 76
     0
 77
     2
 78
   300
147
1.0
148
0.0
149
0.0
100
AcDbLayout
  1
Layout2
 70
     1
 71
     2
 10
0.0
 20
0.0
 11
0.0
 21
0.0
 12
0.0
 22
0.0
 32
0.0
 14
0.0
 24
0.0
 34
0.0
 15
0.0
 25
0.0
 35
0.0
146
0.0
 13
0.0
 23
0.0
 33
0.0
 16
1.0
 26
0.0
 36
0.0
 17
0.0
 27
1.0
 37
0.0
 76
     0
330
23
  0
LAYOUT
  5
22
102
{ACAD_REACTORS
330
1A
102
}
330
1A
100
AcDbPlotSettings
  1

  2
none_device
  4

  6

 40
0.0
 41
0.0
 42
0.0
 43
0.0
 44
0.0
 45
0.0
 46
0.0
 47
0.0
 48
0.0
 49
0.0
140
0.0
141
0.0
142
1.0
143
1.0
 70
  1712
 72
     0
 73
     0
 74
     0
  7

 75
     0
 76
     0
 77
     2
 78
   300
147
1.0
148
0.0
149
0.0
100
AcDbLayout
  1
Model
 70
     1
 71
     0
 10
0.0
 20
0.0
 11
12.0
 21
9.0
 12
0.0
 22
0.0
 32
0.0
 14
1.000000000000000E+20
 24
1.000000000000000E+20
 34
1.000000000000000E+20
 15
-1.000000000000000E+20
 25
-1.000000000000000E+20
 35
-1.000000000000000E+20
146
0.0
 13
0.0
 23
0.0
 33
0.0
 16
1.0
 26
0.0
 36
0.0
 17
0.0
 27
1.0
 37
0.0
 76
     0
330
1F
331
29
  0
MATERIAL
  5
3D
102
{ACAD_REACTORS
330
3B
102
}
330
3B
100
AcDbMaterial
  1
ByBlock
 72
     1
 94
      127
  0
MATERIAL
  5
3C
102
{ACAD_REACTORS
330
3B
102
}
330
3B
100
AcDbMaterial
  1
ByLayer
 72
     1
 94
      127
  0
MATERIAL
  5
3E
102
{ACAD_REACTORS
330
3B
102
}
330
3B
100
AcDbMaterial
  1
Global
 72
     1
 94
      127
  0
MLINESTYLE
  5
18
102
{ACAD_REACTORS
330
17
102
}
330
17
100
AcDbMlineStyle
  2
Standard
 70
     0
  3

 62
   256
 51
90.0
 52
90.0
 71
     2
 49
0.5
 62
   256
  6
BYLAYER
 49
-0.5
 62
   256
  6
BYLAYER
  0
ACDBPLACEHOLDER
  5
F
102
{ACAD_REACTORS
330
E
102
}
330
E
  0
VISUALSTYLE
  5
2F
102
{ACAD_REACTORS
330
2A
102
}
330
2A
100
AcDbVisualStyle
  2
2dWireframe
 70
     4
177
     2
291
     0
 71
     0
176
     1
 72
     2
176
     1
 73
     0
176
     1
 90
        0
176
     1
 40
-0.6
176
     1
 41
-30.0
176
     1
 62
     5
 63
     7
421
 16777215
176
     1
 74
     1
176
     1
 91
        4
176
     1
 64
     7
176
     1
 65
   257
176
     1
 75
     1
176
     1
175
     1
176
     1
 42
1.0
176
     1
 92
        0
176
     1
 66
   257
176
     1
 43
1.0
176
     1
 76
     1
176
     1
 77
     6
176
     1
 78
     2
176
     1
 67
     7
176
     1
 79
     5
176
     1
170
     0
176
     1
171
     0
176
     1
290
     0
176
     1
 93
        1
176
     1
 44
0.0
176
     1
173
     0
176
     1
  0
VISUALSTYLE
  5
31
102
{ACAD_REACTORS
330
2A
102
}
330
2A
100
AcDbVisualStyle
  2
3D Hidden
 70
     6
177
     2
291
     0
 71
     1
176
     1
 72
     2
176
     1
 73
     2
176
     1
 90
        0
176
     1
 40
-0.6
176
     1
 41
-30.0
176
     1
 62
     5
 63
     7
421
 16777215
176
     1
 74
     2
176
     1
 91
        2
176
     1
 64
     7
176
     1
 65
   257
176
     1
 75
     2
176
     1
175
     1
176
     1
 42
40.0
176
     1
 92
        0
176
     1
 66
   257
176
     1
 43
1.0
176
     1
 76
     1
176
     1
 77
     6
176
     1
 78
     2
176
     1
 67
     7
176
     1
 79
     3
176
     1
170
     0
176
     1
171
     0
176
     1
290
     0
176
     1
 93
        1
176
     1
 44
0.0
176
     1
173
     0
176
     1
  0
VISUALSTYLE
  5
30
102
{ACAD_REACTORS
330
2A
102
}
330
2A
100
AcDbVisualStyle
  2
3dWireframe
 70
     5
177
     2
291
     0
 71
     0
176
     1
 72
     2
176
     1
 73
     0
176
     1
 90
        0
176
     1
 40
-0.6
176
     1
 41
-30.0
176
     1
 62
     5
 63
     7
421
 16777215
176
     1
 74
     1
176
     1
 91
        4
176
     1
 64
     7
176
     1
 65
   257
176
     1
 75
     1
176
     1
175
     1
176
     1
 42
1.0
176
     1
 92
        0
176
     1
 66
   257
176
     1
 43
1.0
176
     1
 76
     1
176
     1
 77
     6
176
     1
 78
     2
176
     1
 67
     7
176
     1
 79
     5
176
     1
170
     0
176
     1
171
     0
176
     1
290
     0
176
     1
 93
        1
176
     1
 44
0.0
176
     1
173
     0
176
     1
  0
VISUALSTYLE
  5
32
102
{ACAD_REACTORS
330
2A
102
}
330
2A
100
AcDbVisualStyle
  2
Basic
 70
     7
177
     2
291
     1
 71
     1
176
     1
 72
     0
176
     1
 73
     1
176
     1
 90
        0
176
     1
 40
-0.6
176
     1
 41
-30.0
176
     1
 62
     5
 63
     7
421
 16777215
176
     1
 74
     0
176
     1
 91
        4
176
     1
 64
     7
176
     1
 65
   257
176
     1
 75
     1
176
     1
175
     1
176
     1
 42
1.0
176
     1
 92
        8
176
     1
 66
     7
176
     1
 43
1.0
176
     1
 76
     1
176
     1
 77
     6
176
     1
 78
     2
176
     1
 67
     7
176
     1
 79
     5
176
     1
170
     0
176
     1
171
     0
176
     1
290
     0
176
     1
 93
        1
176
     1
 44
0.0
176
     1
173
     0
176
     1
  0
VISUALSTYLE
  5
36
102
{ACAD_REACTORS
330
2A
102
}
330
2A
100
AcDbVisualStyle
  2
Brighten
 70
    12
177
     2
291
     1
 71
     2
176
     1
 72
     2
176
     1
 73
     0
176
     1
 90
        0
176
     1
 40
-0.6
176
     1
 41
-30.0
176
     1
 62
     5
 63
     7
421
 16777215
176
     1
 74
     1
176
     1
 91
        4
176
     1
 64
     7
176
     1
 65
   257
176
     1
 75
     1
176
     1
175
     1
176
     1
 42
1.0
176
     1
 92
        8
176
     1
 66
     7
176
     1
 43
1.0
176
     1
 76
     1
176
     1
 77
     6
176
     1
 78
     2
176
     1
 67
     7
176
     1
 79
     5
176
     1
170
     0
176
     1
171
     0
176
     1
290
     0
176
     1
 93
        1
176
     1
 44
50.0
176
     1
173
     0
176
     1
  0
VISUALSTYLE
  5
3A
102
{ACAD_REACTORS
330
2A
102
}
330
2A
100
AcDbVisualStyle
  2
ColorChange
 70
    16
177
     2
291
     1
 71
     2
176
     1
 72
     2
176
     1
 73
     3
176
     1
 90
        0
176
     1
 40
-0.6
176
     1
 41
-30.0
176
     1
 62
     5
 63
     8
421
  8421504
176
     1
 74
     1
176
     1
 91
        4
176
     1
 64
     7
176
     1
 65
   257
176
     1
 75
     1
176
     1
175
     1
176
     1
 42
1.0
176
     1
 92
        8
176
     1
 66
     8
424
  8421504
176
     1
 43
1.0
176
     1
 76
     1
176
     1
 77
     6
176
     1
 78
     2
176
     1
 67
     7
176
     1
 79
     5
176
     1
170
     0
176
     1
171
     0
176
     1
290
     0
176
     1
 93
        1
176
     1
 44
0.0
176
     1
173
     0
176
     1
  0
VISUALSTYLE
  5
34
102
{ACAD_REACTORS
330
2A
102
}
330
2A
100
AcDbVisualStyle
  2
Conceptual
 70
     9
177
     2
291
     0
 71
     3
176
     1
 72
     2
176
     1
 73
     0
176
     1
 90
        0
176
     1
 40
-0.6
176
     1
 41
-30.0
176
     1
 62
     5
 63
     7
421
 16777215
176
     1
 74
     2
176
     1
 91
        2
176
     1
 64
     7
176
     1
 65
   257
176
     1
 75
     1
176
     1
175
     1
176
     1
 42
40.0
176
     1
 92
        8
176
     1
 66
     7
176
     1
 43
1.0
176
     1
 76
     1
176
     1
 77
     6
176
     1
 78
     2
176
     1
 67
     7
176
     1
 79
     3
176
     1
170
     0
176
     1
171
     0
176
     1
290
     0
176
     1
 93
        1
176
     1
 44
0.0
176
     1
173
     0
176
     1
  0
VISUALSTYLE
  5
35
102
{ACAD_REACTORS
330
2A
102
}
330
2A
100
AcDbVisualStyle
  2
Dim
 70
    11
177
     2
291
     1
 71
     2
176
     1
 72
     2
176
     1
 73
     0
176
     1
 90
        0
176
     1
 40
-0.6
176
     1
 41
-30.0
176
     1
 62
     5
 63
     7
421
 16777215
176
     1
 74
     1
176
     1
 91
        4
176
     1
 64
     7
176
     1
 65
   257
176
     1
 75
     1
176
     1
175
     1
176
     1
 42
1.0
176
     1
 92
        8
176
     1
 66
     7
176
     1
 43
1.0
176
     1
 76
     1
176
     1
 77
     6
176
     1
 78
     2
176
     1
 67
     7
176
     1
 79
     5
176
     1
170
     0
176
     1
171
     0
176
     1
290
     0
176
     1
 93
        1
176
     1
 44
-50.0
176
     1
173
     0
176
     1
  0
VISUALSTYLE
  5
39
102
{ACAD_REACTORS
330
2A
102
}
330
2A
100
AcDbVisualStyle
  2
Facepattern
 70
    15
177
     2
291
     1
 71
     2
176
     1
 72
     2
176
     1
 73
     0
176
     1
 90
        0
176
     1
 40
-0.6
176
     1
 41
-30.0
176
     1
 62
     5
 63
     7
421
 16777215
176
     1
 74
     1
176
     1
 91
        4
176
     1
 64
     7
176
     1
 65
   257
176
     1
 75
     1
176
     1
175
     1
176
     1
 42
1.0
176
     1
 92
        8
176
     1
 66
     7
176
     1
 43
1.0
176
     1
 76
     1
176
     1
 77
     6
176
     1
 78
     2
176
     1
 67
     7
176
     1
 79
     5
176
     1
170
     0
176
     1
171
     0
176
     1
290
     0
176
     1
 93
        1
176
     1
 44
0.0
176
     1
173
     0
176
     1
  0
VISUALSTYLE
  5
2B
102
{ACAD_REACTORS
330
2A
102
}
330
2A
100
AcDbVisualStyle
  2
Flat
 70
     0
177
     2
291
     1
 71
     2
176
     1
 72
     1
176
     1
 73
     1
176
     1
 90
        2
176
     1
 40
-0.6
176
     1
 41
30.0
176
     1
 62
     5
 63
     7
421
 16777215
176
     1
 74
     0
176
     1
 91
        4
176
     1
 64
     7
176
     1
 65
   257
176
     1
 75
     1
176
     1
175
     1
176
     1
 42
1.0
176
     1
 92
        8
176
     1
 66
     7
176
     1
 43
1.0
176
     1
 76
     1
176
     1
 77
     6
176
     1
 78
     2
176
     1
 67
     7
176
     1
 79
     5
176
     1
170
     0
176
     1
171
     0
176
     1
290
     0
176
     1
 93
       13
176
     1
 44
0.0
176
     1
173
     0
176
     1
  0
VISUALSTYLE
  5
2C
102
{ACAD_REACTORS
330
2A
102
}
330
2A
100
AcDbVisualStyle
  2
FlatWithEdges
 70
     1
177
     2
291
     1
 71
     2
176
     1
 72
     1
176
     1
 73
     1
176
     1
 90
        2
176
     1
 40
-0.6
176
     1
 41
30.0
176
     1
 62
     5
 63
     7
421
 16777215
176
     1
 74
     1
176
     1
 91
        4
176
     1
 64
     7
176
     1
 65
   257
176
     1
 75
     1
176
     1
175
     1
176
     1
 42
1.0
176
     1
 92
        0
176
     1
 66
   257
176
     1
 43
1.0
176
     1
 76
     1
176
     1
 77
     6
176
     1
 78
     2
176
     1
 67
     7
176
     1
 79
     5
176
     1
170
     0
176
     1
171
     0
176
     1
290
     0
176
     1
 93
       13
176
     1
 44
0.0
176
     1
173
     0
176
     1
  0
VISUALSTYLE
  5
2D
102
{ACAD_REACTORS
330
2A
102
}
330
2A
100
AcDbVisualStyle
  2
Gouraud
 70
     2
177
     2
291
     1
 71
     2
176
     1
 72
     2
176
     1
 73
     1
176
     1
 90
        2
176
     1
 40
-0.6
176
     1
 41
30.0
176
     1
 62
     5
 63
     7
421
 16777215
176
     1
 74
     0
176
     1
 91
        4
176
     1
 64
     7
176
     1
 65
   257
176
     1
 75
     1
176
     1
175
     1
176
     1
 42
1.0
176
     1
 92
        0
176
     1
 66
     7
176
     1
 43
1.0
176
     1
 76
     1
176
     1
 77
     6
176
     1
 78
     2
176
     1
 67
     7
176
     1
 79
     5
176
     1
170
     0
176
     1
171
     0
176
     1
290
     0
176
     1
 93
       13
176
     1
 44
0.0
176
     1
173
     0
176
     1
  0
VISUALSTYLE
  5
2E
102
{ACAD_REACTORS
330
2A
102
}
330
2A
100
AcDbVisualStyle
  2
GouraudWithEdges
 70
     3
177
     2
291
     1
 71
     2
176
     1
 72
     2
176
     1
 73
     1
176
     1
 90
        2
176
     1
 40
-0.6
176
     1
 41
30.0
176
     1
 62
     5
 63
     7
421
 16777215
176
     1
 74
     1
176
     1
 91
        4
176
     1
 64
     7
176
     1
 65
   257
176
     1
 75
     1
176
     1
175
     1
176
     1
 42
1.0
176
     1
 92
        0
176
     1
 66
   257
176
     1
 43
1.0
176
     1
 76
     1
176
     1
 77
     6
176
     1
 78
     2
176
     1
 67
     7
176
     1
 79
     5
176
     1
170
     0
176
     1
171
     0
176
     1
290
     0
176
     1
 93
       13
176
     1
 44
0.0
176
     1
173
     0
176
     1
  0
VISUALSTYLE
  5
38
102
{ACAD_REACTORS
330
2A
102
}
330
2A
100
AcDbVisualStyle
  2
Linepattern
 70
    14
177
     2
291
     1
 71
     2
176
     1
 72
     2
176
     1
 73
     0
176
     1
 90
        0
176
     1
 40
-0.6
176
     1
 41
-30.0
176
     1
 62
     5
 63
     7
421
 16777215
176
     1
 74
     1
176
     1
 91
        4
176
     1
 64
     7
176
     1
 65
   257
176
     1
 75
     7
176
     1
175
     7
176
     1
 42
1.0
176
     1
 92
        8
176
     1
 66
     7
176
     1
 43
1.0
176
     1
 76
     1
176
     1
 77
     6
176
     1
 78
     2
176
     1
 67
     7
176
     1
 79
     5
176
     1
170
     0
176
     1
171
     0
176
     1
290
     0
176
     1
 93
        1
176
     1
 44
0.0
176
     1
173
     0
176
     1
  0
VISUALSTYLE
  5
33
102
{ACAD_REACTORS
330
2A
102
}
330
2A
100
AcDbVisualStyle
  2
Realistic
 70
     8
177
     2
291
     0
 71
     2
176
     1
 72
     2
176
     1
 73
     0
176
     1
 90
        0
176
     1
 40
-0.6
176
     1
 41
-30.0
176
     1
 62
     5
 63
     7
421
 16777215
176
     1
 74
     1
176
     1
 91
        0
176
     1
 64
     7
176
     1
 65
   257
176
     1
 75
     1
176
     1
175
     1
176
     1
 42
1.0
176
     1
 92
        8
176
     1
 66
     8
424
  7895160
176
     1
 43
1.0
176
     1
 76
     1
176
     1
 77
     6
176
     1
 78
     2
176
     1
 67
     7
176
     1
 79
     5
176
     1
170
     0
176
     1
171
     0
176
     1
290
     0
176
     1
 93
       13
176
     1
 44
0.0
176
     1
173
     0
176
     1
  0
VISUALSTYLE
  5
37
102
{ACAD_REACTORS
330
2A
102
}
330
2A
100
AcDbVisualStyle
  2
Thicken
 70
    13
177
     2
291
     1
 71
     2
176
     1
 72
     2
176
     1
 73
     0
176
     1
 90
        0
176
     1
 40
-0.6
176
     1
 41
-30.0
176
     1
 62
     5
 63
     7
421
 16777215
176
     1
 74
     1
176
     1
 91
        4
176
     1
 64
     7
176
     1
 65
   257
176
     1
 75
     1
176
     1
175
     1
176
     1
 42
1.0
176
     1
 92
       12
176
     1
 66
     7
176
     1
 43
1.0
176
     1
 76
     1
176
     1
 77
     6
176
     1
 78
     2
176
     1
 67
     7
176
     1
 79
     5
176
     1
170
     0
176
     1
171
     0
176
     1
290
     0
176
     1
 93
        1
176
     1
 44
0.0
176
     1
173
     0
176
     1
  0
ENDSEC
  0
EOF
