  0
SECTION
  2
HEADER
  9
$ACADVER
  1
AC1024
  9
$ACADMAINTVER
 70
     6
  9
$DWGCODEPAGE
  3
UNDEFINED
  9
$INSBASE
 10
0.0
 20
0.0
 30
0.0
  9
$EXTMIN
 10
1.000000000000000E+20
 20
1.000000000000000E+20
 30
1.000000000000000E+20
  9
$EXTMAX
 10
-1.000000000000000E+20
 20
-1.000000000000000E+20
 30
-1.000000000000000E+20
  9
$LIMMIN
 10
0.0
 20
0.0
  9
$LIMMAX
 10
12.0
 20
9.0
  9
$ORTHOMODE
 70
     0
  9
$REGENMODE
 70
     1
  9
$FILLMODE
 70
     1
  9
$QTEXTMODE
 70
     0
  9
$MIRRTEXT
 70
     1
  9
$LTSCALE
 40
1.0
  9
$ATTMODE
 70
     1
  9
$TEXTSIZE
 40
0.2
  9
$TRACEWID
 40
0.05
  9
$TEXTSTYLE
  7
Standard
  9
$CLAYER
  8
0
  9
$CELTYPE
  6
ByLayer
  9
$CECOLOR
 62
   256
  9
$CELTSCALE
 40
1.0
  9
$DISPSILH
 70
     0
  9
$DIMSCALE
 40
1.0
  9
$DIMASZ
 40
0.18
  9
$DIMEXO
 40
0.0625
  9
$DIMDLI
 40
0.38
  9
$DIMRND
 40
0.0
  9
$DIMDLE
 40
0.0
  9
$DIMEXE
 40
0.18
  9
$DIMTP
 40
0.0
  9
$DIMTM
 40
0.0
  9
$DIMTXT
 40
0.18
  9
$DIMCEN
 40
0.09
  9
$DIMTSZ
 40
0.0
  9
$DIMTOL
 70
     0
  9
$DIMLIM
 70
     0
  9
$DIMTIH
 70
     1
  9
$DIMTOH
 70
     1
  9
$DIMSE1
 70
     0
  9
$DIMSE2
 70
     0
  9
$DIMTAD
 70
     0
  9
$DIMZIN
 70
     0
  9
$DIMBLK
  1

  9
$DIMASO
 70
     1
  9
$DIMSHO
 70
     1
  9
$DIMPOST
  1

  9
$DIMAPOST
  1

  9
$DIMALT
 70
     0
  9
$DIMALTD
 70
     2
  9
$DIMALTF
 40
25.4
  9
$DIMLFAC
 40
1.0
  9
$DIMTOFL
 70
     0
  9
$DIMTVP
 40
0.0
  9
$DIMTIX
 70
     0
  9
$DIMSOXD
 70
     0
  9
$DIMSAH
 70
     0
  9
$DIMBLK1
  1

  9
$DIMBLK2
  1

  9
$DIMSTYLE
  2
Standard
  9
$DIMCLRD
 70
     0
  9
$DIMCLRE
 70
     0
  9
$DIMCLRT
 70
     0
  9
$DIMTFAC
 40
1.0
  9
$DIMGAP
 40
0.09
  9
$DIMJUST
 70
     0
  9
$DIMSD1
 70
     0
  9
$DIMSD2
 70
     0
  9
$DIMTOLJ
 70
     1
  9
$DIMTZIN
 70
     0
  9
$DIMALTZ
 70
     0
  9
$DIMALTTZ
 70
     0
  9
$DIMUPT
 70
     0
  9
$DIMDEC
 70
     4
  9
$DIMTDEC
 70
     4
  9
$DIMALTU
 70
     2
  9
$DIMALTTD
 70
     2
  9
$DIMTXSTY
  7
Standard
  9
$DIMAUNIT
 70
     0
  9
$DIMADEC
 70
     0
  9
$DIMALTRND
 40
0.0
  9
$DIMAZIN
 70
     0
  9
$DIMDSEP
 70
    46
  9
$DIMATFIT
 70
     3
  9
$DIMFRAC
 70
     0
  9
$DIMLDRBLK
  1

  9
$DIMLUNIT
 70
     2
  9
$DIMLWD
 70
    -2
  9
$DIMLWE
 70
    -2
  9
$DIMTMOVE
 70
     0
  9
$DIMFXL
 40
1.0
  9
$DIMFXLON
 70
     0
  9
$DIMJOGANG
 40
0.7853981633974483
  9
$DIMTFILL
 70
     0
  9
$DIMTFILLCLR
 70
     0
  9
$DIMARCSYM
 70
     0
  9
$DIMLTYPE
  6

  9
$DIMLTEX1
  6

  9
$DIMLTEX2
  6

  9
$DIMTXTDIRECTION
 70
     0
  9
$LUNITS
 70
     2
  9
$LUPREC
 70
     4
  9
$SKETCHINC
 40
0.1
  9
$FILLETRAD
 40
0.5
  9
$AUNITS
 70
     0
  9
$AUPREC
 70
     0
  9
$MENU
  1
.
  9
$ELEVATION
 40
0.0
  9
$PELEVATION
 40
0.0
  9
$THICKNESS
 40
0.0
  9
$LIMCHECK
 70
     0
  9
$CHAMFERA
 40
0.5
  9
$CHAMFERB
 40
0.5
  9
$CHAMFERC
 40
1.0
  9
$CHAMFERD
 40
0.0
  9
$SKPOLY
 70
     0
  9
$TDCREATE
 40
2457917.601099537
  9
$TDUCREATE
 40
2457917.226099537
  9
$TDUPDATE
 40
2457917.601099537
  9
$TDUUPDATE
 40
2457917.226099537
  9
$TDINDWG
 40
0.0000000116
  9
$TDUSRTIMER
 40
0.0000000116
  9
$USRTIMER
 70
     1
  9
$ANGBASE
 50
0.0
  9
$ANGDIR
 70
     0
  9
$PDMODE
 70
     0
  9
$PDSIZE
 40
0.0
  9
$PLINEWID
 40
0.0
  9
$SPLFRAME
 70
     0
  9
$SPLINETYPE
 70
     6
  9
$SPLINESEGS
 70
     8
  9
$HANDSEED
  5
195
  9
$SURFTAB1
 70
     6
  9
$SURFTAB2
 70
     6
  9
$SURFTYPE
 70
     6
  9
$SURFU
 70
     6
  9
$SURFV
 70
     6
  9
$UCSBASE
  2

  9
$UCSNAME
  2

  9
$UCSORG
 10
0.0
 20
0.0
 30
0.0
  9
$UCSXDIR
 10
1.0
 20
0.0
 30
0.0
  9
$UCSYDIR
 10
0.0
 20
1.0
 30
0.0
  9
$UCSORTHOREF
  2

  9
$UCSORTHOVIEW
 70
     0
  9
$UCSORGTOP
 10
0.0
 20
0.0
 30
0.0
  9
$UCSORGBOTTOM
 10
0.0
 20
0.0
 30
0.0
  9
$UCSORGLEFT
 10
0.0
 20
0.0
 30
0.0
  9
$UCSORGRIGHT
 10
0.0
 20
0.0
 30
0.0
  9
$UCSORGFRONT
 10
0.0
 20
0.0
 30
0.0
  9
$UCSORGBACK
 10
0.0
 20
0.0
 30
0.0
  9
$PUCSBASE
  2

  9
$PUCSNAME
  2

  9
$PUCSORG
 10
0.0
 20
0.0
 30
0.0
  9
$PUCSXDIR
 10
1.0
 20
0.0
 30
0.0
  9
$PUCSYDIR
 10
0.0
 20
1.0
 30
0.0
  9
$PUCSORTHOREF
  2

  9
$PUCSORTHOVIEW
 70
     0
  9
$PUCSORGTOP
 10
0.0
 20
0.0
 30
0.0
  9
$PUCSORGBOTTOM
 10
0.0
 20
0.0
 30
0.0
  9
$PUCSORGLEFT
 10
0.0
 20
0.0
 30
0.0
  9
$PUCSORGRIGHT
 10
0.0
 20
0.0
 30
0.0
  9
$PUCSORGFRONT
 10
0.0
 20
0.0
 30
0.0
  9
$PUCSORGBACK
 10
0.0
 20
0.0
 30
0.0
  9
$USERI1
 70
     0
  9
$USERI2
 70
     0
  9
$USERI3
 70
     0
  9
$USERI4
 70
     0
  9
$USERI5
 70
     0
  9
$USERR1
 40
0.0
  9
$USERR2
 40
0.0
  9
$USERR3
 40
0.0
  9
$USERR4
 40
0.0
  9
$USERR5
 40
0.0
  9
$WORLDVIEW
 70
     1
  9
$SHADEDGE
 70
     3
  9
$SHADEDIF
 70
    70
  9
$TILEMODE
 70
     1
  9
$MAXACTVP
 70
    64
  9
$PINSBASE
 10
0.0
 20
0.0
 30
0.0
  9
$PLIMCHECK
 70
     0
  9
$PEXTMIN
 10
1.000000000000000E+20
 20
1.000000000000000E+20
 30
1.000000000000000E+20
  9
$PEXTMAX
 10
-1.000000000000000E+20
 20
-1.000000000000000E+20
 30
-1.000000000000000E+20
  9
$PLIMMIN
 10
0.0
 20
0.0
  9
$PLIMMAX
 10
12.0
 20
9.0
  9
$UNITMODE
 70
     0
  9
$VISRETAIN
 70
     1
  9
$PLINEGEN
 70
     0
  9
$PSLTSCALE
 70
     1
  9
$TREEDEPTH
 70
  3020
  9
$CMLSTYLE
  2
Standard
  9
$CMLJUST
 70
     0
  9
$CMLSCALE
 40
1.0
  9
$PROXYGRAPHICS
 70
     1
  9
$MEASUREMENT
 70
     0
  9
$CELWEIGHT
370
    -1
  9
$ENDCAPS
280
     0
  9
$JOINSTYLE
280
     0
  9
$LWDISPLAY
290
     1
  9
$INSUNITS
 70
     1
  9
$HYPERLINKBASE
  1

  9
$STYLESHEET
  1

  9
$XEDIT
290
     1
  9
$CEPSNTYPE
380
     0
  9
$PSTYLEMODE
290
     1
  9
$FINGERPRINTGUID
  2
{F1076A7B-CA7E-D649-95EB-23C126B41838}
  9
$VERSIONGUID
  2
{FAEB1C32-E019-11D5-929B-00C0DF256EC4}
  9
$EXTNAMES
290
     1
  9
$PSVPSCALE
 40
0.0
  9
$OLESTARTUP
290
     0
  9
$SORTENTS
280
   127
  9
$INDEXCTL
280
     0
  9
$HIDETEXT
280
     1
  9
$XCLIPFRAME
280
     2
  9
$HALOGAP
280
     0
  9
$OBSCOLOR
 70
   257
  9
$OBSLTYPE
280
     0
  9
$INTERSECTIONDISPLAY
280
     0
  9
$INTERSECTIONCOLOR
 70
   257
  9
$DIMASSOC
280
     2
  9
$PROJECTNAME
  1

  9
$CAMERADISPLAY
290
     0
  9
$LENSLENGTH
 40
50.0
  9
$CAMERAHEIGHT
 40
0.0
  9
$STEPSPERSEC
 40
2.0
  9
$STEPSIZE
 40
6.0
  9
$3DDWFPREC
 40
2.0
  9
$PSOLWIDTH
 40
0.25
  9
$PSOLHEIGHT
 40
4.0
  9
$LOFTANG1
 40
1.570796326794897
  9
$LOFTANG2
 40
1.570796326794897
  9
$LOFTMAG1
 40
0.0
  9
$LOFTMAG2
 40
0.0
  9
$LOFTPARAM
 70
     7
  9
$LOFTNORMALS
280
     1
  9
$LATITUDE
 40
37.795
  9
$LONGITUDE
 40
-122.394
  9
$NORTHDIRECTION
 40
0.0
  9
$TIMEZONE
 70
 -8000
  9
$LIGHTGLYPHDISPLAY
280
     1
  9
$TILEMODELIGHTSYNCH
280
     1
  9
$CMATERIAL
347
3C
  9
$SOLIDHIST
280
     1
  9
$SHOWHIST
280
     1
  9
$DWFFRAME
280
     2
  9
$DGNFRAME
280
     2
  9
$REALWORLDSCALE
290
     1
  9
$INTERFERECOLOR
 62
   256
  9
$CSHADOW
280
     0
  9
$SHADOWPLANELOCATION
 40
0.0
  0
ENDSEC
  0
SECTION
  2
CLASSES
  0
CLASS
  1
ACDBDICTIONARYWDFLT
  2
AcDbDictionaryWithDefault
  3
ObjectDBX Classes
 90
        0
 91
        4
280
     0
281
     0
  0
CLASS
  1
VISUALSTYLE
  2
AcDbVisualStyle
  3
ObjectDBX Classes
 90
     4095
 91
        4
280
     0
281
     0
  0
CLASS
  1
MATERIAL
  2
AcDbMaterial
  3
ObjectDBX Classes
 90
     1153
 91
        4
280
     0
281
     0
  0
CLASS
  1
SUN
  2
AcDbSun
  3
SCENEOE
 90
     1024
 91
        4
280
     0
281
     0
  0
ENDSEC
  0
SECTION
  2
TABLES
  0
TABLE
  2
VPORT
  5
8
330
0
100
AcDbSymbolTable
 70
     1
  0
VPORT
  5
29
330
8
100
AcDbSymbolTableRecord
100
AcDbViewportTableRecord
  2
*Active
 70
     0
 10
0.0
 20
0.0
 11
1.0
 21
1.0
 12
0.0
 22
0.0
 13
0.0
 23
0.0
 14
0.5
 24
0.5
 15
0.5
 25
0.5
 16
0.0
 26
0.0
 36
1.0
 17
91.00082462281999
 27
-128.4993055234307
 37
0.0
 40
256.9986110468615
 41
0.7081814508812795
 42
50.0
 43
0.0
 44
0.0
 50
0.0
 51
0.0
 71
     0
 72
   100
 73
     1
 74
     3
 75
     0
 76
     0
 77
     0
 78
     0
281
     0
 65
     1
110
0.0
120
0.0
130
0.0
111
1.0
121
0.0
131
0.0
112
0.0
122
1.0
132
0.0
 79
     0
146
0.0
 60
     3
 61
     5
292
     1
282
     1
141
0.0
142
0.0
 63
   250
361
3F
  0
ENDTAB
  0
TABLE
  2
LTYPE
  5
5
330
0
100
AcDbSymbolTable
 70
     2
  0
LTYPE
  5
14
330
5
100
AcDbSymbolTableRecord
100
AcDbLinetypeTableRecord
  2
ByBlock
 70
     0
  3

 72
    65
 73
     0
 40
0.0
  0
LTYPE
  5
15
330
5
100
AcDbSymbolTableRecord
100
AcDbLinetypeTableRecord
  2
ByLayer
 70
     0
  3

 72
    65
 73
     0
 40
0.0
  0
LTYPE
  5
16
330
5
100
AcDbSymbolTableRecord
100
AcDbLinetypeTableRecord
  2
Continuous
 70
     0
  3
Solid line
 72
    65
 73
     0
 40
0.0
  0
LTYPE
  5
9A
330
5
100
AcDbSymbolTableRecord
100
AcDbLinetypeTableRecord
  2
AI-Linetype-1
 70
     0
  3
Adobe Illustrator Linetype No. 1
 72
    65
 73
     2
 40
1.411111110758333
 49
0.7055555553791667
 74
     0
 49
-0.7055555553791667
 74
     0
  0
ENDTAB
  0
TABLE
  2
LAYER
  5
2
330
0
100
AcDbSymbolTable
 70
     2
  0
LAYER
  5
10
330
2
100
AcDbSymbolTableRecord
100
AcDbLayerTableRecord
  2
0
 70
     0
 62
     7
  6
Continuous
370
    -3
390
F
347
3E
  0
LAYER
  5
40
330
2
100
AcDbSymbolTableRecord
100
AcDbLayerTableRecord
  2
_U+30EC_U+30A4_U+30E4_U+30FC 1
 70
     0
 62
     7
  6
Continuous
370
    -3
390
F
347
3E
  0
ENDTAB
  0
TABLE
  2
STYLE
  5
3
330
0
100
AcDbSymbolTable
 70
     1
  0
STYLE
  5
11
330
3
100
AcDbSymbolTableRecord
100
AcDbTextStyleTableRecord
  2
Standard
 70
     0
 40
0.0
 41
1.0
 50
0.0
 71
     0
 42
0.2
  3
txt
  4

  0
ENDTAB
  0
TABLE
  2
VIEW
  5
6
330
0
100
AcDbSymbolTable
 70
     0
  0
ENDTAB
  0
TABLE
  2
UCS
  5
7
330
0
100
AcDbSymbolTable
 70
     0
  0
ENDTAB
  0
TABLE
  2
APPID
  5
9
330
0
100
AcDbSymbolTable
 70
     1
  0
APPID
  5
12
330
9
100
AcDbSymbolTableRecord
100
AcDbRegAppTableRecord
  2
ACAD
 70
     0
  0
ENDTAB
  0
TABLE
  2
DIMSTYLE
  5
A
330
0
100
AcDbSymbolTable
 70
     1
100
AcDbDimStyleTable
  0
DIMSTYLE
105
27
330
A
100
AcDbSymbolTableRecord
100
AcDbDimStyleTableRecord
  2
Standard
 70
     0
178
     0
340
11
  0
ENDTAB
  0
TABLE
  2
BLOCK_RECORD
  5
1
330
0
100
AcDbSymbolTable
 70
    10
  0
BLOCK_RECORD
  5
1F
330
1
100
AcDbSymbolTableRecord
100
AcDbBlockTableRecord
  2
*Model_Space
340
22
 70
     0
280
     1
281
     0
  0
BLOCK_RECORD
  5
1B
330
1
100
AcDbSymbolTableRecord
100
AcDbBlockTableRecord
  2
*Paper_Space
340
1E
 70
     0
280
     1
281
     0
  0
BLOCK_RECORD
  5
23
330
1
100
AcDbSymbolTableRecord
100
AcDbBlockTableRecord
  2
*Paper_Space0
340
26
 70
     0
280
     1
281
     0
  0
BLOCK_RECORD
  5
8E
330
1
100
AcDbSymbolTableRecord
100
AcDbBlockTableRecord
  2
block 2
340
0
102
{BLKREFS
331
8F
102
}
 70
     0
280
     1
281
     0
  0
BLOCK_RECORD
  5
AA
330
1
100
AcDbSymbolTableRecord
100
AcDbBlockTableRecord
  2
block 3
340
0
102
{BLKREFS
331
AB
102
}
 70
     0
280
     1
281
     0
  0
BLOCK_RECORD
  5
BC
330
1
100
AcDbSymbolTableRecord
100
AcDbBlockTableRecord
  2
block 4
340
0
102
{BLKREFS
331
BD
102
}
 70
     0
280
     1
281
     0
  0
BLOCK_RECORD
  5
D7
330
1
100
AcDbSymbolTableRecord
100
AcDbBlockTableRecord
  2
block 5
340
0
102
{BLKREFS
331
D8
102
}
 70
     0
280
     1
281
     0
  0
BLOCK_RECORD
  5
DF
330
1
100
AcDbSymbolTableRecord
100
AcDbBlockTableRecord
  2
block 6
340
0
102
{BLKREFS
331
E0
102
}
 70
     0
280
     1
281
     0
  0
BLOCK_RECORD
  5
115
330
1
100
AcDbSymbolTableRecord
100
AcDbBlockTableRecord
  2
block 7
340
0
102
{BLKREFS
331
116
102
}
 70
     0
280
     1
281
     0
  0
BLOCK_RECORD
  5
12E
330
1
100
AcDbSymbolTableRecord
100
AcDbBlockTableRecord
  2
block 8
340
0
102
{BLKREFS
331
12F
102
}
 70
     0
280
     1
281
     0
  0
BLOCK_RECORD
  5
13E
330
1
100
AcDbSymbolTableRecord
100
AcDbBlockTableRecord
  2
block 9
340
0
102
{BLKREFS
331
13F
102
}
 70
     0
280
     1
281
     0
  0
BLOCK_RECORD
  5
155
330
1
100
AcDbSymbolTableRecord
100
AcDbBlockTableRecord
  2
block 10
340
0
102
{BLKREFS
331
156
102
}
 70
     0
280
     1
281
     0
  0
ENDTAB
  0
ENDSEC
  0
SECTION
  2
BLOCKS
  0
BLOCK
  5
20
330
1F
100
AcDbEntity
  8
0
100
AcDbBlockBegin
  2
*Model_Space
 70
     0
 10
0.0
 20
0.0
 30
0.0
  3
*Model_Space
  1

  0
ENDBLK
  5
21
330
1F
100
AcDbEntity
  8
0
100
AcDbBlockEnd
  0
BLOCK
  5
1C
330
1B
100
AcDbEntity
 67
     1
  8
0
100
AcDbBlockBegin
  2
*Paper_Space
 70
     0
 10
0.0
 20
0.0
 30
0.0
  3
*Paper_Space
  1

  0
ENDBLK
  5
1D
330
1B
100
AcDbEntity
 67
     1
  8
0
100
AcDbBlockEnd
  0
BLOCK
  5
24
330
23
100
AcDbEntity
  8
0
100
AcDbBlockBegin
  2
*Paper_Space0
 70
     0
 10
0.0
 20
0.0
 30
0.0
  3
*Paper_Space0
  1

  0
ENDBLK
  5
25
330
23
100
AcDbEntity
  8
0
100
AcDbBlockEnd
  0
BLOCK
  5
90
330
8E
100
AcDbEntity
  8
0
100
AcDbBlockBegin
  2
block 2
 70
     0
 10
0.0
 20
0.0
 30
0.0
  3
block 2
  1

  0
SPLINE
  5
92
330
8E
100
AcDbEntity
  8
_U+30EC_U+30A4_U+30E4_U+30FC 1
370
     0
100
AcDbSpline
210
0.0
220
0.0
230
1.0
 70
    11
 71
     3
 72
    26
 73
    22
 74
     0
 42
0.0000000001
 43
0.0000000001
 12
1.0
 22
0.0
 32
0.0
 13
1.0
 23
0.0
 33
0.0
 40
0.0
 40
0.0
 40
0.0
 40
0.0
 40
1.0
 40
1.0
 40
1.0
 40
2.0
 40
2.0
 40
2.0
 40
3.0
 40
3.0
 40
3.0
 40
4.0
 40
4.0
 40
4.0
 40
5.0
 40
5.0
 40
5.0
 40
6.0
 40
6.0
 40
6.0
 40
7.0
 40
7.0
 40
7.0
 40
7.0
 10
88.92928328939963
 20
-103.2622585462331
 30
0.0
 10
88.92928328939963
 20
-103.2622585462331
 30
0.0
 10
88.92928328939963
 20
-102.1579331884362
 30
0.0
 10
88.92928328939963
 20
-102.1579331884362
 30
0.0
 10
88.92928328939963
 20
-102.1579331884362
 30
0.0
 10
88.5992431419127
 20
-102.1579331884362
 30
0.0
 10
88.5992431419127
 20
-102.1579331884362
 30
0.0
 10
88.5992431419127
 20
-102.1579331884362
 30
0.0
 10
88.5992431419127
 20
-102.0099663373447
 30
0.0
 10
88.5992431419127
 20
-102.0099663373447
 30
0.0
 10
88.93135034669078
 20
-101.9951524267582
 30
0.0
 10
88.97785913574165
 20
-101.8321994103058
 30
0.0
 10
89.0074869569148
 20
-101.7179944949698
 30
0.0
 10
89.0074869569148
 20
-101.7179944949698
 30
0.0
 10
89.1535590054894
 20
-101.7179944949698
 30
0.0
 10
89.1535590054894
 20
-101.7179944949698
 30
0.0
 10
89.1535590054894
 20
-101.7179944949698
 30
0.0
 10
89.1535590054894
 20
-103.2622585462331
 30
0.0
 10
89.1535590054894
 20
-103.2622585462331
 30
0.0
 10
89.1535590054894
 20
-103.2622585462331
 30
0.0
 10
88.92928328939963
 20
-103.2622585462331
 30
0.0
 10
88.92928328939963
 20
-103.2622585462331
 30
0.0
  0
HATCH
  5
93
330
8E
100
AcDbEntity
  8
_U+30EC_U+30A4_U+30E4_U+30FC 1
 62
   179
420
  2234388
100
AcDbHatch
 10
0.0
 20
0.0
 30
0.0
210
0.0
220
0.0
230
1.0
  2
SOLID
 70
     1
 71
     0
 91
        1
 92
        1
 93
        1
 72
     4
 94
        3
 73
     0
 74
     1
 95
       26
 96
       22
 40
0.0
 40
0.0
 40
0.0
 40
0.0
 40
1.0
 40
1.0
 40
1.0
 40
2.0
 40
2.0
 40
2.0
 40
3.0
 40
3.0
 40
3.0
 40
4.0
 40
4.0
 40
4.0
 40
5.0
 40
5.0
 40
5.0
 40
6.0
 40
6.0
 40
6.0
 40
7.0
 40
7.0
 40
7.0
 40
7.0
 10
88.92928328939963
 20
-103.2622585462331
 10
88.92928328939963
 20
-103.2622585462331
 10
88.92928328939963
 20
-102.1579331884362
 10
88.92928328939963
 20
-102.1579331884362
 10
88.92928328939963
 20
-102.1579331884362
 10
88.5992431419127
 20
-102.1579331884362
 10
88.5992431419127
 20
-102.1579331884362
 10
88.5992431419127
 20
-102.1579331884362
 10
88.5992431419127
 20
-102.0099663373447
 10
88.5992431419127
 20
-102.0099663373447
 10
88.93135034669078
 20
-101.9951524267582
 10
88.97785913574165
 20
-101.8321994103058
 10
89.0074869569148
 20
-101.7179944949698
 10
89.0074869569148
 20
-101.7179944949698
 10
89.1535590054894
 20
-101.7179944949698
 10
89.1535590054894
 20
-101.7179944949698
 10
89.1535590054894
 20
-101.7179944949698
 10
89.1535590054894
 20
-103.2622585462331
 10
89.1535590054894
 20
-103.2622585462331
 10
89.1535590054894
 20
-103.2622585462331
 10
88.92928328939963
 20
-103.2622585462331
 10
88.92928328939963
 20
-103.2622585462331
 97
        0
 97
        0
 75
     2
 76
     1
 98
        0
  0
ENDBLK
  5
91
330
8E
100
AcDbEntity
  8
0
100
AcDbBlockEnd
  0
BLOCK
  5
AC
330
AA
100
AcDbEntity
  8
0
100
AcDbBlockBegin
  2
block 3
 70
     0
 10
0.0
 20
0.0
 30
0.0
  3
block 3
  1

  0
SPLINE
  5
AE
330
AA
100
AcDbEntity
  8
_U+30EC_U+30A4_U+30E4_U+30FC 1
370
     0
100
AcDbSpline
210
0.0
220
0.0
230
1.0
 70
    11
 71
     3
 72
    26
 73
    22
 74
     0
 42
0.0000000001
 43
0.0000000001
 12
1.0
 22
0.0
 32
0.0
 13
1.0
 23
0.0
 33
0.0
 40
0.0
 40
0.0
 40
0.0
 40
0.0
 40
1.0
 40
1.0
 40
1.0
 40
2.0
 40
2.0
 40
2.0
 40
3.0
 40
3.0
 40
3.0
 40
4.0
 40
4.0
 40
4.0
 40
5.0
 40
5.0
 40
5.0
 40
6.0
 40
6.0
 40
6.0
 40
7.0
 40
7.0
 40
7.0
 40
7.0
 10
83.08881291325558
 20
-159.4810492222825
 30
0.0
 10
83.08881291325558
 20
-159.4810492222825
 30
0.0
 10
83.08881291325558
 20
-158.37689611926
 30
0.0
 10
83.08881291325558
 20
-158.37689611926
 30
0.0
 10
83.08881291325558
 20
-158.37689611926
 30
0.0
 10
82.75877276576864
 20
-158.37689611926
 30
0.0
 10
82.75877276576864
 20
-158.37689611926
 30
0.0
 10
82.75877276576864
 20
-158.37689611926
 30
0.0
 10
82.75877276576864
 20
-158.2287570133942
 30
0.0
 10
82.75877276576864
 20
-158.2287570133942
 30
0.0
 10
83.09087997054672
 20
-158.2139431028076
 30
0.0
 10
83.1373887595976
 20
-158.0509900863553
 30
0.0
 10
83.16701658077075
 20
-157.936612916245
 30
0.0
 10
83.16701658077075
 20
-157.936612916245
 30
0.0
 10
83.31308862934534
 20
-157.936612916245
 30
0.0
 10
83.31308862934534
 20
-157.936612916245
 30
0.0
 10
83.31308862934534
 20
-157.936612916245
 30
0.0
 10
83.31308862934534
 20
-159.4810492222825
 30
0.0
 10
83.31308862934534
 20
-159.4810492222825
 30
0.0
 10
83.31308862934534
 20
-159.4810492222825
 30
0.0
 10
83.08881291325558
 20
-159.4810492222825
 30
0.0
 10
83.08881291325558
 20
-159.4810492222825
 30
0.0
  0
HATCH
  5
AF
330
AA
100
AcDbEntity
  8
_U+30EC_U+30A4_U+30E4_U+30FC 1
 62
   179
420
  2234388
100
AcDbHatch
 10
0.0
 20
0.0
 30
0.0
210
0.0
220
0.0
230
1.0
  2
SOLID
 70
     1
 71
     0
 91
        1
 92
        1
 93
        1
 72
     4
 94
        3
 73
     0
 74
     1
 95
       26
 96
       22
 40
0.0
 40
0.0
 40
0.0
 40
0.0
 40
1.0
 40
1.0
 40
1.0
 40
2.0
 40
2.0
 40
2.0
 40
3.0
 40
3.0
 40
3.0
 40
4.0
 40
4.0
 40
4.0
 40
5.0
 40
5.0
 40
5.0
 40
6.0
 40
6.0
 40
6.0
 40
7.0
 40
7.0
 40
7.0
 40
7.0
 10
83.08881291325558
 20
-159.4810492222825
 10
83.08881291325558
 20
-159.4810492222825
 10
83.08881291325558
 20
-158.37689611926
 10
83.08881291325558
 20
-158.37689611926
 10
83.08881291325558
 20
-158.37689611926
 10
82.75877276576864
 20
-158.37689611926
 10
82.75877276576864
 20
-158.37689611926
 10
82.75877276576864
 20
-158.37689611926
 10
82.75877276576864
 20
-158.2287570133942
 10
82.75877276576864
 20
-158.2287570133942
 10
83.09087997054672
 20
-158.2139431028076
 10
83.1373887595976
 20
-158.0509900863553
 10
83.16701658077075
 20
-157.936612916245
 10
83.16701658077075
 20
-157.936612916245
 10
83.31308862934534
 20
-157.936612916245
 10
83.31308862934534
 20
-157.936612916245
 10
83.31308862934534
 20
-157.936612916245
 10
83.31308862934534
 20
-159.4810492222825
 10
83.31308862934534
 20
-159.4810492222825
 10
83.31308862934534
 20
-159.4810492222825
 10
83.08881291325558
 20
-159.4810492222825
 10
83.08881291325558
 20
-159.4810492222825
 97
        0
 97
        0
 75
     2
 76
     1
 98
        0
  0
SPLINE
  5
B0
330
AA
100
AcDbEntity
  8
_U+30EC_U+30A4_U+30E4_U+30FC 1
370
     0
100
AcDbSpline
210
0.0
220
0.0
230
1.0
 70
    11
 71
     3
 72
    32
 73
    28
 74
     0
 42
0.0000000001
 43
0.0000000001
 12
1.0
 22
0.0
 32
0.0
 13
1.0
 23
0.0
 33
0.0
 40
0.0
 40
0.0
 40
0.0
 40
0.0
 40
1.0
 40
1.0
 40
1.0
 40
2.0
 40
2.0
 40
2.0
 40
3.0
 40
3.0
 40
3.0
 40
4.0
 40
4.0
 40
4.0
 40
5.0
 40
5.0
 40
5.0
 40
6.0
 40
6.0
 40
6.0
 40
7.0
 40
7.0
 40
7.0
 40
8.0
 40
8.0
 40
8.0
 40
9.0
 40
9.0
 40
9.0
 40
9.0
 10
84.27185870289037
 20
-159.5316921259157
 30
0.0
 10
84.09857039998231
 20
-159.5316921259157
 30
0.0
 10
83.85293509188399
 20
-159.4621011971136
 30
0.0
 10
83.81503904154624
 20
-159.1299939923356
 30
0.0
 10
83.81503904154624
 20
-159.1299939923356
 30
0.0
 10
84.02863496163174
 20
-159.1299939923356
 30
0.0
 10
84.02863496163174
 20
-159.1299939923356
 30
0.0
 10
84.039314757636
 20
-159.1892496346819
 30
0.0
 10
84.07100963610031
 20
-159.3370442309991
 30
0.0
 10
84.27392576018153
 20
-159.3370442309991
 30
0.0
 10
84.5660698573307
 20
-159.3370442309991
 30
0.0
 10
84.60396590766845
 20
-159.0070040835122
 30
0.0
 10
84.61671276096388
 20
-158.8020209021398
 30
0.0
 10
84.52576224015328
 20
-158.8822916269461
 30
0.0
 10
84.45823836864238
 20
-158.9394802120013
 30
0.0
 10
84.2763373270212
 20
-158.9394802120013
 30
0.0
 10
84.09650334269115
 20
-158.9394802120013
 30
0.0
 10
83.79402395908622
 20
-158.8337157806041
 30
0.0
 10
83.79402395908622
 20
-158.4275390228931
 30
0.0
 10
83.79402395908622
 20
-158.1081786714105
 30
0.0
 10
83.99280596858513
 20
-157.888037069903
 30
0.0
 10
84.31009926277665
 20
-157.888037069903
 30
0.0
 10
84.82410750917592
 20
-157.888037069903
 30
0.0
 10
84.8347873051802
 20
-158.4423529334797
 30
0.0
 10
84.8347873051802
 20
-158.6559488535652
 30
0.0
 10
84.8347873051802
 20
-158.8864257415284
 30
0.0
 10
84.81549477046279
 20
-159.5316921259157
 30
0.0
 10
84.27185870289037
 20
-159.5316921259157
 30
0.0
  0
SPLINE
  5
B1
330
AA
100
AcDbEntity
  8
_U+30EC_U+30A4_U+30E4_U+30FC 1
370
     0
100
AcDbSpline
210
0.0
220
0.0
230
1.0
 70
    11
 71
     3
 72
    17
 73
    13
 74
     0
 42
0.0000000001
 43
0.0000000001
 12
1.0
 22
0.0
 32
0.0
 13
1.0
 23
0.0
 33
0.0
 40
0.0
 40
0.0
 40
0.0
 40
0.0
 40
1.0
 40
1.0
 40
1.0
 40
2.0
 40
2.0
 40
2.0
 40
3.0
 40
3.0
 40
3.0
 40
4.0
 40
4.0
 40
4.0
 40
4.0
 10
84.31216632006779
 20
-158.0806179075285
 30
0.0
 10
84.1936550353752
 20
-158.0806179075285
 30
0.0
 10
84.01795516562746
 20
-158.1378064925836
 30
0.0
 10
84.01795516562746
 20
-158.4234049083108
 30
0.0
 10
84.01795516562746
 20
-158.6497476816917
 30
0.0
 10
84.15782604232861
 20
-158.7448323170846
 30
0.0
 10
84.29321829489892
 20
-158.7448323170846
 30
0.0
 10
84.55539006132643
 20
-158.7448323170846
 30
0.0
 10
84.59363062121271
 20
-158.5353705115814
 30
0.0
 10
84.59363062121271
 20
-158.41892628418
 30
0.0
 10
84.59363062121271
 20
-158.2435709239808
 30
0.0
 10
84.49820147627129
 20
-158.0806179075285
 30
0.0
 10
84.31216632006779
 20
-158.0806179075285
 30
0.0
  0
HATCH
  5
B2
330
AA
100
AcDbEntity
  8
_U+30EC_U+30A4_U+30E4_U+30FC 1
 62
   179
420
  2234388
100
AcDbHatch
 10
0.0
 20
0.0
 30
0.0
210
0.0
220
0.0
230
1.0
  2
SOLID
 70
     1
 71
     0
 91
        2
 92
        1
 93
        1
 72
     4
 94
        3
 73
     0
 74
     1
 95
       32
 96
       28
 40
0.0
 40
0.0
 40
0.0
 40
0.0
 40
1.0
 40
1.0
 40
1.0
 40
2.0
 40
2.0
 40
2.0
 40
3.0
 40
3.0
 40
3.0
 40
4.0
 40
4.0
 40
4.0
 40
5.0
 40
5.0
 40
5.0
 40
6.0
 40
6.0
 40
6.0
 40
7.0
 40
7.0
 40
7.0
 40
8.0
 40
8.0
 40
8.0
 40
9.0
 40
9.0
 40
9.0
 40
9.0
 10
84.27185870289037
 20
-159.5316921259157
 10
84.09857039998231
 20
-159.5316921259157
 10
83.85293509188399
 20
-159.4621011971136
 10
83.81503904154624
 20
-159.1299939923356
 10
83.81503904154624
 20
-159.1299939923356
 10
84.02863496163174
 20
-159.1299939923356
 10
84.02863496163174
 20
-159.1299939923356
 10
84.039314757636
 20
-159.1892496346819
 10
84.07100963610031
 20
-159.3370442309991
 10
84.27392576018153
 20
-159.3370442309991
 10
84.5660698573307
 20
-159.3370442309991
 10
84.60396590766845
 20
-159.0070040835122
 10
84.61671276096388
 20
-158.8020209021398
 10
84.52576224015328
 20
-158.8822916269461
 10
84.45823836864238
 20
-158.9394802120013
 10
84.2763373270212
 20
-158.9394802120013
 10
84.09650334269115
 20
-158.9394802120013
 10
83.79402395908622
 20
-158.8337157806041
 10
83.79402395908622
 20
-158.4275390228931
 10
83.79402395908622
 20
-158.1081786714105
 10
83.99280596858513
 20
-157.888037069903
 10
84.31009926277665
 20
-157.888037069903
 10
84.82410750917592
 20
-157.888037069903
 10
84.8347873051802
 20
-158.4423529334797
 10
84.8347873051802
 20
-158.6559488535652
 10
84.8347873051802
 20
-158.8864257415284
 10
84.81549477046279
 20
-159.5316921259157
 10
84.27185870289037
 20
-159.5316921259157
 97
        0
 97
        0
 92
        1
 93
        1
 72
     4
 94
        3
 73
     0
 74
     1
 95
       17
 96
       13
 40
0.0
 40
0.0
 40
0.0
 40
0.0
 40
1.0
 40
1.0
 40
1.0
 40
2.0
 40
2.0
 40
2.0
 40
3.0
 40
3.0
 40
3.0
 40
4.0
 40
4.0
 40
4.0
 40
4.0
 10
84.31216632006779
 20
-158.0806179075285
 10
84.1936550353752
 20
-158.0806179075285
 10
84.01795516562746
 20
-158.1378064925836
 10
84.01795516562746
 20
-158.4234049083108
 10
84.01795516562746
 20
-158.6497476816917
 10
84.15782604232861
 20
-158.7448323170846
 10
84.29321829489892
 20
-158.7448323170846
 10
84.55539006132643
 20
-158.7448323170846
 10
84.59363062121271
 20
-158.5353705115814
 10
84.59363062121271
 20
-158.41892628418
 10
84.59363062121271
 20
-158.2435709239808
 10
84.49820147627129
 20
-158.0806179075285
 10
84.31216632006779
 20
-158.0806179075285
 97
        0
 97
        0
 75
     2
 76
     1
 98
        0
  0
ENDBLK
  5
AD
330
AA
100
AcDbEntity
  8
0
100
AcDbBlockEnd
  0
BLOCK
  5
BE
330
BC
100
AcDbEntity
  8
0
100
AcDbBlockBegin
  2
block 4
 70
     0
 10
0.0
 20
0.0
 30
0.0
  3
block 4
  1

  0
POLYLINE
  5
C0
330
BC
100
AcDbEntity
  8
_U+30EC_U+30A4_U+30E4_U+30FC 1
370
     0
100
AcDb2dPolyline
 66
     1
 10
0.0
 20
0.0
 30
0.0
  0
VERTEX
  5
C1
330
C0
100
AcDbEntity
  8
_U+30EC_U+30A4_U+30E4_U+30FC 1
370
     0
100
AcDbVertex
100
AcDb2dVertex
 10
98.74470483642494
 20
-116.6271619717113
 30
0.0
  0
VERTEX
  5
C2
330
C0
100
AcDbEntity
  8
_U+30EC_U+30A4_U+30E4_U+30FC 1
370
     0
100
AcDbVertex
100
AcDb2dVertex
 10
99.09197046133812
 20
-116.6271619717113
 30
0.0
  0
VERTEX
  5
C3
330
C0
100
AcDbEntity
  8
_U+30EC_U+30A4_U+30E4_U+30FC 1
370
     0
100
AcDbVertex
100
AcDb2dVertex
 10
99.09197046133812
 20
-116.8448920063791
 30
0.0
  0
VERTEX
  5
C4
330
C0
100
AcDbEntity
  8
_U+30EC_U+30A4_U+30E4_U+30FC 1
370
     0
100
AcDbVertex
100
AcDb2dVertex
 10
98.74470483642494
 20
-116.8448920063791
 30
0.0
  0
VERTEX
  5
C5
330
C0
100
AcDbEntity
  8
_U+30EC_U+30A4_U+30E4_U+30FC 1
370
     0
100
AcDbVertex
100
AcDb2dVertex
 10
98.74470483642494
 20
-117.5008381867706
 30
0.0
  0
VERTEX
  5
C6
330
C0
100
AcDbEntity
  8
_U+30EC_U+30A4_U+30E4_U+30FC 1
370
     0
100
AcDbVertex
100
AcDb2dVertex
 10
98.5207736298837
 20
-117.5008381867706
 30
0.0
  0
VERTEX
  5
C7
330
C0
100
AcDbEntity
  8
_U+30EC_U+30A4_U+30E4_U+30FC 1
370
     0
100
AcDbVertex
100
AcDb2dVertex
 10
97.5471896457521
 20
-116.8218098666279
 30
0.0
  0
VERTEX
  5
C8
330
C0
100
AcDbEntity
  8
_U+30EC_U+30A4_U+30E4_U+30FC 1
370
     0
100
AcDbVertex
100
AcDb2dVertex
 10
97.5471896457521
 20
-116.6271619717113
 30
0.0
  0
VERTEX
  5
C9
330
C0
100
AcDbEntity
  8
_U+30EC_U+30A4_U+30E4_U+30FC 1
370
     0
100
AcDbVertex
100
AcDb2dVertex
 10
98.54626733647454
 20
-116.6271619717113
 30
0.0
  0
VERTEX
  5
CA
330
C0
100
AcDbEntity
  8
_U+30EC_U+30A4_U+30E4_U+30FC 1
370
     0
100
AcDbVertex
100
AcDb2dVertex
 10
98.54626733647454
 20
-116.4197672234992
 30
0.0
  0
VERTEX
  5
CB
330
C0
100
AcDbEntity
  8
_U+30EC_U+30A4_U+30E4_U+30FC 1
370
     0
100
AcDbVertex
100
AcDb2dVertex
 10
98.74470483642494
 20
-116.4197672234992
 30
0.0
  0
VERTEX
  5
CC
330
C0
100
AcDbEntity
  8
_U+30EC_U+30A4_U+30E4_U+30FC 1
370
     0
100
AcDbVertex
100
AcDb2dVertex
 10
98.74470483642494
 20
-116.6271619717113
 30
0.0
  0
SEQEND
  5
CD
330
C0
100
AcDbEntity
  8
_U+30EC_U+30A4_U+30E4_U+30FC 1
370
     0
  0
POLYLINE
  5
CE
330
BC
100
AcDbEntity
  8
_U+30EC_U+30A4_U+30E4_U+30FC 1
370
     0
100
AcDb2dPolyline
 66
     1
 10
0.0
 20
0.0
 30
0.0
  0
VERTEX
  5
CF
330
CE
100
AcDbEntity
  8
_U+30EC_U+30A4_U+30E4_U+30FC 1
370
     0
100
AcDbVertex
100
AcDb2dVertex
 10
97.89032115608298
 20
-116.8448920063791
 30
0.0
  0
VERTEX
  5
D0
330
CE
100
AcDbEntity
  8
_U+30EC_U+30A4_U+30E4_U+30FC 1
370
     0
100
AcDbVertex
100
AcDb2dVertex
 10
98.54626733647454
 20
-117.3020561772717
 30
0.0
  0
VERTEX
  5
D1
330
CE
100
AcDbEntity
  8
_U+30EC_U+30A4_U+30E4_U+30FC 1
370
     0
100
AcDbVertex
100
AcDb2dVertex
 10
98.54626733647454
 20
-116.8448920063791
 30
0.0
  0
VERTEX
  5
D2
330
CE
100
AcDbEntity
  8
_U+30EC_U+30A4_U+30E4_U+30FC 1
370
     0
100
AcDbVertex
100
AcDb2dVertex
 10
97.89032115608298
 20
-116.8448920063791
 30
0.0
  0
SEQEND
  5
D3
330
CE
100
AcDbEntity
  8
_U+30EC_U+30A4_U+30E4_U+30FC 1
370
     0
  0
HATCH
  5
D4
330
BC
100
AcDbEntity
  8
_U+30EC_U+30A4_U+30E4_U+30FC 1
 62
   179
420
  2234388
100
AcDbHatch
 10
0.0
 20
0.0
 30
0.0
210
0.0
220
0.0
230
1.0
  2
SOLID
 70
     1
 71
     0
 91
        2
 92
        1
 93
       11
 72
     1
 10
98.74470483642494
 20
-116.6271619717113
 11
99.09197046133812
 21
-116.6271619717113
 72
     1
 10
99.09197046133812
 20
-116.6271619717113
 11
99.09197046133812
 21
-116.8448920063791
 72
     1
 10
99.09197046133812
 20
-116.8448920063791
 11
98.74470483642494
 21
-116.8448920063791
 72
     1
 10
98.74470483642494
 20
-116.8448920063791
 11
98.74470483642494
 21
-117.5008381867706
 72
     1
 10
98.74470483642494
 20
-117.5008381867706
 11
98.5207736298837
 21
-117.5008381867706
 72
     1
 10
98.5207736298837
 20
-117.5008381867706
 11
97.5471896457521
 21
-116.8218098666279
 72
     1
 10
97.5471896457521
 20
-116.8218098666279
 11
97.5471896457521
 21
-116.6271619717113
 72
     1
 10
97.5471896457521
 20
-116.6271619717113
 11
98.54626733647454
 21
-116.6271619717113
 72
     1
 10
98.54626733647454
 20
-116.6271619717113
 11
98.54626733647454
 21
-116.4197672234992
 72
     1
 10
98.54626733647454
 20
-116.4197672234992
 11
98.74470483642494
 21
-116.4197672234992
 72
     1
 10
98.74470483642494
 20
-116.4197672234992
 11
98.74470483642494
 21
-116.6271619717113
 97
        0
 92
        1
 93
        3
 72
     1
 10
97.89032115608298
 20
-116.8448920063791
 11
98.54626733647454
 21
-117.3020561772717
 72
     1
 10
98.54626733647454
 20
-117.3020561772717
 11
98.54626733647454
 21
-116.8448920063791
 72
     1
 10
98.54626733647454
 20
-116.8448920063791
 11
97.89032115608298
 21
-116.8448920063791
 97
        0
 75
     2
 76
     1
 98
        0
  0
SPLINE
  5
D5
330
BC
100
AcDbEntity
  8
_U+30EC_U+30A4_U+30E4_U+30FC 1
370
     0
100
AcDbSpline
210
0.0
220
0.0
230
1.0
 70
    11
 71
     3
 72
    53
 73
    49
 74
     0
 42
0.0000000001
 43
0.0000000001
 12
1.0
 22
0.0
 32
0.0
 13
1.0
 23
0.0
 33
0.0
 40
0.0
 40
0.0
 40
0.0
 40
0.0
 40
1.0
 40
1.0
 40
1.0
 40
2.0
 40
2.0
 40
2.0
 40
3.0
 40
3.0
 40
3.0
 40
4.0
 40
4.0
 40
4.0
 40
5.0
 40
5.0
 40
5.0
 40
6.0
 40
6.0
 40
6.0
 40
7.0
 40
7.0
 40
7.0
 40
8.0
 40
8.0
 40
8.0
 40
9.0
 40
9.0
 40
9.0
 40
10.0
 40
10.0
 40
10.0
 40
11.0
 40
11.0
 40
11.0
 40
12.0
 40
12.0
 40
12.0
 40
13.0
 40
13.0
 40
13.0
 40
14.0
 40
14.0
 40
14.0
 40
15.0
 40
15.0
 40
15.0
 40
16.0
 40
16.0
 40
16.0
 40
16.0
 10
99.14226885542277
 20
-115.8013725838969
 30
0.0
 10
99.14226885542277
 20
-115.8795762514121
 30
0.0
 10
99.12573239709357
 20
-115.9812065682269
 30
0.0
 10
99.06234264016497
 20
-116.0828368850418
 30
0.0
 10
98.95209958463698
 20
-116.2561251879499
 30
0.0
 10
98.82118595619748
 20
-116.2774847799584
 30
0.0
 10
98.71300995796064
 20
-116.2964328051273
 30
0.0
 10
98.71300995796064
 20
-116.2964328051273
 30
0.0
 10
98.71300995796064
 20
-116.0742241463287
 30
0.0
 10
98.71300995796064
 20
-116.0742241463287
 30
0.0
 10
98.91213647700808
 20
-116.0194471281132
 30
0.0
 10
98.94176429818123
 20
-115.8923231047075
 30
0.0
 10
98.94176429818123
 20
-115.7993055266057
 30
0.0
 10
98.94176429818123
 20
-115.6597791594531
 30
0.0
 10
98.84185652910898
 20
-115.5075059390051
 30
0.0
 10
98.60965709340314
 20
-115.5075059390051
 30
0.0
 10
98.35334198930056
 20
-115.5075059390051
 30
0.0
 10
98.28375106049852
 20
-115.6873399233351
 30
0.0
 10
98.28375106049852
 20
-115.8079182653189
 30
0.0
 10
98.28375106049852
 20
-115.8396131437832
 30
0.0
 10
98.28375106049852
 20
-115.9812065682269
 30
0.0
 10
98.41259763164686
 20
-116.0700900317464
 30
0.0
 10
98.41259763164686
 20
-116.0700900317464
 30
0.0
 10
98.3939941160265
 20
-116.2457899014941
 30
0.0
 10
98.3939941160265
 20
-116.2457899014941
 30
0.0
 10
98.3939941160265
 20
-116.2457899014941
 30
0.0
 10
97.5471896457521
 20
-116.1252115595104
 30
0.0
 10
97.5471896457521
 20
-116.1252115595104
 30
0.0
 10
97.5471896457521
 20
-116.1252115595104
 30
0.0
 10
97.5471896457521
 20
-115.3466199798439
 30
0.0
 10
97.5471896457521
 20
-115.3466199798439
 30
0.0
 10
97.5471896457521
 20
-115.3466199798439
 30
0.0
 10
97.74218205021724
 20
-115.3466199798439
 30
0.0
 10
97.74218205021724
 20
-115.3466199798439
 30
0.0
 10
97.74218205021724
 20
-115.3466199798439
 30
0.0
 10
97.74218205021724
 20
-115.9622585430581
 30
0.0
 10
97.74218205021724
 20
-115.9622585430581
 30
0.0
 10
97.74218205021724
 20
-115.9622585430581
 30
0.0
 10
98.16523977580592
 20
-116.0277153572778
 30
0.0
 10
98.16523977580592
 20
-116.0277153572778
 30
0.0
 10
98.13147784005047
 20
-115.9663926576404
 30
0.0
 10
98.09082571332452
 20
-115.8840548755429
 30
0.0
 10
98.09082571332452
 20
-115.7655435908503
 30
0.0
 10
98.09082571332452
 20
-115.5116400535874
 30
0.0
 10
98.27754988862506
 20
-115.2746174842022
 30
0.0
 10
98.59036455868575
 20
-115.2746174842022
 30
0.0
 10
98.90800236242578
 20
-115.2746174842022
 30
0.0
 10
99.14226885542277
 20
-115.4988932002919
 30
0.0
 10
99.14226885542277
 20
-115.8013725838969
 30
0.0
  0
HATCH
  5
D6
330
BC
100
AcDbEntity
  8
_U+30EC_U+30A4_U+30E4_U+30FC 1
 62
   179
420
  2234388
100
AcDbHatch
 10
0.0
 20
0.0
 30
0.0
210
0.0
220
0.0
230
1.0
  2
SOLID
 70
     1
 71
     0
 91
        1
 92
        1
 93
        1
 72
     4
 94
        3
 73
     0
 74
     1
 95
       53
 96
       49
 40
0.0
 40
0.0
 40
0.0
 40
0.0
 40
1.0
 40
1.0
 40
1.0
 40
2.0
 40
2.0
 40
2.0
 40
3.0
 40
3.0
 40
3.0
 40
4.0
 40
4.0
 40
4.0
 40
5.0
 40
5.0
 40
5.0
 40
6.0
 40
6.0
 40
6.0
 40
7.0
 40
7.0
 40
7.0
 40
8.0
 40
8.0
 40
8.0
 40
9.0
 40
9.0
 40
9.0
 40
10.0
 40
10.0
 40
10.0
 40
11.0
 40
11.0
 40
11.0
 40
12.0
 40
12.0
 40
12.0
 40
13.0
 40
13.0
 40
13.0
 40
14.0
 40
14.0
 40
14.0
 40
15.0
 40
15.0
 40
15.0
 40
16.0
 40
16.0
 40
16.0
 40
16.0
 10
99.14226885542277
 20
-115.8013725838969
 10
99.14226885542277
 20
-115.8795762514121
 10
99.12573239709357
 20
-115.9812065682269
 10
99.06234264016497
 20
-116.0828368850418
 10
98.95209958463698
 20
-116.2561251879499
 10
98.82118595619748
 20
-116.2774847799584
 10
98.71300995796064
 20
-116.2964328051273
 10
98.71300995796064
 20
-116.2964328051273
 10
98.71300995796064
 20
-116.0742241463287
 10
98.71300995796064
 20
-116.0742241463287
 10
98.91213647700808
 20
-116.0194471281132
 10
98.94176429818123
 20
-115.8923231047075
 10
98.94176429818123
 20
-115.7993055266057
 10
98.94176429818123
 20
-115.6597791594531
 10
98.84185652910898
 20
-115.5075059390051
 10
98.60965709340314
 20
-115.5075059390051
 10
98.35334198930056
 20
-115.5075059390051
 10
98.28375106049852
 20
-115.6873399233351
 10
98.28375106049852
 20
-115.8079182653189
 10
98.28375106049852
 20
-115.8396131437832
 10
98.28375106049852
 20
-115.9812065682269
 10
98.41259763164686
 20
-116.0700900317464
 10
98.41259763164686
 20
-116.0700900317464
 10
98.3939941160265
 20
-116.2457899014941
 10
98.3939941160265
 20
-116.2457899014941
 10
98.3939941160265
 20
-116.2457899014941
 10
97.5471896457521
 20
-116.1252115595104
 10
97.5471896457521
 20
-116.1252115595104
 10
97.5471896457521
 20
-116.1252115595104
 10
97.5471896457521
 20
-115.3466199798439
 10
97.5471896457521
 20
-115.3466199798439
 10
97.5471896457521
 20
-115.3466199798439
 10
97.74218205021724
 20
-115.3466199798439
 10
97.74218205021724
 20
-115.3466199798439
 10
97.74218205021724
 20
-115.3466199798439
 10
97.74218205021724
 20
-115.9622585430581
 10
97.74218205021724
 20
-115.9622585430581
 10
97.74218205021724
 20
-115.9622585430581
 10
98.16523977580592
 20
-116.0277153572778
 10
98.16523977580592
 20
-116.0277153572778
 10
98.13147784005047
 20
-115.9663926576404
 10
98.09082571332452
 20
-115.8840548755429
 10
98.09082571332452
 20
-115.7655435908503
 10
98.09082571332452
 20
-115.5116400535874
 10
98.27754988862506
 20
-115.2746174842022
 10
98.59036455868575
 20
-115.2746174842022
 10
98.90800236242578
 20
-115.2746174842022
 10
99.14226885542277
 20
-115.4988932002919
 10
99.14226885542277
 20
-115.8013725838969
 97
        0
 97
        0
 75
     2
 76
     1
 98
        0
  0
ENDBLK
  5
BF
330
BC
100
AcDbEntity
  8
0
100
AcDbBlockEnd
  0
BLOCK
  5
D9
330
D7
100
AcDbEntity
  8
0
100
AcDbBlockBegin
  2
block 5
 70
     0
 10
0.0
 20
0.0
 30
0.0
  3
block 5
  1

  0
SPLINE
  5
DB
330
D7
100
AcDbEntity
  8
_U+30EC_U+30A4_U+30E4_U+30FC 1
370
     0
100
AcDbSpline
210
0.0
220
0.0
230
1.0
 70
    11
 71
     3
 72
    26
 73
    22
 74
     0
 42
0.0000000001
 43
0.0000000001
 12
1.0
 22
0.0
 32
0.0
 13
1.0
 23
0.0
 33
0.0
 40
0.0
 40
0.0
 40
0.0
 40
0.0
 40
1.0
 40
1.0
 40
1.0
 40
2.0
 40
2.0
 40
2.0
 40
3.0
 40
3.0
 40
3.0
 40
4.0
 40
4.0
 40
4.0
 40
5.0
 40
5.0
 40
5.0
 40
6.0
 40
6.0
 40
6.0
 40
7.0
 40
7.0
 40
7.0
 40
7.0
 10
99.09197046133812
 20
-146.2153645467795
 30
0.0
 10
99.09197046133812
 20
-146.2153645467795
 30
0.0
 10
97.98747284876703
 20
-146.2153645467795
 30
0.0
 10
97.98747284876703
 20
-146.2153645467795
 30
0.0
 10
97.98747284876703
 20
-146.2153645467795
 30
0.0
 10
97.98747284876703
 20
-146.5454046942664
 30
0.0
 10
97.98747284876703
 20
-146.5454046942664
 30
0.0
 10
97.98747284876703
 20
-146.5454046942664
 30
0.0
 10
97.83933374290129
 20
-146.5454046942664
 30
0.0
 10
97.83933374290129
 20
-146.5454046942664
 30
0.0
 10
97.82486434186323
 20
-146.2132974894884
 30
0.0
 10
97.66156681586239
 20
-146.1667887004375
 30
0.0
 10
97.5471896457521
 20
-146.1371608792643
 30
0.0
 10
97.5471896457521
 20
-146.1371608792643
 30
0.0
 10
97.5471896457521
 20
-145.9910888306897
 30
0.0
 10
97.5471896457521
 20
-145.9910888306897
 30
0.0
 10
97.5471896457521
 20
-145.9910888306897
 30
0.0
 10
99.09197046133812
 20
-145.9910888306897
 30
0.0
 10
99.09197046133812
 20
-145.9910888306897
 30
0.0
 10
99.09197046133812
 20
-145.9910888306897
 30
0.0
 10
99.09197046133812
 20
-146.2153645467795
 30
0.0
 10
99.09197046133812
 20
-146.2153645467795
 30
0.0
  0
HATCH
  5
DC
330
D7
100
AcDbEntity
  8
_U+30EC_U+30A4_U+30E4_U+30FC 1
 62
   179
420
  2234388
100
AcDbHatch
 10
0.0
 20
0.0
 30
0.0
210
0.0
220
0.0
230
1.0
  2
SOLID
 70
     1
 71
     0
 91
        1
 92
        1
 93
        1
 72
     4
 94
        3
 73
     0
 74
     1
 95
       26
 96
       22
 40
0.0
 40
0.0
 40
0.0
 40
0.0
 40
1.0
 40
1.0
 40
1.0
 40
2.0
 40
2.0
 40
2.0
 40
3.0
 40
3.0
 40
3.0
 40
4.0
 40
4.0
 40
4.0
 40
5.0
 40
5.0
 40
5.0
 40
6.0
 40
6.0
 40
6.0
 40
7.0
 40
7.0
 40
7.0
 40
7.0
 10
99.09197046133812
 20
-146.2153645467795
 10
99.09197046133812
 20
-146.2153645467795
 10
97.98747284876703
 20
-146.2153645467795
 10
97.98747284876703
 20
-146.2153645467795
 10
97.98747284876703
 20
-146.2153645467795
 10
97.98747284876703
 20
-146.5454046942664
 10
97.98747284876703
 20
-146.5454046942664
 10
97.98747284876703
 20
-146.5454046942664
 10
97.83933374290129
 20
-146.5454046942664
 10
97.83933374290129
 20
-146.5454046942664
 10
97.82486434186323
 20
-146.2132974894884
 10
97.66156681586239
 20
-146.1667887004375
 10
97.5471896457521
 20
-146.1371608792643
 10
97.5471896457521
 20
-146.1371608792643
 10
97.5471896457521
 20
-145.9910888306897
 10
97.5471896457521
 20
-145.9910888306897
 10
97.5471896457521
 20
-145.9910888306897
 10
99.09197046133812
 20
-145.9910888306897
 10
99.09197046133812
 20
-145.9910888306897
 10
99.09197046133812
 20
-145.9910888306897
 10
99.09197046133812
 20
-146.2153645467795
 10
99.09197046133812
 20
-146.2153645467795
 97
        0
 97
        0
 75
     2
 76
     1
 98
        0
  0
SPLINE
  5
DD
330
D7
100
AcDbEntity
  8
_U+30EC_U+30A4_U+30E4_U+30FC 1
370
     0
100
AcDbSpline
210
0.0
220
0.0
230
1.0
 70
    11
 71
     3
 72
    62
 73
    58
 74
     0
 42
0.0000000001
 43
0.0000000001
 12
1.0
 22
0.0
 32
0.0
 13
1.0
 23
0.0
 33
0.0
 40
0.0
 40
0.0
 40
0.0
 40
0.0
 40
1.0
 40
1.0
 40
1.0
 40
2.0
 40
2.0
 40
2.0
 40
3.0
 40
3.0
 40
3.0
 40
4.0
 40
4.0
 40
4.0
 40
5.0
 40
5.0
 40
5.0
 40
6.0
 40
6.0
 40
6.0
 40
7.0
 40
7.0
 40
7.0
 40
8.0
 40
8.0
 40
8.0
 40
9.0
 40
9.0
 40
9.0
 40
10.0
 40
10.0
 40
10.0
 40
11.0
 40
11.0
 40
11.0
 40
12.0
 40
12.0
 40
12.0
 40
13.0
 40
13.0
 40
13.0
 40
14.0
 40
14.0
 40
14.0
 40
15.0
 40
15.0
 40
15.0
 40
16.0
 40
16.0
 40
16.0
 40
17.0
 40
17.0
 40
17.0
 40
18.0
 40
18.0
 40
18.0
 40
19.0
 40
19.0
 40
19.0
 40
19.0
 10
99.14226885542277
 20
-144.9982123118407
 30
0.0
 10
99.14226885542277
 20
-145.0936414567822
 30
0.0
 10
99.12159828251127
 20
-145.3113714914499
 30
0.0
 10
98.93556312630778
 20
-145.4364284575645
 30
0.0
 10
98.82325301348864
 20
-145.5104980104974
 30
0.0
 10
98.72403426351345
 20
-145.5146321250797
 30
0.0
 10
98.6392849145763
 20
-145.518766239662
 30
0.0
 10
98.6392849145763
 20
-145.518766239662
 30
0.0
 10
98.6392849145763
 20
-145.2986246381545
 30
0.0
 10
98.6392849145763
 20
-145.2986246381545
 30
0.0
 10
98.71300995796064
 20
-145.2965575808634
 30
0.0
 10
98.94796547005468
 20
-145.2862222944076
 30
0.0
 10
98.94796547005468
 20
-145.0026909359715
 30
0.0
 10
98.94796547005468
 20
-144.8652316261101
 30
0.0
 10
98.87837454125264
 20
-144.7126138961135
 30
0.0
 10
98.64962020103205
 20
-144.7126138961135
 30
0.0
 10
98.5331759736306
 20
-144.7126138961135
 30
0.0
 10
98.4849446368371
 20
-144.7508544559998
 30
0.0
 10
98.4532497583728
 20
-144.7825493344641
 30
0.0
 10
98.37883569589141
 20
-144.856618887397
 30
0.0
 10
98.36643335214451
 20
-144.9730631147984
 30
0.0
 10
98.36643335214451
 20
-145.0278401330139
 30
0.0
 10
98.36643335214451
 20
-145.0471326677313
 30
0.0
 10
98.36850040943565
 20
-145.0829616607779
 30
0.0
 10
98.37263452401795
 20
-145.1105224246599
 30
0.0
 10
98.37263452401795
 20
-145.1105224246599
 30
0.0
 10
98.17764211955281
 20
-145.1105224246599
 30
0.0
 10
98.17764211955281
 20
-145.1105224246599
 30
0.0
 10
98.18453231052331
 20
-145.0722818647736
 30
0.0
 10
98.18659936781447
 20
-145.0302516998536
 30
0.0
 10
98.18659936781447
 20
-145.0237060184316
 30
0.0
 10
98.18659936781447
 20
-144.9582492042118
 30
0.0
 10
98.16523977580592
 20
-144.7594671947129
 30
0.0
 10
97.92821720642073
 20
-144.7594671947129
 30
0.0
 10
97.75045027938184
 20
-144.7594671947129
 30
0.0
 10
97.69532875161784
 20
-144.8903808231524
 30
0.0
 10
97.69532875161784
 20
-145.0006238786804
 30
0.0
 10
97.69532875161784
 20
-145.2648627023991
 30
0.0
 10
97.92821720642073
 20
-145.2734754411122
 30
0.0
 10
97.99987519251393
 20
-145.2776095556945
 30
0.0
 10
97.99987519251393
 20
-145.2776095556945
 30
0.0
 10
97.99987519251393
 20
-145.4808701893242
 30
0.0
 10
97.99987519251393
 20
-145.4808701893242
 30
0.0
 10
97.87516273594788
 20
-145.4722574506111
 30
0.0
 10
97.49895830895859
 20
-145.4446966867291
 30
0.0
 10
97.49895830895859
 20
-144.987877025385
 30
0.0
 10
97.49895830895859
 20
-144.7636013092952
 30
0.0
 10
97.6257378228158
 20
-144.5224446253277
 30
0.0
 10
97.92201603454728
 20
-144.5224446253277
 30
0.0
 10
98.10805119075077
 20
-144.5224446253277
 30
0.0
 10
98.19073348239677
 20
-144.6175292607206
 30
0.0
 10
98.25205618203421
 20
-144.7170925202443
 30
0.0
 10
98.27961694591622
 20
-144.6557698206069
 30
0.0
 10
98.359543161174
 20
-144.4738687789857
 30
0.0
 10
98.63721785728515
 20
-144.4738687789857
 30
0.0
 10
98.97552623393668
 20
-144.4738687789857
 30
0.0
 10
99.14226885542277
 20
-144.7212266348266
 30
0.0
 10
99.14226885542277
 20
-144.9982123118407
 30
0.0
  0
HATCH
  5
DE
330
D7
100
AcDbEntity
  8
_U+30EC_U+30A4_U+30E4_U+30FC 1
 62
   179
420
  2234388
100
AcDbHatch
 10
0.0
 20
0.0
 30
0.0
210
0.0
220
0.0
230
1.0
  2
SOLID
 70
     1
 71
     0
 91
        1
 92
        1
 93
        1
 72
     4
 94
        3
 73
     0
 74
     1
 95
       62
 96
       58
 40
0.0
 40
0.0
 40
0.0
 40
0.0
 40
1.0
 40
1.0
 40
1.0
 40
2.0
 40
2.0
 40
2.0
 40
3.0
 40
3.0
 40
3.0
 40
4.0
 40
4.0
 40
4.0
 40
5.0
 40
5.0
 40
5.0
 40
6.0
 40
6.0
 40
6.0
 40
7.0
 40
7.0
 40
7.0
 40
8.0
 40
8.0
 40
8.0
 40
9.0
 40
9.0
 40
9.0
 40
10.0
 40
10.0
 40
10.0
 40
11.0
 40
11.0
 40
11.0
 40
12.0
 40
12.0
 40
12.0
 40
13.0
 40
13.0
 40
13.0
 40
14.0
 40
14.0
 40
14.0
 40
15.0
 40
15.0
 40
15.0
 40
16.0
 40
16.0
 40
16.0
 40
17.0
 40
17.0
 40
17.0
 40
18.0
 40
18.0
 40
18.0
 40
19.0
 40
19.0
 40
19.0
 40
19.0
 10
99.14226885542277
 20
-144.9982123118407
 10
99.14226885542277
 20
-145.0936414567822
 10
99.12159828251127
 20
-145.3113714914499
 10
98.93556312630778
 20
-145.4364284575645
 10
98.82325301348864
 20
-145.5104980104974
 10
98.72403426351345
 20
-145.5146321250797
 10
98.6392849145763
 20
-145.518766239662
 10
98.6392849145763
 20
-145.518766239662
 10
98.6392849145763
 20
-145.2986246381545
 10
98.6392849145763
 20
-145.2986246381545
 10
98.71300995796064
 20
-145.2965575808634
 10
98.94796547005468
 20
-145.2862222944076
 10
98.94796547005468
 20
-145.0026909359715
 10
98.94796547005468
 20
-144.8652316261101
 10
98.87837454125264
 20
-144.7126138961135
 10
98.64962020103205
 20
-144.7126138961135
 10
98.5331759736306
 20
-144.7126138961135
 10
98.4849446368371
 20
-144.7508544559998
 10
98.4532497583728
 20
-144.7825493344641
 10
98.37883569589141
 20
-144.856618887397
 10
98.36643335214451
 20
-144.9730631147984
 10
98.36643335214451
 20
-145.0278401330139
 10
98.36643335214451
 20
-145.0471326677313
 10
98.36850040943565
 20
-145.0829616607779
 10
98.37263452401795
 20
-145.1105224246599
 10
98.37263452401795
 20
-145.1105224246599
 10
98.17764211955281
 20
-145.1105224246599
 10
98.17764211955281
 20
-145.1105224246599
 10
98.18453231052331
 20
-145.0722818647736
 10
98.18659936781447
 20
-145.0302516998536
 10
98.18659936781447
 20
-145.0237060184316
 10
98.18659936781447
 20
-144.9582492042118
 10
98.16523977580592
 20
-144.7594671947129
 10
97.92821720642073
 20
-144.7594671947129
 10
97.75045027938184
 20
-144.7594671947129
 10
97.69532875161784
 20
-144.8903808231524
 10
97.69532875161784
 20
-145.0006238786804
 10
97.69532875161784
 20
-145.2648627023991
 10
97.92821720642073
 20
-145.2734754411122
 10
97.99987519251393
 20
-145.2776095556945
 10
97.99987519251393
 20
-145.2776095556945
 10
97.99987519251393
 20
-145.4808701893242
 10
97.99987519251393
 20
-145.4808701893242
 10
97.87516273594788
 20
-145.4722574506111
 10
97.49895830895859
 20
-145.4446966867291
 10
97.49895830895859
 20
-144.987877025385
 10
97.49895830895859
 20
-144.7636013092952
 10
97.6257378228158
 20
-144.5224446253277
 10
97.92201603454728
 20
-144.5224446253277
 10
98.10805119075077
 20
-144.5224446253277
 10
98.19073348239677
 20
-144.6175292607206
 10
98.25205618203421
 20
-144.7170925202443
 10
98.27961694591622
 20
-144.6557698206069
 10
98.359543161174
 20
-144.4738687789857
 10
98.63721785728515
 20
-144.4738687789857
 10
98.97552623393668
 20
-144.4738687789857
 10
99.14226885542277
 20
-144.7212266348266
 10
99.14226885542277
 20
-144.9982123118407
 97
        0
 97
        0
 75
     2
 76
     1
 98
        0
  0
ENDBLK
  5
DA
330
D7
100
AcDbEntity
  8
0
100
AcDbBlockEnd
  0
BLOCK
  5
E1
330
DF
100
AcDbEntity
  8
0
100
AcDbBlockBegin
  2
block 6
 70
     0
 10
0.0
 20
0.0
 30
0.0
  3
block 6
  1

  0
POLYLINE
  5
E3
330
DF
100
AcDbEntity
  8
_U+30EC_U+30A4_U+30E4_U+30FC 1
370
     0
100
AcDb2dPolyline
 66
     1
 10
0.0
 20
0.0
 30
0.0
  0
VERTEX
  5
E4
330
E3
100
AcDbEntity
  8
_U+30EC_U+30A4_U+30E4_U+30FC 1
370
     0
100
AcDbVertex
100
AcDb2dVertex
 10
98.74470483642494
 20
-153.5847682992774
 30
0.0
  0
VERTEX
  5
E5
330
E3
100
AcDbEntity
  8
_U+30EC_U+30A4_U+30E4_U+30FC 1
370
     0
100
AcDbVertex
100
AcDb2dVertex
 10
99.09197046133812
 20
-153.5847682992774
 30
0.0
  0
VERTEX
  5
E6
330
E3
100
AcDbEntity
  8
_U+30EC_U+30A4_U+30E4_U+30FC 1
370
     0
100
AcDbVertex
100
AcDb2dVertex
 10
99.09197046133812
 20
-153.8024983339452
 30
0.0
  0
VERTEX
  5
E7
330
E3
100
AcDbEntity
  8
_U+30EC_U+30A4_U+30E4_U+30FC 1
370
     0
100
AcDbVertex
100
AcDb2dVertex
 10
98.74470483642494
 20
-153.8024983339452
 30
0.0
  0
VERTEX
  5
E8
330
E3
100
AcDbEntity
  8
_U+30EC_U+30A4_U+30E4_U+30FC 1
370
     0
100
AcDbVertex
100
AcDb2dVertex
 10
98.74470483642494
 20
-154.4584445143368
 30
0.0
  0
VERTEX
  5
E9
330
E3
100
AcDbEntity
  8
_U+30EC_U+30A4_U+30E4_U+30FC 1
370
     0
100
AcDbVertex
100
AcDb2dVertex
 10
98.5207736298837
 20
-154.4584445143368
 30
0.0
  0
VERTEX
  5
EA
330
E3
100
AcDbEntity
  8
_U+30EC_U+30A4_U+30E4_U+30FC 1
370
     0
100
AcDbVertex
100
AcDb2dVertex
 10
97.5471896457521
 20
-153.7794161941941
 30
0.0
  0
VERTEX
  5
EB
330
E3
100
AcDbEntity
  8
_U+30EC_U+30A4_U+30E4_U+30FC 1
370
     0
100
AcDbVertex
100
AcDb2dVertex
 10
97.5471896457521
 20
-153.5847682992774
 30
0.0
  0
VERTEX
  5
EC
330
E3
100
AcDbEntity
  8
_U+30EC_U+30A4_U+30E4_U+30FC 1
370
     0
100
AcDbVertex
100
AcDb2dVertex
 10
98.54626733647454
 20
-153.5847682992774
 30
0.0
  0
VERTEX
  5
ED
330
E3
100
AcDbEntity
  8
_U+30EC_U+30A4_U+30E4_U+30FC 1
370
     0
100
AcDbVertex
100
AcDb2dVertex
 10
98.54626733647454
 20
-153.3773735510654
 30
0.0
  0
VERTEX
  5
EE
330
E3
100
AcDbEntity
  8
_U+30EC_U+30A4_U+30E4_U+30FC 1
370
     0
100
AcDbVertex
100
AcDb2dVertex
 10
98.74470483642494
 20
-153.3773735510654
 30
0.0
  0
VERTEX
  5
EF
330
E3
100
AcDbEntity
  8
_U+30EC_U+30A4_U+30E4_U+30FC 1
370
     0
100
AcDbVertex
100
AcDb2dVertex
 10
98.74470483642494
 20
-153.5847682992774
 30
0.0
  0
SEQEND
  5
F0
330
E3
100
AcDbEntity
  8
_U+30EC_U+30A4_U+30E4_U+30FC 1
370
     0
  0
POLYLINE
  5
F1
330
DF
100
AcDbEntity
  8
_U+30EC_U+30A4_U+30E4_U+30FC 1
370
     0
100
AcDb2dPolyline
 66
     1
 10
0.0
 20
0.0
 30
0.0
  0
VERTEX
  5
F2
330
F1
100
AcDbEntity
  8
_U+30EC_U+30A4_U+30E4_U+30FC 1
370
     0
100
AcDbVertex
100
AcDb2dVertex
 10
97.89032115608298
 20
-153.8024983339452
 30
0.0
  0
VERTEX
  5
F3
330
F1
100
AcDbEntity
  8
_U+30EC_U+30A4_U+30E4_U+30FC 1
370
     0
100
AcDbVertex
100
AcDb2dVertex
 10
98.54626733647454
 20
-154.2596625048379
 30
0.0
  0
VERTEX
  5
F4
330
F1
100
AcDbEntity
  8
_U+30EC_U+30A4_U+30E4_U+30FC 1
370
     0
100
AcDbVertex
100
AcDb2dVertex
 10
98.54626733647454
 20
-153.8024983339452
 30
0.0
  0
VERTEX
  5
F5
330
F1
100
AcDbEntity
  8
_U+30EC_U+30A4_U+30E4_U+30FC 1
370
     0
100
AcDbVertex
100
AcDb2dVertex
 10
97.89032115608298
 20
-153.8024983339452
 30
0.0
  0
SEQEND
  5
F6
330
F1
100
AcDbEntity
  8
_U+30EC_U+30A4_U+30E4_U+30FC 1
370
     0
  0
HATCH
  5
F7
330
DF
100
AcDbEntity
  8
_U+30EC_U+30A4_U+30E4_U+30FC 1
 62
   179
420
  2234388
100
AcDbHatch
 10
0.0
 20
0.0
 30
0.0
210
0.0
220
0.0
230
1.0
  2
SOLID
 70
     1
 71
     0
 91
        2
 92
        1
 93
       11
 72
     1
 10
98.74470483642494
 20
-153.5847682992774
 11
99.09197046133812
 21
-153.5847682992774
 72
     1
 10
99.09197046133812
 20
-153.5847682992774
 11
99.09197046133812
 21
-153.8024983339452
 72
     1
 10
99.09197046133812
 20
-153.8024983339452
 11
98.74470483642494
 21
-153.8024983339452
 72
     1
 10
98.74470483642494
 20
-153.8024983339452
 11
98.74470483642494
 21
-154.4584445143368
 72
     1
 10
98.74470483642494
 20
-154.4584445143368
 11
98.5207736298837
 21
-154.4584445143368
 72
     1
 10
98.5207736298837
 20
-154.4584445143368
 11
97.5471896457521
 21
-153.7794161941941
 72
     1
 10
97.5471896457521
 20
-153.7794161941941
 11
97.5471896457521
 21
-153.5847682992774
 72
     1
 10
97.5471896457521
 20
-153.5847682992774
 11
98.54626733647454
 21
-153.5847682992774
 72
     1
 10
98.54626733647454
 20
-153.5847682992774
 11
98.54626733647454
 21
-153.3773735510654
 72
     1
 10
98.54626733647454
 20
-153.3773735510654
 11
98.74470483642494
 21
-153.3773735510654
 72
     1
 10
98.74470483642494
 20
-153.3773735510654
 11
98.74470483642494
 21
-153.5847682992774
 97
        0
 92
        1
 93
        3
 72
     1
 10
97.89032115608298
 20
-153.8024983339452
 11
98.54626733647454
 21
-154.2596625048379
 72
     1
 10
98.54626733647454
 20
-154.2596625048379
 11
98.54626733647454
 21
-153.8024983339452
 72
     1
 10
98.54626733647454
 20
-153.8024983339452
 11
97.89032115608298
 21
-153.8024983339452
 97
        0
 75
     2
 76
     1
 98
        0
  0
ENDBLK
  5
E2
330
DF
100
AcDbEntity
  8
0
100
AcDbBlockEnd
  0
BLOCK
  5
117
330
115
100
AcDbEntity
  8
0
100
AcDbBlockBegin
  2
block 7
 70
     0
 10
0.0
 20
0.0
 30
0.0
  3
block 7
  1

  0
POLYLINE
  5
119
330
115
100
AcDbEntity
  8
_U+30EC_U+30A4_U+30E4_U+30FC 1
370
     0
100
AcDb2dPolyline
 66
     1
 10
0.0
 20
0.0
 30
0.0
  0
VERTEX
  5
11A
330
119
100
AcDbEntity
  8
_U+30EC_U+30A4_U+30E4_U+30FC 1
370
     0
100
AcDbVertex
100
AcDb2dVertex
 10
76.46596135241128
 20
-128.6457220815539
 30
0.0
  0
VERTEX
  5
11B
330
119
100
AcDbEntity
  8
_U+30EC_U+30A4_U+30E4_U+30FC 1
370
     0
100
AcDbVertex
100
AcDb2dVertex
 10
76.46596135241128
 20
-128.9926431969185
 30
0.0
  0
VERTEX
  5
11C
330
119
100
AcDbEntity
  8
_U+30EC_U+30A4_U+30E4_U+30FC 1
370
     0
100
AcDbVertex
100
AcDb2dVertex
 10
76.2482313177435
 20
-128.9926431969185
 30
0.0
  0
VERTEX
  5
11D
330
119
100
AcDbEntity
  8
_U+30EC_U+30A4_U+30E4_U+30FC 1
370
     0
100
AcDbVertex
100
AcDb2dVertex
 10
76.2482313177435
 20
-128.6457220815539
 30
0.0
  0
VERTEX
  5
11E
330
119
100
AcDbEntity
  8
_U+30EC_U+30A4_U+30E4_U+30FC 1
370
     0
100
AcDbVertex
100
AcDb2dVertex
 10
75.59228513735194
 20
-128.6457220815539
 30
0.0
  0
VERTEX
  5
11F
330
119
100
AcDbEntity
  8
_U+30EC_U+30A4_U+30E4_U+30FC 1
370
     0
100
AcDbVertex
100
AcDb2dVertex
 10
75.59228513735194
 20
-128.4214463654641
 30
0.0
  0
VERTEX
  5
120
330
119
100
AcDbEntity
  8
_U+30EC_U+30A4_U+30E4_U+30FC 1
370
     0
100
AcDbVertex
100
AcDb2dVertex
 10
76.27131345749467
 20
-127.448206890881
 30
0.0
  0
VERTEX
  5
121
330
119
100
AcDbEntity
  8
_U+30EC_U+30A4_U+30E4_U+30FC 1
370
     0
100
AcDbVertex
100
AcDb2dVertex
 10
76.46596135241128
 20
-127.448206890881
 30
0.0
  0
VERTEX
  5
122
330
119
100
AcDbEntity
  8
_U+30EC_U+30A4_U+30E4_U+30FC 1
370
     0
100
AcDbVertex
100
AcDb2dVertex
 10
76.46596135241128
 20
-128.4469400720549
 30
0.0
  0
VERTEX
  5
123
330
119
100
AcDbEntity
  8
_U+30EC_U+30A4_U+30E4_U+30FC 1
370
     0
100
AcDbVertex
100
AcDb2dVertex
 10
76.67335610062334
 20
-128.4469400720549
 30
0.0
  0
VERTEX
  5
124
330
119
100
AcDbEntity
  8
_U+30EC_U+30A4_U+30E4_U+30FC 1
370
     0
100
AcDbVertex
100
AcDb2dVertex
 10
76.67335610062334
 20
-128.6457220815539
 30
0.0
  0
VERTEX
  5
125
330
119
100
AcDbEntity
  8
_U+30EC_U+30A4_U+30E4_U+30FC 1
370
     0
100
AcDbVertex
100
AcDb2dVertex
 10
76.46596135241128
 20
-128.6457220815539
 30
0.0
  0
SEQEND
  5
126
330
119
100
AcDbEntity
  8
_U+30EC_U+30A4_U+30E4_U+30FC 1
370
     0
  0
POLYLINE
  5
127
330
115
100
AcDbEntity
  8
_U+30EC_U+30A4_U+30E4_U+30FC 1
370
     0
100
AcDb2dPolyline
 66
     1
 10
0.0
 20
0.0
 30
0.0
  0
VERTEX
  5
128
330
127
100
AcDbEntity
  8
_U+30EC_U+30A4_U+30E4_U+30FC 1
370
     0
100
AcDbVertex
100
AcDb2dVertex
 10
76.2482313177435
 20
-127.7909938916634
 30
0.0
  0
VERTEX
  5
129
330
127
100
AcDbEntity
  8
_U+30EC_U+30A4_U+30E4_U+30FC 1
370
     0
100
AcDbVertex
100
AcDb2dVertex
 10
75.79106714685085
 20
-128.4469400720549
 30
0.0
  0
VERTEX
  5
12A
330
127
100
AcDbEntity
  8
_U+30EC_U+30A4_U+30E4_U+30FC 1
370
     0
100
AcDbVertex
100
AcDb2dVertex
 10
76.2482313177435
 20
-128.4469400720549
 30
0.0
  0
VERTEX
  5
12B
330
127
100
AcDbEntity
  8
_U+30EC_U+30A4_U+30E4_U+30FC 1
370
     0
100
AcDbVertex
100
AcDb2dVertex
 10
76.2482313177435
 20
-127.7909938916634
 30
0.0
  0
SEQEND
  5
12C
330
127
100
AcDbEntity
  8
_U+30EC_U+30A4_U+30E4_U+30FC 1
370
     0
  0
HATCH
  5
12D
330
115
100
AcDbEntity
  8
_U+30EC_U+30A4_U+30E4_U+30FC 1
 62
   179
420
  2234388
100
AcDbHatch
 10
0.0
 20
0.0
 30
0.0
210
0.0
220
0.0
230
1.0
  2
SOLID
 70
     1
 71
     0
 91
        2
 92
        1
 93
       11
 72
     1
 10
76.46596135241128
 20
-128.6457220815539
 11
76.46596135241128
 21
-128.9926431969185
 72
     1
 10
76.46596135241128
 20
-128.9926431969185
 11
76.2482313177435
 21
-128.9926431969185
 72
     1
 10
76.2482313177435
 20
-128.9926431969185
 11
76.2482313177435
 21
-128.6457220815539
 72
     1
 10
76.2482313177435
 20
-128.6457220815539
 11
75.59228513735194
 21
-128.6457220815539
 72
     1
 10
75.59228513735194
 20
-128.6457220815539
 11
75.59228513735194
 21
-128.4214463654641
 72
     1
 10
75.59228513735194
 20
-128.4214463654641
 11
76.27131345749467
 21
-127.448206890881
 72
     1
 10
76.27131345749467
 20
-127.448206890881
 11
76.46596135241128
 21
-127.448206890881
 72
     1
 10
76.46596135241128
 20
-127.448206890881
 11
76.46596135241128
 21
-128.4469400720549
 72
     1
 10
76.46596135241128
 20
-128.4469400720549
 11
76.67335610062334
 21
-128.4469400720549
 72
     1
 10
76.67335610062334
 20
-128.4469400720549
 11
76.67335610062334
 21
-128.6457220815539
 72
     1
 10
76.67335610062334
 20
-128.6457220815539
 11
76.46596135241128
 21
-128.6457220815539
 97
        0
 92
        1
 93
        3
 72
     1
 10
76.2482313177435
 20
-127.7909938916634
 11
75.79106714685085
 21
-128.4469400720549
 72
     1
 10
75.79106714685085
 20
-128.4469400720549
 11
76.2482313177435
 21
-128.4469400720549
 72
     1
 10
76.2482313177435
 20
-128.4469400720549
 11
76.2482313177435
 21
-127.7909938916634
 97
        0
 75
     2
 76
     1
 98
        0
  0
ENDBLK
  5
118
330
115
100
AcDbEntity
  8
0
100
AcDbBlockEnd
  0
BLOCK
  5
130
330
12E
100
AcDbEntity
  8
0
100
AcDbBlockBegin
  2
block 8
 70
     0
 10
0.0
 20
0.0
 30
0.0
  3
block 8
  1

  0
SPLINE
  5
132
330
12E
100
AcDbEntity
  8
_U+30EC_U+30A4_U+30E4_U+30FC 1
370
     0
100
AcDbSpline
210
0.0
220
0.0
230
1.0
 70
    11
 71
     3
 72
    26
 73
    22
 74
     0
 42
0.0000000001
 43
0.0000000001
 12
1.0
 22
0.0
 32
0.0
 13
1.0
 23
0.0
 33
0.0
 40
0.0
 40
0.0
 40
0.0
 40
0.0
 40
1.0
 40
1.0
 40
1.0
 40
2.0
 40
2.0
 40
2.0
 40
3.0
 40
3.0
 40
3.0
 40
4.0
 40
4.0
 40
4.0
 40
5.0
 40
5.0
 40
5.0
 40
6.0
 40
6.0
 40
6.0
 40
7.0
 40
7.0
 40
7.0
 40
7.0
 10
83.33772106206487
 20
-128.9926431969185
 30
0.0
 10
83.33772106206487
 20
-128.9926431969185
 30
0.0
 10
83.33772106206487
 20
-127.8884900938959
 30
0.0
 10
83.33772106206487
 20
-127.8884900938959
 30
0.0
 10
83.33772106206487
 20
-127.8884900938959
 30
0.0
 10
83.00768091457795
 20
-127.8884900938959
 30
0.0
 10
83.00768091457795
 20
-127.8884900938959
 30
0.0
 10
83.00768091457795
 20
-127.8884900938959
 30
0.0
 10
83.00768091457795
 20
-127.7403509880302
 30
0.0
 10
83.00768091457795
 20
-127.7403509880302
 30
0.0
 10
83.33978811935603
 20
-127.7255370774436
 30
0.0
 10
83.3862969084069
 20
-127.5625840609913
 30
0.0
 10
83.41592472958006
 20
-127.448206890881
 30
0.0
 10
83.41592472958006
 20
-127.448206890881
 30
0.0
 10
83.56199677815464
 20
-127.448206890881
 30
0.0
 10
83.56199677815464
 20
-127.448206890881
 30
0.0
 10
83.56199677815464
 20
-127.448206890881
 30
0.0
 10
83.56199677815464
 20
-128.9926431969185
 30
0.0
 10
83.56199677815464
 20
-128.9926431969185
 30
0.0
 10
83.56199677815464
 20
-128.9926431969185
 30
0.0
 10
83.33772106206487
 20
-128.9926431969185
 30
0.0
 10
83.33772106206487
 20
-128.9926431969185
 30
0.0
  0
HATCH
  5
133
330
12E
100
AcDbEntity
  8
_U+30EC_U+30A4_U+30E4_U+30FC 1
 62
   179
420
  2234388
100
AcDbHatch
 10
0.0
 20
0.0
 30
0.0
210
0.0
220
0.0
230
1.0
  2
SOLID
 70
     1
 71
     0
 91
        1
 92
        1
 93
        1
 72
     4
 94
        3
 73
     0
 74
     1
 95
       26
 96
       22
 40
0.0
 40
0.0
 40
0.0
 40
0.0
 40
1.0
 40
1.0
 40
1.0
 40
2.0
 40
2.0
 40
2.0
 40
3.0
 40
3.0
 40
3.0
 40
4.0
 40
4.0
 40
4.0
 40
5.0
 40
5.0
 40
5.0
 40
6.0
 40
6.0
 40
6.0
 40
7.0
 40
7.0
 40
7.0
 40
7.0
 10
83.33772106206487
 20
-128.9926431969185
 10
83.33772106206487
 20
-128.9926431969185
 10
83.33772106206487
 20
-127.8884900938959
 10
83.33772106206487
 20
-127.8884900938959
 10
83.33772106206487
 20
-127.8884900938959
 10
83.00768091457795
 20
-127.8884900938959
 10
83.00768091457795
 20
-127.8884900938959
 10
83.00768091457795
 20
-127.8884900938959
 10
83.00768091457795
 20
-127.7403509880302
 10
83.00768091457795
 20
-127.7403509880302
 10
83.33978811935603
 20
-127.7255370774436
 10
83.3862969084069
 20
-127.5625840609913
 10
83.41592472958006
 20
-127.448206890881
 10
83.41592472958006
 20
-127.448206890881
 10
83.56199677815464
 20
-127.448206890881
 10
83.56199677815464
 20
-127.448206890881
 10
83.56199677815464
 20
-127.448206890881
 10
83.56199677815464
 20
-128.9926431969185
 10
83.56199677815464
 20
-128.9926431969185
 10
83.56199677815464
 20
-128.9926431969185
 10
83.33772106206487
 20
-128.9926431969185
 10
83.33772106206487
 20
-128.9926431969185
 97
        0
 97
        0
 75
     2
 76
     1
 98
        0
  0
SPLINE
  5
134
330
12E
100
AcDbEntity
  8
_U+30EC_U+30A4_U+30E4_U+30FC 1
370
     0
100
AcDbSpline
210
0.0
220
0.0
230
1.0
 70
    11
 71
     3
 72
    62
 73
    58
 74
     0
 42
0.0000000001
 43
0.0000000001
 12
1.0
 22
0.0
 32
0.0
 13
1.0
 23
0.0
 33
0.0
 40
0.0
 40
0.0
 40
0.0
 40
0.0
 40
1.0
 40
1.0
 40
1.0
 40
2.0
 40
2.0
 40
2.0
 40
3.0
 40
3.0
 40
3.0
 40
4.0
 40
4.0
 40
4.0
 40
5.0
 40
5.0
 40
5.0
 40
6.0
 40
6.0
 40
6.0
 40
7.0
 40
7.0
 40
7.0
 40
8.0
 40
8.0
 40
8.0
 40
9.0
 40
9.0
 40
9.0
 40
10.0
 40
10.0
 40
10.0
 40
11.0
 40
11.0
 40
11.0
 40
12.0
 40
12.0
 40
12.0
 40
13.0
 40
13.0
 40
13.0
 40
14.0
 40
14.0
 40
14.0
 40
15.0
 40
15.0
 40
15.0
 40
16.0
 40
16.0
 40
16.0
 40
17.0
 40
17.0
 40
17.0
 40
18.0
 40
18.0
 40
18.0
 40
19.0
 40
19.0
 40
19.0
 40
19.0
 10
84.55487329700365
 20
-129.0432861005517
 30
0.0
 10
84.45944415206223
 20
-129.0432861005517
 30
0.0
 10
84.24171411739444
 20
-129.0222710180917
 30
0.0
 10
84.11665715127987
 20
-128.8362358618882
 30
0.0
 10
84.042587598347
 20
-128.723925749069
 30
0.0
 10
84.0384534837647
 20
-128.6247069990938
 30
0.0
 10
84.0343193691824
 20
-128.5399576501567
 30
0.0
 10
84.0343193691824
 20
-128.5399576501567
 30
0.0
 10
84.25446097068986
 20
-128.5399576501567
 30
0.0
 10
84.25446097068986
 20
-128.5399576501567
 30
0.0
 10
84.256528027981
 20
-128.6140272030896
 30
0.0
 10
84.26686331443676
 20
-128.8486382056351
 30
0.0
 10
84.55039467287283
 20
-128.8486382056351
 30
0.0
 10
84.6878539827343
 20
-128.8486382056351
 30
0.0
 10
84.84047171273086
 20
-128.779047276833
 30
0.0
 10
84.84047171273086
 20
-128.5506374461609
 30
0.0
 10
84.84047171273086
 20
-128.4341932187595
 30
0.0
 10
84.80223115284458
 20
-128.3856173724175
 30
0.0
 10
84.77053627438029
 20
-128.3539224939532
 30
0.0
 10
84.69646672144742
 20
-128.2798529410203
 30
0.0
 10
84.58002249404598
 20
-128.2671060877249
 30
0.0
 10
84.5252454758305
 20
-128.2671060877249
 30
0.0
 10
84.5059529411131
 20
-128.2671060877249
 30
0.0
 10
84.4701239480665
 20
-128.2691731450161
 30
0.0
 10
84.44256318418451
 20
-128.2733072595983
 30
0.0
 10
84.44256318418451
 20
-128.2733072595983
 30
0.0
 10
84.44256318418451
 20
-128.0786593646817
 30
0.0
 10
84.44256318418451
 20
-128.0786593646817
 30
0.0
 10
84.48080374407077
 20
-128.0852050461037
 30
0.0
 10
84.52283390899082
 20
-128.0872721033949
 30
0.0
 10
84.5293795904128
 20
-128.0872721033949
 30
0.0
 10
84.59483640463255
 20
-128.0872721033949
 30
0.0
 10
84.79361841413146
 20
-128.0659125113863
 30
0.0
 10
84.79361841413146
 20
-127.8292344515496
 30
0.0
 10
84.79361841413146
 20
-127.6514675245107
 30
0.0
 10
84.66270478569197
 20
-127.5963459967467
 30
0.0
 10
84.55246173016397
 20
-127.5963459967467
 30
0.0
 10
84.28822290644531
 20
-127.5963459967467
 30
0.0
 10
84.27961016773219
 20
-127.8292344515496
 30
0.0
 10
84.27547605314989
 20
-127.9008924376428
 30
0.0
 10
84.27547605314989
 20
-127.9008924376428
 30
0.0
 10
84.07221541952015
 20
-127.9008924376428
 30
0.0
 10
84.07221541952015
 20
-127.9008924376428
 30
0.0
 10
84.08082815823327
 20
-127.7761799810768
 30
0.0
 10
84.10838892211527
 20
-127.399631044539
 30
0.0
 10
84.5652085834594
 20
-127.399631044539
 30
0.0
 10
84.78948429954916
 20
-127.399631044539
 30
0.0
 10
85.03064098351665
 20
-127.5267550679447
 30
0.0
 10
85.03064098351665
 20
-127.8226887701277
 30
0.0
 10
85.03064098351665
 20
-128.0090684358797
 30
0.0
 10
84.93555634812375
 20
-128.0914062179772
 30
0.0
 10
84.83599308860003
 20
-128.1527289176146
 30
0.0
 10
84.89731578823748
 20
-128.1802896814966
 30
0.0
 10
85.07921682985867
 20
-128.2605604063029
 30
0.0
 10
85.07921682985867
 20
-128.5378905928655
 30
0.0
 10
85.07921682985867
 20
-128.8761989695171
 30
0.0
 10
84.83185897401773
 20
-129.0432861005517
 30
0.0
 10
84.55487329700365
 20
-129.0432861005517
 30
0.0
  0
HATCH
  5
135
330
12E
100
AcDbEntity
  8
_U+30EC_U+30A4_U+30E4_U+30FC 1
 62
   179
420
  2234388
100
AcDbHatch
 10
0.0
 20
0.0
 30
0.0
210
0.0
220
0.0
230
1.0
  2
SOLID
 70
     1
 71
     0
 91
        1
 92
        1
 93
        1
 72
     4
 94
        3
 73
     0
 74
     1
 95
       62
 96
       58
 40
0.0
 40
0.0
 40
0.0
 40
0.0
 40
1.0
 40
1.0
 40
1.0
 40
2.0
 40
2.0
 40
2.0
 40
3.0
 40
3.0
 40
3.0
 40
4.0
 40
4.0
 40
4.0
 40
5.0
 40
5.0
 40
5.0
 40
6.0
 40
6.0
 40
6.0
 40
7.0
 40
7.0
 40
7.0
 40
8.0
 40
8.0
 40
8.0
 40
9.0
 40
9.0
 40
9.0
 40
10.0
 40
10.0
 40
10.0
 40
11.0
 40
11.0
 40
11.0
 40
12.0
 40
12.0
 40
12.0
 40
13.0
 40
13.0
 40
13.0
 40
14.0
 40
14.0
 40
14.0
 40
15.0
 40
15.0
 40
15.0
 40
16.0
 40
16.0
 40
16.0
 40
17.0
 40
17.0
 40
17.0
 40
18.0
 40
18.0
 40
18.0
 40
19.0
 40
19.0
 40
19.0
 40
19.0
 10
84.55487329700365
 20
-129.0432861005517
 10
84.45944415206223
 20
-129.0432861005517
 10
84.24171411739444
 20
-129.0222710180917
 10
84.11665715127987
 20
-128.8362358618882
 10
84.042587598347
 20
-128.723925749069
 10
84.0384534837647
 20
-128.6247069990938
 10
84.0343193691824
 20
-128.5399576501567
 10
84.0343193691824
 20
-128.5399576501567
 10
84.25446097068986
 20
-128.5399576501567
 10
84.25446097068986
 20
-128.5399576501567
 10
84.256528027981
 20
-128.6140272030896
 10
84.26686331443676
 20
-128.8486382056351
 10
84.55039467287283
 20
-128.8486382056351
 10
84.6878539827343
 20
-128.8486382056351
 10
84.84047171273086
 20
-128.779047276833
 10
84.84047171273086
 20
-128.5506374461609
 10
84.84047171273086
 20
-128.4341932187595
 10
84.80223115284458
 20
-128.3856173724175
 10
84.77053627438029
 20
-128.3539224939532
 10
84.69646672144742
 20
-128.2798529410203
 10
84.58002249404598
 20
-128.2671060877249
 10
84.5252454758305
 20
-128.2671060877249
 10
84.5059529411131
 20
-128.2671060877249
 10
84.4701239480665
 20
-128.2691731450161
 10
84.44256318418451
 20
-128.2733072595983
 10
84.44256318418451
 20
-128.2733072595983
 10
84.44256318418451
 20
-128.0786593646817
 10
84.44256318418451
 20
-128.0786593646817
 10
84.48080374407077
 20
-128.0852050461037
 10
84.52283390899082
 20
-128.0872721033949
 10
84.5293795904128
 20
-128.0872721033949
 10
84.59483640463255
 20
-128.0872721033949
 10
84.79361841413146
 20
-128.0659125113863
 10
84.79361841413146
 20
-127.8292344515496
 10
84.79361841413146
 20
-127.6514675245107
 10
84.66270478569197
 20
-127.5963459967467
 10
84.55246173016397
 20
-127.5963459967467
 10
84.28822290644531
 20
-127.5963459967467
 10
84.27961016773219
 20
-127.8292344515496
 10
84.27547605314989
 20
-127.9008924376428
 10
84.27547605314989
 20
-127.9008924376428
 10
84.07221541952015
 20
-127.9008924376428
 10
84.07221541952015
 20
-127.9008924376428
 10
84.08082815823327
 20
-127.7761799810768
 10
84.10838892211527
 20
-127.399631044539
 10
84.5652085834594
 20
-127.399631044539
 10
84.78948429954916
 20
-127.399631044539
 10
85.03064098351665
 20
-127.5267550679447
 10
85.03064098351665
 20
-127.8226887701277
 10
85.03064098351665
 20
-128.0090684358797
 10
84.93555634812375
 20
-128.0914062179772
 10
84.83599308860003
 20
-128.1527289176146
 10
84.89731578823748
 20
-128.1802896814966
 10
85.07921682985867
 20
-128.2605604063029
 10
85.07921682985867
 20
-128.5378905928655
 10
85.07921682985867
 20
-128.8761989695171
 10
84.83185897401773
 20
-129.0432861005517
 10
84.55487329700365
 20
-129.0432861005517
 97
        0
 97
        0
 75
     2
 76
     1
 98
        0
  0
ENDBLK
  5
131
330
12E
100
AcDbEntity
  8
0
100
AcDbBlockEnd
  0
BLOCK
  5
140
330
13E
100
AcDbEntity
  8
0
100
AcDbBlockBegin
  2
block 9
 70
     0
 10
0.0
 20
0.0
 30
0.0
  3
block 9
  1

  0
SPLINE
  5
142
330
13E
100
AcDbEntity
  8
_U+30EC_U+30A4_U+30E4_U+30FC 1
370
     0
100
AcDbSpline
210
0.0
220
0.0
230
1.0
 70
    11
 71
     3
 72
    44
 73
    40
 74
     0
 42
0.0000000001
 43
0.0000000001
 12
1.0
 22
0.0
 32
0.0
 13
1.0
 23
0.0
 33
0.0
 40
0.0
 40
0.0
 40
0.0
 40
0.0
 40
1.0
 40
1.0
 40
1.0
 40
2.0
 40
2.0
 40
2.0
 40
3.0
 40
3.0
 40
3.0
 40
4.0
 40
4.0
 40
4.0
 40
5.0
 40
5.0
 40
5.0
 40
6.0
 40
6.0
 40
6.0
 40
7.0
 40
7.0
 40
7.0
 40
8.0
 40
8.0
 40
8.0
 40
9.0
 40
9.0
 40
9.0
 40
10.0
 40
10.0
 40
10.0
 40
11.0
 40
11.0
 40
11.0
 40
12.0
 40
12.0
 40
12.0
 40
13.0
 40
13.0
 40
13.0
 40
13.0
 10
69.7631835763092
 20
-144.8883137658613
 30
0.0
 10
69.92183022340497
 20
-145.1063883100776
 30
0.0
 10
69.99589977633784
 20
-145.1997503977279
 30
0.0
 10
70.13973251284702
 20
-145.2479817345213
 30
0.0
 10
70.13973251284702
 20
-145.2479817345213
 30
0.0
 10
70.13973251284702
 20
-144.4697346644034
 30
0.0
 10
70.13973251284702
 20
-144.4697346644034
 30
0.0
 10
70.13973251284702
 20
-144.4697346644034
 30
0.0
 10
70.34488794899364
 20
-144.4697346644034
 30
0.0
 10
70.34488794899364
 20
-144.4697346644034
 30
0.0
 10
70.34488794899364
 20
-144.4697346644034
 30
0.0
 10
70.34488794899364
 20
-145.4977511572019
 30
0.0
 10
70.34488794899364
 20
-145.4977511572019
 30
0.0
 10
69.98728703762471
 20
-145.4660562787377
 30
0.0
 10
69.90908337010954
 20
-145.4005994645179
 30
0.0
 10
69.61073810108691
 20
-145.015437789267
 30
0.0
 10
69.41195609158798
 20
-144.7594671947129
 30
0.0
 10
69.34425996530283
 20
-144.6940103804932
 30
0.0
 10
69.20680065544136
 20
-144.6940103804932
 30
0.0
 10
69.08828937074877
 20
-144.6940103804932
 30
0.0
 10
68.95720348753501
 20
-144.7656683665864
 30
0.0
 10
68.95720348753501
 20
-144.9627278283427
 30
0.0
 10
68.95720348753501
 20
-145.222832537479
 30
0.0
 10
69.18768037549822
 20
-145.2314452761921
 30
0.0
 10
69.30412460289966
 20
-145.2355793907744
 30
0.0
 10
69.30412460289966
 20
-145.2355793907744
 30
0.0
 10
69.30412460289966
 20
-145.4595105973157
 30
0.0
 10
69.30412460289966
 20
-145.4595105973157
 30
0.0
 10
69.1771728342682
 20
-145.4512423681511
 30
0.0
 10
69.06503497622333
 20
-145.4409070816953
 30
0.0
 10
68.94652369153073
 20
-145.3602918473405
 30
0.0
 10
68.78580998714382
 20
-145.250393301361
 30
0.0
 10
68.75187579661412
 20
-145.064013635609
 30
0.0
 10
68.75187579661412
 20
-144.9475694082076
 30
0.0
 10
68.75187579661412
 20
-144.6705837311935
 30
0.0
 10
68.93601615030072
 20
-144.4631889829814
 30
0.0
 10
69.20886771273251
 20
-144.4631889829814
 30
0.0
 10
69.43727754340458
 20
-144.4631889829814
 30
0.0
 10
69.5368408029283
 20
-144.5796332103829
 30
0.0
 10
69.7631835763092
 20
-144.8883137658613
 30
0.0
  0
HATCH
  5
143
330
13E
100
AcDbEntity
  8
_U+30EC_U+30A4_U+30E4_U+30FC 1
 62
   179
420
  2234388
100
AcDbHatch
 10
0.0
 20
0.0
 30
0.0
210
0.0
220
0.0
230
1.0
  2
SOLID
 70
     1
 71
     0
 91
        1
 92
        1
 93
        1
 72
     4
 94
        3
 73
     0
 74
     1
 95
       44
 96
       40
 40
0.0
 40
0.0
 40
0.0
 40
0.0
 40
1.0
 40
1.0
 40
1.0
 40
2.0
 40
2.0
 40
2.0
 40
3.0
 40
3.0
 40
3.0
 40
4.0
 40
4.0
 40
4.0
 40
5.0
 40
5.0
 40
5.0
 40
6.0
 40
6.0
 40
6.0
 40
7.0
 40
7.0
 40
7.0
 40
8.0
 40
8.0
 40
8.0
 40
9.0
 40
9.0
 40
9.0
 40
10.0
 40
10.0
 40
10.0
 40
11.0
 40
11.0
 40
11.0
 40
12.0
 40
12.0
 40
12.0
 40
13.0
 40
13.0
 40
13.0
 40
13.0
 10
69.7631835763092
 20
-144.8883137658613
 10
69.92183022340497
 20
-145.1063883100776
 10
69.99589977633784
 20
-145.1997503977279
 10
70.13973251284702
 20
-145.2479817345213
 10
70.13973251284702
 20
-145.2479817345213
 10
70.13973251284702
 20
-144.4697346644034
 10
70.13973251284702
 20
-144.4697346644034
 10
70.13973251284702
 20
-144.4697346644034
 10
70.34488794899364
 20
-144.4697346644034
 10
70.34488794899364
 20
-144.4697346644034
 10
70.34488794899364
 20
-144.4697346644034
 10
70.34488794899364
 20
-145.4977511572019
 10
70.34488794899364
 20
-145.4977511572019
 10
69.98728703762471
 20
-145.4660562787377
 10
69.90908337010954
 20
-145.4005994645179
 10
69.61073810108691
 20
-145.015437789267
 10
69.41195609158798
 20
-144.7594671947129
 10
69.34425996530283
 20
-144.6940103804932
 10
69.20680065544136
 20
-144.6940103804932
 10
69.08828937074877
 20
-144.6940103804932
 10
68.95720348753501
 20
-144.7656683665864
 10
68.95720348753501
 20
-144.9627278283427
 10
68.95720348753501
 20
-145.222832537479
 10
69.18768037549822
 20
-145.2314452761921
 10
69.30412460289966
 20
-145.2355793907744
 10
69.30412460289966
 20
-145.2355793907744
 10
69.30412460289966
 20
-145.4595105973157
 10
69.30412460289966
 20
-145.4595105973157
 10
69.1771728342682
 20
-145.4512423681511
 10
69.06503497622333
 20
-145.4409070816953
 10
68.94652369153073
 20
-145.3602918473405
 10
68.78580998714382
 20
-145.250393301361
 10
68.75187579661412
 20
-145.064013635609
 10
68.75187579661412
 20
-144.9475694082076
 10
68.75187579661412
 20
-144.6705837311935
 10
68.93601615030072
 20
-144.4631889829814
 10
69.20886771273251
 20
-144.4631889829814
 10
69.43727754340458
 20
-144.4631889829814
 10
69.5368408029283
 20
-144.5796332103829
 10
69.7631835763092
 20
-144.8883137658613
 97
        0
 97
        0
 75
     2
 76
     1
 98
        0
  0
SPLINE
  5
144
330
13E
100
AcDbEntity
  8
_U+30EC_U+30A4_U+30E4_U+30FC 1
370
     0
100
AcDbSpline
210
0.0
220
0.0
230
1.0
 70
    11
 71
     3
 72
    62
 73
    58
 74
     0
 42
0.0000000001
 43
0.0000000001
 12
1.0
 22
0.0
 32
0.0
 13
1.0
 23
0.0
 33
0.0
 40
0.0
 40
0.0
 40
0.0
 40
0.0
 40
1.0
 40
1.0
 40
1.0
 40
2.0
 40
2.0
 40
2.0
 40
3.0
 40
3.0
 40
3.0
 40
4.0
 40
4.0
 40
4.0
 40
5.0
 40
5.0
 40
5.0
 40
6.0
 40
6.0
 40
6.0
 40
7.0
 40
7.0
 40
7.0
 40
8.0
 40
8.0
 40
8.0
 40
9.0
 40
9.0
 40
9.0
 40
10.0
 40
10.0
 40
10.0
 40
11.0
 40
11.0
 40
11.0
 40
12.0
 40
12.0
 40
12.0
 40
13.0
 40
13.0
 40
13.0
 40
14.0
 40
14.0
 40
14.0
 40
15.0
 40
15.0
 40
15.0
 40
16.0
 40
16.0
 40
16.0
 40
17.0
 40
17.0
 40
17.0
 40
18.0
 40
18.0
 40
18.0
 40
19.0
 40
19.0
 40
19.0
 40
19.0
 10
70.39570310740108
 20
-143.8134439744633
 30
0.0
 10
70.39570310740108
 20
-143.9085286098562
 30
0.0
 10
70.3745157701668
 20
-144.126258644524
 30
0.0
 10
70.18830835918904
 20
-144.25097110109
 30
0.0
 10
70.07617050114416
 20
-144.3253851635714
 30
0.0
 10
69.9767794963947
 20
-144.3295192781537
 30
0.0
 10
69.89220240223182
 20
-144.333653392736
 30
0.0
 10
69.89220240223182
 20
-144.333653392736
 30
0.0
 10
69.89220240223182
 20
-144.1138563007771
 30
0.0
 10
69.89220240223182
 20
-144.1138563007771
 30
0.0
 10
69.96627195516469
 20
-144.111789243486
 30
0.0
 10
70.20105521248446
 20
-144.1007649379331
 30
0.0
 10
70.20105521248446
 20
-143.8175780890456
 30
0.0
 10
70.20105521248446
 20
-143.6797742696356
 30
0.0
 10
70.13129202890815
 20
-143.5275010491876
 30
0.0
 10
69.90270994346183
 20
-143.5275010491876
 30
0.0
 10
69.78643797083464
 20
-143.5275010491876
 30
0.0
 10
69.73768986971835
 20
-143.5657416090739
 30
0.0
 10
69.70599499125406
 20
-143.5974364875381
 30
0.0
 10
69.63192543832119
 20
-143.671506040471
 30
0.0
 10
69.61935083980002
 20
-143.7879502678725
 30
0.0
 10
69.61935083980002
 20
-143.8430717956365
 30
0.0
 10
69.61935083980002
 20
-143.8616753112568
 30
0.0
 10
69.62141789709118
 20
-143.8978488138519
 30
0.0
 10
69.62555201167348
 20
-143.9254095777339
 30
0.0
 10
69.62555201167348
 20
-143.9254095777339
 30
0.0
 10
69.43090411675686
 20
-143.9254095777339
 30
0.0
 10
69.43090411675686
 20
-143.9254095777339
 30
0.0
 10
69.43727754340458
 20
-143.8871690178477
 30
0.0
 10
69.43951685546999
 20
-143.8451388529276
 30
0.0
 10
69.43951685546999
 20
-143.8385931715056
 30
0.0
 10
69.43951685546999
 20
-143.7731363572859
 30
0.0
 10
69.4183295182357
 20
-143.574354347787
 30
0.0
 10
69.1813069488505
 20
-143.574354347787
 30
0.0
 10
69.00371227658589
 20
-143.574354347787
 30
0.0
 10
68.94859074882189
 20
-143.7052679762265
 30
0.0
 10
68.94859074882189
 20
-143.8155110317545
 30
0.0
 10
68.94859074882189
 20
-144.0797498554731
 30
0.0
 10
69.1813069488505
 20
-144.0883625941862
 30
0.0
 10
69.25330944449223
 20
-144.0924967087686
 30
0.0
 10
69.25330944449223
 20
-144.0924967087686
 30
0.0
 10
69.25330944449223
 20
-144.2957573423983
 30
0.0
 10
69.25330944449223
 20
-144.2957573423983
 30
0.0
 10
69.12842473315193
 20
-144.2871446036852
 30
0.0
 10
68.75187579661412
 20
-144.2595838398032
 30
0.0
 10
68.75187579661412
 20
-143.802764178459
 30
0.0
 10
68.75187579661412
 20
-143.5784884623693
 30
0.0
 10
68.87882756524557
 20
-143.3373317784018
 30
0.0
 10
69.17493352220279
 20
-143.3373317784018
 30
0.0
 10
69.36114093318055
 20
-143.3373317784018
 30
0.0
 10
69.44365097005229
 20
-143.4324164137947
 30
0.0
 10
69.50497366968973
 20
-143.5319796733184
 30
0.0
 10
69.53253443357173
 20
-143.4703124641324
 30
0.0
 10
69.61297741315231
 20
-143.2884114225112
 30
0.0
 10
69.89013534494066
 20
-143.2884114225112
 30
0.0
 10
70.22861597636646
 20
-143.2884114225112
 30
0.0
 10
70.39570310740108
 20
-143.5361137879007
 30
0.0
 10
70.39570310740108
 20
-143.8134439744633
 30
0.0
  0
HATCH
  5
145
330
13E
100
AcDbEntity
  8
_U+30EC_U+30A4_U+30E4_U+30FC 1
 62
   179
420
  2234388
100
AcDbHatch
 10
0.0
 20
0.0
 30
0.0
210
0.0
220
0.0
230
1.0
  2
SOLID
 70
     1
 71
     0
 91
        1
 92
        1
 93
        1
 72
     4
 94
        3
 73
     0
 74
     1
 95
       62
 96
       58
 40
0.0
 40
0.0
 40
0.0
 40
0.0
 40
1.0
 40
1.0
 40
1.0
 40
2.0
 40
2.0
 40
2.0
 40
3.0
 40
3.0
 40
3.0
 40
4.0
 40
4.0
 40
4.0
 40
5.0
 40
5.0
 40
5.0
 40
6.0
 40
6.0
 40
6.0
 40
7.0
 40
7.0
 40
7.0
 40
8.0
 40
8.0
 40
8.0
 40
9.0
 40
9.0
 40
9.0
 40
10.0
 40
10.0
 40
10.0
 40
11.0
 40
11.0
 40
11.0
 40
12.0
 40
12.0
 40
12.0
 40
13.0
 40
13.0
 40
13.0
 40
14.0
 40
14.0
 40
14.0
 40
15.0
 40
15.0
 40
15.0
 40
16.0
 40
16.0
 40
16.0
 40
17.0
 40
17.0
 40
17.0
 40
18.0
 40
18.0
 40
18.0
 40
19.0
 40
19.0
 40
19.0
 40
19.0
 10
70.39570310740108
 20
-143.8134439744633
 10
70.39570310740108
 20
-143.9085286098562
 10
70.3745157701668
 20
-144.126258644524
 10
70.18830835918904
 20
-144.25097110109
 10
70.07617050114416
 20
-144.3253851635714
 10
69.9767794963947
 20
-144.3295192781537
 10
69.89220240223182
 20
-144.333653392736
 10
69.89220240223182
 20
-144.333653392736
 10
69.89220240223182
 20
-144.1138563007771
 10
69.89220240223182
 20
-144.1138563007771
 10
69.96627195516469
 20
-144.111789243486
 10
70.20105521248446
 20
-144.1007649379331
 10
70.20105521248446
 20
-143.8175780890456
 10
70.20105521248446
 20
-143.6797742696356
 10
70.13129202890815
 20
-143.5275010491876
 10
69.90270994346183
 20
-143.5275010491876
 10
69.78643797083464
 20
-143.5275010491876
 10
69.73768986971835
 20
-143.5657416090739
 10
69.70599499125406
 20
-143.5974364875381
 10
69.63192543832119
 20
-143.671506040471
 10
69.61935083980002
 20
-143.7879502678725
 10
69.61935083980002
 20
-143.8430717956365
 10
69.61935083980002
 20
-143.8616753112568
 10
69.62141789709118
 20
-143.8978488138519
 10
69.62555201167348
 20
-143.9254095777339
 10
69.62555201167348
 20
-143.9254095777339
 10
69.43090411675686
 20
-143.9254095777339
 10
69.43090411675686
 20
-143.9254095777339
 10
69.43727754340458
 20
-143.8871690178477
 10
69.43951685546999
 20
-143.8451388529276
 10
69.43951685546999
 20
-143.8385931715056
 10
69.43951685546999
 20
-143.7731363572859
 10
69.4183295182357
 20
-143.574354347787
 10
69.1813069488505
 20
-143.574354347787
 10
69.00371227658589
 20
-143.574354347787
 10
68.94859074882189
 20
-143.7052679762265
 10
68.94859074882189
 20
-143.8155110317545
 10
68.94859074882189
 20
-144.0797498554731
 10
69.1813069488505
 20
-144.0883625941862
 10
69.25330944449223
 20
-144.0924967087686
 10
69.25330944449223
 20
-144.0924967087686
 10
69.25330944449223
 20
-144.2957573423983
 10
69.25330944449223
 20
-144.2957573423983
 10
69.12842473315193
 20
-144.2871446036852
 10
68.75187579661412
 20
-144.2595838398032
 10
68.75187579661412
 20
-143.802764178459
 10
68.75187579661412
 20
-143.5784884623693
 10
68.87882756524557
 20
-143.3373317784018
 10
69.17493352220279
 20
-143.3373317784018
 10
69.36114093318055
 20
-143.3373317784018
 10
69.44365097005229
 20
-143.4324164137947
 10
69.50497366968973
 20
-143.5319796733184
 10
69.53253443357173
 20
-143.4703124641324
 10
69.61297741315231
 20
-143.2884114225112
 10
69.89013534494066
 20
-143.2884114225112
 10
70.22861597636646
 20
-143.2884114225112
 10
70.39570310740108
 20
-143.5361137879007
 10
70.39570310740108
 20
-143.8134439744633
 97
        0
 97
        0
 75
     2
 76
     1
 98
        0
  0
ENDBLK
  5
141
330
13E
100
AcDbEntity
  8
0
100
AcDbBlockEnd
  0
BLOCK
  5
157
330
155
100
AcDbEntity
  8
0
100
AcDbBlockBegin
  2
block 10
 70
     0
 10
0.0
 20
0.0
 30
0.0
  3
block 10
  1

  0
SPLINE
  5
159
330
155
100
AcDbEntity
  8
_U+30EC_U+30A4_U+30E4_U+30FC 1
370
     0
100
AcDbSpline
210
0.0
220
0.0
230
1.0
 70
    11
 71
     3
 72
    17
 73
    13
 74
     0
 42
0.0000000001
 43
0.0000000001
 12
1.0
 22
0.0
 32
0.0
 13
1.0
 23
0.0
 33
0.0
 40
0.0
 40
0.0
 40
0.0
 40
0.0
 40
1.0
 40
1.0
 40
1.0
 40
2.0
 40
2.0
 40
2.0
 40
3.0
 40
3.0
 40
3.0
 40
4.0
 40
4.0
 40
4.0
 40
4.0
 10
97.33462725431218
 20
-161.0106716177335
 30
0.0
 10
97.228862822915
 20
-160.9049071863363
 30
0.0
 10
97.14824758856017
 20
-160.86666662645
 30
0.0
 10
97.05523001045842
 20
-160.8349717479857
 30
0.0
 10
97.05523001045842
 20
-160.8349717479857
 30
0.0
 10
97.16547306598642
 20
-160.6702961837908
 30
0.0
 10
97.16547306598642
 20
-160.6702961837908
 30
0.0
 10
97.26262475867046
 20
-160.7123263487108
 30
0.0
 10
97.3832031006542
 20
-160.7908745257745
 30
0.0
 10
97.43625757112706
 20
-160.84565154399
 30
0.0
 10
97.43625757112706
 20
-160.84565154399
 30
0.0
 10
97.33462725431218
 20
-161.0106716177335
 30
0.0
 10
97.33462725431218
 20
-161.0106716177335
 30
0.0
  0
SPLINE
  5
15A
330
155
100
AcDbEntity
  8
_U+30EC_U+30A4_U+30E4_U+30FC 1
370
     0
100
AcDbSpline
210
0.0
220
0.0
230
1.0
 70
    11
 71
     3
 72
   182
 73
   178
 74
     0
 42
0.0000000001
 43
0.0000000001
 12
1.0
 22
0.0
 32
0.0
 13
1.0
 23
0.0
 33
0.0
 40
0.0
 40
0.0
 40
0.0
 40
0.0
 40
1.0
 40
1.0
 40
1.0
 40
2.0
 40
2.0
 40
2.0
 40
3.0
 40
3.0
 40
3.0
 40
4.0
 40
4.0
 40
4.0
 40
5.0
 40
5.0
 40
5.0
 40
6.0
 40
6.0
 40
6.0
 40
7.0
 40
7.0
 40
7.0
 40
8.0
 40
8.0
 40
8.0
 40
9.0
 40
9.0
 40
9.0
 40
10.0
 40
10.0
 40
10.0
 40
11.0
 40
11.0
 40
11.0
 40
12.0
 40
12.0
 40
12.0
 40
13.0
 40
13.0
 40
13.0
 40
14.0
 40
14.0
 40
14.0
 40
15.0
 40
15.0
 40
15.0
 40
16.0
 40
16.0
 40
16.0
 40
17.0
 40
17.0
 40
17.0
 40
18.0
 40
18.0
 40
18.0
 40
19.0
 40
19.0
 40
19.0
 40
20.0
 40
20.0
 40
20.0
 40
21.0
 40
21.0
 40
21.0
 40
22.0
 40
22.0
 40
22.0
 40
23.0
 40
23.0
 40
23.0
 40
24.0
 40
24.0
 40
24.0
 40
25.0
 40
25.0
 40
25.0
 40
26.0
 40
26.0
 40
26.0
 40
27.0
 40
27.0
 40
27.0
 40
28.0
 40
28.0
 40
28.0
 40
29.0
 40
29.0
 40
29.0
 40
30.0
 40
30.0
 40
30.0
 40
31.0
 40
31.0
 40
31.0
 40
32.0
 40
32.0
 40
32.0
 40
33.0
 40
33.0
 40
33.0
 40
34.0
 40
34.0
 40
34.0
 40
35.0
 40
35.0
 40
35.0
 40
36.0
 40
36.0
 40
36.0
 40
37.0
 40
37.0
 40
37.0
 40
38.0
 40
38.0
 40
38.0
 40
39.0
 40
39.0
 40
39.0
 40
40.0
 40
40.0
 40
40.0
 40
41.0
 40
41.0
 40
41.0
 40
42.0
 40
42.0
 40
42.0
 40
43.0
 40
43.0
 40
43.0
 40
44.0
 40
44.0
 40
44.0
 40
45.0
 40
45.0
 40
45.0
 40
46.0
 40
46.0
 40
46.0
 40
47.0
 40
47.0
 40
47.0
 40
48.0
 40
48.0
 40
48.0
 40
49.0
 40
49.0
 40
49.0
 40
50.0
 40
50.0
 40
50.0
 40
51.0
 40
51.0
 40
51.0
 40
52.0
 40
52.0
 40
52.0
 40
53.0
 40
53.0
 40
53.0
 40
54.0
 40
54.0
 40
54.0
 40
55.0
 40
55.0
 40
55.0
 40
56.0
 40
56.0
 40
56.0
 40
57.0
 40
57.0
 40
57.0
 40
58.0
 40
58.0
 40
58.0
 40
59.0
 40
59.0
 40
59.0
 40
59.0
 10
98.37952471498846
 20
-162.1888942736889
 30
0.0
 10
98.37952471498846
 20
-162.1888942736889
 30
0.0
 10
97.74287106931429
 20
-162.1888942736889
 30
0.0
 10
97.74287106931429
 20
-162.1888942736889
 30
0.0
 10
97.5292751492288
 20
-162.1888942736889
 30
0.0
 10
97.31326766230363
 20
-162.1933728978197
 30
0.0
 10
97.09967174221815
 20
-162.2061197511152
 30
0.0
 10
97.09967174221815
 20
-162.2061197511152
 30
0.0
 10
97.09967174221815
 20
-161.9987250029031
 30
0.0
 10
97.09967174221815
 20
-161.9987250029031
 30
0.0
 10
97.32188040101676
 20
-162.01112734665
 30
0.0
 10
97.64537486708171
 20
-162.0156059707808
 30
0.0
 10
97.74287106931429
 20
-162.0156059707808
 30
0.0
 10
97.74287106931429
 20
-162.0156059707808
 30
0.0
 10
97.96301267082175
 20
-162.0156059707808
 30
0.0
 10
97.96301267082175
 20
-162.0156059707808
 30
0.0
 10
97.96301267082175
 20
-162.0156059707808
 30
0.0
 10
97.96301267082175
 20
-161.8740125463371
 30
0.0
 10
97.96301267082175
 20
-161.8740125463371
 30
0.0
 10
97.96301267082175
 20
-161.8740125463371
 30
0.0
 10
97.80212671166058
 20
-161.8740125463371
 30
0.0
 10
97.80212671166058
 20
-161.8740125463371
 30
0.0
 10
97.63710663791711
 20
-161.8740125463371
 30
0.0
 10
97.47208656417365
 20
-161.8781466609194
 30
0.0
 10
97.30706649043019
 20
-161.8929605715059
 30
0.0
 10
97.30706649043019
 20
-161.8929605715059
 30
0.0
 10
97.30706649043019
 20
-161.6834987660027
 30
0.0
 10
97.30706649043019
 20
-161.6834987660027
 30
0.0
 10
97.4782877360471
 20
-161.6983126765893
 30
0.0
 10
97.72599010143657
 20
-161.7024467911716
 30
0.0
 10
97.80212671166058
 20
-161.7024467911716
 30
0.0
 10
97.80212671166058
 20
-161.7024467911716
 30
0.0
 10
97.96301267082175
 20
-161.7024467911716
 30
0.0
 10
97.96301267082175
 20
-161.7024467911716
 30
0.0
 10
97.95853404669093
 20
-161.6307888050784
 30
0.0
 10
97.95853404669093
 20
-161.6242431236564
 30
0.0
 10
97.95233287481747
 20
-161.5715331627321
 30
0.0
 10
97.95233287481747
 20
-161.5715331627321
 30
0.0
 10
98.0918592419701
 20
-161.5860025637702
 30
0.0
 10
98.0918592419701
 20
-161.5860025637702
 30
0.0
 10
98.0918592419701
 20
-161.5860025637702
 30
0.0
 10
97.9926404919949
 20
-161.4147813181532
 30
0.0
 10
97.9926404919949
 20
-161.4147813181532
 30
0.0
 10
98.03914928104577
 20
-161.4213269995752
 30
0.0
 10
98.11321883397865
 20
-161.4295952287398
 30
0.0
 10
98.13009980185637
 20
-161.4295952287398
 30
0.0
 10
98.18074270548954
 20
-161.4295952287398
 30
0.0
 10
98.19762367336726
 20
-161.4082356367313
 30
0.0
 10
98.19762367336726
 20
-161.3513915612247
 30
0.0
 10
98.19762367336726
 20
-161.3513915612247
 30
0.0
 10
98.19762367336726
 20
-161.2139322513632
 30
0.0
 10
98.19762367336726
 20
-161.2139322513632
 30
0.0
 10
98.19762367336726
 20
-161.2139322513632
 30
0.0
 10
98.0918592419701
 20
-161.2139322513632
 30
0.0
 10
98.0918592419701
 20
-161.2139322513632
 30
0.0
 10
97.95853404669093
 20
-161.2139322513632
 30
0.0
 10
97.80212671166058
 20
-161.2139322513632
 30
0.0
 10
97.67948131238569
 20
-161.2263345951101
 30
0.0
 10
97.67948131238569
 20
-161.2263345951101
 30
0.0
 10
97.67948131238569
 20
-161.0361653243243
 30
0.0
 10
97.67948131238569
 20
-161.0361653243243
 30
0.0
 10
97.84656844342031
 20
-161.053046292202
 30
0.0
 10
98.07704533138352
 20
-161.0551133494932
 30
0.0
 10
98.0918592419701
 20
-161.0551133494932
 30
0.0
 10
98.0918592419701
 20
-161.0551133494932
 30
0.0
 10
98.19762367336726
 20
-161.0551133494932
 30
0.0
 10
98.19762367336726
 20
-161.0551133494932
 30
0.0
 10
98.19762367336726
 20
-161.0551133494932
 30
0.0
 10
98.19762367336726
 20
-160.9238552115052
 30
0.0
 10
98.19762367336726
 20
-160.9238552115052
 30
0.0
 10
98.19762367336726
 20
-160.9238552115052
 30
0.0
 10
98.15972762302951
 20
-160.9238552115052
 30
0.0
 10
98.15972762302951
 20
-160.9238552115052
 30
0.0
 10
98.11528589126979
 20
-160.9238552115052
 30
0.0
 10
97.99022892515522
 20
-160.9279893260874
 30
0.0
 10
97.90134546163578
 20
-160.9366020648006
 30
0.0
 10
97.90134546163578
 20
-160.9366020648006
 30
0.0
 10
97.90134546163578
 20
-160.8563313399943
 30
0.0
 10
97.90134546163578
 20
-160.8563313399943
 30
0.0
 10
97.84863550071145
 20
-160.894227390332
 30
0.0
 10
97.8231417941206
 20
-160.9093858104671
 30
0.0
 10
97.78076711965204
 20
-160.9324679502183
 30
0.0
 10
97.78076711965204
 20
-160.9324679502183
 30
0.0
 10
97.5926649061574
 20
-160.8032768695214
 30
0.0
 10
97.5926649061574
 20
-160.8032768695214
 30
0.0
 10
97.67086857367256
 20
-160.769514933766
 30
0.0
 10
97.82762041825143
 20
-160.7061251768374
 30
0.0
 10
97.98402775328178
 20
-160.5621201855539
 30
0.0
 10
98.06636553537925
 20
-160.4839165180387
 30
0.0
 10
98.14491371244294
 20
-160.3995116786501
 30
0.0
 10
98.19762367336726
 20
-160.2978813618353
 30
0.0
 10
98.19762367336726
 20
-160.2978813618353
 30
0.0
 10
98.4091525361616
 20
-160.3592040614727
 30
0.0
 10
98.4091525361616
 20
-160.3592040614727
 30
0.0
 10
98.42844507087901
 20
-160.3654052333462
 30
0.0
 10
98.43878035733475
 20
-160.3740179720593
 30
0.0
 10
98.43878035733475
 20
-160.3864203158062
 30
0.0
 10
98.43878035733475
 20
-160.4036457932324
 30
0.0
 10
98.42603350403932
 20
-160.4098469651059
 30
0.0
 10
98.400884306997
 20
-160.4225938184013
 30
0.0
 10
98.48115503180333
 20
-160.5200900206339
 30
0.0
 10
98.64410804825565
 20
-160.6172417133179
 30
0.0
 10
98.6778699840111
 20
-160.6361897384868
 30
0.0
 10
98.82807614716799
 20
-160.7250732020062
 30
0.0
 10
98.94245331727828
 20
-160.7526339658882
 30
0.0
 10
99.02065698479345
 20
-160.7715819910571
 30
0.0
 10
99.02065698479345
 20
-160.7715819910571
 30
0.0
 10
98.90214570010086
 20
-160.9410806889314
 30
0.0
 10
98.90214570010086
 20
-160.9410806889314
 30
0.0
 10
98.81739635116371
 20
-160.9114528677582
 30
0.0
 10
98.76675344753053
 20
-160.8921603330409
 30
0.0
 10
98.64824216283795
 20
-160.8267035188211
 30
0.0
 10
98.64824216283795
 20
-160.8267035188211
 30
0.0
 10
98.64824216283795
 20
-160.9366020648006
 30
0.0
 10
98.64824216283795
 20
-160.9366020648006
 30
0.0
 10
98.56590438074048
 20
-160.9279893260874
 30
0.0
 10
98.43878035733475
 20
-160.9238552115052
 30
0.0
 10
98.38607039641043
 20
-160.9238552115052
 30
0.0
 10
98.38607039641043
 20
-160.9238552115052
 30
0.0
 10
98.38607039641043
 20
-161.0551133494932
 30
0.0
 10
98.38607039641043
 20
-161.0551133494932
 30
0.0
 10
98.38607039641043
 20
-161.0551133494932
 30
0.0
 10
98.50664873839418
 20
-161.0551133494932
 30
0.0
 10
98.50664873839418
 20
-161.0551133494932
 30
0.0
 10
98.50871579568532
 20
-161.0551133494932
 30
0.0
 10
98.7412597409397
 20
-161.053046292202
 30
0.0
 10
98.91902666797859
 20
-161.0361653243243
 30
0.0
 10
98.91902666797859
 20
-161.0361653243243
 30
0.0
 10
98.91902666797859
 20
-161.2263345951101
 30
0.0
 10
98.91902666797859
 20
-161.2263345951101
 30
0.0
 10
98.79018009683024
 20
-161.2139322513632
 30
0.0
 10
98.63342825225136
 20
-161.2139322513632
 30
0.0
 10
98.50664873839418
 20
-161.2139322513632
 30
0.0
 10
98.50664873839418
 20
-161.2139322513632
 30
0.0
 10
98.38607039641043
 20
-161.2139322513632
 30
0.0
 10
98.38607039641043
 20
-161.2139322513632
 30
0.0
 10
98.38607039641043
 20
-161.2139322513632
 30
0.0
 10
98.38607039641043
 20
-161.4399305151956
 30
0.0
 10
98.38607039641043
 20
-161.4399305151956
 30
0.0
 10
98.38607039641043
 20
-161.5584417998882
 30
0.0
 10
98.36057668981958
 20
-161.5946153024833
 30
0.0
 10
98.19969073065842
 20
-161.6094292130699
 30
0.0
 10
98.20416935478924
 20
-161.6283772382388
 30
0.0
 10
98.19762367336726
 20
-161.639057034243
 30
0.0
 10
98.15972762302951
 20
-161.6624836835427
 30
0.0
 10
98.15766056573837
 20
-161.6810871991631
 30
0.0
 10
98.15766056573837
 20
-161.6876328805851
 30
0.0
 10
98.1552489988987
 20
-161.7024467911716
 30
0.0
 10
98.1552489988987
 20
-161.7024467911716
 30
0.0
 10
98.29270830876015
 20
-161.7024467911716
 30
0.0
 10
98.29270830876015
 20
-161.7024467911716
 30
0.0
 10
98.45772838250363
 20
-161.7024467911716
 30
0.0
 10
98.62516002308676
 20
-161.6983126765893
 30
0.0
 10
98.79224715412138
 20
-161.6834987660027
 30
0.0
 10
98.79224715412138
 20
-161.6834987660027
 30
0.0
 10
98.79224715412138
 20
-161.8905490046663
 30
0.0
 10
98.79224715412138
 20
-161.8905490046663
 30
0.0
 10
98.57623966719622
 20
-161.8740125463371
 30
0.0
 10
98.31200084347756
 20
-161.8740125463371
 30
0.0
 10
98.29270830876015
 20
-161.8740125463371
 30
0.0
 10
98.29270830876015
 20
-161.8740125463371
 30
0.0
 10
98.15318194160754
 20
-161.8740125463371
 30
0.0
 10
98.15318194160754
 20
-161.8740125463371
 30
0.0
 10
98.15318194160754
 20
-161.8740125463371
 30
0.0
 10
98.15318194160754
 20
-162.0156059707808
 30
0.0
 10
98.15318194160754
 20
-162.0156059707808
 30
0.0
 10
98.15318194160754
 20
-162.0156059707808
 30
0.0
 10
98.37952471498846
 20
-162.0156059707808
 30
0.0
 10
98.37952471498846
 20
-162.0156059707808
 30
0.0
 10
98.59553220191363
 20
-162.0156059707808
 30
0.0
 10
98.81326223658141
 20
-162.01112734665
 30
0.0
 10
99.02892521395805
 20
-161.9987250029031
 30
0.0
 10
99.02892521395805
 20
-161.9987250029031
 30
0.0
 10
99.02892521395805
 20
-162.2061197511152
 30
0.0
 10
99.02892521395805
 20
-162.2061197511152
 30
0.0
 10
98.74780542236167
 20
-162.1888942736889
 30
0.0
 10
98.40295136428816
 20
-162.1888942736889
 30
0.0
 10
98.37952471498846
 20
-162.1888942736889
 30
0.0
  0
SPLINE
  5
15B
330
155
100
AcDbEntity
  8
_U+30EC_U+30A4_U+30E4_U+30FC 1
370
     0
100
AcDbSpline
210
0.0
220
0.0
230
1.0
 70
    11
 71
     3
 72
    23
 73
    19
 74
     0
 42
0.0000000001
 43
0.0000000001
 12
1.0
 22
0.0
 32
0.0
 13
1.0
 23
0.0
 33
0.0
 40
0.0
 40
0.0
 40
0.0
 40
0.0
 40
1.0
 40
1.0
 40
1.0
 40
2.0
 40
2.0
 40
2.0
 40
3.0
 40
3.0
 40
3.0
 40
4.0
 40
4.0
 40
4.0
 40
5.0
 40
5.0
 40
5.0
 40
6.0
 40
6.0
 40
6.0
 40
6.0
 10
97.26055770137931
 20
-161.5605088571793
 30
0.0
 10
97.26055770137931
 20
-161.5818684491879
 30
0.0
 10
97.26262475867046
 20
-161.6197644995256
 30
0.0
 10
97.2371310520796
 20
-161.6197644995256
 30
0.0
 10
97.22679576562386
 20
-161.6197644995256
 30
0.0
 10
97.21818302691074
 20
-161.6135633276522
 30
0.0
 10
97.20750323090647
 20
-161.5966823597744
 30
0.0
 10
97.20750323090647
 20
-161.5966823597744
 30
0.0
 10
97.10380585680045
 20
-161.4147813181532
 30
0.0
 10
97.10380585680045
 20
-161.4147813181532
 30
0.0
 10
97.31981334372561
 20
-161.2855902374564
 30
0.0
 10
97.51652829593337
 20
-161.0086045604423
 30
0.0
 10
97.56303708498424
 20
-160.9366020648006
 30
0.0
 10
97.56303708498424
 20
-160.9366020648006
 30
0.0
 10
97.63503958062597
 20
-161.1164360491306
 30
0.0
 10
97.63503958062597
 20
-161.1164360491306
 30
0.0
 10
97.5017143853468
 20
-161.3131510013384
 30
0.0
 10
97.32601451559906
 20
-161.4971191002507
 30
0.0
 10
97.26055770137931
 20
-161.5605088571793
 30
0.0
  0
SPLINE
  5
15C
330
155
100
AcDbEntity
  8
_U+30EC_U+30A4_U+30E4_U+30FC 1
370
     0
100
AcDbSpline
210
0.0
220
0.0
230
1.0
 70
    11
 71
     3
 72
    17
 73
    13
 74
     0
 42
0.0000000001
 43
0.0000000001
 12
1.0
 22
0.0
 32
0.0
 13
1.0
 23
0.0
 33
0.0
 40
0.0
 40
0.0
 40
0.0
 40
0.0
 40
1.0
 40
1.0
 40
1.0
 40
2.0
 40
2.0
 40
2.0
 40
3.0
 40
3.0
 40
3.0
 40
4.0
 40
4.0
 40
4.0
 40
4.0
 10
97.51446123864223
 20
-160.6658175596599
 30
0.0
 10
97.45313853900477
 20
-160.5896809494359
 30
0.0
 10
97.32394745830791
 20
-160.5135443392119
 30
0.0
 10
97.22025008420188
 20
-160.4839165180387
 30
0.0
 10
97.22025008420188
 20
-160.4839165180387
 30
0.0
 10
97.31567922914331
 20
-160.3188964442953
 30
0.0
 10
97.31567922914331
 20
-160.3188964442953
 30
0.0
 10
97.41696503640965
 20
-160.3547254373419
 30
0.0
 10
97.52272946780683
 20
-160.411914022397
 30
0.0
 10
97.61161293132626
 20
-160.4925292567519
 30
0.0
 10
97.61161293132626
 20
-160.4925292567519
 30
0.0
 10
97.51446123864223
 20
-160.6658175596599
 30
0.0
 10
97.51446123864223
 20
-160.6658175596599
 30
0.0
  0
SPLINE
  5
15D
330
155
100
AcDbEntity
  8
_U+30EC_U+30A4_U+30E4_U+30FC 1
370
     0
100
AcDbSpline
210
0.0
220
0.0
230
1.0
 70
    11
 71
     3
 72
    23
 73
    19
 74
     0
 42
0.0000000001
 43
0.0000000001
 12
1.0
 22
0.0
 32
0.0
 13
1.0
 23
0.0
 33
0.0
 40
0.0
 40
0.0
 40
0.0
 40
0.0
 40
1.0
 40
1.0
 40
1.0
 40
2.0
 40
2.0
 40
2.0
 40
3.0
 40
3.0
 40
3.0
 40
4.0
 40
4.0
 40
4.0
 40
5.0
 40
5.0
 40
5.0
 40
6.0
 40
6.0
 40
6.0
 40
6.0
 10
97.96714678540405
 20
-161.3703395863935
 30
0.0
 10
97.9457871933955
 20
-161.3937662356932
 30
0.0
 10
97.84863550071145
 20
-161.5057318389638
 30
0.0
 10
97.70910913355884
 20
-161.5860025637702
 30
0.0
 10
97.70910913355884
 20
-161.5860025637702
 30
0.0
 10
97.54202200252422
 20
-161.4654242217864
 30
0.0
 10
97.54202200252422
 20
-161.4654242217864
 30
0.0
 10
97.69222816568112
 20
-161.3896321211109
 30
0.0
 10
97.79144691565631
 20
-161.2942029761695
 30
0.0
 10
97.84002276199833
 20
-161.2414930152452
 30
0.0
 10
97.84002276199833
 20
-161.2414930152452
 30
0.0
 10
98.01365557445493
 20
-161.3238307973427
 30
0.0
 10
98.01365557445493
 20
-161.3238307973427
 30
0.0
 10
98.02192380361953
 20
-161.327964911925
 30
0.0
 10
98.03053654233265
 20
-161.3345105933469
 30
0.0
 10
98.03053654233265
 20
-161.3448458798027
 30
0.0
 10
98.03053654233265
 20
-161.3703395863935
 30
0.0
 10
97.99470754928605
 20
-161.3703395863935
 30
0.0
 10
97.96714678540405
 20
-161.3703395863935
 30
0.0
  0
SPLINE
  5
15E
330
155
100
AcDbEntity
  8
_U+30EC_U+30A4_U+30E4_U+30FC 1
370
     0
100
AcDbSpline
210
0.0
220
0.0
230
1.0
 70
    11
 71
     3
 72
    20
 73
    16
 74
     0
 42
0.0000000001
 43
0.0000000001
 12
1.0
 22
0.0
 32
0.0
 13
1.0
 23
0.0
 33
0.0
 40
0.0
 40
0.0
 40
0.0
 40
0.0
 40
1.0
 40
1.0
 40
1.0
 40
2.0
 40
2.0
 40
2.0
 40
3.0
 40
3.0
 40
3.0
 40
4.0
 40
4.0
 40
4.0
 40
5.0
 40
5.0
 40
5.0
 40
5.0
 10
98.26549205442669
 20
-160.5283582497985
 30
0.0
 10
98.22725149454041
 20
-160.577278605689
 30
0.0
 10
98.16592879490297
 20
-160.6551377636557
 30
0.0
 10
98.02640242775036
 20
-160.7653808191837
 30
0.0
 10
98.10667315255667
 20
-160.769514933766
 30
0.0
 10
98.13630097372982
 20
-160.769514933766
 30
0.0
 10
98.15972762302951
 20
-160.769514933766
 30
0.0
 10
98.15972762302951
 20
-160.769514933766
 30
0.0
 10
98.38813745370157
 20
-160.769514933766
 30
0.0
 10
98.38813745370157
 20
-160.769514933766
 30
0.0
 10
98.41983233216588
 20
-160.769514933766
 30
0.0
 10
98.4684081785079
 20
-160.7674478764748
 30
0.0
 10
98.54247773144077
 20
-160.7653808191837
 30
0.0
 10
98.43051212817015
 20
-160.6913112662508
 30
0.0
 10
98.3815917722796
 20
-160.6448024771999
 30
0.0
 10
98.26549205442669
 20
-160.5283582497985
 30
0.0
  0
SPLINE
  5
15F
330
155
100
AcDbEntity
  8
_U+30EC_U+30A4_U+30E4_U+30FC 1
370
     0
100
AcDbSpline
210
0.0
220
0.0
230
1.0
 70
    11
 71
     3
 72
    17
 73
    13
 74
     0
 42
0.0000000001
 43
0.0000000001
 12
1.0
 22
0.0
 32
0.0
 13
1.0
 23
0.0
 33
0.0
 40
0.0
 40
0.0
 40
0.0
 40
0.0
 40
1.0
 40
1.0
 40
1.0
 40
2.0
 40
2.0
 40
2.0
 40
3.0
 40
3.0
 40
3.0
 40
4.0
 40
4.0
 40
4.0
 40
4.0
 10
98.82600908987683
 20
-161.583935506479
 30
0.0
 10
98.69061683730652
 20
-161.4719699032084
 30
0.0
 10
98.58485240590934
 20
-161.4082356367313
 30
0.0
 10
98.46634112121676
 20
-161.3448458798027
 30
0.0
 10
98.46634112121676
 20
-161.3448458798027
 30
0.0
 10
98.59312063507394
 20
-161.2328802765321
 30
0.0
 10
98.59312063507394
 20
-161.2328802765321
 30
0.0
 10
98.72437877306197
 20
-161.2793890655829
 30
0.0
 10
98.83427731904143
 20
-161.3365776506381
 30
0.0
 10
98.959334285156
 20
-161.4378634579044
 30
0.0
 10
98.959334285156
 20
-161.4378634579044
 30
0.0
 10
98.82600908987683
 20
-161.583935506479
 30
0.0
 10
98.82600908987683
 20
-161.583935506479
 30
0.0
  0
HATCH
  5
160
330
155
100
AcDbEntity
  8
_U+30EC_U+30A4_U+30E4_U+30FC 1
 62
   179
420
  2234388
100
AcDbHatch
 10
0.0
 20
0.0
 30
0.0
210
0.0
220
0.0
230
1.0
  2
SOLID
 70
     1
 71
     0
 91
        7
 92
        1
 93
        1
 72
     4
 94
        3
 73
     0
 74
     1
 95
       17
 96
       13
 40
0.0
 40
0.0
 40
0.0
 40
0.0
 40
1.0
 40
1.0
 40
1.0
 40
2.0
 40
2.0
 40
2.0
 40
3.0
 40
3.0
 40
3.0
 40
4.0
 40
4.0
 40
4.0
 40
4.0
 10
97.33462725431218
 20
-161.0106716177335
 10
97.228862822915
 20
-160.9049071863363
 10
97.14824758856017
 20
-160.86666662645
 10
97.05523001045842
 20
-160.8349717479857
 10
97.05523001045842
 20
-160.8349717479857
 10
97.16547306598642
 20
-160.6702961837908
 10
97.16547306598642
 20
-160.6702961837908
 10
97.26262475867046
 20
-160.7123263487108
 10
97.3832031006542
 20
-160.7908745257745
 10
97.43625757112706
 20
-160.84565154399
 10
97.43625757112706
 20
-160.84565154399
 10
97.33462725431218
 20
-161.0106716177335
 10
97.33462725431218
 20
-161.0106716177335
 97
        0
 97
        0
 92
        1
 93
        1
 72
     4
 94
        3
 73
     0
 74
     1
 95
      182
 96
      178
 40
0.0
 40
0.0
 40
0.0
 40
0.0
 40
1.0
 40
1.0
 40
1.0
 40
2.0
 40
2.0
 40
2.0
 40
3.0
 40
3.0
 40
3.0
 40
4.0
 40
4.0
 40
4.0
 40
5.0
 40
5.0
 40
5.0
 40
6.0
 40
6.0
 40
6.0
 40
7.0
 40
7.0
 40
7.0
 40
8.0
 40
8.0
 40
8.0
 40
9.0
 40
9.0
 40
9.0
 40
10.0
 40
10.0
 40
10.0
 40
11.0
 40
11.0
 40
11.0
 40
12.0
 40
12.0
 40
12.0
 40
13.0
 40
13.0
 40
13.0
 40
14.0
 40
14.0
 40
14.0
 40
15.0
 40
15.0
 40
15.0
 40
16.0
 40
16.0
 40
16.0
 40
17.0
 40
17.0
 40
17.0
 40
18.0
 40
18.0
 40
18.0
 40
19.0
 40
19.0
 40
19.0
 40
20.0
 40
20.0
 40
20.0
 40
21.0
 40
21.0
 40
21.0
 40
22.0
 40
22.0
 40
22.0
 40
23.0
 40
23.0
 40
23.0
 40
24.0
 40
24.0
 40
24.0
 40
25.0
 40
25.0
 40
25.0
 40
26.0
 40
26.0
 40
26.0
 40
27.0
 40
27.0
 40
27.0
 40
28.0
 40
28.0
 40
28.0
 40
29.0
 40
29.0
 40
29.0
 40
30.0
 40
30.0
 40
30.0
 40
31.0
 40
31.0
 40
31.0
 40
32.0
 40
32.0
 40
32.0
 40
33.0
 40
33.0
 40
33.0
 40
34.0
 40
34.0
 40
34.0
 40
35.0
 40
35.0
 40
35.0
 40
36.0
 40
36.0
 40
36.0
 40
37.0
 40
37.0
 40
37.0
 40
38.0
 40
38.0
 40
38.0
 40
39.0
 40
39.0
 40
39.0
 40
40.0
 40
40.0
 40
40.0
 40
41.0
 40
41.0
 40
41.0
 40
42.0
 40
42.0
 40
42.0
 40
43.0
 40
43.0
 40
43.0
 40
44.0
 40
44.0
 40
44.0
 40
45.0
 40
45.0
 40
45.0
 40
46.0
 40
46.0
 40
46.0
 40
47.0
 40
47.0
 40
47.0
 40
48.0
 40
48.0
 40
48.0
 40
49.0
 40
49.0
 40
49.0
 40
50.0
 40
50.0
 40
50.0
 40
51.0
 40
51.0
 40
51.0
 40
52.0
 40
52.0
 40
52.0
 40
53.0
 40
53.0
 40
53.0
 40
54.0
 40
54.0
 40
54.0
 40
55.0
 40
55.0
 40
55.0
 40
56.0
 40
56.0
 40
56.0
 40
57.0
 40
57.0
 40
57.0
 40
58.0
 40
58.0
 40
58.0
 40
59.0
 40
59.0
 40
59.0
 40
59.0
 10
98.37952471498846
 20
-162.1888942736889
 10
98.37952471498846
 20
-162.1888942736889
 10
97.74287106931429
 20
-162.1888942736889
 10
97.74287106931429
 20
-162.1888942736889
 10
97.5292751492288
 20
-162.1888942736889
 10
97.31326766230363
 20
-162.1933728978197
 10
97.09967174221815
 20
-162.2061197511152
 10
97.09967174221815
 20
-162.2061197511152
 10
97.09967174221815
 20
-161.9987250029031
 10
97.09967174221815
 20
-161.9987250029031
 10
97.32188040101676
 20
-162.01112734665
 10
97.64537486708171
 20
-162.0156059707808
 10
97.74287106931429
 20
-162.0156059707808
 10
97.74287106931429
 20
-162.0156059707808
 10
97.96301267082175
 20
-162.0156059707808
 10
97.96301267082175
 20
-162.0156059707808
 10
97.96301267082175
 20
-162.0156059707808
 10
97.96301267082175
 20
-161.8740125463371
 10
97.96301267082175
 20
-161.8740125463371
 10
97.96301267082175
 20
-161.8740125463371
 10
97.80212671166058
 20
-161.8740125463371
 10
97.80212671166058
 20
-161.8740125463371
 10
97.63710663791711
 20
-161.8740125463371
 10
97.47208656417365
 20
-161.8781466609194
 10
97.30706649043019
 20
-161.8929605715059
 10
97.30706649043019
 20
-161.8929605715059
 10
97.30706649043019
 20
-161.6834987660027
 10
97.30706649043019
 20
-161.6834987660027
 10
97.4782877360471
 20
-161.6983126765893
 10
97.72599010143657
 20
-161.7024467911716
 10
97.80212671166058
 20
-161.7024467911716
 10
97.80212671166058
 20
-161.7024467911716
 10
97.96301267082175
 20
-161.7024467911716
 10
97.96301267082175
 20
-161.7024467911716
 10
97.95853404669093
 20
-161.6307888050784
 10
97.95853404669093
 20
-161.6242431236564
 10
97.95233287481747
 20
-161.5715331627321
 10
97.95233287481747
 20
-161.5715331627321
 10
98.0918592419701
 20
-161.5860025637702
 10
98.0918592419701
 20
-161.5860025637702
 10
98.0918592419701
 20
-161.5860025637702
 10
97.9926404919949
 20
-161.4147813181532
 10
97.9926404919949
 20
-161.4147813181532
 10
98.03914928104577
 20
-161.4213269995752
 10
98.11321883397865
 20
-161.4295952287398
 10
98.13009980185637
 20
-161.4295952287398
 10
98.18074270548954
 20
-161.4295952287398
 10
98.19762367336726
 20
-161.4082356367313
 10
98.19762367336726
 20
-161.3513915612247
 10
98.19762367336726
 20
-161.3513915612247
 10
98.19762367336726
 20
-161.2139322513632
 10
98.19762367336726
 20
-161.2139322513632
 10
98.19762367336726
 20
-161.2139322513632
 10
98.0918592419701
 20
-161.2139322513632
 10
98.0918592419701
 20
-161.2139322513632
 10
97.95853404669093
 20
-161.2139322513632
 10
97.80212671166058
 20
-161.2139322513632
 10
97.67948131238569
 20
-161.2263345951101
 10
97.67948131238569
 20
-161.2263345951101
 10
97.67948131238569
 20
-161.0361653243243
 10
97.67948131238569
 20
-161.0361653243243
 10
97.84656844342031
 20
-161.053046292202
 10
98.07704533138352
 20
-161.0551133494932
 10
98.0918592419701
 20
-161.0551133494932
 10
98.0918592419701
 20
-161.0551133494932
 10
98.19762367336726
 20
-161.0551133494932
 10
98.19762367336726
 20
-161.0551133494932
 10
98.19762367336726
 20
-161.0551133494932
 10
98.19762367336726
 20
-160.9238552115052
 10
98.19762367336726
 20
-160.9238552115052
 10
98.19762367336726
 20
-160.9238552115052
 10
98.15972762302951
 20
-160.9238552115052
 10
98.15972762302951
 20
-160.9238552115052
 10
98.11528589126979
 20
-160.9238552115052
 10
97.99022892515522
 20
-160.9279893260874
 10
97.90134546163578
 20
-160.9366020648006
 10
97.90134546163578
 20
-160.9366020648006
 10
97.90134546163578
 20
-160.8563313399943
 10
97.90134546163578
 20
-160.8563313399943
 10
97.84863550071145
 20
-160.894227390332
 10
97.8231417941206
 20
-160.9093858104671
 10
97.78076711965204
 20
-160.9324679502183
 10
97.78076711965204
 20
-160.9324679502183
 10
97.5926649061574
 20
-160.8032768695214
 10
97.5926649061574
 20
-160.8032768695214
 10
97.67086857367256
 20
-160.769514933766
 10
97.82762041825143
 20
-160.7061251768374
 10
97.98402775328178
 20
-160.5621201855539
 10
98.06636553537925
 20
-160.4839165180387
 10
98.14491371244294
 20
-160.3995116786501
 10
98.19762367336726
 20
-160.2978813618353
 10
98.19762367336726
 20
-160.2978813618353
 10
98.4091525361616
 20
-160.3592040614727
 10
98.4091525361616
 20
-160.3592040614727
 10
98.42844507087901
 20
-160.3654052333462
 10
98.43878035733475
 20
-160.3740179720593
 10
98.43878035733475
 20
-160.3864203158062
 10
98.43878035733475
 20
-160.4036457932324
 10
98.42603350403932
 20
-160.4098469651059
 10
98.400884306997
 20
-160.4225938184013
 10
98.48115503180333
 20
-160.5200900206339
 10
98.64410804825565
 20
-160.6172417133179
 10
98.6778699840111
 20
-160.6361897384868
 10
98.82807614716799
 20
-160.7250732020062
 10
98.94245331727828
 20
-160.7526339658882
 10
99.02065698479345
 20
-160.7715819910571
 10
99.02065698479345
 20
-160.7715819910571
 10
98.90214570010086
 20
-160.9410806889314
 10
98.90214570010086
 20
-160.9410806889314
 10
98.81739635116371
 20
-160.9114528677582
 10
98.76675344753053
 20
-160.8921603330409
 10
98.64824216283795
 20
-160.8267035188211
 10
98.64824216283795
 20
-160.8267035188211
 10
98.64824216283795
 20
-160.9366020648006
 10
98.64824216283795
 20
-160.9366020648006
 10
98.56590438074048
 20
-160.9279893260874
 10
98.43878035733475
 20
-160.9238552115052
 10
98.38607039641043
 20
-160.9238552115052
 10
98.38607039641043
 20
-160.9238552115052
 10
98.38607039641043
 20
-161.0551133494932
 10
98.38607039641043
 20
-161.0551133494932
 10
98.38607039641043
 20
-161.0551133494932
 10
98.50664873839418
 20
-161.0551133494932
 10
98.50664873839418
 20
-161.0551133494932
 10
98.50871579568532
 20
-161.0551133494932
 10
98.7412597409397
 20
-161.053046292202
 10
98.91902666797859
 20
-161.0361653243243
 10
98.91902666797859
 20
-161.0361653243243
 10
98.91902666797859
 20
-161.2263345951101
 10
98.91902666797859
 20
-161.2263345951101
 10
98.79018009683024
 20
-161.2139322513632
 10
98.63342825225136
 20
-161.2139322513632
 10
98.50664873839418
 20
-161.2139322513632
 10
98.50664873839418
 20
-161.2139322513632
 10
98.38607039641043
 20
-161.2139322513632
 10
98.38607039641043
 20
-161.2139322513632
 10
98.38607039641043
 20
-161.2139322513632
 10
98.38607039641043
 20
-161.4399305151956
 10
98.38607039641043
 20
-161.4399305151956
 10
98.38607039641043
 20
-161.5584417998882
 10
98.36057668981958
 20
-161.5946153024833
 10
98.19969073065842
 20
-161.6094292130699
 10
98.20416935478924
 20
-161.6283772382388
 10
98.19762367336726
 20
-161.639057034243
 10
98.15972762302951
 20
-161.6624836835427
 10
98.15766056573837
 20
-161.6810871991631
 10
98.15766056573837
 20
-161.6876328805851
 10
98.1552489988987
 20
-161.7024467911716
 10
98.1552489988987
 20
-161.7024467911716
 10
98.29270830876015
 20
-161.7024467911716
 10
98.29270830876015
 20
-161.7024467911716
 10
98.45772838250363
 20
-161.7024467911716
 10
98.62516002308676
 20
-161.6983126765893
 10
98.79224715412138
 20
-161.6834987660027
 10
98.79224715412138
 20
-161.6834987660027
 10
98.79224715412138
 20
-161.8905490046663
 10
98.79224715412138
 20
-161.8905490046663
 10
98.57623966719622
 20
-161.8740125463371
 10
98.31200084347756
 20
-161.8740125463371
 10
98.29270830876015
 20
-161.8740125463371
 10
98.29270830876015
 20
-161.8740125463371
 10
98.15318194160754
 20
-161.8740125463371
 10
98.15318194160754
 20
-161.8740125463371
 10
98.15318194160754
 20
-161.8740125463371
 10
98.15318194160754
 20
-162.0156059707808
 10
98.15318194160754
 20
-162.0156059707808
 10
98.15318194160754
 20
-162.0156059707808
 10
98.37952471498846
 20
-162.0156059707808
 10
98.37952471498846
 20
-162.0156059707808
 10
98.59553220191363
 20
-162.0156059707808
 10
98.81326223658141
 20
-162.01112734665
 10
99.02892521395805
 20
-161.9987250029031
 10
99.02892521395805
 20
-161.9987250029031
 10
99.02892521395805
 20
-162.2061197511152
 10
99.02892521395805
 20
-162.2061197511152
 10
98.74780542236167
 20
-162.1888942736889
 10
98.40295136428816
 20
-162.1888942736889
 10
98.37952471498846
 20
-162.1888942736889
 97
        0
 97
        0
 92
        1
 93
        1
 72
     4
 94
        3
 73
     0
 74
     1
 95
       23
 96
       19
 40
0.0
 40
0.0
 40
0.0
 40
0.0
 40
1.0
 40
1.0
 40
1.0
 40
2.0
 40
2.0
 40
2.0
 40
3.0
 40
3.0
 40
3.0
 40
4.0
 40
4.0
 40
4.0
 40
5.0
 40
5.0
 40
5.0
 40
6.0
 40
6.0
 40
6.0
 40
6.0
 10
97.26055770137931
 20
-161.5605088571793
 10
97.26055770137931
 20
-161.5818684491879
 10
97.26262475867046
 20
-161.6197644995256
 10
97.2371310520796
 20
-161.6197644995256
 10
97.22679576562386
 20
-161.6197644995256
 10
97.21818302691074
 20
-161.6135633276522
 10
97.20750323090647
 20
-161.5966823597744
 10
97.20750323090647
 20
-161.5966823597744
 10
97.10380585680045
 20
-161.4147813181532
 10
97.10380585680045
 20
-161.4147813181532
 10
97.31981334372561
 20
-161.2855902374564
 10
97.51652829593337
 20
-161.0086045604423
 10
97.56303708498424
 20
-160.9366020648006
 10
97.56303708498424
 20
-160.9366020648006
 10
97.63503958062597
 20
-161.1164360491306
 10
97.63503958062597
 20
-161.1164360491306
 10
97.5017143853468
 20
-161.3131510013384
 10
97.32601451559906
 20
-161.4971191002507
 10
97.26055770137931
 20
-161.5605088571793
 97
        0
 97
        0
 92
        1
 93
        1
 72
     4
 94
        3
 73
     0
 74
     1
 95
       17
 96
       13
 40
0.0
 40
0.0
 40
0.0
 40
0.0
 40
1.0
 40
1.0
 40
1.0
 40
2.0
 40
2.0
 40
2.0
 40
3.0
 40
3.0
 40
3.0
 40
4.0
 40
4.0
 40
4.0
 40
4.0
 10
97.51446123864223
 20
-160.6658175596599
 10
97.45313853900477
 20
-160.5896809494359
 10
97.32394745830791
 20
-160.5135443392119
 10
97.22025008420188
 20
-160.4839165180387
 10
97.22025008420188
 20
-160.4839165180387
 10
97.31567922914331
 20
-160.3188964442953
 10
97.31567922914331
 20
-160.3188964442953
 10
97.41696503640965
 20
-160.3547254373419
 10
97.52272946780683
 20
-160.411914022397
 10
97.61161293132626
 20
-160.4925292567519
 10
97.61161293132626
 20
-160.4925292567519
 10
97.51446123864223
 20
-160.6658175596599
 10
97.51446123864223
 20
-160.6658175596599
 97
        0
 97
        0
 92
        1
 93
        1
 72
     4
 94
        3
 73
     0
 74
     1
 95
       23
 96
       19
 40
0.0
 40
0.0
 40
0.0
 40
0.0
 40
1.0
 40
1.0
 40
1.0
 40
2.0
 40
2.0
 40
2.0
 40
3.0
 40
3.0
 40
3.0
 40
4.0
 40
4.0
 40
4.0
 40
5.0
 40
5.0
 40
5.0
 40
6.0
 40
6.0
 40
6.0
 40
6.0
 10
97.96714678540405
 20
-161.3703395863935
 10
97.9457871933955
 20
-161.3937662356932
 10
97.84863550071145
 20
-161.5057318389638
 10
97.70910913355884
 20
-161.5860025637702
 10
97.70910913355884
 20
-161.5860025637702
 10
97.54202200252422
 20
-161.4654242217864
 10
97.54202200252422
 20
-161.4654242217864
 10
97.69222816568112
 20
-161.3896321211109
 10
97.79144691565631
 20
-161.2942029761695
 10
97.84002276199833
 20
-161.2414930152452
 10
97.84002276199833
 20
-161.2414930152452
 10
98.01365557445493
 20
-161.3238307973427
 10
98.01365557445493
 20
-161.3238307973427
 10
98.02192380361953
 20
-161.327964911925
 10
98.03053654233265
 20
-161.3345105933469
 10
98.03053654233265
 20
-161.3448458798027
 10
98.03053654233265
 20
-161.3703395863935
 10
97.99470754928605
 20
-161.3703395863935
 10
97.96714678540405
 20
-161.3703395863935
 97
        0
 97
        0
 92
        1
 93
        1
 72
     4
 94
        3
 73
     0
 74
     1
 95
       20
 96
       16
 40
0.0
 40
0.0
 40
0.0
 40
0.0
 40
1.0
 40
1.0
 40
1.0
 40
2.0
 40
2.0
 40
2.0
 40
3.0
 40
3.0
 40
3.0
 40
4.0
 40
4.0
 40
4.0
 40
5.0
 40
5.0
 40
5.0
 40
5.0
 10
98.26549205442669
 20
-160.5283582497985
 10
98.22725149454041
 20
-160.577278605689
 10
98.16592879490297
 20
-160.6551377636557
 10
98.02640242775036
 20
-160.7653808191837
 10
98.10667315255667
 20
-160.769514933766
 10
98.13630097372982
 20
-160.769514933766
 10
98.15972762302951
 20
-160.769514933766
 10
98.15972762302951
 20
-160.769514933766
 10
98.38813745370157
 20
-160.769514933766
 10
98.38813745370157
 20
-160.769514933766
 10
98.41983233216588
 20
-160.769514933766
 10
98.4684081785079
 20
-160.7674478764748
 10
98.54247773144077
 20
-160.7653808191837
 10
98.43051212817015
 20
-160.6913112662508
 10
98.3815917722796
 20
-160.6448024771999
 10
98.26549205442669
 20
-160.5283582497985
 97
        0
 97
        0
 92
        1
 93
        1
 72
     4
 94
        3
 73
     0
 74
     1
 95
       17
 96
       13
 40
0.0
 40
0.0
 40
0.0
 40
0.0
 40
1.0
 40
1.0
 40
1.0
 40
2.0
 40
2.0
 40
2.0
 40
3.0
 40
3.0
 40
3.0
 40
4.0
 40
4.0
 40
4.0
 40
4.0
 10
98.82600908987683
 20
-161.583935506479
 10
98.69061683730652
 20
-161.4719699032084
 10
98.58485240590934
 20
-161.4082356367313
 10
98.46634112121676
 20
-161.3448458798027
 10
98.46634112121676
 20
-161.3448458798027
 10
98.59312063507394
 20
-161.2328802765321
 10
98.59312063507394
 20
-161.2328802765321
 10
98.72437877306197
 20
-161.2793890655829
 10
98.83427731904143
 20
-161.3365776506381
 10
98.959334285156
 20
-161.4378634579044
 10
98.959334285156
 20
-161.4378634579044
 10
98.82600908987683
 20
-161.583935506479
 10
98.82600908987683
 20
-161.583935506479
 97
        0
 97
        0
 75
     2
 76
     1
 98
        0
  0
SPLINE
  5
161
330
155
100
AcDbEntity
  8
_U+30EC_U+30A4_U+30E4_U+30FC 1
370
     0
100
AcDbSpline
210
0.0
220
0.0
230
1.0
 70
    11
 71
     3
 72
   113
 73
   109
 74
     0
 42
0.0000000001
 43
0.0000000001
 12
1.0
 22
0.0
 32
0.0
 13
1.0
 23
0.0
 33
0.0
 40
0.0
 40
0.0
 40
0.0
 40
0.0
 40
1.0
 40
1.0
 40
1.0
 40
2.0
 40
2.0
 40
2.0
 40
3.0
 40
3.0
 40
3.0
 40
4.0
 40
4.0
 40
4.0
 40
5.0
 40
5.0
 40
5.0
 40
6.0
 40
6.0
 40
6.0
 40
7.0
 40
7.0
 40
7.0
 40
8.0
 40
8.0
 40
8.0
 40
9.0
 40
9.0
 40
9.0
 40
10.0
 40
10.0
 40
10.0
 40
11.0
 40
11.0
 40
11.0
 40
12.0
 40
12.0
 40
12.0
 40
13.0
 40
13.0
 40
13.0
 40
14.0
 40
14.0
 40
14.0
 40
15.0
 40
15.0
 40
15.0
 40
16.0
 40
16.0
 40
16.0
 40
17.0
 40
17.0
 40
17.0
 40
18.0
 40
18.0
 40
18.0
 40
19.0
 40
19.0
 40
19.0
 40
20.0
 40
20.0
 40
20.0
 40
21.0
 40
21.0
 40
21.0
 40
22.0
 40
22.0
 40
22.0
 40
23.0
 40
23.0
 40
23.0
 40
24.0
 40
24.0
 40
24.0
 40
25.0
 40
25.0
 40
25.0
 40
26.0
 40
26.0
 40
26.0
 40
27.0
 40
27.0
 40
27.0
 40
28.0
 40
28.0
 40
28.0
 40
29.0
 40
29.0
 40
29.0
 40
30.0
 40
30.0
 40
30.0
 40
31.0
 40
31.0
 40
31.0
 40
32.0
 40
32.0
 40
32.0
 40
33.0
 40
33.0
 40
33.0
 40
34.0
 40
34.0
 40
34.0
 40
35.0
 40
35.0
 40
35.0
 40
36.0
 40
36.0
 40
36.0
 40
36.0
 10
100.7056531866291
 20
-161.5605088571793
 30
0.0
 10
100.7056531866291
 20
-161.5605088571793
 30
0.0
 10
100.8052164461529
 20
-161.6604166262516
 30
0.0
 10
100.8052164461529
 20
-161.6604166262516
 30
0.0
 10
100.8158962421571
 20
-161.6707519127073
 30
0.0
 10
100.8262315286129
 20
-161.6834987660027
 30
0.0
 10
100.8262315286129
 20
-161.6983126765893
 30
0.0
 10
100.8262315286129
 20
-161.7003797338805
 30
0.0
 10
100.8262315286129
 20
-161.7300075550536
 30
0.0
 10
100.7883354782751
 20
-161.7300075550536
 30
0.0
 10
100.779722739562
 20
-161.7300075550536
 30
0.0
 10
100.7394151223846
 20
-161.7258734404713
 30
0.0
 10
100.7332139505111
 20
-161.7258734404713
 30
0.0
 10
100.6929063333337
 20
-161.7575683189356
 30
0.0
 10
100.6463975442828
 20
-161.7913302546911
 30
0.0
 10
100.5471787943077
 20
-161.8485188397462
 30
0.0
 10
100.6929063333337
 20
-161.9563503284345
 30
0.0
 10
100.8517252352037
 20
-162.0135389134897
 30
0.0
 10
101.1245767976355
 20
-162.0517794733759
 30
0.0
 10
101.1245767976355
 20
-162.0517794733759
 30
0.0
 10
100.9743706344786
 20
-162.2271348335752
 30
0.0
 10
100.9743706344786
 20
-162.2271348335752
 30
0.0
 10
100.7121988680511
 20
-162.1551323379335
 30
0.0
 10
100.5554470234723
 20
-162.066248874414
 30
0.0
 10
100.4793104132482
 20
-162.0135389134897
 30
0.0
 10
100.3291042500913
 20
-161.9119085966748
 30
0.0
 10
100.1854437683564
 20
-161.7489555802225
 30
0.0
 10
100.1093071581324
 20
-161.583935506479
 30
0.0
 10
100.041438777073
 20
-161.6493923206988
 30
0.0
 10
99.9673692241401
 20
-161.7024467911716
 30
0.0
 10
99.88916555662493
 20
-161.7513671470622
 30
0.0
 10
99.88916555662493
 20
-161.7513671470622
 30
0.0
 10
99.88916555662493
 20
-162.0028591174854
 30
0.0
 10
99.88916555662493
 20
-162.0028591174854
 30
0.0
 10
100.0521185730773
 20
-161.9773654108945
 30
0.0
 10
100.2381537292807
 20
-161.9332681886834
 30
0.0
 10
100.3015434862093
 20
-161.9181097685482
 30
0.0
 10
100.3015434862093
 20
-161.9181097685482
 30
0.0
 10
100.2719156650362
 20
-162.0876084664226
 30
0.0
 10
100.2719156650362
 20
-162.0876084664226
 30
0.0
 10
100.269848607745
 20
-162.0876084664226
 30
0.0
 10
100.2509005825762
 20
-162.093809638296
 30
0.0
 10
100.248833525285
 20
-162.093809638296
 30
0.0
 10
100.0500515157861
 20
-162.1317056886338
 30
0.0
 10
99.7327582215946
 20
-162.197507012402
 30
0.0
 10
99.5356987598383
 20
-162.2336805149971
 30
0.0
 10
99.52536347338255
 20
-162.2502169733263
 30
0.0
 10
99.50193682408285
 20
-162.2819118517907
 30
0.0
 10
99.47885468433168
 20
-162.2819118517907
 30
0.0
 10
99.45129392044969
 20
-162.2819118517907
 30
0.0
 10
99.44715980586739
 20
-162.2633083361703
 30
0.0
 10
99.4447482390277
 20
-162.2440158014529
 30
0.0
 10
99.4447482390277
 20
-162.2440158014529
 30
0.0
 10
99.41959904198538
 20
-162.0703829889963
 30
0.0
 10
99.41959904198538
 20
-162.0703829889963
 30
0.0
 10
99.49366859491825
 20
-162.0621147598317
 30
0.0
 10
99.60150008360658
 20
-162.0493679065363
 30
0.0
 10
99.7093315722949
 20
-162.0283528240763
 30
0.0
 10
99.7093315722949
 20
-162.0283528240763
 30
0.0
 10
99.7093315722949
 20
-161.8505858970373
 30
0.0
 10
99.7093315722949
 20
-161.8505858970373
 30
0.0
 10
99.56532658101145
 20
-161.9225883926791
 30
0.0
 10
99.47024194561855
 20
-161.9518717043037
 30
0.0
 10
99.30522187187509
 20
-161.9814995254769
 30
0.0
 10
99.30522187187509
 20
-161.9814995254769
 30
0.0
 10
99.18464352989135
 20
-161.8126898466996
 30
0.0
 10
99.18464352989135
 20
-161.8126898466996
 30
0.0
 10
99.50193682408285
 20
-161.7851290828176
 30
0.0
 10
99.69451766170832
 20
-161.6921115047159
 30
0.0
 10
99.8722845887472
 20
-161.5584417998882
 30
0.0
 10
99.72621254017263
 20
-161.5584417998882
 30
0.0
 10
99.42580021385884
 20
-161.562920424019
 30
0.0
 10
99.22908526165106
 20
-161.569466105441
 30
0.0
 10
99.22908526165106
 20
-161.569466105441
 30
0.0
 10
99.22908526165106
 20
-161.3916991784021
 30
0.0
 10
99.22908526165106
 20
-161.3916991784021
 30
0.0
 10
99.38342553939026
 20
-161.3979003502755
 30
0.0
 10
99.67970375112175
 20
-161.404101522149
 30
0.0
 10
99.86367185003408
 20
-161.404101522149
 30
0.0
 10
99.86367185003408
 20
-161.404101522149
 30
0.0
 10
100.0752007128284
 20
-161.404101522149
 30
0.0
 10
100.0752007128284
 20
-161.404101522149
 30
0.0
 10
100.0752007128284
 20
-161.3090168867561
 30
0.0
 10
100.0731336555373
 20
-161.2580294735744
 30
0.0
 10
100.0669324836638
 20
-161.211865194072
 30
0.0
 10
100.0669324836638
 20
-161.211865194072
 30
0.0
 10
100.2825954610405
 20
-161.2284016524012
 30
0.0
 10
100.2825954610405
 20
-161.2284016524012
 30
0.0
 10
100.3311713073825
 20
-161.2328802765321
 30
0.0
 10
100.3397840460956
 20
-161.2476941871186
 30
0.0
 10
100.3397840460956
 20
-161.2625080977052
 30
0.0
 10
100.3397840460956
 20
-161.2876572947475
 30
0.0
 10
100.3229030782179
 20
-161.2962700334607
 30
0.0
 10
100.2719156650362
 20
-161.3217637400515
 30
0.0
 10
100.269848607745
 20
-161.3469129370938
 30
0.0
 10
100.269848607745
 20
-161.3534586185158
 30
0.0
 10
100.2677815504539
 20
-161.404101522149
 30
0.0
 10
100.2677815504539
 20
-161.404101522149
 30
0.0
 10
100.4982584384171
 20
-161.404101522149
 30
0.0
 10
100.4982584384171
 20
-161.404101522149
 30
0.0
 10
100.6632785121606
 20
-161.404101522149
 30
0.0
 10
100.9554226093098
 20
-161.3979003502755
 30
0.0
 10
101.1352565936398
 20
-161.3916991784021
 30
0.0
 10
101.1352565936398
 20
-161.3916991784021
 30
0.0
 10
101.1352565936398
 20
-161.569466105441
 30
0.0
 10
101.1352565936398
 20
-161.569466105441
 30
0.0
 10
101.0060655129429
 20
-161.5649874813101
 30
0.0
 10
100.9829833731918
 20
-161.5649874813101
 30
0.0
 10
100.7056531866291
 20
-161.5605088571793
 30
0.0
  0
SPLINE
  5
162
330
155
100
AcDbEntity
  8
_U+30EC_U+30A4_U+30E4_U+30FC 1
370
     0
100
AcDbSpline
210
0.0
220
0.0
230
1.0
 70
    11
 71
     3
 72
    23
 73
    19
 74
     0
 42
0.0000000001
 43
0.0000000001
 12
1.0
 22
0.0
 32
0.0
 13
1.0
 23
0.0
 33
0.0
 40
0.0
 40
0.0
 40
0.0
 40
0.0
 40
1.0
 40
1.0
 40
1.0
 40
2.0
 40
2.0
 40
2.0
 40
3.0
 40
3.0
 40
3.0
 40
4.0
 40
4.0
 40
4.0
 40
5.0
 40
5.0
 40
5.0
 40
6.0
 40
6.0
 40
6.0
 40
6.0
 10
99.42166609927654
 20
-161.2097981367809
 30
0.0
 10
99.40478513139881
 20
-161.2497612444098
 30
0.0
 10
99.39823944997683
 20
-161.2666422122875
 30
0.0
 10
99.3772243675168
 20
-161.2666422122875
 30
0.0
 10
99.36241045693023
 20
-161.2666422122875
 30
0.0
 10
99.35173066092597
 20
-161.2497612444098
 30
0.0
 10
99.34552948905251
 20
-161.2370143911144
 30
0.0
 10
99.34552948905251
 20
-161.2370143911144
 30
0.0
 10
99.24596622952879
 20
-161.0719943173709
 30
0.0
 10
99.24596622952879
 20
-161.0719943173709
 30
0.0
 10
99.34759654634367
 20
-161.0402994389066
 30
0.0
 10
99.49780270950055
 20
-160.9851779111426
 30
0.0
 10
99.69658471899947
 20
-160.8225694042388
 30
0.0
 10
99.69658471899947
 20
-160.8225694042388
 30
0.0
 10
99.75377330405462
 20
-160.9958577071469
 30
0.0
 10
99.75377330405462
 20
-160.9958577071469
 30
0.0
 10
99.66075572595287
 20
-161.0781954892443
 30
0.0
 10
99.57187226243343
 20
-161.1353840742995
 30
0.0
 10
99.42166609927654
 20
-161.2097981367809
 30
0.0
  0
SPLINE
  5
163
330
155
100
AcDbEntity
  8
_U+30EC_U+30A4_U+30E4_U+30FC 1
370
     0
100
AcDbSpline
210
0.0
220
0.0
230
1.0
 70
    11
 71
     3
 72
    17
 73
    13
 74
     0
 42
0.0000000001
 43
0.0000000001
 12
1.0
 22
0.0
 32
0.0
 13
1.0
 23
0.0
 33
0.0
 40
0.0
 40
0.0
 40
0.0
 40
0.0
 40
1.0
 40
1.0
 40
1.0
 40
2.0
 40
2.0
 40
2.0
 40
3.0
 40
3.0
 40
3.0
 40
4.0
 40
4.0
 40
4.0
 40
4.0
 10
99.57393931972457
 20
-160.7440212271751
 30
0.0
 10
99.54431149855142
 20
-160.7040581195462
 30
0.0
 10
99.47644311749201
 20
-160.6069064268622
 30
0.0
 10
99.29454207587081
 20
-160.4966633713342
 30
0.0
 10
99.29454207587081
 20
-160.4966633713342
 30
0.0
 10
99.42166609927654
 20
-160.363338176055
 30
0.0
 10
99.42166609927654
 20
-160.363338176055
 30
0.0
 10
99.60770125548002
 20
-160.4649684928699
 30
0.0
 10
99.66488984053517
 20
-160.5538519563893
 30
0.0
 10
99.69245060441717
 20
-160.5958821213094
 30
0.0
 10
99.69245060441717
 20
-160.5958821213094
 30
0.0
 10
99.57393931972457
 20
-160.7440212271751
 30
0.0
 10
99.57393931972457
 20
-160.7440212271751
 30
0.0
  0
SPLINE
  5
164
330
155
100
AcDbEntity
  8
_U+30EC_U+30A4_U+30E4_U+30FC 1
370
     0
100
AcDbSpline
210
0.0
220
0.0
230
1.0
 70
    11
 71
     3
 72
    38
 73
    34
 74
     0
 42
0.0000000001
 43
0.0000000001
 12
1.0
 22
0.0
 32
0.0
 13
1.0
 23
0.0
 33
0.0
 40
0.0
 40
0.0
 40
0.0
 40
0.0
 40
1.0
 40
1.0
 40
1.0
 40
2.0
 40
2.0
 40
2.0
 40
3.0
 40
3.0
 40
3.0
 40
4.0
 40
4.0
 40
4.0
 40
5.0
 40
5.0
 40
5.0
 40
6.0
 40
6.0
 40
6.0
 40
7.0
 40
7.0
 40
7.0
 40
8.0
 40
8.0
 40
8.0
 40
9.0
 40
9.0
 40
9.0
 40
10.0
 40
10.0
 40
10.0
 40
11.0
 40
11.0
 40
11.0
 40
11.0
 10
99.94187551754926
 20
-160.439474786279
 30
0.0
 10
99.9398084602581
 20
-160.4863280848784
 30
0.0
 10
99.93774140296696
 20
-160.6024278027313
 30
0.0
 10
99.93774140296696
 20
-160.6468695344911
 30
0.0
 10
99.93774140296696
 20
-160.6468695344911
 30
0.0
 10
99.93774140296696
 20
-160.9937906498557
 30
0.0
 10
99.93774140296696
 20
-160.9937906498557
 30
0.0
 10
99.93774140296696
 20
-161.080607056084
 30
0.0
 10
99.9398084602581
 20
-161.2222004805278
 30
0.0
 10
99.95048825626239
 20
-161.3427788225115
 30
0.0
 10
99.95048825626239
 20
-161.3427788225115
 30
0.0
 10
99.75997447592806
 20
-161.3427788225115
 30
0.0
 10
99.75997447592806
 20
-161.3427788225115
 30
0.0
 10
99.76445310005889
 20
-161.2793890655829
 30
0.0
 10
99.76858721464119
 20
-161.2263345951101
 30
0.0
 10
99.77065427193234
 20
-161.1715575768946
 30
0.0
 10
99.77272132922349
 20
-161.0485676680712
 30
0.0
 10
99.77478838651464
 20
-161.0340982670332
 30
0.0
 10
99.77478838651464
 20
-160.9893120257249
 30
0.0
 10
99.77478838651464
 20
-160.9893120257249
 30
0.0
 10
99.77478838651464
 20
-160.6682291264996
 30
0.0
 10
99.77478838651464
 20
-160.6682291264996
 30
0.0
 10
99.77478838651464
 20
-160.6131075987356
 30
0.0
 10
99.76204153321922
 20
-160.3740179720593
 30
0.0
 10
99.75997447592806
 20
-160.3230305588776
 30
0.0
 10
99.75997447592806
 20
-160.3230305588776
 30
0.0
 10
99.96116805226666
 20
-160.3505913227596
 30
0.0
 10
99.96116805226666
 20
-160.3505913227596
 30
0.0
 10
99.98218313472668
 20
-160.3526583800507
 30
0.0
 10
100.013878013191
 20
-160.356792494633
 30
0.0
 10
100.013878013191
 20
-160.3822862012239
 30
0.0
 10
100.013878013191
 20
-160.4098469651059
 30
0.0
 10
99.9632351095578
 20
-160.4312065571144
 30
0.0
 10
99.94187551754926
 20
-160.439474786279
 30
0.0
  0
SPLINE
  5
165
330
155
100
AcDbEntity
  8
_U+30EC_U+30A4_U+30E4_U+30FC 1
370
     0
100
AcDbSpline
210
0.0
220
0.0
230
1.0
 70
    11
 71
     3
 72
    83
 73
    79
 74
     0
 42
0.0000000001
 43
0.0000000001
 12
1.0
 22
0.0
 32
0.0
 13
1.0
 23
0.0
 33
0.0
 40
0.0
 40
0.0
 40
0.0
 40
0.0
 40
1.0
 40
1.0
 40
1.0
 40
2.0
 40
2.0
 40
2.0
 40
3.0
 40
3.0
 40
3.0
 40
4.0
 40
4.0
 40
4.0
 40
5.0
 40
5.0
 40
5.0
 40
6.0
 40
6.0
 40
6.0
 40
7.0
 40
7.0
 40
7.0
 40
8.0
 40
8.0
 40
8.0
 40
9.0
 40
9.0
 40
9.0
 40
10.0
 40
10.0
 40
10.0
 40
11.0
 40
11.0
 40
11.0
 40
12.0
 40
12.0
 40
12.0
 40
13.0
 40
13.0
 40
13.0
 40
14.0
 40
14.0
 40
14.0
 40
15.0
 40
15.0
 40
15.0
 40
16.0
 40
16.0
 40
16.0
 40
17.0
 40
17.0
 40
17.0
 40
18.0
 40
18.0
 40
18.0
 40
19.0
 40
19.0
 40
19.0
 40
20.0
 40
20.0
 40
20.0
 40
21.0
 40
21.0
 40
21.0
 40
22.0
 40
22.0
 40
22.0
 40
23.0
 40
23.0
 40
23.0
 40
24.0
 40
24.0
 40
24.0
 40
25.0
 40
25.0
 40
25.0
 40
26.0
 40
26.0
 40
26.0
 40
26.0
 10
100.7438937465154
 20
-160.7612467046014
 30
0.0
 10
100.7438937465154
 20
-160.7612467046014
 30
0.0
 10
100.6463975442828
 20
-160.7612467046014
 30
0.0
 10
100.6463975442828
 20
-160.7612467046014
 30
0.0
 10
100.6463975442828
 20
-160.7612467046014
 30
0.0
 10
100.6463975442828
 20
-161.0086045604423
 30
0.0
 10
100.6463975442828
 20
-161.0086045604423
 30
0.0
 10
100.6463975442828
 20
-161.0086045604423
 30
0.0
 10
100.7290798359288
 20
-161.0086045604423
 30
0.0
 10
100.7290798359288
 20
-161.0086045604423
 30
0.0
 10
100.7945366501486
 20
-161.0086045604423
 30
0.0
 10
100.9340630173012
 20
-161.00447044586
 30
0.0
 10
101.0336262768249
 20
-160.9958577071469
 30
0.0
 10
101.0336262768249
 20
-160.9958577071469
 30
0.0
 10
101.0336262768249
 20
-161.1756916914769
 30
0.0
 10
101.0336262768249
 20
-161.1756916914769
 30
0.0
 10
100.9406086987232
 20
-161.1670789527638
 30
0.0
 10
100.7904025355663
 20
-161.1629448381815
 30
0.0
 10
100.7290798359288
 20
-161.1629448381815
 30
0.0
 10
100.7290798359288
 20
-161.1629448381815
 30
0.0
 10
100.4241888854842
 20
-161.1629448381815
 30
0.0
 10
100.4241888854842
 20
-161.1629448381815
 30
0.0
 10
100.3714789245599
 20
-161.1629448381815
 30
0.0
 10
100.2254068759853
 20
-161.1670789527638
 30
0.0
 10
100.1196424445882
 20
-161.1756916914769
 30
0.0
 10
100.1196424445882
 20
-161.1756916914769
 30
0.0
 10
100.1196424445882
 20
-160.9958577071469
 30
0.0
 10
100.1196424445882
 20
-160.9958577071469
 30
0.0
 10
100.2192057041119
 20
-161.00447044586
 30
0.0
 10
100.3587320712645
 20
-161.0086045604423
 30
0.0
 10
100.4241888854842
 20
-161.0086045604423
 30
0.0
 10
100.4241888854842
 20
-161.0086045604423
 30
0.0
 10
100.468630617244
 20
-161.0086045604423
 30
0.0
 10
100.468630617244
 20
-161.0086045604423
 30
0.0
 10
100.468630617244
 20
-161.0086045604423
 30
0.0
 10
100.468630617244
 20
-160.7612467046014
 30
0.0
 10
100.468630617244
 20
-160.7612467046014
 30
0.0
 10
100.468630617244
 20
-160.7612467046014
 30
0.0
 10
100.3949055738596
 20
-160.7612467046014
 30
0.0
 10
100.3949055738596
 20
-160.7612467046014
 30
0.0
 10
100.3332383646736
 20
-160.7612467046014
 30
0.0
 10
100.166151233639
 20
-160.7653808191837
 30
0.0
 10
100.0455728916553
 20
-160.7736490483483
 30
0.0
 10
100.0455728916553
 20
-160.7736490483483
 30
0.0
 10
100.0455728916553
 20
-160.5958821213094
 30
0.0
 10
100.0455728916553
 20
-160.5958821213094
 30
0.0
 10
100.1599500617656
 20
-160.6024278027313
 30
0.0
 10
100.3184244540871
 20
-160.6069064268622
 30
0.0
 10
100.3949055738596
 20
-160.6069064268622
 30
0.0
 10
100.3949055738596
 20
-160.6069064268622
 30
0.0
 10
100.4665635599528
 20
-160.6069064268622
 30
0.0
 10
100.4665635599528
 20
-160.6069064268622
 30
0.0
 10
100.4624294453705
 20
-160.4542886968656
 30
0.0
 10
100.4603623880794
 20
-160.4205267611102
 30
0.0
 10
100.4538167066574
 20
-160.3271646734599
 30
0.0
 10
100.4538167066574
 20
-160.3271646734599
 30
0.0
 10
100.6656900790002
 20
-160.3505913227596
 30
0.0
 10
100.6656900790002
 20
-160.3505913227596
 30
0.0
 10
100.6908392760426
 20
-160.3526583800507
 30
0.0
 10
100.7142659253423
 20
-160.356792494633
 30
0.0
 10
100.7142659253423
 20
-160.3802191439327
 30
0.0
 10
100.7142659253423
 20
-160.411914022397
 30
0.0
 10
100.6698241935825
 20
-160.4291394998233
 30
0.0
 10
100.6463975442828
 20
-160.4374077289879
 30
0.0
 10
100.6463975442828
 20
-160.4374077289879
 30
0.0
 10
100.6463975442828
 20
-160.6069064268622
 30
0.0
 10
100.6463975442828
 20
-160.6069064268622
 30
0.0
 10
100.6463975442828
 20
-160.6069064268622
 30
0.0
 10
100.7438937465154
 20
-160.6069064268622
 30
0.0
 10
100.7438937465154
 20
-160.6069064268622
 30
0.0
 10
100.8200303567394
 20
-160.6069064268622
 30
0.0
 10
100.9785047490609
 20
-160.6024278027313
 30
0.0
 10
101.0949489764624
 20
-160.5958821213094
 30
0.0
 10
101.0949489764624
 20
-160.5958821213094
 30
0.0
 10
101.0949489764624
 20
-160.7736490483483
 30
0.0
 10
101.0949489764624
 20
-160.7736490483483
 30
0.0
 10
100.9871174877741
 20
-160.7674478764748
 30
0.0
 10
100.8134846753175
 20
-160.7612467046014
 30
0.0
 10
100.7438937465154
 20
-160.7612467046014
 30
0.0
  0
SPLINE
  5
166
330
155
100
AcDbEntity
  8
_U+30EC_U+30A4_U+30E4_U+30FC 1
370
     0
100
AcDbSpline
210
0.0
220
0.0
230
1.0
 70
    11
 71
     3
 72
    17
 73
    13
 74
     0
 42
0.0000000001
 43
0.0000000001
 12
1.0
 22
0.0
 32
0.0
 13
1.0
 23
0.0
 33
0.0
 40
0.0
 40
0.0
 40
0.0
 40
0.0
 40
1.0
 40
1.0
 40
1.0
 40
2.0
 40
2.0
 40
2.0
 40
3.0
 40
3.0
 40
3.0
 40
4.0
 40
4.0
 40
4.0
 40
4.0
 10
100.4982584384171
 20
-161.5584417998882
 30
0.0
 10
100.4982584384171
 20
-161.5584417998882
 30
0.0
 10
100.2953423143359
 20
-161.5584417998882
 30
0.0
 10
100.2953423143359
 20
-161.5584417998882
 30
0.0
 10
100.3229030782179
 20
-161.6176974422345
 30
0.0
 10
100.3776800964334
 20
-161.6900444474247
 30
0.0
 10
100.4052408603154
 20
-161.7193277590493
 30
0.0
 10
100.4328016241974
 20
-161.7045138484628
 30
0.0
 10
100.5471787943077
 20
-161.6411240915342
 30
0.0
 10
100.6381293151182
 20
-161.5584417998882
 30
0.0
 10
100.6381293151182
 20
-161.5584417998882
 30
0.0
 10
100.4982584384171
 20
-161.5584417998882
 30
0.0
 10
100.4982584384171
 20
-161.5584417998882
 30
0.0
  0
HATCH
  5
167
330
155
100
AcDbEntity
  8
_U+30EC_U+30A4_U+30E4_U+30FC 1
 62
   179
420
  2234388
100
AcDbHatch
 10
0.0
 20
0.0
 30
0.0
210
0.0
220
0.0
230
1.0
  2
SOLID
 70
     1
 71
     0
 91
        6
 92
        1
 93
        1
 72
     4
 94
        3
 73
     0
 74
     1
 95
      113
 96
      109
 40
0.0
 40
0.0
 40
0.0
 40
0.0
 40
1.0
 40
1.0
 40
1.0
 40
2.0
 40
2.0
 40
2.0
 40
3.0
 40
3.0
 40
3.0
 40
4.0
 40
4.0
 40
4.0
 40
5.0
 40
5.0
 40
5.0
 40
6.0
 40
6.0
 40
6.0
 40
7.0
 40
7.0
 40
7.0
 40
8.0
 40
8.0
 40
8.0
 40
9.0
 40
9.0
 40
9.0
 40
10.0
 40
10.0
 40
10.0
 40
11.0
 40
11.0
 40
11.0
 40
12.0
 40
12.0
 40
12.0
 40
13.0
 40
13.0
 40
13.0
 40
14.0
 40
14.0
 40
14.0
 40
15.0
 40
15.0
 40
15.0
 40
16.0
 40
16.0
 40
16.0
 40
17.0
 40
17.0
 40
17.0
 40
18.0
 40
18.0
 40
18.0
 40
19.0
 40
19.0
 40
19.0
 40
20.0
 40
20.0
 40
20.0
 40
21.0
 40
21.0
 40
21.0
 40
22.0
 40
22.0
 40
22.0
 40
23.0
 40
23.0
 40
23.0
 40
24.0
 40
24.0
 40
24.0
 40
25.0
 40
25.0
 40
25.0
 40
26.0
 40
26.0
 40
26.0
 40
27.0
 40
27.0
 40
27.0
 40
28.0
 40
28.0
 40
28.0
 40
29.0
 40
29.0
 40
29.0
 40
30.0
 40
30.0
 40
30.0
 40
31.0
 40
31.0
 40
31.0
 40
32.0
 40
32.0
 40
32.0
 40
33.0
 40
33.0
 40
33.0
 40
34.0
 40
34.0
 40
34.0
 40
35.0
 40
35.0
 40
35.0
 40
36.0
 40
36.0
 40
36.0
 40
36.0
 10
100.7056531866291
 20
-161.5605088571793
 10
100.7056531866291
 20
-161.5605088571793
 10
100.8052164461529
 20
-161.6604166262516
 10
100.8052164461529
 20
-161.6604166262516
 10
100.8158962421571
 20
-161.6707519127073
 10
100.8262315286129
 20
-161.6834987660027
 10
100.8262315286129
 20
-161.6983126765893
 10
100.8262315286129
 20
-161.7003797338805
 10
100.8262315286129
 20
-161.7300075550536
 10
100.7883354782751
 20
-161.7300075550536
 10
100.779722739562
 20
-161.7300075550536
 10
100.7394151223846
 20
-161.7258734404713
 10
100.7332139505111
 20
-161.7258734404713
 10
100.6929063333337
 20
-161.7575683189356
 10
100.6463975442828
 20
-161.7913302546911
 10
100.5471787943077
 20
-161.8485188397462
 10
100.6929063333337
 20
-161.9563503284345
 10
100.8517252352037
 20
-162.0135389134897
 10
101.1245767976355
 20
-162.0517794733759
 10
101.1245767976355
 20
-162.0517794733759
 10
100.9743706344786
 20
-162.2271348335752
 10
100.9743706344786
 20
-162.2271348335752
 10
100.7121988680511
 20
-162.1551323379335
 10
100.5554470234723
 20
-162.066248874414
 10
100.4793104132482
 20
-162.0135389134897
 10
100.3291042500913
 20
-161.9119085966748
 10
100.1854437683564
 20
-161.7489555802225
 10
100.1093071581324
 20
-161.583935506479
 10
100.041438777073
 20
-161.6493923206988
 10
99.9673692241401
 20
-161.7024467911716
 10
99.88916555662493
 20
-161.7513671470622
 10
99.88916555662493
 20
-161.7513671470622
 10
99.88916555662493
 20
-162.0028591174854
 10
99.88916555662493
 20
-162.0028591174854
 10
100.0521185730773
 20
-161.9773654108945
 10
100.2381537292807
 20
-161.9332681886834
 10
100.3015434862093
 20
-161.9181097685482
 10
100.3015434862093
 20
-161.9181097685482
 10
100.2719156650362
 20
-162.0876084664226
 10
100.2719156650362
 20
-162.0876084664226
 10
100.269848607745
 20
-162.0876084664226
 10
100.2509005825762
 20
-162.093809638296
 10
100.248833525285
 20
-162.093809638296
 10
100.0500515157861
 20
-162.1317056886338
 10
99.7327582215946
 20
-162.197507012402
 10
99.5356987598383
 20
-162.2336805149971
 10
99.52536347338255
 20
-162.2502169733263
 10
99.50193682408285
 20
-162.2819118517907
 10
99.47885468433168
 20
-162.2819118517907
 10
99.45129392044969
 20
-162.2819118517907
 10
99.44715980586739
 20
-162.2633083361703
 10
99.4447482390277
 20
-162.2440158014529
 10
99.4447482390277
 20
-162.2440158014529
 10
99.41959904198538
 20
-162.0703829889963
 10
99.41959904198538
 20
-162.0703829889963
 10
99.49366859491825
 20
-162.0621147598317
 10
99.60150008360658
 20
-162.0493679065363
 10
99.7093315722949
 20
-162.0283528240763
 10
99.7093315722949
 20
-162.0283528240763
 10
99.7093315722949
 20
-161.8505858970373
 10
99.7093315722949
 20
-161.8505858970373
 10
99.56532658101145
 20
-161.9225883926791
 10
99.47024194561855
 20
-161.9518717043037
 10
99.30522187187509
 20
-161.9814995254769
 10
99.30522187187509
 20
-161.9814995254769
 10
99.18464352989135
 20
-161.8126898466996
 10
99.18464352989135
 20
-161.8126898466996
 10
99.50193682408285
 20
-161.7851290828176
 10
99.69451766170832
 20
-161.6921115047159
 10
99.8722845887472
 20
-161.5584417998882
 10
99.72621254017263
 20
-161.5584417998882
 10
99.42580021385884
 20
-161.562920424019
 10
99.22908526165106
 20
-161.569466105441
 10
99.22908526165106
 20
-161.569466105441
 10
99.22908526165106
 20
-161.3916991784021
 10
99.22908526165106
 20
-161.3916991784021
 10
99.38342553939026
 20
-161.3979003502755
 10
99.67970375112175
 20
-161.404101522149
 10
99.86367185003408
 20
-161.404101522149
 10
99.86367185003408
 20
-161.404101522149
 10
100.0752007128284
 20
-161.404101522149
 10
100.0752007128284
 20
-161.404101522149
 10
100.0752007128284
 20
-161.3090168867561
 10
100.0731336555373
 20
-161.2580294735744
 10
100.0669324836638
 20
-161.211865194072
 10
100.0669324836638
 20
-161.211865194072
 10
100.2825954610405
 20
-161.2284016524012
 10
100.2825954610405
 20
-161.2284016524012
 10
100.3311713073825
 20
-161.2328802765321
 10
100.3397840460956
 20
-161.2476941871186
 10
100.3397840460956
 20
-161.2625080977052
 10
100.3397840460956
 20
-161.2876572947475
 10
100.3229030782179
 20
-161.2962700334607
 10
100.2719156650362
 20
-161.3217637400515
 10
100.269848607745
 20
-161.3469129370938
 10
100.269848607745
 20
-161.3534586185158
 10
100.2677815504539
 20
-161.404101522149
 10
100.2677815504539
 20
-161.404101522149
 10
100.4982584384171
 20
-161.404101522149
 10
100.4982584384171
 20
-161.404101522149
 10
100.6632785121606
 20
-161.404101522149
 10
100.9554226093098
 20
-161.3979003502755
 10
101.1352565936398
 20
-161.3916991784021
 10
101.1352565936398
 20
-161.3916991784021
 10
101.1352565936398
 20
-161.569466105441
 10
101.1352565936398
 20
-161.569466105441
 10
101.0060655129429
 20
-161.5649874813101
 10
100.9829833731918
 20
-161.5649874813101
 10
100.7056531866291
 20
-161.5605088571793
 97
        0
 97
        0
 92
        1
 93
        1
 72
     4
 94
        3
 73
     0
 74
     1
 95
       23
 96
       19
 40
0.0
 40
0.0
 40
0.0
 40
0.0
 40
1.0
 40
1.0
 40
1.0
 40
2.0
 40
2.0
 40
2.0
 40
3.0
 40
3.0
 40
3.0
 40
4.0
 40
4.0
 40
4.0
 40
5.0
 40
5.0
 40
5.0
 40
6.0
 40
6.0
 40
6.0
 40
6.0
 10
99.42166609927654
 20
-161.2097981367809
 10
99.40478513139881
 20
-161.2497612444098
 10
99.39823944997683
 20
-161.2666422122875
 10
99.3772243675168
 20
-161.2666422122875
 10
99.36241045693023
 20
-161.2666422122875
 10
99.35173066092597
 20
-161.2497612444098
 10
99.34552948905251
 20
-161.2370143911144
 10
99.34552948905251
 20
-161.2370143911144
 10
99.24596622952879
 20
-161.0719943173709
 10
99.24596622952879
 20
-161.0719943173709
 10
99.34759654634367
 20
-161.0402994389066
 10
99.49780270950055
 20
-160.9851779111426
 10
99.69658471899947
 20
-160.8225694042388
 10
99.69658471899947
 20
-160.8225694042388
 10
99.75377330405462
 20
-160.9958577071469
 10
99.75377330405462
 20
-160.9958577071469
 10
99.66075572595287
 20
-161.0781954892443
 10
99.57187226243343
 20
-161.1353840742995
 10
99.42166609927654
 20
-161.2097981367809
 97
        0
 97
        0
 92
        1
 93
        1
 72
     4
 94
        3
 73
     0
 74
     1
 95
       17
 96
       13
 40
0.0
 40
0.0
 40
0.0
 40
0.0
 40
1.0
 40
1.0
 40
1.0
 40
2.0
 40
2.0
 40
2.0
 40
3.0
 40
3.0
 40
3.0
 40
4.0
 40
4.0
 40
4.0
 40
4.0
 10
99.57393931972457
 20
-160.7440212271751
 10
99.54431149855142
 20
-160.7040581195462
 10
99.47644311749201
 20
-160.6069064268622
 10
99.29454207587081
 20
-160.4966633713342
 10
99.29454207587081
 20
-160.4966633713342
 10
99.42166609927654
 20
-160.363338176055
 10
99.42166609927654
 20
-160.363338176055
 10
99.60770125548002
 20
-160.4649684928699
 10
99.66488984053517
 20
-160.5538519563893
 10
99.69245060441717
 20
-160.5958821213094
 10
99.69245060441717
 20
-160.5958821213094
 10
99.57393931972457
 20
-160.7440212271751
 10
99.57393931972457
 20
-160.7440212271751
 97
        0
 97
        0
 92
        1
 93
        1
 72
     4
 94
        3
 73
     0
 74
     1
 95
       38
 96
       34
 40
0.0
 40
0.0
 40
0.0
 40
0.0
 40
1.0
 40
1.0
 40
1.0
 40
2.0
 40
2.0
 40
2.0
 40
3.0
 40
3.0
 40
3.0
 40
4.0
 40
4.0
 40
4.0
 40
5.0
 40
5.0
 40
5.0
 40
6.0
 40
6.0
 40
6.0
 40
7.0
 40
7.0
 40
7.0
 40
8.0
 40
8.0
 40
8.0
 40
9.0
 40
9.0
 40
9.0
 40
10.0
 40
10.0
 40
10.0
 40
11.0
 40
11.0
 40
11.0
 40
11.0
 10
99.94187551754926
 20
-160.439474786279
 10
99.9398084602581
 20
-160.4863280848784
 10
99.93774140296696
 20
-160.6024278027313
 10
99.93774140296696
 20
-160.6468695344911
 10
99.93774140296696
 20
-160.6468695344911
 10
99.93774140296696
 20
-160.9937906498557
 10
99.93774140296696
 20
-160.9937906498557
 10
99.93774140296696
 20
-161.080607056084
 10
99.9398084602581
 20
-161.2222004805278
 10
99.95048825626239
 20
-161.3427788225115
 10
99.95048825626239
 20
-161.3427788225115
 10
99.75997447592806
 20
-161.3427788225115
 10
99.75997447592806
 20
-161.3427788225115
 10
99.76445310005889
 20
-161.2793890655829
 10
99.76858721464119
 20
-161.2263345951101
 10
99.77065427193234
 20
-161.1715575768946
 10
99.77272132922349
 20
-161.0485676680712
 10
99.77478838651464
 20
-161.0340982670332
 10
99.77478838651464
 20
-160.9893120257249
 10
99.77478838651464
 20
-160.9893120257249
 10
99.77478838651464
 20
-160.6682291264996
 10
99.77478838651464
 20
-160.6682291264996
 10
99.77478838651464
 20
-160.6131075987356
 10
99.76204153321922
 20
-160.3740179720593
 10
99.75997447592806
 20
-160.3230305588776
 10
99.75997447592806
 20
-160.3230305588776
 10
99.96116805226666
 20
-160.3505913227596
 10
99.96116805226666
 20
-160.3505913227596
 10
99.98218313472668
 20
-160.3526583800507
 10
100.013878013191
 20
-160.356792494633
 10
100.013878013191
 20
-160.3822862012239
 10
100.013878013191
 20
-160.4098469651059
 10
99.9632351095578
 20
-160.4312065571144
 10
99.94187551754926
 20
-160.439474786279
 97
        0
 97
        0
 92
        1
 93
        1
 72
     4
 94
        3
 73
     0
 74
     1
 95
       83
 96
       79
 40
0.0
 40
0.0
 40
0.0
 40
0.0
 40
1.0
 40
1.0
 40
1.0
 40
2.0
 40
2.0
 40
2.0
 40
3.0
 40
3.0
 40
3.0
 40
4.0
 40
4.0
 40
4.0
 40
5.0
 40
5.0
 40
5.0
 40
6.0
 40
6.0
 40
6.0
 40
7.0
 40
7.0
 40
7.0
 40
8.0
 40
8.0
 40
8.0
 40
9.0
 40
9.0
 40
9.0
 40
10.0
 40
10.0
 40
10.0
 40
11.0
 40
11.0
 40
11.0
 40
12.0
 40
12.0
 40
12.0
 40
13.0
 40
13.0
 40
13.0
 40
14.0
 40
14.0
 40
14.0
 40
15.0
 40
15.0
 40
15.0
 40
16.0
 40
16.0
 40
16.0
 40
17.0
 40
17.0
 40
17.0
 40
18.0
 40
18.0
 40
18.0
 40
19.0
 40
19.0
 40
19.0
 40
20.0
 40
20.0
 40
20.0
 40
21.0
 40
21.0
 40
21.0
 40
22.0
 40
22.0
 40
22.0
 40
23.0
 40
23.0
 40
23.0
 40
24.0
 40
24.0
 40
24.0
 40
25.0
 40
25.0
 40
25.0
 40
26.0
 40
26.0
 40
26.0
 40
26.0
 10
100.7438937465154
 20
-160.7612467046014
 10
100.7438937465154
 20
-160.7612467046014
 10
100.6463975442828
 20
-160.7612467046014
 10
100.6463975442828
 20
-160.7612467046014
 10
100.6463975442828
 20
-160.7612467046014
 10
100.6463975442828
 20
-161.0086045604423
 10
100.6463975442828
 20
-161.0086045604423
 10
100.6463975442828
 20
-161.0086045604423
 10
100.7290798359288
 20
-161.0086045604423
 10
100.7290798359288
 20
-161.0086045604423
 10
100.7945366501486
 20
-161.0086045604423
 10
100.9340630173012
 20
-161.00447044586
 10
101.0336262768249
 20
-160.9958577071469
 10
101.0336262768249
 20
-160.9958577071469
 10
101.0336262768249
 20
-161.1756916914769
 10
101.0336262768249
 20
-161.1756916914769
 10
100.9406086987232
 20
-161.1670789527638
 10
100.7904025355663
 20
-161.1629448381815
 10
100.7290798359288
 20
-161.1629448381815
 10
100.7290798359288
 20
-161.1629448381815
 10
100.4241888854842
 20
-161.1629448381815
 10
100.4241888854842
 20
-161.1629448381815
 10
100.3714789245599
 20
-161.1629448381815
 10
100.2254068759853
 20
-161.1670789527638
 10
100.1196424445882
 20
-161.1756916914769
 10
100.1196424445882
 20
-161.1756916914769
 10
100.1196424445882
 20
-160.9958577071469
 10
100.1196424445882
 20
-160.9958577071469
 10
100.2192057041119
 20
-161.00447044586
 10
100.3587320712645
 20
-161.0086045604423
 10
100.4241888854842
 20
-161.0086045604423
 10
100.4241888854842
 20
-161.0086045604423
 10
100.468630617244
 20
-161.0086045604423
 10
100.468630617244
 20
-161.0086045604423
 10
100.468630617244
 20
-161.0086045604423
 10
100.468630617244
 20
-160.7612467046014
 10
100.468630617244
 20
-160.7612467046014
 10
100.468630617244
 20
-160.7612467046014
 10
100.3949055738596
 20
-160.7612467046014
 10
100.3949055738596
 20
-160.7612467046014
 10
100.3332383646736
 20
-160.7612467046014
 10
100.166151233639
 20
-160.7653808191837
 10
100.0455728916553
 20
-160.7736490483483
 10
100.0455728916553
 20
-160.7736490483483
 10
100.0455728916553
 20
-160.5958821213094
 10
100.0455728916553
 20
-160.5958821213094
 10
100.1599500617656
 20
-160.6024278027313
 10
100.3184244540871
 20
-160.6069064268622
 10
100.3949055738596
 20
-160.6069064268622
 10
100.3949055738596
 20
-160.6069064268622
 10
100.4665635599528
 20
-160.6069064268622
 10
100.4665635599528
 20
-160.6069064268622
 10
100.4624294453705
 20
-160.4542886968656
 10
100.4603623880794
 20
-160.4205267611102
 10
100.4538167066574
 20
-160.3271646734599
 10
100.4538167066574
 20
-160.3271646734599
 10
100.6656900790002
 20
-160.3505913227596
 10
100.6656900790002
 20
-160.3505913227596
 10
100.6908392760426
 20
-160.3526583800507
 10
100.7142659253423
 20
-160.356792494633
 10
100.7142659253423
 20
-160.3802191439327
 10
100.7142659253423
 20
-160.411914022397
 10
100.6698241935825
 20
-160.4291394998233
 10
100.6463975442828
 20
-160.4374077289879
 10
100.6463975442828
 20
-160.4374077289879
 10
100.6463975442828
 20
-160.6069064268622
 10
100.6463975442828
 20
-160.6069064268622
 10
100.6463975442828
 20
-160.6069064268622
 10
100.7438937465154
 20
-160.6069064268622
 10
100.7438937465154
 20
-160.6069064268622
 10
100.8200303567394
 20
-160.6069064268622
 10
100.9785047490609
 20
-160.6024278027313
 10
101.0949489764624
 20
-160.5958821213094
 10
101.0949489764624
 20
-160.5958821213094
 10
101.0949489764624
 20
-160.7736490483483
 10
101.0949489764624
 20
-160.7736490483483
 10
100.9871174877741
 20
-160.7674478764748
 10
100.8134846753175
 20
-160.7612467046014
 10
100.7438937465154
 20
-160.7612467046014
 97
        0
 97
        0
 92
        1
 93
        1
 72
     4
 94
        3
 73
     0
 74
     1
 95
       17
 96
       13
 40
0.0
 40
0.0
 40
0.0
 40
0.0
 40
1.0
 40
1.0
 40
1.0
 40
2.0
 40
2.0
 40
2.0
 40
3.0
 40
3.0
 40
3.0
 40
4.0
 40
4.0
 40
4.0
 40
4.0
 10
100.4982584384171
 20
-161.5584417998882
 10
100.4982584384171
 20
-161.5584417998882
 10
100.2953423143359
 20
-161.5584417998882
 10
100.2953423143359
 20
-161.5584417998882
 10
100.3229030782179
 20
-161.6176974422345
 10
100.3776800964334
 20
-161.6900444474247
 10
100.4052408603154
 20
-161.7193277590493
 10
100.4328016241974
 20
-161.7045138484628
 10
100.5471787943077
 20
-161.6411240915342
 10
100.6381293151182
 20
-161.5584417998882
 10
100.6381293151182
 20
-161.5584417998882
 10
100.4982584384171
 20
-161.5584417998882
 10
100.4982584384171
 20
-161.5584417998882
 97
        0
 97
        0
 75
     2
 76
     1
 98
        0
  0
SPLINE
  5
168
330
155
100
AcDbEntity
  8
_U+30EC_U+30A4_U+30E4_U+30FC 1
370
     0
100
AcDbSpline
210
0.0
220
0.0
230
1.0
 70
    11
 71
     3
 72
    77
 73
    73
 74
     0
 42
0.0000000001
 43
0.0000000001
 12
1.0
 22
0.0
 32
0.0
 13
1.0
 23
0.0
 33
0.0
 40
0.0
 40
0.0
 40
0.0
 40
0.0
 40
1.0
 40
1.0
 40
1.0
 40
2.0
 40
2.0
 40
2.0
 40
3.0
 40
3.0
 40
3.0
 40
4.0
 40
4.0
 40
4.0
 40
5.0
 40
5.0
 40
5.0
 40
6.0
 40
6.0
 40
6.0
 40
7.0
 40
7.0
 40
7.0
 40
8.0
 40
8.0
 40
8.0
 40
9.0
 40
9.0
 40
9.0
 40
10.0
 40
10.0
 40
10.0
 40
11.0
 40
11.0
 40
11.0
 40
12.0
 40
12.0
 40
12.0
 40
13.0
 40
13.0
 40
13.0
 40
14.0
 40
14.0
 40
14.0
 40
15.0
 40
15.0
 40
15.0
 40
16.0
 40
16.0
 40
16.0
 40
17.0
 40
17.0
 40
17.0
 40
18.0
 40
18.0
 40
18.0
 40
19.0
 40
19.0
 40
19.0
 40
20.0
 40
20.0
 40
20.0
 40
21.0
 40
21.0
 40
21.0
 40
22.0
 40
22.0
 40
22.0
 40
23.0
 40
23.0
 40
23.0
 40
24.0
 40
24.0
 40
24.0
 40
24.0
 10
102.9894069838013
 20
-162.1888942736889
 30
0.0
 10
102.9428981947504
 20
-162.2143879802798
 30
0.0
 10
102.8181857381844
 20
-162.2271348335752
 30
0.0
 10
102.7396375611206
 20
-162.2271348335752
 30
0.0
 10
102.7272352173737
 20
-162.2271348335752
 30
0.0
 10
102.7017415107829
 20
-162.2271348335752
 30
0.0
 10
102.6679795750275
 20
-162.2226562094444
 30
0.0
 10
102.6679795750275
 20
-162.2226562094444
 30
0.0
 10
102.5704833727949
 20
-161.996657945612
 30
0.0
 10
102.5704833727949
 20
-161.996657945612
 30
0.0
 10
102.600111193968
 20
-162.0028591174854
 30
0.0
 10
102.6572997790232
 20
-162.01112734665
 30
0.0
 10
102.7737440064246
 20
-162.01112734665
 30
0.0
 10
102.8519476739398
 20
-162.01112734665
 30
0.0
 10
102.8540147312309
 20
-161.9690971817299
 30
0.0
 10
102.8540147312309
 20
-161.9119085966748
 30
0.0
 10
102.8540147312309
 20
-161.9119085966748
 30
0.0
 10
102.8540147312309
 20
-161.562920424019
 30
0.0
 10
102.8540147312309
 20
-161.562920424019
 30
0.0
 10
102.8540147312309
 20
-161.562920424019
 30
0.0
 10
102.3947835030471
 20
-161.562920424019
 30
0.0
 10
102.3947835030471
 20
-161.562920424019
 30
0.0
 10
102.3971950698868
 20
-161.7003797338805
 30
0.0
 10
102.399262127178
 20
-161.8991617433794
 30
0.0
 10
102.4054632990514
 20
-162.0324869386586
 30
0.0
 10
102.4075303563426
 20
-162.0600477025405
 30
0.0
 10
102.4075303563426
 20
-162.1044894343003
 30
0.0
 10
102.420277209638
 20
-162.1658121339377
 30
0.0
 10
102.420277209638
 20
-162.1658121339377
 30
0.0
 10
102.1791205256705
 20
-162.1658121339377
 30
0.0
 10
102.1791205256705
 20
-162.1658121339377
 30
0.0
 10
102.2046142322613
 20
-162.0407551678232
 30
0.0
 10
102.2046142322613
 20
-161.7003797338805
 30
0.0
 10
102.2046142322613
 20
-161.562920424019
 30
0.0
 10
102.2046142322613
 20
-161.562920424019
 30
0.0
 10
101.7622639719553
 20
-161.562920424019
 30
0.0
 10
101.7622639719553
 20
-161.562920424019
 30
0.0
 10
101.7391818322041
 20
-161.7699706626825
 30
0.0
 10
101.6737250179844
 20
-162.038688110532
 30
0.0
 10
101.4766655562281
 20
-162.2226562094444
 30
0.0
 10
101.4766655562281
 20
-162.2226562094444
 30
0.0
 10
101.2885633427334
 20
-162.1000108101694
 30
0.0
 10
101.2885633427334
 20
-162.1000108101694
 30
0.0
 10
101.5424668799963
 20
-161.8802137182105
 30
0.0
 10
101.5741617584606
 20
-161.5481065134324
 30
0.0
 10
101.5741617584606
 20
-161.2159993086543
 30
0.0
 10
101.5741617584606
 20
-161.2159993086543
 30
0.0
 10
101.5741617584606
 20
-160.7801947297702
 30
0.0
 10
101.5741617584606
 20
-160.7801947297702
 30
0.0
 10
101.5741617584606
 20
-160.7440212271751
 30
0.0
 10
101.5720947011695
 20
-160.5114772819207
 30
0.0
 10
101.5634819624564
 20
-160.4098469651059
 30
0.0
 10
101.7033528391575
 20
-160.4205267611102
 30
0.0
 10
101.944509523125
 20
-160.4205267611102
 30
0.0
 10
102.0881700048599
 20
-160.4205267611102
 30
0.0
 10
102.0881700048599
 20
-160.4205267611102
 30
0.0
 10
102.5474012330437
 20
-160.4205267611102
 30
0.0
 10
102.5474012330437
 20
-160.4205267611102
 30
0.0
 10
102.5622151436303
 20
-160.4205267611102
 30
0.0
 10
102.9112033162861
 20
-160.4205267611102
 30
0.0
 10
103.0696777086076
 20
-160.4098469651059
 30
0.0
 10
103.0676106513164
 20
-160.4629014355787
 30
0.0
 10
103.061409479443
 20
-160.6234428851914
 30
0.0
 10
103.061409479443
 20
-160.6744302983731
 30
0.0
 10
103.061409479443
 20
-160.6744302983731
 30
0.0
 10
103.061409479443
 20
-161.2814561228741
 30
0.0
 10
103.061409479443
 20
-161.2814561228741
 30
0.0
 10
103.061409479443
 20
-161.3007486575915
 30
0.0
 10
103.0717447658987
 20
-161.8719454890459
 30
0.0
 10
103.0717447658987
 20
-161.9839110923165
 30
0.0
 10
103.0717447658987
 20
-162.0407551678232
 30
0.0
 10
103.0717447658987
 20
-162.1427299941865
 30
0.0
 10
102.9894069838013
 20
-162.1888942736889
 30
0.0
  0
POLYLINE
  5
169
330
155
100
AcDbEntity
  8
_U+30EC_U+30A4_U+30E4_U+30FC 1
370
     0
100
AcDb2dPolyline
 66
     1
 10
0.0
 20
0.0
 30
0.0
  0
VERTEX
  5
16A
330
169
100
AcDbEntity
  8
_U+30EC_U+30A4_U+30E4_U+30FC 1
370
     0
100
AcDbVertex
100
AcDb2dVertex
 10
102.2046142322613
 20
-160.6024278027313
 30
0.0
  0
VERTEX
  5
16B
330
169
100
AcDbEntity
  8
_U+30EC_U+30A4_U+30E4_U+30FC 1
370
     0
100
AcDbVertex
100
AcDb2dVertex
 10
101.7667425960861
 20
-160.6024278027313
 30
0.0
  0
VERTEX
  5
16C
330
169
100
AcDbEntity
  8
_U+30EC_U+30A4_U+30E4_U+30FC 1
370
     0
100
AcDbVertex
100
AcDb2dVertex
 10
101.7667425960861
 20
-160.9069742436274
 30
0.0
  0
VERTEX
  5
16D
330
169
100
AcDbEntity
  8
_U+30EC_U+30A4_U+30E4_U+30FC 1
370
     0
100
AcDbVertex
100
AcDb2dVertex
 10
102.2046142322613
 20
-160.9069742436274
 30
0.0
  0
VERTEX
  5
16E
330
169
100
AcDbEntity
  8
_U+30EC_U+30A4_U+30E4_U+30FC 1
370
     0
100
AcDbVertex
100
AcDb2dVertex
 10
102.2046142322613
 20
-160.6024278027313
 30
0.0
  0
SEQEND
  5
16F
330
169
100
AcDbEntity
  8
_U+30EC_U+30A4_U+30E4_U+30FC 1
370
     0
  0
POLYLINE
  5
170
330
155
100
AcDbEntity
  8
_U+30EC_U+30A4_U+30E4_U+30FC 1
370
     0
100
AcDb2dPolyline
 66
     1
 10
0.0
 20
0.0
 30
0.0
  0
VERTEX
  5
171
330
170
100
AcDbEntity
  8
_U+30EC_U+30A4_U+30E4_U+30FC 1
370
     0
100
AcDbVertex
100
AcDb2dVertex
 10
102.2046142322613
 20
-161.0740613746621
 30
0.0
  0
VERTEX
  5
172
330
170
100
AcDbEntity
  8
_U+30EC_U+30A4_U+30E4_U+30FC 1
370
     0
100
AcDbVertex
100
AcDb2dVertex
 10
101.7667425960861
 20
-161.0740613746621
 30
0.0
  0
VERTEX
  5
173
330
170
100
AcDbEntity
  8
_U+30EC_U+30A4_U+30E4_U+30FC 1
370
     0
100
AcDbVertex
100
AcDb2dVertex
 10
101.7667425960861
 20
-161.383086439689
 30
0.0
  0
VERTEX
  5
174
330
170
100
AcDbEntity
  8
_U+30EC_U+30A4_U+30E4_U+30FC 1
370
     0
100
AcDbVertex
100
AcDb2dVertex
 10
102.2046142322613
 20
-161.383086439689
 30
0.0
  0
VERTEX
  5
175
330
170
100
AcDbEntity
  8
_U+30EC_U+30A4_U+30E4_U+30FC 1
370
     0
100
AcDbVertex
100
AcDb2dVertex
 10
102.2046142322613
 20
-161.0740613746621
 30
0.0
  0
SEQEND
  5
176
330
170
100
AcDbEntity
  8
_U+30EC_U+30A4_U+30E4_U+30FC 1
370
     0
  0
POLYLINE
  5
177
330
155
100
AcDbEntity
  8
_U+30EC_U+30A4_U+30E4_U+30FC 1
370
     0
100
AcDb2dPolyline
 66
     1
 10
0.0
 20
0.0
 30
0.0
  0
VERTEX
  5
178
330
177
100
AcDbEntity
  8
_U+30EC_U+30A4_U+30E4_U+30FC 1
370
     0
100
AcDbVertex
100
AcDb2dVertex
 10
102.8540147312309
 20
-160.6024278027313
 30
0.0
  0
VERTEX
  5
179
330
177
100
AcDbEntity
  8
_U+30EC_U+30A4_U+30E4_U+30FC 1
370
     0
100
AcDbVertex
100
AcDb2dVertex
 10
102.3947835030471
 20
-160.6024278027313
 30
0.0
  0
VERTEX
  5
17A
330
177
100
AcDbEntity
  8
_U+30EC_U+30A4_U+30E4_U+30FC 1
370
     0
100
AcDbVertex
100
AcDb2dVertex
 10
102.3947835030471
 20
-160.9069742436274
 30
0.0
  0
VERTEX
  5
17B
330
177
100
AcDbEntity
  8
_U+30EC_U+30A4_U+30E4_U+30FC 1
370
     0
100
AcDbVertex
100
AcDb2dVertex
 10
102.8540147312309
 20
-160.9069742436274
 30
0.0
  0
VERTEX
  5
17C
330
177
100
AcDbEntity
  8
_U+30EC_U+30A4_U+30E4_U+30FC 1
370
     0
100
AcDbVertex
100
AcDb2dVertex
 10
102.8540147312309
 20
-160.6024278027313
 30
0.0
  0
SEQEND
  5
17D
330
177
100
AcDbEntity
  8
_U+30EC_U+30A4_U+30E4_U+30FC 1
370
     0
  0
POLYLINE
  5
17E
330
155
100
AcDbEntity
  8
_U+30EC_U+30A4_U+30E4_U+30FC 1
370
     0
100
AcDb2dPolyline
 66
     1
 10
0.0
 20
0.0
 30
0.0
  0
VERTEX
  5
17F
330
17E
100
AcDbEntity
  8
_U+30EC_U+30A4_U+30E4_U+30FC 1
370
     0
100
AcDbVertex
100
AcDb2dVertex
 10
102.8540147312309
 20
-161.0740613746621
 30
0.0
  0
VERTEX
  5
180
330
17E
100
AcDbEntity
  8
_U+30EC_U+30A4_U+30E4_U+30FC 1
370
     0
100
AcDbVertex
100
AcDb2dVertex
 10
102.3947835030471
 20
-161.0740613746621
 30
0.0
  0
VERTEX
  5
181
330
17E
100
AcDbEntity
  8
_U+30EC_U+30A4_U+30E4_U+30FC 1
370
     0
100
AcDbVertex
100
AcDb2dVertex
 10
102.3947835030471
 20
-161.383086439689
 30
0.0
  0
VERTEX
  5
182
330
17E
100
AcDbEntity
  8
_U+30EC_U+30A4_U+30E4_U+30FC 1
370
     0
100
AcDbVertex
100
AcDb2dVertex
 10
102.8540147312309
 20
-161.383086439689
 30
0.0
  0
VERTEX
  5
183
330
17E
100
AcDbEntity
  8
_U+30EC_U+30A4_U+30E4_U+30FC 1
370
     0
100
AcDbVertex
100
AcDb2dVertex
 10
102.8540147312309
 20
-161.0740613746621
 30
0.0
  0
SEQEND
  5
184
330
17E
100
AcDbEntity
  8
_U+30EC_U+30A4_U+30E4_U+30FC 1
370
     0
  0
HATCH
  5
185
330
155
100
AcDbEntity
  8
_U+30EC_U+30A4_U+30E4_U+30FC 1
 62
   179
420
  2234388
100
AcDbHatch
 10
0.0
 20
0.0
 30
0.0
210
0.0
220
0.0
230
1.0
  2
SOLID
 70
     1
 71
     0
 91
        5
 92
        1
 93
        1
 72
     4
 94
        3
 73
     0
 74
     1
 95
       77
 96
       73
 40
0.0
 40
0.0
 40
0.0
 40
0.0
 40
1.0
 40
1.0
 40
1.0
 40
2.0
 40
2.0
 40
2.0
 40
3.0
 40
3.0
 40
3.0
 40
4.0
 40
4.0
 40
4.0
 40
5.0
 40
5.0
 40
5.0
 40
6.0
 40
6.0
 40
6.0
 40
7.0
 40
7.0
 40
7.0
 40
8.0
 40
8.0
 40
8.0
 40
9.0
 40
9.0
 40
9.0
 40
10.0
 40
10.0
 40
10.0
 40
11.0
 40
11.0
 40
11.0
 40
12.0
 40
12.0
 40
12.0
 40
13.0
 40
13.0
 40
13.0
 40
14.0
 40
14.0
 40
14.0
 40
15.0
 40
15.0
 40
15.0
 40
16.0
 40
16.0
 40
16.0
 40
17.0
 40
17.0
 40
17.0
 40
18.0
 40
18.0
 40
18.0
 40
19.0
 40
19.0
 40
19.0
 40
20.0
 40
20.0
 40
20.0
 40
21.0
 40
21.0
 40
21.0
 40
22.0
 40
22.0
 40
22.0
 40
23.0
 40
23.0
 40
23.0
 40
24.0
 40
24.0
 40
24.0
 40
24.0
 10
102.9894069838013
 20
-162.1888942736889
 10
102.9428981947504
 20
-162.2143879802798
 10
102.8181857381844
 20
-162.2271348335752
 10
102.7396375611206
 20
-162.2271348335752
 10
102.7272352173737
 20
-162.2271348335752
 10
102.7017415107829
 20
-162.2271348335752
 10
102.6679795750275
 20
-162.2226562094444
 10
102.6679795750275
 20
-162.2226562094444
 10
102.5704833727949
 20
-161.996657945612
 10
102.5704833727949
 20
-161.996657945612
 10
102.600111193968
 20
-162.0028591174854
 10
102.6572997790232
 20
-162.01112734665
 10
102.7737440064246
 20
-162.01112734665
 10
102.8519476739398
 20
-162.01112734665
 10
102.8540147312309
 20
-161.9690971817299
 10
102.8540147312309
 20
-161.9119085966748
 10
102.8540147312309
 20
-161.9119085966748
 10
102.8540147312309
 20
-161.562920424019
 10
102.8540147312309
 20
-161.562920424019
 10
102.8540147312309
 20
-161.562920424019
 10
102.3947835030471
 20
-161.562920424019
 10
102.3947835030471
 20
-161.562920424019
 10
102.3971950698868
 20
-161.7003797338805
 10
102.399262127178
 20
-161.8991617433794
 10
102.4054632990514
 20
-162.0324869386586
 10
102.4075303563426
 20
-162.0600477025405
 10
102.4075303563426
 20
-162.1044894343003
 10
102.420277209638
 20
-162.1658121339377
 10
102.420277209638
 20
-162.1658121339377
 10
102.1791205256705
 20
-162.1658121339377
 10
102.1791205256705
 20
-162.1658121339377
 10
102.2046142322613
 20
-162.0407551678232
 10
102.2046142322613
 20
-161.7003797338805
 10
102.2046142322613
 20
-161.562920424019
 10
102.2046142322613
 20
-161.562920424019
 10
101.7622639719553
 20
-161.562920424019
 10
101.7622639719553
 20
-161.562920424019
 10
101.7391818322041
 20
-161.7699706626825
 10
101.6737250179844
 20
-162.038688110532
 10
101.4766655562281
 20
-162.2226562094444
 10
101.4766655562281
 20
-162.2226562094444
 10
101.2885633427334
 20
-162.1000108101694
 10
101.2885633427334
 20
-162.1000108101694
 10
101.5424668799963
 20
-161.8802137182105
 10
101.5741617584606
 20
-161.5481065134324
 10
101.5741617584606
 20
-161.2159993086543
 10
101.5741617584606
 20
-161.2159993086543
 10
101.5741617584606
 20
-160.7801947297702
 10
101.5741617584606
 20
-160.7801947297702
 10
101.5741617584606
 20
-160.7440212271751
 10
101.5720947011695
 20
-160.5114772819207
 10
101.5634819624564
 20
-160.4098469651059
 10
101.7033528391575
 20
-160.4205267611102
 10
101.944509523125
 20
-160.4205267611102
 10
102.0881700048599
 20
-160.4205267611102
 10
102.0881700048599
 20
-160.4205267611102
 10
102.5474012330437
 20
-160.4205267611102
 10
102.5474012330437
 20
-160.4205267611102
 10
102.5622151436303
 20
-160.4205267611102
 10
102.9112033162861
 20
-160.4205267611102
 10
103.0696777086076
 20
-160.4098469651059
 10
103.0676106513164
 20
-160.4629014355787
 10
103.061409479443
 20
-160.6234428851914
 10
103.061409479443
 20
-160.6744302983731
 10
103.061409479443
 20
-160.6744302983731
 10
103.061409479443
 20
-161.2814561228741
 10
103.061409479443
 20
-161.2814561228741
 10
103.061409479443
 20
-161.3007486575915
 10
103.0717447658987
 20
-161.8719454890459
 10
103.0717447658987
 20
-161.9839110923165
 10
103.0717447658987
 20
-162.0407551678232
 10
103.0717447658987
 20
-162.1427299941865
 10
102.9894069838013
 20
-162.1888942736889
 97
        0
 97
        0
 92
        1
 93
        4
 72
     1
 10
102.2046142322613
 20
-160.6024278027313
 11
101.7667425960861
 21
-160.6024278027313
 72
     1
 10
101.7667425960861
 20
-160.6024278027313
 11
101.7667425960861
 21
-160.9069742436274
 72
     1
 10
101.7667425960861
 20
-160.9069742436274
 11
102.2046142322613
 21
-160.9069742436274
 72
     1
 10
102.2046142322613
 20
-160.9069742436274
 11
102.2046142322613
 21
-160.6024278027313
 97
        0
 92
        1
 93
        4
 72
     1
 10
102.2046142322613
 20
-161.0740613746621
 11
101.7667425960861
 21
-161.0740613746621
 72
     1
 10
101.7667425960861
 20
-161.0740613746621
 11
101.7667425960861
 21
-161.383086439689
 72
     1
 10
101.7667425960861
 20
-161.383086439689
 11
102.2046142322613
 21
-161.383086439689
 72
     1
 10
102.2046142322613
 20
-161.383086439689
 11
102.2046142322613
 21
-161.0740613746621
 97
        0
 92
        1
 93
        4
 72
     1
 10
102.8540147312309
 20
-160.6024278027313
 11
102.3947835030471
 21
-160.6024278027313
 72
     1
 10
102.3947835030471
 20
-160.6024278027313
 11
102.3947835030471
 21
-160.9069742436274
 72
     1
 10
102.3947835030471
 20
-160.9069742436274
 11
102.8540147312309
 21
-160.9069742436274
 72
     1
 10
102.8540147312309
 20
-160.9069742436274
 11
102.8540147312309
 21
-160.6024278027313
 97
        0
 92
        1
 93
        4
 72
     1
 10
102.8540147312309
 20
-161.0740613746621
 11
102.3947835030471
 21
-161.0740613746621
 72
     1
 10
102.3947835030471
 20
-161.0740613746621
 11
102.3947835030471
 21
-161.383086439689
 72
     1
 10
102.3947835030471
 20
-161.383086439689
 11
102.8540147312309
 21
-161.383086439689
 72
     1
 10
102.8540147312309
 20
-161.383086439689
 11
102.8540147312309
 21
-161.0740613746621
 97
        0
 75
     2
 76
     1
 98
        0
  0
SPLINE
  5
186
330
155
100
AcDbEntity
  8
_U+30EC_U+30A4_U+30E4_U+30FC 1
370
     0
100
AcDbSpline
210
0.0
220
0.0
230
1.0
 70
    11
 71
     3
 72
    44
 73
    40
 74
     0
 42
0.0000000001
 43
0.0000000001
 12
1.0
 22
0.0
 32
0.0
 13
1.0
 23
0.0
 33
0.0
 40
0.0
 40
0.0
 40
0.0
 40
0.0
 40
1.0
 40
1.0
 40
1.0
 40
2.0
 40
2.0
 40
2.0
 40
3.0
 40
3.0
 40
3.0
 40
4.0
 40
4.0
 40
4.0
 40
5.0
 40
5.0
 40
5.0
 40
6.0
 40
6.0
 40
6.0
 40
7.0
 40
7.0
 40
7.0
 40
8.0
 40
8.0
 40
8.0
 40
9.0
 40
9.0
 40
9.0
 40
10.0
 40
10.0
 40
10.0
 40
11.0
 40
11.0
 40
11.0
 40
12.0
 40
12.0
 40
12.0
 40
13.0
 40
13.0
 40
13.0
 40
13.0
 10
104.8669840232624
 20
-160.9390136316403
 30
0.0
 10
104.7550184199918
 20
-161.3069498294649
 30
0.0
 10
104.7043755163586
 20
-161.4654242217864
 30
0.0
 10
104.5076605641509
 20
-161.715193644467
 30
0.0
 10
104.32334795569
 20
-161.9456705324303
 30
0.0
 10
104.0866698958533
 20
-162.1317056886338
 30
0.0
 10
103.8072726519996
 20
-162.225067776284
 30
0.0
 10
103.8072726519996
 20
-162.225067776284
 30
0.0
 10
103.6146918143741
 20
-162.045233791954
 30
0.0
 10
103.6146918143741
 20
-162.045233791954
 30
0.0
 10
104.2558240841791
 20
-161.8929605715059
 30
0.0
 10
104.585864231666
 20
-161.3365776506381
 30
0.0
 10
104.6492539885946
 20
-160.8962944476231
 30
0.0
 10
104.6492539885946
 20
-160.8962944476231
 30
0.0
 10
103.8834092622236
 20
-160.8962944476231
 30
0.0
 10
103.8834092622236
 20
-160.8962944476231
 30
0.0
 10
103.7903916841219
 20
-160.8962944476231
 30
0.0
 10
103.6064235852095
 20
-160.900773071754
 30
0.0
 10
103.4496717406306
 20
-160.9197210969228
 30
0.0
 10
103.4496717406306
 20
-160.9197210969228
 30
0.0
 10
103.4496717406306
 20
-160.6999240049639
 30
0.0
 10
103.4496717406306
 20
-160.6999240049639
 30
0.0
 10
103.5364881468589
 20
-160.7209390874239
 30
0.0
 10
103.7883246268307
 20
-160.7209390874239
 30
0.0
 10
103.8875433768059
 20
-160.7209390874239
 30
0.0
 10
103.8875433768059
 20
-160.7209390874239
 30
0.0
 10
104.3192138411077
 20
-160.7209390874239
 30
0.0
 10
104.3192138411077
 20
-160.7209390874239
 30
0.0
 10
104.3615885155763
 20
-160.7209390874239
 30
0.0
 10
104.5961995181218
 20
-160.7185275205843
 30
0.0
 10
104.6344400780081
 20
-160.7123263487108
 30
0.0
 10
104.6768147524766
 20
-160.7061251768374
 30
0.0
 10
104.6788818097678
 20
-160.7040581195462
 30
0.0
 10
104.7402045094052
 20
-160.6637505023688
 30
0.0
 10
104.7402045094052
 20
-160.6637505023688
 30
0.0
 10
104.9286512324484
 20
-160.8184352896565
 30
0.0
 10
104.9286512324484
 20
-160.8184352896565
 30
0.0
 10
104.8990234112753
 20
-160.8480631108297
 30
0.0
 10
104.8842095006887
 20
-160.8797579892939
 30
0.0
 10
104.8669840232624
 20
-160.9390136316403
 30
0.0
  0
SPLINE
  5
187
330
155
100
AcDbEntity
  8
_U+30EC_U+30A4_U+30E4_U+30FC 1
370
     0
100
AcDbSpline
210
0.0
220
0.0
230
1.0
 70
    11
 71
     3
 72
    17
 73
    13
 74
     0
 42
0.0000000001
 43
0.0000000001
 12
1.0
 22
0.0
 32
0.0
 13
1.0
 23
0.0
 33
0.0
 40
0.0
 40
0.0
 40
0.0
 40
0.0
 40
1.0
 40
1.0
 40
1.0
 40
2.0
 40
2.0
 40
2.0
 40
3.0
 40
3.0
 40
3.0
 40
4.0
 40
4.0
 40
4.0
 40
4.0
 10
105.0764458287656
 20
-160.7398871125928
 30
0.0
 10
104.9496663149084
 20
-160.7398871125928
 30
0.0
 10
104.8480359980936
 20
-160.6386013053265
 30
0.0
 10
104.8480359980936
 20
-160.5114772819207
 30
0.0
 10
104.8480359980936
 20
-160.384353258515
 30
0.0
 10
104.9496663149084
 20
-160.2810003939575
 30
0.0
 10
105.0764458287656
 20
-160.2810003939575
 30
0.0
 10
105.2035698521713
 20
-160.2810003939575
 30
0.0
 10
105.3072672262774
 20
-160.384353258515
 30
0.0
 10
105.3072672262774
 20
-160.5114772819207
 30
0.0
 10
105.3072672262774
 20
-160.6386013053265
 30
0.0
 10
105.2035698521713
 20
-160.7398871125928
 30
0.0
 10
105.0764458287656
 20
-160.7398871125928
 30
0.0
  0
SPLINE
  5
188
330
155
100
AcDbEntity
  8
_U+30EC_U+30A4_U+30E4_U+30FC 1
370
     0
100
AcDbSpline
210
0.0
220
0.0
230
1.0
 70
    11
 71
     3
 72
    17
 73
    13
 74
     0
 42
0.0000000001
 43
0.0000000001
 12
1.0
 22
0.0
 32
0.0
 13
1.0
 23
0.0
 33
0.0
 40
0.0
 40
0.0
 40
0.0
 40
0.0
 40
1.0
 40
1.0
 40
1.0
 40
2.0
 40
2.0
 40
2.0
 40
3.0
 40
3.0
 40
3.0
 40
4.0
 40
4.0
 40
4.0
 40
4.0
 10
105.0743787714745
 20
-160.4098469651059
 30
0.0
 10
105.019601753259
 20
-160.4098469651059
 30
0.0
 10
104.9751600214993
 20
-160.4542886968656
 30
0.0
 10
104.9751600214993
 20
-160.5094102246296
 30
0.0
 10
104.9751600214993
 20
-160.5662543001362
 30
0.0
 10
105.019601753259
 20
-160.6151746560268
 30
0.0
 10
105.0785128860568
 20
-160.6151746560268
 30
0.0
 10
105.1377685284031
 20
-160.6151746560268
 30
0.0
 10
105.1780761455805
 20
-160.5641872428451
 30
0.0
 10
105.1780761455805
 20
-160.5114772819207
 30
0.0
 10
105.1780761455805
 20
-160.4542886968656
 30
0.0
 10
105.1315673565296
 20
-160.4098469651059
 30
0.0
 10
105.0743787714745
 20
-160.4098469651059
 30
0.0
  0
HATCH
  5
189
330
155
100
AcDbEntity
  8
_U+30EC_U+30A4_U+30E4_U+30FC 1
 62
   179
420
  2234388
100
AcDbHatch
 10
0.0
 20
0.0
 30
0.0
210
0.0
220
0.0
230
1.0
  2
SOLID
 70
     1
 71
     0
 91
        3
 92
        1
 93
        1
 72
     4
 94
        3
 73
     0
 74
     1
 95
       44
 96
       40
 40
0.0
 40
0.0
 40
0.0
 40
0.0
 40
1.0
 40
1.0
 40
1.0
 40
2.0
 40
2.0
 40
2.0
 40
3.0
 40
3.0
 40
3.0
 40
4.0
 40
4.0
 40
4.0
 40
5.0
 40
5.0
 40
5.0
 40
6.0
 40
6.0
 40
6.0
 40
7.0
 40
7.0
 40
7.0
 40
8.0
 40
8.0
 40
8.0
 40
9.0
 40
9.0
 40
9.0
 40
10.0
 40
10.0
 40
10.0
 40
11.0
 40
11.0
 40
11.0
 40
12.0
 40
12.0
 40
12.0
 40
13.0
 40
13.0
 40
13.0
 40
13.0
 10
104.8669840232624
 20
-160.9390136316403
 10
104.7550184199918
 20
-161.3069498294649
 10
104.7043755163586
 20
-161.4654242217864
 10
104.5076605641509
 20
-161.715193644467
 10
104.32334795569
 20
-161.9456705324303
 10
104.0866698958533
 20
-162.1317056886338
 10
103.8072726519996
 20
-162.225067776284
 10
103.8072726519996
 20
-162.225067776284
 10
103.6146918143741
 20
-162.045233791954
 10
103.6146918143741
 20
-162.045233791954
 10
104.2558240841791
 20
-161.8929605715059
 10
104.585864231666
 20
-161.3365776506381
 10
104.6492539885946
 20
-160.8962944476231
 10
104.6492539885946
 20
-160.8962944476231
 10
103.8834092622236
 20
-160.8962944476231
 10
103.8834092622236
 20
-160.8962944476231
 10
103.7903916841219
 20
-160.8962944476231
 10
103.6064235852095
 20
-160.900773071754
 10
103.4496717406306
 20
-160.9197210969228
 10
103.4496717406306
 20
-160.9197210969228
 10
103.4496717406306
 20
-160.6999240049639
 10
103.4496717406306
 20
-160.6999240049639
 10
103.5364881468589
 20
-160.7209390874239
 10
103.7883246268307
 20
-160.7209390874239
 10
103.8875433768059
 20
-160.7209390874239
 10
103.8875433768059
 20
-160.7209390874239
 10
104.3192138411077
 20
-160.7209390874239
 10
104.3192138411077
 20
-160.7209390874239
 10
104.3615885155763
 20
-160.7209390874239
 10
104.5961995181218
 20
-160.7185275205843
 10
104.6344400780081
 20
-160.7123263487108
 10
104.6768147524766
 20
-160.7061251768374
 10
104.6788818097678
 20
-160.7040581195462
 10
104.7402045094052
 20
-160.6637505023688
 10
104.7402045094052
 20
-160.6637505023688
 10
104.9286512324484
 20
-160.8184352896565
 10
104.9286512324484
 20
-160.8184352896565
 10
104.8990234112753
 20
-160.8480631108297
 10
104.8842095006887
 20
-160.8797579892939
 10
104.8669840232624
 20
-160.9390136316403
 97
        0
 97
        0
 92
        1
 93
        1
 72
     4
 94
        3
 73
     0
 74
     1
 95
       17
 96
       13
 40
0.0
 40
0.0
 40
0.0
 40
0.0
 40
1.0
 40
1.0
 40
1.0
 40
2.0
 40
2.0
 40
2.0
 40
3.0
 40
3.0
 40
3.0
 40
4.0
 40
4.0
 40
4.0
 40
4.0
 10
105.0764458287656
 20
-160.7398871125928
 10
104.9496663149084
 20
-160.7398871125928
 10
104.8480359980936
 20
-160.6386013053265
 10
104.8480359980936
 20
-160.5114772819207
 10
104.8480359980936
 20
-160.384353258515
 10
104.9496663149084
 20
-160.2810003939575
 10
105.0764458287656
 20
-160.2810003939575
 10
105.2035698521713
 20
-160.2810003939575
 10
105.3072672262774
 20
-160.384353258515
 10
105.3072672262774
 20
-160.5114772819207
 10
105.3072672262774
 20
-160.6386013053265
 10
105.2035698521713
 20
-160.7398871125928
 10
105.0764458287656
 20
-160.7398871125928
 97
        0
 97
        0
 92
        1
 93
        1
 72
     4
 94
        3
 73
     0
 74
     1
 95
       17
 96
       13
 40
0.0
 40
0.0
 40
0.0
 40
0.0
 40
1.0
 40
1.0
 40
1.0
 40
2.0
 40
2.0
 40
2.0
 40
3.0
 40
3.0
 40
3.0
 40
4.0
 40
4.0
 40
4.0
 40
4.0
 10
105.0743787714745
 20
-160.4098469651059
 10
105.019601753259
 20
-160.4098469651059
 10
104.9751600214993
 20
-160.4542886968656
 10
104.9751600214993
 20
-160.5094102246296
 10
104.9751600214993
 20
-160.5662543001362
 10
105.019601753259
 20
-160.6151746560268
 10
105.0785128860568
 20
-160.6151746560268
 10
105.1377685284031
 20
-160.6151746560268
 10
105.1780761455805
 20
-160.5641872428451
 10
105.1780761455805
 20
-160.5114772819207
 10
105.1780761455805
 20
-160.4542886968656
 10
105.1315673565296
 20
-160.4098469651059
 10
105.0743787714745
 20
-160.4098469651059
 97
        0
 97
        0
 75
     2
 76
     1
 98
        0
  0
SPLINE
  5
18A
330
155
100
AcDbEntity
  8
_U+30EC_U+30A4_U+30E4_U+30FC 1
370
     0
100
AcDbSpline
210
0.0
220
0.0
230
1.0
 70
    11
 71
     3
 72
    50
 73
    46
 74
     0
 42
0.0000000001
 43
0.0000000001
 12
1.0
 22
0.0
 32
0.0
 13
1.0
 23
0.0
 33
0.0
 40
0.0
 40
0.0
 40
0.0
 40
0.0
 40
1.0
 40
1.0
 40
1.0
 40
2.0
 40
2.0
 40
2.0
 40
3.0
 40
3.0
 40
3.0
 40
4.0
 40
4.0
 40
4.0
 40
5.0
 40
5.0
 40
5.0
 40
6.0
 40
6.0
 40
6.0
 40
7.0
 40
7.0
 40
7.0
 40
8.0
 40
8.0
 40
8.0
 40
9.0
 40
9.0
 40
9.0
 40
10.0
 40
10.0
 40
10.0
 40
11.0
 40
11.0
 40
11.0
 40
12.0
 40
12.0
 40
12.0
 40
13.0
 40
13.0
 40
13.0
 40
14.0
 40
14.0
 40
14.0
 40
15.0
 40
15.0
 40
15.0
 40
15.0
 10
106.8716850861293
 20
-161.2476941871186
 30
0.0
 10
106.7931369090656
 20
-161.4254611141575
 30
0.0
 10
106.6577446564953
 20
-161.6328558623696
 30
0.0
 10
106.5202853466338
 20
-161.7723822295222
 30
0.0
 10
106.351131158308
 20
-161.9436034751391
 30
0.0
 10
106.1881781418557
 20
-162.0324869386586
 30
0.0
 10
105.8688177903731
 20
-162.1744248726508
 30
0.0
 10
105.8688177903731
 20
-162.1744248726508
 30
0.0
 10
105.6996636020473
 20
-161.9859781496077
 30
0.0
 10
105.6996636020473
 20
-161.9859781496077
 30
0.0
 10
105.8856987582508
 20
-161.9628960098565
 30
0.0
 10
106.0569200038677
 20
-161.8760796036282
 30
0.0
 10
106.2095377338643
 20
-161.7699706626825
 30
0.0
 10
106.4717095002918
 20
-161.5880696210613
 30
0.0
 10
106.6622232806261
 20
-161.2752549510006
 30
0.0
 10
106.7107991269681
 20
-161.0933539093795
 30
0.0
 10
106.7107991269681
 20
-161.0933539093795
 30
0.0
 10
106.04003903599
 20
-161.0933539093795
 30
0.0
 10
106.04003903599
 20
-161.0933539093795
 30
0.0
 10
105.8815646436685
 20
-161.0933539093795
 30
0.0
 10
105.5894205465193
 20
-161.1016221385441
 30
0.0
 10
105.4371473260713
 20
-161.1188476159703
 30
0.0
 10
105.4371473260713
 20
-161.1188476159703
 30
0.0
 10
105.4371473260713
 20
-160.8900932757497
 30
0.0
 10
105.4371473260713
 20
-160.8900932757497
 30
0.0
 10
105.4712537713752
 20
-160.8962944476231
 30
0.0
 10
105.4964029684176
 20
-160.9028401290451
 30
0.0
 10
105.5494574388904
 20
-160.9069742436274
 30
0.0
 10
105.6507432461568
 20
-160.9135199250494
 30
0.0
 10
105.8478027079131
 20
-160.9155869823406
 30
0.0
 10
105.9322075473017
 20
-160.9155869823406
 30
0.0
 10
105.9322075473017
 20
-160.9155869823406
 30
0.0
 10
106.4379475645363
 20
-160.9155869823406
 30
0.0
 10
106.4379475645363
 20
-160.9155869823406
 30
0.0
 10
106.5054714360472
 20
-160.9155869823406
 30
0.0
 10
106.6515434846218
 20
-160.9114528677582
 30
0.0
 10
106.7128661842593
 20
-160.9049071863363
 30
0.0
 10
106.784868679901
 20
-160.8962944476231
 30
0.0
 10
106.812429443783
 20
-160.8818250465851
 30
0.0
 10
106.8461913795385
 20
-160.8583983972854
 30
0.0
 10
106.8461913795385
 20
-160.8583983972854
 30
0.0
 10
107.0112114532819
 20
-161.02548552832
 30
0.0
 10
107.0112114532819
 20
-161.02548552832
 30
0.0
 10
106.9412760149313
 20
-161.0933539093795
 30
0.0
 10
106.8947672258805
 20
-161.1967067739369
 30
0.0
 10
106.8716850861293
 20
-161.2476941871186
 30
0.0
  0
SPLINE
  5
18B
330
155
100
AcDbEntity
  8
_U+30EC_U+30A4_U+30E4_U+30FC 1
370
     0
100
AcDbSpline
210
0.0
220
0.0
230
1.0
 70
    11
 71
     3
 72
    29
 73
    25
 74
     0
 42
0.0000000001
 43
0.0000000001
 12
1.0
 22
0.0
 32
0.0
 13
1.0
 23
0.0
 33
0.0
 40
0.0
 40
0.0
 40
0.0
 40
0.0
 40
1.0
 40
1.0
 40
1.0
 40
2.0
 40
2.0
 40
2.0
 40
3.0
 40
3.0
 40
3.0
 40
4.0
 40
4.0
 40
4.0
 40
5.0
 40
5.0
 40
5.0
 40
6.0
 40
6.0
 40
6.0
 40
7.0
 40
7.0
 40
7.0
 40
8.0
 40
8.0
 40
8.0
 40
8.0
 10
106.3786919221901
 20
-160.6213758279002
 30
0.0
 10
106.3786919221901
 20
-160.6213758279002
 30
0.0
 10
106.0379719786988
 20
-160.6213758279002
 30
0.0
 10
106.0379719786988
 20
-160.6213758279002
 30
0.0
 10
105.9239393181371
 20
-160.6213758279002
 30
0.0
 10
105.8074950907356
 20
-160.6255099424825
 30
0.0
 10
105.6931179206253
 20
-160.6406683626176
 30
0.0
 10
105.6931179206253
 20
-160.6406683626176
 30
0.0
 10
105.6931179206253
 20
-160.4312065571144
 30
0.0
 10
105.6931179206253
 20
-160.4312065571144
 30
0.0
 10
105.8116292053179
 20
-160.4456759581525
 30
0.0
 10
105.9852620177745
 20
-160.4501545822833
 30
0.0
 10
106.0379719786988
 20
-160.4501545822833
 30
0.0
 10
106.0379719786988
 20
-160.4501545822833
 30
0.0
 10
106.3786919221901
 20
-160.4501545822833
 30
0.0
 10
106.3786919221901
 20
-160.4501545822833
 30
0.0
 10
106.4951361495915
 20
-160.4501545822833
 30
0.0
 10
106.6112358674444
 20
-160.4456759581525
 30
0.0
 10
106.7276800948459
 20
-160.4312065571144
 30
0.0
 10
106.7276800948459
 20
-160.4312065571144
 30
0.0
 10
106.7276800948459
 20
-160.6406683626176
 30
0.0
 10
106.7276800948459
 20
-160.6406683626176
 30
0.0
 10
106.577473931689
 20
-160.6213758279002
 30
0.0
 10
106.3935058327766
 20
-160.6213758279002
 30
0.0
 10
106.3786919221901
 20
-160.6213758279002
 30
0.0
  0
HATCH
  5
18C
330
155
100
AcDbEntity
  8
_U+30EC_U+30A4_U+30E4_U+30FC 1
 62
   179
420
  2234388
100
AcDbHatch
 10
0.0
 20
0.0
 30
0.0
210
0.0
220
0.0
230
1.0
  2
SOLID
 70
     1
 71
     0
 91
        2
 92
        1
 93
        1
 72
     4
 94
        3
 73
     0
 74
     1
 95
       50
 96
       46
 40
0.0
 40
0.0
 40
0.0
 40
0.0
 40
1.0
 40
1.0
 40
1.0
 40
2.0
 40
2.0
 40
2.0
 40
3.0
 40
3.0
 40
3.0
 40
4.0
 40
4.0
 40
4.0
 40
5.0
 40
5.0
 40
5.0
 40
6.0
 40
6.0
 40
6.0
 40
7.0
 40
7.0
 40
7.0
 40
8.0
 40
8.0
 40
8.0
 40
9.0
 40
9.0
 40
9.0
 40
10.0
 40
10.0
 40
10.0
 40
11.0
 40
11.0
 40
11.0
 40
12.0
 40
12.0
 40
12.0
 40
13.0
 40
13.0
 40
13.0
 40
14.0
 40
14.0
 40
14.0
 40
15.0
 40
15.0
 40
15.0
 40
15.0
 10
106.8716850861293
 20
-161.2476941871186
 10
106.7931369090656
 20
-161.4254611141575
 10
106.6577446564953
 20
-161.6328558623696
 10
106.5202853466338
 20
-161.7723822295222
 10
106.351131158308
 20
-161.9436034751391
 10
106.1881781418557
 20
-162.0324869386586
 10
105.8688177903731
 20
-162.1744248726508
 10
105.8688177903731
 20
-162.1744248726508
 10
105.6996636020473
 20
-161.9859781496077
 10
105.6996636020473
 20
-161.9859781496077
 10
105.8856987582508
 20
-161.9628960098565
 10
106.0569200038677
 20
-161.8760796036282
 10
106.2095377338643
 20
-161.7699706626825
 10
106.4717095002918
 20
-161.5880696210613
 10
106.6622232806261
 20
-161.2752549510006
 10
106.7107991269681
 20
-161.0933539093795
 10
106.7107991269681
 20
-161.0933539093795
 10
106.04003903599
 20
-161.0933539093795
 10
106.04003903599
 20
-161.0933539093795
 10
105.8815646436685
 20
-161.0933539093795
 10
105.5894205465193
 20
-161.1016221385441
 10
105.4371473260713
 20
-161.1188476159703
 10
105.4371473260713
 20
-161.1188476159703
 10
105.4371473260713
 20
-160.8900932757497
 10
105.4371473260713
 20
-160.8900932757497
 10
105.4712537713752
 20
-160.8962944476231
 10
105.4964029684176
 20
-160.9028401290451
 10
105.5494574388904
 20
-160.9069742436274
 10
105.6507432461568
 20
-160.9135199250494
 10
105.8478027079131
 20
-160.9155869823406
 10
105.9322075473017
 20
-160.9155869823406
 10
105.9322075473017
 20
-160.9155869823406
 10
106.4379475645363
 20
-160.9155869823406
 10
106.4379475645363
 20
-160.9155869823406
 10
106.5054714360472
 20
-160.9155869823406
 10
106.6515434846218
 20
-160.9114528677582
 10
106.7128661842593
 20
-160.9049071863363
 10
106.784868679901
 20
-160.8962944476231
 10
106.812429443783
 20
-160.8818250465851
 10
106.8461913795385
 20
-160.8583983972854
 10
106.8461913795385
 20
-160.8583983972854
 10
107.0112114532819
 20
-161.02548552832
 10
107.0112114532819
 20
-161.02548552832
 10
106.9412760149313
 20
-161.0933539093795
 10
106.8947672258805
 20
-161.1967067739369
 10
106.8716850861293
 20
-161.2476941871186
 97
        0
 97
        0
 92
        1
 93
        1
 72
     4
 94
        3
 73
     0
 74
     1
 95
       29
 96
       25
 40
0.0
 40
0.0
 40
0.0
 40
0.0
 40
1.0
 40
1.0
 40
1.0
 40
2.0
 40
2.0
 40
2.0
 40
3.0
 40
3.0
 40
3.0
 40
4.0
 40
4.0
 40
4.0
 40
5.0
 40
5.0
 40
5.0
 40
6.0
 40
6.0
 40
6.0
 40
7.0
 40
7.0
 40
7.0
 40
8.0
 40
8.0
 40
8.0
 40
8.0
 10
106.3786919221901
 20
-160.6213758279002
 10
106.3786919221901
 20
-160.6213758279002
 10
106.0379719786988
 20
-160.6213758279002
 10
106.0379719786988
 20
-160.6213758279002
 10
105.9239393181371
 20
-160.6213758279002
 10
105.8074950907356
 20
-160.6255099424825
 10
105.6931179206253
 20
-160.6406683626176
 10
105.6931179206253
 20
-160.6406683626176
 10
105.6931179206253
 20
-160.4312065571144
 10
105.6931179206253
 20
-160.4312065571144
 10
105.8116292053179
 20
-160.4456759581525
 10
105.9852620177745
 20
-160.4501545822833
 10
106.0379719786988
 20
-160.4501545822833
 10
106.0379719786988
 20
-160.4501545822833
 10
106.3786919221901
 20
-160.4501545822833
 10
106.3786919221901
 20
-160.4501545822833
 10
106.4951361495915
 20
-160.4501545822833
 10
106.6112358674444
 20
-160.4456759581525
 10
106.7276800948459
 20
-160.4312065571144
 10
106.7276800948459
 20
-160.4312065571144
 10
106.7276800948459
 20
-160.6406683626176
 10
106.7276800948459
 20
-160.6406683626176
 10
106.577473931689
 20
-160.6213758279002
 10
106.3935058327766
 20
-160.6213758279002
 10
106.3786919221901
 20
-160.6213758279002
 97
        0
 97
        0
 75
     2
 76
     1
 98
        0
  0
SPLINE
  5
18D
330
155
100
AcDbEntity
  8
_U+30EC_U+30A4_U+30E4_U+30FC 1
370
     0
100
AcDbSpline
210
0.0
220
0.0
230
1.0
 70
    11
 71
     3
 72
    50
 73
    46
 74
     0
 42
0.0000000001
 43
0.0000000001
 12
1.0
 22
0.0
 32
0.0
 13
1.0
 23
0.0
 33
0.0
 40
0.0
 40
0.0
 40
0.0
 40
0.0
 40
1.0
 40
1.0
 40
1.0
 40
2.0
 40
2.0
 40
2.0
 40
3.0
 40
3.0
 40
3.0
 40
4.0
 40
4.0
 40
4.0
 40
5.0
 40
5.0
 40
5.0
 40
6.0
 40
6.0
 40
6.0
 40
7.0
 40
7.0
 40
7.0
 40
8.0
 40
8.0
 40
8.0
 40
9.0
 40
9.0
 40
9.0
 40
10.0
 40
10.0
 40
10.0
 40
11.0
 40
11.0
 40
11.0
 40
12.0
 40
12.0
 40
12.0
 40
13.0
 40
13.0
 40
13.0
 40
14.0
 40
14.0
 40
14.0
 40
15.0
 40
15.0
 40
15.0
 40
15.0
 10
108.5818304850073
 20
-160.6069064268622
 30
0.0
 10
108.3723686795041
 20
-160.8205023469476
 30
0.0
 10
108.3007106934109
 20
-160.8921603330409
 30
0.0
 10
108.1587727594186
 20
-161.0106716177335
 30
0.0
 10
108.1587727594186
 20
-161.0106716177335
 30
0.0
 10
108.1587727594186
 20
-161.5777343346056
 30
0.0
 10
108.1587727594186
 20
-161.5777343346056
 30
0.0
 10
108.1587727594186
 20
-161.7279404977625
 30
0.0
 10
108.1653184408406
 20
-161.7468885229313
 30
0.0
 10
108.1694525554229
 20
-161.9246554499702
 30
0.0
 10
108.1715196127141
 20
-162.0559135879583
 30
0.0
 10
108.1777207845875
 20
-162.1044894343003
 30
0.0
 10
108.1842664660095
 20
-162.1637450766466
 30
0.0
 10
108.1842664660095
 20
-162.1637450766466
 30
0.0
 10
107.9579236926286
 20
-162.1637450766466
 30
0.0
 10
107.9579236926286
 20
-162.1637450766466
 30
0.0
 10
107.9620578072109
 20
-162.1193033448868
 30
0.0
 10
107.9661919217932
 20
-162.0724500462875
 30
0.0
 10
107.9661919217932
 20
-162.0641818171229
 30
0.0
 10
107.9661919217932
 20
-161.9839110923165
 30
0.0
 10
107.970670545924
 20
-161.6328558623696
 30
0.0
 10
107.970670545924
 20
-161.5605088571793
 30
0.0
 10
107.970670545924
 20
-161.5605088571793
 30
0.0
 10
107.970670545924
 20
-161.1546766090169
 30
0.0
 10
107.970670545924
 20
-161.1546766090169
 30
0.0
 10
107.7887695043028
 20
-161.2793890655829
 30
0.0
 10
107.5941216093862
 20
-161.3896321211109
 30
0.0
 10
107.3908609757565
 20
-161.4761040177907
 30
0.0
 10
107.3908609757565
 20
-161.4761040177907
 30
0.0
 10
107.1879448516752
 20
-161.3131510013384
 30
0.0
 10
107.1879448516752
 20
-161.3131510013384
 30
0.0
 10
107.3105902509501
 20
-161.2773220082918
 30
0.0
 10
107.5665608455042
 20
-161.2032524553589
 30
0.0
 10
107.9114149035777
 20
-160.9472818608048
 30
0.0
 10
108.1270778809543
 20
-160.7888074684834
 30
0.0
 10
108.3196587185798
 20
-160.6003607454402
 30
0.0
 10
108.4719319390279
 20
-160.3802191439327
 30
0.0
 10
108.4719319390279
 20
-160.3802191439327
 30
0.0
 10
108.6645127766533
 20
-160.5242241352162
 30
0.0
 10
108.6645127766533
 20
-160.5242241352162
 30
0.0
 10
108.6772596299488
 20
-160.5345594216719
 30
0.0
 10
108.6855278591133
 20
-160.549717841807
 30
0.0
 10
108.6855278591133
 20
-160.5621201855539
 30
0.0
 10
108.6855278591133
 20
-160.6024278027313
 30
0.0
 10
108.6476318087756
 20
-160.6024278027313
 30
0.0
 10
108.5818304850073
 20
-160.6069064268622
 30
0.0
  0
HATCH
  5
18E
330
155
100
AcDbEntity
  8
_U+30EC_U+30A4_U+30E4_U+30FC 1
 62
   179
420
  2234388
100
AcDbHatch
 10
0.0
 20
0.0
 30
0.0
210
0.0
220
0.0
230
1.0
  2
SOLID
 70
     1
 71
     0
 91
        1
 92
        1
 93
        1
 72
     4
 94
        3
 73
     0
 74
     1
 95
       50
 96
       46
 40
0.0
 40
0.0
 40
0.0
 40
0.0
 40
1.0
 40
1.0
 40
1.0
 40
2.0
 40
2.0
 40
2.0
 40
3.0
 40
3.0
 40
3.0
 40
4.0
 40
4.0
 40
4.0
 40
5.0
 40
5.0
 40
5.0
 40
6.0
 40
6.0
 40
6.0
 40
7.0
 40
7.0
 40
7.0
 40
8.0
 40
8.0
 40
8.0
 40
9.0
 40
9.0
 40
9.0
 40
10.0
 40
10.0
 40
10.0
 40
11.0
 40
11.0
 40
11.0
 40
12.0
 40
12.0
 40
12.0
 40
13.0
 40
13.0
 40
13.0
 40
14.0
 40
14.0
 40
14.0
 40
15.0
 40
15.0
 40
15.0
 40
15.0
 10
108.5818304850073
 20
-160.6069064268622
 10
108.3723686795041
 20
-160.8205023469476
 10
108.3007106934109
 20
-160.8921603330409
 10
108.1587727594186
 20
-161.0106716177335
 10
108.1587727594186
 20
-161.0106716177335
 10
108.1587727594186
 20
-161.5777343346056
 10
108.1587727594186
 20
-161.5777343346056
 10
108.1587727594186
 20
-161.7279404977625
 10
108.1653184408406
 20
-161.7468885229313
 10
108.1694525554229
 20
-161.9246554499702
 10
108.1715196127141
 20
-162.0559135879583
 10
108.1777207845875
 20
-162.1044894343003
 10
108.1842664660095
 20
-162.1637450766466
 10
108.1842664660095
 20
-162.1637450766466
 10
107.9579236926286
 20
-162.1637450766466
 10
107.9579236926286
 20
-162.1637450766466
 10
107.9620578072109
 20
-162.1193033448868
 10
107.9661919217932
 20
-162.0724500462875
 10
107.9661919217932
 20
-162.0641818171229
 10
107.9661919217932
 20
-161.9839110923165
 10
107.970670545924
 20
-161.6328558623696
 10
107.970670545924
 20
-161.5605088571793
 10
107.970670545924
 20
-161.5605088571793
 10
107.970670545924
 20
-161.1546766090169
 10
107.970670545924
 20
-161.1546766090169
 10
107.7887695043028
 20
-161.2793890655829
 10
107.5941216093862
 20
-161.3896321211109
 10
107.3908609757565
 20
-161.4761040177907
 10
107.3908609757565
 20
-161.4761040177907
 10
107.1879448516752
 20
-161.3131510013384
 10
107.1879448516752
 20
-161.3131510013384
 10
107.3105902509501
 20
-161.2773220082918
 10
107.5665608455042
 20
-161.2032524553589
 10
107.9114149035777
 20
-160.9472818608048
 10
108.1270778809543
 20
-160.7888074684834
 10
108.3196587185798
 20
-160.6003607454402
 10
108.4719319390279
 20
-160.3802191439327
 10
108.4719319390279
 20
-160.3802191439327
 10
108.6645127766533
 20
-160.5242241352162
 10
108.6645127766533
 20
-160.5242241352162
 10
108.6772596299488
 20
-160.5345594216719
 10
108.6855278591133
 20
-160.549717841807
 10
108.6855278591133
 20
-160.5621201855539
 10
108.6855278591133
 20
-160.6024278027313
 10
108.6476318087756
 20
-160.6024278027313
 10
108.5818304850073
 20
-160.6069064268622
 97
        0
 97
        0
 75
     2
 76
     1
 98
        0
  0
SPLINE
  5
18F
330
155
100
AcDbEntity
  8
_U+30EC_U+30A4_U+30E4_U+30FC 1
370
     0
100
AcDbSpline
210
0.0
220
0.0
230
1.0
 70
    11
 71
     3
 72
    50
 73
    46
 74
     0
 42
0.0000000001
 43
0.0000000001
 12
1.0
 22
0.0
 32
0.0
 13
1.0
 23
0.0
 33
0.0
 40
0.0
 40
0.0
 40
0.0
 40
0.0
 40
1.0
 40
1.0
 40
1.0
 40
2.0
 40
2.0
 40
2.0
 40
3.0
 40
3.0
 40
3.0
 40
4.0
 40
4.0
 40
4.0
 40
5.0
 40
5.0
 40
5.0
 40
6.0
 40
6.0
 40
6.0
 40
7.0
 40
7.0
 40
7.0
 40
8.0
 40
8.0
 40
8.0
 40
9.0
 40
9.0
 40
9.0
 40
10.0
 40
10.0
 40
10.0
 40
11.0
 40
11.0
 40
11.0
 40
12.0
 40
12.0
 40
12.0
 40
13.0
 40
13.0
 40
13.0
 40
14.0
 40
14.0
 40
14.0
 40
15.0
 40
15.0
 40
15.0
 40
15.0
 10
110.2902533361427
 20
-161.1333170170084
 30
0.0
 10
110.2289306365053
 20
-161.2053195126501
 30
0.0
 10
109.9684814178204
 20
-161.5226128068416
 30
0.0
 10
109.9116373423138
 20
-161.5860025637702
 30
0.0
 10
109.9960421817024
 20
-161.6834987660027
 30
0.0
 10
110.0470295948841
 20
-161.7468885229313
 30
0.0
 10
110.1124864091038
 20
-161.8378390437419
 30
0.0
 10
110.1124864091038
 20
-161.8378390437419
 30
0.0
 10
109.9285183101915
 20
-161.9752983536034
 30
0.0
 10
109.9285183101915
 20
-161.9752983536034
 30
0.0
 10
109.7931260576212
 20
-161.7637694908091
 30
0.0
 10
109.6215603024557
 20
-161.5398382842678
 30
0.0
 10
109.3276936575639
 20
-161.3407117652204
 30
0.0
 10
109.3276936575639
 20
-161.3407117652204
 30
0.0
 10
109.4758327634297
 20
-161.1863714874812
 30
0.0
 10
109.4758327634297
 20
-161.1863714874812
 30
0.0
 10
109.5857313094091
 20
-161.2666422122875
 30
0.0
 10
109.6894286835151
 20
-161.355525675807
 30
0.0
 10
109.7865803761992
 20
-161.4509548207484
 30
0.0
 10
109.8544487572586
 20
-161.3744737009758
 30
0.0
 10
110.0573648813398
 20
-161.1312499597172
 30
0.0
 10
110.190690076619
 20
-160.9028401290451
 30
0.0
 10
110.190690076619
 20
-160.9028401290451
 30
0.0
 10
109.5178629283497
 20
-160.9028401290451
 30
0.0
 10
109.5178629283497
 20
-160.9028401290451
 30
0.0
 10
109.3931504717837
 20
-160.9028401290451
 30
0.0
 10
109.1413139918119
 20
-160.9114528677582
 30
0.0
 10
108.9318521863087
 20
-160.921788154214
 30
0.0
 10
108.9318521863087
 20
-160.921788154214
 30
0.0
 10
108.9318521863087
 20
-160.7019910622551
 30
0.0
 10
108.9318521863087
 20
-160.7019910622551
 30
0.0
 10
109.1161647947696
 20
-160.7209390874239
 30
0.0
 10
109.3211479761419
 20
-160.7250732020062
 30
0.0
 10
109.5095946991851
 20
-160.7250732020062
 30
0.0
 10
109.5095946991851
 20
-160.7250732020062
 30
0.0
 10
110.0129231495801
 20
-160.7250732020062
 30
0.0
 10
110.0129231495801
 20
-160.7250732020062
 30
0.0
 10
110.3515760357802
 20
-160.7250732020062
 30
0.0
 10
110.3960177675399
 20
-160.7102592914197
 30
0.0
 10
110.4783555496374
 20
-160.6702961837908
 30
0.0
 10
110.4783555496374
 20
-160.6702961837908
 30
0.0
 10
110.645442680672
 20
-160.8287705761122
 30
0.0
 10
110.645442680672
 20
-160.8287705761122
 30
0.0
 10
110.4931694602239
 20
-160.900773071754
 30
0.0
 10
110.349508978489
 20
-161.0637260882063
 30
0.0
 10
110.2902533361427
 20
-161.1333170170084
 30
0.0
  0
HATCH
  5
190
330
155
100
AcDbEntity
  8
_U+30EC_U+30A4_U+30E4_U+30FC 1
 62
   179
420
  2234388
100
AcDbHatch
 10
0.0
 20
0.0
 30
0.0
210
0.0
220
0.0
230
1.0
  2
SOLID
 70
     1
 71
     0
 91
        1
 92
        1
 93
        1
 72
     4
 94
        3
 73
     0
 74
     1
 95
       50
 96
       46
 40
0.0
 40
0.0
 40
0.0
 40
0.0
 40
1.0
 40
1.0
 40
1.0
 40
2.0
 40
2.0
 40
2.0
 40
3.0
 40
3.0
 40
3.0
 40
4.0
 40
4.0
 40
4.0
 40
5.0
 40
5.0
 40
5.0
 40
6.0
 40
6.0
 40
6.0
 40
7.0
 40
7.0
 40
7.0
 40
8.0
 40
8.0
 40
8.0
 40
9.0
 40
9.0
 40
9.0
 40
10.0
 40
10.0
 40
10.0
 40
11.0
 40
11.0
 40
11.0
 40
12.0
 40
12.0
 40
12.0
 40
13.0
 40
13.0
 40
13.0
 40
14.0
 40
14.0
 40
14.0
 40
15.0
 40
15.0
 40
15.0
 40
15.0
 10
110.2902533361427
 20
-161.1333170170084
 10
110.2289306365053
 20
-161.2053195126501
 10
109.9684814178204
 20
-161.5226128068416
 10
109.9116373423138
 20
-161.5860025637702
 10
109.9960421817024
 20
-161.6834987660027
 10
110.0470295948841
 20
-161.7468885229313
 10
110.1124864091038
 20
-161.8378390437419
 10
110.1124864091038
 20
-161.8378390437419
 10
109.9285183101915
 20
-161.9752983536034
 10
109.9285183101915
 20
-161.9752983536034
 10
109.7931260576212
 20
-161.7637694908091
 10
109.6215603024557
 20
-161.5398382842678
 10
109.3276936575639
 20
-161.3407117652204
 10
109.3276936575639
 20
-161.3407117652204
 10
109.4758327634297
 20
-161.1863714874812
 10
109.4758327634297
 20
-161.1863714874812
 10
109.5857313094091
 20
-161.2666422122875
 10
109.6894286835151
 20
-161.355525675807
 10
109.7865803761992
 20
-161.4509548207484
 10
109.8544487572586
 20
-161.3744737009758
 10
110.0573648813398
 20
-161.1312499597172
 10
110.190690076619
 20
-160.9028401290451
 10
110.190690076619
 20
-160.9028401290451
 10
109.5178629283497
 20
-160.9028401290451
 10
109.5178629283497
 20
-160.9028401290451
 10
109.3931504717837
 20
-160.9028401290451
 10
109.1413139918119
 20
-160.9114528677582
 10
108.9318521863087
 20
-160.921788154214
 10
108.9318521863087
 20
-160.921788154214
 10
108.9318521863087
 20
-160.7019910622551
 10
108.9318521863087
 20
-160.7019910622551
 10
109.1161647947696
 20
-160.7209390874239
 10
109.3211479761419
 20
-160.7250732020062
 10
109.5095946991851
 20
-160.7250732020062
 10
109.5095946991851
 20
-160.7250732020062
 10
110.0129231495801
 20
-160.7250732020062
 10
110.0129231495801
 20
-160.7250732020062
 10
110.3515760357802
 20
-160.7250732020062
 10
110.3960177675399
 20
-160.7102592914197
 10
110.4783555496374
 20
-160.6702961837908
 10
110.4783555496374
 20
-160.6702961837908
 10
110.645442680672
 20
-160.8287705761122
 10
110.645442680672
 20
-160.8287705761122
 10
110.4931694602239
 20
-160.900773071754
 10
110.349508978489
 20
-161.0637260882063
 10
110.2902533361427
 20
-161.1333170170084
 97
        0
 97
        0
 75
     2
 76
     1
 98
        0
  0
SPLINE
  5
191
330
155
100
AcDbEntity
  8
_U+30EC_U+30A4_U+30E4_U+30FC 1
370
     0
100
AcDbSpline
210
0.0
220
0.0
230
1.0
 70
    11
 71
     3
 72
    29
 73
    25
 74
     0
 42
0.0000000001
 43
0.0000000001
 12
1.0
 22
0.0
 32
0.0
 13
1.0
 23
0.0
 33
0.0
 40
0.0
 40
0.0
 40
0.0
 40
0.0
 40
1.0
 40
1.0
 40
1.0
 40
2.0
 40
2.0
 40
2.0
 40
3.0
 40
3.0
 40
3.0
 40
4.0
 40
4.0
 40
4.0
 40
5.0
 40
5.0
 40
5.0
 40
6.0
 40
6.0
 40
6.0
 40
7.0
 40
7.0
 40
7.0
 40
8.0
 40
8.0
 40
8.0
 40
8.0
 10
111.9135823287924
 20
-161.376540758267
 30
0.0
 10
111.9135823287924
 20
-161.376540758267
 30
0.0
 10
111.4292019035663
 20
-161.376540758267
 30
0.0
 10
111.4292019035663
 20
-161.376540758267
 30
0.0
 10
111.4016411396843
 20
-161.376540758267
 30
0.0
 10
111.0843478454928
 20
-161.376540758267
 30
0.0
 10
110.8728189826985
 20
-161.4020344648578
 30
0.0
 10
110.8728189826985
 20
-161.4020344648578
 30
0.0
 10
110.8728189826985
 20
-161.1715575768946
 30
0.0
 10
110.8728189826985
 20
-161.1715575768946
 30
0.0
 10
111.03129337502
 20
-161.1946397166458
 30
0.0
 10
111.2218071553543
 20
-161.1967067739369
 30
0.0
 10
111.4292019035663
 20
-161.1967067739369
 30
0.0
 10
111.4292019035663
 20
-161.1967067739369
 30
0.0
 10
111.9135823287924
 20
-161.1967067739369
 30
0.0
 10
111.9135823287924
 20
-161.1967067739369
 30
0.0
 10
112.0996174849959
 20
-161.1967067739369
 30
0.0
 10
112.2859971507479
 20
-161.1946397166458
 30
0.0
 10
112.4699652496603
 20
-161.1715575768946
 30
0.0
 10
112.4699652496603
 20
-161.1715575768946
 30
0.0
 10
112.4699652496603
 20
-161.4020344648578
 30
0.0
 10
112.4699652496603
 20
-161.4020344648578
 30
0.0
 10
112.2859971507479
 20
-161.3786078155581
 30
0.0
 10
112.0382947853585
 20
-161.376540758267
 30
0.0
 10
111.9135823287924
 20
-161.376540758267
 30
0.0
  0
HATCH
  5
192
330
155
100
AcDbEntity
  8
_U+30EC_U+30A4_U+30E4_U+30FC 1
 62
   179
420
  2234388
100
AcDbHatch
 10
0.0
 20
0.0
 30
0.0
210
0.0
220
0.0
230
1.0
  2
SOLID
 70
     1
 71
     0
 91
        1
 92
        1
 93
        1
 72
     4
 94
        3
 73
     0
 74
     1
 95
       29
 96
       25
 40
0.0
 40
0.0
 40
0.0
 40
0.0
 40
1.0
 40
1.0
 40
1.0
 40
2.0
 40
2.0
 40
2.0
 40
3.0
 40
3.0
 40
3.0
 40
4.0
 40
4.0
 40
4.0
 40
5.0
 40
5.0
 40
5.0
 40
6.0
 40
6.0
 40
6.0
 40
7.0
 40
7.0
 40
7.0
 40
8.0
 40
8.0
 40
8.0
 40
8.0
 10
111.9135823287924
 20
-161.376540758267
 10
111.9135823287924
 20
-161.376540758267
 10
111.4292019035663
 20
-161.376540758267
 10
111.4292019035663
 20
-161.376540758267
 10
111.4016411396843
 20
-161.376540758267
 10
111.0843478454928
 20
-161.376540758267
 10
110.8728189826985
 20
-161.4020344648578
 10
110.8728189826985
 20
-161.4020344648578
 10
110.8728189826985
 20
-161.1715575768946
 10
110.8728189826985
 20
-161.1715575768946
 10
111.03129337502
 20
-161.1946397166458
 10
111.2218071553543
 20
-161.1967067739369
 10
111.4292019035663
 20
-161.1967067739369
 10
111.4292019035663
 20
-161.1967067739369
 10
111.9135823287924
 20
-161.1967067739369
 10
111.9135823287924
 20
-161.1967067739369
 10
112.0996174849959
 20
-161.1967067739369
 10
112.2859971507479
 20
-161.1946397166458
 10
112.4699652496603
 20
-161.1715575768946
 10
112.4699652496603
 20
-161.1715575768946
 10
112.4699652496603
 20
-161.4020344648578
 10
112.4699652496603
 20
-161.4020344648578
 10
112.2859971507479
 20
-161.3786078155581
 10
112.0382947853585
 20
-161.376540758267
 10
111.9135823287924
 20
-161.376540758267
 97
        0
 97
        0
 75
     2
 76
     1
 98
        0
  0
ENDBLK
  5
158
330
155
100
AcDbEntity
  8
0
100
AcDbBlockEnd
  0
ENDSEC
  0
SECTION
  2
ENTITIES
  0
POLYLINE
  5
41
330
1F
100
AcDbEntity
  8
_U+30EC_U+30A4_U+30E4_U+30FC 1
 62
   179
420
  2234388
370
    25
100
AcDb2dPolyline
 66
     1
 10
0.0
 20
0.0
 30
0.0
  0
VERTEX
  5
42
330
41
100
AcDbEntity
  8
_U+30EC_U+30A4_U+30E4_U+30FC 1
 62
   179
420
  2234388
370
    25
100
AcDbVertex
100
AcDb2dVertex
 10
74.0833333148125
 20
-155.8523185721478
 30
0.0
  0
VERTEX
  5
43
330
41
100
AcDbEntity
  8
_U+30EC_U+30A4_U+30E4_U+30FC 1
 62
   179
420
  2234388
370
    25
100
AcDbVertex
100
AcDb2dVertex
 10
93.08337762524519
 20
-155.8523185721478
 30
0.0
  0
SEQEND
  5
44
330
41
100
AcDbEntity
  8
_U+30EC_U+30A4_U+30E4_U+30FC 1
 62
   179
420
  2234388
370
    25
  0
POLYLINE
  5
45
330
1F
100
AcDbEntity
  8
_U+30EC_U+30A4_U+30E4_U+30FC 1
 62
   179
420
  2234388
370
    25
100
AcDb2dPolyline
 66
     1
 10
0.0
 20
0.0
 30
0.0
  0
VERTEX
  5
46
330
45
100
AcDbEntity
  8
_U+30EC_U+30A4_U+30E4_U+30FC 1
 62
   179
420
  2234388
370
    25
100
AcDbVertex
100
AcDb2dVertex
 10
91.08351573182148
 20
-93.85215330987018
 30
0.0
  0
VERTEX
  5
47
330
45
100
AcDbEntity
  8
_U+30EC_U+30A4_U+30E4_U+30FC 1
 62
   179
420
  2234388
370
    25
100
AcDbVertex
100
AcDb2dVertex
 10
92.08325265076051
 20
-93.85215330987018
 30
0.0
  0
SEQEND
  5
48
330
45
100
AcDbEntity
  8
_U+30EC_U+30A4_U+30E4_U+30FC 1
 62
   179
420
  2234388
370
    25
  0
POLYLINE
  5
49
330
1F
100
AcDbEntity
  8
_U+30EC_U+30A4_U+30E4_U+30FC 1
 62
   179
420
  2234388
370
    25
100
AcDb2dPolyline
 66
     1
 10
0.0
 20
0.0
 30
0.0
  0
VERTEX
  5
4A
330
49
100
AcDbEntity
  8
_U+30EC_U+30A4_U+30E4_U+30FC 1
 62
   179
420
  2234388
370
    25
100
AcDbVertex
100
AcDb2dVertex
 10
74.0833333148125
 20
-132.852195244565
 30
0.0
  0
VERTEX
  5
4B
330
49
100
AcDbEntity
  8
_U+30EC_U+30A4_U+30E4_U+30FC 1
 62
   179
420
  2234388
370
    25
100
AcDbVertex
100
AcDb2dVertex
 10
74.0833333148125
 20
-155.8523185721478
 30
0.0
  0
SEQEND
  5
4C
330
49
100
AcDbEntity
  8
_U+30EC_U+30A4_U+30E4_U+30FC 1
 62
   179
420
  2234388
370
    25
  0
POLYLINE
  5
4D
330
1F
100
AcDbEntity
  8
_U+30EC_U+30A4_U+30E4_U+30FC 1
 62
   179
420
  2234388
370
    25
100
AcDb2dPolyline
 66
     1
 10
0.0
 20
0.0
 30
0.0
  0
VERTEX
  5
4E
330
4D
100
AcDbEntity
  8
_U+30EC_U+30A4_U+30E4_U+30FC 1
 62
   179
420
  2234388
370
    25
100
AcDbVertex
100
AcDb2dVertex
 10
93.08337762524519
 20
-151.8525594064816
 30
0.0
  0
VERTEX
  5
4F
330
4D
100
AcDbEntity
  8
_U+30EC_U+30A4_U+30E4_U+30FC 1
 62
   179
420
  2234388
370
    25
100
AcDbVertex
100
AcDb2dVertex
 10
93.08337762524519
 20
-155.8523185721478
 30
0.0
  0
SEQEND
  5
50
330
4D
100
AcDbEntity
  8
_U+30EC_U+30A4_U+30E4_U+30FC 1
 62
   179
420
  2234388
370
    25
  0
POLYLINE
  5
51
330
1F
100
AcDbEntity
  8
_U+30EC_U+30A4_U+30E4_U+30FC 1
 62
   179
420
  2234388
370
    25
100
AcDb2dPolyline
 66
     1
 10
0.0
 20
0.0
 30
0.0
  0
VERTEX
  5
52
330
51
100
AcDbEntity
  8
_U+30EC_U+30A4_U+30E4_U+30FC 1
 62
   179
420
  2234388
370
    25
100
AcDbVertex
100
AcDb2dVertex
 10
89.08326578285211
 20
-151.8525594064816
 30
0.0
  0
VERTEX
  5
53
330
51
100
AcDbEntity
  8
_U+30EC_U+30A4_U+30E4_U+30FC 1
 62
   179
420
  2234388
370
    25
100
AcDbVertex
100
AcDb2dVertex
 10
93.08337762524519
 20
-151.8525594064816
 30
0.0
  0
SEQEND
  5
54
330
51
100
AcDbEntity
  8
_U+30EC_U+30A4_U+30E4_U+30FC 1
 62
   179
420
  2234388
370
    25
  0
POLYLINE
  5
55
330
1F
100
AcDbEntity
  8
_U+30EC_U+30A4_U+30E4_U+30FC 1
 62
   179
420
  2234388
370
    25
100
AcDb2dPolyline
 66
     1
 10
0.0
 20
0.0
 30
0.0
  0
VERTEX
  5
56
330
55
100
AcDbEntity
  8
_U+30EC_U+30A4_U+30E4_U+30FC 1
 62
   179
420
  2234388
370
    25
100
AcDbVertex
100
AcDb2dVertex
 10
92.08325265076051
 20
-152.8523316284535
 30
0.0
  0
VERTEX
  5
57
330
55
100
AcDbEntity
  8
_U+30EC_U+30A4_U+30E4_U+30FC 1
 62
   179
420
  2234388
370
    25
100
AcDbVertex
100
AcDb2dVertex
 10
92.08325265076051
 20
-154.8525463501759
 30
0.0
  0
SEQEND
  5
58
330
55
100
AcDbEntity
  8
_U+30EC_U+30A4_U+30E4_U+30FC 1
 62
   179
420
  2234388
370
    25
  0
POLYLINE
  5
59
330
1F
100
AcDbEntity
  8
_U+30EC_U+30A4_U+30E4_U+30FC 1
 62
   179
420
  2234388
370
    25
100
AcDb2dPolyline
 66
     1
 10
0.0
 20
0.0
 30
0.0
  0
VERTEX
  5
5A
330
59
100
AcDbEntity
  8
_U+30EC_U+30A4_U+30E4_U+30FC 1
 62
   179
420
  2234388
370
    25
100
AcDbVertex
100
AcDb2dVertex
 10
89.08326578285211
 20
-151.8525594064816
 30
0.0
  0
VERTEX
  5
5B
330
59
100
AcDbEntity
  8
_U+30EC_U+30A4_U+30E4_U+30FC 1
 62
   179
420
  2234388
370
    25
100
AcDbVertex
100
AcDb2dVertex
 10
89.08326578285211
 20
-152.8523316284535
 30
0.0
  0
SEQEND
  5
5C
330
59
100
AcDbEntity
  8
_U+30EC_U+30A4_U+30E4_U+30FC 1
 62
   179
420
  2234388
370
    25
  0
POLYLINE
  5
5D
330
1F
100
AcDbEntity
  8
_U+30EC_U+30A4_U+30E4_U+30FC 1
 62
   179
420
  2234388
370
    25
100
AcDb2dPolyline
 66
     1
 10
0.0
 20
0.0
 30
0.0
  0
VERTEX
  5
5E
330
5D
100
AcDbEntity
  8
_U+30EC_U+30A4_U+30E4_U+30FC 1
 62
   179
420
  2234388
370
    25
100
AcDbVertex
100
AcDb2dVertex
 10
89.08326578285211
 20
-152.8523316284535
 30
0.0
  0
VERTEX
  5
5F
330
5D
100
AcDbEntity
  8
_U+30EC_U+30A4_U+30E4_U+30FC 1
 62
   179
420
  2234388
370
    25
100
AcDbVertex
100
AcDb2dVertex
 10
92.08325265076051
 20
-152.8523316284535
 30
0.0
  0
SEQEND
  5
60
330
5D
100
AcDbEntity
  8
_U+30EC_U+30A4_U+30E4_U+30FC 1
 62
   179
420
  2234388
370
    25
  0
POLYLINE
  5
61
330
1F
100
AcDbEntity
  8
_U+30EC_U+30A4_U+30E4_U+30FC 1
 62
   179
420
  2234388
370
    25
100
AcDb2dPolyline
 66
     1
 10
0.0
 20
0.0
 30
0.0
  0
VERTEX
  5
62
330
61
100
AcDbEntity
  8
_U+30EC_U+30A4_U+30E4_U+30FC 1
 62
   179
420
  2234388
370
    25
100
AcDbVertex
100
AcDb2dVertex
 10
75.08310553678473
 20
-154.8525463501759
 30
0.0
  0
VERTEX
  5
63
330
61
100
AcDbEntity
  8
_U+30EC_U+30A4_U+30E4_U+30FC 1
 62
   179
420
  2234388
370
    25
100
AcDbVertex
100
AcDb2dVertex
 10
92.08325265076051
 20
-154.8525463501759
 30
0.0
  0
SEQEND
  5
64
330
61
100
AcDbEntity
  8
_U+30EC_U+30A4_U+30E4_U+30FC 1
 62
   179
420
  2234388
370
    25
  0
POLYLINE
  5
65
330
1F
100
AcDbEntity
  8
_U+30EC_U+30A4_U+30E4_U+30FC 1
 62
   179
420
  2234388
370
    25
100
AcDb2dPolyline
 66
     1
 10
0.0
 20
0.0
 30
0.0
  0
VERTEX
  5
66
330
65
100
AcDbEntity
  8
_U+30EC_U+30A4_U+30E4_U+30FC 1
 62
   179
420
  2234388
370
    25
100
AcDbVertex
100
AcDb2dVertex
 10
75.08310553678473
 20
-138.8521691319536
 30
0.0
  0
VERTEX
  5
67
330
65
100
AcDbEntity
  8
_U+30EC_U+30A4_U+30E4_U+30FC 1
 62
   179
420
  2234388
370
    25
100
AcDbVertex
100
AcDb2dVertex
 10
75.08310553678473
 20
-154.8525463501759
 30
0.0
  0
SEQEND
  5
68
330
65
100
AcDbEntity
  8
_U+30EC_U+30A4_U+30E4_U+30FC 1
 62
   179
420
  2234388
370
    25
  0
POLYLINE
  5
69
330
1F
100
AcDbEntity
  8
_U+30EC_U+30A4_U+30E4_U+30FC 1
 62
   179
420
  2234388
370
    25
100
AcDb2dPolyline
 66
     1
 10
0.0
 20
0.0
 30
0.0
  0
VERTEX
  5
6A
330
69
100
AcDbEntity
  8
_U+30EC_U+30A4_U+30E4_U+30FC 1
 62
   179
420
  2234388
370
    25
100
AcDbVertex
100
AcDb2dVertex
 10
75.08310553678473
 20
-138.8521691319536
 30
0.0
  0
VERTEX
  5
6B
330
69
100
AcDbEntity
  8
_U+30EC_U+30A4_U+30E4_U+30FC 1
 62
   179
420
  2234388
370
    25
100
AcDbVertex
100
AcDb2dVertex
 10
92.08325265076051
 20
-138.8521691319536
 30
0.0
  0
SEQEND
  5
6C
330
69
100
AcDbEntity
  8
_U+30EC_U+30A4_U+30E4_U+30FC 1
 62
   179
420
  2234388
370
    25
  0
POLYLINE
  5
6D
330
1F
100
AcDbEntity
  8
_U+30EC_U+30A4_U+30E4_U+30FC 1
 62
   179
420
  2234388
370
    25
100
AcDb2dPolyline
 66
     1
 10
0.0
 20
0.0
 30
0.0
  0
VERTEX
  5
6E
330
6D
100
AcDbEntity
  8
_U+30EC_U+30A4_U+30E4_U+30FC 1
 62
   179
420
  2234388
370
    25
100
AcDbVertex
100
AcDb2dVertex
 10
78.0830905079344
 20
-132.852195244565
 30
0.0
  0
VERTEX
  5
6F
330
6D
100
AcDbEntity
  8
_U+30EC_U+30A4_U+30E4_U+30FC 1
 62
   179
420
  2234388
370
    25
100
AcDbVertex
100
AcDb2dVertex
 10
78.0830905079344
 20
-133.8526377443149
 30
0.0
  0
SEQEND
  5
70
330
6D
100
AcDbEntity
  8
_U+30EC_U+30A4_U+30E4_U+30FC 1
 62
   179
420
  2234388
370
    25
  0
POLYLINE
  5
71
330
1F
100
AcDbEntity
  8
_U+30EC_U+30A4_U+30E4_U+30FC 1
 62
   179
420
  2234388
370
    25
100
AcDb2dPolyline
 66
     1
 10
0.0
 20
0.0
 30
0.0
  0
VERTEX
  5
72
330
71
100
AcDbEntity
  8
_U+30EC_U+30A4_U+30E4_U+30FC 1
 62
   179
420
  2234388
370
    25
100
AcDbVertex
100
AcDb2dVertex
 10
74.0833333148125
 20
-132.852195244565
 30
0.0
  0
VERTEX
  5
73
330
71
100
AcDbEntity
  8
_U+30EC_U+30A4_U+30E4_U+30FC 1
 62
   179
420
  2234388
370
    25
100
AcDbVertex
100
AcDb2dVertex
 10
78.0830905079344
 20
-132.852195244565
 30
0.0
  0
SEQEND
  5
74
330
71
100
AcDbEntity
  8
_U+30EC_U+30A4_U+30E4_U+30FC 1
 62
   179
420
  2234388
370
    25
  0
POLYLINE
  5
75
330
1F
100
AcDbEntity
  8
_U+30EC_U+30A4_U+30E4_U+30FC 1
 62
   179
420
  2234388
370
    25
100
AcDb2dPolyline
 66
     1
 10
0.0
 20
0.0
 30
0.0
  0
VERTEX
  5
76
330
75
100
AcDbEntity
  8
_U+30EC_U+30A4_U+30E4_U+30FC 1
 62
   179
420
  2234388
370
    25
100
AcDbVertex
100
AcDb2dVertex
 10
75.08310553678473
 20
-133.8526377443149
 30
0.0
  0
VERTEX
  5
77
330
75
100
AcDbEntity
  8
_U+30EC_U+30A4_U+30E4_U+30FC 1
 62
   179
420
  2234388
370
    25
100
AcDbVertex
100
AcDb2dVertex
 10
78.0830905079344
 20
-133.8526377443149
 30
0.0
  0
SEQEND
  5
78
330
75
100
AcDbEntity
  8
_U+30EC_U+30A4_U+30E4_U+30FC 1
 62
   179
420
  2234388
370
    25
  0
POLYLINE
  5
79
330
1F
100
AcDbEntity
  8
_U+30EC_U+30A4_U+30E4_U+30FC 1
 62
   179
420
  2234388
370
    25
100
AcDb2dPolyline
 66
     1
 10
0.0
 20
0.0
 30
0.0
  0
VERTEX
  5
7A
330
79
100
AcDbEntity
  8
_U+30EC_U+30A4_U+30E4_U+30FC 1
 62
   179
420
  2234388
370
    25
100
AcDbVertex
100
AcDb2dVertex
 10
91.08351573182148
 20
-93.85215330987018
 30
0.0
  0
VERTEX
  5
7B
330
79
100
AcDbEntity
  8
_U+30EC_U+30A4_U+30E4_U+30FC 1
 62
   179
420
  2234388
370
    25
100
AcDbVertex
100
AcDb2dVertex
 10
91.08351573182148
 20
-137.8523969099811
 30
0.0
  0
VERTEX
  5
7C
330
79
100
AcDbEntity
  8
_U+30EC_U+30A4_U+30E4_U+30FC 1
 62
   179
420
  2234388
370
    25
100
AcDbVertex
100
AcDb2dVertex
 10
75.08310553678473
 20
-137.8523969099811
 30
0.0
  0
SEQEND
  5
7D
330
79
100
AcDbEntity
  8
_U+30EC_U+30A4_U+30E4_U+30FC 1
 62
   179
420
  2234388
370
    25
  0
POLYLINE
  5
7E
330
1F
100
AcDbEntity
  8
_U+30EC_U+30A4_U+30E4_U+30FC 1
 62
   179
420
  2234388
370
    25
100
AcDb2dPolyline
 66
     1
 10
0.0
 20
0.0
 30
0.0
  0
VERTEX
  5
7F
330
7E
100
AcDbEntity
  8
_U+30EC_U+30A4_U+30E4_U+30FC 1
 62
   179
420
  2234388
370
    25
100
AcDbVertex
100
AcDb2dVertex
 10
92.08325265076051
 20
-93.85215330987018
 30
0.0
  0
VERTEX
  5
80
330
7E
100
AcDbEntity
  8
_U+30EC_U+30A4_U+30E4_U+30FC 1
 62
   179
420
  2234388
370
    25
100
AcDbVertex
100
AcDb2dVertex
 10
92.08325265076051
 20
-138.8521691319536
 30
0.0
  0
SEQEND
  5
81
330
7E
100
AcDbEntity
  8
_U+30EC_U+30A4_U+30E4_U+30FC 1
 62
   179
420
  2234388
370
    25
  0
POLYLINE
  5
82
330
1F
100
AcDbEntity
  8
_U+30EC_U+30A4_U+30E4_U+30FC 1
 62
   179
420
  2234388
370
    25
100
AcDb2dPolyline
 66
     1
 10
0.0
 20
0.0
 30
0.0
  0
VERTEX
  5
83
330
82
100
AcDbEntity
  8
_U+30EC_U+30A4_U+30E4_U+30FC 1
 62
   179
420
  2234388
370
    25
100
AcDbVertex
100
AcDb2dVertex
 10
75.08310553678473
 20
-133.8526377443149
 30
0.0
  0
VERTEX
  5
84
330
82
100
AcDbEntity
  8
_U+30EC_U+30A4_U+30E4_U+30FC 1
 62
   179
420
  2234388
370
    25
100
AcDbVertex
100
AcDb2dVertex
 10
75.08310553678473
 20
-137.8523969099811
 30
0.0
  0
SEQEND
  5
85
330
82
100
AcDbEntity
  8
_U+30EC_U+30A4_U+30E4_U+30FC 1
 62
   179
420
  2234388
370
    25
  0
POLYLINE
  5
86
330
1F
100
AcDbEntity
  8
_U+30EC_U+30A4_U+30E4_U+30FC 1
 62
   179
420
  2234388
370
     9
100
AcDb2dPolyline
 66
     1
 10
0.0
 20
0.0
 30
0.0
  0
VERTEX
  5
87
330
86
100
AcDbEntity
  8
_U+30EC_U+30A4_U+30E4_U+30FC 1
 62
   179
420
  2234388
370
     9
100
AcDbVertex
100
AcDb2dVertex
 10
92.29894097859118
 20
-103.8591183073686
 30
0.0
  0
VERTEX
  5
88
330
86
100
AcDbEntity
  8
_U+30EC_U+30A4_U+30E4_U+30FC 1
 62
   179
420
  2234388
370
     9
100
AcDbVertex
100
AcDb2dVertex
 10
89.0285146731378
 20
-103.8591183073686
 30
0.0
  0
SEQEND
  5
89
330
86
100
AcDbEntity
  8
_U+30EC_U+30A4_U+30E4_U+30FC 1
 62
   179
420
  2234388
370
     9
  0
POLYLINE
  5
8A
330
1F
100
AcDbEntity
  8
_U+30EC_U+30A4_U+30E4_U+30FC 1
 62
   179
420
  2234388
370
     9
100
AcDb2dPolyline
 66
     1
 10
0.0
 20
0.0
 30
0.0
  0
VERTEX
  5
8B
330
8A
100
AcDbEntity
  8
_U+30EC_U+30A4_U+30E4_U+30FC 1
 62
   179
420
  2234388
370
     9
100
AcDbVertex
100
AcDb2dVertex
 10
94.29880287201489
 20
-103.8591183073686
 30
0.0
  0
VERTEX
  5
8C
330
8A
100
AcDbEntity
  8
_U+30EC_U+30A4_U+30E4_U+30FC 1
 62
   179
420
  2234388
370
     9
100
AcDbVertex
100
AcDb2dVertex
 10
92.29894097859118
 20
-103.8591183073686
 30
0.0
  0
SEQEND
  5
8D
330
8A
100
AcDbEntity
  8
_U+30EC_U+30A4_U+30E4_U+30FC 1
 62
   179
420
  2234388
370
     9
  0
INSERT
  5
8F
330
1F
100
AcDbEntity
  8
_U+30EC_U+30A4_U+30E4_U+30FC 1
100
AcDbBlockReference
  2
block 2
 10
0.0
 20
0.0
 30
0.0
  0
POLYLINE
  5
94
330
1F
100
AcDbEntity
  8
_U+30EC_U+30A4_U+30E4_U+30FC 1
  6
AI-Linetype-1
 62
   154
420
    23468
370
    25
100
AcDb2dPolyline
 66
     1
 10
0.0
 20
0.0
 30
0.0
  0
VERTEX
  5
95
330
94
100
AcDbEntity
  8
_U+30EC_U+30A4_U+30E4_U+30FC 1
  6
AI-Linetype-1
 62
   154
420
    23468
370
    25
100
AcDbVertex
100
AcDb2dVertex
 10
94.08350259972988
 20
-151.8525594064816
 30
0.0
  0
VERTEX
  5
96
330
94
100
AcDbEntity
  8
_U+30EC_U+30A4_U+30E4_U+30FC 1
  6
AI-Linetype-1
 62
   154
420
    23468
370
    25
100
AcDbVertex
100
AcDb2dVertex
 10
94.08350259972988
 20
-156.8520907941204
 30
0.0
  0
VERTEX
  5
97
330
94
100
AcDbEntity
  8
_U+30EC_U+30A4_U+30E4_U+30FC 1
  6
AI-Linetype-1
 62
   154
420
    23468
370
    25
100
AcDbVertex
100
AcDb2dVertex
 10
73.08356109284028
 20
-156.8520907941204
 30
0.0
  0
VERTEX
  5
98
330
94
100
AcDbEntity
  8
_U+30EC_U+30A4_U+30E4_U+30FC 1
  6
AI-Linetype-1
 62
   154
420
    23468
370
    25
100
AcDbVertex
100
AcDb2dVertex
 10
73.08356109284028
 20
-131.8517174670369
 30
0.0
  0
VERTEX
  5
99
330
94
100
AcDbEntity
  8
_U+30EC_U+30A4_U+30E4_U+30FC 1
  6
AI-Linetype-1
 62
   154
420
    23468
370
    25
100
AcDbVertex
100
AcDb2dVertex
 10
78.0830905079344
 20
-131.8517174670369
 30
0.0
  0
SEQEND
  5
9B
330
94
100
AcDbEntity
  8
_U+30EC_U+30A4_U+30E4_U+30FC 1
  6
AI-Linetype-1
 62
   154
420
    23468
370
    25
  0
POLYLINE
  5
9C
330
1F
100
AcDbEntity
  8
_U+30EC_U+30A4_U+30E4_U+30FC 1
 62
   179
420
  2234388
370
     9
100
AcDb2dPolyline
 66
     1
 10
0.0
 20
0.0
 30
0.0
  0
VERTEX
  5
9D
330
9C
100
AcDbEntity
  8
_U+30EC_U+30A4_U+30E4_U+30FC 1
 62
   179
420
  2234388
370
     9
100
AcDbVertex
100
AcDb2dVertex
 10
74.08954033204057
 20
-160.0773969044249
 30
0.0
  0
VERTEX
  5
9E
330
9C
100
AcDbEntity
  8
_U+30EC_U+30A4_U+30E4_U+30FC 1
 62
   179
420
  2234388
370
     9
100
AcDbVertex
100
AcDb2dVertex
 10
93.08923608783881
 20
-160.0773969044249
 30
0.0
  0
SEQEND
  5
9F
330
9C
100
AcDbEntity
  8
_U+30EC_U+30A4_U+30E4_U+30FC 1
 62
   179
420
  2234388
370
     9
  0
SPLINE
  5
A0
330
1F
100
AcDbEntity
  8
_U+30EC_U+30A4_U+30E4_U+30FC 1
 62
   179
420
  2234388
370
     9
100
AcDbSpline
210
0.0
220
0.0
230
1.0
 70
    11
 71
     3
 72
    17
 73
    13
 74
     0
 42
0.0000000001
 43
0.0000000001
 12
1.0
 22
0.0
 32
0.0
 13
1.0
 23
0.0
 33
0.0
 40
0.0
 40
0.0
 40
0.0
 40
0.0
 40
1.0
 40
1.0
 40
1.0
 40
2.0
 40
2.0
 40
2.0
 40
3.0
 40
3.0
 40
3.0
 40
4.0
 40
4.0
 40
4.0
 40
4.0
 10
93.1898459558623
 20
-160.0773969044249
 30
0.0
 10
93.1898459558623
 20
-160.0222577377724
 30
0.0
 10
93.14504317922753
 20
-159.9774902377832
 30
0.0
 10
93.08923608783881
 20
-159.9774902377832
 30
0.0
 10
93.03412984872384
 20
-159.9774902377832
 30
0.0
 10
92.98932707208907
 20
-160.0222577377724
 30
0.0
 10
92.98932707208907
 20
-160.0773969044249
 30
0.0
 10
92.98932707208907
 20
-160.1325007933004
 30
0.0
 10
93.03412984872384
 20
-160.1773035710665
 30
0.0
 10
93.08923608783881
 20
-160.1773035710665
 30
0.0
 10
93.14504317922753
 20
-160.1773035710665
 30
0.0
 10
93.1898459558623
 20
-160.1325007933004
 30
0.0
 10
93.1898459558623
 20
-160.0773969044249
 30
0.0
  0
POLYLINE
  5
A1
330
1F
100
AcDbEntity
  8
_U+30EC_U+30A4_U+30E4_U+30FC 1
 62
   179
420
  2234388
370
     9
100
AcDb2dPolyline
 66
     1
 10
0.0
 20
0.0
 30
0.0
  0
VERTEX
  5
A2
330
A1
100
AcDbEntity
  8
_U+30EC_U+30A4_U+30E4_U+30FC 1
 62
   179
420
  2234388
370
     9
100
AcDbVertex
100
AcDb2dVertex
 10
93.08923608783881
 20
-157.6169130161512
 30
0.0
  0
VERTEX
  5
A3
330
A1
100
AcDbEntity
  8
_U+30EC_U+30A4_U+30E4_U+30FC 1
 62
   179
420
  2234388
370
     9
100
AcDbVertex
100
AcDb2dVertex
 10
93.08923608783881
 20
-161.0771691263974
 30
0.0
  0
SEQEND
  5
A4
330
A1
100
AcDbEntity
  8
_U+30EC_U+30A4_U+30E4_U+30FC 1
 62
   179
420
  2234388
370
     9
  0
SPLINE
  5
A5
330
1F
100
AcDbEntity
  8
_U+30EC_U+30A4_U+30E4_U+30FC 1
 62
   179
420
  2234388
370
     9
100
AcDbSpline
210
0.0
220
0.0
230
1.0
 70
    11
 71
     3
 72
    17
 73
    13
 74
     0
 42
0.0000000001
 43
0.0000000001
 12
1.0
 22
0.0
 32
0.0
 13
1.0
 23
0.0
 33
0.0
 40
0.0
 40
0.0
 40
0.0
 40
0.0
 40
1.0
 40
1.0
 40
1.0
 40
2.0
 40
2.0
 40
2.0
 40
3.0
 40
3.0
 40
3.0
 40
4.0
 40
4.0
 40
4.0
 40
4.0
 10
74.19011727391909
 20
-160.0773969044249
 30
0.0
 10
74.19011727391909
 20
-160.0222577377724
 30
0.0
 10
74.1453497750612
 20
-159.9774902377832
 30
0.0
 10
74.08954033204057
 20
-159.9774902377832
 30
0.0
 10
74.03440116678063
 20
-159.9774902377832
 30
0.0
 10
73.98963366792275
 20
-160.0222577377724
 30
0.0
 10
73.98963366792275
 20
-160.0773969044249
 30
0.0
 10
73.98963366792275
 20
-160.1325007933004
 30
0.0
 10
74.03440116678063
 20
-160.1773035710665
 30
0.0
 10
74.08954033204057
 20
-160.1773035710665
 30
0.0
 10
74.1453497750612
 20
-160.1773035710665
 30
0.0
 10
74.19011727391909
 20
-160.1325007933004
 30
0.0
 10
74.19011727391909
 20
-160.0773969044249
 30
0.0
  0
POLYLINE
  5
A6
330
1F
100
AcDbEntity
  8
_U+30EC_U+30A4_U+30E4_U+30FC 1
 62
   179
420
  2234388
370
     9
100
AcDb2dPolyline
 66
     1
 10
0.0
 20
0.0
 30
0.0
  0
VERTEX
  5
A7
330
A6
100
AcDbEntity
  8
_U+30EC_U+30A4_U+30E4_U+30FC 1
 62
   179
420
  2234388
370
     9
100
AcDbVertex
100
AcDb2dVertex
 10
74.08954033204057
 20
-157.6169130161512
 30
0.0
  0
VERTEX
  5
A8
330
A6
100
AcDbEntity
  8
_U+30EC_U+30A4_U+30E4_U+30FC 1
 62
   179
420
  2234388
370
     9
100
AcDbVertex
100
AcDb2dVertex
 10
74.08954033204057
 20
-161.0771691263974
 30
0.0
  0
SEQEND
  5
A9
330
A6
100
AcDbEntity
  8
_U+30EC_U+30A4_U+30E4_U+30FC 1
 62
   179
420
  2234388
370
     9
  0
INSERT
  5
AB
330
1F
100
AcDbEntity
  8
_U+30EC_U+30A4_U+30E4_U+30FC 1
100
AcDbBlockReference
  2
block 3
 10
0.0
 20
0.0
 30
0.0
  0
SPLINE
  5
B3
330
1F
100
AcDbEntity
  8
_U+30EC_U+30A4_U+30E4_U+30FC 1
 62
   179
420
  2234388
370
     9
100
AcDbSpline
210
0.0
220
0.0
230
1.0
 70
    11
 71
     3
 72
    17
 73
    13
 74
     0
 42
0.0000000001
 43
0.0000000001
 12
1.0
 22
0.0
 32
0.0
 13
1.0
 23
0.0
 33
0.0
 40
0.0
 40
0.0
 40
0.0
 40
0.0
 40
1.0
 40
1.0
 40
1.0
 40
2.0
 40
2.0
 40
2.0
 40
3.0
 40
3.0
 40
3.0
 40
4.0
 40
4.0
 40
4.0
 40
4.0
 10
96.74722169843942
 20
-93.85215330987018
 30
0.0
 10
96.74722169843942
 20
-93.90725719874541
 30
0.0
 10
96.79202447507417
 20
-93.95205997651213
 30
0.0
 10
96.84712836255724
 20
-93.95205997651213
 30
0.0
 10
96.9022675278172
 20
-93.95205997651213
 30
0.0
 10
96.94703502667508
 20
-93.90725719874541
 30
0.0
 10
96.94703502667508
 20
-93.85215330987018
 30
0.0
 10
96.94703502667508
 20
-93.79634386543974
 30
0.0
 10
96.9022675278172
 20
-93.75154108767335
 30
0.0
 10
96.84712836255724
 20
-93.75154108767335
 30
0.0
 10
96.79202447507417
 20
-93.75154108767335
 30
0.0
 10
96.74722169843942
 20
-93.79634386543974
 30
0.0
 10
96.74722169843942
 20
-93.85215330987018
 30
0.0
  0
POLYLINE
  5
B4
330
1F
100
AcDbEntity
  8
_U+30EC_U+30A4_U+30E4_U+30FC 1
 62
   179
420
  2234388
370
     9
100
AcDb2dPolyline
 66
     1
 10
0.0
 20
0.0
 30
0.0
  0
VERTEX
  5
B5
330
B4
100
AcDbEntity
  8
_U+30EC_U+30A4_U+30E4_U+30FC 1
 62
   179
420
  2234388
370
     9
100
AcDbVertex
100
AcDb2dVertex
 10
96.84712836255724
 20
-93.85423469875859
 30
0.0
  0
VERTEX
  5
B6
330
B4
100
AcDbEntity
  8
_U+30EC_U+30A4_U+30E4_U+30FC 1
 62
   179
420
  2234388
370
     9
100
AcDbVertex
100
AcDb2dVertex
 10
96.84712836255724
 20
-155.8523185721478
 30
0.0
  0
SEQEND
  5
B7
330
B4
100
AcDbEntity
  8
_U+30EC_U+30A4_U+30E4_U+30FC 1
 62
   179
420
  2234388
370
     9
  0
POLYLINE
  5
B8
330
1F
100
AcDbEntity
  8
_U+30EC_U+30A4_U+30E4_U+30FC 1
 62
   179
420
  2234388
370
     9
100
AcDb2dPolyline
 66
     1
 10
0.0
 20
0.0
 30
0.0
  0
VERTEX
  5
B9
330
B8
100
AcDbEntity
  8
_U+30EC_U+30A4_U+30E4_U+30FC 1
 62
   179
420
  2234388
370
     9
100
AcDbVertex
100
AcDb2dVertex
 10
95.22311590398925
 20
-93.85215330987018
 30
0.0
  0
VERTEX
  5
BA
330
B8
100
AcDbEntity
  8
_U+30EC_U+30A4_U+30E4_U+30FC 1
 62
   179
420
  2234388
370
     9
100
AcDbVertex
100
AcDb2dVertex
 10
97.84690055927315
 20
-93.85215330987018
 30
0.0
  0
SEQEND
  5
BB
330
B8
100
AcDbEntity
  8
_U+30EC_U+30A4_U+30E4_U+30FC 1
 62
   179
420
  2234388
370
     9
  0
INSERT
  5
BD
330
1F
100
AcDbEntity
  8
_U+30EC_U+30A4_U+30E4_U+30FC 1
100
AcDbBlockReference
  2
block 4
 10
0.0
 20
0.0
 30
0.0
  0
INSERT
  5
D8
330
1F
100
AcDbEntity
  8
_U+30EC_U+30A4_U+30E4_U+30FC 1
100
AcDbBlockReference
  2
block 5
 10
0.0
 20
0.0
 30
0.0
  0
INSERT
  5
E0
330
1F
100
AcDbEntity
  8
_U+30EC_U+30A4_U+30E4_U+30FC 1
100
AcDbBlockReference
  2
block 6
 10
0.0
 20
0.0
 30
0.0
  0
SPLINE
  5
F8
330
1F
100
AcDbEntity
  8
_U+30EC_U+30A4_U+30E4_U+30FC 1
 62
   179
420
  2234388
370
     9
100
AcDbSpline
210
0.0
220
0.0
230
1.0
 70
    11
 71
     3
 72
    17
 73
    13
 74
     0
 42
0.0000000001
 43
0.0000000001
 12
1.0
 22
0.0
 32
0.0
 13
1.0
 23
0.0
 33
0.0
 40
0.0
 40
0.0
 40
0.0
 40
0.0
 40
1.0
 40
1.0
 40
1.0
 40
2.0
 40
2.0
 40
2.0
 40
3.0
 40
3.0
 40
3.0
 40
4.0
 40
4.0
 40
4.0
 40
4.0
 10
96.74722169843942
 20
-138.8521691319536
 30
0.0
 10
96.74722169843942
 20
-138.9072730208286
 30
0.0
 10
96.79202447507417
 20
-138.9520757985953
 30
0.0
 10
96.84712836255724
 20
-138.9520757985953
 30
0.0
 10
96.9022675278172
 20
-138.9520757985953
 30
0.0
 10
96.94703502667508
 20
-138.9072730208286
 30
0.0
 10
96.94703502667508
 20
-138.8521691319536
 30
0.0
 10
96.94703502667508
 20
-138.7963596875232
 30
0.0
 10
96.9022675278172
 20
-138.7515569097565
 30
0.0
 10
96.84712836255724
 20
-138.7515569097565
 30
0.0
 10
96.79202447507417
 20
-138.7515569097565
 30
0.0
 10
96.74722169843942
 20
-138.7963596875232
 30
0.0
 10
96.74722169843942
 20
-138.8521691319536
 30
0.0
  0
POLYLINE
  5
F9
330
1F
100
AcDbEntity
  8
_U+30EC_U+30A4_U+30E4_U+30FC 1
 62
   179
420
  2234388
370
     9
100
AcDb2dPolyline
 66
     1
 10
0.0
 20
0.0
 30
0.0
  0
VERTEX
  5
FA
330
F9
100
AcDbEntity
  8
_U+30EC_U+30A4_U+30E4_U+30FC 1
 62
   179
420
  2234388
370
     9
100
AcDbVertex
100
AcDb2dVertex
 10
95.22311590398925
 20
-138.8521691319536
 30
0.0
  0
VERTEX
  5
FB
330
F9
100
AcDbEntity
  8
_U+30EC_U+30A4_U+30E4_U+30FC 1
 62
   179
420
  2234388
370
     9
100
AcDbVertex
100
AcDb2dVertex
 10
97.84690055927315
 20
-138.8521691319536
 30
0.0
  0
SEQEND
  5
FC
330
F9
100
AcDbEntity
  8
_U+30EC_U+30A4_U+30E4_U+30FC 1
 62
   179
420
  2234388
370
     9
  0
SPLINE
  5
FD
330
1F
100
AcDbEntity
  8
_U+30EC_U+30A4_U+30E4_U+30FC 1
 62
   179
420
  2234388
370
     9
100
AcDbSpline
210
0.0
220
0.0
230
1.0
 70
    11
 71
     3
 72
    17
 73
    13
 74
     0
 42
0.0000000001
 43
0.0000000001
 12
1.0
 22
0.0
 32
0.0
 13
1.0
 23
0.0
 33
0.0
 40
0.0
 40
0.0
 40
0.0
 40
0.0
 40
1.0
 40
1.0
 40
1.0
 40
2.0
 40
2.0
 40
2.0
 40
3.0
 40
3.0
 40
3.0
 40
4.0
 40
4.0
 40
4.0
 40
4.0
 10
96.74722169843942
 20
-151.8518891287036
 30
0.0
 10
96.74722169843942
 20
-151.9069930175791
 30
0.0
 10
96.79202447507417
 20
-151.9517957953452
 30
0.0
 10
96.84712836255724
 20
-151.9517957953452
 30
0.0
 10
96.9022675278172
 20
-151.9517957953452
 30
0.0
 10
96.94703502667508
 20
-151.9069930175791
 30
0.0
 10
96.94703502667508
 20
-151.8518891287036
 30
0.0
 10
96.94703502667508
 20
-151.7960796842731
 30
0.0
 10
96.9022675278172
 20
-151.7512769065064
 30
0.0
 10
96.84712836255724
 20
-151.7512769065064
 30
0.0
 10
96.79202447507417
 20
-151.7512769065064
 30
0.0
 10
96.74722169843942
 20
-151.7960796842731
 30
0.0
 10
96.74722169843942
 20
-151.8518891287036
 30
0.0
  0
POLYLINE
  5
FE
330
1F
100
AcDbEntity
  8
_U+30EC_U+30A4_U+30E4_U+30FC 1
 62
   179
420
  2234388
370
     9
100
AcDb2dPolyline
 66
     1
 10
0.0
 20
0.0
 30
0.0
  0
VERTEX
  5
FF
330
FE
100
AcDbEntity
  8
_U+30EC_U+30A4_U+30E4_U+30FC 1
 62
   179
420
  2234388
370
     9
100
AcDbVertex
100
AcDb2dVertex
 10
95.22311590398925
 20
-151.8518891287036
 30
0.0
  0
VERTEX
  5
100
330
FE
100
AcDbEntity
  8
_U+30EC_U+30A4_U+30E4_U+30FC 1
 62
   179
420
  2234388
370
     9
100
AcDbVertex
100
AcDb2dVertex
 10
97.84690055927315
 20
-151.8518891287036
 30
0.0
  0
SEQEND
  5
101
330
FE
100
AcDbEntity
  8
_U+30EC_U+30A4_U+30E4_U+30FC 1
 62
   179
420
  2234388
370
     9
  0
SPLINE
  5
102
330
1F
100
AcDbEntity
  8
_U+30EC_U+30A4_U+30E4_U+30FC 1
 62
   179
420
  2234388
370
     9
100
AcDbSpline
210
0.0
220
0.0
230
1.0
 70
    11
 71
     3
 72
    17
 73
    13
 74
     0
 42
0.0000000001
 43
0.0000000001
 12
1.0
 22
0.0
 32
0.0
 13
1.0
 23
0.0
 33
0.0
 40
0.0
 40
0.0
 40
0.0
 40
0.0
 40
1.0
 40
1.0
 40
1.0
 40
2.0
 40
2.0
 40
2.0
 40
3.0
 40
3.0
 40
3.0
 40
4.0
 40
4.0
 40
4.0
 40
4.0
 10
96.74722169843942
 20
-155.8523185721478
 30
0.0
 10
96.74722169843942
 20
-155.9074577388009
 30
0.0
 10
96.79202447507417
 20
-155.9522252387895
 30
0.0
 10
96.84712836255724
 20
-155.9522252387895
 30
0.0
 10
96.9022675278172
 20
-155.9522252387895
 30
0.0
 10
96.94703502667508
 20
-155.9074577388009
 30
0.0
 10
96.94703502667508
 20
-155.8523185721478
 30
0.0
 10
96.94703502667508
 20
-155.7965091277174
 30
0.0
 10
96.9022675278172
 20
-155.7517416277288
 30
0.0
 10
96.84712836255724
 20
-155.7517416277288
 30
0.0
 10
96.79202447507417
 20
-155.7517416277288
 30
0.0
 10
96.74722169843942
 20
-155.7965091277174
 30
0.0
 10
96.74722169843942
 20
-155.8523185721478
 30
0.0
  0
POLYLINE
  5
103
330
1F
100
AcDbEntity
  8
_U+30EC_U+30A4_U+30E4_U+30FC 1
 62
   179
420
  2234388
370
     9
100
AcDb2dPolyline
 66
     1
 10
0.0
 20
0.0
 30
0.0
  0
VERTEX
  5
104
330
103
100
AcDbEntity
  8
_U+30EC_U+30A4_U+30E4_U+30FC 1
 62
   179
420
  2234388
370
     9
100
AcDbVertex
100
AcDb2dVertex
 10
95.22311590398925
 20
-155.8523185721478
 30
0.0
  0
VERTEX
  5
105
330
103
100
AcDbEntity
  8
_U+30EC_U+30A4_U+30E4_U+30FC 1
 62
   179
420
  2234388
370
     9
100
AcDbVertex
100
AcDb2dVertex
 10
97.84690055927315
 20
-155.8523185721478
 30
0.0
  0
SEQEND
  5
106
330
103
100
AcDbEntity
  8
_U+30EC_U+30A4_U+30E4_U+30FC 1
 62
   179
420
  2234388
370
     9
  0
POLYLINE
  5
107
330
1F
100
AcDbEntity
  8
_U+30EC_U+30A4_U+30E4_U+30FC 1
 62
   179
420
  2234388
370
     9
100
AcDb2dPolyline
 66
     1
 10
0.0
 20
0.0
 30
0.0
  0
VERTEX
  5
108
330
107
100
AcDbEntity
  8
_U+30EC_U+30A4_U+30E4_U+30FC 1
 62
   179
420
  2234388
370
     9
100
AcDbVertex
100
AcDb2dVertex
 10
91.08351573182148
 20
-129.5710796898294
 30
0.0
  0
VERTEX
  5
109
330
107
100
AcDbEntity
  8
_U+30EC_U+30A4_U+30E4_U+30FC 1
 62
   179
420
  2234388
370
     9
100
AcDbVertex
100
AcDb2dVertex
 10
74.11398783141686
 20
-129.5710796898294
 30
0.0
  0
SEQEND
  5
10A
330
107
100
AcDbEntity
  8
_U+30EC_U+30A4_U+30E4_U+30FC 1
 62
   179
420
  2234388
370
     9
  0
SPLINE
  5
10B
330
1F
100
AcDbEntity
  8
_U+30EC_U+30A4_U+30E4_U+30FC 1
 62
   179
420
  2234388
370
     9
100
AcDbSpline
210
0.0
220
0.0
230
1.0
 70
    11
 71
     3
 72
    17
 73
    13
 74
     0
 42
0.0000000001
 43
0.0000000001
 12
1.0
 22
0.0
 32
0.0
 13
1.0
 23
0.0
 33
0.0
 40
0.0
 40
0.0
 40
0.0
 40
0.0
 40
1.0
 40
1.0
 40
1.0
 40
2.0
 40
2.0
 40
2.0
 40
3.0
 40
3.0
 40
3.0
 40
4.0
 40
4.0
 40
4.0
 40
4.0
 10
74.08298053703474
 20
-129.4711730231877
 30
0.0
 10
74.02787477805823
 20
-129.4711730231877
 30
0.0
 10
73.98307200142348
 20
-129.5159405231763
 30
0.0
 10
73.98307200142348
 20
-129.5710796898294
 30
0.0
 10
73.98307200142348
 20
-129.6261835787043
 30
0.0
 10
74.02787477805823
 20
-129.670986356471
 30
0.0
 10
74.08298053703474
 20
-129.670986356471
 30
0.0
 10
74.13811783080126
 20
-129.670986356471
 30
0.0
 10
74.18288532965914
 20
-129.6261835787043
 30
0.0
 10
74.18288532965914
 20
-129.5710796898294
 30
0.0
 10
74.18288532965914
 20
-129.5159405231763
 30
0.0
 10
74.13811783080126
 20
-129.4711730231877
 30
0.0
 10
74.08298053703474
 20
-129.4711730231877
 30
0.0
  0
POLYLINE
  5
10C
330
1F
100
AcDbEntity
  8
_U+30EC_U+30A4_U+30E4_U+30FC 1
 62
   179
420
  2234388
370
     9
100
AcDb2dPolyline
 66
     1
 10
0.0
 20
0.0
 30
0.0
  0
VERTEX
  5
10D
330
10C
100
AcDbEntity
  8
_U+30EC_U+30A4_U+30E4_U+30FC 1
 62
   179
420
  2234388
370
     9
100
AcDbVertex
100
AcDb2dVertex
 10
74.08298053703474
 20
-128.1110383013057
 30
0.0
  0
VERTEX
  5
10E
330
10C
100
AcDbEntity
  8
_U+30EC_U+30A4_U+30E4_U+30FC 1
 62
   179
420
  2234388
370
     9
100
AcDbVertex
100
AcDb2dVertex
 10
74.08298053703474
 20
-130.851945245065
 30
0.0
  0
SEQEND
  5
10F
330
10C
100
AcDbEntity
  8
_U+30EC_U+30A4_U+30E4_U+30FC 1
 62
   179
420
  2234388
370
     9
  0
SPLINE
  5
110
330
1F
100
AcDbEntity
  8
_U+30EC_U+30A4_U+30E4_U+30FC 1
 62
   179
420
  2234388
370
     9
100
AcDbSpline
210
0.0
220
0.0
230
1.0
 70
    11
 71
     3
 72
    17
 73
    13
 74
     0
 42
0.0000000001
 43
0.0000000001
 12
1.0
 22
0.0
 32
0.0
 13
1.0
 23
0.0
 33
0.0
 40
0.0
 40
0.0
 40
0.0
 40
0.0
 40
1.0
 40
1.0
 40
1.0
 40
2.0
 40
2.0
 40
2.0
 40
3.0
 40
3.0
 40
3.0
 40
4.0
 40
4.0
 40
4.0
 40
4.0
 10
78.0830905079344
 20
-129.4711730231877
 30
0.0
 10
78.02795134267446
 20
-129.4711730231877
 30
0.0
 10
77.98318384381656
 20
-129.5159405231763
 30
0.0
 10
77.98318384381656
 20
-129.5710796898294
 30
0.0
 10
77.98318384381656
 20
-129.6261835787043
 30
0.0
 10
78.02795134267446
 20
-129.670986356471
 30
0.0
 10
78.0830905079344
 20
-129.670986356471
 30
0.0
 10
78.13819439541747
 20
-129.670986356471
 30
0.0
 10
78.18299717205224
 20
-129.6261835787043
 30
0.0
 10
78.18299717205224
 20
-129.5710796898294
 30
0.0
 10
78.18299717205224
 20
-129.5159405231763
 30
0.0
 10
78.13819439541747
 20
-129.4711730231877
 30
0.0
 10
78.0830905079344
 20
-129.4711730231877
 30
0.0
  0
POLYLINE
  5
111
330
1F
100
AcDbEntity
  8
_U+30EC_U+30A4_U+30E4_U+30FC 1
 62
   179
420
  2234388
370
     9
100
AcDb2dPolyline
 66
     1
 10
0.0
 20
0.0
 30
0.0
  0
VERTEX
  5
112
330
111
100
AcDbEntity
  8
_U+30EC_U+30A4_U+30E4_U+30FC 1
 62
   179
420
  2234388
370
     9
100
AcDbVertex
100
AcDb2dVertex
 10
78.0830905079344
 20
-128.1110383013057
 30
0.0
  0
VERTEX
  5
113
330
111
100
AcDbEntity
  8
_U+30EC_U+30A4_U+30E4_U+30FC 1
 62
   179
420
  2234388
370
     9
100
AcDbVertex
100
AcDb2dVertex
 10
78.0830905079344
 20
-130.851945245065
 30
0.0
  0
SEQEND
  5
114
330
111
100
AcDbEntity
  8
_U+30EC_U+30A4_U+30E4_U+30FC 1
 62
   179
420
  2234388
370
     9
  0
INSERT
  5
116
330
1F
100
AcDbEntity
  8
_U+30EC_U+30A4_U+30E4_U+30FC 1
100
AcDbBlockReference
  2
block 7
 10
0.0
 20
0.0
 30
0.0
  0
INSERT
  5
12F
330
1F
100
AcDbEntity
  8
_U+30EC_U+30A4_U+30E4_U+30FC 1
100
AcDbBlockReference
  2
block 8
 10
0.0
 20
0.0
 30
0.0
  0
POLYLINE
  5
136
330
1F
100
AcDbEntity
  8
_U+30EC_U+30A4_U+30E4_U+30FC 1
 62
   179
420
  2234388
370
     9
100
AcDb2dPolyline
 66
     1
 10
0.0
 20
0.0
 30
0.0
  0
VERTEX
  5
137
330
136
100
AcDbEntity
  8
_U+30EC_U+30A4_U+30E4_U+30FC 1
 62
   179
420
  2234388
370
     9
100
AcDbVertex
100
AcDb2dVertex
 10
71.08747207529639
 20
-155.8523185721478
 30
0.0
  0
VERTEX
  5
138
330
136
100
AcDbEntity
  8
_U+30EC_U+30A4_U+30E4_U+30FC 1
 62
   179
420
  2234388
370
     9
100
AcDbVertex
100
AcDb2dVertex
 10
71.08747207529639
 20
-132.8528655223423
 30
0.0
  0
SEQEND
  5
139
330
136
100
AcDbEntity
  8
_U+30EC_U+30A4_U+30E4_U+30FC 1
 62
   179
420
  2234388
370
     9
  0
POLYLINE
  5
13A
330
1F
100
AcDbEntity
  8
_U+30EC_U+30A4_U+30E4_U+30FC 1
 62
   179
420
  2234388
370
     9
100
AcDb2dPolyline
 66
     1
 10
0.0
 20
0.0
 30
0.0
  0
VERTEX
  5
13B
330
13A
100
AcDbEntity
  8
_U+30EC_U+30A4_U+30E4_U+30FC 1
 62
   179
420
  2234388
370
     9
100
AcDbVertex
100
AcDb2dVertex
 10
72.08932566084808
 20
-155.8523185721478
 30
0.0
  0
VERTEX
  5
13C
330
13A
100
AcDbEntity
  8
_U+30EC_U+30A4_U+30E4_U+30FC 1
 62
   179
420
  2234388
370
     9
100
AcDbVertex
100
AcDb2dVertex
 10
69.61504998259618
 20
-155.8523185721478
 30
0.0
  0
SEQEND
  5
13D
330
13A
100
AcDbEntity
  8
_U+30EC_U+30A4_U+30E4_U+30FC 1
 62
   179
420
  2234388
370
     9
  0
INSERT
  5
13F
330
1F
100
AcDbEntity
  8
_U+30EC_U+30A4_U+30E4_U+30FC 1
100
AcDbBlockReference
  2
block 9
 10
0.0
 20
0.0
 30
0.0
  0
SPLINE
  5
146
330
1F
100
AcDbEntity
  8
_U+30EC_U+30A4_U+30E4_U+30FC 1
 62
   179
420
  2234388
370
     9
100
AcDbSpline
210
0.0
220
0.0
230
1.0
 70
    11
 71
     3
 72
    17
 73
    13
 74
     0
 42
0.0000000001
 43
0.0000000001
 12
1.0
 22
0.0
 32
0.0
 13
1.0
 23
0.0
 33
0.0
 40
0.0
 40
0.0
 40
0.0
 40
0.0
 40
1.0
 40
1.0
 40
1.0
 40
2.0
 40
2.0
 40
2.0
 40
3.0
 40
3.0
 40
3.0
 40
4.0
 40
4.0
 40
4.0
 40
4.0
 10
71.18116985068373
 20
-155.8509427388149
 30
0.0
 10
71.18116985068373
 20
-155.79583884994
 30
0.0
 10
71.13707262958653
 20
-155.7510360721733
 30
0.0
 10
71.08126318656589
 20
-155.7510360721733
 30
0.0
 10
71.02616109335452
 20
-155.7510360721733
 30
0.0
 10
70.98135831558811
 20
-155.79583884994
 30
0.0
 10
70.98135831558811
 20
-155.8509427388149
 30
0.0
 10
70.98135831558811
 20
-155.9067521832454
 30
0.0
 10
71.02616109335452
 20
-155.9515549610121
 30
0.0
 10
71.08126318656589
 20
-155.9515549610121
 30
0.0
 10
71.13707262958653
 20
-155.9515549610121
 30
0.0
 10
71.18116985068373
 20
-155.9067521832454
 30
0.0
 10
71.18116985068373
 20
-155.8509427388149
 30
0.0
  0
POLYLINE
  5
147
330
1F
100
AcDbEntity
  8
_U+30EC_U+30A4_U+30E4_U+30FC 1
 62
   179
420
  2234388
370
     9
100
AcDb2dPolyline
 66
     1
 10
0.0
 20
0.0
 30
0.0
  0
VERTEX
  5
148
330
147
100
AcDbEntity
  8
_U+30EC_U+30A4_U+30E4_U+30FC 1
 62
   179
420
  2234388
370
     9
100
AcDbVertex
100
AcDb2dVertex
 10
72.08932566084808
 20
-132.852195244565
 30
0.0
  0
VERTEX
  5
149
330
147
100
AcDbEntity
  8
_U+30EC_U+30A4_U+30E4_U+30FC 1
 62
   179
420
  2234388
370
     9
100
AcDbVertex
100
AcDb2dVertex
 10
69.61504998259618
 20
-132.852195244565
 30
0.0
  0
SEQEND
  5
14A
330
147
100
AcDbEntity
  8
_U+30EC_U+30A4_U+30E4_U+30FC 1
 62
   179
420
  2234388
370
     9
  0
SPLINE
  5
14B
330
1F
100
AcDbEntity
  8
_U+30EC_U+30A4_U+30E4_U+30FC 1
 62
   179
420
  2234388
370
     9
100
AcDbSpline
210
0.0
220
0.0
230
1.0
 70
    11
 71
     3
 72
    17
 73
    13
 74
     0
 42
0.0000000001
 43
0.0000000001
 12
1.0
 22
0.0
 32
0.0
 13
1.0
 23
0.0
 33
0.0
 40
0.0
 40
0.0
 40
0.0
 40
0.0
 40
1.0
 40
1.0
 40
1.0
 40
2.0
 40
2.0
 40
2.0
 40
3.0
 40
3.0
 40
3.0
 40
4.0
 40
4.0
 40
4.0
 40
4.0
 10
71.18116985068373
 20
-132.8508194112314
 30
0.0
 10
71.18116985068373
 20
-132.795680244579
 30
0.0
 10
71.13707262958653
 20
-132.7515830223678
 30
0.0
 10
71.08126318656589
 20
-132.7515830223678
 30
0.0
 10
71.02616109335452
 20
-132.7515830223678
 30
0.0
 10
70.98135831558811
 20
-132.795680244579
 30
0.0
 10
70.98135831558811
 20
-132.8508194112314
 30
0.0
 10
70.98135831558811
 20
-132.9066288556625
 30
0.0
 10
71.02616109335452
 20
-132.9513963556511
 30
0.0
 10
71.08126318656589
 20
-132.9513963556511
 30
0.0
 10
71.13707262958653
 20
-132.9513963556511
 30
0.0
 10
71.18116985068373
 20
-132.9066288556625
 30
0.0
 10
71.18116985068373
 20
-132.8508194112314
 30
0.0
  0
POLYLINE
  5
14C
330
1F
100
AcDbEntity
  8
_U+30EC_U+30A4_U+30E4_U+30FC 1
 62
   179
420
  2234388
370
     9
100
AcDb2dPolyline
 66
     1
 10
0.0
 20
0.0
 30
0.0
  0
VERTEX
  5
14D
330
14C
100
AcDbEntity
  8
_U+30EC_U+30A4_U+30E4_U+30FC 1
 62
   179
420
  2234388
370
     9
100
AcDbVertex
100
AcDb2dVertex
 10
94.08900830981135
 20
-156.8520907941204
 30
0.0
  0
VERTEX
  5
14E
330
14C
100
AcDbEntity
  8
_U+30EC_U+30A4_U+30E4_U+30FC 1
 62
   179
420
  2234388
370
     9
100
AcDbVertex
100
AcDb2dVertex
 10
97.74632361739464
 20
-159.9010080155801
 30
0.0
  0
SEQEND
  5
14F
330
14C
100
AcDbEntity
  8
_U+30EC_U+30A4_U+30E4_U+30FC 1
 62
   179
420
  2234388
370
     9
  0
POLYLINE
  5
150
330
1F
100
AcDbEntity
  8
_U+30EC_U+30A4_U+30E4_U+30FC 1
 62
   179
420
  2234388
370
     9
100
AcDb2dPolyline
 66
     1
 10
0.0
 20
0.0
 30
0.0
  0
VERTEX
  5
151
330
150
100
AcDbEntity
  8
_U+30EC_U+30A4_U+30E4_U+30FC 1
 62
   179
420
  2234388
370
     9
100
AcDbVertex
100
AcDb2dVertex
 10
94.66572702932054
 20
-157.6692652383604
 30
0.0
  0
VERTEX
  5
152
330
150
100
AcDbEntity
  8
_U+30EC_U+30A4_U+30E4_U+30FC 1
 62
   179
420
  2234388
370
     9
100
AcDbVertex
100
AcDb2dVertex
 10
94.08900830981135
 20
-156.8520907941204
 30
0.0
  0
VERTEX
  5
153
330
150
100
AcDbEntity
  8
_U+30EC_U+30A4_U+30E4_U+30FC 1
 62
   179
420
  2234388
370
     9
100
AcDbVertex
100
AcDb2dVertex
 10
94.99645618754961
 20
-157.2723902384596
 30
0.0
  0
SEQEND
  5
154
330
150
100
AcDbEntity
  8
_U+30EC_U+30A4_U+30E4_U+30FC 1
 62
   179
420
  2234388
370
     9
  0
INSERT
  5
156
330
1F
100
AcDbEntity
  8
_U+30EC_U+30A4_U+30E4_U+30FC 1
100
AcDbBlockReference
  2
block 10
 10
0.0
 20
0.0
 30
0.0
  0
ENDSEC
  0
SECTION
  2
OBJECTS
  0
DICTIONARY
  5
C
330
0
100
AcDbDictionary
281
     1
  3
ACAD_GROUP
350
D
  3
ACAD_LAYOUT
350
1A
  3
ACAD_MATERIAL
350
3B
  3
ACAD_MLEADERSTYLE
350
194
  3
ACAD_MLINESTYLE
350
17
  3
ACAD_PLOTSETTINGS
350
19
  3
ACAD_PLOTSTYLENAME
350
E
  3
ACAD_TABLESTYLE
350
193
  3
ACAD_VISUALSTYLE
350
2A
  0
SUN
  5
3F
330
29
100
AcDbSun
 90
        1
290
     0
 63
     7
421
 16777215
 40
1.0
291
     1
 91
  2455826
 92
 54000000
292
     0
 70
     2
 71
   256
280
     1
  0
DICTIONARY
  5
D
102
{ACAD_REACTORS
330
C
102
}
330
C
100
AcDbDictionary
281
     1
  0
DICTIONARY
  5
1A
102
{ACAD_REACTORS
330
C
102
}
330
C
100
AcDbDictionary
281
     1
  3
Layout1
350
1E
  3
Layout2
350
26
  3
Model
350
22
  0
DICTIONARY
  5
3B
102
{ACAD_REACTORS
330
C
102
}
330
C
100
AcDbDictionary
281
     1
  3
ByBlock
350
3D
  3
ByLayer
350
3C
  3
Global
350
3E
  0
DICTIONARY
  5
194
102
{ACAD_REACTORS
330
C
102
}
330
C
100
AcDbDictionary
281
     1
  0
DICTIONARY
  5
17
102
{ACAD_REACTORS
330
C
102
}
330
C
100
AcDbDictionary
281
     1
  3
Standard
350
18
  0
DICTIONARY
  5
19
102
{ACAD_REACTORS
330
C
102
}
330
C
100
AcDbDictionary
281
     1
  0
ACDBDICTIONARYWDFLT
  5
E
102
{ACAD_REACTORS
330
C
102
}
330
C
100
AcDbDictionary
281
     1
  3
Normal
350
F
100
AcDbDictionaryWithDefault
340
F
  0
DICTIONARY
  5
193
102
{ACAD_REACTORS
330
C
102
}
330
C
100
AcDbDictionary
281
     1
  0
DICTIONARY
  5
2A
102
{ACAD_REACTORS
330
C
102
}
330
C
100
AcDbDictionary
281
     1
  3
2dWireframe
350
2F
  3
3D Hidden
350
31
  3
3dWireframe
350
30
  3
Basic
350
32
  3
Brighten
350
36
  3
ColorChange
350
3A
  3
Conceptual
350
34
  3
Dim
350
35
  3
Facepattern
350
39
  3
Flat
350
2B
  3
FlatWithEdges
350
2C
  3
Gouraud
350
2D
  3
GouraudWithEdges
350
2E
  3
Linepattern
350
38
  3
Realistic
350
33
  3
Thicken
350
37
  0
LAYOUT
  5
1E
102
{ACAD_REACTORS
330
1A
102
}
330
1A
100
AcDbPlotSettings
  1

  2
none_device
  4

  6

 40
0.0
 41
0.0
 42
0.0
 43
0.0
 44
0.0
 45
0.0
 46
0.0
 47
0.0
 48
0.0
 49
0.0
140
0.0
141
0.0
142
1.0
143
1.0
 70
   688
 72
     0
 73
     0
 74
     5
  7

 75
    16
 76
     0
 77
     2
 78
   300
147
1.0
148
0.0
149
0.0
100
AcDbLayout
  1
Layout1
 70
     1
 71
     1
 10
0.0
 20
0.0
 11
12.0
 21
9.0
 12
0.0
 22
0.0
 32
0.0
 14
1.000000000000000E+20
 24
1.000000000000000E+20
 34
1.000000000000000E+20
 15
-1.000000000000000E+20
 25
-1.000000000000000E+20
 35
-1.000000000000000E+20
146
0.0
 13
0.0
 23
0.0
 33
0.0
 16
1.0
 26
0.0
 36
0.0
 17
0.0
 27
1.0
 37
0.0
 76
     0
330
1B
  0
LAYOUT
  5
26
102
{ACAD_REACTORS
330
1A
102
}
330
1A
100
AcDbPlotSettings
  1

  2
none_device
  4

  6

 40
0.0
 41
0.0
 42
0.0
 43
0.0
 44
0.0
 45
0.0
 46
0.0
 47
0.0
 48
0.0
 49
0.0
140
0.0
141
0.0
142
1.0
143
1.0
 70
   688
 72
     0
 73
     0
 74
     5
  7

 75
    16
 76
     0
 77
     2
 78
   300
147
1.0
148
0.0
149
0.0
100
AcDbLayout
  1
Layout2
 70
     1
 71
     2
 10
0.0
 20
0.0
 11
0.0
 21
0.0
 12
0.0
 22
0.0
 32
0.0
 14
0.0
 24
0.0
 34
0.0
 15
0.0
 25
0.0
 35
0.0
146
0.0
 13
0.0
 23
0.0
 33
0.0
 16
1.0
 26
0.0
 36
0.0
 17
0.0
 27
1.0
 37
0.0
 76
     0
330
23
  0
LAYOUT
  5
22
102
{ACAD_REACTORS
330
1A
102
}
330
1A
100
AcDbPlotSettings
  1

  2
none_device
  4

  6

 40
0.0
 41
0.0
 42
0.0
 43
0.0
 44
0.0
 45
0.0
 46
0.0
 47
0.0
 48
0.0
 49
0.0
140
0.0
141
0.0
142
1.0
143
1.0
 70
  1712
 72
     0
 73
     0
 74
     0
  7

 75
     0
 76
     0
 77
     2
 78
   300
147
1.0
148
0.0
149
0.0
100
AcDbLayout
  1
Model
 70
     1
 71
     0
 10
0.0
 20
0.0
 11
12.0
 21
9.0
 12
0.0
 22
0.0
 32
0.0
 14
1.000000000000000E+20
 24
1.000000000000000E+20
 34
1.000000000000000E+20
 15
-1.000000000000000E+20
 25
-1.000000000000000E+20
 35
-1.000000000000000E+20
146
0.0
 13
0.0
 23
0.0
 33
0.0
 16
1.0
 26
0.0
 36
0.0
 17
0.0
 27
1.0
 37
0.0
 76
     0
330
1F
331
29
  0
MATERIAL
  5
3D
102
{ACAD_REACTORS
330
3B
102
}
330
3B
100
AcDbMaterial
  1
ByBlock
 72
     1
 94
      127
  0
MATERIAL
  5
3C
102
{ACAD_REACTORS
330
3B
102
}
330
3B
100
AcDbMaterial
  1
ByLayer
 72
     1
 94
      127
  0
MATERIAL
  5
3E
102
{ACAD_REACTORS
330
3B
102
}
330
3B
100
AcDbMaterial
  1
Global
 72
     1
 94
      127
  0
MLINESTYLE
  5
18
102
{ACAD_REACTORS
330
17
102
}
330
17
100
AcDbMlineStyle
  2
Standard
 70
     0
  3

 62
   256
 51
90.0
 52
90.0
 71
     2
 49
0.5
 62
   256
  6
BYLAYER
 49
-0.5
 62
   256
  6
BYLAYER
  0
ACDBPLACEHOLDER
  5
F
102
{ACAD_REACTORS
330
E
102
}
330
E
  0
VISUALSTYLE
  5
2F
102
{ACAD_REACTORS
330
2A
102
}
330
2A
100
AcDbVisualStyle
  2
2dWireframe
 70
     4
177
     2
291
     0
 71
     0
176
     1
 72
     2
176
     1
 73
     0
176
     1
 90
        0
176
     1
 40
-0.6
176
     1
 41
-30.0
176
     1
 62
     5
 63
     7
421
 16777215
176
     1
 74
     1
176
     1
 91
        4
176
     1
 64
     7
176
     1
 65
   257
176
     1
 75
     1
176
     1
175
     1
176
     1
 42
1.0
176
     1
 92
        0
176
     1
 66
   257
176
     1
 43
1.0
176
     1
 76
     1
176
     1
 77
     6
176
     1
 78
     2
176
     1
 67
     7
176
     1
 79
     5
176
     1
170
     0
176
     1
171
     0
176
     1
290
     0
176
     1
 93
        1
176
     1
 44
0.0
176
     1
173
     0
176
     1
  0
VISUALSTYLE
  5
31
102
{ACAD_REACTORS
330
2A
102
}
330
2A
100
AcDbVisualStyle
  2
3D Hidden
 70
     6
177
     2
291
     0
 71
     1
176
     1
 72
     2
176
     1
 73
     2
176
     1
 90
        0
176
     1
 40
-0.6
176
     1
 41
-30.0
176
     1
 62
     5
 63
     7
421
 16777215
176
     1
 74
     2
176
     1
 91
        2
176
     1
 64
     7
176
     1
 65
   257
176
     1
 75
     2
176
     1
175
     1
176
     1
 42
40.0
176
     1
 92
        0
176
     1
 66
   257
176
     1
 43
1.0
176
     1
 76
     1
176
     1
 77
     6
176
     1
 78
     2
176
     1
 67
     7
176
     1
 79
     3
176
     1
170
     0
176
     1
171
     0
176
     1
290
     0
176
     1
 93
        1
176
     1
 44
0.0
176
     1
173
     0
176
     1
  0
VISUALSTYLE
  5
30
102
{ACAD_REACTORS
330
2A
102
}
330
2A
100
AcDbVisualStyle
  2
3dWireframe
 70
     5
177
     2
291
     0
 71
     0
176
     1
 72
     2
176
     1
 73
     0
176
     1
 90
        0
176
     1
 40
-0.6
176
     1
 41
-30.0
176
     1
 62
     5
 63
     7
421
 16777215
176
     1
 74
     1
176
     1
 91
        4
176
     1
 64
     7
176
     1
 65
   257
176
     1
 75
     1
176
     1
175
     1
176
     1
 42
1.0
176
     1
 92
        0
176
     1
 66
   257
176
     1
 43
1.0
176
     1
 76
     1
176
     1
 77
     6
176
     1
 78
     2
176
     1
 67
     7
176
     1
 79
     5
176
     1
170
     0
176
     1
171
     0
176
     1
290
     0
176
     1
 93
        1
176
     1
 44
0.0
176
     1
173
     0
176
     1
  0
VISUALSTYLE
  5
32
102
{ACAD_REACTORS
330
2A
102
}
330
2A
100
AcDbVisualStyle
  2
Basic
 70
     7
177
     2
291
     1
 71
     1
176
     1
 72
     0
176
     1
 73
     1
176
     1
 90
        0
176
     1
 40
-0.6
176
     1
 41
-30.0
176
     1
 62
     5
 63
     7
421
 16777215
176
     1
 74
     0
176
     1
 91
        4
176
     1
 64
     7
176
     1
 65
   257
176
     1
 75
     1
176
     1
175
     1
176
     1
 42
1.0
176
     1
 92
        8
176
     1
 66
     7
176
     1
 43
1.0
176
     1
 76
     1
176
     1
 77
     6
176
     1
 78
     2
176
     1
 67
     7
176
     1
 79
     5
176
     1
170
     0
176
     1
171
     0
176
     1
290
     0
176
     1
 93
        1
176
     1
 44
0.0
176
     1
173
     0
176
     1
  0
VISUALSTYLE
  5
36
102
{ACAD_REACTORS
330
2A
102
}
330
2A
100
AcDbVisualStyle
  2
Brighten
 70
    12
177
     2
291
     1
 71
     2
176
     1
 72
     2
176
     1
 73
     0
176
     1
 90
        0
176
     1
 40
-0.6
176
     1
 41
-30.0
176
     1
 62
     5
 63
     7
421
 16777215
176
     1
 74
     1
176
     1
 91
        4
176
     1
 64
     7
176
     1
 65
   257
176
     1
 75
     1
176
     1
175
     1
176
     1
 42
1.0
176
     1
 92
        8
176
     1
 66
     7
176
     1
 43
1.0
176
     1
 76
     1
176
     1
 77
     6
176
     1
 78
     2
176
     1
 67
     7
176
     1
 79
     5
176
     1
170
     0
176
     1
171
     0
176
     1
290
     0
176
     1
 93
        1
176
     1
 44
50.0
176
     1
173
     0
176
     1
  0
VISUALSTYLE
  5
3A
102
{ACAD_REACTORS
330
2A
102
}
330
2A
100
AcDbVisualStyle
  2
ColorChange
 70
    16
177
     2
291
     1
 71
     2
176
     1
 72
     2
176
     1
 73
     3
176
     1
 90
        0
176
     1
 40
-0.6
176
     1
 41
-30.0
176
     1
 62
     5
 63
     8
421
  8421504
176
     1
 74
     1
176
     1
 91
        4
176
     1
 64
     7
176
     1
 65
   257
176
     1
 75
     1
176
     1
175
     1
176
     1
 42
1.0
176
     1
 92
        8
176
     1
 66
     8
424
  8421504
176
     1
 43
1.0
176
     1
 76
     1
176
     1
 77
     6
176
     1
 78
     2
176
     1
 67
     7
176
     1
 79
     5
176
     1
170
     0
176
     1
171
     0
176
     1
290
     0
176
     1
 93
        1
176
     1
 44
0.0
176
     1
173
     0
176
     1
  0
VISUALSTYLE
  5
34
102
{ACAD_REACTORS
330
2A
102
}
330
2A
100
AcDbVisualStyle
  2
Conceptual
 70
     9
177
     2
291
     0
 71
     3
176
     1
 72
     2
176
     1
 73
     0
176
     1
 90
        0
176
     1
 40
-0.6
176
     1
 41
-30.0
176
     1
 62
     5
 63
     7
421
 16777215
176
     1
 74
     2
176
     1
 91
        2
176
     1
 64
     7
176
     1
 65
   257
176
     1
 75
     1
176
     1
175
     1
176
     1
 42
40.0
176
     1
 92
        8
176
     1
 66
     7
176
     1
 43
1.0
176
     1
 76
     1
176
     1
 77
     6
176
     1
 78
     2
176
     1
 67
     7
176
     1
 79
     3
176
     1
170
     0
176
     1
171
     0
176
     1
290
     0
176
     1
 93
        1
176
     1
 44
0.0
176
     1
173
     0
176
     1
  0
VISUALSTYLE
  5
35
102
{ACAD_REACTORS
330
2A
102
}
330
2A
100
AcDbVisualStyle
  2
Dim
 70
    11
177
     2
291
     1
 71
     2
176
     1
 72
     2
176
     1
 73
     0
176
     1
 90
        0
176
     1
 40
-0.6
176
     1
 41
-30.0
176
     1
 62
     5
 63
     7
421
 16777215
176
     1
 74
     1
176
     1
 91
        4
176
     1
 64
     7
176
     1
 65
   257
176
     1
 75
     1
176
     1
175
     1
176
     1
 42
1.0
176
     1
 92
        8
176
     1
 66
     7
176
     1
 43
1.0
176
     1
 76
     1
176
     1
 77
     6
176
     1
 78
     2
176
     1
 67
     7
176
     1
 79
     5
176
     1
170
     0
176
     1
171
     0
176
     1
290
     0
176
     1
 93
        1
176
     1
 44
-50.0
176
     1
173
     0
176
     1
  0
VISUALSTYLE
  5
39
102
{ACAD_REACTORS
330
2A
102
}
330
2A
100
AcDbVisualStyle
  2
Facepattern
 70
    15
177
     2
291
     1
 71
     2
176
     1
 72
     2
176
     1
 73
     0
176
     1
 90
        0
176
     1
 40
-0.6
176
     1
 41
-30.0
176
     1
 62
     5
 63
     7
421
 16777215
176
     1
 74
     1
176
     1
 91
        4
176
     1
 64
     7
176
     1
 65
   257
176
     1
 75
     1
176
     1
175
     1
176
     1
 42
1.0
176
     1
 92
        8
176
     1
 66
     7
176
     1
 43
1.0
176
     1
 76
     1
176
     1
 77
     6
176
     1
 78
     2
176
     1
 67
     7
176
     1
 79
     5
176
     1
170
     0
176
     1
171
     0
176
     1
290
     0
176
     1
 93
        1
176
     1
 44
0.0
176
     1
173
     0
176
     1
  0
VISUALSTYLE
  5
2B
102
{ACAD_REACTORS
330
2A
102
}
330
2A
100
AcDbVisualStyle
  2
Flat
 70
     0
177
     2
291
     1
 71
     2
176
     1
 72
     1
176
     1
 73
     1
176
     1
 90
        2
176
     1
 40
-0.6
176
     1
 41
30.0
176
     1
 62
     5
 63
     7
421
 16777215
176
     1
 74
     0
176
     1
 91
        4
176
     1
 64
     7
176
     1
 65
   257
176
     1
 75
     1
176
     1
175
     1
176
     1
 42
1.0
176
     1
 92
        8
176
     1
 66
     7
176
     1
 43
1.0
176
     1
 76
     1
176
     1
 77
     6
176
     1
 78
     2
176
     1
 67
     7
176
     1
 79
     5
176
     1
170
     0
176
     1
171
     0
176
     1
290
     0
176
     1
 93
       13
176
     1
 44
0.0
176
     1
173
     0
176
     1
  0
VISUALSTYLE
  5
2C
102
{ACAD_REACTORS
330
2A
102
}
330
2A
100
AcDbVisualStyle
  2
FlatWithEdges
 70
     1
177
     2
291
     1
 71
     2
176
     1
 72
     1
176
     1
 73
     1
176
     1
 90
        2
176
     1
 40
-0.6
176
     1
 41
30.0
176
     1
 62
     5
 63
     7
421
 16777215
176
     1
 74
     1
176
     1
 91
        4
176
     1
 64
     7
176
     1
 65
   257
176
     1
 75
     1
176
     1
175
     1
176
     1
 42
1.0
176
     1
 92
        0
176
     1
 66
   257
176
     1
 43
1.0
176
     1
 76
     1
176
     1
 77
     6
176
     1
 78
     2
176
     1
 67
     7
176
     1
 79
     5
176
     1
170
     0
176
     1
171
     0
176
     1
290
     0
176
     1
 93
       13
176
     1
 44
0.0
176
     1
173
     0
176
     1
  0
VISUALSTYLE
  5
2D
102
{ACAD_REACTORS
330
2A
102
}
330
2A
100
AcDbVisualStyle
  2
Gouraud
 70
     2
177
     2
291
     1
 71
     2
176
     1
 72
     2
176
     1
 73
     1
176
     1
 90
        2
176
     1
 40
-0.6
176
     1
 41
30.0
176
     1
 62
     5
 63
     7
421
 16777215
176
     1
 74
     0
176
     1
 91
        4
176
     1
 64
     7
176
     1
 65
   257
176
     1
 75
     1
176
     1
175
     1
176
     1
 42
1.0
176
     1
 92
        0
176
     1
 66
     7
176
     1
 43
1.0
176
     1
 76
     1
176
     1
 77
     6
176
     1
 78
     2
176
     1
 67
     7
176
     1
 79
     5
176
     1
170
     0
176
     1
171
     0
176
     1
290
     0
176
     1
 93
       13
176
     1
 44
0.0
176
     1
173
     0
176
     1
  0
VISUALSTYLE
  5
2E
102
{ACAD_REACTORS
330
2A
102
}
330
2A
100
AcDbVisualStyle
  2
GouraudWithEdges
 70
     3
177
     2
291
     1
 71
     2
176
     1
 72
     2
176
     1
 73
     1
176
     1
 90
        2
176
     1
 40
-0.6
176
     1
 41
30.0
176
     1
 62
     5
 63
     7
421
 16777215
176
     1
 74
     1
176
     1
 91
        4
176
     1
 64
     7
176
     1
 65
   257
176
     1
 75
     1
176
     1
175
     1
176
     1
 42
1.0
176
     1
 92
        0
176
     1
 66
   257
176
     1
 43
1.0
176
     1
 76
     1
176
     1
 77
     6
176
     1
 78
     2
176
     1
 67
     7
176
     1
 79
     5
176
     1
170
     0
176
     1
171
     0
176
     1
290
     0
176
     1
 93
       13
176
     1
 44
0.0
176
     1
173
     0
176
     1
  0
VISUALSTYLE
  5
38
102
{ACAD_REACTORS
330
2A
102
}
330
2A
100
AcDbVisualStyle
  2
Linepattern
 70
    14
177
     2
291
     1
 71
     2
176
     1
 72
     2
176
     1
 73
     0
176
     1
 90
        0
176
     1
 40
-0.6
176
     1
 41
-30.0
176
     1
 62
     5
 63
     7
421
 16777215
176
     1
 74
     1
176
     1
 91
        4
176
     1
 64
     7
176
     1
 65
   257
176
     1
 75
     7
176
     1
175
     7
176
     1
 42
1.0
176
     1
 92
        8
176
     1
 66
     7
176
     1
 43
1.0
176
     1
 76
     1
176
     1
 77
     6
176
     1
 78
     2
176
     1
 67
     7
176
     1
 79
     5
176
     1
170
     0
176
     1
171
     0
176
     1
290
     0
176
     1
 93
        1
176
     1
 44
0.0
176
     1
173
     0
176
     1
  0
VISUALSTYLE
  5
33
102
{ACAD_REACTORS
330
2A
102
}
330
2A
100
AcDbVisualStyle
  2
Realistic
 70
     8
177
     2
291
     0
 71
     2
176
     1
 72
     2
176
     1
 73
     0
176
     1
 90
        0
176
     1
 40
-0.6
176
     1
 41
-30.0
176
     1
 62
     5
 63
     7
421
 16777215
176
     1
 74
     1
176
     1
 91
        0
176
     1
 64
     7
176
     1
 65
   257
176
     1
 75
     1
176
     1
175
     1
176
     1
 42
1.0
176
     1
 92
        8
176
     1
 66
     8
424
  7895160
176
     1
 43
1.0
176
     1
 76
     1
176
     1
 77
     6
176
     1
 78
     2
176
     1
 67
     7
176
     1
 79
     5
176
     1
170
     0
176
     1
171
     0
176
     1
290
     0
176
     1
 93
       13
176
     1
 44
0.0
176
     1
173
     0
176
     1
  0
VISUALSTYLE
  5
37
102
{ACAD_REACTORS
330
2A
102
}
330
2A
100
AcDbVisualStyle
  2
Thicken
 70
    13
177
     2
291
     1
 71
     2
176
     1
 72
     2
176
     1
 73
     0
176
     1
 90
        0
176
     1
 40
-0.6
176
     1
 41
-30.0
176
     1
 62
     5
 63
     7
421
 16777215
176
     1
 74
     1
176
     1
 91
        4
176
     1
 64
     7
176
     1
 65
   257
176
     1
 75
     1
176
     1
175
     1
176
     1
 42
1.0
176
     1
 92
       12
176
     1
 66
     7
176
     1
 43
1.0
176
     1
 76
     1
176
     1
 77
     6
176
     1
 78
     2
176
     1
 67
     7
176
     1
 79
     5
176
     1
170
     0
176
     1
171
     0
176
     1
290
     0
176
     1
 93
        1
176
     1
 44
0.0
176
     1
173
     0
176
     1
  0
ENDSEC
  0
EOF
