  0
SECTION
  2
HEADER
  9
$ACADVER
  1
AC1024
  9
$ACADMAINTVER
 70
     6
  9
$DWGCODEPAGE
  3
UNDEFINED
  9
$INSBASE
 10
0.0
 20
0.0
 30
0.0
  9
$EXTMIN
 10
1.000000000000000E+20
 20
1.000000000000000E+20
 30
1.000000000000000E+20
  9
$EXTMAX
 10
-1.000000000000000E+20
 20
-1.000000000000000E+20
 30
-1.000000000000000E+20
  9
$LIMMIN
 10
0.0
 20
0.0
  9
$LIMMAX
 10
12.0
 20
9.0
  9
$ORTHOMODE
 70
     0
  9
$REGENMODE
 70
     1
  9
$FILLMODE
 70
     1
  9
$QTEXTMODE
 70
     0
  9
$MIRRTEXT
 70
     1
  9
$LTSCALE
 40
1.0
  9
$ATTMODE
 70
     1
  9
$TEXTSIZE
 40
0.2
  9
$TRACEWID
 40
0.05
  9
$TEXTSTYLE
  7
Standard
  9
$CLAYER
  8
0
  9
$CELTYPE
  6
ByLayer
  9
$CECOLOR
 62
   256
  9
$CELTSCALE
 40
1.0
  9
$DISPSILH
 70
     0
  9
$DIMSCALE
 40
1.0
  9
$DIMASZ
 40
0.18
  9
$DIMEXO
 40
0.0625
  9
$DIMDLI
 40
0.38
  9
$DIMRND
 40
0.0
  9
$DIMDLE
 40
0.0
  9
$DIMEXE
 40
0.18
  9
$DIMTP
 40
0.0
  9
$DIMTM
 40
0.0
  9
$DIMTXT
 40
0.18
  9
$DIMCEN
 40
0.09
  9
$DIMTSZ
 40
0.0
  9
$DIMTOL
 70
     0
  9
$DIMLIM
 70
     0
  9
$DIMTIH
 70
     1
  9
$DIMTOH
 70
     1
  9
$DIMSE1
 70
     0
  9
$DIMSE2
 70
     0
  9
$DIMTAD
 70
     0
  9
$DIMZIN
 70
     0
  9
$DIMBLK
  1

  9
$DIMASO
 70
     1
  9
$DIMSHO
 70
     1
  9
$DIMPOST
  1

  9
$DIMAPOST
  1

  9
$DIMALT
 70
     0
  9
$DIMALTD
 70
     2
  9
$DIMALTF
 40
25.4
  9
$DIMLFAC
 40
1.0
  9
$DIMTOFL
 70
     0
  9
$DIMTVP
 40
0.0
  9
$DIMTIX
 70
     0
  9
$DIMSOXD
 70
     0
  9
$DIMSAH
 70
     0
  9
$DIMBLK1
  1

  9
$DIMBLK2
  1

  9
$DIMSTYLE
  2
Standard
  9
$DIMCLRD
 70
     0
  9
$DIMCLRE
 70
     0
  9
$DIMCLRT
 70
     0
  9
$DIMTFAC
 40
1.0
  9
$DIMGAP
 40
0.09
  9
$DIMJUST
 70
     0
  9
$DIMSD1
 70
     0
  9
$DIMSD2
 70
     0
  9
$DIMTOLJ
 70
     1
  9
$DIMTZIN
 70
     0
  9
$DIMALTZ
 70
     0
  9
$DIMALTTZ
 70
     0
  9
$DIMUPT
 70
     0
  9
$DIMDEC
 70
     4
  9
$DIMTDEC
 70
     4
  9
$DIMALTU
 70
     2
  9
$DIMALTTD
 70
     2
  9
$DIMTXSTY
  7
Standard
  9
$DIMAUNIT
 70
     0
  9
$DIMADEC
 70
     0
  9
$DIMALTRND
 40
0.0
  9
$DIMAZIN
 70
     0
  9
$DIMDSEP
 70
    46
  9
$DIMATFIT
 70
     3
  9
$DIMFRAC
 70
     0
  9
$DIMLDRBLK
  1

  9
$DIMLUNIT
 70
     2
  9
$DIMLWD
 70
    -2
  9
$DIMLWE
 70
    -2
  9
$DIMTMOVE
 70
     0
  9
$DIMFXL
 40
1.0
  9
$DIMFXLON
 70
     0
  9
$DIMJOGANG
 40
0.7853981633974483
  9
$DIMTFILL
 70
     0
  9
$DIMTFILLCLR
 70
     0
  9
$DIMARCSYM
 70
     0
  9
$DIMLTYPE
  6

  9
$DIMLTEX1
  6

  9
$DIMLTEX2
  6

  9
$DIMTXTDIRECTION
 70
     0
  9
$LUNITS
 70
     2
  9
$LUPREC
 70
     4
  9
$SKETCHINC
 40
0.1
  9
$FILLETRAD
 40
0.5
  9
$AUNITS
 70
     0
  9
$AUPREC
 70
     0
  9
$MENU
  1
.
  9
$ELEVATION
 40
0.0
  9
$PELEVATION
 40
0.0
  9
$THICKNESS
 40
0.0
  9
$LIMCHECK
 70
     0
  9
$CHAMFERA
 40
0.5
  9
$CHAMFERB
 40
0.5
  9
$CHAMFERC
 40
1.0
  9
$CHAMFERD
 40
0.0
  9
$SKPOLY
 70
     0
  9
$TDCREATE
 40
2457917.600185185
  9
$TDUCREATE
 40
2457917.225185185
  9
$TDUPDATE
 40
2457917.600185185
  9
$TDUUPDATE
 40
2457917.225185185
  9
$TDINDWG
 40
0.0000000116
  9
$TDUSRTIMER
 40
0.0000000116
  9
$USRTIMER
 70
     1
  9
$ANGBASE
 50
0.0
  9
$ANGDIR
 70
     0
  9
$PDMODE
 70
     0
  9
$PDSIZE
 40
0.0
  9
$PLINEWID
 40
0.0
  9
$SPLFRAME
 70
     0
  9
$SPLINETYPE
 70
     6
  9
$SPLINESEGS
 70
     8
  9
$HANDSEED
  5
F0
  9
$SURFTAB1
 70
     6
  9
$SURFTAB2
 70
     6
  9
$SURFTYPE
 70
     6
  9
$SURFU
 70
     6
  9
$SURFV
 70
     6
  9
$UCSBASE
  2

  9
$UCSNAME
  2

  9
$UCSORG
 10
0.0
 20
0.0
 30
0.0
  9
$UCSXDIR
 10
1.0
 20
0.0
 30
0.0
  9
$UCSYDIR
 10
0.0
 20
1.0
 30
0.0
  9
$UCSORTHOREF
  2

  9
$UCSORTHOVIEW
 70
     0
  9
$UCSORGTOP
 10
0.0
 20
0.0
 30
0.0
  9
$UCSORGBOTTOM
 10
0.0
 20
0.0
 30
0.0
  9
$UCSORGLEFT
 10
0.0
 20
0.0
 30
0.0
  9
$UCSORGRIGHT
 10
0.0
 20
0.0
 30
0.0
  9
$UCSORGFRONT
 10
0.0
 20
0.0
 30
0.0
  9
$UCSORGBACK
 10
0.0
 20
0.0
 30
0.0
  9
$PUCSBASE
  2

  9
$PUCSNAME
  2

  9
$PUCSORG
 10
0.0
 20
0.0
 30
0.0
  9
$PUCSXDIR
 10
1.0
 20
0.0
 30
0.0
  9
$PUCSYDIR
 10
0.0
 20
1.0
 30
0.0
  9
$PUCSORTHOREF
  2

  9
$PUCSORTHOVIEW
 70
     0
  9
$PUCSORGTOP
 10
0.0
 20
0.0
 30
0.0
  9
$PUCSORGBOTTOM
 10
0.0
 20
0.0
 30
0.0
  9
$PUCSORGLEFT
 10
0.0
 20
0.0
 30
0.0
  9
$PUCSORGRIGHT
 10
0.0
 20
0.0
 30
0.0
  9
$PUCSORGFRONT
 10
0.0
 20
0.0
 30
0.0
  9
$PUCSORGBACK
 10
0.0
 20
0.0
 30
0.0
  9
$USERI1
 70
     0
  9
$USERI2
 70
     0
  9
$USERI3
 70
     0
  9
$USERI4
 70
     0
  9
$USERI5
 70
     0
  9
$USERR1
 40
0.0
  9
$USERR2
 40
0.0
  9
$USERR3
 40
0.0
  9
$USERR4
 40
0.0
  9
$USERR5
 40
0.0
  9
$WORLDVIEW
 70
     1
  9
$SHADEDGE
 70
     3
  9
$SHADEDIF
 70
    70
  9
$TILEMODE
 70
     1
  9
$MAXACTVP
 70
    64
  9
$PINSBASE
 10
0.0
 20
0.0
 30
0.0
  9
$PLIMCHECK
 70
     0
  9
$PEXTMIN
 10
1.000000000000000E+20
 20
1.000000000000000E+20
 30
1.000000000000000E+20
  9
$PEXTMAX
 10
-1.000000000000000E+20
 20
-1.000000000000000E+20
 30
-1.000000000000000E+20
  9
$PLIMMIN
 10
0.0
 20
0.0
  9
$PLIMMAX
 10
12.0
 20
9.0
  9
$UNITMODE
 70
     0
  9
$VISRETAIN
 70
     1
  9
$PLINEGEN
 70
     0
  9
$PSLTSCALE
 70
     1
  9
$TREEDEPTH
 70
  3020
  9
$CMLSTYLE
  2
Standard
  9
$CMLJUST
 70
     0
  9
$CMLSCALE
 40
1.0
  9
$PROXYGRAPHICS
 70
     1
  9
$MEASUREMENT
 70
     0
  9
$CELWEIGHT
370
    -1
  9
$ENDCAPS
280
     0
  9
$JOINSTYLE
280
     0
  9
$LWDISPLAY
290
     1
  9
$INSUNITS
 70
     1
  9
$HYPERLINKBASE
  1

  9
$STYLESHEET
  1

  9
$XEDIT
290
     1
  9
$CEPSNTYPE
380
     0
  9
$PSTYLEMODE
290
     1
  9
$FINGERPRINTGUID
  2
{50A4E8BA-4D73-A12F-D798-7F4D9810BCBA}
  9
$VERSIONGUID
  2
{FAEB1C32-E019-11D5-929B-00C0DF256EC4}
  9
$EXTNAMES
290
     1
  9
$PSVPSCALE
 40
0.0
  9
$OLESTARTUP
290
     0
  9
$SORTENTS
280
   127
  9
$INDEXCTL
280
     0
  9
$HIDETEXT
280
     1
  9
$XCLIPFRAME
280
     2
  9
$HALOGAP
280
     0
  9
$OBSCOLOR
 70
   257
  9
$OBSLTYPE
280
     0
  9
$INTERSECTIONDISPLAY
280
     0
  9
$INTERSECTIONCOLOR
 70
   257
  9
$DIMASSOC
280
     2
  9
$PROJECTNAME
  1

  9
$CAMERADISPLAY
290
     0
  9
$LENSLENGTH
 40
50.0
  9
$CAMERAHEIGHT
 40
0.0
  9
$STEPSPERSEC
 40
2.0
  9
$STEPSIZE
 40
6.0
  9
$3DDWFPREC
 40
2.0
  9
$PSOLWIDTH
 40
0.25
  9
$PSOLHEIGHT
 40
4.0
  9
$LOFTANG1
 40
1.570796326794897
  9
$LOFTANG2
 40
1.570796326794897
  9
$LOFTMAG1
 40
0.0
  9
$LOFTMAG2
 40
0.0
  9
$LOFTPARAM
 70
     7
  9
$LOFTNORMALS
280
     1
  9
$LATITUDE
 40
37.795
  9
$LONGITUDE
 40
-122.394
  9
$NORTHDIRECTION
 40
0.0
  9
$TIMEZONE
 70
 -8000
  9
$LIGHTGLYPHDISPLAY
280
     1
  9
$TILEMODELIGHTSYNCH
280
     1
  9
$CMATERIAL
347
3C
  9
$SOLIDHIST
280
     1
  9
$SHOWHIST
280
     1
  9
$DWFFRAME
280
     2
  9
$DGNFRAME
280
     2
  9
$REALWORLDSCALE
290
     1
  9
$INTERFERECOLOR
 62
   256
  9
$CSHADOW
280
     0
  9
$SHADOWPLANELOCATION
 40
0.0
  0
ENDSEC
  0
SECTION
  2
CLASSES
  0
CLASS
  1
ACDBDICTIONARYWDFLT
  2
AcDbDictionaryWithDefault
  3
ObjectDBX Classes
 90
        0
 91
        4
280
     0
281
     0
  0
CLASS
  1
VISUALSTYLE
  2
AcDbVisualStyle
  3
ObjectDBX Classes
 90
     4095
 91
        4
280
     0
281
     0
  0
CLASS
  1
MATERIAL
  2
AcDbMaterial
  3
ObjectDBX Classes
 90
     1153
 91
        4
280
     0
281
     0
  0
CLASS
  1
SUN
  2
AcDbSun
  3
SCENEOE
 90
     1024
 91
        4
280
     0
281
     0
  0
ENDSEC
  0
SECTION
  2
TABLES
  0
TABLE
  2
VPORT
  5
8
330
0
100
AcDbSymbolTable
 70
     1
  0
VPORT
  5
29
330
8
100
AcDbSymbolTableRecord
100
AcDbViewportTableRecord
  2
*Active
 70
     0
 10
0.0
 20
0.0
 11
1.0
 21
1.0
 12
0.0
 22
0.0
 13
0.0
 23
0.0
 14
0.5
 24
0.5
 15
0.5
 25
0.5
 16
0.0
 26
0.0
 36
1.0
 17
91.00082462281999
 27
-128.4993055234307
 37
0.0
 40
256.9986110468615
 41
0.7081814508812795
 42
50.0
 43
0.0
 44
0.0
 50
0.0
 51
0.0
 71
     0
 72
   100
 73
     1
 74
     3
 75
     0
 76
     0
 77
     0
 78
     0
281
     0
 65
     1
110
0.0
120
0.0
130
0.0
111
1.0
121
0.0
131
0.0
112
0.0
122
1.0
132
0.0
 79
     0
146
0.0
 60
     3
 61
     5
292
     1
282
     1
141
0.0
142
0.0
 63
   250
361
3F
  0
ENDTAB
  0
TABLE
  2
LTYPE
  5
5
330
0
100
AcDbSymbolTable
 70
     1
  0
LTYPE
  5
14
330
5
100
AcDbSymbolTableRecord
100
AcDbLinetypeTableRecord
  2
ByBlock
 70
     0
  3

 72
    65
 73
     0
 40
0.0
  0
LTYPE
  5
15
330
5
100
AcDbSymbolTableRecord
100
AcDbLinetypeTableRecord
  2
ByLayer
 70
     0
  3

 72
    65
 73
     0
 40
0.0
  0
LTYPE
  5
16
330
5
100
AcDbSymbolTableRecord
100
AcDbLinetypeTableRecord
  2
Continuous
 70
     0
  3
Solid line
 72
    65
 73
     0
 40
0.0
  0
ENDTAB
  0
TABLE
  2
LAYER
  5
2
330
0
100
AcDbSymbolTable
 70
     2
  0
LAYER
  5
10
330
2
100
AcDbSymbolTableRecord
100
AcDbLayerTableRecord
  2
0
 70
     0
 62
     7
  6
Continuous
370
    -3
390
F
347
3E
  0
LAYER
  5
40
330
2
100
AcDbSymbolTableRecord
100
AcDbLayerTableRecord
  2
_U+30EC_U+30A4_U+30E4_U+30FC 1
 70
     0
 62
     7
  6
Continuous
370
    -3
390
F
347
3E
  0
ENDTAB
  0
TABLE
  2
STYLE
  5
3
330
0
100
AcDbSymbolTable
 70
     1
  0
STYLE
  5
11
330
3
100
AcDbSymbolTableRecord
100
AcDbTextStyleTableRecord
  2
Standard
 70
     0
 40
0.0
 41
1.0
 50
0.0
 71
     0
 42
0.2
  3
txt
  4

  0
ENDTAB
  0
TABLE
  2
VIEW
  5
6
330
0
100
AcDbSymbolTable
 70
     0
  0
ENDTAB
  0
TABLE
  2
UCS
  5
7
330
0
100
AcDbSymbolTable
 70
     0
  0
ENDTAB
  0
TABLE
  2
APPID
  5
9
330
0
100
AcDbSymbolTable
 70
     1
  0
APPID
  5
12
330
9
100
AcDbSymbolTableRecord
100
AcDbRegAppTableRecord
  2
ACAD
 70
     0
  0
ENDTAB
  0
TABLE
  2
DIMSTYLE
  5
A
330
0
100
AcDbSymbolTable
 70
     1
100
AcDbDimStyleTable
  0
DIMSTYLE
105
27
330
A
100
AcDbSymbolTableRecord
100
AcDbDimStyleTableRecord
  2
Standard
 70
     0
178
     0
340
11
  0
ENDTAB
  0
TABLE
  2
BLOCK_RECORD
  5
1
330
0
100
AcDbSymbolTable
 70
     7
  0
BLOCK_RECORD
  5
1F
330
1
100
AcDbSymbolTableRecord
100
AcDbBlockTableRecord
  2
*Model_Space
340
22
 70
     0
280
     1
281
     0
  0
BLOCK_RECORD
  5
1B
330
1
100
AcDbSymbolTableRecord
100
AcDbBlockTableRecord
  2
*Paper_Space
340
1E
 70
     0
280
     1
281
     0
  0
BLOCK_RECORD
  5
23
330
1
100
AcDbSymbolTableRecord
100
AcDbBlockTableRecord
  2
*Paper_Space0
340
26
 70
     0
280
     1
281
     0
  0
BLOCK_RECORD
  5
5B
330
1
100
AcDbSymbolTableRecord
100
AcDbBlockTableRecord
  2
block 2
340
0
102
{BLKREFS
331
5C
102
}
 70
     0
280
     1
281
     0
  0
BLOCK_RECORD
  5
62
330
1
100
AcDbSymbolTableRecord
100
AcDbBlockTableRecord
  2
block 3
340
0
102
{BLKREFS
331
63
102
}
 70
     0
280
     1
281
     0
  0
BLOCK_RECORD
  5
68
330
1
100
AcDbSymbolTableRecord
100
AcDbBlockTableRecord
  2
block 4
340
0
102
{BLKREFS
331
69
102
}
 70
     0
280
     1
281
     0
  0
BLOCK_RECORD
  5
7A
330
1
100
AcDbSymbolTableRecord
100
AcDbBlockTableRecord
  2
block 5
340
0
102
{BLKREFS
331
7B
102
}
 70
     0
280
     1
281
     0
  0
BLOCK_RECORD
  5
8B
330
1
100
AcDbSymbolTableRecord
100
AcDbBlockTableRecord
  2
block 6
340
0
102
{BLKREFS
331
8C
102
}
 70
     0
280
     1
281
     0
  0
BLOCK_RECORD
  5
E8
330
1
100
AcDbSymbolTableRecord
100
AcDbBlockTableRecord
  2
block 7
340
0
102
{BLKREFS
331
E9
102
}
 70
     0
280
     1
281
     0
  0
ENDTAB
  0
ENDSEC
  0
SECTION
  2
BLOCKS
  0
BLOCK
  5
20
330
1F
100
AcDbEntity
  8
0
100
AcDbBlockBegin
  2
*Model_Space
 70
     0
 10
0.0
 20
0.0
 30
0.0
  3
*Model_Space
  1

  0
ENDBLK
  5
21
330
1F
100
AcDbEntity
  8
0
100
AcDbBlockEnd
  0
BLOCK
  5
1C
330
1B
100
AcDbEntity
 67
     1
  8
0
100
AcDbBlockBegin
  2
*Paper_Space
 70
     0
 10
0.0
 20
0.0
 30
0.0
  3
*Paper_Space
  1

  0
ENDBLK
  5
1D
330
1B
100
AcDbEntity
 67
     1
  8
0
100
AcDbBlockEnd
  0
BLOCK
  5
24
330
23
100
AcDbEntity
  8
0
100
AcDbBlockBegin
  2
*Paper_Space0
 70
     0
 10
0.0
 20
0.0
 30
0.0
  3
*Paper_Space0
  1

  0
ENDBLK
  5
25
330
23
100
AcDbEntity
  8
0
100
AcDbBlockEnd
  0
BLOCK
  5
5D
330
5B
100
AcDbEntity
  8
0
100
AcDbBlockBegin
  2
block 2
 70
     0
 10
0.0
 20
0.0
 30
0.0
  3
block 2
  1

  0
SPLINE
  5
5F
330
5B
100
AcDbEntity
  8
_U+30EC_U+30A4_U+30E4_U+30FC 1
370
     0
100
AcDbSpline
210
0.0
220
0.0
230
1.0
 70
    11
 71
     3
 72
    32
 73
    28
 74
     0
 42
0.0000000001
 43
0.0000000001
 12
1.0
 22
0.0
 32
0.0
 13
1.0
 23
0.0
 33
0.0
 40
0.0
 40
0.0
 40
0.0
 40
0.0
 40
1.0
 40
1.0
 40
1.0
 40
2.0
 40
2.0
 40
2.0
 40
3.0
 40
3.0
 40
3.0
 40
4.0
 40
4.0
 40
4.0
 40
5.0
 40
5.0
 40
5.0
 40
6.0
 40
6.0
 40
6.0
 40
7.0
 40
7.0
 40
7.0
 40
8.0
 40
8.0
 40
8.0
 40
9.0
 40
9.0
 40
9.0
 40
9.0
 10
88.39632701783148
 20
-122.2922769876561
 30
0.0
 10
87.84442272109446
 20
-122.2922769876561
 30
0.0
 10
87.83546547283281
 20
-121.7383056336279
 30
0.0
 10
87.83546547283281
 20
-121.5243652039939
 30
0.0
 10
87.83546547283281
 20
-121.2938883160307
 30
0.0
 10
87.85579153619578
 20
-120.6465548743523
 30
0.0
 10
88.43697914455743
 20
-120.6465548743523
 30
0.0
 10
88.62232528166386
 20
-120.6465548743523
 30
0.0
 10
88.88449704809138
 20
-120.7164903127028
 30
0.0
 10
88.92514917481732
 20
-121.0485975174809
 30
0.0
 10
88.92514917481732
 20
-121.0485975174809
 30
0.0
 10
88.69673934414526
 20
-121.0485975174809
 30
0.0
 10
88.69673934414526
 20
-121.0485975174809
 30
0.0
 10
88.68571503859246
 20
-120.9914089324258
 30
0.0
 10
88.65160859328849
 20
-120.84326982656
 30
0.0
 10
88.43456757771776
 20
-120.84326982656
 30
0.0
 10
88.12244192675412
 20
-120.84326982656
 30
0.0
 10
88.07972274273702
 20
-121.1712429167558
 30
0.0
 10
88.06594236079602
 20
-121.3762260981282
 30
0.0
 10
88.16550562031973
 20
-121.298022430613
 30
0.0
 10
88.23785262550999
 20
-121.2387667882667
 30
0.0
 10
88.43215601087807
 20
-121.2387667882667
 30
0.0
 10
88.62439233895502
 20
-121.2387667882667
 30
0.0
 10
88.94788680501998
 20
-121.3469427865035
 30
0.0
 10
88.94788680501998
 20
-121.7531195442145
 30
0.0
 10
88.94788680501998
 20
-122.0724798956972
 30
0.0
 10
88.73532441358006
 20
-122.2922769876561
 30
0.0
 10
88.39632701783148
 20
-122.2922769876561
 30
0.0
  0
SPLINE
  5
60
330
5B
100
AcDbEntity
  8
_U+30EC_U+30A4_U+30E4_U+30FC 1
370
     0
100
AcDbSpline
210
0.0
220
0.0
230
1.0
 70
    11
 71
     3
 72
    17
 73
    13
 74
     0
 42
0.0000000001
 43
0.0000000001
 12
1.0
 22
0.0
 32
0.0
 13
1.0
 23
0.0
 33
0.0
 40
0.0
 40
0.0
 40
0.0
 40
0.0
 40
1.0
 40
1.0
 40
1.0
 40
2.0
 40
2.0
 40
2.0
 40
3.0
 40
3.0
 40
3.0
 40
4.0
 40
4.0
 40
4.0
 40
4.0
 10
88.41424151435477
 20
-121.4334146831833
 30
0.0
 10
88.13381074185544
 20
-121.4334146831833
 30
0.0
 10
88.0931586151295
 20
-121.6449435459777
 30
0.0
 10
88.0931586151295
 20
-121.7613877733791
 30
0.0
 10
88.0931586151295
 20
-121.9370876431268
 30
0.0
 10
88.19478893194436
 20
-122.1000406595792
 30
0.0
 10
88.39150388415213
 20
-122.1000406595792
 30
0.0
 10
88.52035045530047
 20
-122.1000406595792
 30
0.0
 10
88.70810815924659
 20
-122.0407850172329
 30
0.0
 10
88.70810815924659
 20
-121.7551866015057
 30
0.0
 10
88.70810815924659
 20
-121.5309108854159
 30
0.0
 10
88.55893552473528
 20
-121.4334146831833
 30
0.0
 10
88.41424151435477
 20
-121.4334146831833
 30
0.0
  0
HATCH
  5
61
330
5B
100
AcDbEntity
  8
_U+30EC_U+30A4_U+30E4_U+30FC 1
 62
   179
420
  2234388
100
AcDbHatch
 10
0.0
 20
0.0
 30
0.0
210
0.0
220
0.0
230
1.0
  2
SOLID
 70
     1
 71
     0
 91
        2
 92
        1
 93
        1
 72
     4
 94
        3
 73
     0
 74
     1
 95
       32
 96
       28
 40
0.0
 40
0.0
 40
0.0
 40
0.0
 40
1.0
 40
1.0
 40
1.0
 40
2.0
 40
2.0
 40
2.0
 40
3.0
 40
3.0
 40
3.0
 40
4.0
 40
4.0
 40
4.0
 40
5.0
 40
5.0
 40
5.0
 40
6.0
 40
6.0
 40
6.0
 40
7.0
 40
7.0
 40
7.0
 40
8.0
 40
8.0
 40
8.0
 40
9.0
 40
9.0
 40
9.0
 40
9.0
 10
88.39632701783148
 20
-122.2922769876561
 10
87.84442272109446
 20
-122.2922769876561
 10
87.83546547283281
 20
-121.7383056336279
 10
87.83546547283281
 20
-121.5243652039939
 10
87.83546547283281
 20
-121.2938883160307
 10
87.85579153619578
 20
-120.6465548743523
 10
88.43697914455743
 20
-120.6465548743523
 10
88.62232528166386
 20
-120.6465548743523
 10
88.88449704809138
 20
-120.7164903127028
 10
88.92514917481732
 20
-121.0485975174809
 10
88.92514917481732
 20
-121.0485975174809
 10
88.69673934414526
 20
-121.0485975174809
 10
88.69673934414526
 20
-121.0485975174809
 10
88.68571503859246
 20
-120.9914089324258
 10
88.65160859328849
 20
-120.84326982656
 10
88.43456757771776
 20
-120.84326982656
 10
88.12244192675412
 20
-120.84326982656
 10
88.07972274273702
 20
-121.1712429167558
 10
88.06594236079602
 20
-121.3762260981282
 10
88.16550562031973
 20
-121.298022430613
 10
88.23785262550999
 20
-121.2387667882667
 10
88.43215601087807
 20
-121.2387667882667
 10
88.62439233895502
 20
-121.2387667882667
 10
88.94788680501998
 20
-121.3469427865035
 10
88.94788680501998
 20
-121.7531195442145
 10
88.94788680501998
 20
-122.0724798956972
 10
88.73532441358006
 20
-122.2922769876561
 10
88.39632701783148
 20
-122.2922769876561
 97
        0
 97
        0
 92
        1
 93
        1
 72
     4
 94
        3
 73
     0
 74
     1
 95
       17
 96
       13
 40
0.0
 40
0.0
 40
0.0
 40
0.0
 40
1.0
 40
1.0
 40
1.0
 40
2.0
 40
2.0
 40
2.0
 40
3.0
 40
3.0
 40
3.0
 40
4.0
 40
4.0
 40
4.0
 40
4.0
 10
88.41424151435477
 20
-121.4334146831833
 10
88.13381074185544
 20
-121.4334146831833
 10
88.0931586151295
 20
-121.6449435459777
 10
88.0931586151295
 20
-121.7613877733791
 10
88.0931586151295
 20
-121.9370876431268
 10
88.19478893194436
 20
-122.1000406595792
 10
88.39150388415213
 20
-122.1000406595792
 10
88.52035045530047
 20
-122.1000406595792
 10
88.70810815924659
 20
-122.0407850172329
 10
88.70810815924659
 20
-121.7551866015057
 10
88.70810815924659
 20
-121.5309108854159
 10
88.55893552473528
 20
-121.4334146831833
 10
88.41424151435477
 20
-121.4334146831833
 97
        0
 97
        0
 75
     2
 76
     1
 98
        0
  0
ENDBLK
  5
5E
330
5B
100
AcDbEntity
  8
0
100
AcDbBlockEnd
  0
BLOCK
  5
64
330
62
100
AcDbEntity
  8
0
100
AcDbBlockBegin
  2
block 3
 70
     0
 10
0.0
 20
0.0
 30
0.0
  3
block 3
  1

  0
SPLINE
  5
66
330
62
100
AcDbEntity
  8
_U+30EC_U+30A4_U+30E4_U+30FC 1
370
     0
100
AcDbSpline
210
0.0
220
0.0
230
1.0
 70
    11
 71
     3
 72
    26
 73
    22
 74
     0
 42
0.0000000001
 43
0.0000000001
 12
1.0
 22
0.0
 32
0.0
 13
1.0
 23
0.0
 33
0.0
 40
0.0
 40
0.0
 40
0.0
 40
0.0
 40
1.0
 40
1.0
 40
1.0
 40
2.0
 40
2.0
 40
2.0
 40
3.0
 40
3.0
 40
3.0
 40
4.0
 40
4.0
 40
4.0
 40
5.0
 40
5.0
 40
5.0
 40
6.0
 40
6.0
 40
6.0
 40
7.0
 40
7.0
 40
7.0
 40
7.0
 10
81.85994735366697
 20
-122.2416340840229
 30
0.0
 10
81.85994735366697
 20
-122.2416340840229
 30
0.0
 10
81.60673283550109
 20
-122.2416340840229
 30
0.0
 10
81.60673283550109
 20
-122.2416340840229
 30
0.0
 10
81.63360458028605
 20
-121.932609018996
 30
0.0
 10
81.83962129030398
 20
-121.4144666580144
 30
0.0
 10
82.27370332144547
 20
-120.9087266407798
 30
0.0
 10
82.27370332144547
 20
-120.9087266407798
 30
0.0
 10
81.37832300482903
 20
-120.9087266407798
 30
0.0
 10
81.37832300482903
 20
-120.9087266407798
 30
0.0
 10
81.37832300482903
 20
-120.9087266407798
 30
0.0
 10
81.37832300482903
 20
-120.6971977779854
 30
0.0
 10
81.37832300482903
 20
-120.6971977779854
 30
0.0
 10
81.37832300482903
 20
-120.6971977779854
 30
0.0
 10
82.52691783961133
 20
-120.6971977779854
 30
0.0
 10
82.52691783961133
 20
-120.6971977779854
 30
0.0
 10
82.52691783961133
 20
-120.6971977779854
 30
0.0
 10
82.52691783961133
 20
-120.9087266407798
 30
0.0
 10
82.52691783961133
 20
-120.9087266407798
 30
0.0
 10
82.18103025289224
 20
-121.1988036806378
 30
0.0
 10
81.89612085626209
 20
-121.7910155945522
 30
0.0
 10
81.85994735366697
 20
-122.2416340840229
 30
0.0
  0
HATCH
  5
67
330
62
100
AcDbEntity
  8
_U+30EC_U+30A4_U+30E4_U+30FC 1
 62
   179
420
  2234388
100
AcDbHatch
 10
0.0
 20
0.0
 30
0.0
210
0.0
220
0.0
230
1.0
  2
SOLID
 70
     1
 71
     0
 91
        1
 92
        1
 93
        1
 72
     4
 94
        3
 73
     0
 74
     1
 95
       26
 96
       22
 40
0.0
 40
0.0
 40
0.0
 40
0.0
 40
1.0
 40
1.0
 40
1.0
 40
2.0
 40
2.0
 40
2.0
 40
3.0
 40
3.0
 40
3.0
 40
4.0
 40
4.0
 40
4.0
 40
5.0
 40
5.0
 40
5.0
 40
6.0
 40
6.0
 40
6.0
 40
7.0
 40
7.0
 40
7.0
 40
7.0
 10
81.85994735366697
 20
-122.2416340840229
 10
81.85994735366697
 20
-122.2416340840229
 10
81.60673283550109
 20
-122.2416340840229
 10
81.60673283550109
 20
-122.2416340840229
 10
81.63360458028605
 20
-121.932609018996
 10
81.83962129030398
 20
-121.4144666580144
 10
82.27370332144547
 20
-120.9087266407798
 10
82.27370332144547
 20
-120.9087266407798
 10
81.37832300482903
 20
-120.9087266407798
 10
81.37832300482903
 20
-120.9087266407798
 10
81.37832300482903
 20
-120.9087266407798
 10
81.37832300482903
 20
-120.6971977779854
 10
81.37832300482903
 20
-120.6971977779854
 10
81.37832300482903
 20
-120.6971977779854
 10
82.52691783961133
 20
-120.6971977779854
 10
82.52691783961133
 20
-120.6971977779854
 10
82.52691783961133
 20
-120.6971977779854
 10
82.52691783961133
 20
-120.9087266407798
 10
82.52691783961133
 20
-120.9087266407798
 10
82.18103025289224
 20
-121.1988036806378
 10
81.89612085626209
 20
-121.7910155945522
 10
81.85994735366697
 20
-122.2416340840229
 97
        0
 97
        0
 75
     2
 76
     1
 98
        0
  0
ENDBLK
  5
65
330
62
100
AcDbEntity
  8
0
100
AcDbBlockEnd
  0
BLOCK
  5
6A
330
68
100
AcDbEntity
  8
0
100
AcDbBlockBegin
  2
block 4
 70
     0
 10
0.0
 20
0.0
 30
0.0
  3
block 4
  1

  0
SPLINE
  5
6C
330
68
100
AcDbEntity
  8
_U+30EC_U+30A4_U+30E4_U+30FC 1
370
     0
100
AcDbSpline
210
0.0
220
0.0
230
1.0
 70
    11
 71
     3
 72
    26
 73
    22
 74
     0
 42
0.0000000001
 43
0.0000000001
 12
1.0
 22
0.0
 32
0.0
 13
1.0
 23
0.0
 33
0.0
 40
0.0
 40
0.0
 40
0.0
 40
0.0
 40
1.0
 40
1.0
 40
1.0
 40
2.0
 40
2.0
 40
2.0
 40
3.0
 40
3.0
 40
3.0
 40
4.0
 40
4.0
 40
4.0
 40
5.0
 40
5.0
 40
5.0
 40
6.0
 40
6.0
 40
6.0
 40
7.0
 40
7.0
 40
7.0
 40
7.0
 10
94.57992890430641
 20
-122.2416340840229
 30
0.0
 10
94.57992890430641
 20
-122.2416340840229
 30
0.0
 10
94.32671438614055
 20
-122.2416340840229
 30
0.0
 10
94.32671438614055
 20
-122.2416340840229
 30
0.0
 10
94.35358613092549
 20
-121.932609018996
 30
0.0
 10
94.55960284094344
 20
-121.4144666580144
 30
0.0
 10
94.99368487208491
 20
-120.9087266407798
 30
0.0
 10
94.99368487208491
 20
-120.9087266407798
 30
0.0
 10
94.09830455546849
 20
-120.9087266407798
 30
0.0
 10
94.09830455546849
 20
-120.9087266407798
 30
0.0
 10
94.09830455546849
 20
-120.9087266407798
 30
0.0
 10
94.09830455546849
 20
-120.6971977779854
 30
0.0
 10
94.09830455546849
 20
-120.6971977779854
 30
0.0
 10
94.09830455546849
 20
-120.6971977779854
 30
0.0
 10
95.24689939025077
 20
-120.6971977779854
 30
0.0
 10
95.24689939025077
 20
-120.6971977779854
 30
0.0
 10
95.24689939025077
 20
-120.6971977779854
 30
0.0
 10
95.24689939025077
 20
-120.9087266407798
 30
0.0
 10
95.24689939025077
 20
-120.9087266407798
 30
0.0
 10
94.9010118035317
 20
-121.1988036806378
 30
0.0
 10
94.61610240690153
 20
-121.7910155945522
 30
0.0
 10
94.57992890430641
 20
-122.2416340840229
 30
0.0
  0
HATCH
  5
6D
330
68
100
AcDbEntity
  8
_U+30EC_U+30A4_U+30E4_U+30FC 1
 62
   179
420
  2234388
100
AcDbHatch
 10
0.0
 20
0.0
 30
0.0
210
0.0
220
0.0
230
1.0
  2
SOLID
 70
     1
 71
     0
 91
        1
 92
        1
 93
        1
 72
     4
 94
        3
 73
     0
 74
     1
 95
       26
 96
       22
 40
0.0
 40
0.0
 40
0.0
 40
0.0
 40
1.0
 40
1.0
 40
1.0
 40
2.0
 40
2.0
 40
2.0
 40
3.0
 40
3.0
 40
3.0
 40
4.0
 40
4.0
 40
4.0
 40
5.0
 40
5.0
 40
5.0
 40
6.0
 40
6.0
 40
6.0
 40
7.0
 40
7.0
 40
7.0
 40
7.0
 10
94.57992890430641
 20
-122.2416340840229
 10
94.57992890430641
 20
-122.2416340840229
 10
94.32671438614055
 20
-122.2416340840229
 10
94.32671438614055
 20
-122.2416340840229
 10
94.35358613092549
 20
-121.932609018996
 10
94.55960284094344
 20
-121.4144666580144
 10
94.99368487208491
 20
-120.9087266407798
 10
94.99368487208491
 20
-120.9087266407798
 10
94.09830455546849
 20
-120.9087266407798
 10
94.09830455546849
 20
-120.9087266407798
 10
94.09830455546849
 20
-120.9087266407798
 10
94.09830455546849
 20
-120.6971977779854
 10
94.09830455546849
 20
-120.6971977779854
 10
94.09830455546849
 20
-120.6971977779854
 10
95.24689939025077
 20
-120.6971977779854
 10
95.24689939025077
 20
-120.6971977779854
 10
95.24689939025077
 20
-120.6971977779854
 10
95.24689939025077
 20
-120.9087266407798
 10
95.24689939025077
 20
-120.9087266407798
 10
94.9010118035317
 20
-121.1988036806378
 10
94.61610240690153
 20
-121.7910155945522
 10
94.57992890430641
 20
-122.2416340840229
 97
        0
 97
        0
 75
     2
 76
     1
 98
        0
  0
ENDBLK
  5
6B
330
68
100
AcDbEntity
  8
0
100
AcDbBlockEnd
  0
BLOCK
  5
7C
330
7A
100
AcDbEntity
  8
0
100
AcDbBlockBegin
  2
block 5
 70
     0
 10
0.0
 20
0.0
 30
0.0
  3
block 5
  1

  0
SPLINE
  5
7E
330
7A
100
AcDbEntity
  8
_U+30EC_U+30A4_U+30E4_U+30FC 1
370
     0
100
AcDbSpline
210
0.0
220
0.0
230
1.0
 70
    11
 71
     3
 72
    32
 73
    28
 74
     0
 42
0.0000000001
 43
0.0000000001
 12
1.0
 22
0.0
 32
0.0
 13
1.0
 23
0.0
 33
0.0
 40
0.0
 40
0.0
 40
0.0
 40
0.0
 40
1.0
 40
1.0
 40
1.0
 40
2.0
 40
2.0
 40
2.0
 40
3.0
 40
3.0
 40
3.0
 40
4.0
 40
4.0
 40
4.0
 40
5.0
 40
5.0
 40
5.0
 40
6.0
 40
6.0
 40
6.0
 40
7.0
 40
7.0
 40
7.0
 40
8.0
 40
8.0
 40
8.0
 40
9.0
 40
9.0
 40
9.0
 40
9.0
 10
102.1746419015397
 20
-133.6149278094782
 30
0.0
 10
102.1746419015397
 20
-133.8002739465847
 30
0.0
 10
102.1047064631891
 20
-134.0624457130122
 30
0.0
 10
101.772599258411
 20
-134.1030978397381
 30
0.0
 10
101.772599258411
 20
-134.1030978397381
 30
0.0
 10
101.772599258411
 20
-133.8750325186146
 30
0.0
 10
101.772599258411
 20
-133.8750325186146
 30
0.0
 10
101.8318549007573
 20
-133.8636637035133
 30
0.0
 10
101.9799940066231
 20
-133.8295572582093
 30
0.0
 10
101.9799940066231
 20
-133.6125162426385
 30
0.0
 10
101.9799940066231
 20
-133.3007351012234
 30
0.0
 10
101.6499538591361
 20
-133.2600829744975
 30
0.0
 10
101.4449706777638
 20
-133.2463025925565
 30
0.0
 10
101.5252414025701
 20
-133.3434542852405
 30
0.0
 10
101.5824299876252
 20
-133.4158012904308
 30
0.0
 10
101.5824299876252
 20
-133.6104491853474
 30
0.0
 10
101.5824299876252
 20
-133.8026855134243
 30
0.0
 10
101.4766655562281
 20
-134.1258354699408
 30
0.0
 10
101.0704887985171
 20
-134.1258354699408
 30
0.0
 10
100.7507839374859
 20
-134.1258354699408
 30
0.0
 10
100.530986845527
 20
-133.9132730785009
 30
0.0
 10
100.530986845527
 20
-133.5742756827523
 30
0.0
 10
100.530986845527
 20
-133.0247829528549
 30
0.0
 10
101.0853027091037
 20
-133.0134141377536
 30
0.0
 10
101.2988986291892
 20
-133.0134141377536
 30
0.0
 10
101.5293755171524
 20
-133.0134141377536
 30
0.0
 10
102.1746419015397
 20
-133.0337402011166
 30
0.0
 10
102.1746419015397
 20
-133.6149278094782
 30
0.0
  0
SPLINE
  5
7F
330
7A
100
AcDbEntity
  8
_U+30EC_U+30A4_U+30E4_U+30FC 1
370
     0
100
AcDbSpline
210
0.0
220
0.0
230
1.0
 70
    11
 71
     3
 72
    17
 73
    13
 74
     0
 42
0.0000000001
 43
0.0000000001
 12
1.0
 22
0.0
 32
0.0
 13
1.0
 23
0.0
 33
0.0
 40
0.0
 40
0.0
 40
0.0
 40
0.0
 40
1.0
 40
1.0
 40
1.0
 40
2.0
 40
2.0
 40
2.0
 40
3.0
 40
3.0
 40
3.0
 40
4.0
 40
4.0
 40
4.0
 40
4.0
 10
100.7235676831525
 20
-133.5718641159126
 30
0.0
 10
100.7235676831525
 20
-133.6986436297698
 30
0.0
 10
100.7804117586591
 20
-133.8860568241674
 30
0.0
 10
101.0660101743863
 20
-133.8860568241674
 30
0.0
 10
101.2923529477672
 20
-133.8860568241674
 30
0.0
 10
101.3877820927086
 20
-133.7368841896561
 30
0.0
 10
101.3877820927086
 20
-133.5921901792756
 30
0.0
 10
101.3877820927086
 20
-133.3117594067762
 30
0.0
 10
101.1783202872054
 20
-133.2711072800503
 30
0.0
 10
101.061876059804
 20
-133.2711072800503
 30
0.0
 10
100.8861761900562
 20
-133.2711072800503
 30
0.0
 10
100.7235676831525
 20
-133.3730821064137
 30
0.0
 10
100.7235676831525
 20
-133.5718641159126
 30
0.0
  0
HATCH
  5
80
330
7A
100
AcDbEntity
  8
_U+30EC_U+30A4_U+30E4_U+30FC 1
 62
   179
420
  2234388
100
AcDbHatch
 10
0.0
 20
0.0
 30
0.0
210
0.0
220
0.0
230
1.0
  2
SOLID
 70
     1
 71
     0
 91
        2
 92
        1
 93
        1
 72
     4
 94
        3
 73
     0
 74
     1
 95
       32
 96
       28
 40
0.0
 40
0.0
 40
0.0
 40
0.0
 40
1.0
 40
1.0
 40
1.0
 40
2.0
 40
2.0
 40
2.0
 40
3.0
 40
3.0
 40
3.0
 40
4.0
 40
4.0
 40
4.0
 40
5.0
 40
5.0
 40
5.0
 40
6.0
 40
6.0
 40
6.0
 40
7.0
 40
7.0
 40
7.0
 40
8.0
 40
8.0
 40
8.0
 40
9.0
 40
9.0
 40
9.0
 40
9.0
 10
102.1746419015397
 20
-133.6149278094782
 10
102.1746419015397
 20
-133.8002739465847
 10
102.1047064631891
 20
-134.0624457130122
 10
101.772599258411
 20
-134.1030978397381
 10
101.772599258411
 20
-134.1030978397381
 10
101.772599258411
 20
-133.8750325186146
 10
101.772599258411
 20
-133.8750325186146
 10
101.8318549007573
 20
-133.8636637035133
 10
101.9799940066231
 20
-133.8295572582093
 10
101.9799940066231
 20
-133.6125162426385
 10
101.9799940066231
 20
-133.3007351012234
 10
101.6499538591361
 20
-133.2600829744975
 10
101.4449706777638
 20
-133.2463025925565
 10
101.5252414025701
 20
-133.3434542852405
 10
101.5824299876252
 20
-133.4158012904308
 10
101.5824299876252
 20
-133.6104491853474
 10
101.5824299876252
 20
-133.8026855134243
 10
101.4766655562281
 20
-134.1258354699408
 10
101.0704887985171
 20
-134.1258354699408
 10
100.7507839374859
 20
-134.1258354699408
 10
100.530986845527
 20
-133.9132730785009
 10
100.530986845527
 20
-133.5742756827523
 10
100.530986845527
 20
-133.0247829528549
 10
101.0853027091037
 20
-133.0134141377536
 10
101.2988986291892
 20
-133.0134141377536
 10
101.5293755171524
 20
-133.0134141377536
 10
102.1746419015397
 20
-133.0337402011166
 10
102.1746419015397
 20
-133.6149278094782
 97
        0
 97
        0
 92
        1
 93
        1
 72
     4
 94
        3
 73
     0
 74
     1
 95
       17
 96
       13
 40
0.0
 40
0.0
 40
0.0
 40
0.0
 40
1.0
 40
1.0
 40
1.0
 40
2.0
 40
2.0
 40
2.0
 40
3.0
 40
3.0
 40
3.0
 40
4.0
 40
4.0
 40
4.0
 40
4.0
 10
100.7235676831525
 20
-133.5718641159126
 10
100.7235676831525
 20
-133.6986436297698
 10
100.7804117586591
 20
-133.8860568241674
 10
101.0660101743863
 20
-133.8860568241674
 10
101.2923529477672
 20
-133.8860568241674
 10
101.3877820927086
 20
-133.7368841896561
 10
101.3877820927086
 20
-133.5921901792756
 10
101.3877820927086
 20
-133.3117594067762
 10
101.1783202872054
 20
-133.2711072800503
 10
101.061876059804
 20
-133.2711072800503
 10
100.8861761900562
 20
-133.2711072800503
 10
100.7235676831525
 20
-133.3730821064137
 10
100.7235676831525
 20
-133.5718641159126
 97
        0
 97
        0
 75
     2
 76
     1
 98
        0
  0
POLYLINE
  5
81
330
7A
100
AcDbEntity
  8
_U+30EC_U+30A4_U+30E4_U+30FC 1
370
     0
100
AcDb2dPolyline
 66
     1
 10
0.0
 20
0.0
 30
0.0
  0
VERTEX
  5
82
330
81
100
AcDbEntity
  8
_U+30EC_U+30A4_U+30E4_U+30FC 1
370
     0
100
AcDbVertex
100
AcDb2dVertex
 10
102.1239989979065
 20
-132.7822482306933
 30
0.0
  0
VERTEX
  5
83
330
81
100
AcDbEntity
  8
_U+30EC_U+30A4_U+30E4_U+30FC 1
370
     0
100
AcDbVertex
100
AcDb2dVertex
 10
101.8721625179347
 20
-132.7822482306933
 30
0.0
  0
VERTEX
  5
84
330
81
100
AcDbEntity
  8
_U+30EC_U+30A4_U+30E4_U+30FC 1
370
     0
100
AcDbVertex
100
AcDb2dVertex
 10
101.8721625179347
 20
-132.5131862732953
 30
0.0
  0
VERTEX
  5
85
330
81
100
AcDbEntity
  8
_U+30EC_U+30A4_U+30E4_U+30FC 1
370
     0
100
AcDbVertex
100
AcDb2dVertex
 10
102.1239989979065
 20
-132.5131862732953
 30
0.0
  0
VERTEX
  5
86
330
81
100
AcDbEntity
  8
_U+30EC_U+30A4_U+30E4_U+30FC 1
370
     0
100
AcDbVertex
100
AcDb2dVertex
 10
102.1239989979065
 20
-132.7822482306933
 30
0.0
  0
SEQEND
  5
87
330
81
100
AcDbEntity
  8
_U+30EC_U+30A4_U+30E4_U+30FC 1
370
     0
  0
HATCH
  5
88
330
7A
100
AcDbEntity
  8
_U+30EC_U+30A4_U+30E4_U+30FC 1
 62
   179
420
  2234388
100
AcDbHatch
 10
0.0
 20
0.0
 30
0.0
210
0.0
220
0.0
230
1.0
  2
SOLID
 70
     1
 71
     0
 91
        1
 92
        1
 93
        4
 72
     1
 10
102.1239989979065
 20
-132.7822482306933
 11
101.8721625179347
 21
-132.7822482306933
 72
     1
 10
101.8721625179347
 20
-132.7822482306933
 11
101.8721625179347
 21
-132.5131862732953
 72
     1
 10
101.8721625179347
 20
-132.5131862732953
 11
102.1239989979065
 21
-132.5131862732953
 72
     1
 10
102.1239989979065
 20
-132.5131862732953
 11
102.1239989979065
 21
-132.7822482306933
 97
        0
 75
     2
 76
     1
 98
        0
  0
SPLINE
  5
89
330
7A
100
AcDbEntity
  8
_U+30EC_U+30A4_U+30E4_U+30FC 1
370
     0
100
AcDbSpline
210
0.0
220
0.0
230
1.0
 70
    11
 71
     3
 72
    53
 73
    49
 74
     0
 42
0.0000000001
 43
0.0000000001
 12
1.0
 22
0.0
 32
0.0
 13
1.0
 23
0.0
 33
0.0
 40
0.0
 40
0.0
 40
0.0
 40
0.0
 40
1.0
 40
1.0
 40
1.0
 40
2.0
 40
2.0
 40
2.0
 40
3.0
 40
3.0
 40
3.0
 40
4.0
 40
4.0
 40
4.0
 40
5.0
 40
5.0
 40
5.0
 40
6.0
 40
6.0
 40
6.0
 40
7.0
 40
7.0
 40
7.0
 40
8.0
 40
8.0
 40
8.0
 40
9.0
 40
9.0
 40
9.0
 40
10.0
 40
10.0
 40
10.0
 40
11.0
 40
11.0
 40
11.0
 40
12.0
 40
12.0
 40
12.0
 40
13.0
 40
13.0
 40
13.0
 40
14.0
 40
14.0
 40
14.0
 40
15.0
 40
15.0
 40
15.0
 40
16.0
 40
16.0
 40
16.0
 40
16.0
 10
102.1746419015397
 20
-131.7463080182787
 30
0.0
 10
102.1746419015397
 20
-131.8296793290218
 30
0.0
 10
102.1577609336619
 20
-131.9385443463557
 30
0.0
 10
102.0943711767334
 20
-132.0467203445925
 30
0.0
 10
101.9841281212054
 20
-132.2324109912475
 30
0.0
 10
101.8532144927659
 20
-132.2548041119016
 30
0.0
 10
101.7453830040776
 20
-132.2751301752646
 30
0.0
 10
101.7453830040776
 20
-132.2751301752646
 30
0.0
 10
101.7453830040776
 20
-132.0377630963308
 30
0.0
 10
101.7453830040776
 20
-132.0377630963308
 30
0.0
 10
101.9441650135765
 20
-131.9791964730816
 30
0.0
 10
101.9737928347496
 20
-131.8434597109627
 30
0.0
 10
101.9737928347496
 20
-131.743896451439
 30
0.0
 10
101.9737928347496
 20
-131.5947238169277
 30
0.0
 10
101.8742295752259
 20
-131.4321153100239
 30
0.0
 10
101.6416856299715
 20
-131.4321153100239
 30
0.0
 10
101.3857150354175
 20
-131.4321153100239
 30
0.0
 10
101.3157795970669
 20
-131.6240071285523
 30
0.0
 10
101.3157795970669
 20
-131.7528536997007
 30
0.0
 10
101.3157795970669
 20
-131.7869601450047
 30
0.0
 10
101.3157795970669
 20
-131.9385443463557
 30
0.0
 10
101.4449706777638
 20
-132.0332844722
 30
0.0
 10
101.4449706777638
 20
-132.0332844722
 30
0.0
 10
101.4256781430464
 20
-132.2210421761461
 30
0.0
 10
101.4256781430464
 20
-132.2210421761461
 30
0.0
 10
101.4256781430464
 20
-132.2210421761461
 30
0.0
 10
100.579562691869
 20
-132.0921956049978
 30
0.0
 10
100.579562691869
 20
-132.0921956049978
 30
0.0
 10
100.579562691869
 20
-132.0921956049978
 30
0.0
 10
100.579562691869
 20
-131.26020504531
 30
0.0
 10
100.579562691869
 20
-131.26020504531
 30
0.0
 10
100.579562691869
 20
-131.26020504531
 30
0.0
 10
100.7742105867856
 20
-131.26020504531
 30
0.0
 10
100.7742105867856
 20
-131.26020504531
 30
0.0
 10
100.7742105867856
 20
-131.26020504531
 30
0.0
 10
100.7742105867856
 20
-131.9178737734441
 30
0.0
 10
100.7742105867856
 20
-131.9178737734441
 30
0.0
 10
100.7742105867856
 20
-131.9178737734441
 30
0.0
 10
101.1972683123743
 20
-131.9881537213433
 30
0.0
 10
101.1972683123743
 20
-131.9881537213433
 30
0.0
 10
101.1635063766189
 20
-131.9226969071235
 30
0.0
 10
101.1231987594414
 20
-131.8345024627011
 30
0.0
 10
101.1231987594414
 20
-131.7077229488439
 30
0.0
 10
101.1231987594414
 20
-131.4365939341548
 30
0.0
 10
101.3095784251935
 20
-131.1833794159889
 30
0.0
 10
101.6223930952541
 20
-131.1833794159889
 30
0.0
 10
101.9400308989942
 20
-131.1833794159889
 30
0.0
 10
102.1746419015397
 20
-131.4228135522137
 30
0.0
 10
102.1746419015397
 20
-131.7463080182787
 30
0.0
  0
HATCH
  5
8A
330
7A
100
AcDbEntity
  8
_U+30EC_U+30A4_U+30E4_U+30FC 1
 62
   179
420
  2234388
100
AcDbHatch
 10
0.0
 20
0.0
 30
0.0
210
0.0
220
0.0
230
1.0
  2
SOLID
 70
     1
 71
     0
 91
        1
 92
        1
 93
        1
 72
     4
 94
        3
 73
     0
 74
     1
 95
       53
 96
       49
 40
0.0
 40
0.0
 40
0.0
 40
0.0
 40
1.0
 40
1.0
 40
1.0
 40
2.0
 40
2.0
 40
2.0
 40
3.0
 40
3.0
 40
3.0
 40
4.0
 40
4.0
 40
4.0
 40
5.0
 40
5.0
 40
5.0
 40
6.0
 40
6.0
 40
6.0
 40
7.0
 40
7.0
 40
7.0
 40
8.0
 40
8.0
 40
8.0
 40
9.0
 40
9.0
 40
9.0
 40
10.0
 40
10.0
 40
10.0
 40
11.0
 40
11.0
 40
11.0
 40
12.0
 40
12.0
 40
12.0
 40
13.0
 40
13.0
 40
13.0
 40
14.0
 40
14.0
 40
14.0
 40
15.0
 40
15.0
 40
15.0
 40
16.0
 40
16.0
 40
16.0
 40
16.0
 10
102.1746419015397
 20
-131.7463080182787
 10
102.1746419015397
 20
-131.8296793290218
 10
102.1577609336619
 20
-131.9385443463557
 10
102.0943711767334
 20
-132.0467203445925
 10
101.9841281212054
 20
-132.2324109912475
 10
101.8532144927659
 20
-132.2548041119016
 10
101.7453830040776
 20
-132.2751301752646
 10
101.7453830040776
 20
-132.2751301752646
 10
101.7453830040776
 20
-132.0377630963308
 10
101.7453830040776
 20
-132.0377630963308
 10
101.9441650135765
 20
-131.9791964730816
 10
101.9737928347496
 20
-131.8434597109627
 10
101.9737928347496
 20
-131.743896451439
 10
101.9737928347496
 20
-131.5947238169277
 10
101.8742295752259
 20
-131.4321153100239
 10
101.6416856299715
 20
-131.4321153100239
 10
101.3857150354175
 20
-131.4321153100239
 10
101.3157795970669
 20
-131.6240071285523
 10
101.3157795970669
 20
-131.7528536997007
 10
101.3157795970669
 20
-131.7869601450047
 10
101.3157795970669
 20
-131.9385443463557
 10
101.4449706777638
 20
-132.0332844722
 10
101.4449706777638
 20
-132.0332844722
 10
101.4256781430464
 20
-132.2210421761461
 10
101.4256781430464
 20
-132.2210421761461
 10
101.4256781430464
 20
-132.2210421761461
 10
100.579562691869
 20
-132.0921956049978
 10
100.579562691869
 20
-132.0921956049978
 10
100.579562691869
 20
-132.0921956049978
 10
100.579562691869
 20
-131.26020504531
 10
100.579562691869
 20
-131.26020504531
 10
100.579562691869
 20
-131.26020504531
 10
100.7742105867856
 20
-131.26020504531
 10
100.7742105867856
 20
-131.26020504531
 10
100.7742105867856
 20
-131.26020504531
 10
100.7742105867856
 20
-131.9178737734441
 10
100.7742105867856
 20
-131.9178737734441
 10
100.7742105867856
 20
-131.9178737734441
 10
101.1972683123743
 20
-131.9881537213433
 10
101.1972683123743
 20
-131.9881537213433
 10
101.1635063766189
 20
-131.9226969071235
 10
101.1231987594414
 20
-131.8345024627011
 10
101.1231987594414
 20
-131.7077229488439
 10
101.1231987594414
 20
-131.4365939341548
 10
101.3095784251935
 20
-131.1833794159889
 10
101.6223930952541
 20
-131.1833794159889
 10
101.9400308989942
 20
-131.1833794159889
 10
102.1746419015397
 20
-131.4228135522137
 10
102.1746419015397
 20
-131.7463080182787
 97
        0
 97
        0
 75
     2
 76
     1
 98
        0
  0
ENDBLK
  5
7D
330
7A
100
AcDbEntity
  8
0
100
AcDbBlockEnd
  0
BLOCK
  5
8D
330
8B
100
AcDbEntity
  8
0
100
AcDbBlockBegin
  2
block 6
 70
     0
 10
0.0
 20
0.0
 30
0.0
  3
block 6
  1

  0
SPLINE
  5
8F
330
8B
100
AcDbEntity
  8
_U+30EC_U+30A4_U+30E4_U+30FC 1
370
     0
100
AcDbSpline
210
0.0
220
0.0
230
1.0
 70
    11
 71
     3
 72
    26
 73
    22
 74
     0
 42
0.0000000001
 43
0.0000000001
 12
1.0
 22
0.0
 32
0.0
 13
1.0
 23
0.0
 33
0.0
 40
0.0
 40
0.0
 40
0.0
 40
0.0
 40
1.0
 40
1.0
 40
1.0
 40
2.0
 40
2.0
 40
2.0
 40
3.0
 40
3.0
 40
3.0
 40
4.0
 40
4.0
 40
4.0
 40
5.0
 40
5.0
 40
5.0
 40
6.0
 40
6.0
 40
6.0
 40
7.0
 40
7.0
 40
7.0
 40
7.0
 10
102.1436360421724
 20
-124.7693006415507
 30
0.0
 10
102.1436360421724
 20
-124.7693006415507
 30
0.0
 10
101.0394829391498
 20
-124.7693006415507
 30
0.0
 10
101.0394829391498
 20
-124.7693006415507
 30
0.0
 10
101.0394829391498
 20
-124.7693006415507
 30
0.0
 10
101.0394829391498
 20
-125.1217339096918
 30
0.0
 10
101.0394829391498
 20
-125.1217339096918
 30
0.0
 10
101.0394829391498
 20
-125.1217339096918
 30
0.0
 10
100.8913438332841
 20
-125.1217339096918
 30
0.0
 10
100.8913438332841
 20
-125.1217339096918
 30
0.0
 10
100.8765299226975
 20
-124.7668890747111
 30
0.0
 10
100.7135769062452
 20
-124.7172796997235
 30
0.0
 10
100.5995442456834
 20
-124.6855848212592
 30
0.0
 10
100.5995442456834
 20
-124.6855848212592
 30
0.0
 10
100.5995442456834
 20
-124.5295219957773
 30
0.0
 10
100.5995442456834
 20
-124.5295219957773
 30
0.0
 10
100.5995442456834
 20
-124.5295219957773
 30
0.0
 10
102.1436360421724
 20
-124.5295219957773
 30
0.0
 10
102.1436360421724
 20
-124.5295219957773
 30
0.0
 10
102.1436360421724
 20
-124.5295219957773
 30
0.0
 10
102.1436360421724
 20
-124.7693006415507
 30
0.0
 10
102.1436360421724
 20
-124.7693006415507
 30
0.0
  0
HATCH
  5
90
330
8B
100
AcDbEntity
  8
_U+30EC_U+30A4_U+30E4_U+30FC 1
 62
   179
420
  2234388
100
AcDbHatch
 10
0.0
 20
0.0
 30
0.0
210
0.0
220
0.0
230
1.0
  2
SOLID
 70
     1
 71
     0
 91
        1
 92
        1
 93
        1
 72
     4
 94
        3
 73
     0
 74
     1
 95
       26
 96
       22
 40
0.0
 40
0.0
 40
0.0
 40
0.0
 40
1.0
 40
1.0
 40
1.0
 40
2.0
 40
2.0
 40
2.0
 40
3.0
 40
3.0
 40
3.0
 40
4.0
 40
4.0
 40
4.0
 40
5.0
 40
5.0
 40
5.0
 40
6.0
 40
6.0
 40
6.0
 40
7.0
 40
7.0
 40
7.0
 40
7.0
 10
102.1436360421724
 20
-124.7693006415507
 10
102.1436360421724
 20
-124.7693006415507
 10
101.0394829391498
 20
-124.7693006415507
 10
101.0394829391498
 20
-124.7693006415507
 10
101.0394829391498
 20
-124.7693006415507
 10
101.0394829391498
 20
-125.1217339096918
 10
101.0394829391498
 20
-125.1217339096918
 10
101.0394829391498
 20
-125.1217339096918
 10
100.8913438332841
 20
-125.1217339096918
 10
100.8913438332841
 20
-125.1217339096918
 10
100.8765299226975
 20
-124.7668890747111
 10
100.7135769062452
 20
-124.7172796997235
 10
100.5995442456834
 20
-124.6855848212592
 10
100.5995442456834
 20
-124.6855848212592
 10
100.5995442456834
 20
-124.5295219957773
 10
100.5995442456834
 20
-124.5295219957773
 10
100.5995442456834
 20
-124.5295219957773
 10
102.1436360421724
 20
-124.5295219957773
 10
102.1436360421724
 20
-124.5295219957773
 10
102.1436360421724
 20
-124.5295219957773
 10
102.1436360421724
 20
-124.7693006415507
 10
102.1436360421724
 20
-124.7693006415507
 97
        0
 97
        0
 75
     2
 76
     1
 98
        0
  0
POLYLINE
  5
91
330
8B
100
AcDbEntity
  8
_U+30EC_U+30A4_U+30E4_U+30FC 1
370
     0
100
AcDb2dPolyline
 66
     1
 10
0.0
 20
0.0
 30
0.0
  0
VERTEX
  5
92
330
91
100
AcDbEntity
  8
_U+30EC_U+30A4_U+30E4_U+30FC 1
370
     0
100
AcDbVertex
100
AcDb2dVertex
 10
102.1436360421724
 20
-123.9297308717954
 30
0.0
  0
VERTEX
  5
93
330
91
100
AcDbEntity
  8
_U+30EC_U+30A4_U+30E4_U+30FC 1
370
     0
100
AcDbVertex
100
AcDb2dVertex
 10
101.8921440717492
 20
-123.9297308717954
 30
0.0
  0
VERTEX
  5
94
330
91
100
AcDbEntity
  8
_U+30EC_U+30A4_U+30E4_U+30FC 1
370
     0
100
AcDbVertex
100
AcDb2dVertex
 10
101.8921440717492
 20
-123.6606689143973
 30
0.0
  0
VERTEX
  5
95
330
91
100
AcDbEntity
  8
_U+30EC_U+30A4_U+30E4_U+30FC 1
370
     0
100
AcDbVertex
100
AcDb2dVertex
 10
102.1436360421724
 20
-123.6606689143973
 30
0.0
  0
VERTEX
  5
96
330
91
100
AcDbEntity
  8
_U+30EC_U+30A4_U+30E4_U+30FC 1
370
     0
100
AcDbVertex
100
AcDb2dVertex
 10
102.1436360421724
 20
-123.9297308717954
 30
0.0
  0
SEQEND
  5
97
330
91
100
AcDbEntity
  8
_U+30EC_U+30A4_U+30E4_U+30FC 1
370
     0
  0
HATCH
  5
98
330
8B
100
AcDbEntity
  8
_U+30EC_U+30A4_U+30E4_U+30FC 1
 62
   179
420
  2234388
100
AcDbHatch
 10
0.0
 20
0.0
 30
0.0
210
0.0
220
0.0
230
1.0
  2
SOLID
 70
     1
 71
     0
 91
        1
 92
        1
 93
        4
 72
     1
 10
102.1436360421724
 20
-123.9297308717954
 11
101.8921440717492
 21
-123.9297308717954
 72
     1
 10
101.8921440717492
 20
-123.9297308717954
 11
101.8921440717492
 21
-123.6606689143973
 72
     1
 10
101.8921440717492
 20
-123.6606689143973
 11
102.1436360421724
 21
-123.6606689143973
 72
     1
 10
102.1436360421724
 20
-123.6606689143973
 11
102.1436360421724
 21
-123.9297308717954
 97
        0
 75
     2
 76
     1
 98
        0
  0
SPLINE
  5
99
330
8B
100
AcDbEntity
  8
_U+30EC_U+30A4_U+30E4_U+30FC 1
370
     0
100
AcDbSpline
210
0.0
220
0.0
230
1.0
 70
    11
 71
     3
 72
    53
 73
    49
 74
     0
 42
0.0000000001
 43
0.0000000001
 12
1.0
 22
0.0
 32
0.0
 13
1.0
 23
0.0
 33
0.0
 40
0.0
 40
0.0
 40
0.0
 40
0.0
 40
1.0
 40
1.0
 40
1.0
 40
2.0
 40
2.0
 40
2.0
 40
3.0
 40
3.0
 40
3.0
 40
4.0
 40
4.0
 40
4.0
 40
5.0
 40
5.0
 40
5.0
 40
6.0
 40
6.0
 40
6.0
 40
7.0
 40
7.0
 40
7.0
 40
8.0
 40
8.0
 40
8.0
 40
9.0
 40
9.0
 40
9.0
 40
10.0
 40
10.0
 40
10.0
 40
11.0
 40
11.0
 40
11.0
 40
12.0
 40
12.0
 40
12.0
 40
13.0
 40
13.0
 40
13.0
 40
14.0
 40
14.0
 40
14.0
 40
15.0
 40
15.0
 40
15.0
 40
16.0
 40
16.0
 40
16.0
 40
16.0
 10
102.1946234553541
 20
-122.8937906593807
 30
0.0
 10
102.1946234553541
 20
-122.9771619701238
 30
0.0
 10
102.1773979779279
 20
-123.0860269874577
 30
0.0
 10
102.1140082209993
 20
-123.1942029856945
 30
0.0
 10
102.0041096750198
 20
-123.3798936323495
 30
0.0
 10
101.8728515370318
 20
-123.4022867530036
 30
0.0
 10
101.7650200483435
 20
-123.4226128163666
 30
0.0
 10
101.7650200483435
 20
-123.4226128163666
 30
0.0
 10
101.7650200483435
 20
-123.1852457374329
 30
0.0
 10
101.7650200483435
 20
-123.1852457374329
 30
0.0
 10
101.9638020578424
 20
-123.1266791141836
 30
0.0
 10
101.9934298790155
 20
-122.9909423520648
 30
0.0
 10
101.9934298790155
 20
-122.891379092541
 30
0.0
 10
101.9934298790155
 20
-122.7422064580297
 30
0.0
 10
101.8942111290403
 20
-122.5795979511259
 30
0.0
 10
101.6613226742375
 20
-122.5795979511259
 30
0.0
 10
101.4053520796834
 20
-122.5795979511259
 30
0.0
 10
101.3357611508813
 20
-122.7714897696544
 30
0.0
 10
101.3357611508813
 20
-122.9003363408027
 30
0.0
 10
101.3357611508813
 20
-122.9344427861067
 30
0.0
 10
101.3357611508813
 20
-123.0860269874577
 30
0.0
 10
101.4646077220297
 20
-123.180767113302
 30
0.0
 10
101.4646077220297
 20
-123.180767113302
 30
0.0
 10
101.4456596968608
 20
-123.3685248172482
 30
0.0
 10
101.4456596968608
 20
-123.3685248172482
 30
0.0
 10
101.4456596968608
 20
-123.3685248172482
 30
0.0
 10
100.5995442456834
 20
-123.2396782460998
 30
0.0
 10
100.5995442456834
 20
-123.2396782460998
 30
0.0
 10
100.5995442456834
 20
-123.2396782460998
 30
0.0
 10
100.5995442456834
 20
-122.407687686412
 30
0.0
 10
100.5995442456834
 20
-122.407687686412
 30
0.0
 10
100.5995442456834
 20
-122.407687686412
 30
0.0
 10
100.7941921406001
 20
-122.407687686412
 30
0.0
 10
100.7941921406001
 20
-122.407687686412
 30
0.0
 10
100.7941921406001
 20
-122.407687686412
 30
0.0
 10
100.7941921406001
 20
-123.0653564145462
 30
0.0
 10
100.7941921406001
 20
-123.0653564145462
 30
0.0
 10
100.7941921406001
 20
-123.0653564145462
 30
0.0
 10
101.2172498661888
 20
-123.1356363624453
 30
0.0
 10
101.2172498661888
 20
-123.1356363624453
 30
0.0
 10
101.1831434208848
 20
-123.0701795482255
 30
0.0
 10
101.1431803132559
 20
-122.9819851038031
 30
0.0
 10
101.1431803132559
 20
-122.8552055899459
 30
0.0
 10
101.1431803132559
 20
-122.5840765752568
 30
0.0
 10
101.3292154694594
 20
-122.3308620570909
 30
0.0
 10
101.6423746490686
 20
-122.3308620570909
 30
0.0
 10
101.9596679432601
 20
-122.3308620570909
 30
0.0
 10
102.1946234553541
 20
-122.5702961933158
 30
0.0
 10
102.1946234553541
 20
-122.8937906593807
 30
0.0
  0
HATCH
  5
9A
330
8B
100
AcDbEntity
  8
_U+30EC_U+30A4_U+30E4_U+30FC 1
 62
   179
420
  2234388
100
AcDbHatch
 10
0.0
 20
0.0
 30
0.0
210
0.0
220
0.0
230
1.0
  2
SOLID
 70
     1
 71
     0
 91
        1
 92
        1
 93
        1
 72
     4
 94
        3
 73
     0
 74
     1
 95
       53
 96
       49
 40
0.0
 40
0.0
 40
0.0
 40
0.0
 40
1.0
 40
1.0
 40
1.0
 40
2.0
 40
2.0
 40
2.0
 40
3.0
 40
3.0
 40
3.0
 40
4.0
 40
4.0
 40
4.0
 40
5.0
 40
5.0
 40
5.0
 40
6.0
 40
6.0
 40
6.0
 40
7.0
 40
7.0
 40
7.0
 40
8.0
 40
8.0
 40
8.0
 40
9.0
 40
9.0
 40
9.0
 40
10.0
 40
10.0
 40
10.0
 40
11.0
 40
11.0
 40
11.0
 40
12.0
 40
12.0
 40
12.0
 40
13.0
 40
13.0
 40
13.0
 40
14.0
 40
14.0
 40
14.0
 40
15.0
 40
15.0
 40
15.0
 40
16.0
 40
16.0
 40
16.0
 40
16.0
 10
102.1946234553541
 20
-122.8937906593807
 10
102.1946234553541
 20
-122.9771619701238
 10
102.1773979779279
 20
-123.0860269874577
 10
102.1140082209993
 20
-123.1942029856945
 10
102.0041096750198
 20
-123.3798936323495
 10
101.8728515370318
 20
-123.4022867530036
 10
101.7650200483435
 20
-123.4226128163666
 10
101.7650200483435
 20
-123.4226128163666
 10
101.7650200483435
 20
-123.1852457374329
 10
101.7650200483435
 20
-123.1852457374329
 10
101.9638020578424
 20
-123.1266791141836
 10
101.9934298790155
 20
-122.9909423520648
 10
101.9934298790155
 20
-122.891379092541
 10
101.9934298790155
 20
-122.7422064580297
 10
101.8942111290403
 20
-122.5795979511259
 10
101.6613226742375
 20
-122.5795979511259
 10
101.4053520796834
 20
-122.5795979511259
 10
101.3357611508813
 20
-122.7714897696544
 10
101.3357611508813
 20
-122.9003363408027
 10
101.3357611508813
 20
-122.9344427861067
 10
101.3357611508813
 20
-123.0860269874577
 10
101.4646077220297
 20
-123.180767113302
 10
101.4646077220297
 20
-123.180767113302
 10
101.4456596968608
 20
-123.3685248172482
 10
101.4456596968608
 20
-123.3685248172482
 10
101.4456596968608
 20
-123.3685248172482
 10
100.5995442456834
 20
-123.2396782460998
 10
100.5995442456834
 20
-123.2396782460998
 10
100.5995442456834
 20
-123.2396782460998
 10
100.5995442456834
 20
-122.407687686412
 10
100.5995442456834
 20
-122.407687686412
 10
100.5995442456834
 20
-122.407687686412
 10
100.7941921406001
 20
-122.407687686412
 10
100.7941921406001
 20
-122.407687686412
 10
100.7941921406001
 20
-122.407687686412
 10
100.7941921406001
 20
-123.0653564145462
 10
100.7941921406001
 20
-123.0653564145462
 10
100.7941921406001
 20
-123.0653564145462
 10
101.2172498661888
 20
-123.1356363624453
 10
101.2172498661888
 20
-123.1356363624453
 10
101.1831434208848
 20
-123.0701795482255
 10
101.1431803132559
 20
-122.9819851038031
 10
101.1431803132559
 20
-122.8552055899459
 10
101.1431803132559
 20
-122.5840765752568
 10
101.3292154694594
 20
-122.3308620570909
 10
101.6423746490686
 20
-122.3308620570909
 10
101.9596679432601
 20
-122.3308620570909
 10
102.1946234553541
 20
-122.5702961933158
 10
102.1946234553541
 20
-122.8937906593807
 97
        0
 97
        0
 75
     2
 76
     1
 98
        0
  0
ENDBLK
  5
8E
330
8B
100
AcDbEntity
  8
0
100
AcDbBlockEnd
  0
BLOCK
  5
EA
330
E8
100
AcDbEntity
  8
0
100
AcDbBlockBegin
  2
block 7
 70
     0
 10
0.0
 20
0.0
 30
0.0
  3
block 7
  1

  0
SPLINE
  5
EC
330
E8
100
AcDbEntity
  8
_U+30EC_U+30A4_U+30E4_U+30FC 1
370
     0
100
AcDbSpline
210
0.0
220
0.0
230
1.0
 70
    11
 71
     3
 72
    26
 73
    22
 74
     0
 42
0.0000000001
 43
0.0000000001
 12
1.0
 22
0.0
 32
0.0
 13
1.0
 23
0.0
 33
0.0
 40
0.0
 40
0.0
 40
0.0
 40
0.0
 40
1.0
 40
1.0
 40
1.0
 40
2.0
 40
2.0
 40
2.0
 40
3.0
 40
3.0
 40
3.0
 40
4.0
 40
4.0
 40
4.0
 40
5.0
 40
5.0
 40
5.0
 40
6.0
 40
6.0
 40
6.0
 40
7.0
 40
7.0
 40
7.0
 40
7.0
 10
86.55354544277134
 20
-127.6511230149622
 30
0.0
 10
86.55354544277134
 20
-127.6511230149622
 30
0.0
 10
86.55354544277134
 20
-126.5469699119397
 30
0.0
 10
86.55354544277134
 20
-126.5469699119397
 30
0.0
 10
86.55354544277134
 20
-126.5469699119397
 30
0.0
 10
86.20111217463028
 20
-126.5469699119397
 30
0.0
 10
86.20111217463028
 20
-126.5469699119397
 30
0.0
 10
86.20111217463028
 20
-126.5469699119397
 30
0.0
 10
86.20111217463028
 20
-126.3988308060739
 30
0.0
 10
86.20111217463028
 20
-126.3988308060739
 30
0.0
 10
86.55595700961102
 20
-126.3840168954873
 30
0.0
 10
86.60556638459862
 20
-126.221063879035
 30
0.0
 10
86.63726126306291
 20
-126.1066867089247
 30
0.0
 10
86.63726126306291
 20
-126.1066867089247
 30
0.0
 10
86.79332408854472
 20
-126.1066867089247
 30
0.0
 10
86.79332408854472
 20
-126.1066867089247
 30
0.0
 10
86.79332408854472
 20
-126.1066867089247
 30
0.0
 10
86.79332408854472
 20
-127.6511230149622
 30
0.0
 10
86.79332408854472
 20
-127.6511230149622
 30
0.0
 10
86.79332408854472
 20
-127.6511230149622
 30
0.0
 10
86.55354544277134
 20
-127.6511230149622
 30
0.0
 10
86.55354544277134
 20
-127.6511230149622
 30
0.0
  0
HATCH
  5
ED
330
E8
100
AcDbEntity
  8
_U+30EC_U+30A4_U+30E4_U+30FC 1
 62
   179
420
  2234388
100
AcDbHatch
 10
0.0
 20
0.0
 30
0.0
210
0.0
220
0.0
230
1.0
  2
SOLID
 70
     1
 71
     0
 91
        1
 92
        1
 93
        1
 72
     4
 94
        3
 73
     0
 74
     1
 95
       26
 96
       22
 40
0.0
 40
0.0
 40
0.0
 40
0.0
 40
1.0
 40
1.0
 40
1.0
 40
2.0
 40
2.0
 40
2.0
 40
3.0
 40
3.0
 40
3.0
 40
4.0
 40
4.0
 40
4.0
 40
5.0
 40
5.0
 40
5.0
 40
6.0
 40
6.0
 40
6.0
 40
7.0
 40
7.0
 40
7.0
 40
7.0
 10
86.55354544277134
 20
-127.6511230149622
 10
86.55354544277134
 20
-127.6511230149622
 10
86.55354544277134
 20
-126.5469699119397
 10
86.55354544277134
 20
-126.5469699119397
 10
86.55354544277134
 20
-126.5469699119397
 10
86.20111217463028
 20
-126.5469699119397
 10
86.20111217463028
 20
-126.5469699119397
 10
86.20111217463028
 20
-126.5469699119397
 10
86.20111217463028
 20
-126.3988308060739
 10
86.20111217463028
 20
-126.3988308060739
 10
86.55595700961102
 20
-126.3840168954873
 10
86.60556638459862
 20
-126.221063879035
 10
86.63726126306291
 20
-126.1066867089247
 10
86.63726126306291
 20
-126.1066867089247
 10
86.79332408854472
 20
-126.1066867089247
 10
86.79332408854472
 20
-126.1066867089247
 10
86.79332408854472
 20
-126.1066867089247
 10
86.79332408854472
 20
-127.6511230149622
 10
86.79332408854472
 20
-127.6511230149622
 10
86.79332408854472
 20
-127.6511230149622
 10
86.55354544277134
 20
-127.6511230149622
 10
86.55354544277134
 20
-127.6511230149622
 97
        0
 97
        0
 75
     2
 76
     1
 98
        0
  0
ENDBLK
  5
EB
330
E8
100
AcDbEntity
  8
0
100
AcDbBlockEnd
  0
ENDSEC
  0
SECTION
  2
ENTITIES
  0
SPLINE
  5
41
330
1F
100
AcDbEntity
  8
_U+30EC_U+30A4_U+30E4_U+30FC 1
 62
   179
420
  2234388
370
     9
100
AcDbSpline
210
0.0
220
0.0
230
1.0
 70
    11
 71
     3
 72
    17
 73
    13
 74
     0
 42
0.0000000001
 43
0.0000000001
 12
1.0
 22
0.0
 32
0.0
 13
1.0
 23
0.0
 33
0.0
 40
0.0
 40
0.0
 40
0.0
 40
0.0
 40
1.0
 40
1.0
 40
1.0
 40
2.0
 40
2.0
 40
2.0
 40
3.0
 40
3.0
 40
3.0
 40
4.0
 40
4.0
 40
4.0
 40
4.0
 10
98.52525693085573
 20
-122.9544149692613
 30
0.0
 10
98.52525693085573
 20
-122.8993110803864
 30
0.0
 10
98.48045415422096
 20
-122.8545083026196
 30
0.0
 10
98.42535275317151
 20
-122.8545083026196
 30
0.0
 10
98.37021110147795
 20
-122.8545083026196
 30
0.0
 10
98.32544360262006
 20
-122.8993110803864
 30
0.0
 10
98.32544360262006
 20
-122.9544149692613
 30
0.0
 10
98.32544360262006
 20
-123.0095541359144
 30
0.0
 10
98.37021110147795
 20
-123.0543216359032
 30
0.0
 10
98.42535275317151
 20
-123.0543216359032
 30
0.0
 10
98.48045415422096
 20
-123.0543216359032
 30
0.0
 10
98.52525693085573
 20
-123.0095541359144
 30
0.0
 10
98.52525693085573
 20
-122.9544149692613
 30
0.0
  0
SPLINE
  5
42
330
1F
100
AcDbEntity
  8
_U+30EC_U+30A4_U+30E4_U+30FC 1
 62
   179
420
  2234388
370
     9
100
AcDbSpline
210
0.0
220
0.0
230
1.0
 70
    11
 71
     3
 72
    17
 73
    13
 74
     0
 42
0.0000000001
 43
0.0000000001
 12
1.0
 22
0.0
 32
0.0
 13
1.0
 23
0.0
 33
0.0
 40
0.0
 40
0.0
 40
0.0
 40
0.0
 40
1.0
 40
1.0
 40
1.0
 40
2.0
 40
2.0
 40
2.0
 40
3.0
 40
3.0
 40
3.0
 40
4.0
 40
4.0
 40
4.0
 40
4.0
 10
102.6965718244366
 20
-127.3679471903801
 30
0.0
 10
102.6965718244366
 20
-127.3121377459497
 30
0.0
 10
102.6517690478019
 20
-127.2680405237385
 30
0.0
 10
102.5966651603188
 20
-127.2680405237385
 30
0.0
 10
102.5412110854757
 20
-127.2680405237385
 30
0.0
 10
102.496408307709
 20
-127.3121377459497
 30
0.0
 10
102.496408307709
 20
-127.3679471903801
 30
0.0
 10
102.496408307709
 20
-127.4230510792554
 30
0.0
 10
102.5412110854757
 20
-127.4678538570221
 30
0.0
 10
102.5966651603188
 20
-127.4678538570221
 30
0.0
 10
102.6517690478019
 20
-127.4678538570221
 30
0.0
 10
102.6965718244366
 20
-127.4230510792554
 30
0.0
 10
102.6965718244366
 20
-127.3679471903801
 30
0.0
  0
SPLINE
  5
43
330
1F
100
AcDbEntity
  8
_U+30EC_U+30A4_U+30E4_U+30FC 1
 62
   179
420
  2234388
370
     9
100
AcDbSpline
210
0.0
220
0.0
230
1.0
 70
    11
 71
     3
 72
    17
 73
    13
 74
     0
 42
0.0000000001
 43
0.0000000001
 12
1.0
 22
0.0
 32
0.0
 13
1.0
 23
0.0
 33
0.0
 40
0.0
 40
0.0
 40
0.0
 40
0.0
 40
1.0
 40
1.0
 40
1.0
 40
2.0
 40
2.0
 40
2.0
 40
3.0
 40
3.0
 40
3.0
 40
4.0
 40
4.0
 40
4.0
 40
4.0
 10
78.52508577443594
 20
-122.9544149692613
 30
0.0
 10
78.52508577443594
 20
-122.8993110803864
 30
0.0
 10
78.48031827557806
 20
-122.8545083026196
 30
0.0
 10
78.4251791103181
 20
-122.8545083026196
 30
0.0
 10
78.37007522283503
 20
-122.8545083026196
 30
0.0
 10
78.32527244620027
 20
-122.8993110803864
 30
0.0
 10
78.32527244620027
 20
-122.9544149692613
 30
0.0
 10
78.32527244620027
 20
-123.0095541359144
 30
0.0
 10
78.37007522283503
 20
-123.0543216359032
 30
0.0
 10
78.4251791103181
 20
-123.0543216359032
 30
0.0
 10
78.48031827557806
 20
-123.0543216359032
 30
0.0
 10
78.52508577443594
 20
-123.0095541359144
 30
0.0
 10
78.52508577443594
 20
-122.9544149692613
 30
0.0
  0
SPLINE
  5
44
330
1F
100
AcDbEntity
  8
_U+30EC_U+30A4_U+30E4_U+30FC 1
 62
   179
420
  2234388
370
     9
100
AcDbSpline
210
0.0
220
0.0
230
1.0
 70
    11
 71
     3
 72
    17
 73
    13
 74
     0
 42
0.0000000001
 43
0.0000000001
 12
1.0
 22
0.0
 32
0.0
 13
1.0
 23
0.0
 33
0.0
 40
0.0
 40
0.0
 40
0.0
 40
0.0
 40
1.0
 40
1.0
 40
1.0
 40
2.0
 40
2.0
 40
2.0
 40
3.0
 40
3.0
 40
3.0
 40
4.0
 40
4.0
 40
4.0
 40
4.0
 10
102.6965718244366
 20
-125.8996508018585
 30
0.0
 10
102.6965718244366
 20
-125.8441588574279
 30
0.0
 10
102.6517690478019
 20
-125.7993913574391
 30
0.0
 10
102.5966651603188
 20
-125.7993913574391
 30
0.0
 10
102.5412110854757
 20
-125.7993913574391
 30
0.0
 10
102.496408307709
 20
-125.8441588574279
 30
0.0
 10
102.496408307709
 20
-125.8996508018585
 30
0.0
 10
102.496408307709
 20
-125.9547546907334
 30
0.0
 10
102.5412110854757
 20
-125.9995574685001
 30
0.0
 10
102.5966651603188
 20
-125.9995574685001
 30
0.0
 10
102.6517690478019
 20
-125.9995574685001
 30
0.0
 10
102.6965718244366
 20
-125.9547546907334
 30
0.0
 10
102.6965718244366
 20
-125.8996508018585
 30
0.0
  0
POLYLINE
  5
45
330
1F
100
AcDbEntity
  8
_U+30EC_U+30A4_U+30E4_U+30FC 1
 62
   179
420
  2234388
370
     9
100
AcDb2dPolyline
 66
     1
 10
0.0
 20
0.0
 30
0.0
  0
VERTEX
  5
46
330
45
100
AcDbEntity
  8
_U+30EC_U+30A4_U+30E4_U+30FC 1
 62
   179
420
  2234388
370
     9
100
AcDbVertex
100
AcDb2dVertex
 10
78.4251791103181
 20
-122.9544149692613
 30
0.0
  0
VERTEX
  5
47
330
45
100
AcDbEntity
  8
_U+30EC_U+30A4_U+30E4_U+30FC 1
 62
   179
420
  2234388
370
     9
100
AcDbVertex
100
AcDb2dVertex
 10
98.42535275317151
 20
-122.9544149692613
 30
0.0
  0
SEQEND
  5
48
330
45
100
AcDbEntity
  8
_U+30EC_U+30A4_U+30E4_U+30FC 1
 62
   179
420
  2234388
370
     9
  0
POLYLINE
  5
49
330
1F
100
AcDbEntity
  8
_U+30EC_U+30A4_U+30E4_U+30FC 1
 62
   179
420
  2234388
370
     9
100
AcDb2dPolyline
 66
     1
 10
0.0
 20
0.0
 30
0.0
  0
VERTEX
  5
4A
330
49
100
AcDbEntity
  8
_U+30EC_U+30A4_U+30E4_U+30FC 1
 62
   179
420
  2234388
370
     9
100
AcDbVertex
100
AcDb2dVertex
 10
78.4251791103181
 20
-120.6944499698265
 30
0.0
  0
VERTEX
  5
4B
330
49
100
AcDbEntity
  8
_U+30EC_U+30A4_U+30E4_U+30FC 1
 62
   179
420
  2234388
370
     9
100
AcDbVertex
100
AcDb2dVertex
 10
78.4251791103181
 20
-123.9541871912338
 30
0.0
  0
SEQEND
  5
4C
330
49
100
AcDbEntity
  8
_U+30EC_U+30A4_U+30E4_U+30FC 1
 62
   179
420
  2234388
370
     9
  0
SPLINE
  5
4D
330
1F
100
AcDbEntity
  8
_U+30EC_U+30A4_U+30E4_U+30FC 1
 62
   179
420
  2234388
370
     9
100
AcDbSpline
210
0.0
220
0.0
230
1.0
 70
    11
 71
     3
 72
    17
 73
    13
 74
     0
 42
0.0000000001
 43
0.0000000001
 12
1.0
 22
0.0
 32
0.0
 13
1.0
 23
0.0
 33
0.0
 40
0.0
 40
0.0
 40
0.0
 40
0.0
 40
1.0
 40
1.0
 40
1.0
 40
2.0
 40
2.0
 40
2.0
 40
3.0
 40
3.0
 40
3.0
 40
4.0
 40
4.0
 40
4.0
 40
4.0
 10
85.52483170696865
 20
-122.9544149692613
 30
0.0
 10
85.52483170696865
 20
-122.8993110803864
 30
0.0
 10
85.48006420811078
 20
-122.8545083026196
 30
0.0
 10
85.42492504285082
 20
-122.8545083026196
 30
0.0
 10
85.36982115536775
 20
-122.8545083026196
 30
0.0
 10
85.32501837873298
 20
-122.8993110803864
 30
0.0
 10
85.32501837873298
 20
-122.9544149692613
 30
0.0
 10
85.32501837873298
 20
-123.0095541359144
 30
0.0
 10
85.36982115536775
 20
-123.0543216359032
 30
0.0
 10
85.42492504285082
 20
-123.0543216359032
 30
0.0
 10
85.48006420811078
 20
-123.0543216359032
 30
0.0
 10
85.52483170696865
 20
-123.0095541359144
 30
0.0
 10
85.52483170696865
 20
-122.9544149692613
 30
0.0
  0
POLYLINE
  5
4E
330
1F
100
AcDbEntity
  8
_U+30EC_U+30A4_U+30E4_U+30FC 1
 62
   179
420
  2234388
370
     9
100
AcDb2dPolyline
 66
     1
 10
0.0
 20
0.0
 30
0.0
  0
VERTEX
  5
4F
330
4E
100
AcDbEntity
  8
_U+30EC_U+30A4_U+30E4_U+30FC 1
 62
   179
420
  2234388
370
     9
100
AcDbVertex
100
AcDb2dVertex
 10
85.42492504285082
 20
-120.6944499698265
 30
0.0
  0
VERTEX
  5
50
330
4E
100
AcDbEntity
  8
_U+30EC_U+30A4_U+30E4_U+30FC 1
 62
   179
420
  2234388
370
     9
100
AcDbVertex
100
AcDb2dVertex
 10
85.42492504285082
 20
-123.9541871912338
 30
0.0
  0
SEQEND
  5
51
330
4E
100
AcDbEntity
  8
_U+30EC_U+30A4_U+30E4_U+30FC 1
 62
   179
420
  2234388
370
     9
  0
SPLINE
  5
52
330
1F
100
AcDbEntity
  8
_U+30EC_U+30A4_U+30E4_U+30FC 1
 62
   179
420
  2234388
370
     9
100
AcDbSpline
210
0.0
220
0.0
230
1.0
 70
    11
 71
     3
 72
    17
 73
    13
 74
     0
 42
0.0000000001
 43
0.0000000001
 12
1.0
 22
0.0
 32
0.0
 13
1.0
 23
0.0
 33
0.0
 40
0.0
 40
0.0
 40
0.0
 40
0.0
 40
1.0
 40
1.0
 40
1.0
 40
2.0
 40
2.0
 40
2.0
 40
3.0
 40
3.0
 40
3.0
 40
4.0
 40
4.0
 40
4.0
 40
4.0
 10
91.52515822055423
 20
-122.9544149692613
 30
0.0
 10
91.52515822055423
 20
-122.8993110803864
 30
0.0
 10
91.48039072169635
 20
-122.8545083026196
 30
0.0
 10
91.42525155643641
 20
-122.8545083026196
 30
0.0
 10
91.37014997715761
 20
-122.8545083026196
 30
0.0
 10
91.32534719939089
 20
-122.8993110803864
 30
0.0
 10
91.32534719939089
 20
-122.9544149692613
 30
0.0
 10
91.32534719939089
 20
-123.0095541359144
 30
0.0
 10
91.37014997715761
 20
-123.0543216359032
 30
0.0
 10
91.42525155643641
 20
-123.0543216359032
 30
0.0
 10
91.48039072169635
 20
-123.0543216359032
 30
0.0
 10
91.52515822055423
 20
-123.0095541359144
 30
0.0
 10
91.52515822055423
 20
-122.9544149692613
 30
0.0
  0
POLYLINE
  5
53
330
1F
100
AcDbEntity
  8
_U+30EC_U+30A4_U+30E4_U+30FC 1
 62
   179
420
  2234388
370
     9
100
AcDb2dPolyline
 66
     1
 10
0.0
 20
0.0
 30
0.0
  0
VERTEX
  5
54
330
53
100
AcDbEntity
  8
_U+30EC_U+30A4_U+30E4_U+30FC 1
 62
   179
420
  2234388
370
     9
100
AcDbVertex
100
AcDb2dVertex
 10
91.42525155643641
 20
-120.6944499698265
 30
0.0
  0
VERTEX
  5
55
330
53
100
AcDbEntity
  8
_U+30EC_U+30A4_U+30E4_U+30FC 1
 62
   179
420
  2234388
370
     9
100
AcDbVertex
100
AcDb2dVertex
 10
91.42525155643641
 20
-123.9541871912338
 30
0.0
  0
SEQEND
  5
56
330
53
100
AcDbEntity
  8
_U+30EC_U+30A4_U+30E4_U+30FC 1
 62
   179
420
  2234388
370
     9
  0
POLYLINE
  5
57
330
1F
100
AcDbEntity
  8
_U+30EC_U+30A4_U+30E4_U+30FC 1
 62
   179
420
  2234388
370
     9
100
AcDb2dPolyline
 66
     1
 10
0.0
 20
0.0
 30
0.0
  0
VERTEX
  5
58
330
57
100
AcDbEntity
  8
_U+30EC_U+30A4_U+30E4_U+30FC 1
 62
   179
420
  2234388
370
     9
100
AcDbVertex
100
AcDb2dVertex
 10
98.42535275317151
 20
-120.9941699697514
 30
0.0
  0
VERTEX
  5
59
330
57
100
AcDbEntity
  8
_U+30EC_U+30A4_U+30E4_U+30FC 1
 62
   179
420
  2234388
370
     9
100
AcDbVertex
100
AcDb2dVertex
 10
98.42535275317151
 20
-123.9541871912338
 30
0.0
  0
SEQEND
  5
5A
330
57
100
AcDbEntity
  8
_U+30EC_U+30A4_U+30E4_U+30FC 1
 62
   179
420
  2234388
370
     9
  0
INSERT
  5
5C
330
1F
100
AcDbEntity
  8
_U+30EC_U+30A4_U+30E4_U+30FC 1
100
AcDbBlockReference
  2
block 2
 10
0.0
 20
0.0
 30
0.0
  0
INSERT
  5
63
330
1F
100
AcDbEntity
  8
_U+30EC_U+30A4_U+30E4_U+30FC 1
100
AcDbBlockReference
  2
block 3
 10
0.0
 20
0.0
 30
0.0
  0
INSERT
  5
69
330
1F
100
AcDbEntity
  8
_U+30EC_U+30A4_U+30E4_U+30FC 1
100
AcDbBlockReference
  2
block 4
 10
0.0
 20
0.0
 30
0.0
  0
POLYLINE
  5
6E
330
1F
100
AcDbEntity
  8
_U+30EC_U+30A4_U+30E4_U+30FC 1
 62
   179
420
  2234388
370
     9
100
AcDb2dPolyline
 66
     1
 10
0.0
 20
0.0
 30
0.0
  0
VERTEX
  5
6F
330
6E
100
AcDbEntity
  8
_U+30EC_U+30A4_U+30E4_U+30FC 1
 62
   179
420
  2234388
370
     9
100
AcDbVertex
100
AcDb2dVertex
 10
102.5966651603188
 20
-122.3243185805301
 30
0.0
  0
VERTEX
  5
70
330
6E
100
AcDbEntity
  8
_U+30EC_U+30A4_U+30E4_U+30FC 1
 62
   179
420
  2234388
370
     9
100
AcDbVertex
100
AcDb2dVertex
 10
102.5966651603188
 20
-136.8677941324497
 30
0.0
  0
SEQEND
  5
71
330
6E
100
AcDbEntity
  8
_U+30EC_U+30A4_U+30E4_U+30FC 1
 62
   179
420
  2234388
370
     9
  0
POLYLINE
  5
72
330
1F
100
AcDbEntity
  8
_U+30EC_U+30A4_U+30E4_U+30FC 1
 62
   179
420
  2234388
370
     9
100
AcDb2dPolyline
 66
     1
 10
0.0
 20
0.0
 30
0.0
  0
VERTEX
  5
73
330
72
100
AcDbEntity
  8
_U+30EC_U+30A4_U+30E4_U+30FC 1
 62
   179
420
  2234388
370
     9
100
AcDbVertex
100
AcDb2dVertex
 10
103.5640523578609
 20
-125.8679360796442
 30
0.0
  0
VERTEX
  5
74
330
72
100
AcDbEntity
  8
_U+30EC_U+30A4_U+30E4_U+30FC 1
 62
   179
420
  2234388
370
     9
100
AcDbVertex
100
AcDb2dVertex
 10
100.6043527111469
 20
-125.8679360796442
 30
0.0
  0
SEQEND
  5
75
330
72
100
AcDbEntity
  8
_U+30EC_U+30A4_U+30E4_U+30FC 1
 62
   179
420
  2234388
370
     9
  0
POLYLINE
  5
76
330
1F
100
AcDbEntity
  8
_U+30EC_U+30A4_U+30E4_U+30FC 1
 62
   179
420
  2234388
370
     9
100
AcDb2dPolyline
 66
     1
 10
0.0
 20
0.0
 30
0.0
  0
VERTEX
  5
77
330
76
100
AcDbEntity
  8
_U+30EC_U+30A4_U+30E4_U+30FC 1
 62
   179
420
  2234388
370
     9
100
AcDbVertex
100
AcDb2dVertex
 10
103.5640523578609
 20
-127.3679471903801
 30
0.0
  0
VERTEX
  5
78
330
76
100
AcDbEntity
  8
_U+30EC_U+30A4_U+30E4_U+30FC 1
 62
   179
420
  2234388
370
     9
100
AcDbVertex
100
AcDb2dVertex
 10
100.6043527111469
 20
-127.3679471903801
 30
0.0
  0
SEQEND
  5
79
330
76
100
AcDbEntity
  8
_U+30EC_U+30A4_U+30E4_U+30FC 1
 62
   179
420
  2234388
370
     9
  0
INSERT
  5
7B
330
1F
100
AcDbEntity
  8
_U+30EC_U+30A4_U+30E4_U+30FC 1
100
AcDbBlockReference
  2
block 5
 10
0.0
 20
0.0
 30
0.0
  0
INSERT
  5
8C
330
1F
100
AcDbEntity
  8
_U+30EC_U+30A4_U+30E4_U+30FC 1
100
AcDbBlockReference
  2
block 6
 10
0.0
 20
0.0
 30
0.0
  0
POLYLINE
  5
9B
330
1F
100
AcDbEntity
  8
_U+30EC_U+30A4_U+30E4_U+30FC 1
 62
   179
420
  2234388
370
    25
100
AcDb2dPolyline
 66
     1
 10
0.0
 20
0.0
 30
0.0
  0
VERTEX
  5
9C
330
9B
100
AcDbEntity
  8
_U+30EC_U+30A4_U+30E4_U+30FC 1
 62
   179
420
  2234388
370
    25
100
AcDbVertex
100
AcDb2dVertex
 10
91.42525155643641
 20
-125.7993913574391
 30
0.0
  0
VERTEX
  5
9D
330
9B
100
AcDbEntity
  8
_U+30EC_U+30A4_U+30E4_U+30FC 1
 62
   179
420
  2234388
370
    25
100
AcDbVertex
100
AcDb2dVertex
 10
97.42522775342121
 20
-125.7993913574391
 30
0.0
  0
SEQEND
  5
9E
330
9B
100
AcDbEntity
  8
_U+30EC_U+30A4_U+30E4_U+30FC 1
 62
   179
420
  2234388
370
    25
  0
POLYLINE
  5
9F
330
1F
100
AcDbEntity
  8
_U+30EC_U+30A4_U+30E4_U+30FC 1
 62
   179
420
  2234388
370
    25
100
AcDb2dPolyline
 66
     1
 10
0.0
 20
0.0
 30
0.0
  0
VERTEX
  5
A0
330
9F
100
AcDbEntity
  8
_U+30EC_U+30A4_U+30E4_U+30FC 1
 62
   179
420
  2234388
370
    25
100
AcDbVertex
100
AcDb2dVertex
 10
85.4252778206196
 20
-135.7994771882724
 30
0.0
  0
VERTEX
  5
A1
330
9F
100
AcDbEntity
  8
_U+30EC_U+30A4_U+30E4_U+30FC 1
 62
   179
420
  2234388
370
    25
100
AcDbVertex
100
AcDb2dVertex
 10
88.1255446961745
 20
-135.7994771882724
 30
0.0
  0
VERTEX
  5
A2
330
9F
100
AcDbEntity
  8
_U+30EC_U+30A4_U+30E4_U+30FC 1
 62
   179
420
  2234388
370
    25
100
AcDbVertex
100
AcDb2dVertex
 10
88.425264688528
 20
-136.0995146881976
 30
0.0
  0
VERTEX
  5
A3
330
9F
100
AcDbEntity
  8
_U+30EC_U+30A4_U+30E4_U+30FC 1
 62
   179
420
  2234388
370
    25
100
AcDbVertex
100
AcDb2dVertex
 10
88.72533745865029
 20
-135.7994771882724
 30
0.0
  0
VERTEX
  5
A4
330
9F
100
AcDbEntity
  8
_U+30EC_U+30A4_U+30E4_U+30FC 1
 62
   179
420
  2234388
370
    25
100
AcDbVertex
100
AcDb2dVertex
 10
91.42525155643641
 20
-135.7994771882724
 30
0.0
  0
SEQEND
  5
A5
330
9F
100
AcDbEntity
  8
_U+30EC_U+30A4_U+30E4_U+30FC 1
 62
   179
420
  2234388
370
    25
  0
POLYLINE
  5
A6
330
1F
100
AcDbEntity
  8
_U+30EC_U+30A4_U+30E4_U+30FC 1
 62
   179
420
  2234388
370
    25
100
AcDb2dPolyline
 66
     1
 10
0.0
 20
0.0
 30
0.0
  0
VERTEX
  5
A7
330
A6
100
AcDbEntity
  8
_U+30EC_U+30A4_U+30E4_U+30FC 1
 62
   179
420
  2234388
370
    25
100
AcDbVertex
100
AcDb2dVertex
 10
92.42537653092108
 20
-126.7991635794113
 30
0.0
  0
VERTEX
  5
A8
330
A6
100
AcDbEntity
  8
_U+30EC_U+30A4_U+30E4_U+30FC 1
 62
   179
420
  2234388
370
    25
100
AcDbVertex
100
AcDb2dVertex
 10
96.92498886465751
 20
-126.7991635794113
 30
0.0
  0
SEQEND
  5
A9
330
A6
100
AcDbEntity
  8
_U+30EC_U+30A4_U+30E4_U+30FC 1
 62
   179
420
  2234388
370
    25
  0
POLYLINE
  5
AA
330
1F
100
AcDbEntity
  8
_U+30EC_U+30A4_U+30E4_U+30FC 1
 62
   179
420
  2234388
370
    25
100
AcDb2dPolyline
 66
     1
 10
0.0
 20
0.0
 30
0.0
  0
VERTEX
  5
AB
330
AA
100
AcDbEntity
  8
_U+30EC_U+30A4_U+30E4_U+30FC 1
 62
   179
420
  2234388
370
    25
100
AcDbVertex
100
AcDb2dVertex
 10
97.42522775342121
 20
-127.2993671903975
 30
0.0
  0
VERTEX
  5
AC
330
AA
100
AcDbEntity
  8
_U+30EC_U+30A4_U+30E4_U+30FC 1
 62
   179
420
  2234388
370
    25
100
AcDbVertex
100
AcDb2dVertex
 10
98.42535275317151
 20
-127.2993671903975
 30
0.0
  0
SEQEND
  5
AD
330
AA
100
AcDbEntity
  8
_U+30EC_U+30A4_U+30E4_U+30FC 1
 62
   179
420
  2234388
370
    25
  0
POLYLINE
  5
AE
330
1F
100
AcDbEntity
  8
_U+30EC_U+30A4_U+30E4_U+30FC 1
 62
   179
420
  2234388
370
    25
100
AcDb2dPolyline
 66
     1
 10
0.0
 20
0.0
 30
0.0
  0
VERTEX
  5
AF
330
AE
100
AcDbEntity
  8
_U+30EC_U+30A4_U+30E4_U+30FC 1
 62
   179
420
  2234388
370
    25
100
AcDbVertex
100
AcDb2dVertex
 10
97.42522775342121
 20
-125.7993913574391
 30
0.0
  0
VERTEX
  5
B0
330
AE
100
AcDbEntity
  8
_U+30EC_U+30A4_U+30E4_U+30FC 1
 62
   179
420
  2234388
370
    25
100
AcDbVertex
100
AcDb2dVertex
 10
98.42535275317151
 20
-126.7991635794113
 30
0.0
  0
SEQEND
  5
B1
330
AE
100
AcDbEntity
  8
_U+30EC_U+30A4_U+30E4_U+30FC 1
 62
   179
420
  2234388
370
    25
  0
POLYLINE
  5
B2
330
1F
100
AcDbEntity
  8
_U+30EC_U+30A4_U+30E4_U+30FC 1
 62
   179
420
  2234388
370
    25
100
AcDb2dPolyline
 66
     1
 10
0.0
 20
0.0
 30
0.0
  0
VERTEX
  5
B3
330
B2
100
AcDbEntity
  8
_U+30EC_U+30A4_U+30E4_U+30FC 1
 62
   179
420
  2234388
370
    25
100
AcDbVertex
100
AcDb2dVertex
 10
96.92498886465751
 20
-126.7991635794113
 30
0.0
  0
VERTEX
  5
B4
330
B2
100
AcDbEntity
  8
_U+30EC_U+30A4_U+30E4_U+30FC 1
 62
   179
420
  2234388
370
    25
100
AcDbVertex
100
AcDb2dVertex
 10
97.42522775342121
 20
-127.2993671903975
 30
0.0
  0
SEQEND
  5
B5
330
B2
100
AcDbEntity
  8
_U+30EC_U+30A4_U+30E4_U+30FC 1
 62
   179
420
  2234388
370
    25
  0
POLYLINE
  5
B6
330
1F
100
AcDbEntity
  8
_U+30EC_U+30A4_U+30E4_U+30FC 1
 62
   179
420
  2234388
370
    25
100
AcDb2dPolyline
 66
     1
 10
0.0
 20
0.0
 30
0.0
  0
VERTEX
  5
B7
330
B6
100
AcDbEntity
  8
_U+30EC_U+30A4_U+30E4_U+30FC 1
 62
   179
420
  2234388
370
    25
100
AcDbVertex
100
AcDb2dVertex
 10
98.42535275317151
 20
-126.7991635794113
 30
0.0
  0
VERTEX
  5
B8
330
B6
100
AcDbEntity
  8
_U+30EC_U+30A4_U+30E4_U+30FC 1
 62
   179
420
  2234388
370
    25
100
AcDbVertex
100
AcDb2dVertex
 10
98.42535275317151
 20
-127.2993671903975
 30
0.0
  0
SEQEND
  5
B9
330
B6
100
AcDbEntity
  8
_U+30EC_U+30A4_U+30E4_U+30FC 1
 62
   179
420
  2234388
370
    25
  0
POLYLINE
  5
BA
330
1F
100
AcDbEntity
  8
_U+30EC_U+30A4_U+30E4_U+30FC 1
 62
   179
420
  2234388
370
    25
100
AcDb2dPolyline
 66
     1
 10
0.0
 20
0.0
 30
0.0
  0
VERTEX
  5
BB
330
BA
100
AcDbEntity
  8
_U+30EC_U+30A4_U+30E4_U+30FC 1
 62
   179
420
  2234388
370
    25
100
AcDbVertex
100
AcDb2dVertex
 10
92.42537653092108
 20
-126.7991635794113
 30
0.0
  0
VERTEX
  5
BC
330
BA
100
AcDbEntity
  8
_U+30EC_U+30A4_U+30E4_U+30FC 1
 62
   179
420
  2234388
370
    25
100
AcDbVertex
100
AcDb2dVertex
 10
92.42537653092108
 20
-136.7992141324668
 30
0.0
  0
SEQEND
  5
BD
330
BA
100
AcDbEntity
  8
_U+30EC_U+30A4_U+30E4_U+30FC 1
 62
   179
420
  2234388
370
    25
  0
POLYLINE
  5
BE
330
1F
100
AcDbEntity
  8
_U+30EC_U+30A4_U+30E4_U+30FC 1
 62
   179
420
  2234388
370
    25
100
AcDb2dPolyline
 66
     1
 10
0.0
 20
0.0
 30
0.0
  0
VERTEX
  5
BF
330
BE
100
AcDbEntity
  8
_U+30EC_U+30A4_U+30E4_U+30FC 1
 62
   179
420
  2234388
370
    25
100
AcDbVertex
100
AcDb2dVertex
 10
91.42525155643641
 20
-125.7993913574391
 30
0.0
  0
VERTEX
  5
C0
330
BE
100
AcDbEntity
  8
_U+30EC_U+30A4_U+30E4_U+30FC 1
 62
   179
420
  2234388
370
    25
100
AcDbVertex
100
AcDb2dVertex
 10
91.42525155643641
 20
-135.7994771882724
 30
0.0
  0
SEQEND
  5
C1
330
BE
100
AcDbEntity
  8
_U+30EC_U+30A4_U+30E4_U+30FC 1
 62
   179
420
  2234388
370
    25
  0
POLYLINE
  5
C2
330
1F
100
AcDbEntity
  8
_U+30EC_U+30A4_U+30E4_U+30FC 1
 62
   179
420
  2234388
370
    25
100
AcDb2dPolyline
 66
     1
 10
0.0
 20
0.0
 30
0.0
  0
VERTEX
  5
C3
330
C2
100
AcDbEntity
  8
_U+30EC_U+30A4_U+30E4_U+30FC 1
 62
   179
420
  2234388
370
    25
100
AcDbVertex
100
AcDb2dVertex
 10
85.4252778206196
 20
-125.7993913574391
 30
0.0
  0
VERTEX
  5
C4
330
C2
100
AcDbEntity
  8
_U+30EC_U+30A4_U+30E4_U+30FC 1
 62
   179
420
  2234388
370
    25
100
AcDbVertex
100
AcDb2dVertex
 10
79.42530408480279
 20
-125.7993913574391
 30
0.0
  0
SEQEND
  5
C5
330
C2
100
AcDbEntity
  8
_U+30EC_U+30A4_U+30E4_U+30FC 1
 62
   179
420
  2234388
370
    25
  0
POLYLINE
  5
C6
330
1F
100
AcDbEntity
  8
_U+30EC_U+30A4_U+30E4_U+30FC 1
 62
   179
420
  2234388
370
    25
100
AcDb2dPolyline
 66
     1
 10
0.0
 20
0.0
 30
0.0
  0
VERTEX
  5
C7
330
C6
100
AcDbEntity
  8
_U+30EC_U+30A4_U+30E4_U+30FC 1
 62
   179
420
  2234388
370
    25
100
AcDbVertex
100
AcDb2dVertex
 10
84.4251528461349
 20
-126.7991635794113
 30
0.0
  0
VERTEX
  5
C8
330
C6
100
AcDbEntity
  8
_U+30EC_U+30A4_U+30E4_U+30FC 1
 62
   179
420
  2234388
370
    25
100
AcDbVertex
100
AcDb2dVertex
 10
79.92550768315265
 20
-126.7991635794113
 30
0.0
  0
SEQEND
  5
C9
330
C6
100
AcDbEntity
  8
_U+30EC_U+30A4_U+30E4_U+30FC 1
 62
   179
420
  2234388
370
    25
  0
POLYLINE
  5
CA
330
1F
100
AcDbEntity
  8
_U+30EC_U+30A4_U+30E4_U+30FC 1
 62
   179
420
  2234388
370
    25
100
AcDb2dPolyline
 66
     1
 10
0.0
 20
0.0
 30
0.0
  0
VERTEX
  5
CB
330
CA
100
AcDbEntity
  8
_U+30EC_U+30A4_U+30E4_U+30FC 1
 62
   179
420
  2234388
370
    25
100
AcDbVertex
100
AcDb2dVertex
 10
79.42530408480279
 20
-127.2993671903975
 30
0.0
  0
VERTEX
  5
CC
330
CA
100
AcDbEntity
  8
_U+30EC_U+30A4_U+30E4_U+30FC 1
 62
   179
420
  2234388
370
    25
100
AcDbVertex
100
AcDb2dVertex
 10
78.4251791103181
 20
-127.2993671903975
 30
0.0
  0
SEQEND
  5
CD
330
CA
100
AcDbEntity
  8
_U+30EC_U+30A4_U+30E4_U+30FC 1
 62
   179
420
  2234388
370
    25
  0
POLYLINE
  5
CE
330
1F
100
AcDbEntity
  8
_U+30EC_U+30A4_U+30E4_U+30FC 1
 62
   179
420
  2234388
370
    25
100
AcDb2dPolyline
 66
     1
 10
0.0
 20
0.0
 30
0.0
  0
VERTEX
  5
CF
330
CE
100
AcDbEntity
  8
_U+30EC_U+30A4_U+30E4_U+30FC 1
 62
   179
420
  2234388
370
    25
100
AcDbVertex
100
AcDb2dVertex
 10
79.42530408480279
 20
-125.7993913574391
 30
0.0
  0
VERTEX
  5
D0
330
CE
100
AcDbEntity
  8
_U+30EC_U+30A4_U+30E4_U+30FC 1
 62
   179
420
  2234388
370
    25
100
AcDbVertex
100
AcDb2dVertex
 10
78.4251791103181
 20
-126.7991635794113
 30
0.0
  0
SEQEND
  5
D1
330
CE
100
AcDbEntity
  8
_U+30EC_U+30A4_U+30E4_U+30FC 1
 62
   179
420
  2234388
370
    25
  0
POLYLINE
  5
D2
330
1F
100
AcDbEntity
  8
_U+30EC_U+30A4_U+30E4_U+30FC 1
 62
   179
420
  2234388
370
    25
100
AcDb2dPolyline
 66
     1
 10
0.0
 20
0.0
 30
0.0
  0
VERTEX
  5
D3
330
D2
100
AcDbEntity
  8
_U+30EC_U+30A4_U+30E4_U+30FC 1
 62
   179
420
  2234388
370
    25
100
AcDbVertex
100
AcDb2dVertex
 10
79.92550768315265
 20
-126.7991635794113
 30
0.0
  0
VERTEX
  5
D4
330
D2
100
AcDbEntity
  8
_U+30EC_U+30A4_U+30E4_U+30FC 1
 62
   179
420
  2234388
370
    25
100
AcDbVertex
100
AcDb2dVertex
 10
79.42530408480279
 20
-127.2993671903975
 30
0.0
  0
SEQEND
  5
D5
330
D2
100
AcDbEntity
  8
_U+30EC_U+30A4_U+30E4_U+30FC 1
 62
   179
420
  2234388
370
    25
  0
POLYLINE
  5
D6
330
1F
100
AcDbEntity
  8
_U+30EC_U+30A4_U+30E4_U+30FC 1
 62
   179
420
  2234388
370
    25
100
AcDb2dPolyline
 66
     1
 10
0.0
 20
0.0
 30
0.0
  0
VERTEX
  5
D7
330
D6
100
AcDbEntity
  8
_U+30EC_U+30A4_U+30E4_U+30FC 1
 62
   179
420
  2234388
370
    25
100
AcDbVertex
100
AcDb2dVertex
 10
78.4251791103181
 20
-126.7991635794113
 30
0.0
  0
VERTEX
  5
D8
330
D6
100
AcDbEntity
  8
_U+30EC_U+30A4_U+30E4_U+30FC 1
 62
   179
420
  2234388
370
    25
100
AcDbVertex
100
AcDb2dVertex
 10
78.4251791103181
 20
-127.2993671903975
 30
0.0
  0
SEQEND
  5
D9
330
D6
100
AcDbEntity
  8
_U+30EC_U+30A4_U+30E4_U+30FC 1
 62
   179
420
  2234388
370
    25
  0
POLYLINE
  5
DA
330
1F
100
AcDbEntity
  8
_U+30EC_U+30A4_U+30E4_U+30FC 1
 62
   179
420
  2234388
370
    25
100
AcDb2dPolyline
 66
     1
 10
0.0
 20
0.0
 30
0.0
  0
VERTEX
  5
DB
330
DA
100
AcDbEntity
  8
_U+30EC_U+30A4_U+30E4_U+30FC 1
 62
   179
420
  2234388
370
    25
100
AcDbVertex
100
AcDb2dVertex
 10
84.4251528461349
 20
-126.7991635794113
 30
0.0
  0
VERTEX
  5
DC
330
DA
100
AcDbEntity
  8
_U+30EC_U+30A4_U+30E4_U+30FC 1
 62
   179
420
  2234388
370
    25
100
AcDbVertex
100
AcDb2dVertex
 10
84.4251528461349
 20
-136.7992141324668
 30
0.0
  0
SEQEND
  5
DD
330
DA
100
AcDbEntity
  8
_U+30EC_U+30A4_U+30E4_U+30FC 1
 62
   179
420
  2234388
370
    25
  0
POLYLINE
  5
DE
330
1F
100
AcDbEntity
  8
_U+30EC_U+30A4_U+30E4_U+30FC 1
 62
   179
420
  2234388
370
    25
100
AcDb2dPolyline
 66
     1
 10
0.0
 20
0.0
 30
0.0
  0
VERTEX
  5
DF
330
DE
100
AcDbEntity
  8
_U+30EC_U+30A4_U+30E4_U+30FC 1
 62
   179
420
  2234388
370
    25
100
AcDbVertex
100
AcDb2dVertex
 10
85.4252778206196
 20
-125.7993913574391
 30
0.0
  0
VERTEX
  5
E0
330
DE
100
AcDbEntity
  8
_U+30EC_U+30A4_U+30E4_U+30FC 1
 62
   179
420
  2234388
370
    25
100
AcDbVertex
100
AcDb2dVertex
 10
85.4252778206196
 20
-135.7994771882724
 30
0.0
  0
SEQEND
  5
E1
330
DE
100
AcDbEntity
  8
_U+30EC_U+30A4_U+30E4_U+30FC 1
 62
   179
420
  2234388
370
    25
  0
POLYLINE
  5
E2
330
1F
100
AcDbEntity
  8
_U+30EC_U+30A4_U+30E4_U+30FC 1
 62
   179
420
  2234388
370
     9
100
AcDb2dPolyline
 66
     1
 10
0.0
 20
0.0
 30
0.0
  0
VERTEX
  5
E3
330
E2
100
AcDbEntity
  8
_U+30EC_U+30A4_U+30E4_U+30FC 1
 62
   179
420
  2234388
370
     9
100
AcDbVertex
100
AcDb2dVertex
 10
87.01552944671556
 20
-128.004252467999
 30
0.0
  0
VERTEX
  5
E4
330
E2
100
AcDbEntity
  8
_U+30EC_U+30A4_U+30E4_U+30FC 1
 62
   179
420
  2234388
370
     9
100
AcDbVertex
100
AcDb2dVertex
 10
83.61489286680637
 20
-128.004252467999
 30
0.0
  0
SEQEND
  5
E5
330
E2
100
AcDbEntity
  8
_U+30EC_U+30A4_U+30E4_U+30FC 1
 62
   179
420
  2234388
370
     9
  0
SPLINE
  5
E6
330
1F
100
AcDbEntity
  8
_U+30EC_U+30A4_U+30E4_U+30FC 1
 62
   179
420
  2234388
370
     9
100
AcDbSpline
210
0.0
220
0.0
230
1.0
 70
    11
 71
     3
 72
    17
 73
    13
 74
     0
 42
0.0000000001
 43
0.0000000001
 12
1.0
 22
0.0
 32
0.0
 13
1.0
 23
0.0
 33
0.0
 40
0.0
 40
0.0
 40
0.0
 40
0.0
 40
1.0
 40
1.0
 40
1.0
 40
2.0
 40
2.0
 40
2.0
 40
3.0
 40
3.0
 40
3.0
 40
4.0
 40
4.0
 40
4.0
 40
4.0
 10
84.52505951025275
 20
-128.004252467999
 30
0.0
 10
84.52505951025275
 20
-127.9484430235685
 30
0.0
 10
84.48029201139487
 20
-127.9043458013573
 30
0.0
 10
84.4251528461349
 20
-127.9043458013573
 30
0.0
 10
84.37004895865184
 20
-127.9043458013573
 30
0.0
 10
84.32524618201708
 20
-127.9484430235685
 30
0.0
 10
84.32524618201708
 20
-128.004252467999
 30
0.0
 10
84.32524618201708
 20
-128.0593563568742
 30
0.0
 10
84.37004895865184
 20
-128.1041591346406
 30
0.0
 10
84.4251528461349
 20
-128.1041591346406
 30
0.0
 10
84.48029201139487
 20
-128.1041591346406
 30
0.0
 10
84.52505951025275
 20
-128.0593563568742
 30
0.0
 10
84.52505951025275
 20
-128.004252467999
 30
0.0
  0
SPLINE
  5
E7
330
1F
100
AcDbEntity
  8
_U+30EC_U+30A4_U+30E4_U+30FC 1
 62
   179
420
  2234388
370
     9
100
AcDbSpline
210
0.0
220
0.0
230
1.0
 70
    11
 71
     3
 72
    17
 73
    13
 74
     0
 42
0.0000000001
 43
0.0000000001
 12
1.0
 22
0.0
 32
0.0
 13
1.0
 23
0.0
 33
0.0
 40
0.0
 40
0.0
 40
0.0
 40
0.0
 40
1.0
 40
1.0
 40
1.0
 40
2.0
 40
2.0
 40
2.0
 40
3.0
 40
3.0
 40
3.0
 40
4.0
 40
4.0
 40
4.0
 40
4.0
 10
85.5255372625062
 20
-128.004252467999
 30
0.0
 10
85.5255372625062
 20
-127.9484430235685
 30
0.0
 10
85.48073448587145
 20
-127.9043458013573
 30
0.0
 10
85.42563059838838
 20
-127.9043458013573
 30
0.0
 10
85.36982115536775
 20
-127.9043458013573
 30
0.0
 10
85.32501837873298
 20
-127.9484430235685
 30
0.0
 10
85.32501837873298
 20
-128.004252467999
 30
0.0
 10
85.32501837873298
 20
-128.0593563568742
 30
0.0
 10
85.36982115536775
 20
-128.1041591346406
 30
0.0
 10
85.42563059838838
 20
-128.1041591346406
 30
0.0
 10
85.48073448587145
 20
-128.1041591346406
 30
0.0
 10
85.5255372625062
 20
-128.0593563568742
 30
0.0
 10
85.5255372625062
 20
-128.004252467999
 30
0.0
  0
INSERT
  5
E9
330
1F
100
AcDbEntity
  8
_U+30EC_U+30A4_U+30E4_U+30FC 1
100
AcDbBlockReference
  2
block 7
 10
0.0
 20
0.0
 30
0.0
  0
ENDSEC
  0
SECTION
  2
OBJECTS
  0
DICTIONARY
  5
C
330
0
100
AcDbDictionary
281
     1
  3
ACAD_GROUP
350
D
  3
ACAD_LAYOUT
350
1A
  3
ACAD_MATERIAL
350
3B
  3
ACAD_MLEADERSTYLE
350
EF
  3
ACAD_MLINESTYLE
350
17
  3
ACAD_PLOTSETTINGS
350
19
  3
ACAD_PLOTSTYLENAME
350
E
  3
ACAD_TABLESTYLE
350
EE
  3
ACAD_VISUALSTYLE
350
2A
  0
SUN
  5
3F
330
29
100
AcDbSun
 90
        1
290
     0
 63
     7
421
 16777215
 40
1.0
291
     1
 91
  2455826
 92
 54000000
292
     0
 70
     2
 71
   256
280
     1
  0
DICTIONARY
  5
D
102
{ACAD_REACTORS
330
C
102
}
330
C
100
AcDbDictionary
281
     1
  0
DICTIONARY
  5
1A
102
{ACAD_REACTORS
330
C
102
}
330
C
100
AcDbDictionary
281
     1
  3
Layout1
350
1E
  3
Layout2
350
26
  3
Model
350
22
  0
DICTIONARY
  5
3B
102
{ACAD_REACTORS
330
C
102
}
330
C
100
AcDbDictionary
281
     1
  3
ByBlock
350
3D
  3
ByLayer
350
3C
  3
Global
350
3E
  0
DICTIONARY
  5
EF
102
{ACAD_REACTORS
330
C
102
}
330
C
100
AcDbDictionary
281
     1
  0
DICTIONARY
  5
17
102
{ACAD_REACTORS
330
C
102
}
330
C
100
AcDbDictionary
281
     1
  3
Standard
350
18
  0
DICTIONARY
  5
19
102
{ACAD_REACTORS
330
C
102
}
330
C
100
AcDbDictionary
281
     1
  0
ACDBDICTIONARYWDFLT
  5
E
102
{ACAD_REACTORS
330
C
102
}
330
C
100
AcDbDictionary
281
     1
  3
Normal
350
F
100
AcDbDictionaryWithDefault
340
F
  0
DICTIONARY
  5
EE
102
{ACAD_REACTORS
330
C
102
}
330
C
100
AcDbDictionary
281
     1
  0
DICTIONARY
  5
2A
102
{ACAD_REACTORS
330
C
102
}
330
C
100
AcDbDictionary
281
     1
  3
2dWireframe
350
2F
  3
3D Hidden
350
31
  3
3dWireframe
350
30
  3
Basic
350
32
  3
Brighten
350
36
  3
ColorChange
350
3A
  3
Conceptual
350
34
  3
Dim
350
35
  3
Facepattern
350
39
  3
Flat
350
2B
  3
FlatWithEdges
350
2C
  3
Gouraud
350
2D
  3
GouraudWithEdges
350
2E
  3
Linepattern
350
38
  3
Realistic
350
33
  3
Thicken
350
37
  0
LAYOUT
  5
1E
102
{ACAD_REACTORS
330
1A
102
}
330
1A
100
AcDbPlotSettings
  1

  2
none_device
  4

  6

 40
0.0
 41
0.0
 42
0.0
 43
0.0
 44
0.0
 45
0.0
 46
0.0
 47
0.0
 48
0.0
 49
0.0
140
0.0
141
0.0
142
1.0
143
1.0
 70
   688
 72
     0
 73
     0
 74
     5
  7

 75
    16
 76
     0
 77
     2
 78
   300
147
1.0
148
0.0
149
0.0
100
AcDbLayout
  1
Layout1
 70
     1
 71
     1
 10
0.0
 20
0.0
 11
12.0
 21
9.0
 12
0.0
 22
0.0
 32
0.0
 14
1.000000000000000E+20
 24
1.000000000000000E+20
 34
1.000000000000000E+20
 15
-1.000000000000000E+20
 25
-1.000000000000000E+20
 35
-1.000000000000000E+20
146
0.0
 13
0.0
 23
0.0
 33
0.0
 16
1.0
 26
0.0
 36
0.0
 17
0.0
 27
1.0
 37
0.0
 76
     0
330
1B
  0
LAYOUT
  5
26
102
{ACAD_REACTORS
330
1A
102
}
330
1A
100
AcDbPlotSettings
  1

  2
none_device
  4

  6

 40
0.0
 41
0.0
 42
0.0
 43
0.0
 44
0.0
 45
0.0
 46
0.0
 47
0.0
 48
0.0
 49
0.0
140
0.0
141
0.0
142
1.0
143
1.0
 70
   688
 72
     0
 73
     0
 74
     5
  7

 75
    16
 76
     0
 77
     2
 78
   300
147
1.0
148
0.0
149
0.0
100
AcDbLayout
  1
Layout2
 70
     1
 71
     2
 10
0.0
 20
0.0
 11
0.0
 21
0.0
 12
0.0
 22
0.0
 32
0.0
 14
0.0
 24
0.0
 34
0.0
 15
0.0
 25
0.0
 35
0.0
146
0.0
 13
0.0
 23
0.0
 33
0.0
 16
1.0
 26
0.0
 36
0.0
 17
0.0
 27
1.0
 37
0.0
 76
     0
330
23
  0
LAYOUT
  5
22
102
{ACAD_REACTORS
330
1A
102
}
330
1A
100
AcDbPlotSettings
  1

  2
none_device
  4

  6

 40
0.0
 41
0.0
 42
0.0
 43
0.0
 44
0.0
 45
0.0
 46
0.0
 47
0.0
 48
0.0
 49
0.0
140
0.0
141
0.0
142
1.0
143
1.0
 70
  1712
 72
     0
 73
     0
 74
     0
  7

 75
     0
 76
     0
 77
     2
 78
   300
147
1.0
148
0.0
149
0.0
100
AcDbLayout
  1
Model
 70
     1
 71
     0
 10
0.0
 20
0.0
 11
12.0
 21
9.0
 12
0.0
 22
0.0
 32
0.0
 14
1.000000000000000E+20
 24
1.000000000000000E+20
 34
1.000000000000000E+20
 15
-1.000000000000000E+20
 25
-1.000000000000000E+20
 35
-1.000000000000000E+20
146
0.0
 13
0.0
 23
0.0
 33
0.0
 16
1.0
 26
0.0
 36
0.0
 17
0.0
 27
1.0
 37
0.0
 76
     0
330
1F
331
29
  0
MATERIAL
  5
3D
102
{ACAD_REACTORS
330
3B
102
}
330
3B
100
AcDbMaterial
  1
ByBlock
 72
     1
 94
      127
  0
MATERIAL
  5
3C
102
{ACAD_REACTORS
330
3B
102
}
330
3B
100
AcDbMaterial
  1
ByLayer
 72
     1
 94
      127
  0
MATERIAL
  5
3E
102
{ACAD_REACTORS
330
3B
102
}
330
3B
100
AcDbMaterial
  1
Global
 72
     1
 94
      127
  0
MLINESTYLE
  5
18
102
{ACAD_REACTORS
330
17
102
}
330
17
100
AcDbMlineStyle
  2
Standard
 70
     0
  3

 62
   256
 51
90.0
 52
90.0
 71
     2
 49
0.5
 62
   256
  6
BYLAYER
 49
-0.5
 62
   256
  6
BYLAYER
  0
ACDBPLACEHOLDER
  5
F
102
{ACAD_REACTORS
330
E
102
}
330
E
  0
VISUALSTYLE
  5
2F
102
{ACAD_REACTORS
330
2A
102
}
330
2A
100
AcDbVisualStyle
  2
2dWireframe
 70
     4
177
     2
291
     0
 71
     0
176
     1
 72
     2
176
     1
 73
     0
176
     1
 90
        0
176
     1
 40
-0.6
176
     1
 41
-30.0
176
     1
 62
     5
 63
     7
421
 16777215
176
     1
 74
     1
176
     1
 91
        4
176
     1
 64
     7
176
     1
 65
   257
176
     1
 75
     1
176
     1
175
     1
176
     1
 42
1.0
176
     1
 92
        0
176
     1
 66
   257
176
     1
 43
1.0
176
     1
 76
     1
176
     1
 77
     6
176
     1
 78
     2
176
     1
 67
     7
176
     1
 79
     5
176
     1
170
     0
176
     1
171
     0
176
     1
290
     0
176
     1
 93
        1
176
     1
 44
0.0
176
     1
173
     0
176
     1
  0
VISUALSTYLE
  5
31
102
{ACAD_REACTORS
330
2A
102
}
330
2A
100
AcDbVisualStyle
  2
3D Hidden
 70
     6
177
     2
291
     0
 71
     1
176
     1
 72
     2
176
     1
 73
     2
176
     1
 90
        0
176
     1
 40
-0.6
176
     1
 41
-30.0
176
     1
 62
     5
 63
     7
421
 16777215
176
     1
 74
     2
176
     1
 91
        2
176
     1
 64
     7
176
     1
 65
   257
176
     1
 75
     2
176
     1
175
     1
176
     1
 42
40.0
176
     1
 92
        0
176
     1
 66
   257
176
     1
 43
1.0
176
     1
 76
     1
176
     1
 77
     6
176
     1
 78
     2
176
     1
 67
     7
176
     1
 79
     3
176
     1
170
     0
176
     1
171
     0
176
     1
290
     0
176
     1
 93
        1
176
     1
 44
0.0
176
     1
173
     0
176
     1
  0
VISUALSTYLE
  5
30
102
{ACAD_REACTORS
330
2A
102
}
330
2A
100
AcDbVisualStyle
  2
3dWireframe
 70
     5
177
     2
291
     0
 71
     0
176
     1
 72
     2
176
     1
 73
     0
176
     1
 90
        0
176
     1
 40
-0.6
176
     1
 41
-30.0
176
     1
 62
     5
 63
     7
421
 16777215
176
     1
 74
     1
176
     1
 91
        4
176
     1
 64
     7
176
     1
 65
   257
176
     1
 75
     1
176
     1
175
     1
176
     1
 42
1.0
176
     1
 92
        0
176
     1
 66
   257
176
     1
 43
1.0
176
     1
 76
     1
176
     1
 77
     6
176
     1
 78
     2
176
     1
 67
     7
176
     1
 79
     5
176
     1
170
     0
176
     1
171
     0
176
     1
290
     0
176
     1
 93
        1
176
     1
 44
0.0
176
     1
173
     0
176
     1
  0
VISUALSTYLE
  5
32
102
{ACAD_REACTORS
330
2A
102
}
330
2A
100
AcDbVisualStyle
  2
Basic
 70
     7
177
     2
291
     1
 71
     1
176
     1
 72
     0
176
     1
 73
     1
176
     1
 90
        0
176
     1
 40
-0.6
176
     1
 41
-30.0
176
     1
 62
     5
 63
     7
421
 16777215
176
     1
 74
     0
176
     1
 91
        4
176
     1
 64
     7
176
     1
 65
   257
176
     1
 75
     1
176
     1
175
     1
176
     1
 42
1.0
176
     1
 92
        8
176
     1
 66
     7
176
     1
 43
1.0
176
     1
 76
     1
176
     1
 77
     6
176
     1
 78
     2
176
     1
 67
     7
176
     1
 79
     5
176
     1
170
     0
176
     1
171
     0
176
     1
290
     0
176
     1
 93
        1
176
     1
 44
0.0
176
     1
173
     0
176
     1
  0
VISUALSTYLE
  5
36
102
{ACAD_REACTORS
330
2A
102
}
330
2A
100
AcDbVisualStyle
  2
Brighten
 70
    12
177
     2
291
     1
 71
     2
176
     1
 72
     2
176
     1
 73
     0
176
     1
 90
        0
176
     1
 40
-0.6
176
     1
 41
-30.0
176
     1
 62
     5
 63
     7
421
 16777215
176
     1
 74
     1
176
     1
 91
        4
176
     1
 64
     7
176
     1
 65
   257
176
     1
 75
     1
176
     1
175
     1
176
     1
 42
1.0
176
     1
 92
        8
176
     1
 66
     7
176
     1
 43
1.0
176
     1
 76
     1
176
     1
 77
     6
176
     1
 78
     2
176
     1
 67
     7
176
     1
 79
     5
176
     1
170
     0
176
     1
171
     0
176
     1
290
     0
176
     1
 93
        1
176
     1
 44
50.0
176
     1
173
     0
176
     1
  0
VISUALSTYLE
  5
3A
102
{ACAD_REACTORS
330
2A
102
}
330
2A
100
AcDbVisualStyle
  2
ColorChange
 70
    16
177
     2
291
     1
 71
     2
176
     1
 72
     2
176
     1
 73
     3
176
     1
 90
        0
176
     1
 40
-0.6
176
     1
 41
-30.0
176
     1
 62
     5
 63
     8
421
  8421504
176
     1
 74
     1
176
     1
 91
        4
176
     1
 64
     7
176
     1
 65
   257
176
     1
 75
     1
176
     1
175
     1
176
     1
 42
1.0
176
     1
 92
        8
176
     1
 66
     8
424
  8421504
176
     1
 43
1.0
176
     1
 76
     1
176
     1
 77
     6
176
     1
 78
     2
176
     1
 67
     7
176
     1
 79
     5
176
     1
170
     0
176
     1
171
     0
176
     1
290
     0
176
     1
 93
        1
176
     1
 44
0.0
176
     1
173
     0
176
     1
  0
VISUALSTYLE
  5
34
102
{ACAD_REACTORS
330
2A
102
}
330
2A
100
AcDbVisualStyle
  2
Conceptual
 70
     9
177
     2
291
     0
 71
     3
176
     1
 72
     2
176
     1
 73
     0
176
     1
 90
        0
176
     1
 40
-0.6
176
     1
 41
-30.0
176
     1
 62
     5
 63
     7
421
 16777215
176
     1
 74
     2
176
     1
 91
        2
176
     1
 64
     7
176
     1
 65
   257
176
     1
 75
     1
176
     1
175
     1
176
     1
 42
40.0
176
     1
 92
        8
176
     1
 66
     7
176
     1
 43
1.0
176
     1
 76
     1
176
     1
 77
     6
176
     1
 78
     2
176
     1
 67
     7
176
     1
 79
     3
176
     1
170
     0
176
     1
171
     0
176
     1
290
     0
176
     1
 93
        1
176
     1
 44
0.0
176
     1
173
     0
176
     1
  0
VISUALSTYLE
  5
35
102
{ACAD_REACTORS
330
2A
102
}
330
2A
100
AcDbVisualStyle
  2
Dim
 70
    11
177
     2
291
     1
 71
     2
176
     1
 72
     2
176
     1
 73
     0
176
     1
 90
        0
176
     1
 40
-0.6
176
     1
 41
-30.0
176
     1
 62
     5
 63
     7
421
 16777215
176
     1
 74
     1
176
     1
 91
        4
176
     1
 64
     7
176
     1
 65
   257
176
     1
 75
     1
176
     1
175
     1
176
     1
 42
1.0
176
     1
 92
        8
176
     1
 66
     7
176
     1
 43
1.0
176
     1
 76
     1
176
     1
 77
     6
176
     1
 78
     2
176
     1
 67
     7
176
     1
 79
     5
176
     1
170
     0
176
     1
171
     0
176
     1
290
     0
176
     1
 93
        1
176
     1
 44
-50.0
176
     1
173
     0
176
     1
  0
VISUALSTYLE
  5
39
102
{ACAD_REACTORS
330
2A
102
}
330
2A
100
AcDbVisualStyle
  2
Facepattern
 70
    15
177
     2
291
     1
 71
     2
176
     1
 72
     2
176
     1
 73
     0
176
     1
 90
        0
176
     1
 40
-0.6
176
     1
 41
-30.0
176
     1
 62
     5
 63
     7
421
 16777215
176
     1
 74
     1
176
     1
 91
        4
176
     1
 64
     7
176
     1
 65
   257
176
     1
 75
     1
176
     1
175
     1
176
     1
 42
1.0
176
     1
 92
        8
176
     1
 66
     7
176
     1
 43
1.0
176
     1
 76
     1
176
     1
 77
     6
176
     1
 78
     2
176
     1
 67
     7
176
     1
 79
     5
176
     1
170
     0
176
     1
171
     0
176
     1
290
     0
176
     1
 93
        1
176
     1
 44
0.0
176
     1
173
     0
176
     1
  0
VISUALSTYLE
  5
2B
102
{ACAD_REACTORS
330
2A
102
}
330
2A
100
AcDbVisualStyle
  2
Flat
 70
     0
177
     2
291
     1
 71
     2
176
     1
 72
     1
176
     1
 73
     1
176
     1
 90
        2
176
     1
 40
-0.6
176
     1
 41
30.0
176
     1
 62
     5
 63
     7
421
 16777215
176
     1
 74
     0
176
     1
 91
        4
176
     1
 64
     7
176
     1
 65
   257
176
     1
 75
     1
176
     1
175
     1
176
     1
 42
1.0
176
     1
 92
        8
176
     1
 66
     7
176
     1
 43
1.0
176
     1
 76
     1
176
     1
 77
     6
176
     1
 78
     2
176
     1
 67
     7
176
     1
 79
     5
176
     1
170
     0
176
     1
171
     0
176
     1
290
     0
176
     1
 93
       13
176
     1
 44
0.0
176
     1
173
     0
176
     1
  0
VISUALSTYLE
  5
2C
102
{ACAD_REACTORS
330
2A
102
}
330
2A
100
AcDbVisualStyle
  2
FlatWithEdges
 70
     1
177
     2
291
     1
 71
     2
176
     1
 72
     1
176
     1
 73
     1
176
     1
 90
        2
176
     1
 40
-0.6
176
     1
 41
30.0
176
     1
 62
     5
 63
     7
421
 16777215
176
     1
 74
     1
176
     1
 91
        4
176
     1
 64
     7
176
     1
 65
   257
176
     1
 75
     1
176
     1
175
     1
176
     1
 42
1.0
176
     1
 92
        0
176
     1
 66
   257
176
     1
 43
1.0
176
     1
 76
     1
176
     1
 77
     6
176
     1
 78
     2
176
     1
 67
     7
176
     1
 79
     5
176
     1
170
     0
176
     1
171
     0
176
     1
290
     0
176
     1
 93
       13
176
     1
 44
0.0
176
     1
173
     0
176
     1
  0
VISUALSTYLE
  5
2D
102
{ACAD_REACTORS
330
2A
102
}
330
2A
100
AcDbVisualStyle
  2
Gouraud
 70
     2
177
     2
291
     1
 71
     2
176
     1
 72
     2
176
     1
 73
     1
176
     1
 90
        2
176
     1
 40
-0.6
176
     1
 41
30.0
176
     1
 62
     5
 63
     7
421
 16777215
176
     1
 74
     0
176
     1
 91
        4
176
     1
 64
     7
176
     1
 65
   257
176
     1
 75
     1
176
     1
175
     1
176
     1
 42
1.0
176
     1
 92
        0
176
     1
 66
     7
176
     1
 43
1.0
176
     1
 76
     1
176
     1
 77
     6
176
     1
 78
     2
176
     1
 67
     7
176
     1
 79
     5
176
     1
170
     0
176
     1
171
     0
176
     1
290
     0
176
     1
 93
       13
176
     1
 44
0.0
176
     1
173
     0
176
     1
  0
VISUALSTYLE
  5
2E
102
{ACAD_REACTORS
330
2A
102
}
330
2A
100
AcDbVisualStyle
  2
GouraudWithEdges
 70
     3
177
     2
291
     1
 71
     2
176
     1
 72
     2
176
     1
 73
     1
176
     1
 90
        2
176
     1
 40
-0.6
176
     1
 41
30.0
176
     1
 62
     5
 63
     7
421
 16777215
176
     1
 74
     1
176
     1
 91
        4
176
     1
 64
     7
176
     1
 65
   257
176
     1
 75
     1
176
     1
175
     1
176
     1
 42
1.0
176
     1
 92
        0
176
     1
 66
   257
176
     1
 43
1.0
176
     1
 76
     1
176
     1
 77
     6
176
     1
 78
     2
176
     1
 67
     7
176
     1
 79
     5
176
     1
170
     0
176
     1
171
     0
176
     1
290
     0
176
     1
 93
       13
176
     1
 44
0.0
176
     1
173
     0
176
     1
  0
VISUALSTYLE
  5
38
102
{ACAD_REACTORS
330
2A
102
}
330
2A
100
AcDbVisualStyle
  2
Linepattern
 70
    14
177
     2
291
     1
 71
     2
176
     1
 72
     2
176
     1
 73
     0
176
     1
 90
        0
176
     1
 40
-0.6
176
     1
 41
-30.0
176
     1
 62
     5
 63
     7
421
 16777215
176
     1
 74
     1
176
     1
 91
        4
176
     1
 64
     7
176
     1
 65
   257
176
     1
 75
     7
176
     1
175
     7
176
     1
 42
1.0
176
     1
 92
        8
176
     1
 66
     7
176
     1
 43
1.0
176
     1
 76
     1
176
     1
 77
     6
176
     1
 78
     2
176
     1
 67
     7
176
     1
 79
     5
176
     1
170
     0
176
     1
171
     0
176
     1
290
     0
176
     1
 93
        1
176
     1
 44
0.0
176
     1
173
     0
176
     1
  0
VISUALSTYLE
  5
33
102
{ACAD_REACTORS
330
2A
102
}
330
2A
100
AcDbVisualStyle
  2
Realistic
 70
     8
177
     2
291
     0
 71
     2
176
     1
 72
     2
176
     1
 73
     0
176
     1
 90
        0
176
     1
 40
-0.6
176
     1
 41
-30.0
176
     1
 62
     5
 63
     7
421
 16777215
176
     1
 74
     1
176
     1
 91
        0
176
     1
 64
     7
176
     1
 65
   257
176
     1
 75
     1
176
     1
175
     1
176
     1
 42
1.0
176
     1
 92
        8
176
     1
 66
     8
424
  7895160
176
     1
 43
1.0
176
     1
 76
     1
176
     1
 77
     6
176
     1
 78
     2
176
     1
 67
     7
176
     1
 79
     5
176
     1
170
     0
176
     1
171
     0
176
     1
290
     0
176
     1
 93
       13
176
     1
 44
0.0
176
     1
173
     0
176
     1
  0
VISUALSTYLE
  5
37
102
{ACAD_REACTORS
330
2A
102
}
330
2A
100
AcDbVisualStyle
  2
Thicken
 70
    13
177
     2
291
     1
 71
     2
176
     1
 72
     2
176
     1
 73
     0
176
     1
 90
        0
176
     1
 40
-0.6
176
     1
 41
-30.0
176
     1
 62
     5
 63
     7
421
 16777215
176
     1
 74
     1
176
     1
 91
        4
176
     1
 64
     7
176
     1
 65
   257
176
     1
 75
     1
176
     1
175
     1
176
     1
 42
1.0
176
     1
 92
       12
176
     1
 66
     7
176
     1
 43
1.0
176
     1
 76
     1
176
     1
 77
     6
176
     1
 78
     2
176
     1
 67
     7
176
     1
 79
     5
176
     1
170
     0
176
     1
171
     0
176
     1
290
     0
176
     1
 93
        1
176
     1
 44
0.0
176
     1
173
     0
176
     1
  0
ENDSEC
  0
EOF
