  0
SECTION
  2
HEADER
  9
$ACADVER
  1
AC1024
  9
$ACADMAINTVER
 70
     6
  9
$DWGCODEPAGE
  3
UNDEFINED
  9
$INSBASE
 10
0.0
 20
0.0
 30
0.0
  9
$EXTMIN
 10
1.000000000000000E+20
 20
1.000000000000000E+20
 30
1.000000000000000E+20
  9
$EXTMAX
 10
-1.000000000000000E+20
 20
-1.000000000000000E+20
 30
-1.000000000000000E+20
  9
$LIMMIN
 10
0.0
 20
0.0
  9
$LIMMAX
 10
12.0
 20
9.0
  9
$ORTHOMODE
 70
     0
  9
$REGENMODE
 70
     1
  9
$FILLMODE
 70
     1
  9
$QTEXTMODE
 70
     0
  9
$MIRRTEXT
 70
     1
  9
$LTSCALE
 40
1.0
  9
$ATTMODE
 70
     1
  9
$TEXTSIZE
 40
0.2
  9
$TRACEWID
 40
0.05
  9
$TEXTSTYLE
  7
Standard
  9
$CLAYER
  8
0
  9
$CELTYPE
  6
ByLayer
  9
$CECOLOR
 62
   256
  9
$CELTSCALE
 40
1.0
  9
$DISPSILH
 70
     0
  9
$DIMSCALE
 40
1.0
  9
$DIMASZ
 40
0.18
  9
$DIMEXO
 40
0.0625
  9
$DIMDLI
 40
0.38
  9
$DIMRND
 40
0.0
  9
$DIMDLE
 40
0.0
  9
$DIMEXE
 40
0.18
  9
$DIMTP
 40
0.0
  9
$DIMTM
 40
0.0
  9
$DIMTXT
 40
0.18
  9
$DIMCEN
 40
0.09
  9
$DIMTSZ
 40
0.0
  9
$DIMTOL
 70
     0
  9
$DIMLIM
 70
     0
  9
$DIMTIH
 70
     1
  9
$DIMTOH
 70
     1
  9
$DIMSE1
 70
     0
  9
$DIMSE2
 70
     0
  9
$DIMTAD
 70
     0
  9
$DIMZIN
 70
     0
  9
$DIMBLK
  1

  9
$DIMASO
 70
     1
  9
$DIMSHO
 70
     1
  9
$DIMPOST
  1

  9
$DIMAPOST
  1

  9
$DIMALT
 70
     0
  9
$DIMALTD
 70
     2
  9
$DIMALTF
 40
25.4
  9
$DIMLFAC
 40
1.0
  9
$DIMTOFL
 70
     0
  9
$DIMTVP
 40
0.0
  9
$DIMTIX
 70
     0
  9
$DIMSOXD
 70
     0
  9
$DIMSAH
 70
     0
  9
$DIMBLK1
  1

  9
$DIMBLK2
  1

  9
$DIMSTYLE
  2
Standard
  9
$DIMCLRD
 70
     0
  9
$DIMCLRE
 70
     0
  9
$DIMCLRT
 70
     0
  9
$DIMTFAC
 40
1.0
  9
$DIMGAP
 40
0.09
  9
$DIMJUST
 70
     0
  9
$DIMSD1
 70
     0
  9
$DIMSD2
 70
     0
  9
$DIMTOLJ
 70
     1
  9
$DIMTZIN
 70
     0
  9
$DIMALTZ
 70
     0
  9
$DIMALTTZ
 70
     0
  9
$DIMUPT
 70
     0
  9
$DIMDEC
 70
     4
  9
$DIMTDEC
 70
     4
  9
$DIMALTU
 70
     2
  9
$DIMALTTD
 70
     2
  9
$DIMTXSTY
  7
Standard
  9
$DIMAUNIT
 70
     0
  9
$DIMADEC
 70
     0
  9
$DIMALTRND
 40
0.0
  9
$DIMAZIN
 70
     0
  9
$DIMDSEP
 70
    46
  9
$DIMATFIT
 70
     3
  9
$DIMFRAC
 70
     0
  9
$DIMLDRBLK
  1

  9
$DIMLUNIT
 70
     2
  9
$DIMLWD
 70
    -2
  9
$DIMLWE
 70
    -2
  9
$DIMTMOVE
 70
     0
  9
$DIMFXL
 40
1.0
  9
$DIMFXLON
 70
     0
  9
$DIMJOGANG
 40
0.7853981633974483
  9
$DIMTFILL
 70
     0
  9
$DIMTFILLCLR
 70
     0
  9
$DIMARCSYM
 70
     0
  9
$DIMLTYPE
  6

  9
$DIMLTEX1
  6

  9
$DIMLTEX2
  6

  9
$DIMTXTDIRECTION
 70
     0
  9
$LUNITS
 70
     2
  9
$LUPREC
 70
     4
  9
$SKETCHINC
 40
0.1
  9
$FILLETRAD
 40
0.5
  9
$AUNITS
 70
     0
  9
$AUPREC
 70
     0
  9
$MENU
  1
.
  9
$ELEVATION
 40
0.0
  9
$PELEVATION
 40
0.0
  9
$THICKNESS
 40
0.0
  9
$LIMCHECK
 70
     0
  9
$CHAMFERA
 40
0.5
  9
$CHAMFERB
 40
0.5
  9
$CHAMFERC
 40
1.0
  9
$CHAMFERD
 40
0.0
  9
$SKPOLY
 70
     0
  9
$TDCREATE
 40
2457917.599861099
  9
$TDUCREATE
 40
2457917.224861111
  9
$TDUPDATE
 40
2457917.599861099
  9
$TDUUPDATE
 40
2457917.224861111
  9
$TDINDWG
 40
0.0000000116
  9
$TDUSRTIMER
 40
0.0000000116
  9
$USRTIMER
 70
     1
  9
$ANGBASE
 50
0.0
  9
$ANGDIR
 70
     0
  9
$PDMODE
 70
     0
  9
$PDSIZE
 40
0.0
  9
$PLINEWID
 40
0.0
  9
$SPLFRAME
 70
     0
  9
$SPLINETYPE
 70
     6
  9
$SPLINESEGS
 70
     8
  9
$HANDSEED
  5
157
  9
$SURFTAB1
 70
     6
  9
$SURFTAB2
 70
     6
  9
$SURFTYPE
 70
     6
  9
$SURFU
 70
     6
  9
$SURFV
 70
     6
  9
$UCSBASE
  2

  9
$UCSNAME
  2

  9
$UCSORG
 10
0.0
 20
0.0
 30
0.0
  9
$UCSXDIR
 10
1.0
 20
0.0
 30
0.0
  9
$UCSYDIR
 10
0.0
 20
1.0
 30
0.0
  9
$UCSORTHOREF
  2

  9
$UCSORTHOVIEW
 70
     0
  9
$UCSORGTOP
 10
0.0
 20
0.0
 30
0.0
  9
$UCSORGBOTTOM
 10
0.0
 20
0.0
 30
0.0
  9
$UCSORGLEFT
 10
0.0
 20
0.0
 30
0.0
  9
$UCSORGRIGHT
 10
0.0
 20
0.0
 30
0.0
  9
$UCSORGFRONT
 10
0.0
 20
0.0
 30
0.0
  9
$UCSORGBACK
 10
0.0
 20
0.0
 30
0.0
  9
$PUCSBASE
  2

  9
$PUCSNAME
  2

  9
$PUCSORG
 10
0.0
 20
0.0
 30
0.0
  9
$PUCSXDIR
 10
1.0
 20
0.0
 30
0.0
  9
$PUCSYDIR
 10
0.0
 20
1.0
 30
0.0
  9
$PUCSORTHOREF
  2

  9
$PUCSORTHOVIEW
 70
     0
  9
$PUCSORGTOP
 10
0.0
 20
0.0
 30
0.0
  9
$PUCSORGBOTTOM
 10
0.0
 20
0.0
 30
0.0
  9
$PUCSORGLEFT
 10
0.0
 20
0.0
 30
0.0
  9
$PUCSORGRIGHT
 10
0.0
 20
0.0
 30
0.0
  9
$PUCSORGFRONT
 10
0.0
 20
0.0
 30
0.0
  9
$PUCSORGBACK
 10
0.0
 20
0.0
 30
0.0
  9
$USERI1
 70
     0
  9
$USERI2
 70
     0
  9
$USERI3
 70
     0
  9
$USERI4
 70
     0
  9
$USERI5
 70
     0
  9
$USERR1
 40
0.0
  9
$USERR2
 40
0.0
  9
$USERR3
 40
0.0
  9
$USERR4
 40
0.0
  9
$USERR5
 40
0.0
  9
$WORLDVIEW
 70
     1
  9
$SHADEDGE
 70
     3
  9
$SHADEDIF
 70
    70
  9
$TILEMODE
 70
     1
  9
$MAXACTVP
 70
    64
  9
$PINSBASE
 10
0.0
 20
0.0
 30
0.0
  9
$PLIMCHECK
 70
     0
  9
$PEXTMIN
 10
1.000000000000000E+20
 20
1.000000000000000E+20
 30
1.000000000000000E+20
  9
$PEXTMAX
 10
-1.000000000000000E+20
 20
-1.000000000000000E+20
 30
-1.000000000000000E+20
  9
$PLIMMIN
 10
0.0
 20
0.0
  9
$PLIMMAX
 10
12.0
 20
9.0
  9
$UNITMODE
 70
     0
  9
$VISRETAIN
 70
     1
  9
$PLINEGEN
 70
     0
  9
$PSLTSCALE
 70
     1
  9
$TREEDEPTH
 70
  3020
  9
$CMLSTYLE
  2
Standard
  9
$CMLJUST
 70
     0
  9
$CMLSCALE
 40
1.0
  9
$PROXYGRAPHICS
 70
     1
  9
$MEASUREMENT
 70
     0
  9
$CELWEIGHT
370
    -1
  9
$ENDCAPS
280
     0
  9
$JOINSTYLE
280
     0
  9
$LWDISPLAY
290
     1
  9
$INSUNITS
 70
     1
  9
$HYPERLINKBASE
  1

  9
$STYLESHEET
  1

  9
$XEDIT
290
     1
  9
$CEPSNTYPE
380
     0
  9
$PSTYLEMODE
290
     1
  9
$FINGERPRINTGUID
  2
{F5AC0D11-26F2-2381-08D2-4FA1D52BB437}
  9
$VERSIONGUID
  2
{FAEB1C32-E019-11D5-929B-00C0DF256EC4}
  9
$EXTNAMES
290
     1
  9
$PSVPSCALE
 40
0.0
  9
$OLESTARTUP
290
     0
  9
$SORTENTS
280
   127
  9
$INDEXCTL
280
     0
  9
$HIDETEXT
280
     1
  9
$XCLIPFRAME
280
     2
  9
$HALOGAP
280
     0
  9
$OBSCOLOR
 70
   257
  9
$OBSLTYPE
280
     0
  9
$INTERSECTIONDISPLAY
280
     0
  9
$INTERSECTIONCOLOR
 70
   257
  9
$DIMASSOC
280
     2
  9
$PROJECTNAME
  1

  9
$CAMERADISPLAY
290
     0
  9
$LENSLENGTH
 40
50.0
  9
$CAMERAHEIGHT
 40
0.0
  9
$STEPSPERSEC
 40
2.0
  9
$STEPSIZE
 40
6.0
  9
$3DDWFPREC
 40
2.0
  9
$PSOLWIDTH
 40
0.25
  9
$PSOLHEIGHT
 40
4.0
  9
$LOFTANG1
 40
1.570796326794897
  9
$LOFTANG2
 40
1.570796326794897
  9
$LOFTMAG1
 40
0.0
  9
$LOFTMAG2
 40
0.0
  9
$LOFTPARAM
 70
     7
  9
$LOFTNORMALS
280
     1
  9
$LATITUDE
 40
37.795
  9
$LONGITUDE
 40
-122.394
  9
$NORTHDIRECTION
 40
0.0
  9
$TIMEZONE
 70
 -8000
  9
$LIGHTGLYPHDISPLAY
280
     1
  9
$TILEMODELIGHTSYNCH
280
     1
  9
$CMATERIAL
347
3C
  9
$SOLIDHIST
280
     1
  9
$SHOWHIST
280
     1
  9
$DWFFRAME
280
     2
  9
$DGNFRAME
280
     2
  9
$REALWORLDSCALE
290
     1
  9
$INTERFERECOLOR
 62
   256
  9
$CSHADOW
280
     0
  9
$SHADOWPLANELOCATION
 40
0.0
  0
ENDSEC
  0
SECTION
  2
CLASSES
  0
CLASS
  1
ACDBDICTIONARYWDFLT
  2
AcDbDictionaryWithDefault
  3
ObjectDBX Classes
 90
        0
 91
        4
280
     0
281
     0
  0
CLASS
  1
VISUALSTYLE
  2
AcDbVisualStyle
  3
ObjectDBX Classes
 90
     4095
 91
        4
280
     0
281
     0
  0
CLASS
  1
MATERIAL
  2
AcDbMaterial
  3
ObjectDBX Classes
 90
     1153
 91
        4
280
     0
281
     0
  0
CLASS
  1
SUN
  2
AcDbSun
  3
SCENEOE
 90
     1024
 91
        4
280
     0
281
     0
  0
ENDSEC
  0
SECTION
  2
TABLES
  0
TABLE
  2
VPORT
  5
8
330
0
100
AcDbSymbolTable
 70
     1
  0
VPORT
  5
29
330
8
100
AcDbSymbolTableRecord
100
AcDbViewportTableRecord
  2
*Active
 70
     0
 10
0.0
 20
0.0
 11
1.0
 21
1.0
 12
0.0
 22
0.0
 13
0.0
 23
0.0
 14
0.5
 24
0.5
 15
0.5
 25
0.5
 16
0.0
 26
0.0
 36
1.0
 17
91.00082462281999
 27
-128.4993055234307
 37
0.0
 40
256.9986110468615
 41
0.7081814508812795
 42
50.0
 43
0.0
 44
0.0
 50
0.0
 51
0.0
 71
     0
 72
   100
 73
     1
 74
     3
 75
     0
 76
     0
 77
     0
 78
     0
281
     0
 65
     1
110
0.0
120
0.0
130
0.0
111
1.0
121
0.0
131
0.0
112
0.0
122
1.0
132
0.0
 79
     0
146
0.0
 60
     3
 61
     5
292
     1
282
     1
141
0.0
142
0.0
 63
   250
361
3F
  0
ENDTAB
  0
TABLE
  2
LTYPE
  5
5
330
0
100
AcDbSymbolTable
 70
     2
  0
LTYPE
  5
14
330
5
100
AcDbSymbolTableRecord
100
AcDbLinetypeTableRecord
  2
ByBlock
 70
     0
  3

 72
    65
 73
     0
 40
0.0
  0
LTYPE
  5
15
330
5
100
AcDbSymbolTableRecord
100
AcDbLinetypeTableRecord
  2
ByLayer
 70
     0
  3

 72
    65
 73
     0
 40
0.0
  0
LTYPE
  5
16
330
5
100
AcDbSymbolTableRecord
100
AcDbLinetypeTableRecord
  2
Continuous
 70
     0
  3
Solid line
 72
    65
 73
     0
 40
0.0
  0
LTYPE
  5
110
330
5
100
AcDbSymbolTableRecord
100
AcDbLinetypeTableRecord
  2
AI-Linetype-1
 70
     0
  3
Adobe Illustrator Linetype No. 1
 72
    65
 73
     2
 40
1.411111110758333
 49
0.7055555553791667
 74
     0
 49
-0.7055555553791667
 74
     0
  0
ENDTAB
  0
TABLE
  2
LAYER
  5
2
330
0
100
AcDbSymbolTable
 70
     2
  0
LAYER
  5
10
330
2
100
AcDbSymbolTableRecord
100
AcDbLayerTableRecord
  2
0
 70
     0
 62
     7
  6
Continuous
370
    -3
390
F
347
3E
  0
LAYER
  5
40
330
2
100
AcDbSymbolTableRecord
100
AcDbLayerTableRecord
  2
_U+30EC_U+30A4_U+30E4_U+30FC 1
 70
     0
 62
     7
  6
Continuous
370
    -3
390
F
347
3E
  0
ENDTAB
  0
TABLE
  2
STYLE
  5
3
330
0
100
AcDbSymbolTable
 70
     1
  0
STYLE
  5
11
330
3
100
AcDbSymbolTableRecord
100
AcDbTextStyleTableRecord
  2
Standard
 70
     0
 40
0.0
 41
1.0
 50
0.0
 71
     0
 42
0.2
  3
txt
  4

  0
ENDTAB
  0
TABLE
  2
VIEW
  5
6
330
0
100
AcDbSymbolTable
 70
     0
  0
ENDTAB
  0
TABLE
  2
UCS
  5
7
330
0
100
AcDbSymbolTable
 70
     0
  0
ENDTAB
  0
TABLE
  2
APPID
  5
9
330
0
100
AcDbSymbolTable
 70
     1
  0
APPID
  5
12
330
9
100
AcDbSymbolTableRecord
100
AcDbRegAppTableRecord
  2
ACAD
 70
     0
  0
ENDTAB
  0
TABLE
  2
DIMSTYLE
  5
A
330
0
100
AcDbSymbolTable
 70
     1
100
AcDbDimStyleTable
  0
DIMSTYLE
105
27
330
A
100
AcDbSymbolTableRecord
100
AcDbDimStyleTableRecord
  2
Standard
 70
     0
178
     0
340
11
  0
ENDTAB
  0
TABLE
  2
BLOCK_RECORD
  5
1
330
0
100
AcDbSymbolTable
 70
     8
  0
BLOCK_RECORD
  5
1F
330
1
100
AcDbSymbolTableRecord
100
AcDbBlockTableRecord
  2
*Model_Space
340
22
 70
     0
280
     1
281
     0
  0
BLOCK_RECORD
  5
1B
330
1
100
AcDbSymbolTableRecord
100
AcDbBlockTableRecord
  2
*Paper_Space
340
1E
 70
     0
280
     1
281
     0
  0
BLOCK_RECORD
  5
23
330
1
100
AcDbSymbolTableRecord
100
AcDbBlockTableRecord
  2
*Paper_Space0
340
26
 70
     0
280
     1
281
     0
  0
BLOCK_RECORD
  5
83
330
1
100
AcDbSymbolTableRecord
100
AcDbBlockTableRecord
  2
block 2
340
0
102
{BLKREFS
331
84
102
}
 70
     0
280
     1
281
     0
  0
BLOCK_RECORD
  5
98
330
1
100
AcDbSymbolTableRecord
100
AcDbBlockTableRecord
  2
block 3
340
0
102
{BLKREFS
331
99
102
}
 70
     0
280
     1
281
     0
  0
BLOCK_RECORD
  5
AA
330
1
100
AcDbSymbolTableRecord
100
AcDbBlockTableRecord
  2
block 4
340
0
102
{BLKREFS
331
AB
102
}
 70
     0
280
     1
281
     0
  0
BLOCK_RECORD
  5
BC
330
1
100
AcDbSymbolTableRecord
100
AcDbBlockTableRecord
  2
block 5
340
0
102
{BLKREFS
331
BD
102
}
 70
     0
280
     1
281
     0
  0
BLOCK_RECORD
  5
DA
330
1
100
AcDbSymbolTableRecord
100
AcDbBlockTableRecord
  2
block 6
340
0
102
{BLKREFS
331
DB
102
}
 70
     0
280
     1
281
     0
  0
BLOCK_RECORD
  5
F8
330
1
100
AcDbSymbolTableRecord
100
AcDbBlockTableRecord
  2
block 7
340
0
102
{BLKREFS
331
F9
102
}
 70
     0
280
     1
281
     0
  0
BLOCK_RECORD
  5
117
330
1
100
AcDbSymbolTableRecord
100
AcDbBlockTableRecord
  2
block 8
340
0
102
{BLKREFS
331
118
102
}
 70
     0
280
     1
281
     0
  0
ENDTAB
  0
ENDSEC
  0
SECTION
  2
BLOCKS
  0
BLOCK
  5
20
330
1F
100
AcDbEntity
  8
0
100
AcDbBlockBegin
  2
*Model_Space
 70
     0
 10
0.0
 20
0.0
 30
0.0
  3
*Model_Space
  1

  0
ENDBLK
  5
21
330
1F
100
AcDbEntity
  8
0
100
AcDbBlockEnd
  0
BLOCK
  5
1C
330
1B
100
AcDbEntity
 67
     1
  8
0
100
AcDbBlockBegin
  2
*Paper_Space
 70
     0
 10
0.0
 20
0.0
 30
0.0
  3
*Paper_Space
  1

  0
ENDBLK
  5
1D
330
1B
100
AcDbEntity
 67
     1
  8
0
100
AcDbBlockEnd
  0
BLOCK
  5
24
330
23
100
AcDbEntity
  8
0
100
AcDbBlockBegin
  2
*Paper_Space0
 70
     0
 10
0.0
 20
0.0
 30
0.0
  3
*Paper_Space0
  1

  0
ENDBLK
  5
25
330
23
100
AcDbEntity
  8
0
100
AcDbBlockEnd
  0
BLOCK
  5
85
330
83
100
AcDbEntity
  8
0
100
AcDbBlockBegin
  2
block 2
 70
     0
 10
0.0
 20
0.0
 30
0.0
  3
block 2
  1

  0
SPLINE
  5
87
330
83
100
AcDbEntity
  8
_U+30EC_U+30A4_U+30E4_U+30FC 1
370
     0
100
AcDbSpline
210
0.0
220
0.0
230
1.0
 70
    11
 71
     3
 72
    26
 73
    22
 74
     0
 42
0.0000000001
 43
0.0000000001
 12
1.0
 22
0.0
 32
0.0
 13
1.0
 23
0.0
 33
0.0
 40
0.0
 40
0.0
 40
0.0
 40
0.0
 40
1.0
 40
1.0
 40
1.0
 40
2.0
 40
2.0
 40
2.0
 40
3.0
 40
3.0
 40
3.0
 40
4.0
 40
4.0
 40
4.0
 40
5.0
 40
5.0
 40
5.0
 40
6.0
 40
6.0
 40
6.0
 40
7.0
 40
7.0
 40
7.0
 40
7.0
 10
61.21762422514698
 20
-147.574110206162
 30
0.0
 10
61.21762422514698
 20
-147.574110206162
 30
0.0
 10
61.21762422514698
 20
-146.4699571031394
 30
0.0
 10
61.21762422514698
 20
-146.4699571031394
 30
0.0
 10
61.21762422514698
 20
-146.4699571031394
 30
0.0
 10
60.8648464474574
 20
-146.4699571031394
 30
0.0
 10
60.8648464474574
 20
-146.4699571031394
 30
0.0
 10
60.8648464474574
 20
-146.4699571031394
 30
0.0
 10
60.8648464474574
 20
-146.3218179972737
 30
0.0
 10
60.8648464474574
 20
-146.3218179972737
 30
0.0
 10
61.2198635372124
 20
-146.3070040866872
 30
0.0
 10
61.26964516697426
 20
-146.1440510702348
 30
0.0
 10
61.30116779066429
 20
-146.0296739001245
 30
0.0
 10
61.30116779066429
 20
-146.0296739001245
 30
0.0
 10
61.45723061614611
 20
-146.0296739001245
 30
0.0
 10
61.45723061614611
 20
-146.0296739001245
 30
0.0
 10
61.45723061614611
 20
-146.0296739001245
 30
0.0
 10
61.45723061614611
 20
-147.574110206162
 30
0.0
 10
61.45723061614611
 20
-147.574110206162
 30
0.0
 10
61.45723061614611
 20
-147.574110206162
 30
0.0
 10
61.21762422514698
 20
-147.574110206162
 30
0.0
 10
61.21762422514698
 20
-147.574110206162
 30
0.0
  0
HATCH
  5
88
330
83
100
AcDbEntity
  8
_U+30EC_U+30A4_U+30E4_U+30FC 1
 62
     7
420
 16777215
100
AcDbHatch
 10
0.0
 20
0.0
 30
0.0
210
0.0
220
0.0
230
1.0
  2
SOLID
 70
     1
 71
     0
 91
        1
 92
        1
 93
        1
 72
     4
 94
        3
 73
     0
 74
     1
 95
       26
 96
       22
 40
0.0
 40
0.0
 40
0.0
 40
0.0
 40
1.0
 40
1.0
 40
1.0
 40
2.0
 40
2.0
 40
2.0
 40
3.0
 40
3.0
 40
3.0
 40
4.0
 40
4.0
 40
4.0
 40
5.0
 40
5.0
 40
5.0
 40
6.0
 40
6.0
 40
6.0
 40
7.0
 40
7.0
 40
7.0
 40
7.0
 10
61.21762422514698
 20
-147.574110206162
 10
61.21762422514698
 20
-147.574110206162
 10
61.21762422514698
 20
-146.4699571031394
 10
61.21762422514698
 20
-146.4699571031394
 10
61.21762422514698
 20
-146.4699571031394
 10
60.8648464474574
 20
-146.4699571031394
 10
60.8648464474574
 20
-146.4699571031394
 10
60.8648464474574
 20
-146.4699571031394
 10
60.8648464474574
 20
-146.3218179972737
 10
60.8648464474574
 20
-146.3218179972737
 10
61.2198635372124
 20
-146.3070040866872
 10
61.26964516697426
 20
-146.1440510702348
 10
61.30116779066429
 20
-146.0296739001245
 10
61.30116779066429
 20
-146.0296739001245
 10
61.45723061614611
 20
-146.0296739001245
 10
61.45723061614611
 20
-146.0296739001245
 10
61.45723061614611
 20
-146.0296739001245
 10
61.45723061614611
 20
-147.574110206162
 10
61.45723061614611
 20
-147.574110206162
 10
61.45723061614611
 20
-147.574110206162
 10
61.21762422514698
 20
-147.574110206162
 10
61.21762422514698
 20
-147.574110206162
 97
        0
 97
        0
 75
     2
 76
     1
 98
        0
  0
SPLINE
  5
89
330
83
100
AcDbEntity
  8
_U+30EC_U+30A4_U+30E4_U+30FC 1
370
     0
100
AcDbSpline
210
0.0
220
0.0
230
1.0
 70
    11
 71
     3
 72
    44
 73
    40
 74
     0
 42
0.0000000001
 43
0.0000000001
 12
1.0
 22
0.0
 32
0.0
 13
1.0
 23
0.0
 33
0.0
 40
0.0
 40
0.0
 40
0.0
 40
0.0
 40
1.0
 40
1.0
 40
1.0
 40
2.0
 40
2.0
 40
2.0
 40
3.0
 40
3.0
 40
3.0
 40
4.0
 40
4.0
 40
4.0
 40
5.0
 40
5.0
 40
5.0
 40
6.0
 40
6.0
 40
6.0
 40
7.0
 40
7.0
 40
7.0
 40
8.0
 40
8.0
 40
8.0
 40
9.0
 40
9.0
 40
9.0
 40
10.0
 40
10.0
 40
10.0
 40
11.0
 40
11.0
 40
11.0
 40
12.0
 40
12.0
 40
12.0
 40
13.0
 40
13.0
 40
13.0
 40
13.0
 10
63.07677000376206
 20
-147.574110206162
 30
0.0
 10
63.05196531626826
 20
-147.5296684744023
 30
0.0
 10
63.02922768606561
 20
-147.476958513478
 30
0.0
 10
63.0269883740002
 20
-147.2461371159663
 30
0.0
 10
63.02250974986938
 20
-147.0029133747076
 30
0.0
 10
62.95929224771504
 20
-146.932977936357
 30
0.0
 10
62.76929523170351
 20
-146.932977936357
 30
0.0
 10
62.76929523170351
 20
-146.932977936357
 30
0.0
 10
62.33297388849662
 20
-146.932977936357
 30
0.0
 10
62.33297388849662
 20
-146.932977936357
 30
0.0
 10
62.33297388849662
 20
-146.932977936357
 30
0.0
 10
62.33297388849662
 20
-147.574110206162
 30
0.0
 10
62.33297388849662
 20
-147.574110206162
 30
0.0
 10
62.33297388849662
 20
-147.574110206162
 30
0.0
 10
62.08199868239617
 20
-147.574110206162
 30
0.0
 10
62.08199868239617
 20
-147.574110206162
 30
0.0
 10
62.08199868239617
 20
-147.574110206162
 30
0.0
 10
62.08199868239617
 20
-146.0296739001245
 30
0.0
 10
62.08199868239617
 20
-146.0296739001245
 30
0.0
 10
62.08199868239617
 20
-146.0296739001245
 30
0.0
 10
62.80322942223322
 20
-146.0296739001245
 30
0.0
 10
62.80322942223322
 20
-146.0296739001245
 30
0.0
 10
63.13103025765474
 20
-146.0296739001245
 30
0.0
 10
63.30965845856495
 20
-146.20123965529
 30
0.0
 10
63.30965845856495
 20
-146.457210249844
 30
0.0
 10
63.30965845856495
 20
-146.5078531534772
 30
0.0
 10
63.3007012103033
 20
-146.5905354451232
 30
0.0
 10
63.25315889260686
 20
-146.6708061699295
 30
0.0
 10
63.18976913567825
 20
-146.7745035440356
 30
0.0
 10
63.11983369732769
 20
-146.7934515692044
 30
0.0
 10
63.05420462833367
 20
-146.8103325370821
 30
0.0
 10
63.20113795077958
 20
-146.8527072115507
 30
0.0
 10
63.27348495596983
 20
-146.9012830578928
 30
0.0
 10
63.27796358010065
 20
-147.2165092947931
 30
0.0
 10
63.28244220423147
 20
-147.4872937999338
 30
0.0
 10
63.32102727366627
 20
-147.518988678398
 30
0.0
 10
63.39337427885652
 20
-147.574110206162
 30
0.0
 10
63.39337427885652
 20
-147.574110206162
 30
0.0
 10
63.07677000376206
 20
-147.574110206162
 30
0.0
 10
63.07677000376206
 20
-147.574110206162
 30
0.0
  0
SPLINE
  5
8A
330
83
100
AcDbEntity
  8
_U+30EC_U+30A4_U+30E4_U+30FC 1
370
     0
100
AcDbSpline
210
0.0
220
0.0
230
1.0
 70
    11
 71
     3
 72
    20
 73
    16
 74
     0
 42
0.0000000001
 43
0.0000000001
 12
1.0
 22
0.0
 32
0.0
 13
1.0
 23
0.0
 33
0.0
 40
0.0
 40
0.0
 40
0.0
 40
0.0
 40
1.0
 40
1.0
 40
1.0
 40
2.0
 40
2.0
 40
2.0
 40
3.0
 40
3.0
 40
3.0
 40
4.0
 40
4.0
 40
4.0
 40
5.0
 40
5.0
 40
5.0
 40
5.0
 10
62.80770804636405
 20
-146.2412027629189
 30
0.0
 10
62.80770804636405
 20
-146.2412027629189
 30
0.0
 10
62.33297388849662
 20
-146.2412027629189
 30
0.0
 10
62.33297388849662
 20
-146.2412027629189
 30
0.0
 10
62.33297388849662
 20
-146.2412027629189
 30
0.0
 10
62.33297388849662
 20
-146.7214490735627
 30
0.0
 10
62.33297388849662
 20
-146.7214490735627
 30
0.0
 10
62.33297388849662
 20
-146.7214490735627
 30
0.0
 10
62.80546873429864
 20
-146.7214490735627
 30
0.0
 10
62.80546873429864
 20
-146.7214490735627
 30
0.0
 10
62.91174993001859
 20
-146.7214490735627
 30
0.0
 10
63.05644394039908
 20
-146.6453124633387
 30
0.0
 10
63.05644394039908
 20
-146.4740912177218
 30
0.0
 10
63.05644394039908
 20
-146.3958875502066
 30
0.0
 10
63.02027043780397
 20
-146.2412027629189
 30
0.0
 10
62.80770804636405
 20
-146.2412027629189
 30
0.0
  0
HATCH
  5
8B
330
83
100
AcDbEntity
  8
_U+30EC_U+30A4_U+30E4_U+30FC 1
 62
     7
420
 16777215
100
AcDbHatch
 10
0.0
 20
0.0
 30
0.0
210
0.0
220
0.0
230
1.0
  2
SOLID
 70
     1
 71
     0
 91
        2
 92
        1
 93
        1
 72
     4
 94
        3
 73
     0
 74
     1
 95
       44
 96
       40
 40
0.0
 40
0.0
 40
0.0
 40
0.0
 40
1.0
 40
1.0
 40
1.0
 40
2.0
 40
2.0
 40
2.0
 40
3.0
 40
3.0
 40
3.0
 40
4.0
 40
4.0
 40
4.0
 40
5.0
 40
5.0
 40
5.0
 40
6.0
 40
6.0
 40
6.0
 40
7.0
 40
7.0
 40
7.0
 40
8.0
 40
8.0
 40
8.0
 40
9.0
 40
9.0
 40
9.0
 40
10.0
 40
10.0
 40
10.0
 40
11.0
 40
11.0
 40
11.0
 40
12.0
 40
12.0
 40
12.0
 40
13.0
 40
13.0
 40
13.0
 40
13.0
 10
63.07677000376206
 20
-147.574110206162
 10
63.05196531626826
 20
-147.5296684744023
 10
63.02922768606561
 20
-147.476958513478
 10
63.0269883740002
 20
-147.2461371159663
 10
63.02250974986938
 20
-147.0029133747076
 10
62.95929224771504
 20
-146.932977936357
 10
62.76929523170351
 20
-146.932977936357
 10
62.76929523170351
 20
-146.932977936357
 10
62.33297388849662
 20
-146.932977936357
 10
62.33297388849662
 20
-146.932977936357
 10
62.33297388849662
 20
-146.932977936357
 10
62.33297388849662
 20
-147.574110206162
 10
62.33297388849662
 20
-147.574110206162
 10
62.33297388849662
 20
-147.574110206162
 10
62.08199868239617
 20
-147.574110206162
 10
62.08199868239617
 20
-147.574110206162
 10
62.08199868239617
 20
-147.574110206162
 10
62.08199868239617
 20
-146.0296739001245
 10
62.08199868239617
 20
-146.0296739001245
 10
62.08199868239617
 20
-146.0296739001245
 10
62.80322942223322
 20
-146.0296739001245
 10
62.80322942223322
 20
-146.0296739001245
 10
63.13103025765474
 20
-146.0296739001245
 10
63.30965845856495
 20
-146.20123965529
 10
63.30965845856495
 20
-146.457210249844
 10
63.30965845856495
 20
-146.5078531534772
 10
63.3007012103033
 20
-146.5905354451232
 10
63.25315889260686
 20
-146.6708061699295
 10
63.18976913567825
 20
-146.7745035440356
 10
63.11983369732769
 20
-146.7934515692044
 10
63.05420462833367
 20
-146.8103325370821
 10
63.20113795077958
 20
-146.8527072115507
 10
63.27348495596983
 20
-146.9012830578928
 10
63.27796358010065
 20
-147.2165092947931
 10
63.28244220423147
 20
-147.4872937999338
 10
63.32102727366627
 20
-147.518988678398
 10
63.39337427885652
 20
-147.574110206162
 10
63.39337427885652
 20
-147.574110206162
 10
63.07677000376206
 20
-147.574110206162
 10
63.07677000376206
 20
-147.574110206162
 97
        0
 97
        0
 92
        1
 93
        1
 72
     4
 94
        3
 73
     0
 74
     1
 95
       20
 96
       16
 40
0.0
 40
0.0
 40
0.0
 40
0.0
 40
1.0
 40
1.0
 40
1.0
 40
2.0
 40
2.0
 40
2.0
 40
3.0
 40
3.0
 40
3.0
 40
4.0
 40
4.0
 40
4.0
 40
5.0
 40
5.0
 40
5.0
 40
5.0
 10
62.80770804636405
 20
-146.2412027629189
 10
62.80770804636405
 20
-146.2412027629189
 10
62.33297388849662
 20
-146.2412027629189
 10
62.33297388849662
 20
-146.2412027629189
 10
62.33297388849662
 20
-146.2412027629189
 10
62.33297388849662
 20
-146.7214490735627
 10
62.33297388849662
 20
-146.7214490735627
 10
62.33297388849662
 20
-146.7214490735627
 10
62.80546873429864
 20
-146.7214490735627
 10
62.80546873429864
 20
-146.7214490735627
 10
62.91174993001859
 20
-146.7214490735627
 10
63.05644394039908
 20
-146.6453124633387
 10
63.05644394039908
 20
-146.4740912177218
 10
63.05644394039908
 20
-146.3958875502066
 10
63.02027043780397
 20
-146.2412027629189
 10
62.80770804636405
 20
-146.2412027629189
 97
        0
 97
        0
 75
     2
 76
     1
 98
        0
  0
ENDBLK
  5
86
330
83
100
AcDbEntity
  8
0
100
AcDbBlockEnd
  0
BLOCK
  5
9A
330
98
100
AcDbEntity
  8
0
100
AcDbBlockBegin
  2
block 3
 70
     0
 10
0.0
 20
0.0
 30
0.0
  3
block 3
  1

  0
SPLINE
  5
9C
330
98
100
AcDbEntity
  8
_U+30EC_U+30A4_U+30E4_U+30FC 1
370
     0
100
AcDbSpline
210
0.0
220
0.0
230
1.0
 70
    11
 71
     3
 72
    62
 73
    58
 74
     0
 42
0.0000000001
 43
0.0000000001
 12
1.0
 22
0.0
 32
0.0
 13
1.0
 23
0.0
 33
0.0
 40
0.0
 40
0.0
 40
0.0
 40
0.0
 40
1.0
 40
1.0
 40
1.0
 40
2.0
 40
2.0
 40
2.0
 40
3.0
 40
3.0
 40
3.0
 40
4.0
 40
4.0
 40
4.0
 40
5.0
 40
5.0
 40
5.0
 40
6.0
 40
6.0
 40
6.0
 40
7.0
 40
7.0
 40
7.0
 40
8.0
 40
8.0
 40
8.0
 40
9.0
 40
9.0
 40
9.0
 40
10.0
 40
10.0
 40
10.0
 40
11.0
 40
11.0
 40
11.0
 40
12.0
 40
12.0
 40
12.0
 40
13.0
 40
13.0
 40
13.0
 40
14.0
 40
14.0
 40
14.0
 40
15.0
 40
15.0
 40
15.0
 40
16.0
 40
16.0
 40
16.0
 40
17.0
 40
17.0
 40
17.0
 40
18.0
 40
18.0
 40
18.0
 40
19.0
 40
19.0
 40
19.0
 40
19.0
 10
88.07283255176652
 20
-109.4942640242758
 30
0.0
 10
87.97120223495165
 20
-109.4942640242758
 30
0.0
 10
87.73831378014876
 20
-109.4732489418157
 30
0.0
 10
87.60498858486959
 20
-109.2872137856122
 30
0.0
 10
87.52575138870884
 20
-109.1749036727931
 30
0.0
 10
87.52127276457801
 20
-109.0755126680436
 30
0.0
 10
87.51679414044719
 20
-108.9909355738807
 30
0.0
 10
87.51679414044719
 20
-108.9909355738807
 30
0.0
 10
87.75174965254124
 20
-108.9909355738807
 30
0.0
 10
87.75174965254124
 20
-108.9909355738807
 30
0.0
 10
87.7541612193809
 20
-109.0650051268136
 30
0.0
 10
87.76553003448224
 20
-109.2996161293591
 30
0.0
 10
88.0683539276357
 20
-109.2996161293591
 30
0.0
 10
88.21545950485586
 20
-109.2996161293591
 30
0.0
 10
88.37806801175965
 20
-109.2300252005571
 30
0.0
 10
88.37806801175965
 20
-109.0014431151108
 30
0.0
 10
88.37806801175965
 20
-108.8851711424836
 30
0.0
 10
88.3374158850337
 20
-108.8364230413673
 30
0.0
 10
88.30365394927826
 20
-108.804728162903
 30
0.0
 10
88.22441675311751
 20
-108.7306586099701
 30
0.0
 10
88.10004880609999
 20
-108.718084011449
 30
0.0
 10
88.04113767330222
 20
-108.718084011449
 30
0.0
 10
88.02081160993924
 20
-108.718084011449
 30
0.0
 10
87.98257105005297
 20
-108.7201510687401
 30
0.0
 10
87.95294322887982
 20
-108.7242851833224
 30
0.0
 10
87.95294322887982
 20
-108.7242851833224
 30
0.0
 10
87.95294322887982
 20
-108.5296372884058
 30
0.0
 10
87.95294322887982
 20
-108.5296372884058
 30
0.0
 10
87.99359535560578
 20
-108.5360107150535
 30
0.0
 10
88.03907061601107
 20
-108.5382500271189
 30
0.0
 10
88.04561629743304
 20
-108.5382500271189
 30
0.0
 10
88.11589624533214
 20
-108.5382500271189
 30
0.0
 10
88.32845863677206
 20
-108.5170626898846
 30
0.0
 10
88.32845863677206
 20
-108.2800401204994
 30
0.0
 10
88.32845863677206
 20
-108.1024454482348
 30
0.0
 10
88.18824325052239
 20
-108.0473239204708
 30
0.0
 10
88.07076549447537
 20
-108.0473239204708
 30
0.0
 10
87.78792315513635
 20
-108.0473239204708
 30
0.0
 10
87.7789659068747
 20
-108.2800401204994
 30
0.0
 10
87.77448728274388
 20
-108.3520426161412
 30
0.0
 10
87.77448728274388
 20
-108.3520426161412
 30
0.0
 10
87.55744626717315
 20
-108.3520426161412
 30
0.0
 10
87.55744626717315
 20
-108.3520426161412
 30
0.0
 10
87.56640351543479
 20
-108.2271579048008
 30
0.0
 10
87.59568682705941
 20
-107.850608968263
 30
0.0
 10
88.08420136686784
 20
-107.850608968263
 30
0.0
 10
88.32398001264123
 20
-107.850608968263
 30
0.0
 10
88.58167315493792
 20
-107.9775607368945
 30
0.0
 10
88.58167315493792
 20
-108.2736666938517
 30
0.0
 10
88.58167315493792
 20
-108.4598741048295
 30
0.0
 10
88.47969832857453
 20
-108.5423841417012
 30
0.0
 10
88.37358938762883
 20
-108.6037068413387
 30
0.0
 10
88.43904620184857
 20
-108.6312676052207
 30
0.0
 10
88.6336940967652
 20
-108.7117105848012
 30
0.0
 10
88.6336940967652
 20
-108.9888685165896
 30
0.0
 10
88.6336940967652
 20
-109.3271768932411
 30
0.0
 10
88.369110763498
 20
-109.4942640242758
 30
0.0
 10
88.07283255176652
 20
-109.4942640242758
 30
0.0
  0
HATCH
  5
9D
330
98
100
AcDbEntity
  8
_U+30EC_U+30A4_U+30E4_U+30FC 1
 62
     7
420
 16777215
100
AcDbHatch
 10
0.0
 20
0.0
 30
0.0
210
0.0
220
0.0
230
1.0
  2
SOLID
 70
     1
 71
     0
 91
        1
 92
        1
 93
        1
 72
     4
 94
        3
 73
     0
 74
     1
 95
       62
 96
       58
 40
0.0
 40
0.0
 40
0.0
 40
0.0
 40
1.0
 40
1.0
 40
1.0
 40
2.0
 40
2.0
 40
2.0
 40
3.0
 40
3.0
 40
3.0
 40
4.0
 40
4.0
 40
4.0
 40
5.0
 40
5.0
 40
5.0
 40
6.0
 40
6.0
 40
6.0
 40
7.0
 40
7.0
 40
7.0
 40
8.0
 40
8.0
 40
8.0
 40
9.0
 40
9.0
 40
9.0
 40
10.0
 40
10.0
 40
10.0
 40
11.0
 40
11.0
 40
11.0
 40
12.0
 40
12.0
 40
12.0
 40
13.0
 40
13.0
 40
13.0
 40
14.0
 40
14.0
 40
14.0
 40
15.0
 40
15.0
 40
15.0
 40
16.0
 40
16.0
 40
16.0
 40
17.0
 40
17.0
 40
17.0
 40
18.0
 40
18.0
 40
18.0
 40
19.0
 40
19.0
 40
19.0
 40
19.0
 10
88.07283255176652
 20
-109.4942640242758
 10
87.97120223495165
 20
-109.4942640242758
 10
87.73831378014876
 20
-109.4732489418157
 10
87.60498858486959
 20
-109.2872137856122
 10
87.52575138870884
 20
-109.1749036727931
 10
87.52127276457801
 20
-109.0755126680436
 10
87.51679414044719
 20
-108.9909355738807
 10
87.51679414044719
 20
-108.9909355738807
 10
87.75174965254124
 20
-108.9909355738807
 10
87.75174965254124
 20
-108.9909355738807
 10
87.7541612193809
 20
-109.0650051268136
 10
87.76553003448224
 20
-109.2996161293591
 10
88.0683539276357
 20
-109.2996161293591
 10
88.21545950485586
 20
-109.2996161293591
 10
88.37806801175965
 20
-109.2300252005571
 10
88.37806801175965
 20
-109.0014431151108
 10
88.37806801175965
 20
-108.8851711424836
 10
88.3374158850337
 20
-108.8364230413673
 10
88.30365394927826
 20
-108.804728162903
 10
88.22441675311751
 20
-108.7306586099701
 10
88.10004880609999
 20
-108.718084011449
 10
88.04113767330222
 20
-108.718084011449
 10
88.02081160993924
 20
-108.718084011449
 10
87.98257105005297
 20
-108.7201510687401
 10
87.95294322887982
 20
-108.7242851833224
 10
87.95294322887982
 20
-108.7242851833224
 10
87.95294322887982
 20
-108.5296372884058
 10
87.95294322887982
 20
-108.5296372884058
 10
87.99359535560578
 20
-108.5360107150535
 10
88.03907061601107
 20
-108.5382500271189
 10
88.04561629743304
 20
-108.5382500271189
 10
88.11589624533214
 20
-108.5382500271189
 10
88.32845863677206
 20
-108.5170626898846
 10
88.32845863677206
 20
-108.2800401204994
 10
88.32845863677206
 20
-108.1024454482348
 10
88.18824325052239
 20
-108.0473239204708
 10
88.07076549447537
 20
-108.0473239204708
 10
87.78792315513635
 20
-108.0473239204708
 10
87.7789659068747
 20
-108.2800401204994
 10
87.77448728274388
 20
-108.3520426161412
 10
87.77448728274388
 20
-108.3520426161412
 10
87.55744626717315
 20
-108.3520426161412
 10
87.55744626717315
 20
-108.3520426161412
 10
87.56640351543479
 20
-108.2271579048008
 10
87.59568682705941
 20
-107.850608968263
 10
88.08420136686784
 20
-107.850608968263
 10
88.32398001264123
 20
-107.850608968263
 10
88.58167315493792
 20
-107.9775607368945
 10
88.58167315493792
 20
-108.2736666938517
 10
88.58167315493792
 20
-108.4598741048295
 10
88.47969832857453
 20
-108.5423841417012
 10
88.37358938762883
 20
-108.6037068413387
 10
88.43904620184857
 20
-108.6312676052207
 10
88.6336940967652
 20
-108.7117105848012
 10
88.6336940967652
 20
-108.9888685165896
 10
88.6336940967652
 20
-109.3271768932411
 10
88.369110763498
 20
-109.4942640242758
 10
88.07283255176652
 20
-109.4942640242758
 97
        0
 97
        0
 75
     2
 76
     1
 98
        0
  0
SPLINE
  5
9E
330
98
100
AcDbEntity
  8
_U+30EC_U+30A4_U+30E4_U+30FC 1
370
     0
100
AcDbSpline
210
0.0
220
0.0
230
1.0
 70
    11
 71
     3
 72
    29
 73
    25
 74
     0
 42
0.0000000001
 43
0.0000000001
 12
1.0
 22
0.0
 32
0.0
 13
1.0
 23
0.0
 33
0.0
 40
0.0
 40
0.0
 40
0.0
 40
0.0
 40
1.0
 40
1.0
 40
1.0
 40
2.0
 40
2.0
 40
2.0
 40
3.0
 40
3.0
 40
3.0
 40
4.0
 40
4.0
 40
4.0
 40
5.0
 40
5.0
 40
5.0
 40
6.0
 40
6.0
 40
6.0
 40
7.0
 40
7.0
 40
7.0
 40
8.0
 40
8.0
 40
8.0
 40
8.0
 10
89.33959416169289
 20
-109.4942640242758
 30
0.0
 10
89.05468476506272
 20
-109.4942640242758
 30
0.0
 10
88.78355575037357
 20
-109.3568047144143
 30
0.0
 10
88.78355575037357
 20
-109.0078165417585
 30
0.0
 10
88.78355575037357
 20
-108.7518459472044
 30
0.0
 10
88.93513995172455
 20
-108.6565890570373
 30
0.0
 10
89.04813908364075
 20
-108.5952663573998
 30
0.0
 10
88.91481388836158
 20
-108.5360107150535
 30
0.0
 10
88.83316512536116
 20
-108.4218057997175
 30
0.0
 10
88.83316512536116
 20
-108.2610920953306
 30
0.0
 10
88.83316512536116
 20
-107.9860012208334
 30
0.0
 10
89.04572751680107
 20
-107.850608968263
 30
0.0
 10
89.33959416169289
 20
-107.850608968263
 30
0.0
 10
89.64276256439487
 20
-107.850608968263
 30
0.0
 10
89.84602319802461
 20
-107.9944417047722
 30
0.0
 10
89.84602319802461
 20
-108.2610920953306
 30
0.0
 10
89.84602319802461
 20
-108.4218057997175
 30
0.0
 10
89.76265188728156
 20
-108.5360107150535
 30
0.0
 10
89.62898218245387
 20
-108.5952663573998
 30
0.0
 10
89.72406681784676
 20
-108.6460815158072
 30
0.0
 10
89.89356551572105
 20
-108.7413384059744
 30
0.0
 10
89.89356551572105
 20
-109.0036824271762
 30
0.0
 10
89.89356551572105
 20
-109.3781643064228
 30
0.0
 10
89.59522024669842
 20
-109.4942640242758
 30
0.0
 10
89.33959416169289
 20
-109.4942640242758
 30
0.0
  0
SPLINE
  5
9F
330
98
100
AcDbEntity
  8
_U+30EC_U+30A4_U+30E4_U+30FC 1
370
     0
100
AcDbSpline
210
0.0
220
0.0
230
1.0
 70
    11
 71
     3
 72
    17
 73
    13
 74
     0
 42
0.0000000001
 43
0.0000000001
 12
1.0
 22
0.0
 32
0.0
 13
1.0
 23
0.0
 33
0.0
 40
0.0
 40
0.0
 40
0.0
 40
0.0
 40
1.0
 40
1.0
 40
1.0
 40
2.0
 40
2.0
 40
2.0
 40
3.0
 40
3.0
 40
3.0
 40
4.0
 40
4.0
 40
4.0
 40
4.0
 10
89.33959416169289
 20
-108.7032701008624
 30
0.0
 10
89.18594290305074
 20
-108.7032701008624
 30
0.0
 10
89.02333439614695
 20
-108.7899142523164
 30
0.0
 10
89.02333439614695
 20
-108.9930026311719
 30
0.0
 10
89.02333439614695
 20
-109.1983303220928
 30
0.0
 10
89.15872664871726
 20
-109.2996161293591
 30
0.0
 10
89.33959416169289
 20
-109.2996161293591
 30
0.0
 10
89.53872068074033
 20
-109.2996161293591
 30
0.0
 10
89.65619843678735
 20
-109.1769707300842
 30
0.0
 10
89.65619843678735
 20
-108.9993760578196
 30
0.0
 10
89.65619843678735
 20
-108.777167399021
 30
0.0
 10
89.48222111478222
 20
-108.7032701008624
 30
0.0
 10
89.33959416169289
 20
-108.7032701008624
 30
0.0
  0
SPLINE
  5
A0
330
98
100
AcDbEntity
  8
_U+30EC_U+30A4_U+30E4_U+30FC 1
370
     0
100
AcDbSpline
210
0.0
220
0.0
230
1.0
 70
    11
 71
     3
 72
    17
 73
    13
 74
     0
 42
0.0000000001
 43
0.0000000001
 12
1.0
 22
0.0
 32
0.0
 13
1.0
 23
0.0
 33
0.0
 40
0.0
 40
0.0
 40
0.0
 40
0.0
 40
1.0
 40
1.0
 40
1.0
 40
2.0
 40
2.0
 40
2.0
 40
3.0
 40
3.0
 40
3.0
 40
4.0
 40
4.0
 40
4.0
 40
4.0
 10
89.33959416169289
 20
-108.0431898058885
 30
0.0
 10
89.16354978239661
 20
-108.0431898058885
 30
0.0
 10
89.07294377113455
 20
-108.1382744412814
 30
0.0
 10
89.07294377113455
 20
-108.2736666938517
 30
0.0
 10
89.07294377113455
 20
-108.3964843479009
 30
0.0
 10
89.14976940045561
 20
-108.5149956325935
 30
0.0
 10
89.33959416169289
 20
-108.5149956325935
 30
0.0
 10
89.52976343247867
 20
-108.5149956325935
 30
0.0
 10
89.60658906179975
 20
-108.3964843479009
 30
0.0
 10
89.60658906179975
 20
-108.2736666938517
 30
0.0
 10
89.60658906179975
 20
-108.1382744412814
 30
0.0
 10
89.51391599324653
 20
-108.0431898058885
 30
0.0
 10
89.33959416169289
 20
-108.0431898058885
 30
0.0
  0
HATCH
  5
A1
330
98
100
AcDbEntity
  8
_U+30EC_U+30A4_U+30E4_U+30FC 1
 62
     7
420
 16777215
100
AcDbHatch
 10
0.0
 20
0.0
 30
0.0
210
0.0
220
0.0
230
1.0
  2
SOLID
 70
     1
 71
     0
 91
        3
 92
        1
 93
        1
 72
     4
 94
        3
 73
     0
 74
     1
 95
       29
 96
       25
 40
0.0
 40
0.0
 40
0.0
 40
0.0
 40
1.0
 40
1.0
 40
1.0
 40
2.0
 40
2.0
 40
2.0
 40
3.0
 40
3.0
 40
3.0
 40
4.0
 40
4.0
 40
4.0
 40
5.0
 40
5.0
 40
5.0
 40
6.0
 40
6.0
 40
6.0
 40
7.0
 40
7.0
 40
7.0
 40
8.0
 40
8.0
 40
8.0
 40
8.0
 10
89.33959416169289
 20
-109.4942640242758
 10
89.05468476506272
 20
-109.4942640242758
 10
88.78355575037357
 20
-109.3568047144143
 10
88.78355575037357
 20
-109.0078165417585
 10
88.78355575037357
 20
-108.7518459472044
 10
88.93513995172455
 20
-108.6565890570373
 10
89.04813908364075
 20
-108.5952663573998
 10
88.91481388836158
 20
-108.5360107150535
 10
88.83316512536116
 20
-108.4218057997175
 10
88.83316512536116
 20
-108.2610920953306
 10
88.83316512536116
 20
-107.9860012208334
 10
89.04572751680107
 20
-107.850608968263
 10
89.33959416169289
 20
-107.850608968263
 10
89.64276256439487
 20
-107.850608968263
 10
89.84602319802461
 20
-107.9944417047722
 10
89.84602319802461
 20
-108.2610920953306
 10
89.84602319802461
 20
-108.4218057997175
 10
89.76265188728156
 20
-108.5360107150535
 10
89.62898218245387
 20
-108.5952663573998
 10
89.72406681784676
 20
-108.6460815158072
 10
89.89356551572105
 20
-108.7413384059744
 10
89.89356551572105
 20
-109.0036824271762
 10
89.89356551572105
 20
-109.3781643064228
 10
89.59522024669842
 20
-109.4942640242758
 10
89.33959416169289
 20
-109.4942640242758
 97
        0
 97
        0
 92
        1
 93
        1
 72
     4
 94
        3
 73
     0
 74
     1
 95
       17
 96
       13
 40
0.0
 40
0.0
 40
0.0
 40
0.0
 40
1.0
 40
1.0
 40
1.0
 40
2.0
 40
2.0
 40
2.0
 40
3.0
 40
3.0
 40
3.0
 40
4.0
 40
4.0
 40
4.0
 40
4.0
 10
89.33959416169289
 20
-108.7032701008624
 10
89.18594290305074
 20
-108.7032701008624
 10
89.02333439614695
 20
-108.7899142523164
 10
89.02333439614695
 20
-108.9930026311719
 10
89.02333439614695
 20
-109.1983303220928
 10
89.15872664871726
 20
-109.2996161293591
 10
89.33959416169289
 20
-109.2996161293591
 10
89.53872068074033
 20
-109.2996161293591
 10
89.65619843678735
 20
-109.1769707300842
 10
89.65619843678735
 20
-108.9993760578196
 10
89.65619843678735
 20
-108.777167399021
 10
89.48222111478222
 20
-108.7032701008624
 10
89.33959416169289
 20
-108.7032701008624
 97
        0
 97
        0
 92
        1
 93
        1
 72
     4
 94
        3
 73
     0
 74
     1
 95
       17
 96
       13
 40
0.0
 40
0.0
 40
0.0
 40
0.0
 40
1.0
 40
1.0
 40
1.0
 40
2.0
 40
2.0
 40
2.0
 40
3.0
 40
3.0
 40
3.0
 40
4.0
 40
4.0
 40
4.0
 40
4.0
 10
89.33959416169289
 20
-108.0431898058885
 10
89.16354978239661
 20
-108.0431898058885
 10
89.07294377113455
 20
-108.1382744412814
 10
89.07294377113455
 20
-108.2736666938517
 10
89.07294377113455
 20
-108.3964843479009
 10
89.14976940045561
 20
-108.5149956325935
 10
89.33959416169289
 20
-108.5149956325935
 10
89.52976343247867
 20
-108.5149956325935
 10
89.60658906179975
 20
-108.3964843479009
 10
89.60658906179975
 20
-108.2736666938517
 10
89.60658906179975
 20
-108.1382744412814
 10
89.51391599324653
 20
-108.0431898058885
 10
89.33959416169289
 20
-108.0431898058885
 97
        0
 97
        0
 75
     2
 76
     1
 98
        0
  0
ENDBLK
  5
9B
330
98
100
AcDbEntity
  8
0
100
AcDbBlockEnd
  0
BLOCK
  5
AC
330
AA
100
AcDbEntity
  8
0
100
AcDbBlockBegin
  2
block 4
 70
     0
 10
0.0
 20
0.0
 30
0.0
  3
block 4
  1

  0
SPLINE
  5
AE
330
AA
100
AcDbEntity
  8
_U+30EC_U+30A4_U+30E4_U+30FC 1
370
     0
100
AcDbSpline
210
0.0
220
0.0
230
1.0
 70
    11
 71
     3
 72
    26
 73
    22
 74
     0
 42
0.0000000001
 43
0.0000000001
 12
1.0
 22
0.0
 32
0.0
 13
1.0
 23
0.0
 33
0.0
 40
0.0
 40
0.0
 40
0.0
 40
0.0
 40
1.0
 40
1.0
 40
1.0
 40
2.0
 40
2.0
 40
2.0
 40
3.0
 40
3.0
 40
3.0
 40
4.0
 40
4.0
 40
4.0
 40
5.0
 40
5.0
 40
5.0
 40
6.0
 40
6.0
 40
6.0
 40
7.0
 40
7.0
 40
7.0
 40
7.0
 10
70.93813339155366
 20
-114.6248724756841
 30
0.0
 10
70.93813339155366
 20
-114.6248724756841
 30
0.0
 10
70.93813339155366
 20
-113.5205471178872
 30
0.0
 10
70.93813339155366
 20
-113.5205471178872
 30
0.0
 10
70.93813339155366
 20
-113.5205471178872
 30
0.0
 10
70.58535561386408
 20
-113.5205471178872
 30
0.0
 10
70.58535561386408
 20
-113.5205471178872
 30
0.0
 10
70.58535561386408
 20
-113.5205471178872
 30
0.0
 10
70.58535561386408
 20
-113.3725802667958
 30
0.0
 10
70.58535561386408
 20
-113.3725802667958
 30
0.0
 10
70.94037270361908
 20
-113.3577663562092
 30
0.0
 10
70.99015433338094
 20
-113.1948133397569
 30
0.0
 10
71.02167695707097
 20
-113.0806084244208
 30
0.0
 10
71.02167695707097
 20
-113.0806084244208
 30
0.0
 10
71.17773978255279
 20
-113.0806084244208
 30
0.0
 10
71.17773978255279
 20
-113.0806084244208
 30
0.0
 10
71.17773978255279
 20
-113.0806084244208
 30
0.0
 10
71.17773978255279
 20
-114.6248724756841
 30
0.0
 10
71.17773978255279
 20
-114.6248724756841
 30
0.0
 10
71.17773978255279
 20
-114.6248724756841
 30
0.0
 10
70.93813339155366
 20
-114.6248724756841
 30
0.0
 10
70.93813339155366
 20
-114.6248724756841
 30
0.0
  0
HATCH
  5
AF
330
AA
100
AcDbEntity
  8
_U+30EC_U+30A4_U+30E4_U+30FC 1
 62
     7
420
 16777215
100
AcDbHatch
 10
0.0
 20
0.0
 30
0.0
210
0.0
220
0.0
230
1.0
  2
SOLID
 70
     1
 71
     0
 91
        1
 92
        1
 93
        1
 72
     4
 94
        3
 73
     0
 74
     1
 95
       26
 96
       22
 40
0.0
 40
0.0
 40
0.0
 40
0.0
 40
1.0
 40
1.0
 40
1.0
 40
2.0
 40
2.0
 40
2.0
 40
3.0
 40
3.0
 40
3.0
 40
4.0
 40
4.0
 40
4.0
 40
5.0
 40
5.0
 40
5.0
 40
6.0
 40
6.0
 40
6.0
 40
7.0
 40
7.0
 40
7.0
 40
7.0
 10
70.93813339155366
 20
-114.6248724756841
 10
70.93813339155366
 20
-114.6248724756841
 10
70.93813339155366
 20
-113.5205471178872
 10
70.93813339155366
 20
-113.5205471178872
 10
70.93813339155366
 20
-113.5205471178872
 10
70.58535561386408
 20
-113.5205471178872
 10
70.58535561386408
 20
-113.5205471178872
 10
70.58535561386408
 20
-113.5205471178872
 10
70.58535561386408
 20
-113.3725802667958
 10
70.58535561386408
 20
-113.3725802667958
 10
70.94037270361908
 20
-113.3577663562092
 10
70.99015433338094
 20
-113.1948133397569
 10
71.02167695707097
 20
-113.0806084244208
 10
71.02167695707097
 20
-113.0806084244208
 10
71.17773978255279
 20
-113.0806084244208
 10
71.17773978255279
 20
-113.0806084244208
 10
71.17773978255279
 20
-113.0806084244208
 10
71.17773978255279
 20
-114.6248724756841
 10
71.17773978255279
 20
-114.6248724756841
 10
71.17773978255279
 20
-114.6248724756841
 10
70.93813339155366
 20
-114.6248724756841
 10
70.93813339155366
 20
-114.6248724756841
 97
        0
 97
        0
 75
     2
 76
     1
 98
        0
  0
ENDBLK
  5
AD
330
AA
100
AcDbEntity
  8
0
100
AcDbBlockEnd
  0
BLOCK
  5
BE
330
BC
100
AcDbEntity
  8
0
100
AcDbBlockBegin
  2
block 5
 70
     0
 10
0.0
 20
0.0
 30
0.0
  3
block 5
  1

  0
SPLINE
  5
C0
330
BC
100
AcDbEntity
  8
_U+30EC_U+30A4_U+30E4_U+30FC 1
370
     0
100
AcDbSpline
210
0.0
220
0.0
230
1.0
 70
    11
 71
     3
 72
    62
 73
    58
 74
     0
 42
0.0000000001
 43
0.0000000001
 12
1.0
 22
0.0
 32
0.0
 13
1.0
 23
0.0
 33
0.0
 40
0.0
 40
0.0
 40
0.0
 40
0.0
 40
1.0
 40
1.0
 40
1.0
 40
2.0
 40
2.0
 40
2.0
 40
3.0
 40
3.0
 40
3.0
 40
4.0
 40
4.0
 40
4.0
 40
5.0
 40
5.0
 40
5.0
 40
6.0
 40
6.0
 40
6.0
 40
7.0
 40
7.0
 40
7.0
 40
8.0
 40
8.0
 40
8.0
 40
9.0
 40
9.0
 40
9.0
 40
10.0
 40
10.0
 40
10.0
 40
11.0
 40
11.0
 40
11.0
 40
12.0
 40
12.0
 40
12.0
 40
13.0
 40
13.0
 40
13.0
 40
14.0
 40
14.0
 40
14.0
 40
15.0
 40
15.0
 40
15.0
 40
16.0
 40
16.0
 40
16.0
 40
17.0
 40
17.0
 40
17.0
 40
18.0
 40
18.0
 40
18.0
 40
19.0
 40
19.0
 40
19.0
 40
19.0
 10
64.16490341277822
 20
-130.5322563692767
 30
0.0
 10
64.16490341277822
 20
-130.6338866860915
 30
0.0
 10
64.14371607554394
 20
-130.8667751408944
 30
0.0
 10
63.95750866456618
 20
-131.0001003361736
 30
0.0
 10
63.8453708065213
 20
-131.0793375323343
 30
0.0
 10
63.74597980177184
 20
-131.0838161564652
 30
0.0
 10
63.66140270760896
 20
-131.088294780596
 30
0.0
 10
63.66140270760896
 20
-131.088294780596
 30
0.0
 10
63.66140270760896
 20
-130.8533392685019
 30
0.0
 10
63.66140270760896
 20
-130.8533392685019
 30
0.0
 10
63.73547226054183
 20
-130.8509277016623
 30
0.0
 10
63.9702555178616
 20
-130.839558886561
 30
0.0
 10
63.9702555178616
 20
-130.5367349934075
 30
0.0
 10
63.9702555178616
 20
-130.3896294161873
 30
0.0
 10
63.9004923342853
 20
-130.2270209092835
 30
0.0
 10
63.67191024883897
 20
-130.2270209092835
 30
0.0
 10
63.55563827621179
 20
-130.2270209092835
 30
0.0
 10
63.5068901750955
 20
-130.2676730360095
 30
0.0
 10
63.47519529663121
 20
-130.3014349717649
 30
0.0
 10
63.40112574369833
 20
-130.3806721679257
 30
0.0
 10
63.38855114517717
 20
-130.5050401149432
 30
0.0
 10
63.38855114517717
 20
-130.563951247741
 30
0.0
 10
63.38855114517717
 20
-130.5842773111039
 30
0.0
 10
63.39061820246832
 20
-130.6225178709902
 30
0.0
 10
63.39475231705062
 20
-130.6521456921633
 30
0.0
 10
63.39475231705062
 20
-130.6521456921633
 30
0.0
 10
63.20027667690827
 20
-130.6521456921633
 30
0.0
 10
63.20027667690827
 20
-130.6521456921633
 30
0.0
 10
63.20647784878172
 20
-130.6114935654374
 30
0.0
 10
63.20871716084713
 20
-130.5660183050321
 30
0.0
 10
63.20871716084713
 20
-130.5594726236101
 30
0.0
 10
63.20871716084713
 20
-130.4891926757111
 30
0.0
 10
63.18752982361284
 20
-130.2766302842711
 30
0.0
 10
62.95050725422765
 20
-130.2766302842711
 30
0.0
 10
62.77291258196303
 20
-130.2766302842711
 30
0.0
 10
62.71779105419903
 20
-130.4168456705208
 30
0.0
 10
62.71779105419903
 20
-130.5343234265678
 30
0.0
 10
62.71779105419903
 20
-130.8171657659068
 30
0.0
 10
62.95050725422765
 20
-130.8261230141685
 30
0.0
 10
63.02250974986938
 20
-130.8306016382993
 30
0.0
 10
63.02250974986938
 20
-130.8306016382993
 30
0.0
 10
63.02250974986938
 20
-131.04764265387
 30
0.0
 10
63.02250974986938
 20
-131.04764265387
 30
0.0
 10
62.89762503852907
 20
-131.0386854056084
 30
0.0
 10
62.52107610199126
 20
-131.0094020939838
 30
0.0
 10
62.52107610199126
 20
-130.5208875541753
 30
0.0
 10
62.52107610199126
 20
-130.281108908402
 30
0.0
 10
62.64802787062272
 20
-130.0234157661053
 30
0.0
 10
62.94413382757994
 20
-130.0234157661053
 30
0.0
 10
63.1303412385577
 20
-130.0234157661053
 30
0.0
 10
63.21285127542943
 20
-130.1253905924686
 30
0.0
 10
63.27417397506687
 20
-130.2314995334144
 30
0.0
 10
63.30173473894887
 20
-130.1660427191946
 30
0.0
 10
63.38217771852946
 20
-129.971394824278
 30
0.0
 10
63.65933565031781
 20
-129.971394824278
 30
0.0
 10
63.9978162817436
 20
-129.971394824278
 30
0.0
 10
64.16490341277822
 20
-130.2359781575452
 30
0.0
 10
64.16490341277822
 20
-130.5322563692767
 30
0.0
  0
HATCH
  5
C1
330
BC
100
AcDbEntity
  8
_U+30EC_U+30A4_U+30E4_U+30FC 1
 62
     7
420
 16777215
100
AcDbHatch
 10
0.0
 20
0.0
 30
0.0
210
0.0
220
0.0
230
1.0
  2
SOLID
 70
     1
 71
     0
 91
        1
 92
        1
 93
        1
 72
     4
 94
        3
 73
     0
 74
     1
 95
       62
 96
       58
 40
0.0
 40
0.0
 40
0.0
 40
0.0
 40
1.0
 40
1.0
 40
1.0
 40
2.0
 40
2.0
 40
2.0
 40
3.0
 40
3.0
 40
3.0
 40
4.0
 40
4.0
 40
4.0
 40
5.0
 40
5.0
 40
5.0
 40
6.0
 40
6.0
 40
6.0
 40
7.0
 40
7.0
 40
7.0
 40
8.0
 40
8.0
 40
8.0
 40
9.0
 40
9.0
 40
9.0
 40
10.0
 40
10.0
 40
10.0
 40
11.0
 40
11.0
 40
11.0
 40
12.0
 40
12.0
 40
12.0
 40
13.0
 40
13.0
 40
13.0
 40
14.0
 40
14.0
 40
14.0
 40
15.0
 40
15.0
 40
15.0
 40
16.0
 40
16.0
 40
16.0
 40
17.0
 40
17.0
 40
17.0
 40
18.0
 40
18.0
 40
18.0
 40
19.0
 40
19.0
 40
19.0
 40
19.0
 10
64.16490341277822
 20
-130.5322563692767
 10
64.16490341277822
 20
-130.6338866860915
 10
64.14371607554394
 20
-130.8667751408944
 10
63.95750866456618
 20
-131.0001003361736
 10
63.8453708065213
 20
-131.0793375323343
 10
63.74597980177184
 20
-131.0838161564652
 10
63.66140270760896
 20
-131.088294780596
 10
63.66140270760896
 20
-131.088294780596
 10
63.66140270760896
 20
-130.8533392685019
 10
63.66140270760896
 20
-130.8533392685019
 10
63.73547226054183
 20
-130.8509277016623
 10
63.9702555178616
 20
-130.839558886561
 10
63.9702555178616
 20
-130.5367349934075
 10
63.9702555178616
 20
-130.3896294161873
 10
63.9004923342853
 20
-130.2270209092835
 10
63.67191024883897
 20
-130.2270209092835
 10
63.55563827621179
 20
-130.2270209092835
 10
63.5068901750955
 20
-130.2676730360095
 10
63.47519529663121
 20
-130.3014349717649
 10
63.40112574369833
 20
-130.3806721679257
 10
63.38855114517717
 20
-130.5050401149432
 10
63.38855114517717
 20
-130.563951247741
 10
63.38855114517717
 20
-130.5842773111039
 10
63.39061820246832
 20
-130.6225178709902
 10
63.39475231705062
 20
-130.6521456921633
 10
63.39475231705062
 20
-130.6521456921633
 10
63.20027667690827
 20
-130.6521456921633
 10
63.20027667690827
 20
-130.6521456921633
 10
63.20647784878172
 20
-130.6114935654374
 10
63.20871716084713
 20
-130.5660183050321
 10
63.20871716084713
 20
-130.5594726236101
 10
63.20871716084713
 20
-130.4891926757111
 10
63.18752982361284
 20
-130.2766302842711
 10
62.95050725422765
 20
-130.2766302842711
 10
62.77291258196303
 20
-130.2766302842711
 10
62.71779105419903
 20
-130.4168456705208
 10
62.71779105419903
 20
-130.5343234265678
 10
62.71779105419903
 20
-130.8171657659068
 10
62.95050725422765
 20
-130.8261230141685
 10
63.02250974986938
 20
-130.8306016382993
 10
63.02250974986938
 20
-130.8306016382993
 10
63.02250974986938
 20
-131.04764265387
 10
63.02250974986938
 20
-131.04764265387
 10
62.89762503852907
 20
-131.0386854056084
 10
62.52107610199126
 20
-131.0094020939838
 10
62.52107610199126
 20
-130.5208875541753
 10
62.52107610199126
 20
-130.281108908402
 10
62.64802787062272
 20
-130.0234157661053
 10
62.94413382757994
 20
-130.0234157661053
 10
63.1303412385577
 20
-130.0234157661053
 10
63.21285127542943
 20
-130.1253905924686
 10
63.27417397506687
 20
-130.2314995334144
 10
63.30173473894887
 20
-130.1660427191946
 10
63.38217771852946
 20
-129.971394824278
 10
63.65933565031781
 20
-129.971394824278
 10
63.9978162817436
 20
-129.971394824278
 10
64.16490341277822
 20
-130.2359781575452
 10
64.16490341277822
 20
-130.5322563692767
 97
        0
 97
        0
 75
     2
 76
     1
 98
        0
  0
SPLINE
  5
C2
330
BC
100
AcDbEntity
  8
_U+30EC_U+30A4_U+30E4_U+30FC 1
370
     0
100
AcDbSpline
210
0.0
220
0.0
230
1.0
 70
    11
 71
     3
 72
    26
 73
    22
 74
     0
 42
0.0000000001
 43
0.0000000001
 12
1.0
 22
0.0
 32
0.0
 13
1.0
 23
0.0
 33
0.0
 40
0.0
 40
0.0
 40
0.0
 40
0.0
 40
1.0
 40
1.0
 40
1.0
 40
2.0
 40
2.0
 40
2.0
 40
3.0
 40
3.0
 40
3.0
 40
4.0
 40
4.0
 40
4.0
 40
5.0
 40
5.0
 40
5.0
 40
6.0
 40
6.0
 40
6.0
 40
7.0
 40
7.0
 40
7.0
 40
7.0
 10
64.11408825437078
 20
-129.3175157011776
 30
0.0
 10
64.11408825437078
 20
-129.3175157011776
 30
0.0
 10
63.00976289657395
 20
-129.3175157011776
 30
0.0
 10
63.00976289657395
 20
-129.3175157011776
 30
0.0
 10
63.00976289657395
 20
-129.3175157011776
 30
0.0
 10
63.00976289657395
 20
-129.6699489693186
 30
0.0
 10
63.00976289657395
 20
-129.6699489693186
 30
0.0
 10
63.00976289657395
 20
-129.6699489693186
 30
0.0
 10
62.86162379070821
 20
-129.6699489693186
 30
0.0
 10
62.86162379070821
 20
-129.6699489693186
 30
0.0
 10
62.8469821348959
 20
-129.3151041343379
 30
0.0
 10
62.68402911844358
 20
-129.2654947593503
 30
0.0
 10
62.56982420310754
 20
-129.233799880886
 30
0.0
 10
62.56982420310754
 20
-129.233799880886
 30
0.0
 10
62.56982420310754
 20
-129.0777370554042
 30
0.0
 10
62.56982420310754
 20
-129.0777370554042
 30
0.0
 10
62.56982420310754
 20
-129.0777370554042
 30
0.0
 10
64.11408825437078
 20
-129.0777370554042
 30
0.0
 10
64.11408825437078
 20
-129.0777370554042
 30
0.0
 10
64.11408825437078
 20
-129.0777370554042
 30
0.0
 10
64.11408825437078
 20
-129.3175157011776
 30
0.0
 10
64.11408825437078
 20
-129.3175157011776
 30
0.0
  0
HATCH
  5
C3
330
BC
100
AcDbEntity
  8
_U+30EC_U+30A4_U+30E4_U+30FC 1
 62
     7
420
 16777215
100
AcDbHatch
 10
0.0
 20
0.0
 30
0.0
210
0.0
220
0.0
230
1.0
  2
SOLID
 70
     1
 71
     0
 91
        1
 92
        1
 93
        1
 72
     4
 94
        3
 73
     0
 74
     1
 95
       26
 96
       22
 40
0.0
 40
0.0
 40
0.0
 40
0.0
 40
1.0
 40
1.0
 40
1.0
 40
2.0
 40
2.0
 40
2.0
 40
3.0
 40
3.0
 40
3.0
 40
4.0
 40
4.0
 40
4.0
 40
5.0
 40
5.0
 40
5.0
 40
6.0
 40
6.0
 40
6.0
 40
7.0
 40
7.0
 40
7.0
 40
7.0
 10
64.11408825437078
 20
-129.3175157011776
 10
64.11408825437078
 20
-129.3175157011776
 10
63.00976289657395
 20
-129.3175157011776
 10
63.00976289657395
 20
-129.3175157011776
 10
63.00976289657395
 20
-129.3175157011776
 10
63.00976289657395
 20
-129.6699489693186
 10
63.00976289657395
 20
-129.6699489693186
 10
63.00976289657395
 20
-129.6699489693186
 10
62.86162379070821
 20
-129.6699489693186
 10
62.86162379070821
 20
-129.6699489693186
 10
62.8469821348959
 20
-129.3151041343379
 10
62.68402911844358
 20
-129.2654947593503
 10
62.56982420310754
 20
-129.233799880886
 10
62.56982420310754
 20
-129.233799880886
 10
62.56982420310754
 20
-129.0777370554042
 10
62.56982420310754
 20
-129.0777370554042
 10
62.56982420310754
 20
-129.0777370554042
 10
64.11408825437078
 20
-129.0777370554042
 10
64.11408825437078
 20
-129.0777370554042
 10
64.11408825437078
 20
-129.0777370554042
 10
64.11408825437078
 20
-129.3175157011776
 10
64.11408825437078
 20
-129.3175157011776
 97
        0
 97
        0
 75
     2
 76
     1
 98
        0
  0
POLYLINE
  5
C4
330
BC
100
AcDbEntity
  8
_U+30EC_U+30A4_U+30E4_U+30FC 1
370
     0
100
AcDb2dPolyline
 66
     1
 10
0.0
 20
0.0
 30
0.0
  0
VERTEX
  5
C5
330
C4
100
AcDbEntity
  8
_U+30EC_U+30A4_U+30E4_U+30FC 1
370
     0
100
AcDbVertex
100
AcDb2dVertex
 10
64.11408825437078
 20
-128.4777736766479
 30
0.0
  0
VERTEX
  5
C6
330
C4
100
AcDbEntity
  8
_U+30EC_U+30A4_U+30E4_U+30FC 1
370
     0
100
AcDbVertex
100
AcDb2dVertex
 10
63.86242402917328
 20
-128.4777736766479
 30
0.0
  0
VERTEX
  5
C7
330
C4
100
AcDbEntity
  8
_U+30EC_U+30A4_U+30E4_U+30FC 1
370
     0
100
AcDbVertex
100
AcDb2dVertex
 10
63.86242402917328
 20
-128.2087117192499
 30
0.0
  0
VERTEX
  5
C8
330
C4
100
AcDbEntity
  8
_U+30EC_U+30A4_U+30E4_U+30FC 1
370
     0
100
AcDbVertex
100
AcDb2dVertex
 10
64.11408825437078
 20
-128.2087117192499
 30
0.0
  0
VERTEX
  5
C9
330
C4
100
AcDbEntity
  8
_U+30EC_U+30A4_U+30E4_U+30FC 1
370
     0
100
AcDbVertex
100
AcDb2dVertex
 10
64.11408825437078
 20
-128.4777736766479
 30
0.0
  0
SEQEND
  5
CA
330
C4
100
AcDbEntity
  8
_U+30EC_U+30A4_U+30E4_U+30FC 1
370
     0
  0
HATCH
  5
CB
330
BC
100
AcDbEntity
  8
_U+30EC_U+30A4_U+30E4_U+30FC 1
 62
     7
420
 16777215
100
AcDbHatch
 10
0.0
 20
0.0
 30
0.0
210
0.0
220
0.0
230
1.0
  2
SOLID
 70
     1
 71
     0
 91
        1
 92
        1
 93
        4
 72
     1
 10
64.11408825437078
 20
-128.4777736766479
 11
63.86242402917328
 21
-128.4777736766479
 72
     1
 10
63.86242402917328
 20
-128.4777736766479
 11
63.86242402917328
 21
-128.2087117192499
 72
     1
 10
63.86242402917328
 20
-128.2087117192499
 11
64.11408825437078
 21
-128.2087117192499
 72
     1
 10
64.11408825437078
 20
-128.2087117192499
 11
64.11408825437078
 21
-128.4777736766479
 97
        0
 75
     2
 76
     1
 98
        0
  0
SPLINE
  5
CC
330
BC
100
AcDbEntity
  8
_U+30EC_U+30A4_U+30E4_U+30FC 1
370
     0
100
AcDbSpline
210
0.0
220
0.0
230
1.0
 70
    11
 71
     3
 72
    53
 73
    49
 74
     0
 42
0.0000000001
 43
0.0000000001
 12
1.0
 22
0.0
 32
0.0
 13
1.0
 23
0.0
 33
0.0
 40
0.0
 40
0.0
 40
0.0
 40
0.0
 40
1.0
 40
1.0
 40
1.0
 40
2.0
 40
2.0
 40
2.0
 40
3.0
 40
3.0
 40
3.0
 40
4.0
 40
4.0
 40
4.0
 40
5.0
 40
5.0
 40
5.0
 40
6.0
 40
6.0
 40
6.0
 40
7.0
 40
7.0
 40
7.0
 40
8.0
 40
8.0
 40
8.0
 40
9.0
 40
9.0
 40
9.0
 40
10.0
 40
10.0
 40
10.0
 40
11.0
 40
11.0
 40
11.0
 40
12.0
 40
12.0
 40
12.0
 40
13.0
 40
13.0
 40
13.0
 40
14.0
 40
14.0
 40
14.0
 40
15.0
 40
15.0
 40
15.0
 40
16.0
 40
16.0
 40
16.0
 40
16.0
 10
64.16490341277822
 20
-127.4418334642333
 30
0.0
 10
64.16490341277822
 20
-127.5252047749763
 30
0.0
 10
64.14802244490049
 20
-127.6340697923102
 30
0.0
 10
64.08446043319763
 20
-127.7422457905471
 30
0.0
 10
63.9743896324439
 20
-127.927936437202
 30
0.0
 10
63.84330374923015
 20
-127.9503295578562
 30
0.0
 10
63.73547226054183
 20
-127.9706556212192
 30
0.0
 10
63.73547226054183
 20
-127.9706556212192
 30
0.0
 10
63.73547226054183
 20
-127.7332885422854
 30
0.0
 10
63.73547226054183
 20
-127.7332885422854
 30
0.0
 10
63.93425427004075
 20
-127.6747219190362
 30
0.0
 10
63.9638820912139
 20
-127.5389851569173
 30
0.0
 10
63.9638820912139
 20
-127.4394218973936
 30
0.0
 10
63.9638820912139
 20
-127.2902492628823
 30
0.0
 10
63.86449108646443
 20
-127.1276407559785
 30
0.0
 10
63.63177488643581
 20
-127.1276407559785
 30
0.0
 10
63.37580429188175
 20
-127.1276407559785
 30
0.0
 10
63.30604110830544
 20
-127.3195325745069
 30
0.0
 10
63.30604110830544
 20
-127.4483791456553
 30
0.0
 10
63.30604110830544
 20
-127.4824855909592
 30
0.0
 10
63.30604110830544
 20
-127.6340697923102
 30
0.0
 10
63.43505993422804
 20
-127.7288099181546
 30
0.0
 10
63.43505993422804
 20
-127.7288099181546
 30
0.0
 10
63.41593965428491
 20
-127.9165676221007
 30
0.0
 10
63.41593965428491
 20
-127.9165676221007
 30
0.0
 10
63.41593965428491
 20
-127.9165676221007
 30
0.0
 10
62.56982420310754
 20
-127.7877210509524
 30
0.0
 10
62.56982420310754
 20
-127.7877210509524
 30
0.0
 10
62.56982420310754
 20
-127.7877210509524
 30
0.0
 10
62.56982420310754
 20
-126.9557304912645
 30
0.0
 10
62.56982420310754
 20
-126.9557304912645
 30
0.0
 10
62.56982420310754
 20
-126.9557304912645
 30
0.0
 10
62.76447209802416
 20
-126.9557304912645
 30
0.0
 10
62.76447209802416
 20
-126.9557304912645
 30
0.0
 10
62.76447209802416
 20
-126.9557304912645
 30
0.0
 10
62.76447209802416
 20
-127.6133992193987
 30
0.0
 10
62.76447209802416
 20
-127.6133992193987
 30
0.0
 10
62.76447209802416
 20
-127.6133992193987
 30
0.0
 10
63.18752982361284
 20
-127.6836791672978
 30
0.0
 10
63.18752982361284
 20
-127.6836791672978
 30
0.0
 10
63.15359563308313
 20
-127.6182223530781
 30
0.0
 10
63.11346027067997
 20
-127.5300279086557
 30
0.0
 10
63.11346027067997
 20
-127.4032483947985
 30
0.0
 10
63.11346027067997
 20
-127.1321193801093
 30
0.0
 10
63.29966768165772
 20
-126.8789048619435
 30
0.0
 10
63.61265460649268
 20
-126.8789048619435
 30
0.0
 10
63.93012015545845
 20
-126.8789048619435
 30
0.0
 10
64.16490341277822
 20
-127.1183389981683
 30
0.0
 10
64.16490341277822
 20
-127.4418334642333
 30
0.0
  0
HATCH
  5
CD
330
BC
100
AcDbEntity
  8
_U+30EC_U+30A4_U+30E4_U+30FC 1
 62
     7
420
 16777215
100
AcDbHatch
 10
0.0
 20
0.0
 30
0.0
210
0.0
220
0.0
230
1.0
  2
SOLID
 70
     1
 71
     0
 91
        1
 92
        1
 93
        1
 72
     4
 94
        3
 73
     0
 74
     1
 95
       53
 96
       49
 40
0.0
 40
0.0
 40
0.0
 40
0.0
 40
1.0
 40
1.0
 40
1.0
 40
2.0
 40
2.0
 40
2.0
 40
3.0
 40
3.0
 40
3.0
 40
4.0
 40
4.0
 40
4.0
 40
5.0
 40
5.0
 40
5.0
 40
6.0
 40
6.0
 40
6.0
 40
7.0
 40
7.0
 40
7.0
 40
8.0
 40
8.0
 40
8.0
 40
9.0
 40
9.0
 40
9.0
 40
10.0
 40
10.0
 40
10.0
 40
11.0
 40
11.0
 40
11.0
 40
12.0
 40
12.0
 40
12.0
 40
13.0
 40
13.0
 40
13.0
 40
14.0
 40
14.0
 40
14.0
 40
15.0
 40
15.0
 40
15.0
 40
16.0
 40
16.0
 40
16.0
 40
16.0
 10
64.16490341277822
 20
-127.4418334642333
 10
64.16490341277822
 20
-127.5252047749763
 10
64.14802244490049
 20
-127.6340697923102
 10
64.08446043319763
 20
-127.7422457905471
 10
63.9743896324439
 20
-127.927936437202
 10
63.84330374923015
 20
-127.9503295578562
 10
63.73547226054183
 20
-127.9706556212192
 10
63.73547226054183
 20
-127.9706556212192
 10
63.73547226054183
 20
-127.7332885422854
 10
63.73547226054183
 20
-127.7332885422854
 10
63.93425427004075
 20
-127.6747219190362
 10
63.9638820912139
 20
-127.5389851569173
 10
63.9638820912139
 20
-127.4394218973936
 10
63.9638820912139
 20
-127.2902492628823
 10
63.86449108646443
 20
-127.1276407559785
 10
63.63177488643581
 20
-127.1276407559785
 10
63.37580429188175
 20
-127.1276407559785
 10
63.30604110830544
 20
-127.3195325745069
 10
63.30604110830544
 20
-127.4483791456553
 10
63.30604110830544
 20
-127.4824855909592
 10
63.30604110830544
 20
-127.6340697923102
 10
63.43505993422804
 20
-127.7288099181546
 10
63.43505993422804
 20
-127.7288099181546
 10
63.41593965428491
 20
-127.9165676221007
 10
63.41593965428491
 20
-127.9165676221007
 10
63.41593965428491
 20
-127.9165676221007
 10
62.56982420310754
 20
-127.7877210509524
 10
62.56982420310754
 20
-127.7877210509524
 10
62.56982420310754
 20
-127.7877210509524
 10
62.56982420310754
 20
-126.9557304912645
 10
62.56982420310754
 20
-126.9557304912645
 10
62.56982420310754
 20
-126.9557304912645
 10
62.76447209802416
 20
-126.9557304912645
 10
62.76447209802416
 20
-126.9557304912645
 10
62.76447209802416
 20
-126.9557304912645
 10
62.76447209802416
 20
-127.6133992193987
 10
62.76447209802416
 20
-127.6133992193987
 10
62.76447209802416
 20
-127.6133992193987
 10
63.18752982361284
 20
-127.6836791672978
 10
63.18752982361284
 20
-127.6836791672978
 10
63.15359563308313
 20
-127.6182223530781
 10
63.11346027067997
 20
-127.5300279086557
 10
63.11346027067997
 20
-127.4032483947985
 10
63.11346027067997
 20
-127.1321193801093
 10
63.29966768165772
 20
-126.8789048619435
 10
63.61265460649268
 20
-126.8789048619435
 10
63.93012015545845
 20
-126.8789048619435
 10
64.16490341277822
 20
-127.1183389981683
 10
64.16490341277822
 20
-127.4418334642333
 97
        0
 97
        0
 75
     2
 76
     1
 98
        0
  0
ENDBLK
  5
BF
330
BC
100
AcDbEntity
  8
0
100
AcDbBlockEnd
  0
BLOCK
  5
DC
330
DA
100
AcDbEntity
  8
0
100
AcDbBlockBegin
  2
block 6
 70
     0
 10
0.0
 20
0.0
 30
0.0
  3
block 6
  1

  0
SPLINE
  5
DE
330
DA
100
AcDbEntity
  8
_U+30EC_U+30A4_U+30E4_U+30FC 1
370
     0
100
AcDbSpline
210
0.0
220
0.0
230
1.0
 70
    11
 71
     3
 72
    62
 73
    58
 74
     0
 42
0.0000000001
 43
0.0000000001
 12
1.0
 22
0.0
 32
0.0
 13
1.0
 23
0.0
 33
0.0
 40
0.0
 40
0.0
 40
0.0
 40
0.0
 40
1.0
 40
1.0
 40
1.0
 40
2.0
 40
2.0
 40
2.0
 40
3.0
 40
3.0
 40
3.0
 40
4.0
 40
4.0
 40
4.0
 40
5.0
 40
5.0
 40
5.0
 40
6.0
 40
6.0
 40
6.0
 40
7.0
 40
7.0
 40
7.0
 40
8.0
 40
8.0
 40
8.0
 40
9.0
 40
9.0
 40
9.0
 40
10.0
 40
10.0
 40
10.0
 40
11.0
 40
11.0
 40
11.0
 40
12.0
 40
12.0
 40
12.0
 40
13.0
 40
13.0
 40
13.0
 40
14.0
 40
14.0
 40
14.0
 40
15.0
 40
15.0
 40
15.0
 40
16.0
 40
16.0
 40
16.0
 40
17.0
 40
17.0
 40
17.0
 40
18.0
 40
18.0
 40
18.0
 40
19.0
 40
19.0
 40
19.0
 40
19.0
 10
82.90071069976094
 20
-148.1749348587896
 30
0.0
 10
82.79908038294607
 20
-148.1749348587896
 30
0.0
 10
82.56619192814318
 20
-148.1539197763296
 30
0.0
 10
82.43286673286401
 20
-147.9678846201261
 30
0.0
 10
82.35362953670327
 20
-147.855574507307
 30
0.0
 10
82.34915091257244
 20
-147.7563557573318
 30
0.0
 10
82.34467228844161
 20
-147.6716064083946
 30
0.0
 10
82.34467228844161
 20
-147.6716064083946
 30
0.0
 10
82.57962780053565
 20
-147.6716064083946
 30
0.0
 10
82.57962780053565
 20
-147.6716064083946
 30
0.0
 10
82.58203936737533
 20
-147.7456759613275
 30
0.0
 10
82.59340818247665
 20
-147.980286963873
 30
0.0
 10
82.89623207563011
 20
-147.980286963873
 30
0.0
 10
83.04333765285028
 20
-147.980286963873
 30
0.0
 10
83.20594615975408
 20
-147.9106960350709
 30
0.0
 10
83.20594615975408
 20
-147.6822862043989
 30
0.0
 10
83.20594615975408
 20
-147.5658419769974
 30
0.0
 10
83.16529403302812
 20
-147.5172661306554
 30
0.0
 10
83.13118758772416
 20
-147.4855712521911
 30
0.0
 10
83.05229490111194
 20
-147.4115016992583
 30
0.0
 10
82.92792695409442
 20
-147.3987548459628
 30
0.0
 10
82.86901582129664
 20
-147.3987548459628
 30
0.0
 10
82.84868975793367
 20
-147.3987548459628
 30
0.0
 10
82.8104491980474
 20
-147.400821903254
 30
0.0
 10
82.78082137687424
 20
-147.4049560178363
 30
0.0
 10
82.78082137687424
 20
-147.4049560178363
 30
0.0
 10
82.78082137687424
 20
-147.2103081229197
 30
0.0
 10
82.78082137687424
 20
-147.2103081229197
 30
0.0
 10
82.82147350360019
 20
-147.2168538043416
 30
0.0
 10
82.86694876400549
 20
-147.2189208616328
 30
0.0
 10
82.87349444542747
 20
-147.2189208616328
 30
0.0
 10
82.94377439332656
 20
-147.2189208616328
 30
0.0
 10
83.15633678476648
 20
-147.1975612696242
 30
0.0
 10
83.15633678476648
 20
-146.9608832097876
 30
0.0
 10
83.15633678476648
 20
-146.7831162827487
 30
0.0
 10
83.0161213985168
 20
-146.7279947549847
 30
0.0
 10
82.89864364246979
 20
-146.7279947549847
 30
0.0
 10
82.61580130313078
 20
-146.7279947549847
 30
0.0
 10
82.60684405486913
 20
-146.9608832097876
 30
0.0
 10
82.6023654307383
 20
-147.0325411958808
 30
0.0
 10
82.6023654307383
 20
-147.0325411958808
 30
0.0
 10
82.38532441516756
 20
-147.0325411958808
 30
0.0
 10
82.38532441516756
 20
-147.0325411958808
 30
0.0
 10
82.39428166342921
 20
-146.9078287393147
 30
0.0
 10
82.42356497505384
 20
-146.5312798027769
 30
0.0
 10
82.91207951486226
 20
-146.5312798027769
 30
0.0
 10
83.15185816063565
 20
-146.5312798027769
 30
0.0
 10
83.40955130293234
 20
-146.6584038261826
 30
0.0
 10
83.40955130293234
 20
-146.9543375283656
 30
0.0
 10
83.40955130293234
 20
-147.1407171941176
 30
0.0
 10
83.30757647656894
 20
-147.2230549762151
 30
0.0
 10
83.20146753562325
 20
-147.2843776758525
 30
0.0
 10
83.266924349843
 20
-147.3119384397345
 30
0.0
 10
83.46157224475961
 20
-147.3922091645408
 30
0.0
 10
83.46157224475961
 20
-147.6695393511035
 30
0.0
 10
83.46157224475961
 20
-148.007847727755
 30
0.0
 10
83.19698891149243
 20
-148.1749348587896
 30
0.0
 10
82.90071069976094
 20
-148.1749348587896
 30
0.0
  0
HATCH
  5
DF
330
DA
100
AcDbEntity
  8
_U+30EC_U+30A4_U+30E4_U+30FC 1
 62
     7
420
 16777215
100
AcDbHatch
 10
0.0
 20
0.0
 30
0.0
210
0.0
220
0.0
230
1.0
  2
SOLID
 70
     1
 71
     0
 91
        1
 92
        1
 93
        1
 72
     4
 94
        3
 73
     0
 74
     1
 95
       62
 96
       58
 40
0.0
 40
0.0
 40
0.0
 40
0.0
 40
1.0
 40
1.0
 40
1.0
 40
2.0
 40
2.0
 40
2.0
 40
3.0
 40
3.0
 40
3.0
 40
4.0
 40
4.0
 40
4.0
 40
5.0
 40
5.0
 40
5.0
 40
6.0
 40
6.0
 40
6.0
 40
7.0
 40
7.0
 40
7.0
 40
8.0
 40
8.0
 40
8.0
 40
9.0
 40
9.0
 40
9.0
 40
10.0
 40
10.0
 40
10.0
 40
11.0
 40
11.0
 40
11.0
 40
12.0
 40
12.0
 40
12.0
 40
13.0
 40
13.0
 40
13.0
 40
14.0
 40
14.0
 40
14.0
 40
15.0
 40
15.0
 40
15.0
 40
16.0
 40
16.0
 40
16.0
 40
17.0
 40
17.0
 40
17.0
 40
18.0
 40
18.0
 40
18.0
 40
19.0
 40
19.0
 40
19.0
 40
19.0
 10
82.90071069976094
 20
-148.1749348587896
 10
82.79908038294607
 20
-148.1749348587896
 10
82.56619192814318
 20
-148.1539197763296
 10
82.43286673286401
 20
-147.9678846201261
 10
82.35362953670327
 20
-147.855574507307
 10
82.34915091257244
 20
-147.7563557573318
 10
82.34467228844161
 20
-147.6716064083946
 10
82.34467228844161
 20
-147.6716064083946
 10
82.57962780053565
 20
-147.6716064083946
 10
82.57962780053565
 20
-147.6716064083946
 10
82.58203936737533
 20
-147.7456759613275
 10
82.59340818247665
 20
-147.980286963873
 10
82.89623207563011
 20
-147.980286963873
 10
83.04333765285028
 20
-147.980286963873
 10
83.20594615975408
 20
-147.9106960350709
 10
83.20594615975408
 20
-147.6822862043989
 10
83.20594615975408
 20
-147.5658419769974
 10
83.16529403302812
 20
-147.5172661306554
 10
83.13118758772416
 20
-147.4855712521911
 10
83.05229490111194
 20
-147.4115016992583
 10
82.92792695409442
 20
-147.3987548459628
 10
82.86901582129664
 20
-147.3987548459628
 10
82.84868975793367
 20
-147.3987548459628
 10
82.8104491980474
 20
-147.400821903254
 10
82.78082137687424
 20
-147.4049560178363
 10
82.78082137687424
 20
-147.4049560178363
 10
82.78082137687424
 20
-147.2103081229197
 10
82.78082137687424
 20
-147.2103081229197
 10
82.82147350360019
 20
-147.2168538043416
 10
82.86694876400549
 20
-147.2189208616328
 10
82.87349444542747
 20
-147.2189208616328
 10
82.94377439332656
 20
-147.2189208616328
 10
83.15633678476648
 20
-147.1975612696242
 10
83.15633678476648
 20
-146.9608832097876
 10
83.15633678476648
 20
-146.7831162827487
 10
83.0161213985168
 20
-146.7279947549847
 10
82.89864364246979
 20
-146.7279947549847
 10
82.61580130313078
 20
-146.7279947549847
 10
82.60684405486913
 20
-146.9608832097876
 10
82.6023654307383
 20
-147.0325411958808
 10
82.6023654307383
 20
-147.0325411958808
 10
82.38532441516756
 20
-147.0325411958808
 10
82.38532441516756
 20
-147.0325411958808
 10
82.39428166342921
 20
-146.9078287393147
 10
82.42356497505384
 20
-146.5312798027769
 10
82.91207951486226
 20
-146.5312798027769
 10
83.15185816063565
 20
-146.5312798027769
 10
83.40955130293234
 20
-146.6584038261826
 10
83.40955130293234
 20
-146.9543375283656
 10
83.40955130293234
 20
-147.1407171941176
 10
83.30757647656894
 20
-147.2230549762151
 10
83.20146753562325
 20
-147.2843776758525
 10
83.266924349843
 20
-147.3119384397345
 10
83.46157224475961
 20
-147.3922091645408
 10
83.46157224475961
 20
-147.6695393511035
 10
83.46157224475961
 20
-148.007847727755
 10
83.19698891149243
 20
-148.1749348587896
 10
82.90071069976094
 20
-148.1749348587896
 97
        0
 97
        0
 75
     2
 76
     1
 98
        0
  0
SPLINE
  5
E0
330
DA
100
AcDbEntity
  8
_U+30EC_U+30A4_U+30E4_U+30FC 1
370
     0
100
AcDbSpline
210
0.0
220
0.0
230
1.0
 70
    11
 71
     3
 72
    26
 73
    22
 74
     0
 42
0.0000000001
 43
0.0000000001
 12
1.0
 22
0.0
 32
0.0
 13
1.0
 23
0.0
 33
0.0
 40
0.0
 40
0.0
 40
0.0
 40
0.0
 40
1.0
 40
1.0
 40
1.0
 40
2.0
 40
2.0
 40
2.0
 40
3.0
 40
3.0
 40
3.0
 40
4.0
 40
4.0
 40
4.0
 40
5.0
 40
5.0
 40
5.0
 40
6.0
 40
6.0
 40
6.0
 40
7.0
 40
7.0
 40
7.0
 40
7.0
 10
84.11545136786003
 20
-148.1242919551564
 30
0.0
 10
84.11545136786003
 20
-148.1242919551564
 30
0.0
 10
84.11545136786003
 20
-147.0201388521339
 30
0.0
 10
84.11545136786003
 20
-147.0201388521339
 30
0.0
 10
84.11545136786003
 20
-147.0201388521339
 30
0.0
 10
83.76301809971898
 20
-147.0201388521339
 30
0.0
 10
83.76301809971898
 20
-147.0201388521339
 30
0.0
 10
83.76301809971898
 20
-147.0201388521339
 30
0.0
 10
83.76301809971898
 20
-146.8719997462681
 30
0.0
 10
83.76301809971898
 20
-146.8719997462681
 30
0.0
 10
84.1178629346997
 20
-146.8571858356815
 30
0.0
 10
84.1674723096873
 20
-146.6942328192292
 30
0.0
 10
84.1991671881516
 20
-146.5798556491189
 30
0.0
 10
84.1991671881516
 20
-146.5798556491189
 30
0.0
 10
84.35523001363342
 20
-146.5798556491189
 30
0.0
 10
84.35523001363342
 20
-146.5798556491189
 30
0.0
 10
84.35523001363342
 20
-146.5798556491189
 30
0.0
 10
84.35523001363342
 20
-148.1242919551564
 30
0.0
 10
84.35523001363342
 20
-148.1242919551564
 30
0.0
 10
84.35523001363342
 20
-148.1242919551564
 30
0.0
 10
84.11545136786003
 20
-148.1242919551564
 30
0.0
 10
84.11545136786003
 20
-148.1242919551564
 30
0.0
  0
HATCH
  5
E1
330
DA
100
AcDbEntity
  8
_U+30EC_U+30A4_U+30E4_U+30FC 1
 62
     7
420
 16777215
100
AcDbHatch
 10
0.0
 20
0.0
 30
0.0
210
0.0
220
0.0
230
1.0
  2
SOLID
 70
     1
 71
     0
 91
        1
 92
        1
 93
        1
 72
     4
 94
        3
 73
     0
 74
     1
 95
       26
 96
       22
 40
0.0
 40
0.0
 40
0.0
 40
0.0
 40
1.0
 40
1.0
 40
1.0
 40
2.0
 40
2.0
 40
2.0
 40
3.0
 40
3.0
 40
3.0
 40
4.0
 40
4.0
 40
4.0
 40
5.0
 40
5.0
 40
5.0
 40
6.0
 40
6.0
 40
6.0
 40
7.0
 40
7.0
 40
7.0
 40
7.0
 10
84.11545136786003
 20
-148.1242919551564
 10
84.11545136786003
 20
-148.1242919551564
 10
84.11545136786003
 20
-147.0201388521339
 10
84.11545136786003
 20
-147.0201388521339
 10
84.11545136786003
 20
-147.0201388521339
 10
83.76301809971898
 20
-147.0201388521339
 10
83.76301809971898
 20
-147.0201388521339
 10
83.76301809971898
 20
-147.0201388521339
 10
83.76301809971898
 20
-146.8719997462681
 10
83.76301809971898
 20
-146.8719997462681
 10
84.1178629346997
 20
-146.8571858356815
 10
84.1674723096873
 20
-146.6942328192292
 10
84.1991671881516
 20
-146.5798556491189
 10
84.1991671881516
 20
-146.5798556491189
 10
84.35523001363342
 20
-146.5798556491189
 10
84.35523001363342
 20
-146.5798556491189
 10
84.35523001363342
 20
-146.5798556491189
 10
84.35523001363342
 20
-148.1242919551564
 10
84.35523001363342
 20
-148.1242919551564
 10
84.35523001363342
 20
-148.1242919551564
 10
84.11545136786003
 20
-148.1242919551564
 10
84.11545136786003
 20
-148.1242919551564
 97
        0
 97
        0
 75
     2
 76
     1
 98
        0
  0
POLYLINE
  5
E2
330
DA
100
AcDbEntity
  8
_U+30EC_U+30A4_U+30E4_U+30FC 1
370
     0
100
AcDb2dPolyline
 66
     1
 10
0.0
 20
0.0
 30
0.0
  0
VERTEX
  5
E3
330
E2
100
AcDbEntity
  8
_U+30EC_U+30A4_U+30E4_U+30FC 1
370
     0
100
AcDbVertex
100
AcDb2dVertex
 10
84.95502113761542
 20
-148.1242919551564
 30
0.0
  0
VERTEX
  5
E4
330
E2
100
AcDbEntity
  8
_U+30EC_U+30A4_U+30E4_U+30FC 1
370
     0
100
AcDbVertex
100
AcDb2dVertex
 10
84.95502113761542
 20
-147.8724554751847
 30
0.0
  0
VERTEX
  5
E5
330
E2
100
AcDbEntity
  8
_U+30EC_U+30A4_U+30E4_U+30FC 1
370
     0
100
AcDbVertex
100
AcDb2dVertex
 10
85.22408309501343
 20
-147.8724554751847
 30
0.0
  0
VERTEX
  5
E6
330
E2
100
AcDbEntity
  8
_U+30EC_U+30A4_U+30E4_U+30FC 1
370
     0
100
AcDbVertex
100
AcDb2dVertex
 10
85.22408309501343
 20
-148.1242919551564
 30
0.0
  0
VERTEX
  5
E7
330
E2
100
AcDbEntity
  8
_U+30EC_U+30A4_U+30E4_U+30FC 1
370
     0
100
AcDbVertex
100
AcDb2dVertex
 10
84.95502113761542
 20
-148.1242919551564
 30
0.0
  0
SEQEND
  5
E8
330
E2
100
AcDbEntity
  8
_U+30EC_U+30A4_U+30E4_U+30FC 1
370
     0
  0
HATCH
  5
E9
330
DA
100
AcDbEntity
  8
_U+30EC_U+30A4_U+30E4_U+30FC 1
 62
     7
420
 16777215
100
AcDbHatch
 10
0.0
 20
0.0
 30
0.0
210
0.0
220
0.0
230
1.0
  2
SOLID
 70
     1
 71
     0
 91
        1
 92
        1
 93
        4
 72
     1
 10
84.95502113761542
 20
-148.1242919551564
 11
84.95502113761542
 21
-147.8724554751847
 72
     1
 10
84.95502113761542
 20
-147.8724554751847
 11
85.22408309501343
 21
-147.8724554751847
 72
     1
 10
85.22408309501343
 20
-147.8724554751847
 11
85.22408309501343
 21
-148.1242919551564
 72
     1
 10
85.22408309501343
 20
-148.1242919551564
 11
84.95502113761542
 21
-148.1242919551564
 97
        0
 75
     2
 76
     1
 98
        0
  0
SPLINE
  5
EA
330
DA
100
AcDbEntity
  8
_U+30EC_U+30A4_U+30E4_U+30FC 1
370
     0
100
AcDbSpline
210
0.0
220
0.0
230
1.0
 70
    11
 71
     3
 72
    53
 73
    49
 74
     0
 42
0.0000000001
 43
0.0000000001
 12
1.0
 22
0.0
 32
0.0
 13
1.0
 23
0.0
 33
0.0
 40
0.0
 40
0.0
 40
0.0
 40
0.0
 40
1.0
 40
1.0
 40
1.0
 40
2.0
 40
2.0
 40
2.0
 40
3.0
 40
3.0
 40
3.0
 40
4.0
 40
4.0
 40
4.0
 40
5.0
 40
5.0
 40
5.0
 40
6.0
 40
6.0
 40
6.0
 40
7.0
 40
7.0
 40
7.0
 40
8.0
 40
8.0
 40
8.0
 40
9.0
 40
9.0
 40
9.0
 40
10.0
 40
10.0
 40
10.0
 40
11.0
 40
11.0
 40
11.0
 40
12.0
 40
12.0
 40
12.0
 40
13.0
 40
13.0
 40
13.0
 40
14.0
 40
14.0
 40
14.0
 40
15.0
 40
15.0
 40
15.0
 40
16.0
 40
16.0
 40
16.0
 40
16.0
 10
85.99096135003005
 20
-148.1749348587896
 30
0.0
 10
85.90724552973847
 20
-148.1749348587896
 30
0.0
 10
85.79906953150163
 20
-148.1580538909119
 30
0.0
 10
85.69020451416773
 20
-148.0946641339833
 30
0.0
 10
85.50485837706128
 20
-147.9847655880038
 30
0.0
 10
85.48246525640717
 20
-147.8535074500158
 30
0.0
 10
85.4621391930442
 20
-147.7456759613275
 30
0.0
 10
85.4621391930442
 20
-147.7456759613275
 30
0.0
 10
85.69950627197791
 20
-147.7456759613275
 30
0.0
 10
85.69950627197791
 20
-147.7456759613275
 30
0.0
 10
85.75807289522716
 20
-147.9444579708264
 30
0.0
 10
85.893809657346
 20
-147.9740857919995
 30
0.0
 10
85.99337291686972
 20
-147.9740857919995
 30
0.0
 10
86.14254555138103
 20
-147.9740857919995
 30
0.0
 10
86.30549856783335
 20
-147.8745225324758
 30
0.0
 10
86.30549856783335
 20
-147.6419785872214
 30
0.0
 10
86.30549856783335
 20
-147.3860079926674
 30
0.0
 10
86.11326223975641
 20
-147.3160725543168
 30
0.0
 10
85.98441566860807
 20
-147.3160725543168
 30
0.0
 10
85.95030922330409
 20
-147.3160725543168
 30
0.0
 10
85.79906953150163
 20
-147.3160725543168
 30
0.0
 10
85.70398489610874
 20
-147.4452636350137
 30
0.0
 10
85.70398489610874
 20
-147.4452636350137
 30
0.0
 10
85.51622719216262
 20
-147.4263156098448
 30
0.0
 10
85.51622719216262
 20
-147.4263156098448
 30
0.0
 10
85.51622719216262
 20
-147.4263156098448
 30
0.0
 10
85.64507376331096
 20
-146.5798556491189
 30
0.0
 10
85.64507376331096
 20
-146.5798556491189
 30
0.0
 10
85.64507376331096
 20
-146.5798556491189
 30
0.0
 10
86.4770643229988
 20
-146.5798556491189
 30
0.0
 10
86.4770643229988
 20
-146.5798556491189
 30
0.0
 10
86.4770643229988
 20
-146.5798556491189
 30
0.0
 10
86.4770643229988
 20
-146.7745035440356
 30
0.0
 10
86.4770643229988
 20
-146.7745035440356
 30
0.0
 10
86.4770643229988
 20
-146.7745035440356
 30
0.0
 10
85.8193955948646
 20
-146.7745035440356
 30
0.0
 10
85.8193955948646
 20
-146.7745035440356
 30
0.0
 10
85.8193955948646
 20
-146.7745035440356
 30
0.0
 10
85.7491156469655
 20
-147.1975612696242
 30
0.0
 10
85.7491156469655
 20
-147.1975612696242
 30
0.0
 10
85.81457246118525
 20
-147.1637993338688
 30
0.0
 10
85.90276690560765
 20
-147.1234917166913
 30
0.0
 10
86.02954641946484
 20
-147.1234917166913
 30
0.0
 10
86.300675434154
 20
-147.1234917166913
 30
0.0
 10
86.55388995231986
 20
-147.3098713824434
 30
0.0
 10
86.55388995231986
 20
-147.6230305620526
 30
0.0
 10
86.55388995231986
 20
-147.9403238562441
 30
0.0
 10
86.314455816095
 20
-148.1749348587896
 30
0.0
 10
85.99096135003005
 20
-148.1749348587896
 30
0.0
  0
HATCH
  5
EB
330
DA
100
AcDbEntity
  8
_U+30EC_U+30A4_U+30E4_U+30FC 1
 62
     7
420
 16777215
100
AcDbHatch
 10
0.0
 20
0.0
 30
0.0
210
0.0
220
0.0
230
1.0
  2
SOLID
 70
     1
 71
     0
 91
        1
 92
        1
 93
        1
 72
     4
 94
        3
 73
     0
 74
     1
 95
       53
 96
       49
 40
0.0
 40
0.0
 40
0.0
 40
0.0
 40
1.0
 40
1.0
 40
1.0
 40
2.0
 40
2.0
 40
2.0
 40
3.0
 40
3.0
 40
3.0
 40
4.0
 40
4.0
 40
4.0
 40
5.0
 40
5.0
 40
5.0
 40
6.0
 40
6.0
 40
6.0
 40
7.0
 40
7.0
 40
7.0
 40
8.0
 40
8.0
 40
8.0
 40
9.0
 40
9.0
 40
9.0
 40
10.0
 40
10.0
 40
10.0
 40
11.0
 40
11.0
 40
11.0
 40
12.0
 40
12.0
 40
12.0
 40
13.0
 40
13.0
 40
13.0
 40
14.0
 40
14.0
 40
14.0
 40
15.0
 40
15.0
 40
15.0
 40
16.0
 40
16.0
 40
16.0
 40
16.0
 10
85.99096135003005
 20
-148.1749348587896
 10
85.90724552973847
 20
-148.1749348587896
 10
85.79906953150163
 20
-148.1580538909119
 10
85.69020451416773
 20
-148.0946641339833
 10
85.50485837706128
 20
-147.9847655880038
 10
85.48246525640717
 20
-147.8535074500158
 10
85.4621391930442
 20
-147.7456759613275
 10
85.4621391930442
 20
-147.7456759613275
 10
85.69950627197791
 20
-147.7456759613275
 10
85.69950627197791
 20
-147.7456759613275
 10
85.75807289522716
 20
-147.9444579708264
 10
85.893809657346
 20
-147.9740857919995
 10
85.99337291686972
 20
-147.9740857919995
 10
86.14254555138103
 20
-147.9740857919995
 10
86.30549856783335
 20
-147.8745225324758
 10
86.30549856783335
 20
-147.6419785872214
 10
86.30549856783335
 20
-147.3860079926674
 10
86.11326223975641
 20
-147.3160725543168
 10
85.98441566860807
 20
-147.3160725543168
 10
85.95030922330409
 20
-147.3160725543168
 10
85.79906953150163
 20
-147.3160725543168
 10
85.70398489610874
 20
-147.4452636350137
 10
85.70398489610874
 20
-147.4452636350137
 10
85.51622719216262
 20
-147.4263156098448
 10
85.51622719216262
 20
-147.4263156098448
 10
85.51622719216262
 20
-147.4263156098448
 10
85.64507376331096
 20
-146.5798556491189
 10
85.64507376331096
 20
-146.5798556491189
 10
85.64507376331096
 20
-146.5798556491189
 10
86.4770643229988
 20
-146.5798556491189
 10
86.4770643229988
 20
-146.5798556491189
 10
86.4770643229988
 20
-146.5798556491189
 10
86.4770643229988
 20
-146.7745035440356
 10
86.4770643229988
 20
-146.7745035440356
 10
86.4770643229988
 20
-146.7745035440356
 10
85.8193955948646
 20
-146.7745035440356
 10
85.8193955948646
 20
-146.7745035440356
 10
85.8193955948646
 20
-146.7745035440356
 10
85.7491156469655
 20
-147.1975612696242
 10
85.7491156469655
 20
-147.1975612696242
 10
85.81457246118525
 20
-147.1637993338688
 10
85.90276690560765
 20
-147.1234917166913
 10
86.02954641946484
 20
-147.1234917166913
 10
86.300675434154
 20
-147.1234917166913
 10
86.55388995231986
 20
-147.3098713824434
 10
86.55388995231986
 20
-147.6230305620526
 10
86.55388995231986
 20
-147.9403238562441
 10
86.314455816095
 20
-148.1749348587896
 10
85.99096135003005
 20
-148.1749348587896
 97
        0
 97
        0
 75
     2
 76
     1
 98
        0
  0
ENDBLK
  5
DD
330
DA
100
AcDbEntity
  8
0
100
AcDbBlockEnd
  0
BLOCK
  5
FA
330
F8
100
AcDbEntity
  8
0
100
AcDbBlockBegin
  2
block 7
 70
     0
 10
0.0
 20
0.0
 30
0.0
  3
block 7
  1

  0
SPLINE
  5
FC
330
F8
100
AcDbEntity
  8
_U+30EC_U+30A4_U+30E4_U+30FC 1
370
     0
100
AcDbSpline
210
0.0
220
0.0
230
1.0
 70
    11
 71
     3
 72
    44
 73
    40
 74
     0
 42
0.0000000001
 43
0.0000000001
 12
1.0
 22
0.0
 32
0.0
 13
1.0
 23
0.0
 33
0.0
 40
0.0
 40
0.0
 40
0.0
 40
0.0
 40
1.0
 40
1.0
 40
1.0
 40
2.0
 40
2.0
 40
2.0
 40
3.0
 40
3.0
 40
3.0
 40
4.0
 40
4.0
 40
4.0
 40
5.0
 40
5.0
 40
5.0
 40
6.0
 40
6.0
 40
6.0
 40
7.0
 40
7.0
 40
7.0
 40
8.0
 40
8.0
 40
8.0
 40
9.0
 40
9.0
 40
9.0
 40
10.0
 40
10.0
 40
10.0
 40
11.0
 40
11.0
 40
11.0
 40
12.0
 40
12.0
 40
12.0
 40
13.0
 40
13.0
 40
13.0
 40
13.0
 10
105.5325764710127
 20
-134.4228027007693
 30
0.0
 10
105.6913953728827
 20
-134.6556911555722
 30
0.0
 10
105.7654649258156
 20
-134.7552544150959
 30
0.0
 10
105.9091254075505
 20
-134.8069308473747
 30
0.0
 10
105.9091254075505
 20
-134.8069308473747
 30
0.0
 10
105.9091254075505
 20
-133.9752847972354
 30
0.0
 10
105.9091254075505
 20
-133.9752847972354
 30
0.0
 10
105.9091254075505
 20
-133.9752847972354
 30
0.0
 10
106.1144530984714
 20
-133.9752847972354
 30
0.0
 10
106.1144530984714
 20
-133.9752847972354
 30
0.0
 10
106.1144530984714
 20
-133.9752847972354
 30
0.0
 10
106.1144530984714
 20
-135.0739257474815
 30
0.0
 10
106.1144530984714
 20
-135.0739257474815
 30
0.0
 10
105.7568521871025
 20
-135.0398193021776
 30
0.0
 10
105.6786485195873
 20
-134.969883863827
 30
0.0
 10
105.3803032505647
 20
-134.5585394628881
 30
0.0
 10
105.1815212410657
 20
-134.2849988813593
 30
0.0
 10
105.1136528600063
 20
-134.2147189334602
 30
0.0
 10
104.9761935501448
 20
-134.2147189334602
 30
0.0
 10
104.8576822654523
 20
-134.2147189334602
 30
0.0
 10
104.7267686370128
 20
-134.2915445627813
 30
0.0
 10
104.7267686370128
 20
-134.5020398969301
 30
0.0
 10
104.7267686370128
 20
-134.7800591025897
 30
0.0
 10
104.957245524976
 20
-134.7890163508514
 30
0.0
 10
105.0736897523774
 20
-134.7934949749822
 30
0.0
 10
105.0736897523774
 20
-134.7934949749822
 30
0.0
 10
105.0736897523774
 20
-135.0332736207556
 30
0.0
 10
105.0736897523774
 20
-135.0332736207556
 30
0.0
 10
104.9465657289717
 20
-135.0239718629454
 30
0.0
 10
104.8346001257011
 20
-135.0129475573926
 30
0.0
 10
104.7160888410085
 20
-134.9268201702614
 30
0.0
 10
104.5552028818473
 20
-134.8093424142143
 30
0.0
 10
104.5214409460919
 20
-134.6105604047154
 30
0.0
 10
104.5214409460919
 20
-134.4861924576979
 30
0.0
 10
104.5214409460919
 20
-134.1899142459664
 30
0.0
 10
104.7054090450042
 20
-133.9683946062649
 30
0.0
 10
104.978260607436
 20
-133.9683946062649
 30
0.0
 10
105.2070149476566
 20
-133.9683946062649
 30
0.0
 10
105.3062336976318
 20
-134.0927625532824
 30
0.0
 10
105.5325764710127
 20
-134.4228027007693
 30
0.0
  0
HATCH
  5
FD
330
F8
100
AcDbEntity
  8
_U+30EC_U+30A4_U+30E4_U+30FC 1
 62
     7
420
 16777215
100
AcDbHatch
 10
0.0
 20
0.0
 30
0.0
210
0.0
220
0.0
230
1.0
  2
SOLID
 70
     1
 71
     0
 91
        1
 92
        1
 93
        1
 72
     4
 94
        3
 73
     0
 74
     1
 95
       44
 96
       40
 40
0.0
 40
0.0
 40
0.0
 40
0.0
 40
1.0
 40
1.0
 40
1.0
 40
2.0
 40
2.0
 40
2.0
 40
3.0
 40
3.0
 40
3.0
 40
4.0
 40
4.0
 40
4.0
 40
5.0
 40
5.0
 40
5.0
 40
6.0
 40
6.0
 40
6.0
 40
7.0
 40
7.0
 40
7.0
 40
8.0
 40
8.0
 40
8.0
 40
9.0
 40
9.0
 40
9.0
 40
10.0
 40
10.0
 40
10.0
 40
11.0
 40
11.0
 40
11.0
 40
12.0
 40
12.0
 40
12.0
 40
13.0
 40
13.0
 40
13.0
 40
13.0
 10
105.5325764710127
 20
-134.4228027007693
 10
105.6913953728827
 20
-134.6556911555722
 10
105.7654649258156
 20
-134.7552544150959
 10
105.9091254075505
 20
-134.8069308473747
 10
105.9091254075505
 20
-134.8069308473747
 10
105.9091254075505
 20
-133.9752847972354
 10
105.9091254075505
 20
-133.9752847972354
 10
105.9091254075505
 20
-133.9752847972354
 10
106.1144530984714
 20
-133.9752847972354
 10
106.1144530984714
 20
-133.9752847972354
 10
106.1144530984714
 20
-133.9752847972354
 10
106.1144530984714
 20
-135.0739257474815
 10
106.1144530984714
 20
-135.0739257474815
 10
105.7568521871025
 20
-135.0398193021776
 10
105.6786485195873
 20
-134.969883863827
 10
105.3803032505647
 20
-134.5585394628881
 10
105.1815212410657
 20
-134.2849988813593
 10
105.1136528600063
 20
-134.2147189334602
 10
104.9761935501448
 20
-134.2147189334602
 10
104.8576822654523
 20
-134.2147189334602
 10
104.7267686370128
 20
-134.2915445627813
 10
104.7267686370128
 20
-134.5020398969301
 10
104.7267686370128
 20
-134.7800591025897
 10
104.957245524976
 20
-134.7890163508514
 10
105.0736897523774
 20
-134.7934949749822
 10
105.0736897523774
 20
-134.7934949749822
 10
105.0736897523774
 20
-135.0332736207556
 10
105.0736897523774
 20
-135.0332736207556
 10
104.9465657289717
 20
-135.0239718629454
 10
104.8346001257011
 20
-135.0129475573926
 10
104.7160888410085
 20
-134.9268201702614
 10
104.5552028818473
 20
-134.8093424142143
 10
104.5214409460919
 20
-134.6105604047154
 10
104.5214409460919
 20
-134.4861924576979
 10
104.5214409460919
 20
-134.1899142459664
 10
104.7054090450042
 20
-133.9683946062649
 10
104.978260607436
 20
-133.9683946062649
 10
105.2070149476566
 20
-133.9683946062649
 10
105.3062336976318
 20
-134.0927625532824
 10
105.5325764710127
 20
-134.4228027007693
 97
        0
 97
        0
 75
     2
 76
     1
 98
        0
  0
SPLINE
  5
FE
330
F8
100
AcDbEntity
  8
_U+30EC_U+30A4_U+30E4_U+30FC 1
370
     0
100
AcDbSpline
210
0.0
220
0.0
230
1.0
 70
    11
 71
     3
 72
    26
 73
    22
 74
     0
 42
0.0000000001
 43
0.0000000001
 12
1.0
 22
0.0
 32
0.0
 13
1.0
 23
0.0
 33
0.0
 40
0.0
 40
0.0
 40
0.0
 40
0.0
 40
1.0
 40
1.0
 40
1.0
 40
2.0
 40
2.0
 40
2.0
 40
3.0
 40
3.0
 40
3.0
 40
4.0
 40
4.0
 40
4.0
 40
5.0
 40
5.0
 40
5.0
 40
6.0
 40
6.0
 40
6.0
 40
7.0
 40
7.0
 40
7.0
 40
7.0
 10
106.1144530984714
 20
-133.3165825404556
 30
0.0
 10
106.1144530984714
 20
-133.3165825404556
 30
0.0
 10
105.0102999954488
 20
-133.3165825404556
 30
0.0
 10
105.0102999954488
 20
-133.3165825404556
 30
0.0
 10
105.0102999954488
 20
-133.3165825404556
 30
0.0
 10
105.0102999954488
 20
-133.6690158085966
 30
0.0
 10
105.0102999954488
 20
-133.6690158085966
 30
0.0
 10
105.0102999954488
 20
-133.6690158085966
 30
0.0
 10
104.8621608895831
 20
-133.6690158085966
 30
0.0
 10
104.8621608895831
 20
-133.6690158085966
 30
0.0
 10
104.8473469789965
 20
-133.3141709736159
 30
0.0
 10
104.6843939625442
 20
-133.2645615986283
 30
0.0
 10
104.5700167924339
 20
-133.232866720164
 30
0.0
 10
104.5700167924339
 20
-133.232866720164
 30
0.0
 10
104.5700167924339
 20
-133.0768038946822
 30
0.0
 10
104.5700167924339
 20
-133.0768038946822
 30
0.0
 10
104.5700167924339
 20
-133.0768038946822
 30
0.0
 10
106.1144530984714
 20
-133.0768038946822
 30
0.0
 10
106.1144530984714
 20
-133.0768038946822
 30
0.0
 10
106.1144530984714
 20
-133.0768038946822
 30
0.0
 10
106.1144530984714
 20
-133.3165825404556
 30
0.0
 10
106.1144530984714
 20
-133.3165825404556
 30
0.0
  0
HATCH
  5
FF
330
F8
100
AcDbEntity
  8
_U+30EC_U+30A4_U+30E4_U+30FC 1
 62
     7
420
 16777215
100
AcDbHatch
 10
0.0
 20
0.0
 30
0.0
210
0.0
220
0.0
230
1.0
  2
SOLID
 70
     1
 71
     0
 91
        1
 92
        1
 93
        1
 72
     4
 94
        3
 73
     0
 74
     1
 95
       26
 96
       22
 40
0.0
 40
0.0
 40
0.0
 40
0.0
 40
1.0
 40
1.0
 40
1.0
 40
2.0
 40
2.0
 40
2.0
 40
3.0
 40
3.0
 40
3.0
 40
4.0
 40
4.0
 40
4.0
 40
5.0
 40
5.0
 40
5.0
 40
6.0
 40
6.0
 40
6.0
 40
7.0
 40
7.0
 40
7.0
 40
7.0
 10
106.1144530984714
 20
-133.3165825404556
 10
106.1144530984714
 20
-133.3165825404556
 10
105.0102999954488
 20
-133.3165825404556
 10
105.0102999954488
 20
-133.3165825404556
 10
105.0102999954488
 20
-133.3165825404556
 10
105.0102999954488
 20
-133.6690158085966
 10
105.0102999954488
 20
-133.6690158085966
 10
105.0102999954488
 20
-133.6690158085966
 10
104.8621608895831
 20
-133.6690158085966
 10
104.8621608895831
 20
-133.6690158085966
 10
104.8473469789965
 20
-133.3141709736159
 10
104.6843939625442
 20
-133.2645615986283
 10
104.5700167924339
 20
-133.232866720164
 10
104.5700167924339
 20
-133.232866720164
 10
104.5700167924339
 20
-133.0768038946822
 10
104.5700167924339
 20
-133.0768038946822
 10
104.5700167924339
 20
-133.0768038946822
 10
106.1144530984714
 20
-133.0768038946822
 10
106.1144530984714
 20
-133.0768038946822
 10
106.1144530984714
 20
-133.0768038946822
 10
106.1144530984714
 20
-133.3165825404556
 10
106.1144530984714
 20
-133.3165825404556
 97
        0
 97
        0
 75
     2
 76
     1
 98
        0
  0
POLYLINE
  5
100
330
F8
100
AcDbEntity
  8
_U+30EC_U+30A4_U+30E4_U+30FC 1
370
     0
100
AcDb2dPolyline
 66
     1
 10
0.0
 20
0.0
 30
0.0
  0
VERTEX
  5
101
330
100
100
AcDbEntity
  8
_U+30EC_U+30A4_U+30E4_U+30FC 1
370
     0
100
AcDbVertex
100
AcDb2dVertex
 10
106.1144530984714
 20
-132.4770127707002
 30
0.0
  0
VERTEX
  5
102
330
100
100
AcDbEntity
  8
_U+30EC_U+30A4_U+30E4_U+30FC 1
370
     0
100
AcDbVertex
100
AcDb2dVertex
 10
105.8626166184996
 20
-132.4770127707002
 30
0.0
  0
VERTEX
  5
103
330
100
100
AcDbEntity
  8
_U+30EC_U+30A4_U+30E4_U+30FC 1
370
     0
100
AcDbVertex
100
AcDb2dVertex
 10
105.8626166184996
 20
-132.2079508133022
 30
0.0
  0
VERTEX
  5
104
330
100
100
AcDbEntity
  8
_U+30EC_U+30A4_U+30E4_U+30FC 1
370
     0
100
AcDbVertex
100
AcDb2dVertex
 10
106.1144530984714
 20
-132.2079508133022
 30
0.0
  0
VERTEX
  5
105
330
100
100
AcDbEntity
  8
_U+30EC_U+30A4_U+30E4_U+30FC 1
370
     0
100
AcDbVertex
100
AcDb2dVertex
 10
106.1144530984714
 20
-132.4770127707002
 30
0.0
  0
SEQEND
  5
106
330
100
100
AcDbEntity
  8
_U+30EC_U+30A4_U+30E4_U+30FC 1
370
     0
  0
HATCH
  5
107
330
F8
100
AcDbEntity
  8
_U+30EC_U+30A4_U+30E4_U+30FC 1
 62
     7
420
 16777215
100
AcDbHatch
 10
0.0
 20
0.0
 30
0.0
210
0.0
220
0.0
230
1.0
  2
SOLID
 70
     1
 71
     0
 91
        1
 92
        1
 93
        4
 72
     1
 10
106.1144530984714
 20
-132.4770127707002
 11
105.8626166184996
 21
-132.4770127707002
 72
     1
 10
105.8626166184996
 20
-132.4770127707002
 11
105.8626166184996
 21
-132.2079508133022
 72
     1
 10
105.8626166184996
 20
-132.2079508133022
 11
106.1144530984714
 21
-132.2079508133022
 72
     1
 10
106.1144530984714
 20
-132.2079508133022
 11
106.1144530984714
 21
-132.4770127707002
 97
        0
 75
     2
 76
     1
 98
        0
  0
SPLINE
  5
108
330
F8
100
AcDbEntity
  8
_U+30EC_U+30A4_U+30E4_U+30FC 1
370
     0
100
AcDbSpline
210
0.0
220
0.0
230
1.0
 70
    11
 71
     3
 72
    53
 73
    49
 74
     0
 42
0.0000000001
 43
0.0000000001
 12
1.0
 22
0.0
 32
0.0
 13
1.0
 23
0.0
 33
0.0
 40
0.0
 40
0.0
 40
0.0
 40
0.0
 40
1.0
 40
1.0
 40
1.0
 40
2.0
 40
2.0
 40
2.0
 40
3.0
 40
3.0
 40
3.0
 40
4.0
 40
4.0
 40
4.0
 40
5.0
 40
5.0
 40
5.0
 40
6.0
 40
6.0
 40
6.0
 40
7.0
 40
7.0
 40
7.0
 40
8.0
 40
8.0
 40
8.0
 40
9.0
 40
9.0
 40
9.0
 40
10.0
 40
10.0
 40
10.0
 40
11.0
 40
11.0
 40
11.0
 40
12.0
 40
12.0
 40
12.0
 40
13.0
 40
13.0
 40
13.0
 40
14.0
 40
14.0
 40
14.0
 40
15.0
 40
15.0
 40
15.0
 40
16.0
 40
16.0
 40
16.0
 40
16.0
 10
106.1650960021046
 20
-131.4410725582856
 30
0.0
 10
106.1650960021046
 20
-131.5244438690286
 30
0.0
 10
106.1482150342268
 20
-131.6333088863625
 30
0.0
 10
106.0848252772982
 20
-131.7414848845993
 30
0.0
 10
105.9749267313188
 20
-131.9271755312543
 30
0.0
 10
105.8436685933307
 20
-131.9495686519084
 30
0.0
 10
105.7358371046424
 20
-131.9698947152714
 30
0.0
 10
105.7358371046424
 20
-131.9698947152714
 30
0.0
 10
105.7358371046424
 20
-131.7325276363377
 30
0.0
 10
105.7358371046424
 20
-131.7325276363377
 30
0.0
 10
105.9346191141414
 20
-131.6739610130885
 30
0.0
 10
105.9642469353145
 20
-131.5382242509696
 30
0.0
 10
105.9642469353145
 20
-131.4386609914459
 30
0.0
 10
105.9642469353145
 20
-131.2894883569346
 30
0.0
 10
105.8646836757908
 20
-131.1268798500308
 30
0.0
 10
105.6321397305364
 20
-131.1268798500308
 30
0.0
 10
105.3761691359824
 20
-131.1268798500308
 30
0.0
 10
105.3062336976318
 20
-131.3187716685592
 30
0.0
 10
105.3062336976318
 20
-131.4476182397075
 30
0.0
 10
105.3062336976318
 20
-131.4817246850115
 30
0.0
 10
105.3062336976318
 20
-131.6333088863625
 30
0.0
 10
105.4354247783287
 20
-131.7280490122069
 30
0.0
 10
105.4354247783287
 20
-131.7280490122069
 30
0.0
 10
105.4164767531598
 20
-131.915806716153
 30
0.0
 10
105.4164767531598
 20
-131.915806716153
 30
0.0
 10
105.4164767531598
 20
-131.915806716153
 30
0.0
 10
104.5700167924339
 20
-131.7869601450047
 30
0.0
 10
104.5700167924339
 20
-131.7869601450047
 30
0.0
 10
104.5700167924339
 20
-131.7869601450047
 30
0.0
 10
104.5700167924339
 20
-130.9549695853168
 30
0.0
 10
104.5700167924339
 20
-130.9549695853168
 30
0.0
 10
104.5700167924339
 20
-130.9549695853168
 30
0.0
 10
104.7646646873505
 20
-130.9549695853168
 30
0.0
 10
104.7646646873505
 20
-130.9549695853168
 30
0.0
 10
104.7646646873505
 20
-130.9549695853168
 30
0.0
 10
104.7646646873505
 20
-131.612638313451
 30
0.0
 10
104.7646646873505
 20
-131.612638313451
 30
0.0
 10
104.7646646873505
 20
-131.612638313451
 30
0.0
 10
105.1877224129392
 20
-131.6829182613501
 30
0.0
 10
105.1877224129392
 20
-131.6829182613501
 30
0.0
 10
105.1539604771837
 20
-131.6174614471304
 30
0.0
 10
105.1136528600063
 20
-131.529267002708
 30
0.0
 10
105.1136528600063
 20
-131.4024874888508
 30
0.0
 10
105.1136528600063
 20
-131.1313584741616
 30
0.0
 10
105.3000325257583
 20
-130.8781439559957
 30
0.0
 10
105.6131917053675
 20
-130.8781439559957
 30
0.0
 10
105.9304849995591
 20
-130.8781439559957
 30
0.0
 10
106.1650960021046
 20
-131.1175780922206
 30
0.0
 10
106.1650960021046
 20
-131.4410725582856
 30
0.0
  0
HATCH
  5
109
330
F8
100
AcDbEntity
  8
_U+30EC_U+30A4_U+30E4_U+30FC 1
 62
     7
420
 16777215
100
AcDbHatch
 10
0.0
 20
0.0
 30
0.0
210
0.0
220
0.0
230
1.0
  2
SOLID
 70
     1
 71
     0
 91
        1
 92
        1
 93
        1
 72
     4
 94
        3
 73
     0
 74
     1
 95
       53
 96
       49
 40
0.0
 40
0.0
 40
0.0
 40
0.0
 40
1.0
 40
1.0
 40
1.0
 40
2.0
 40
2.0
 40
2.0
 40
3.0
 40
3.0
 40
3.0
 40
4.0
 40
4.0
 40
4.0
 40
5.0
 40
5.0
 40
5.0
 40
6.0
 40
6.0
 40
6.0
 40
7.0
 40
7.0
 40
7.0
 40
8.0
 40
8.0
 40
8.0
 40
9.0
 40
9.0
 40
9.0
 40
10.0
 40
10.0
 40
10.0
 40
11.0
 40
11.0
 40
11.0
 40
12.0
 40
12.0
 40
12.0
 40
13.0
 40
13.0
 40
13.0
 40
14.0
 40
14.0
 40
14.0
 40
15.0
 40
15.0
 40
15.0
 40
16.0
 40
16.0
 40
16.0
 40
16.0
 10
106.1650960021046
 20
-131.4410725582856
 10
106.1650960021046
 20
-131.5244438690286
 10
106.1482150342268
 20
-131.6333088863625
 10
106.0848252772982
 20
-131.7414848845993
 10
105.9749267313188
 20
-131.9271755312543
 10
105.8436685933307
 20
-131.9495686519084
 10
105.7358371046424
 20
-131.9698947152714
 10
105.7358371046424
 20
-131.9698947152714
 10
105.7358371046424
 20
-131.7325276363377
 10
105.7358371046424
 20
-131.7325276363377
 10
105.9346191141414
 20
-131.6739610130885
 10
105.9642469353145
 20
-131.5382242509696
 10
105.9642469353145
 20
-131.4386609914459
 10
105.9642469353145
 20
-131.2894883569346
 10
105.8646836757908
 20
-131.1268798500308
 10
105.6321397305364
 20
-131.1268798500308
 10
105.3761691359824
 20
-131.1268798500308
 10
105.3062336976318
 20
-131.3187716685592
 10
105.3062336976318
 20
-131.4476182397075
 10
105.3062336976318
 20
-131.4817246850115
 10
105.3062336976318
 20
-131.6333088863625
 10
105.4354247783287
 20
-131.7280490122069
 10
105.4354247783287
 20
-131.7280490122069
 10
105.4164767531598
 20
-131.915806716153
 10
105.4164767531598
 20
-131.915806716153
 10
105.4164767531598
 20
-131.915806716153
 10
104.5700167924339
 20
-131.7869601450047
 10
104.5700167924339
 20
-131.7869601450047
 10
104.5700167924339
 20
-131.7869601450047
 10
104.5700167924339
 20
-130.9549695853168
 10
104.5700167924339
 20
-130.9549695853168
 10
104.5700167924339
 20
-130.9549695853168
 10
104.7646646873505
 20
-130.9549695853168
 10
104.7646646873505
 20
-130.9549695853168
 10
104.7646646873505
 20
-130.9549695853168
 10
104.7646646873505
 20
-131.612638313451
 10
104.7646646873505
 20
-131.612638313451
 10
104.7646646873505
 20
-131.612638313451
 10
105.1877224129392
 20
-131.6829182613501
 10
105.1877224129392
 20
-131.6829182613501
 10
105.1539604771837
 20
-131.6174614471304
 10
105.1136528600063
 20
-131.529267002708
 10
105.1136528600063
 20
-131.4024874888508
 10
105.1136528600063
 20
-131.1313584741616
 10
105.3000325257583
 20
-130.8781439559957
 10
105.6131917053675
 20
-130.8781439559957
 10
105.9304849995591
 20
-130.8781439559957
 10
106.1650960021046
 20
-131.1175780922206
 10
106.1650960021046
 20
-131.4410725582856
 97
        0
 97
        0
 75
     2
 76
     1
 98
        0
  0
ENDBLK
  5
FB
330
F8
100
AcDbEntity
  8
0
100
AcDbBlockEnd
  0
BLOCK
  5
119
330
117
100
AcDbEntity
  8
0
100
AcDbBlockBegin
  2
block 8
 70
     0
 10
0.0
 20
0.0
 30
0.0
  3
block 8
  1

  0
SPLINE
  5
11B
330
117
100
AcDbEntity
  8
_U+30EC_U+30A4_U+30E4_U+30FC 1
370
     0
100
AcDbSpline
210
0.0
220
0.0
230
1.0
 70
    11
 71
     3
 72
    17
 73
    13
 74
     0
 42
0.0000000001
 43
0.0000000001
 12
1.0
 22
0.0
 32
0.0
 13
1.0
 23
0.0
 33
0.0
 40
0.0
 40
0.0
 40
0.0
 40
0.0
 40
1.0
 40
1.0
 40
1.0
 40
2.0
 40
2.0
 40
2.0
 40
3.0
 40
3.0
 40
3.0
 40
4.0
 40
4.0
 40
4.0
 40
4.0
 10
105.302444092598
 20
-146.8051648938543
 30
0.0
 10
105.1966796612008
 20
-146.6990559529086
 30
0.0
 10
105.116064426846
 20
-146.6611599025708
 30
0.0
 10
105.0230468487442
 20
-146.6294650241065
 30
0.0
 10
105.0230468487442
 20
-146.6294650241065
 30
0.0
 10
105.1329453947237
 20
-146.4641004408145
 30
0.0
 10
105.1329453947237
 20
-146.4641004408145
 30
0.0
 10
105.2304415969563
 20
-146.5068196248316
 30
0.0
 10
105.35101993894
 20
-146.5853678018953
 30
0.0
 10
105.4037298998643
 20
-146.6398003105623
 30
0.0
 10
105.4037298998643
 20
-146.6398003105623
 30
0.0
 10
105.302444092598
 20
-146.8051648938543
 30
0.0
 10
105.302444092598
 20
-146.8051648938543
 30
0.0
  0
SPLINE
  5
11C
330
117
100
AcDbEntity
  8
_U+30EC_U+30A4_U+30E4_U+30FC 1
370
     0
100
AcDbSpline
210
0.0
220
0.0
230
1.0
 70
    11
 71
     3
 72
   182
 73
   178
 74
     0
 42
0.0000000001
 43
0.0000000001
 12
1.0
 22
0.0
 32
0.0
 13
1.0
 23
0.0
 33
0.0
 40
0.0
 40
0.0
 40
0.0
 40
0.0
 40
1.0
 40
1.0
 40
1.0
 40
2.0
 40
2.0
 40
2.0
 40
3.0
 40
3.0
 40
3.0
 40
4.0
 40
4.0
 40
4.0
 40
5.0
 40
5.0
 40
5.0
 40
6.0
 40
6.0
 40
6.0
 40
7.0
 40
7.0
 40
7.0
 40
8.0
 40
8.0
 40
8.0
 40
9.0
 40
9.0
 40
9.0
 40
10.0
 40
10.0
 40
10.0
 40
11.0
 40
11.0
 40
11.0
 40
12.0
 40
12.0
 40
12.0
 40
13.0
 40
13.0
 40
13.0
 40
14.0
 40
14.0
 40
14.0
 40
15.0
 40
15.0
 40
15.0
 40
16.0
 40
16.0
 40
16.0
 40
17.0
 40
17.0
 40
17.0
 40
18.0
 40
18.0
 40
18.0
 40
19.0
 40
19.0
 40
19.0
 40
20.0
 40
20.0
 40
20.0
 40
21.0
 40
21.0
 40
21.0
 40
22.0
 40
22.0
 40
22.0
 40
23.0
 40
23.0
 40
23.0
 40
24.0
 40
24.0
 40
24.0
 40
25.0
 40
25.0
 40
25.0
 40
26.0
 40
26.0
 40
26.0
 40
27.0
 40
27.0
 40
27.0
 40
28.0
 40
28.0
 40
28.0
 40
29.0
 40
29.0
 40
29.0
 40
30.0
 40
30.0
 40
30.0
 40
31.0
 40
31.0
 40
31.0
 40
32.0
 40
32.0
 40
32.0
 40
33.0
 40
33.0
 40
33.0
 40
34.0
 40
34.0
 40
34.0
 40
35.0
 40
35.0
 40
35.0
 40
36.0
 40
36.0
 40
36.0
 40
37.0
 40
37.0
 40
37.0
 40
38.0
 40
38.0
 40
38.0
 40
39.0
 40
39.0
 40
39.0
 40
40.0
 40
40.0
 40
40.0
 40
41.0
 40
41.0
 40
41.0
 40
42.0
 40
42.0
 40
42.0
 40
43.0
 40
43.0
 40
43.0
 40
44.0
 40
44.0
 40
44.0
 40
45.0
 40
45.0
 40
45.0
 40
46.0
 40
46.0
 40
46.0
 40
47.0
 40
47.0
 40
47.0
 40
48.0
 40
48.0
 40
48.0
 40
49.0
 40
49.0
 40
49.0
 40
50.0
 40
50.0
 40
50.0
 40
51.0
 40
51.0
 40
51.0
 40
52.0
 40
52.0
 40
52.0
 40
53.0
 40
53.0
 40
53.0
 40
54.0
 40
54.0
 40
54.0
 40
55.0
 40
55.0
 40
55.0
 40
56.0
 40
56.0
 40
56.0
 40
57.0
 40
57.0
 40
57.0
 40
58.0
 40
58.0
 40
58.0
 40
59.0
 40
59.0
 40
59.0
 40
59.0
 10
106.3473415532743
 20
-147.9833875498097
 30
0.0
 10
106.3473415532743
 20
-147.9833875498097
 30
0.0
 10
105.7106879076001
 20
-147.9833875498097
 30
0.0
 10
105.7106879076001
 20
-147.9833875498097
 30
0.0
 10
105.4967474779661
 20
-147.9833875498097
 30
0.0
 10
105.2810845005895
 20
-147.987521664392
 30
0.0
 10
105.067488580504
 20
-148.000613027236
 30
0.0
 10
105.067488580504
 20
-148.000613027236
 30
0.0
 10
105.067488580504
 20
-147.7932182790239
 30
0.0
 10
105.067488580504
 20
-147.7932182790239
 30
0.0
 10
105.2896972393026
 20
-147.8056206227708
 30
0.0
 10
105.6131917053675
 20
-147.8097547373531
 30
0.0
 10
105.7106879076001
 20
-147.8097547373531
 30
0.0
 10
105.7106879076001
 20
-147.8097547373531
 30
0.0
 10
105.9304849995591
 20
-147.8097547373531
 30
0.0
 10
105.9304849995591
 20
-147.8097547373531
 30
0.0
 10
105.9304849995591
 20
-147.8097547373531
 30
0.0
 10
105.9304849995591
 20
-147.6685058224579
 30
0.0
 10
105.9304849995591
 20
-147.6685058224579
 30
0.0
 10
105.9304849995591
 20
-147.6685058224579
 30
0.0
 10
105.7699435499464
 20
-147.6685058224579
 30
0.0
 10
105.7699435499464
 20
-147.6685058224579
 30
0.0
 10
105.6049234762029
 20
-147.6685058224579
 30
0.0
 10
105.4399034024595
 20
-147.6726399370402
 30
0.0
 10
105.274883328716
 20
-147.6871093380782
 30
0.0
 10
105.274883328716
 20
-147.6871093380782
 30
0.0
 10
105.274883328716
 20
-147.477647532575
 30
0.0
 10
105.274883328716
 20
-147.477647532575
 30
0.0
 10
105.4461045743329
 20
-147.4928059527101
 30
0.0
 10
105.6938069397224
 20
-147.4969400672924
 30
0.0
 10
105.7699435499464
 20
-147.4969400672924
 30
0.0
 10
105.7699435499464
 20
-147.4969400672924
 30
0.0
 10
105.9304849995591
 20
-147.4969400672924
 30
0.0
 10
105.9304849995591
 20
-147.4969400672924
 30
0.0
 10
105.9263508849768
 20
-147.4245930621022
 30
0.0
 10
105.9263508849768
 20
-147.4183918902287
 30
0.0
 10
105.9201497131033
 20
-147.3653374197559
 30
0.0
 10
105.9201497131033
 20
-147.3653374197559
 30
0.0
 10
106.0596760802559
 20
-147.380495839891
 30
0.0
 10
106.0596760802559
 20
-147.380495839891
 30
0.0
 10
106.0596760802559
 20
-147.380495839891
 30
0.0
 10
105.9601128207322
 20
-147.2089300847256
 30
0.0
 10
105.9601128207322
 20
-147.2089300847256
 30
0.0
 10
106.0066216097831
 20
-147.215131256599
 30
0.0
 10
106.0806911627159
 20
-147.2240885048606
 30
0.0
 10
106.0975721305937
 20
-147.2240885048606
 30
0.0
 10
106.1485595437754
 20
-147.2240885048606
 30
0.0
 10
106.1654405116531
 20
-147.2027289128521
 30
0.0
 10
106.1654405116531
 20
-147.145540327797
 30
0.0
 10
106.1654405116531
 20
-147.145540327797
 30
0.0
 10
106.1654405116531
 20
-147.008425527484
 30
0.0
 10
106.1654405116531
 20
-147.008425527484
 30
0.0
 10
106.1654405116531
 20
-147.008425527484
 30
0.0
 10
106.0596760802559
 20
-147.008425527484
 30
0.0
 10
106.0596760802559
 20
-147.008425527484
 30
0.0
 10
105.9263508849768
 20
-147.008425527484
 30
0.0
 10
105.7699435499464
 20
-147.008425527484
 30
0.0
 10
105.646953641123
 20
-147.0208278712309
 30
0.0
 10
105.646953641123
 20
-147.0208278712309
 30
0.0
 10
105.646953641123
 20
-146.8306586004451
 30
0.0
 10
105.646953641123
 20
-146.8306586004451
 30
0.0
 10
105.8143852817061
 20
-146.8471950587743
 30
0.0
 10
106.0448621696693
 20
-146.8492621160655
 30
0.0
 10
106.0596760802559
 20
-146.8492621160655
 30
0.0
 10
106.0596760802559
 20
-146.8492621160655
 30
0.0
 10
106.1654405116531
 20
-146.8492621160655
 30
0.0
 10
106.1654405116531
 20
-146.8492621160655
 30
0.0
 10
106.1654405116531
 20
-146.8492621160655
 30
0.0
 10
106.1654405116531
 20
-146.718348487626
 30
0.0
 10
106.1654405116531
 20
-146.718348487626
 30
0.0
 10
106.1654405116531
 20
-146.718348487626
 30
0.0
 10
106.1271999517668
 20
-146.718348487626
 30
0.0
 10
106.1271999517668
 20
-146.718348487626
 30
0.0
 10
106.0827582200071
 20
-146.718348487626
 30
0.0
 10
105.958045763441
 20
-146.7224826022083
 30
0.0
 10
105.8691622999216
 20
-146.7307508313729
 30
0.0
 10
105.8691622999216
 20
-146.7307508313729
 30
0.0
 10
105.8691622999216
 20
-146.6508246161151
 30
0.0
 10
105.8691622999216
 20
-146.6508246161151
 30
0.0
 10
105.8164523389973
 20
-146.6887206664528
 30
0.0
 10
105.7909586324064
 20
-146.7031900674909
 30
0.0
 10
105.7485839579379
 20
-146.7266167167906
 30
0.0
 10
105.7485839579379
 20
-146.7266167167906
 30
0.0
 10
105.5604817444432
 20
-146.5977701456422
 30
0.0
 10
105.5604817444432
 20
-146.5977701456422
 30
0.0
 10
105.6386854119584
 20
-146.5640082098868
 30
0.0
 10
105.7950927469887
 20
-146.5006184529582
 30
0.0
 10
105.9518445915676
 20
-146.3566134616748
 30
0.0
 10
106.0341823736651
 20
-146.278065284611
 30
0.0
 10
106.1123860411802
 20
-146.1933159356739
 30
0.0
 10
106.1654405116531
 20
-146.0920301284075
 30
0.0
 10
106.1654405116531
 20
-146.0920301284075
 30
0.0
 10
106.3769693744474
 20
-146.153352828045
 30
0.0
 10
106.3769693744474
 20
-146.153352828045
 30
0.0
 10
106.3959173996163
 20
-146.1595539999184
 30
0.0
 10
106.4065971956206
 20
-146.1685112481801
 30
0.0
 10
106.4065971956206
 20
-146.180913591927
 30
0.0
 10
106.4065971956206
 20
-146.1981390693533
 30
0.0
 10
106.3938503423252
 20
-146.2043402412267
 30
0.0
 10
106.3683566357343
 20
-146.2167425849736
 30
0.0
 10
106.4489718700892
 20
-146.3145832967547
 30
0.0
 10
106.6119248865415
 20
-146.4117349894387
 30
0.0
 10
106.6456868222969
 20
-146.4303385050591
 30
0.0
 10
106.7958929854538
 20
-146.5192219685785
 30
0.0
 10
106.9099256460156
 20
-146.5467827324605
 30
0.0
 10
106.9884738230793
 20
-146.5660752671779
 30
0.0
 10
106.9884738230793
 20
-146.5660752671779
 30
0.0
 10
106.8699625383867
 20
-146.7348849459552
 30
0.0
 10
106.8699625383867
 20
-146.7348849459552
 30
0.0
 10
106.7852131894495
 20
-146.7059461438791
 30
0.0
 10
106.7345702858164
 20
-146.6866536091617
 30
0.0
 10
106.6160590011238
 20
-146.6211967949419
 30
0.0
 10
106.6160590011238
 20
-146.6211967949419
 30
0.0
 10
106.6160590011238
 20
-146.7307508313729
 30
0.0
 10
106.6160590011238
 20
-146.7307508313729
 30
0.0
 10
106.5333767094778
 20
-146.7224826022083
 30
0.0
 10
106.4065971956206
 20
-146.718348487626
 30
0.0
 10
106.3535427251477
 20
-146.718348487626
 30
0.0
 10
106.3535427251477
 20
-146.718348487626
 30
0.0
 10
106.3535427251477
 20
-146.8492621160655
 30
0.0
 10
106.3535427251477
 20
-146.8492621160655
 30
0.0
 10
106.3535427251477
 20
-146.8492621160655
 30
0.0
 10
106.4741210671315
 20
-146.8492621160655
 30
0.0
 10
106.4741210671315
 20
-146.8492621160655
 30
0.0
 10
106.4765326339711
 20
-146.8492621160655
 30
0.0
 10
106.7090765792255
 20
-146.8471950587743
 30
0.0
 10
106.8868435062644
 20
-146.8306586004451
 30
0.0
 10
106.8868435062644
 20
-146.8306586004451
 30
0.0
 10
106.8868435062644
 20
-147.0208278712309
 30
0.0
 10
106.8868435062644
 20
-147.0208278712309
 30
0.0
 10
106.7576524255675
 20
-147.008425527484
 30
0.0
 10
106.6012450905372
 20
-147.008425527484
 30
0.0
 10
106.4741210671315
 20
-147.008425527484
 30
0.0
 10
106.4741210671315
 20
-147.008425527484
 30
0.0
 10
106.3535427251477
 20
-147.008425527484
 30
0.0
 10
106.3535427251477
 20
-147.008425527484
 30
0.0
 10
106.3535427251477
 20
-147.008425527484
 30
0.0
 10
106.3535427251477
 20
-147.2344237913164
 30
0.0
 10
106.3535427251477
 20
-147.2344237913164
 30
0.0
 10
106.3535427251477
 20
-147.352935076009
 30
0.0
 10
106.3283935281054
 20
-147.3887640690556
 30
0.0
 10
106.1675075689442
 20
-147.4039224891907
 30
0.0
 10
106.1716416835265
 20
-147.422526004811
 30
0.0
 10
106.1654405116531
 20
-147.4335503103638
 30
0.0
 10
106.1271999517668
 20
-147.4562879405665
 30
0.0
 10
106.1251328944757
 20
-147.4755804752839
 30
0.0
 10
106.1251328944757
 20
-147.4817816471573
 30
0.0
 10
106.1230658371845
 20
-147.4969400672924
 30
0.0
 10
106.1230658371845
 20
-147.4969400672924
 30
0.0
 10
106.260525147046
 20
-147.4969400672924
 30
0.0
 10
106.260525147046
 20
-147.4969400672924
 30
0.0
 10
106.4255452207894
 20
-147.4969400672924
 30
0.0
 10
106.5926323518241
 20
-147.4928059527101
 30
0.0
 10
106.7597194828587
 20
-147.477647532575
 30
0.0
 10
106.7597194828587
 20
-147.477647532575
 30
0.0
 10
106.7597194828587
 20
-147.6850422807871
 30
0.0
 10
106.7597194828587
 20
-147.6850422807871
 30
0.0
 10
106.544056505482
 20
-147.6685058224579
 30
0.0
 10
106.2798176817634
 20
-147.6685058224579
 30
0.0
 10
106.260525147046
 20
-147.6685058224579
 30
0.0
 10
106.260525147046
 20
-147.6685058224579
 30
0.0
 10
106.1209987798934
 20
-147.6685058224579
 30
0.0
 10
106.1209987798934
 20
-147.6685058224579
 30
0.0
 10
106.1209987798934
 20
-147.6685058224579
 30
0.0
 10
106.1209987798934
 20
-147.8097547373531
 30
0.0
 10
106.1209987798934
 20
-147.8097547373531
 30
0.0
 10
106.1209987798934
 20
-147.8097547373531
 30
0.0
 10
106.3473415532743
 20
-147.8097547373531
 30
0.0
 10
106.3473415532743
 20
-147.8097547373531
 30
0.0
 10
106.5630045306509
 20
-147.8097547373531
 30
0.0
 10
106.7810790748672
 20
-147.8056206227708
 30
0.0
 10
106.9967420522439
 20
-147.7932182790239
 30
0.0
 10
106.9967420522439
 20
-147.7932182790239
 30
0.0
 10
106.9967420522439
 20
-148.000613027236
 30
0.0
 10
106.9967420522439
 20
-148.000613027236
 30
0.0
 10
106.715277751099
 20
-147.9833875498097
 30
0.0
 10
106.370768202574
 20
-147.9833875498097
 30
0.0
 10
106.3473415532743
 20
-147.9833875498097
 30
0.0
  0
SPLINE
  5
11D
330
117
100
AcDbEntity
  8
_U+30EC_U+30A4_U+30E4_U+30FC 1
370
     0
100
AcDbSpline
210
0.0
220
0.0
230
1.0
 70
    11
 71
     3
 72
    23
 73
    19
 74
     0
 42
0.0000000001
 43
0.0000000001
 12
1.0
 22
0.0
 32
0.0
 13
1.0
 23
0.0
 33
0.0
 40
0.0
 40
0.0
 40
0.0
 40
0.0
 40
1.0
 40
1.0
 40
1.0
 40
2.0
 40
2.0
 40
2.0
 40
3.0
 40
3.0
 40
3.0
 40
4.0
 40
4.0
 40
4.0
 40
5.0
 40
5.0
 40
5.0
 40
6.0
 40
6.0
 40
6.0
 40
6.0
 10
105.2283745396651
 20
-147.3550021333001
 30
0.0
 10
105.2283745396651
 20
-147.3763617253087
 30
0.0
 10
105.2304415969563
 20
-147.4142577756464
 30
0.0
 10
105.2049478903654
 20
-147.4142577756464
 30
0.0
 10
105.1942680943612
 20
-147.4142577756464
 30
0.0
 10
105.1859998651966
 20
-147.408056603773
 30
0.0
 10
105.1753200691923
 20
-147.3908311263467
 30
0.0
 10
105.1753200691923
 20
-147.3908311263467
 30
0.0
 10
105.0716226950863
 20
-147.2089300847256
 30
0.0
 10
105.0716226950863
 20
-147.2089300847256
 30
0.0
 10
105.2876301820114
 20
-147.0800835135772
 30
0.0
 10
105.4843451342192
 20
-146.8030978365631
 30
0.0
 10
105.5308539232701
 20
-146.7307508313729
 30
0.0
 10
105.5308539232701
 20
-146.7307508313729
 30
0.0
 10
105.6028564189118
 20
-146.9105848157029
 30
0.0
 10
105.6028564189118
 20
-146.9105848157029
 30
0.0
 10
105.4695312236326
 20
-147.1076442774592
 30
0.0
 10
105.2938313538849
 20
-147.2916123763715
 30
0.0
 10
105.2283745396651
 20
-147.3550021333001
 30
0.0
  0
SPLINE
  5
11E
330
117
100
AcDbEntity
  8
_U+30EC_U+30A4_U+30E4_U+30FC 1
370
     0
100
AcDbSpline
210
0.0
220
0.0
230
1.0
 70
    11
 71
     3
 72
    17
 73
    13
 74
     0
 42
0.0000000001
 43
0.0000000001
 12
1.0
 22
0.0
 32
0.0
 13
1.0
 23
0.0
 33
0.0
 40
0.0
 40
0.0
 40
0.0
 40
0.0
 40
1.0
 40
1.0
 40
1.0
 40
2.0
 40
2.0
 40
2.0
 40
3.0
 40
3.0
 40
3.0
 40
4.0
 40
4.0
 40
4.0
 40
4.0
 10
105.482278076928
 20
-146.4599663262322
 30
0.0
 10
105.4206108677421
 20
-146.3841742255567
 30
0.0
 10
105.2917642965937
 20
-146.3076931057842
 30
0.0
 10
105.1880669224877
 20
-146.278065284611
 30
0.0
 10
105.1880669224877
 20
-146.278065284611
 30
0.0
 10
105.2831515578806
 20
-146.1133897204161
 30
0.0
 10
105.2831515578806
 20
-146.1133897204161
 30
0.0
 10
105.3847818746955
 20
-146.1492187134627
 30
0.0
 10
105.4905463060926
 20
-146.2064072985179
 30
0.0
 10
105.5794297696121
 20
-146.2870225328727
 30
0.0
 10
105.5794297696121
 20
-146.2870225328727
 30
0.0
 10
105.482278076928
 20
-146.4599663262322
 30
0.0
 10
105.482278076928
 20
-146.4599663262322
 30
0.0
  0
SPLINE
  5
11F
330
117
100
AcDbEntity
  8
_U+30EC_U+30A4_U+30E4_U+30FC 1
370
     0
100
AcDbSpline
210
0.0
220
0.0
230
1.0
 70
    11
 71
     3
 72
    23
 73
    19
 74
     0
 42
0.0000000001
 43
0.0000000001
 12
1.0
 22
0.0
 32
0.0
 13
1.0
 23
0.0
 33
0.0
 40
0.0
 40
0.0
 40
0.0
 40
0.0
 40
1.0
 40
1.0
 40
1.0
 40
2.0
 40
2.0
 40
2.0
 40
3.0
 40
3.0
 40
3.0
 40
4.0
 40
4.0
 40
4.0
 40
5.0
 40
5.0
 40
5.0
 40
6.0
 40
6.0
 40
6.0
 40
6.0
 10
105.9349636236899
 20
-147.1648328625143
 30
0.0
 10
105.9136040316813
 20
-147.1882595118141
 30
0.0
 10
105.8164523389973
 20
-147.2998806055361
 30
0.0
 10
105.6765814622961
 20
-147.380495839891
 30
0.0
 10
105.6765814622961
 20
-147.380495839891
 30
0.0
 10
105.5094943312615
 20
-147.2599174979073
 30
0.0
 10
105.5094943312615
 20
-147.2599174979073
 30
0.0
 10
105.6597004944184
 20
-147.1834363781347
 30
0.0
 10
105.7592637539421
 20
-147.0883517427418
 30
0.0
 10
105.8078396002842
 20
-147.035297272269
 30
0.0
 10
105.8078396002842
 20
-147.035297272269
 30
0.0
 10
105.9814724127407
 20
-147.117979563915
 30
0.0
 10
105.9814724127407
 20
-147.117979563915
 30
0.0
 10
105.9897406419053
 20
-147.1221136784972
 30
0.0
 10
105.9983533806185
 20
-147.1290038694678
 30
0.0
 10
105.9983533806185
 20
-147.1393391559235
 30
0.0
 10
105.9983533806185
 20
-147.1648328625143
 30
0.0
 10
105.9621798780233
 20
-147.1648328625143
 30
0.0
 10
105.9349636236899
 20
-147.1648328625143
 30
0.0
  0
SPLINE
  5
120
330
117
100
AcDbEntity
  8
_U+30EC_U+30A4_U+30E4_U+30FC 1
370
     0
100
AcDbSpline
210
0.0
220
0.0
230
1.0
 70
    11
 71
     3
 72
    20
 73
    16
 74
     0
 42
0.0000000001
 43
0.0000000001
 12
1.0
 22
0.0
 32
0.0
 13
1.0
 23
0.0
 33
0.0
 40
0.0
 40
0.0
 40
0.0
 40
0.0
 40
1.0
 40
1.0
 40
1.0
 40
2.0
 40
2.0
 40
2.0
 40
3.0
 40
3.0
 40
3.0
 40
4.0
 40
4.0
 40
4.0
 40
5.0
 40
5.0
 40
5.0
 40
5.0
 10
106.232964383164
 20
-146.3228515259193
 30
0.0
 10
106.1950683328262
 20
-146.3710828627128
 30
0.0
 10
106.1337456331888
 20
-146.4496310397765
 30
0.0
 10
105.9942192660362
 20
-146.5598740953045
 30
0.0
 10
106.0744899908425
 20
-146.5640082098868
 30
0.0
 10
106.1041178120156
 20
-146.5640082098868
 30
0.0
 10
106.1271999517668
 20
-146.5640082098868
 30
0.0
 10
106.1271999517668
 20
-146.5640082098868
 30
0.0
 10
106.3559542919874
 20
-146.5640082098868
 30
0.0
 10
106.3559542919874
 20
-146.5640082098868
 30
0.0
 10
106.3876491704517
 20
-146.5640082098868
 30
0.0
 10
106.4362250167937
 20
-146.5619411525956
 30
0.0
 10
106.5102945697266
 20
-146.5598740953045
 30
0.0
 10
106.3979844569075
 20
-146.4854600328231
 30
0.0
 10
106.3494086105654
 20
-146.4392957533207
 30
0.0
 10
106.232964383164
 20
-146.3228515259193
 30
0.0
  0
SPLINE
  5
121
330
117
100
AcDbEntity
  8
_U+30EC_U+30A4_U+30E4_U+30FC 1
370
     0
100
AcDbSpline
210
0.0
220
0.0
230
1.0
 70
    11
 71
     3
 72
    17
 73
    13
 74
     0
 42
0.0000000001
 43
0.0000000001
 12
1.0
 22
0.0
 32
0.0
 13
1.0
 23
0.0
 33
0.0
 40
0.0
 40
0.0
 40
0.0
 40
0.0
 40
1.0
 40
1.0
 40
1.0
 40
2.0
 40
2.0
 40
2.0
 40
3.0
 40
3.0
 40
3.0
 40
4.0
 40
4.0
 40
4.0
 40
4.0
 10
106.7938259281627
 20
-147.3784287825999
 30
0.0
 10
106.6584336755923
 20
-147.2661186697807
 30
0.0
 10
106.5526692441952
 20
-147.2027289128521
 30
0.0
 10
106.4341579595026
 20
-147.1393391559235
 30
0.0
 10
106.4341579595026
 20
-147.1393391559235
 30
0.0
 10
106.5609374733598
 20
-147.0270290431044
 30
0.0
 10
106.5609374733598
 20
-147.0270290431044
 30
0.0
 10
106.6921956113478
 20
-147.0738823417038
 30
0.0
 10
106.8020941573273
 20
-147.1310709267589
 30
0.0
 10
106.9271511234418
 20
-147.2323567340252
 30
0.0
 10
106.9271511234418
 20
-147.2323567340252
 30
0.0
 10
106.7938259281627
 20
-147.3784287825999
 30
0.0
 10
106.7938259281627
 20
-147.3784287825999
 30
0.0
  0
HATCH
  5
122
330
117
100
AcDbEntity
  8
_U+30EC_U+30A4_U+30E4_U+30FC 1
 62
   179
420
  2234388
100
AcDbHatch
 10
0.0
 20
0.0
 30
0.0
210
0.0
220
0.0
230
1.0
  2
SOLID
 70
     1
 71
     0
 91
        7
 92
        1
 93
        1
 72
     4
 94
        3
 73
     0
 74
     1
 95
       17
 96
       13
 40
0.0
 40
0.0
 40
0.0
 40
0.0
 40
1.0
 40
1.0
 40
1.0
 40
2.0
 40
2.0
 40
2.0
 40
3.0
 40
3.0
 40
3.0
 40
4.0
 40
4.0
 40
4.0
 40
4.0
 10
105.302444092598
 20
-146.8051648938543
 10
105.1966796612008
 20
-146.6990559529086
 10
105.116064426846
 20
-146.6611599025708
 10
105.0230468487442
 20
-146.6294650241065
 10
105.0230468487442
 20
-146.6294650241065
 10
105.1329453947237
 20
-146.4641004408145
 10
105.1329453947237
 20
-146.4641004408145
 10
105.2304415969563
 20
-146.5068196248316
 10
105.35101993894
 20
-146.5853678018953
 10
105.4037298998643
 20
-146.6398003105623
 10
105.4037298998643
 20
-146.6398003105623
 10
105.302444092598
 20
-146.8051648938543
 10
105.302444092598
 20
-146.8051648938543
 97
        0
 97
        0
 92
        1
 93
        1
 72
     4
 94
        3
 73
     0
 74
     1
 95
      182
 96
      178
 40
0.0
 40
0.0
 40
0.0
 40
0.0
 40
1.0
 40
1.0
 40
1.0
 40
2.0
 40
2.0
 40
2.0
 40
3.0
 40
3.0
 40
3.0
 40
4.0
 40
4.0
 40
4.0
 40
5.0
 40
5.0
 40
5.0
 40
6.0
 40
6.0
 40
6.0
 40
7.0
 40
7.0
 40
7.0
 40
8.0
 40
8.0
 40
8.0
 40
9.0
 40
9.0
 40
9.0
 40
10.0
 40
10.0
 40
10.0
 40
11.0
 40
11.0
 40
11.0
 40
12.0
 40
12.0
 40
12.0
 40
13.0
 40
13.0
 40
13.0
 40
14.0
 40
14.0
 40
14.0
 40
15.0
 40
15.0
 40
15.0
 40
16.0
 40
16.0
 40
16.0
 40
17.0
 40
17.0
 40
17.0
 40
18.0
 40
18.0
 40
18.0
 40
19.0
 40
19.0
 40
19.0
 40
20.0
 40
20.0
 40
20.0
 40
21.0
 40
21.0
 40
21.0
 40
22.0
 40
22.0
 40
22.0
 40
23.0
 40
23.0
 40
23.0
 40
24.0
 40
24.0
 40
24.0
 40
25.0
 40
25.0
 40
25.0
 40
26.0
 40
26.0
 40
26.0
 40
27.0
 40
27.0
 40
27.0
 40
28.0
 40
28.0
 40
28.0
 40
29.0
 40
29.0
 40
29.0
 40
30.0
 40
30.0
 40
30.0
 40
31.0
 40
31.0
 40
31.0
 40
32.0
 40
32.0
 40
32.0
 40
33.0
 40
33.0
 40
33.0
 40
34.0
 40
34.0
 40
34.0
 40
35.0
 40
35.0
 40
35.0
 40
36.0
 40
36.0
 40
36.0
 40
37.0
 40
37.0
 40
37.0
 40
38.0
 40
38.0
 40
38.0
 40
39.0
 40
39.0
 40
39.0
 40
40.0
 40
40.0
 40
40.0
 40
41.0
 40
41.0
 40
41.0
 40
42.0
 40
42.0
 40
42.0
 40
43.0
 40
43.0
 40
43.0
 40
44.0
 40
44.0
 40
44.0
 40
45.0
 40
45.0
 40
45.0
 40
46.0
 40
46.0
 40
46.0
 40
47.0
 40
47.0
 40
47.0
 40
48.0
 40
48.0
 40
48.0
 40
49.0
 40
49.0
 40
49.0
 40
50.0
 40
50.0
 40
50.0
 40
51.0
 40
51.0
 40
51.0
 40
52.0
 40
52.0
 40
52.0
 40
53.0
 40
53.0
 40
53.0
 40
54.0
 40
54.0
 40
54.0
 40
55.0
 40
55.0
 40
55.0
 40
56.0
 40
56.0
 40
56.0
 40
57.0
 40
57.0
 40
57.0
 40
58.0
 40
58.0
 40
58.0
 40
59.0
 40
59.0
 40
59.0
 40
59.0
 10
106.3473415532743
 20
-147.9833875498097
 10
106.3473415532743
 20
-147.9833875498097
 10
105.7106879076001
 20
-147.9833875498097
 10
105.7106879076001
 20
-147.9833875498097
 10
105.4967474779661
 20
-147.9833875498097
 10
105.2810845005895
 20
-147.987521664392
 10
105.067488580504
 20
-148.000613027236
 10
105.067488580504
 20
-148.000613027236
 10
105.067488580504
 20
-147.7932182790239
 10
105.067488580504
 20
-147.7932182790239
 10
105.2896972393026
 20
-147.8056206227708
 10
105.6131917053675
 20
-147.8097547373531
 10
105.7106879076001
 20
-147.8097547373531
 10
105.7106879076001
 20
-147.8097547373531
 10
105.9304849995591
 20
-147.8097547373531
 10
105.9304849995591
 20
-147.8097547373531
 10
105.9304849995591
 20
-147.8097547373531
 10
105.9304849995591
 20
-147.6685058224579
 10
105.9304849995591
 20
-147.6685058224579
 10
105.9304849995591
 20
-147.6685058224579
 10
105.7699435499464
 20
-147.6685058224579
 10
105.7699435499464
 20
-147.6685058224579
 10
105.6049234762029
 20
-147.6685058224579
 10
105.4399034024595
 20
-147.6726399370402
 10
105.274883328716
 20
-147.6871093380782
 10
105.274883328716
 20
-147.6871093380782
 10
105.274883328716
 20
-147.477647532575
 10
105.274883328716
 20
-147.477647532575
 10
105.4461045743329
 20
-147.4928059527101
 10
105.6938069397224
 20
-147.4969400672924
 10
105.7699435499464
 20
-147.4969400672924
 10
105.7699435499464
 20
-147.4969400672924
 10
105.9304849995591
 20
-147.4969400672924
 10
105.9304849995591
 20
-147.4969400672924
 10
105.9263508849768
 20
-147.4245930621022
 10
105.9263508849768
 20
-147.4183918902287
 10
105.9201497131033
 20
-147.3653374197559
 10
105.9201497131033
 20
-147.3653374197559
 10
106.0596760802559
 20
-147.380495839891
 10
106.0596760802559
 20
-147.380495839891
 10
106.0596760802559
 20
-147.380495839891
 10
105.9601128207322
 20
-147.2089300847256
 10
105.9601128207322
 20
-147.2089300847256
 10
106.0066216097831
 20
-147.215131256599
 10
106.0806911627159
 20
-147.2240885048606
 10
106.0975721305937
 20
-147.2240885048606
 10
106.1485595437754
 20
-147.2240885048606
 10
106.1654405116531
 20
-147.2027289128521
 10
106.1654405116531
 20
-147.145540327797
 10
106.1654405116531
 20
-147.145540327797
 10
106.1654405116531
 20
-147.008425527484
 10
106.1654405116531
 20
-147.008425527484
 10
106.1654405116531
 20
-147.008425527484
 10
106.0596760802559
 20
-147.008425527484
 10
106.0596760802559
 20
-147.008425527484
 10
105.9263508849768
 20
-147.008425527484
 10
105.7699435499464
 20
-147.008425527484
 10
105.646953641123
 20
-147.0208278712309
 10
105.646953641123
 20
-147.0208278712309
 10
105.646953641123
 20
-146.8306586004451
 10
105.646953641123
 20
-146.8306586004451
 10
105.8143852817061
 20
-146.8471950587743
 10
106.0448621696693
 20
-146.8492621160655
 10
106.0596760802559
 20
-146.8492621160655
 10
106.0596760802559
 20
-146.8492621160655
 10
106.1654405116531
 20
-146.8492621160655
 10
106.1654405116531
 20
-146.8492621160655
 10
106.1654405116531
 20
-146.8492621160655
 10
106.1654405116531
 20
-146.718348487626
 10
106.1654405116531
 20
-146.718348487626
 10
106.1654405116531
 20
-146.718348487626
 10
106.1271999517668
 20
-146.718348487626
 10
106.1271999517668
 20
-146.718348487626
 10
106.0827582200071
 20
-146.718348487626
 10
105.958045763441
 20
-146.7224826022083
 10
105.8691622999216
 20
-146.7307508313729
 10
105.8691622999216
 20
-146.7307508313729
 10
105.8691622999216
 20
-146.6508246161151
 10
105.8691622999216
 20
-146.6508246161151
 10
105.8164523389973
 20
-146.6887206664528
 10
105.7909586324064
 20
-146.7031900674909
 10
105.7485839579379
 20
-146.7266167167906
 10
105.7485839579379
 20
-146.7266167167906
 10
105.5604817444432
 20
-146.5977701456422
 10
105.5604817444432
 20
-146.5977701456422
 10
105.6386854119584
 20
-146.5640082098868
 10
105.7950927469887
 20
-146.5006184529582
 10
105.9518445915676
 20
-146.3566134616748
 10
106.0341823736651
 20
-146.278065284611
 10
106.1123860411802
 20
-146.1933159356739
 10
106.1654405116531
 20
-146.0920301284075
 10
106.1654405116531
 20
-146.0920301284075
 10
106.3769693744474
 20
-146.153352828045
 10
106.3769693744474
 20
-146.153352828045
 10
106.3959173996163
 20
-146.1595539999184
 10
106.4065971956206
 20
-146.1685112481801
 10
106.4065971956206
 20
-146.180913591927
 10
106.4065971956206
 20
-146.1981390693533
 10
106.3938503423252
 20
-146.2043402412267
 10
106.3683566357343
 20
-146.2167425849736
 10
106.4489718700892
 20
-146.3145832967547
 10
106.6119248865415
 20
-146.4117349894387
 10
106.6456868222969
 20
-146.4303385050591
 10
106.7958929854538
 20
-146.5192219685785
 10
106.9099256460156
 20
-146.5467827324605
 10
106.9884738230793
 20
-146.5660752671779
 10
106.9884738230793
 20
-146.5660752671779
 10
106.8699625383867
 20
-146.7348849459552
 10
106.8699625383867
 20
-146.7348849459552
 10
106.7852131894495
 20
-146.7059461438791
 10
106.7345702858164
 20
-146.6866536091617
 10
106.6160590011238
 20
-146.6211967949419
 10
106.6160590011238
 20
-146.6211967949419
 10
106.6160590011238
 20
-146.7307508313729
 10
106.6160590011238
 20
-146.7307508313729
 10
106.5333767094778
 20
-146.7224826022083
 10
106.4065971956206
 20
-146.718348487626
 10
106.3535427251477
 20
-146.718348487626
 10
106.3535427251477
 20
-146.718348487626
 10
106.3535427251477
 20
-146.8492621160655
 10
106.3535427251477
 20
-146.8492621160655
 10
106.3535427251477
 20
-146.8492621160655
 10
106.4741210671315
 20
-146.8492621160655
 10
106.4741210671315
 20
-146.8492621160655
 10
106.4765326339711
 20
-146.8492621160655
 10
106.7090765792255
 20
-146.8471950587743
 10
106.8868435062644
 20
-146.8306586004451
 10
106.8868435062644
 20
-146.8306586004451
 10
106.8868435062644
 20
-147.0208278712309
 10
106.8868435062644
 20
-147.0208278712309
 10
106.7576524255675
 20
-147.008425527484
 10
106.6012450905372
 20
-147.008425527484
 10
106.4741210671315
 20
-147.008425527484
 10
106.4741210671315
 20
-147.008425527484
 10
106.3535427251477
 20
-147.008425527484
 10
106.3535427251477
 20
-147.008425527484
 10
106.3535427251477
 20
-147.008425527484
 10
106.3535427251477
 20
-147.2344237913164
 10
106.3535427251477
 20
-147.2344237913164
 10
106.3535427251477
 20
-147.352935076009
 10
106.3283935281054
 20
-147.3887640690556
 10
106.1675075689442
 20
-147.4039224891907
 10
106.1716416835265
 20
-147.422526004811
 10
106.1654405116531
 20
-147.4335503103638
 10
106.1271999517668
 20
-147.4562879405665
 10
106.1251328944757
 20
-147.4755804752839
 10
106.1251328944757
 20
-147.4817816471573
 10
106.1230658371845
 20
-147.4969400672924
 10
106.1230658371845
 20
-147.4969400672924
 10
106.260525147046
 20
-147.4969400672924
 10
106.260525147046
 20
-147.4969400672924
 10
106.4255452207894
 20
-147.4969400672924
 10
106.5926323518241
 20
-147.4928059527101
 10
106.7597194828587
 20
-147.477647532575
 10
106.7597194828587
 20
-147.477647532575
 10
106.7597194828587
 20
-147.6850422807871
 10
106.7597194828587
 20
-147.6850422807871
 10
106.544056505482
 20
-147.6685058224579
 10
106.2798176817634
 20
-147.6685058224579
 10
106.260525147046
 20
-147.6685058224579
 10
106.260525147046
 20
-147.6685058224579
 10
106.1209987798934
 20
-147.6685058224579
 10
106.1209987798934
 20
-147.6685058224579
 10
106.1209987798934
 20
-147.6685058224579
 10
106.1209987798934
 20
-147.8097547373531
 10
106.1209987798934
 20
-147.8097547373531
 10
106.1209987798934
 20
-147.8097547373531
 10
106.3473415532743
 20
-147.8097547373531
 10
106.3473415532743
 20
-147.8097547373531
 10
106.5630045306509
 20
-147.8097547373531
 10
106.7810790748672
 20
-147.8056206227708
 10
106.9967420522439
 20
-147.7932182790239
 10
106.9967420522439
 20
-147.7932182790239
 10
106.9967420522439
 20
-148.000613027236
 10
106.9967420522439
 20
-148.000613027236
 10
106.715277751099
 20
-147.9833875498097
 10
106.370768202574
 20
-147.9833875498097
 10
106.3473415532743
 20
-147.9833875498097
 97
        0
 97
        0
 92
        1
 93
        1
 72
     4
 94
        3
 73
     0
 74
     1
 95
       23
 96
       19
 40
0.0
 40
0.0
 40
0.0
 40
0.0
 40
1.0
 40
1.0
 40
1.0
 40
2.0
 40
2.0
 40
2.0
 40
3.0
 40
3.0
 40
3.0
 40
4.0
 40
4.0
 40
4.0
 40
5.0
 40
5.0
 40
5.0
 40
6.0
 40
6.0
 40
6.0
 40
6.0
 10
105.2283745396651
 20
-147.3550021333001
 10
105.2283745396651
 20
-147.3763617253087
 10
105.2304415969563
 20
-147.4142577756464
 10
105.2049478903654
 20
-147.4142577756464
 10
105.1942680943612
 20
-147.4142577756464
 10
105.1859998651966
 20
-147.408056603773
 10
105.1753200691923
 20
-147.3908311263467
 10
105.1753200691923
 20
-147.3908311263467
 10
105.0716226950863
 20
-147.2089300847256
 10
105.0716226950863
 20
-147.2089300847256
 10
105.2876301820114
 20
-147.0800835135772
 10
105.4843451342192
 20
-146.8030978365631
 10
105.5308539232701
 20
-146.7307508313729
 10
105.5308539232701
 20
-146.7307508313729
 10
105.6028564189118
 20
-146.9105848157029
 10
105.6028564189118
 20
-146.9105848157029
 10
105.4695312236326
 20
-147.1076442774592
 10
105.2938313538849
 20
-147.2916123763715
 10
105.2283745396651
 20
-147.3550021333001
 97
        0
 97
        0
 92
        1
 93
        1
 72
     4
 94
        3
 73
     0
 74
     1
 95
       17
 96
       13
 40
0.0
 40
0.0
 40
0.0
 40
0.0
 40
1.0
 40
1.0
 40
1.0
 40
2.0
 40
2.0
 40
2.0
 40
3.0
 40
3.0
 40
3.0
 40
4.0
 40
4.0
 40
4.0
 40
4.0
 10
105.482278076928
 20
-146.4599663262322
 10
105.4206108677421
 20
-146.3841742255567
 10
105.2917642965937
 20
-146.3076931057842
 10
105.1880669224877
 20
-146.278065284611
 10
105.1880669224877
 20
-146.278065284611
 10
105.2831515578806
 20
-146.1133897204161
 10
105.2831515578806
 20
-146.1133897204161
 10
105.3847818746955
 20
-146.1492187134627
 10
105.4905463060926
 20
-146.2064072985179
 10
105.5794297696121
 20
-146.2870225328727
 10
105.5794297696121
 20
-146.2870225328727
 10
105.482278076928
 20
-146.4599663262322
 10
105.482278076928
 20
-146.4599663262322
 97
        0
 97
        0
 92
        1
 93
        1
 72
     4
 94
        3
 73
     0
 74
     1
 95
       23
 96
       19
 40
0.0
 40
0.0
 40
0.0
 40
0.0
 40
1.0
 40
1.0
 40
1.0
 40
2.0
 40
2.0
 40
2.0
 40
3.0
 40
3.0
 40
3.0
 40
4.0
 40
4.0
 40
4.0
 40
5.0
 40
5.0
 40
5.0
 40
6.0
 40
6.0
 40
6.0
 40
6.0
 10
105.9349636236899
 20
-147.1648328625143
 10
105.9136040316813
 20
-147.1882595118141
 10
105.8164523389973
 20
-147.2998806055361
 10
105.6765814622961
 20
-147.380495839891
 10
105.6765814622961
 20
-147.380495839891
 10
105.5094943312615
 20
-147.2599174979073
 10
105.5094943312615
 20
-147.2599174979073
 10
105.6597004944184
 20
-147.1834363781347
 10
105.7592637539421
 20
-147.0883517427418
 10
105.8078396002842
 20
-147.035297272269
 10
105.8078396002842
 20
-147.035297272269
 10
105.9814724127407
 20
-147.117979563915
 10
105.9814724127407
 20
-147.117979563915
 10
105.9897406419053
 20
-147.1221136784972
 10
105.9983533806185
 20
-147.1290038694678
 10
105.9983533806185
 20
-147.1393391559235
 10
105.9983533806185
 20
-147.1648328625143
 10
105.9621798780233
 20
-147.1648328625143
 10
105.9349636236899
 20
-147.1648328625143
 97
        0
 97
        0
 92
        1
 93
        1
 72
     4
 94
        3
 73
     0
 74
     1
 95
       20
 96
       16
 40
0.0
 40
0.0
 40
0.0
 40
0.0
 40
1.0
 40
1.0
 40
1.0
 40
2.0
 40
2.0
 40
2.0
 40
3.0
 40
3.0
 40
3.0
 40
4.0
 40
4.0
 40
4.0
 40
5.0
 40
5.0
 40
5.0
 40
5.0
 10
106.232964383164
 20
-146.3228515259193
 10
106.1950683328262
 20
-146.3710828627128
 10
106.1337456331888
 20
-146.4496310397765
 10
105.9942192660362
 20
-146.5598740953045
 10
106.0744899908425
 20
-146.5640082098868
 10
106.1041178120156
 20
-146.5640082098868
 10
106.1271999517668
 20
-146.5640082098868
 10
106.1271999517668
 20
-146.5640082098868
 10
106.3559542919874
 20
-146.5640082098868
 10
106.3559542919874
 20
-146.5640082098868
 10
106.3876491704517
 20
-146.5640082098868
 10
106.4362250167937
 20
-146.5619411525956
 10
106.5102945697266
 20
-146.5598740953045
 10
106.3979844569075
 20
-146.4854600328231
 10
106.3494086105654
 20
-146.4392957533207
 10
106.232964383164
 20
-146.3228515259193
 97
        0
 97
        0
 92
        1
 93
        1
 72
     4
 94
        3
 73
     0
 74
     1
 95
       17
 96
       13
 40
0.0
 40
0.0
 40
0.0
 40
0.0
 40
1.0
 40
1.0
 40
1.0
 40
2.0
 40
2.0
 40
2.0
 40
3.0
 40
3.0
 40
3.0
 40
4.0
 40
4.0
 40
4.0
 40
4.0
 10
106.7938259281627
 20
-147.3784287825999
 10
106.6584336755923
 20
-147.2661186697807
 10
106.5526692441952
 20
-147.2027289128521
 10
106.4341579595026
 20
-147.1393391559235
 10
106.4341579595026
 20
-147.1393391559235
 10
106.5609374733598
 20
-147.0270290431044
 10
106.5609374733598
 20
-147.0270290431044
 10
106.6921956113478
 20
-147.0738823417038
 10
106.8020941573273
 20
-147.1310709267589
 10
106.9271511234418
 20
-147.2323567340252
 10
106.9271511234418
 20
-147.2323567340252
 10
106.7938259281627
 20
-147.3784287825999
 10
106.7938259281627
 20
-147.3784287825999
 97
        0
 97
        0
 75
     2
 76
     1
 98
        0
  0
SPLINE
  5
123
330
117
100
AcDbEntity
  8
_U+30EC_U+30A4_U+30E4_U+30FC 1
370
     0
100
AcDbSpline
210
0.0
220
0.0
230
1.0
 70
    11
 71
     3
 72
   113
 73
   109
 74
     0
 42
0.0000000001
 43
0.0000000001
 12
1.0
 22
0.0
 32
0.0
 13
1.0
 23
0.0
 33
0.0
 40
0.0
 40
0.0
 40
0.0
 40
0.0
 40
1.0
 40
1.0
 40
1.0
 40
2.0
 40
2.0
 40
2.0
 40
3.0
 40
3.0
 40
3.0
 40
4.0
 40
4.0
 40
4.0
 40
5.0
 40
5.0
 40
5.0
 40
6.0
 40
6.0
 40
6.0
 40
7.0
 40
7.0
 40
7.0
 40
8.0
 40
8.0
 40
8.0
 40
9.0
 40
9.0
 40
9.0
 40
10.0
 40
10.0
 40
10.0
 40
11.0
 40
11.0
 40
11.0
 40
12.0
 40
12.0
 40
12.0
 40
13.0
 40
13.0
 40
13.0
 40
14.0
 40
14.0
 40
14.0
 40
15.0
 40
15.0
 40
15.0
 40
16.0
 40
16.0
 40
16.0
 40
17.0
 40
17.0
 40
17.0
 40
18.0
 40
18.0
 40
18.0
 40
19.0
 40
19.0
 40
19.0
 40
20.0
 40
20.0
 40
20.0
 40
21.0
 40
21.0
 40
21.0
 40
22.0
 40
22.0
 40
22.0
 40
23.0
 40
23.0
 40
23.0
 40
24.0
 40
24.0
 40
24.0
 40
25.0
 40
25.0
 40
25.0
 40
26.0
 40
26.0
 40
26.0
 40
27.0
 40
27.0
 40
27.0
 40
28.0
 40
28.0
 40
28.0
 40
29.0
 40
29.0
 40
29.0
 40
30.0
 40
30.0
 40
30.0
 40
31.0
 40
31.0
 40
31.0
 40
32.0
 40
32.0
 40
32.0
 40
33.0
 40
33.0
 40
33.0
 40
34.0
 40
34.0
 40
34.0
 40
35.0
 40
35.0
 40
35.0
 40
36.0
 40
36.0
 40
36.0
 40
36.0
 10
108.673470024915
 20
-147.3550021333001
 30
0.0
 10
108.673470024915
 20
-147.3550021333001
 30
0.0
 10
108.7730332844387
 20
-147.4542208832754
 30
0.0
 10
108.7730332844387
 20
-147.4542208832754
 30
0.0
 10
108.7833685708944
 20
-147.4652451888281
 30
0.0
 10
108.7940483668987
 20
-147.477647532575
 30
0.0
 10
108.7940483668987
 20
-147.4928059527101
 30
0.0
 10
108.7940483668987
 20
-147.4948730100013
 30
0.0
 10
108.7940483668987
 20
-147.5245008311744
 30
0.0
 10
108.7558078070124
 20
-147.5245008311744
 30
0.0
 10
108.7475395778478
 20
-147.5245008311744
 30
0.0
 10
108.7072319606704
 20
-147.5203667165922
 30
0.0
 10
108.701030788797
 20
-147.5203667165922
 30
0.0
 10
108.6607231716196
 20
-147.5520615950564
 30
0.0
 10
108.6142143825687
 20
-147.5858235308119
 30
0.0
 10
108.514651123045
 20
-147.643012115867
 30
0.0
 10
108.6607231716196
 20
-147.7504990950068
 30
0.0
 10
108.8195420734896
 20
-147.807687680062
 30
0.0
 10
109.0923936359214
 20
-147.8455837303997
 30
0.0
 10
109.0923936359214
 20
-147.8455837303997
 30
0.0
 10
108.9421874727645
 20
-148.0212836001475
 30
0.0
 10
108.9421874727645
 20
-148.0212836001475
 30
0.0
 10
108.6796711967884
 20
-147.9496256140543
 30
0.0
 10
108.5232638617581
 20
-147.8607421505348
 30
0.0
 10
108.4471272515341
 20
-147.807687680062
 30
0.0
 10
108.2969210883772
 20
-147.7064018727956
 30
0.0
 10
108.1529160970937
 20
-147.5431043467948
 30
0.0
 10
108.0767794868697
 20
-147.3784287825999
 30
0.0
 10
108.0092556153588
 20
-147.4438855968196
 30
0.0
 10
107.9351860624259
 20
-147.4969400672924
 30
0.0
 10
107.8569823949108
 20
-147.5451714040859
 30
0.0
 10
107.8569823949108
 20
-147.5451714040859
 30
0.0
 10
107.8569823949108
 20
-147.7973523936062
 30
0.0
 10
107.8569823949108
 20
-147.7973523936062
 30
0.0
 10
108.0195909018146
 20
-147.7718586870154
 30
0.0
 10
108.2059705675666
 20
-147.7270724457071
 30
0.0
 10
108.2693603244952
 20
-147.7126030446691
 30
0.0
 10
108.2693603244952
 20
-147.7126030446691
 30
0.0
 10
108.239732503322
 20
-147.8821017425434
 30
0.0
 10
108.239732503322
 20
-147.8821017425434
 30
0.0
 10
108.2376654460309
 20
-147.8821017425434
 30
0.0
 10
108.218717420862
 20
-147.8883029144168
 30
0.0
 10
108.2166503635708
 20
-147.8883029144168
 30
0.0
 10
108.0175238445234
 20
-147.9261989647546
 30
0.0
 10
107.7002305503319
 20
-147.9916557789743
 30
0.0
 10
107.5035155981241
 20
-148.0274847720209
 30
0.0
 10
107.4928358021199
 20
-148.0447102494471
 30
0.0
 10
107.4697536623687
 20
-148.0764051279115
 30
0.0
 10
107.446327013069
 20
-148.0764051279115
 30
0.0
 10
107.4191107587355
 20
-148.0764051279115
 30
0.0
 10
107.4146321346047
 20
-148.0571125931941
 30
0.0
 10
107.4125650773135
 20
-148.0385090775737
 30
0.0
 10
107.4125650773135
 20
-148.0385090775737
 30
0.0
 10
107.3870713707227
 20
-147.8648762651171
 30
0.0
 10
107.3870713707227
 20
-147.8648762651171
 30
0.0
 10
107.4611409236555
 20
-147.8566080359525
 30
0.0
 10
107.5693169218924
 20
-147.8435166731086
 30
0.0
 10
107.6771484105807
 20
-147.8228461001971
 30
0.0
 10
107.6771484105807
 20
-147.8228461001971
 30
0.0
 10
107.6771484105807
 20
-147.6450791731582
 30
0.0
 10
107.6771484105807
 20
-147.6450791731582
 30
0.0
 10
107.5331434192973
 20
-147.7167371592514
 30
0.0
 10
107.4380587839044
 20
-147.7463649804245
 30
0.0
 10
107.2730387101609
 20
-147.7759928015977
 30
0.0
 10
107.2730387101609
 20
-147.7759928015977
 30
0.0
 10
107.1524603681772
 20
-147.6064941037234
 30
0.0
 10
107.1524603681772
 20
-147.6064941037234
 30
0.0
 10
107.4697536623687
 20
-147.5796223589384
 30
0.0
 10
107.6623344999941
 20
-147.4859157617396
 30
0.0
 10
107.840101427033
 20
-147.352935076009
 30
0.0
 10
107.6940293784584
 20
-147.352935076009
 30
0.0
 10
107.3936170521447
 20
-147.3570691905913
 30
0.0
 10
107.1969020999369
 20
-147.3632703624647
 30
0.0
 10
107.1969020999369
 20
-147.3632703624647
 30
0.0
 10
107.1969020999369
 20
-147.1855034354259
 30
0.0
 10
107.1969020999369
 20
-147.1855034354259
 30
0.0
 10
107.3512423776761
 20
-147.1923936263964
 30
0.0
 10
107.6475205894076
 20
-147.1985947982698
 30
0.0
 10
107.8314886883199
 20
-147.1985947982698
 30
0.0
 10
107.8314886883199
 20
-147.1985947982698
 30
0.0
 10
108.0430175511142
 20
-147.1985947982698
 30
0.0
 10
108.0430175511142
 20
-147.1985947982698
 30
0.0
 10
108.0430175511142
 20
-147.1035101628769
 30
0.0
 10
108.0409504938231
 20
-147.0525227496952
 30
0.0
 10
108.0344048124011
 20
-147.0056694510958
 30
0.0
 10
108.0344048124011
 20
-147.0056694510958
 30
0.0
 10
108.2504122993263
 20
-147.022894928522
 30
0.0
 10
108.2504122993263
 20
-147.022894928522
 30
0.0
 10
108.2989881456683
 20
-147.0270290431044
 30
0.0
 10
108.3076008843814
 20
-147.0421874632395
 30
0.0
 10
108.3076008843814
 20
-147.0566568642775
 30
0.0
 10
108.3076008843814
 20
-147.0821505708684
 30
0.0
 10
108.2903754069552
 20
-147.0904188000329
 30
0.0
 10
108.239732503322
 20
-147.1159125066238
 30
0.0
 10
108.2376654460309
 20
-147.1414062132147
 30
0.0
 10
108.2376654460309
 20
-147.1476073850881
 30
0.0
 10
108.2355983887397
 20
-147.1985947982698
 30
0.0
 10
108.2355983887397
 20
-147.1985947982698
 30
0.0
 10
108.4660752767029
 20
-147.1985947982698
 30
0.0
 10
108.4660752767029
 20
-147.1985947982698
 30
0.0
 10
108.6310953504464
 20
-147.1985947982698
 30
0.0
 10
108.9232394475956
 20
-147.1923936263964
 30
0.0
 10
109.1027289223771
 20
-147.1855034354259
 30
0.0
 10
109.1027289223771
 20
-147.1855034354259
 30
0.0
 10
109.1027289223771
 20
-147.3632703624647
 30
0.0
 10
109.1027289223771
 20
-147.3632703624647
 30
0.0
 10
108.9738823512288
 20
-147.3591362478824
 30
0.0
 10
108.9504557019291
 20
-147.3591362478824
 30
0.0
 10
108.673470024915
 20
-147.3550021333001
 30
0.0
  0
SPLINE
  5
124
330
117
100
AcDbEntity
  8
_U+30EC_U+30A4_U+30E4_U+30FC 1
370
     0
100
AcDbSpline
210
0.0
220
0.0
230
1.0
 70
    11
 71
     3
 72
    23
 73
    19
 74
     0
 42
0.0000000001
 43
0.0000000001
 12
1.0
 22
0.0
 32
0.0
 13
1.0
 23
0.0
 33
0.0
 40
0.0
 40
0.0
 40
0.0
 40
0.0
 40
1.0
 40
1.0
 40
1.0
 40
2.0
 40
2.0
 40
2.0
 40
3.0
 40
3.0
 40
3.0
 40
4.0
 40
4.0
 40
4.0
 40
5.0
 40
5.0
 40
5.0
 40
6.0
 40
6.0
 40
6.0
 40
6.0
 10
107.3894829375624
 20
-147.0036023938047
 30
0.0
 10
107.3722574601361
 20
-147.0442545205306
 30
0.0
 10
107.3660562882627
 20
-147.0607909788598
 30
0.0
 10
107.3450412058026
 20
-147.0607909788598
 30
0.0
 10
107.3302272952161
 20
-147.0607909788598
 30
0.0
 10
107.3195474992118
 20
-147.0442545205306
 30
0.0
 10
107.3133463273383
 20
-147.0311631576866
 30
0.0
 10
107.3133463273383
 20
-147.0311631576866
 30
0.0
 10
107.2137830678146
 20
-146.8664875934917
 30
0.0
 10
107.2137830678146
 20
-146.8664875934917
 30
0.0
 10
107.3154133846295
 20
-146.8347927150274
 30
0.0
 10
107.4656195477864
 20
-146.7796711872634
 30
0.0
 10
107.6644015572853
 20
-146.6170626803596
 30
0.0
 10
107.6644015572853
 20
-146.6170626803596
 30
0.0
 10
107.7215901423404
 20
-146.7900064737192
 30
0.0
 10
107.7215901423404
 20
-146.7900064737192
 30
0.0
 10
107.6282280546902
 20
-146.8726887653652
 30
0.0
 10
107.5396891007192
 20
-146.9298773504203
 30
0.0
 10
107.3894829375624
 20
-147.0036023938047
 30
0.0
  0
SPLINE
  5
125
330
117
100
AcDbEntity
  8
_U+30EC_U+30A4_U+30E4_U+30FC 1
370
     0
100
AcDbSpline
210
0.0
220
0.0
230
1.0
 70
    11
 71
     3
 72
    17
 73
    13
 74
     0
 42
0.0000000001
 43
0.0000000001
 12
1.0
 22
0.0
 32
0.0
 13
1.0
 23
0.0
 33
0.0
 40
0.0
 40
0.0
 40
0.0
 40
0.0
 40
1.0
 40
1.0
 40
1.0
 40
2.0
 40
2.0
 40
2.0
 40
3.0
 40
3.0
 40
3.0
 40
4.0
 40
4.0
 40
4.0
 40
4.0
 10
107.5417561580104
 20
-146.5385145032959
 30
0.0
 10
107.5121283368373
 20
-146.498551395667
 30
0.0
 10
107.4442599557778
 20
-146.4007106838859
 30
0.0
 10
107.2623589141566
 20
-146.291156647455
 30
0.0
 10
107.2623589141566
 20
-146.291156647455
 30
0.0
 10
107.3894829375624
 20
-146.1574869426273
 30
0.0
 10
107.3894829375624
 20
-146.1574869426273
 30
0.0
 10
107.5755180937659
 20
-146.2594617689907
 30
0.0
 10
107.632706678821
 20
-146.3483452325102
 30
0.0
 10
107.660267442703
 20
-146.3903753974302
 30
0.0
 10
107.660267442703
 20
-146.3903753974302
 30
0.0
 10
107.5417561580104
 20
-146.5385145032959
 30
0.0
 10
107.5417561580104
 20
-146.5385145032959
 30
0.0
  0
SPLINE
  5
126
330
117
100
AcDbEntity
  8
_U+30EC_U+30A4_U+30E4_U+30FC 1
370
     0
100
AcDbSpline
210
0.0
220
0.0
230
1.0
 70
    11
 71
     3
 72
    38
 73
    34
 74
     0
 42
0.0000000001
 43
0.0000000001
 12
1.0
 22
0.0
 32
0.0
 13
1.0
 23
0.0
 33
0.0
 40
0.0
 40
0.0
 40
0.0
 40
0.0
 40
1.0
 40
1.0
 40
1.0
 40
2.0
 40
2.0
 40
2.0
 40
3.0
 40
3.0
 40
3.0
 40
4.0
 40
4.0
 40
4.0
 40
5.0
 40
5.0
 40
5.0
 40
6.0
 40
6.0
 40
6.0
 40
7.0
 40
7.0
 40
7.0
 40
8.0
 40
8.0
 40
8.0
 40
9.0
 40
9.0
 40
9.0
 40
10.0
 40
10.0
 40
10.0
 40
11.0
 40
11.0
 40
11.0
 40
11.0
 10
107.9096923558351
 20
-146.2339680623998
 30
0.0
 10
107.9076252985439
 20
-146.2801323419022
 30
0.0
 10
107.9055582412528
 20
-146.3965765693036
 30
0.0
 10
107.9055582412528
 20
-146.4413628106119
 30
0.0
 10
107.9055582412528
 20
-146.4413628106119
 30
0.0
 10
107.9055582412528
 20
-146.787939416428
 30
0.0
 10
107.9055582412528
 20
-146.787939416428
 30
0.0
 10
107.9055582412528
 20
-146.8747558226563
 30
0.0
 10
107.9076252985439
 20
-147.0166937566486
 30
0.0
 10
107.9183050945482
 20
-147.1372720986324
 30
0.0
 10
107.9183050945482
 20
-147.1372720986324
 30
0.0
 10
107.7277913142139
 20
-147.1372720986324
 30
0.0
 10
107.7277913142139
 20
-147.1372720986324
 30
0.0
 10
107.7319254287962
 20
-147.0738823417038
 30
0.0
 10
107.736404052927
 20
-147.0208278712309
 30
0.0
 10
107.7384711102182
 20
-146.9657063434669
 30
0.0
 10
107.7405381675093
 20
-146.843060944192
 30
0.0
 10
107.7426052248005
 20
-146.828591543154
 30
0.0
 10
107.7426052248005
 20
-146.7838053018457
 30
0.0
 10
107.7426052248005
 20
-146.7838053018457
 30
0.0
 10
107.7426052248005
 20
-146.4620333835234
 30
0.0
 10
107.7426052248005
 20
-146.4620333835234
 30
0.0
 10
107.7426052248005
 20
-146.4076008748564
 30
0.0
 10
107.729858371505
 20
-146.1685112481801
 30
0.0
 10
107.7277913142139
 20
-146.1175238349984
 30
0.0
 10
107.7277913142139
 20
-146.1175238349984
 30
0.0
 10
107.928640381004
 20
-146.1450845988804
 30
0.0
 10
107.928640381004
 20
-146.1450845988804
 30
0.0
 10
107.9499999730125
 20
-146.1471516561716
 30
0.0
 10
107.9816948514768
 20
-146.1512857707538
 30
0.0
 10
107.9816948514768
 20
-146.1767794773447
 30
0.0
 10
107.9816948514768
 20
-146.2043402412267
 30
0.0
 10
107.9310519478436
 20
-146.2256998332352
 30
0.0
 10
107.9096923558351
 20
-146.2339680623998
 30
0.0
  0
SPLINE
  5
127
330
117
100
AcDbEntity
  8
_U+30EC_U+30A4_U+30E4_U+30FC 1
370
     0
100
AcDbSpline
210
0.0
220
0.0
230
1.0
 70
    11
 71
     3
 72
    83
 73
    79
 74
     0
 42
0.0000000001
 43
0.0000000001
 12
1.0
 22
0.0
 32
0.0
 13
1.0
 23
0.0
 33
0.0
 40
0.0
 40
0.0
 40
0.0
 40
0.0
 40
1.0
 40
1.0
 40
1.0
 40
2.0
 40
2.0
 40
2.0
 40
3.0
 40
3.0
 40
3.0
 40
4.0
 40
4.0
 40
4.0
 40
5.0
 40
5.0
 40
5.0
 40
6.0
 40
6.0
 40
6.0
 40
7.0
 40
7.0
 40
7.0
 40
8.0
 40
8.0
 40
8.0
 40
9.0
 40
9.0
 40
9.0
 40
10.0
 40
10.0
 40
10.0
 40
11.0
 40
11.0
 40
11.0
 40
12.0
 40
12.0
 40
12.0
 40
13.0
 40
13.0
 40
13.0
 40
14.0
 40
14.0
 40
14.0
 40
15.0
 40
15.0
 40
15.0
 40
16.0
 40
16.0
 40
16.0
 40
17.0
 40
17.0
 40
17.0
 40
18.0
 40
18.0
 40
18.0
 40
19.0
 40
19.0
 40
19.0
 40
20.0
 40
20.0
 40
20.0
 40
21.0
 40
21.0
 40
21.0
 40
22.0
 40
22.0
 40
22.0
 40
23.0
 40
23.0
 40
23.0
 40
24.0
 40
24.0
 40
24.0
 40
25.0
 40
25.0
 40
25.0
 40
26.0
 40
26.0
 40
26.0
 40
26.0
 10
108.7113660752527
 20
-146.5557399807222
 30
0.0
 10
108.7113660752527
 20
-146.5557399807222
 30
0.0
 10
108.6142143825687
 20
-146.5557399807222
 30
0.0
 10
108.6142143825687
 20
-146.5557399807222
 30
0.0
 10
108.6142143825687
 20
-146.5557399807222
 30
0.0
 10
108.6142143825687
 20
-146.8030978365631
 30
0.0
 10
108.6142143825687
 20
-146.8030978365631
 30
0.0
 10
108.6142143825687
 20
-146.8030978365631
 30
0.0
 10
108.6965521646661
 20
-146.8030978365631
 30
0.0
 10
108.6965521646661
 20
-146.8030978365631
 30
0.0
 10
108.7623534884344
 20
-146.8030978365631
 30
0.0
 10
108.901879855587
 20
-146.7989637219808
 30
0.0
 10
109.0014431151108
 20
-146.7900064737192
 30
0.0
 10
109.0014431151108
 20
-146.7900064737192
 30
0.0
 10
109.0014431151108
 20
-146.9698404580492
 30
0.0
 10
109.0014431151108
 20
-146.9698404580492
 30
0.0
 10
108.908425537009
 20
-146.9615722288846
 30
0.0
 10
108.7582193738521
 20
-146.9574381143023
 30
0.0
 10
108.6965521646661
 20
-146.9574381143023
 30
0.0
 10
108.6965521646661
 20
-146.9574381143023
 30
0.0
 10
108.3920057237701
 20
-146.9574381143023
 30
0.0
 10
108.3920057237701
 20
-146.9574381143023
 30
0.0
 10
108.3392957628457
 20
-146.9574381143023
 30
0.0
 10
108.1932237142711
 20
-146.9615722288846
 30
0.0
 10
108.087459282874
 20
-146.9698404580492
 30
0.0
 10
108.087459282874
 20
-146.9698404580492
 30
0.0
 10
108.087459282874
 20
-146.7900064737192
 30
0.0
 10
108.087459282874
 20
-146.7900064737192
 30
0.0
 10
108.1870225423977
 20
-146.7989637219808
 30
0.0
 10
108.3265489095503
 20
-146.8030978365631
 30
0.0
 10
108.3920057237701
 20
-146.8030978365631
 30
0.0
 10
108.3920057237701
 20
-146.8030978365631
 30
0.0
 10
108.4364474555298
 20
-146.8030978365631
 30
0.0
 10
108.4364474555298
 20
-146.8030978365631
 30
0.0
 10
108.4364474555298
 20
-146.8030978365631
 30
0.0
 10
108.4364474555298
 20
-146.5557399807222
 30
0.0
 10
108.4364474555298
 20
-146.5557399807222
 30
0.0
 10
108.4364474555298
 20
-146.5557399807222
 30
0.0
 10
108.3623779025969
 20
-146.5557399807222
 30
0.0
 10
108.3623779025969
 20
-146.5557399807222
 30
0.0
 10
108.3010552029595
 20
-146.5557399807222
 30
0.0
 10
108.1339680719248
 20
-146.5598740953045
 30
0.0
 10
108.0133897299411
 20
-146.5681423244691
 30
0.0
 10
108.0133897299411
 20
-146.5681423244691
 30
0.0
 10
108.0133897299411
 20
-146.3903753974302
 30
0.0
 10
108.0133897299411
 20
-146.3903753974302
 30
0.0
 10
108.1277669000514
 20
-146.3965765693036
 30
0.0
 10
108.2862412923729
 20
-146.4007106838859
 30
0.0
 10
108.3623779025969
 20
-146.4007106838859
 30
0.0
 10
108.3623779025969
 20
-146.4007106838859
 30
0.0
 10
108.4343803982386
 20
-146.4007106838859
 30
0.0
 10
108.4343803982386
 20
-146.4007106838859
 30
0.0
 10
108.4302462836563
 20
-146.2484374634379
 30
0.0
 10
108.4281792263652
 20
-146.2146755276825
 30
0.0
 10
108.4216335449432
 20
-146.1216579495807
 30
0.0
 10
108.4216335449432
 20
-146.1216579495807
 30
0.0
 10
108.6331624077375
 20
-146.1450845988804
 30
0.0
 10
108.6331624077375
 20
-146.1450845988804
 30
0.0
 10
108.6586561143284
 20
-146.1471516561716
 30
0.0
 10
108.6820827636281
 20
-146.1512857707538
 30
0.0
 10
108.6820827636281
 20
-146.1747124200535
 30
0.0
 10
108.6820827636281
 20
-146.2064072985179
 30
0.0
 10
108.6376410318684
 20
-146.2229437568471
 30
0.0
 10
108.6142143825687
 20
-146.2319010051087
 30
0.0
 10
108.6142143825687
 20
-146.2319010051087
 30
0.0
 10
108.6142143825687
 20
-146.4007106838859
 30
0.0
 10
108.6142143825687
 20
-146.4007106838859
 30
0.0
 10
108.6142143825687
 20
-146.4007106838859
 30
0.0
 10
108.7113660752527
 20
-146.4007106838859
 30
0.0
 10
108.7113660752527
 20
-146.4007106838859
 30
0.0
 10
108.7878471950253
 20
-146.4007106838859
 30
0.0
 10
108.9463215873468
 20
-146.3965765693036
 30
0.0
 10
109.0627658147482
 20
-146.3903753974302
 30
0.0
 10
109.0627658147482
 20
-146.3903753974302
 30
0.0
 10
109.0627658147482
 20
-146.5681423244691
 30
0.0
 10
109.0627658147482
 20
-146.5681423244691
 30
0.0
 10
108.9549343260599
 20
-146.5619411525956
 30
0.0
 10
108.7813015136033
 20
-146.5557399807222
 30
0.0
 10
108.7113660752527
 20
-146.5557399807222
 30
0.0
  0
SPLINE
  5
128
330
117
100
AcDbEntity
  8
_U+30EC_U+30A4_U+30E4_U+30FC 1
370
     0
100
AcDbSpline
210
0.0
220
0.0
230
1.0
 70
    11
 71
     3
 72
    17
 73
    13
 74
     0
 42
0.0000000001
 43
0.0000000001
 12
1.0
 22
0.0
 32
0.0
 13
1.0
 23
0.0
 33
0.0
 40
0.0
 40
0.0
 40
0.0
 40
0.0
 40
1.0
 40
1.0
 40
1.0
 40
2.0
 40
2.0
 40
2.0
 40
3.0
 40
3.0
 40
3.0
 40
4.0
 40
4.0
 40
4.0
 40
4.0
 10
108.4660752767029
 20
-147.352935076009
 30
0.0
 10
108.4660752767029
 20
-147.352935076009
 30
0.0
 10
108.2631591526217
 20
-147.352935076009
 30
0.0
 10
108.2631591526217
 20
-147.352935076009
 30
0.0
 10
108.2903754069552
 20
-147.4121907183553
 30
0.0
 10
108.3454969347192
 20
-147.4838487044485
 30
0.0
 10
108.3730576986012
 20
-147.5134765256216
 30
0.0
 10
108.4006184624832
 20
-147.4990071245836
 30
0.0
 10
108.514651123045
 20
-147.435617367655
 30
0.0
 10
108.6056016438556
 20
-147.352935076009
 30
0.0
 10
108.6056016438556
 20
-147.352935076009
 30
0.0
 10
108.4660752767029
 20
-147.352935076009
 30
0.0
 10
108.4660752767029
 20
-147.352935076009
 30
0.0
  0
HATCH
  5
129
330
117
100
AcDbEntity
  8
_U+30EC_U+30A4_U+30E4_U+30FC 1
 62
   179
420
  2234388
100
AcDbHatch
 10
0.0
 20
0.0
 30
0.0
210
0.0
220
0.0
230
1.0
  2
SOLID
 70
     1
 71
     0
 91
        6
 92
        1
 93
        1
 72
     4
 94
        3
 73
     0
 74
     1
 95
      113
 96
      109
 40
0.0
 40
0.0
 40
0.0
 40
0.0
 40
1.0
 40
1.0
 40
1.0
 40
2.0
 40
2.0
 40
2.0
 40
3.0
 40
3.0
 40
3.0
 40
4.0
 40
4.0
 40
4.0
 40
5.0
 40
5.0
 40
5.0
 40
6.0
 40
6.0
 40
6.0
 40
7.0
 40
7.0
 40
7.0
 40
8.0
 40
8.0
 40
8.0
 40
9.0
 40
9.0
 40
9.0
 40
10.0
 40
10.0
 40
10.0
 40
11.0
 40
11.0
 40
11.0
 40
12.0
 40
12.0
 40
12.0
 40
13.0
 40
13.0
 40
13.0
 40
14.0
 40
14.0
 40
14.0
 40
15.0
 40
15.0
 40
15.0
 40
16.0
 40
16.0
 40
16.0
 40
17.0
 40
17.0
 40
17.0
 40
18.0
 40
18.0
 40
18.0
 40
19.0
 40
19.0
 40
19.0
 40
20.0
 40
20.0
 40
20.0
 40
21.0
 40
21.0
 40
21.0
 40
22.0
 40
22.0
 40
22.0
 40
23.0
 40
23.0
 40
23.0
 40
24.0
 40
24.0
 40
24.0
 40
25.0
 40
25.0
 40
25.0
 40
26.0
 40
26.0
 40
26.0
 40
27.0
 40
27.0
 40
27.0
 40
28.0
 40
28.0
 40
28.0
 40
29.0
 40
29.0
 40
29.0
 40
30.0
 40
30.0
 40
30.0
 40
31.0
 40
31.0
 40
31.0
 40
32.0
 40
32.0
 40
32.0
 40
33.0
 40
33.0
 40
33.0
 40
34.0
 40
34.0
 40
34.0
 40
35.0
 40
35.0
 40
35.0
 40
36.0
 40
36.0
 40
36.0
 40
36.0
 10
108.673470024915
 20
-147.3550021333001
 10
108.673470024915
 20
-147.3550021333001
 10
108.7730332844387
 20
-147.4542208832754
 10
108.7730332844387
 20
-147.4542208832754
 10
108.7833685708944
 20
-147.4652451888281
 10
108.7940483668987
 20
-147.477647532575
 10
108.7940483668987
 20
-147.4928059527101
 10
108.7940483668987
 20
-147.4948730100013
 10
108.7940483668987
 20
-147.5245008311744
 10
108.7558078070124
 20
-147.5245008311744
 10
108.7475395778478
 20
-147.5245008311744
 10
108.7072319606704
 20
-147.5203667165922
 10
108.701030788797
 20
-147.5203667165922
 10
108.6607231716196
 20
-147.5520615950564
 10
108.6142143825687
 20
-147.5858235308119
 10
108.514651123045
 20
-147.643012115867
 10
108.6607231716196
 20
-147.7504990950068
 10
108.8195420734896
 20
-147.807687680062
 10
109.0923936359214
 20
-147.8455837303997
 10
109.0923936359214
 20
-147.8455837303997
 10
108.9421874727645
 20
-148.0212836001475
 10
108.9421874727645
 20
-148.0212836001475
 10
108.6796711967884
 20
-147.9496256140543
 10
108.5232638617581
 20
-147.8607421505348
 10
108.4471272515341
 20
-147.807687680062
 10
108.2969210883772
 20
-147.7064018727956
 10
108.1529160970937
 20
-147.5431043467948
 10
108.0767794868697
 20
-147.3784287825999
 10
108.0092556153588
 20
-147.4438855968196
 10
107.9351860624259
 20
-147.4969400672924
 10
107.8569823949108
 20
-147.5451714040859
 10
107.8569823949108
 20
-147.5451714040859
 10
107.8569823949108
 20
-147.7973523936062
 10
107.8569823949108
 20
-147.7973523936062
 10
108.0195909018146
 20
-147.7718586870154
 10
108.2059705675666
 20
-147.7270724457071
 10
108.2693603244952
 20
-147.7126030446691
 10
108.2693603244952
 20
-147.7126030446691
 10
108.239732503322
 20
-147.8821017425434
 10
108.239732503322
 20
-147.8821017425434
 10
108.2376654460309
 20
-147.8821017425434
 10
108.218717420862
 20
-147.8883029144168
 10
108.2166503635708
 20
-147.8883029144168
 10
108.0175238445234
 20
-147.9261989647546
 10
107.7002305503319
 20
-147.9916557789743
 10
107.5035155981241
 20
-148.0274847720209
 10
107.4928358021199
 20
-148.0447102494471
 10
107.4697536623687
 20
-148.0764051279115
 10
107.446327013069
 20
-148.0764051279115
 10
107.4191107587355
 20
-148.0764051279115
 10
107.4146321346047
 20
-148.0571125931941
 10
107.4125650773135
 20
-148.0385090775737
 10
107.4125650773135
 20
-148.0385090775737
 10
107.3870713707227
 20
-147.8648762651171
 10
107.3870713707227
 20
-147.8648762651171
 10
107.4611409236555
 20
-147.8566080359525
 10
107.5693169218924
 20
-147.8435166731086
 10
107.6771484105807
 20
-147.8228461001971
 10
107.6771484105807
 20
-147.8228461001971
 10
107.6771484105807
 20
-147.6450791731582
 10
107.6771484105807
 20
-147.6450791731582
 10
107.5331434192973
 20
-147.7167371592514
 10
107.4380587839044
 20
-147.7463649804245
 10
107.2730387101609
 20
-147.7759928015977
 10
107.2730387101609
 20
-147.7759928015977
 10
107.1524603681772
 20
-147.6064941037234
 10
107.1524603681772
 20
-147.6064941037234
 10
107.4697536623687
 20
-147.5796223589384
 10
107.6623344999941
 20
-147.4859157617396
 10
107.840101427033
 20
-147.352935076009
 10
107.6940293784584
 20
-147.352935076009
 10
107.3936170521447
 20
-147.3570691905913
 10
107.1969020999369
 20
-147.3632703624647
 10
107.1969020999369
 20
-147.3632703624647
 10
107.1969020999369
 20
-147.1855034354259
 10
107.1969020999369
 20
-147.1855034354259
 10
107.3512423776761
 20
-147.1923936263964
 10
107.6475205894076
 20
-147.1985947982698
 10
107.8314886883199
 20
-147.1985947982698
 10
107.8314886883199
 20
-147.1985947982698
 10
108.0430175511142
 20
-147.1985947982698
 10
108.0430175511142
 20
-147.1985947982698
 10
108.0430175511142
 20
-147.1035101628769
 10
108.0409504938231
 20
-147.0525227496952
 10
108.0344048124011
 20
-147.0056694510958
 10
108.0344048124011
 20
-147.0056694510958
 10
108.2504122993263
 20
-147.022894928522
 10
108.2504122993263
 20
-147.022894928522
 10
108.2989881456683
 20
-147.0270290431044
 10
108.3076008843814
 20
-147.0421874632395
 10
108.3076008843814
 20
-147.0566568642775
 10
108.3076008843814
 20
-147.0821505708684
 10
108.2903754069552
 20
-147.0904188000329
 10
108.239732503322
 20
-147.1159125066238
 10
108.2376654460309
 20
-147.1414062132147
 10
108.2376654460309
 20
-147.1476073850881
 10
108.2355983887397
 20
-147.1985947982698
 10
108.2355983887397
 20
-147.1985947982698
 10
108.4660752767029
 20
-147.1985947982698
 10
108.4660752767029
 20
-147.1985947982698
 10
108.6310953504464
 20
-147.1985947982698
 10
108.9232394475956
 20
-147.1923936263964
 10
109.1027289223771
 20
-147.1855034354259
 10
109.1027289223771
 20
-147.1855034354259
 10
109.1027289223771
 20
-147.3632703624647
 10
109.1027289223771
 20
-147.3632703624647
 10
108.9738823512288
 20
-147.3591362478824
 10
108.9504557019291
 20
-147.3591362478824
 10
108.673470024915
 20
-147.3550021333001
 97
        0
 97
        0
 92
        1
 93
        1
 72
     4
 94
        3
 73
     0
 74
     1
 95
       23
 96
       19
 40
0.0
 40
0.0
 40
0.0
 40
0.0
 40
1.0
 40
1.0
 40
1.0
 40
2.0
 40
2.0
 40
2.0
 40
3.0
 40
3.0
 40
3.0
 40
4.0
 40
4.0
 40
4.0
 40
5.0
 40
5.0
 40
5.0
 40
6.0
 40
6.0
 40
6.0
 40
6.0
 10
107.3894829375624
 20
-147.0036023938047
 10
107.3722574601361
 20
-147.0442545205306
 10
107.3660562882627
 20
-147.0607909788598
 10
107.3450412058026
 20
-147.0607909788598
 10
107.3302272952161
 20
-147.0607909788598
 10
107.3195474992118
 20
-147.0442545205306
 10
107.3133463273383
 20
-147.0311631576866
 10
107.3133463273383
 20
-147.0311631576866
 10
107.2137830678146
 20
-146.8664875934917
 10
107.2137830678146
 20
-146.8664875934917
 10
107.3154133846295
 20
-146.8347927150274
 10
107.4656195477864
 20
-146.7796711872634
 10
107.6644015572853
 20
-146.6170626803596
 10
107.6644015572853
 20
-146.6170626803596
 10
107.7215901423404
 20
-146.7900064737192
 10
107.7215901423404
 20
-146.7900064737192
 10
107.6282280546902
 20
-146.8726887653652
 10
107.5396891007192
 20
-146.9298773504203
 10
107.3894829375624
 20
-147.0036023938047
 97
        0
 97
        0
 92
        1
 93
        1
 72
     4
 94
        3
 73
     0
 74
     1
 95
       17
 96
       13
 40
0.0
 40
0.0
 40
0.0
 40
0.0
 40
1.0
 40
1.0
 40
1.0
 40
2.0
 40
2.0
 40
2.0
 40
3.0
 40
3.0
 40
3.0
 40
4.0
 40
4.0
 40
4.0
 40
4.0
 10
107.5417561580104
 20
-146.5385145032959
 10
107.5121283368373
 20
-146.498551395667
 10
107.4442599557778
 20
-146.4007106838859
 10
107.2623589141566
 20
-146.291156647455
 10
107.2623589141566
 20
-146.291156647455
 10
107.3894829375624
 20
-146.1574869426273
 10
107.3894829375624
 20
-146.1574869426273
 10
107.5755180937659
 20
-146.2594617689907
 10
107.632706678821
 20
-146.3483452325102
 10
107.660267442703
 20
-146.3903753974302
 10
107.660267442703
 20
-146.3903753974302
 10
107.5417561580104
 20
-146.5385145032959
 10
107.5417561580104
 20
-146.5385145032959
 97
        0
 97
        0
 92
        1
 93
        1
 72
     4
 94
        3
 73
     0
 74
     1
 95
       38
 96
       34
 40
0.0
 40
0.0
 40
0.0
 40
0.0
 40
1.0
 40
1.0
 40
1.0
 40
2.0
 40
2.0
 40
2.0
 40
3.0
 40
3.0
 40
3.0
 40
4.0
 40
4.0
 40
4.0
 40
5.0
 40
5.0
 40
5.0
 40
6.0
 40
6.0
 40
6.0
 40
7.0
 40
7.0
 40
7.0
 40
8.0
 40
8.0
 40
8.0
 40
9.0
 40
9.0
 40
9.0
 40
10.0
 40
10.0
 40
10.0
 40
11.0
 40
11.0
 40
11.0
 40
11.0
 10
107.9096923558351
 20
-146.2339680623998
 10
107.9076252985439
 20
-146.2801323419022
 10
107.9055582412528
 20
-146.3965765693036
 10
107.9055582412528
 20
-146.4413628106119
 10
107.9055582412528
 20
-146.4413628106119
 10
107.9055582412528
 20
-146.787939416428
 10
107.9055582412528
 20
-146.787939416428
 10
107.9055582412528
 20
-146.8747558226563
 10
107.9076252985439
 20
-147.0166937566486
 10
107.9183050945482
 20
-147.1372720986324
 10
107.9183050945482
 20
-147.1372720986324
 10
107.7277913142139
 20
-147.1372720986324
 10
107.7277913142139
 20
-147.1372720986324
 10
107.7319254287962
 20
-147.0738823417038
 10
107.736404052927
 20
-147.0208278712309
 10
107.7384711102182
 20
-146.9657063434669
 10
107.7405381675093
 20
-146.843060944192
 10
107.7426052248005
 20
-146.828591543154
 10
107.7426052248005
 20
-146.7838053018457
 10
107.7426052248005
 20
-146.7838053018457
 10
107.7426052248005
 20
-146.4620333835234
 10
107.7426052248005
 20
-146.4620333835234
 10
107.7426052248005
 20
-146.4076008748564
 10
107.729858371505
 20
-146.1685112481801
 10
107.7277913142139
 20
-146.1175238349984
 10
107.7277913142139
 20
-146.1175238349984
 10
107.928640381004
 20
-146.1450845988804
 10
107.928640381004
 20
-146.1450845988804
 10
107.9499999730125
 20
-146.1471516561716
 10
107.9816948514768
 20
-146.1512857707538
 10
107.9816948514768
 20
-146.1767794773447
 10
107.9816948514768
 20
-146.2043402412267
 10
107.9310519478436
 20
-146.2256998332352
 10
107.9096923558351
 20
-146.2339680623998
 97
        0
 97
        0
 92
        1
 93
        1
 72
     4
 94
        3
 73
     0
 74
     1
 95
       83
 96
       79
 40
0.0
 40
0.0
 40
0.0
 40
0.0
 40
1.0
 40
1.0
 40
1.0
 40
2.0
 40
2.0
 40
2.0
 40
3.0
 40
3.0
 40
3.0
 40
4.0
 40
4.0
 40
4.0
 40
5.0
 40
5.0
 40
5.0
 40
6.0
 40
6.0
 40
6.0
 40
7.0
 40
7.0
 40
7.0
 40
8.0
 40
8.0
 40
8.0
 40
9.0
 40
9.0
 40
9.0
 40
10.0
 40
10.0
 40
10.0
 40
11.0
 40
11.0
 40
11.0
 40
12.0
 40
12.0
 40
12.0
 40
13.0
 40
13.0
 40
13.0
 40
14.0
 40
14.0
 40
14.0
 40
15.0
 40
15.0
 40
15.0
 40
16.0
 40
16.0
 40
16.0
 40
17.0
 40
17.0
 40
17.0
 40
18.0
 40
18.0
 40
18.0
 40
19.0
 40
19.0
 40
19.0
 40
20.0
 40
20.0
 40
20.0
 40
21.0
 40
21.0
 40
21.0
 40
22.0
 40
22.0
 40
22.0
 40
23.0
 40
23.0
 40
23.0
 40
24.0
 40
24.0
 40
24.0
 40
25.0
 40
25.0
 40
25.0
 40
26.0
 40
26.0
 40
26.0
 40
26.0
 10
108.7113660752527
 20
-146.5557399807222
 10
108.7113660752527
 20
-146.5557399807222
 10
108.6142143825687
 20
-146.5557399807222
 10
108.6142143825687
 20
-146.5557399807222
 10
108.6142143825687
 20
-146.5557399807222
 10
108.6142143825687
 20
-146.8030978365631
 10
108.6142143825687
 20
-146.8030978365631
 10
108.6142143825687
 20
-146.8030978365631
 10
108.6965521646661
 20
-146.8030978365631
 10
108.6965521646661
 20
-146.8030978365631
 10
108.7623534884344
 20
-146.8030978365631
 10
108.901879855587
 20
-146.7989637219808
 10
109.0014431151108
 20
-146.7900064737192
 10
109.0014431151108
 20
-146.7900064737192
 10
109.0014431151108
 20
-146.9698404580492
 10
109.0014431151108
 20
-146.9698404580492
 10
108.908425537009
 20
-146.9615722288846
 10
108.7582193738521
 20
-146.9574381143023
 10
108.6965521646661
 20
-146.9574381143023
 10
108.6965521646661
 20
-146.9574381143023
 10
108.3920057237701
 20
-146.9574381143023
 10
108.3920057237701
 20
-146.9574381143023
 10
108.3392957628457
 20
-146.9574381143023
 10
108.1932237142711
 20
-146.9615722288846
 10
108.087459282874
 20
-146.9698404580492
 10
108.087459282874
 20
-146.9698404580492
 10
108.087459282874
 20
-146.7900064737192
 10
108.087459282874
 20
-146.7900064737192
 10
108.1870225423977
 20
-146.7989637219808
 10
108.3265489095503
 20
-146.8030978365631
 10
108.3920057237701
 20
-146.8030978365631
 10
108.3920057237701
 20
-146.8030978365631
 10
108.4364474555298
 20
-146.8030978365631
 10
108.4364474555298
 20
-146.8030978365631
 10
108.4364474555298
 20
-146.8030978365631
 10
108.4364474555298
 20
-146.5557399807222
 10
108.4364474555298
 20
-146.5557399807222
 10
108.4364474555298
 20
-146.5557399807222
 10
108.3623779025969
 20
-146.5557399807222
 10
108.3623779025969
 20
-146.5557399807222
 10
108.3010552029595
 20
-146.5557399807222
 10
108.1339680719248
 20
-146.5598740953045
 10
108.0133897299411
 20
-146.5681423244691
 10
108.0133897299411
 20
-146.5681423244691
 10
108.0133897299411
 20
-146.3903753974302
 10
108.0133897299411
 20
-146.3903753974302
 10
108.1277669000514
 20
-146.3965765693036
 10
108.2862412923729
 20
-146.4007106838859
 10
108.3623779025969
 20
-146.4007106838859
 10
108.3623779025969
 20
-146.4007106838859
 10
108.4343803982386
 20
-146.4007106838859
 10
108.4343803982386
 20
-146.4007106838859
 10
108.4302462836563
 20
-146.2484374634379
 10
108.4281792263652
 20
-146.2146755276825
 10
108.4216335449432
 20
-146.1216579495807
 10
108.4216335449432
 20
-146.1216579495807
 10
108.6331624077375
 20
-146.1450845988804
 10
108.6331624077375
 20
-146.1450845988804
 10
108.6586561143284
 20
-146.1471516561716
 10
108.6820827636281
 20
-146.1512857707538
 10
108.6820827636281
 20
-146.1747124200535
 10
108.6820827636281
 20
-146.2064072985179
 10
108.6376410318684
 20
-146.2229437568471
 10
108.6142143825687
 20
-146.2319010051087
 10
108.6142143825687
 20
-146.2319010051087
 10
108.6142143825687
 20
-146.4007106838859
 10
108.6142143825687
 20
-146.4007106838859
 10
108.6142143825687
 20
-146.4007106838859
 10
108.7113660752527
 20
-146.4007106838859
 10
108.7113660752527
 20
-146.4007106838859
 10
108.7878471950253
 20
-146.4007106838859
 10
108.9463215873468
 20
-146.3965765693036
 10
109.0627658147482
 20
-146.3903753974302
 10
109.0627658147482
 20
-146.3903753974302
 10
109.0627658147482
 20
-146.5681423244691
 10
109.0627658147482
 20
-146.5681423244691
 10
108.9549343260599
 20
-146.5619411525956
 10
108.7813015136033
 20
-146.5557399807222
 10
108.7113660752527
 20
-146.5557399807222
 97
        0
 97
        0
 92
        1
 93
        1
 72
     4
 94
        3
 73
     0
 74
     1
 95
       17
 96
       13
 40
0.0
 40
0.0
 40
0.0
 40
0.0
 40
1.0
 40
1.0
 40
1.0
 40
2.0
 40
2.0
 40
2.0
 40
3.0
 40
3.0
 40
3.0
 40
4.0
 40
4.0
 40
4.0
 40
4.0
 10
108.4660752767029
 20
-147.352935076009
 10
108.4660752767029
 20
-147.352935076009
 10
108.2631591526217
 20
-147.352935076009
 10
108.2631591526217
 20
-147.352935076009
 10
108.2903754069552
 20
-147.4121907183553
 10
108.3454969347192
 20
-147.4838487044485
 10
108.3730576986012
 20
-147.5134765256216
 10
108.4006184624832
 20
-147.4990071245836
 10
108.514651123045
 20
-147.435617367655
 10
108.6056016438556
 20
-147.352935076009
 10
108.6056016438556
 20
-147.352935076009
 10
108.4660752767029
 20
-147.352935076009
 10
108.4660752767029
 20
-147.352935076009
 97
        0
 97
        0
 75
     2
 76
     1
 98
        0
  0
SPLINE
  5
12A
330
117
100
AcDbEntity
  8
_U+30EC_U+30A4_U+30E4_U+30FC 1
370
     0
100
AcDbSpline
210
0.0
220
0.0
230
1.0
 70
    11
 71
     3
 72
    77
 73
    73
 74
     0
 42
0.0000000001
 43
0.0000000001
 12
1.0
 22
0.0
 32
0.0
 13
1.0
 23
0.0
 33
0.0
 40
0.0
 40
0.0
 40
0.0
 40
0.0
 40
1.0
 40
1.0
 40
1.0
 40
2.0
 40
2.0
 40
2.0
 40
3.0
 40
3.0
 40
3.0
 40
4.0
 40
4.0
 40
4.0
 40
5.0
 40
5.0
 40
5.0
 40
6.0
 40
6.0
 40
6.0
 40
7.0
 40
7.0
 40
7.0
 40
8.0
 40
8.0
 40
8.0
 40
9.0
 40
9.0
 40
9.0
 40
10.0
 40
10.0
 40
10.0
 40
11.0
 40
11.0
 40
11.0
 40
12.0
 40
12.0
 40
12.0
 40
13.0
 40
13.0
 40
13.0
 40
14.0
 40
14.0
 40
14.0
 40
15.0
 40
15.0
 40
15.0
 40
16.0
 40
16.0
 40
16.0
 40
17.0
 40
17.0
 40
17.0
 40
18.0
 40
18.0
 40
18.0
 40
19.0
 40
19.0
 40
19.0
 40
20.0
 40
20.0
 40
20.0
 40
21.0
 40
21.0
 40
21.0
 40
22.0
 40
22.0
 40
22.0
 40
23.0
 40
23.0
 40
23.0
 40
24.0
 40
24.0
 40
24.0
 40
24.0
 10
110.9572238220871
 20
-147.9833875498097
 30
0.0
 10
110.9107150330362
 20
-148.0088812564006
 30
0.0
 10
110.7860025764702
 20
-148.0212836001475
 30
0.0
 10
110.707798908955
 20
-148.0212836001475
 30
0.0
 10
110.6950520556596
 20
-148.0212836001475
 30
0.0
 10
110.6695583490687
 20
-148.0212836001475
 30
0.0
 10
110.6357964133133
 20
-148.0171494855652
 30
0.0
 10
110.6357964133133
 20
-148.0171494855652
 30
0.0
 10
110.5383002110807
 20
-147.7911512217328
 30
0.0
 10
110.5383002110807
 20
-147.7911512217328
 30
0.0
 10
110.5679280322539
 20
-147.7973523936062
 30
0.0
 10
110.625116617309
 20
-147.8056206227708
 30
0.0
 10
110.7415608447104
 20
-147.8056206227708
 30
0.0
 10
110.8197645122256
 20
-147.8056206227708
 30
0.0
 10
110.8218315695168
 20
-147.7635904578508
 30
0.0
 10
110.8218315695168
 20
-147.7064018727956
 30
0.0
 10
110.8218315695168
 20
-147.7064018727956
 30
0.0
 10
110.8218315695168
 20
-147.3570691905913
 30
0.0
 10
110.8218315695168
 20
-147.3570691905913
 30
0.0
 10
110.8218315695168
 20
-147.3570691905913
 30
0.0
 10
110.3629448508815
 20
-147.3570691905913
 30
0.0
 10
110.3629448508815
 20
-147.3570691905913
 30
0.0
 10
110.3650119081726
 20
-147.4948730100013
 30
0.0
 10
110.3670789654638
 20
-147.6933105099517
 30
0.0
 10
110.3732801373372
 20
-147.8269802147794
 30
0.0
 10
110.3756917041769
 20
-147.8545409786614
 30
0.0
 10
110.3756917041769
 20
-147.8986382008726
 30
0.0
 10
110.3880940479238
 20
-147.95996090051
 30
0.0
 10
110.3880940479238
 20
-147.95996090051
 30
0.0
 10
110.1469373639563
 20
-147.95996090051
 30
0.0
 10
110.1469373639563
 20
-147.95996090051
 30
0.0
 10
110.1724310705472
 20
-147.835248443944
 30
0.0
 10
110.1724310705472
 20
-147.4948730100013
 30
0.0
 10
110.1724310705472
 20
-147.3570691905913
 30
0.0
 10
110.1724310705472
 20
-147.3570691905913
 30
0.0
 10
109.7304253197896
 20
-147.3570691905913
 30
0.0
 10
109.7304253197896
 20
-147.3570691905913
 30
0.0
 10
109.7069986704899
 20
-147.5644639388033
 30
0.0
 10
109.6415418562702
 20
-147.8331813866528
 30
0.0
 10
109.4448269040624
 20
-148.0171494855652
 30
0.0
 10
109.4448269040624
 20
-148.0171494855652
 30
0.0
 10
109.2563801810192
 20
-147.8945040862903
 30
0.0
 10
109.2563801810192
 20
-147.8945040862903
 30
0.0
 10
109.5102837182822
 20
-147.6747069943313
 30
0.0
 10
109.5419785967465
 20
-147.3425997895532
 30
0.0
 10
109.5419785967465
 20
-147.0104925847752
 30
0.0
 10
109.5419785967465
 20
-147.0104925847752
 30
0.0
 10
109.5419785967465
 20
-146.5743434963425
 30
0.0
 10
109.5419785967465
 20
-146.5743434963425
 30
0.0
 10
109.5419785967465
 20
-146.5385145032959
 30
0.0
 10
109.5399115394553
 20
-146.3056260484931
 30
0.0
 10
109.5312988007422
 20
-146.2043402412267
 30
0.0
 10
109.6711696774433
 20
-146.2146755276825
 30
0.0
 10
109.9123263614108
 20
-146.2146755276825
 30
0.0
 10
110.0559868431457
 20
-146.2146755276825
 30
0.0
 10
110.0559868431457
 20
-146.2146755276825
 30
0.0
 10
110.5152180713295
 20
-146.2146755276825
 30
0.0
 10
110.5152180713295
 20
-146.2146755276825
 30
0.0
 10
110.5300319819161
 20
-146.2146755276825
 30
0.0
 10
110.8790201545719
 20
-146.2146755276825
 30
0.0
 10
111.0378390564419
 20
-146.2043402412267
 30
0.0
 10
111.0354274896023
 20
-146.2573947116995
 30
0.0
 10
111.0292263177288
 20
-146.4179361613122
 30
0.0
 10
111.0292263177288
 20
-146.4689235744939
 30
0.0
 10
111.0292263177288
 20
-146.4689235744939
 30
0.0
 10
111.0292263177288
 20
-147.0759493989949
 30
0.0
 10
111.0292263177288
 20
-147.0759493989949
 30
0.0
 10
111.0292263177288
 20
-147.0945529146153
 30
0.0
 10
111.0399061137331
 20
-147.6657497460697
 30
0.0
 10
111.0399061137331
 20
-147.7780598588888
 30
0.0
 10
111.0399061137331
 20
-147.835248443944
 30
0.0
 10
111.0399061137331
 20
-147.9365342512103
 30
0.0
 10
110.9572238220871
 20
-147.9833875498097
 30
0.0
  0
POLYLINE
  5
12B
330
117
100
AcDbEntity
  8
_U+30EC_U+30A4_U+30E4_U+30FC 1
370
     0
100
AcDb2dPolyline
 66
     1
 10
0.0
 20
0.0
 30
0.0
  0
VERTEX
  5
12C
330
12B
100
AcDbEntity
  8
_U+30EC_U+30A4_U+30E4_U+30FC 1
370
     0
100
AcDbVertex
100
AcDb2dVertex
 10
110.1724310705472
 20
-146.3965765693036
 30
0.0
  0
VERTEX
  5
12D
330
12B
100
AcDbEntity
  8
_U+30EC_U+30A4_U+30E4_U+30FC 1
370
     0
100
AcDbVertex
100
AcDb2dVertex
 10
109.7345594343719
 20
-146.3965765693036
 30
0.0
  0
VERTEX
  5
12E
330
12B
100
AcDbEntity
  8
_U+30EC_U+30A4_U+30E4_U+30FC 1
370
     0
100
AcDbVertex
100
AcDb2dVertex
 10
109.7345594343719
 20
-146.7011230101997
 30
0.0
  0
VERTEX
  5
12F
330
12B
100
AcDbEntity
  8
_U+30EC_U+30A4_U+30E4_U+30FC 1
370
     0
100
AcDbVertex
100
AcDb2dVertex
 10
110.1724310705472
 20
-146.7011230101997
 30
0.0
  0
VERTEX
  5
130
330
12B
100
AcDbEntity
  8
_U+30EC_U+30A4_U+30E4_U+30FC 1
370
     0
100
AcDbVertex
100
AcDb2dVertex
 10
110.1724310705472
 20
-146.3965765693036
 30
0.0
  0
SEQEND
  5
131
330
12B
100
AcDbEntity
  8
_U+30EC_U+30A4_U+30E4_U+30FC 1
370
     0
  0
POLYLINE
  5
132
330
117
100
AcDbEntity
  8
_U+30EC_U+30A4_U+30E4_U+30FC 1
370
     0
100
AcDb2dPolyline
 66
     1
 10
0.0
 20
0.0
 30
0.0
  0
VERTEX
  5
133
330
132
100
AcDbEntity
  8
_U+30EC_U+30A4_U+30E4_U+30FC 1
370
     0
100
AcDbVertex
100
AcDb2dVertex
 10
110.1724310705472
 20
-146.8685546507829
 30
0.0
  0
VERTEX
  5
134
330
132
100
AcDbEntity
  8
_U+30EC_U+30A4_U+30E4_U+30FC 1
370
     0
100
AcDbVertex
100
AcDb2dVertex
 10
109.7345594343719
 20
-146.8685546507829
 30
0.0
  0
VERTEX
  5
135
330
132
100
AcDbEntity
  8
_U+30EC_U+30A4_U+30E4_U+30FC 1
370
     0
100
AcDbVertex
100
AcDb2dVertex
 10
109.7345594343719
 20
-147.1772352062613
 30
0.0
  0
VERTEX
  5
136
330
132
100
AcDbEntity
  8
_U+30EC_U+30A4_U+30E4_U+30FC 1
370
     0
100
AcDbVertex
100
AcDb2dVertex
 10
110.1724310705472
 20
-147.1772352062613
 30
0.0
  0
VERTEX
  5
137
330
132
100
AcDbEntity
  8
_U+30EC_U+30A4_U+30E4_U+30FC 1
370
     0
100
AcDbVertex
100
AcDb2dVertex
 10
110.1724310705472
 20
-146.8685546507829
 30
0.0
  0
SEQEND
  5
138
330
132
100
AcDbEntity
  8
_U+30EC_U+30A4_U+30E4_U+30FC 1
370
     0
  0
POLYLINE
  5
139
330
117
100
AcDbEntity
  8
_U+30EC_U+30A4_U+30E4_U+30FC 1
370
     0
100
AcDb2dPolyline
 66
     1
 10
0.0
 20
0.0
 30
0.0
  0
VERTEX
  5
13A
330
139
100
AcDbEntity
  8
_U+30EC_U+30A4_U+30E4_U+30FC 1
370
     0
100
AcDbVertex
100
AcDb2dVertex
 10
110.8218315695168
 20
-146.3965765693036
 30
0.0
  0
VERTEX
  5
13B
330
139
100
AcDbEntity
  8
_U+30EC_U+30A4_U+30E4_U+30FC 1
370
     0
100
AcDbVertex
100
AcDb2dVertex
 10
110.3629448508815
 20
-146.3965765693036
 30
0.0
  0
VERTEX
  5
13C
330
139
100
AcDbEntity
  8
_U+30EC_U+30A4_U+30E4_U+30FC 1
370
     0
100
AcDbVertex
100
AcDb2dVertex
 10
110.3629448508815
 20
-146.7011230101997
 30
0.0
  0
VERTEX
  5
13D
330
139
100
AcDbEntity
  8
_U+30EC_U+30A4_U+30E4_U+30FC 1
370
     0
100
AcDbVertex
100
AcDb2dVertex
 10
110.8218315695168
 20
-146.7011230101997
 30
0.0
  0
VERTEX
  5
13E
330
139
100
AcDbEntity
  8
_U+30EC_U+30A4_U+30E4_U+30FC 1
370
     0
100
AcDbVertex
100
AcDb2dVertex
 10
110.8218315695168
 20
-146.3965765693036
 30
0.0
  0
SEQEND
  5
13F
330
139
100
AcDbEntity
  8
_U+30EC_U+30A4_U+30E4_U+30FC 1
370
     0
  0
POLYLINE
  5
140
330
117
100
AcDbEntity
  8
_U+30EC_U+30A4_U+30E4_U+30FC 1
370
     0
100
AcDb2dPolyline
 66
     1
 10
0.0
 20
0.0
 30
0.0
  0
VERTEX
  5
141
330
140
100
AcDbEntity
  8
_U+30EC_U+30A4_U+30E4_U+30FC 1
370
     0
100
AcDbVertex
100
AcDb2dVertex
 10
110.8218315695168
 20
-146.8685546507829
 30
0.0
  0
VERTEX
  5
142
330
140
100
AcDbEntity
  8
_U+30EC_U+30A4_U+30E4_U+30FC 1
370
     0
100
AcDbVertex
100
AcDb2dVertex
 10
110.3629448508815
 20
-146.8685546507829
 30
0.0
  0
VERTEX
  5
143
330
140
100
AcDbEntity
  8
_U+30EC_U+30A4_U+30E4_U+30FC 1
370
     0
100
AcDbVertex
100
AcDb2dVertex
 10
110.3629448508815
 20
-147.1772352062613
 30
0.0
  0
VERTEX
  5
144
330
140
100
AcDbEntity
  8
_U+30EC_U+30A4_U+30E4_U+30FC 1
370
     0
100
AcDbVertex
100
AcDb2dVertex
 10
110.8218315695168
 20
-147.1772352062613
 30
0.0
  0
VERTEX
  5
145
330
140
100
AcDbEntity
  8
_U+30EC_U+30A4_U+30E4_U+30FC 1
370
     0
100
AcDbVertex
100
AcDb2dVertex
 10
110.8218315695168
 20
-146.8685546507829
 30
0.0
  0
SEQEND
  5
146
330
140
100
AcDbEntity
  8
_U+30EC_U+30A4_U+30E4_U+30FC 1
370
     0
  0
HATCH
  5
147
330
117
100
AcDbEntity
  8
_U+30EC_U+30A4_U+30E4_U+30FC 1
 62
   179
420
  2234388
100
AcDbHatch
 10
0.0
 20
0.0
 30
0.0
210
0.0
220
0.0
230
1.0
  2
SOLID
 70
     1
 71
     0
 91
        5
 92
        1
 93
        1
 72
     4
 94
        3
 73
     0
 74
     1
 95
       77
 96
       73
 40
0.0
 40
0.0
 40
0.0
 40
0.0
 40
1.0
 40
1.0
 40
1.0
 40
2.0
 40
2.0
 40
2.0
 40
3.0
 40
3.0
 40
3.0
 40
4.0
 40
4.0
 40
4.0
 40
5.0
 40
5.0
 40
5.0
 40
6.0
 40
6.0
 40
6.0
 40
7.0
 40
7.0
 40
7.0
 40
8.0
 40
8.0
 40
8.0
 40
9.0
 40
9.0
 40
9.0
 40
10.0
 40
10.0
 40
10.0
 40
11.0
 40
11.0
 40
11.0
 40
12.0
 40
12.0
 40
12.0
 40
13.0
 40
13.0
 40
13.0
 40
14.0
 40
14.0
 40
14.0
 40
15.0
 40
15.0
 40
15.0
 40
16.0
 40
16.0
 40
16.0
 40
17.0
 40
17.0
 40
17.0
 40
18.0
 40
18.0
 40
18.0
 40
19.0
 40
19.0
 40
19.0
 40
20.0
 40
20.0
 40
20.0
 40
21.0
 40
21.0
 40
21.0
 40
22.0
 40
22.0
 40
22.0
 40
23.0
 40
23.0
 40
23.0
 40
24.0
 40
24.0
 40
24.0
 40
24.0
 10
110.9572238220871
 20
-147.9833875498097
 10
110.9107150330362
 20
-148.0088812564006
 10
110.7860025764702
 20
-148.0212836001475
 10
110.707798908955
 20
-148.0212836001475
 10
110.6950520556596
 20
-148.0212836001475
 10
110.6695583490687
 20
-148.0212836001475
 10
110.6357964133133
 20
-148.0171494855652
 10
110.6357964133133
 20
-148.0171494855652
 10
110.5383002110807
 20
-147.7911512217328
 10
110.5383002110807
 20
-147.7911512217328
 10
110.5679280322539
 20
-147.7973523936062
 10
110.625116617309
 20
-147.8056206227708
 10
110.7415608447104
 20
-147.8056206227708
 10
110.8197645122256
 20
-147.8056206227708
 10
110.8218315695168
 20
-147.7635904578508
 10
110.8218315695168
 20
-147.7064018727956
 10
110.8218315695168
 20
-147.7064018727956
 10
110.8218315695168
 20
-147.3570691905913
 10
110.8218315695168
 20
-147.3570691905913
 10
110.8218315695168
 20
-147.3570691905913
 10
110.3629448508815
 20
-147.3570691905913
 10
110.3629448508815
 20
-147.3570691905913
 10
110.3650119081726
 20
-147.4948730100013
 10
110.3670789654638
 20
-147.6933105099517
 10
110.3732801373372
 20
-147.8269802147794
 10
110.3756917041769
 20
-147.8545409786614
 10
110.3756917041769
 20
-147.8986382008726
 10
110.3880940479238
 20
-147.95996090051
 10
110.3880940479238
 20
-147.95996090051
 10
110.1469373639563
 20
-147.95996090051
 10
110.1469373639563
 20
-147.95996090051
 10
110.1724310705472
 20
-147.835248443944
 10
110.1724310705472
 20
-147.4948730100013
 10
110.1724310705472
 20
-147.3570691905913
 10
110.1724310705472
 20
-147.3570691905913
 10
109.7304253197896
 20
-147.3570691905913
 10
109.7304253197896
 20
-147.3570691905913
 10
109.7069986704899
 20
-147.5644639388033
 10
109.6415418562702
 20
-147.8331813866528
 10
109.4448269040624
 20
-148.0171494855652
 10
109.4448269040624
 20
-148.0171494855652
 10
109.2563801810192
 20
-147.8945040862903
 10
109.2563801810192
 20
-147.8945040862903
 10
109.5102837182822
 20
-147.6747069943313
 10
109.5419785967465
 20
-147.3425997895532
 10
109.5419785967465
 20
-147.0104925847752
 10
109.5419785967465
 20
-147.0104925847752
 10
109.5419785967465
 20
-146.5743434963425
 10
109.5419785967465
 20
-146.5743434963425
 10
109.5419785967465
 20
-146.5385145032959
 10
109.5399115394553
 20
-146.3056260484931
 10
109.5312988007422
 20
-146.2043402412267
 10
109.6711696774433
 20
-146.2146755276825
 10
109.9123263614108
 20
-146.2146755276825
 10
110.0559868431457
 20
-146.2146755276825
 10
110.0559868431457
 20
-146.2146755276825
 10
110.5152180713295
 20
-146.2146755276825
 10
110.5152180713295
 20
-146.2146755276825
 10
110.5300319819161
 20
-146.2146755276825
 10
110.8790201545719
 20
-146.2146755276825
 10
111.0378390564419
 20
-146.2043402412267
 10
111.0354274896023
 20
-146.2573947116995
 10
111.0292263177288
 20
-146.4179361613122
 10
111.0292263177288
 20
-146.4689235744939
 10
111.0292263177288
 20
-146.4689235744939
 10
111.0292263177288
 20
-147.0759493989949
 10
111.0292263177288
 20
-147.0759493989949
 10
111.0292263177288
 20
-147.0945529146153
 10
111.0399061137331
 20
-147.6657497460697
 10
111.0399061137331
 20
-147.7780598588888
 10
111.0399061137331
 20
-147.835248443944
 10
111.0399061137331
 20
-147.9365342512103
 10
110.9572238220871
 20
-147.9833875498097
 97
        0
 97
        0
 92
        1
 93
        4
 72
     1
 10
110.1724310705472
 20
-146.3965765693036
 11
109.7345594343719
 21
-146.3965765693036
 72
     1
 10
109.7345594343719
 20
-146.3965765693036
 11
109.7345594343719
 21
-146.7011230101997
 72
     1
 10
109.7345594343719
 20
-146.7011230101997
 11
110.1724310705472
 21
-146.7011230101997
 72
     1
 10
110.1724310705472
 20
-146.7011230101997
 11
110.1724310705472
 21
-146.3965765693036
 97
        0
 92
        1
 93
        4
 72
     1
 10
110.1724310705472
 20
-146.8685546507829
 11
109.7345594343719
 21
-146.8685546507829
 72
     1
 10
109.7345594343719
 20
-146.8685546507829
 11
109.7345594343719
 21
-147.1772352062613
 72
     1
 10
109.7345594343719
 20
-147.1772352062613
 11
110.1724310705472
 21
-147.1772352062613
 72
     1
 10
110.1724310705472
 20
-147.1772352062613
 11
110.1724310705472
 21
-146.8685546507829
 97
        0
 92
        1
 93
        4
 72
     1
 10
110.8218315695168
 20
-146.3965765693036
 11
110.3629448508815
 21
-146.3965765693036
 72
     1
 10
110.3629448508815
 20
-146.3965765693036
 11
110.3629448508815
 21
-146.7011230101997
 72
     1
 10
110.3629448508815
 20
-146.7011230101997
 11
110.8218315695168
 21
-146.7011230101997
 72
     1
 10
110.8218315695168
 20
-146.7011230101997
 11
110.8218315695168
 21
-146.3965765693036
 97
        0
 92
        1
 93
        4
 72
     1
 10
110.8218315695168
 20
-146.8685546507829
 11
110.3629448508815
 21
-146.8685546507829
 72
     1
 10
110.3629448508815
 20
-146.8685546507829
 11
110.3629448508815
 21
-147.1772352062613
 72
     1
 10
110.3629448508815
 20
-147.1772352062613
 11
110.8218315695168
 21
-147.1772352062613
 72
     1
 10
110.8218315695168
 20
-147.1772352062613
 11
110.8218315695168
 21
-146.8685546507829
 97
        0
 75
     2
 76
     1
 98
        0
  0
SPLINE
  5
148
330
117
100
AcDbEntity
  8
_U+30EC_U+30A4_U+30E4_U+30FC 1
370
     0
100
AcDbSpline
210
0.0
220
0.0
230
1.0
 70
    11
 71
     3
 72
    44
 73
    40
 74
     0
 42
0.0000000001
 43
0.0000000001
 12
1.0
 22
0.0
 32
0.0
 13
1.0
 23
0.0
 33
0.0
 40
0.0
 40
0.0
 40
0.0
 40
0.0
 40
1.0
 40
1.0
 40
1.0
 40
2.0
 40
2.0
 40
2.0
 40
3.0
 40
3.0
 40
3.0
 40
4.0
 40
4.0
 40
4.0
 40
5.0
 40
5.0
 40
5.0
 40
6.0
 40
6.0
 40
6.0
 40
7.0
 40
7.0
 40
7.0
 40
8.0
 40
8.0
 40
8.0
 40
9.0
 40
9.0
 40
9.0
 40
10.0
 40
10.0
 40
10.0
 40
11.0
 40
11.0
 40
11.0
 40
12.0
 40
12.0
 40
12.0
 40
13.0
 40
13.0
 40
13.0
 40
13.0
 10
112.8348008615482
 20
-146.732817888664
 30
0.0
 10
112.7228352582776
 20
-147.1014431055858
 30
0.0
 10
112.6718478450959
 20
-147.2599174979073
 30
0.0
 10
112.4751328928882
 20
-147.5093424110393
 30
0.0
 10
112.2911647939758
 20
-147.7401638085511
 30
0.0
 10
112.0541422245906
 20
-147.9261989647546
 30
0.0
 10
111.7750894902854
 20
-148.0192165428563
 30
0.0
 10
111.7750894902854
 20
-148.0192165428563
 30
0.0
 10
111.5825086526599
 20
-147.8393825585263
 30
0.0
 10
111.5825086526599
 20
-147.8393825585263
 30
0.0
 10
112.2236409224649
 20
-147.6871093380782
 30
0.0
 10
112.5533365604033
 20
-147.1310709267589
 30
0.0
 10
112.6170708268805
 20
-146.690787723744
 30
0.0
 10
112.6170708268805
 20
-146.690787723744
 30
0.0
 10
111.8512261005094
 20
-146.690787723744
 30
0.0
 10
111.8512261005094
 20
-146.690787723744
 30
0.0
 10
111.7582085224077
 20
-146.690787723744
 30
0.0
 10
111.5738959139468
 20
-146.6949218383263
 30
0.0
 10
111.4174885789165
 20
-146.7142143730437
 30
0.0
 10
111.4174885789165
 20
-146.7142143730437
 30
0.0
 10
111.4174885789165
 20
-146.4937282619877
 30
0.0
 10
111.4174885789165
 20
-146.4937282619877
 30
0.0
 10
111.5043049851448
 20
-146.5150878539962
 30
0.0
 10
111.755796955568
 20
-146.5150878539962
 30
0.0
 10
111.8553602150917
 20
-146.5150878539962
 30
0.0
 10
111.8553602150917
 20
-146.5150878539962
 30
0.0
 10
112.2870306793935
 20
-146.5150878539962
 30
0.0
 10
112.2870306793935
 20
-146.5150878539962
 30
0.0
 10
112.3294053538621
 20
-146.5150878539962
 30
0.0
 10
112.5640163564076
 20
-146.5130207967051
 30
0.0
 10
112.6022569162939
 20
-146.5068196248316
 30
0.0
 10
112.6446315907625
 20
-146.5006184529582
 30
0.0
 10
112.6466986480536
 20
-146.498551395667
 30
0.0
 10
112.7080213476911
 20
-146.4578992689411
 30
0.0
 10
112.7080213476911
 20
-146.4578992689411
 30
0.0
 10
112.8961235611857
 20
-146.6122395466803
 30
0.0
 10
112.8961235611857
 20
-146.6122395466803
 30
0.0
 10
112.8664957400126
 20
-146.6418673678534
 30
0.0
 10
112.851681829426
 20
-146.6735622463177
 30
0.0
 10
112.8348008615482
 20
-146.732817888664
 30
0.0
  0
SPLINE
  5
149
330
117
100
AcDbEntity
  8
_U+30EC_U+30A4_U+30E4_U+30FC 1
370
     0
100
AcDbSpline
210
0.0
220
0.0
230
1.0
 70
    11
 71
     3
 72
    17
 73
    13
 74
     0
 42
0.0000000001
 43
0.0000000001
 12
1.0
 22
0.0
 32
0.0
 13
1.0
 23
0.0
 33
0.0
 40
0.0
 40
0.0
 40
0.0
 40
0.0
 40
1.0
 40
1.0
 40
1.0
 40
2.0
 40
2.0
 40
2.0
 40
3.0
 40
3.0
 40
3.0
 40
4.0
 40
4.0
 40
4.0
 40
4.0
 10
113.0442626670514
 20
-146.5343803887136
 30
0.0
 10
112.9174831531942
 20
-146.5343803887136
 30
0.0
 10
112.8158528363794
 20
-146.4324055623502
 30
0.0
 10
112.8158528363794
 20
-146.3056260484931
 30
0.0
 10
112.8158528363794
 20
-146.1788465346359
 30
0.0
 10
112.9174831531942
 20
-146.0754936700783
 30
0.0
 10
113.0442626670514
 20
-146.0754936700783
 30
0.0
 10
113.1713866904572
 20
-146.0754936700783
 30
0.0
 10
113.2750840645632
 20
-146.1788465346359
 30
0.0
 10
113.2750840645632
 20
-146.3056260484931
 30
0.0
 10
113.2750840645632
 20
-146.4324055623502
 30
0.0
 10
113.1713866904572
 20
-146.5343803887136
 30
0.0
 10
113.0442626670514
 20
-146.5343803887136
 30
0.0
  0
SPLINE
  5
14A
330
117
100
AcDbEntity
  8
_U+30EC_U+30A4_U+30E4_U+30FC 1
370
     0
100
AcDbSpline
210
0.0
220
0.0
230
1.0
 70
    11
 71
     3
 72
    17
 73
    13
 74
     0
 42
0.0000000001
 43
0.0000000001
 12
1.0
 22
0.0
 32
0.0
 13
1.0
 23
0.0
 33
0.0
 40
0.0
 40
0.0
 40
0.0
 40
0.0
 40
1.0
 40
1.0
 40
1.0
 40
2.0
 40
2.0
 40
2.0
 40
3.0
 40
3.0
 40
3.0
 40
4.0
 40
4.0
 40
4.0
 40
4.0
 10
113.0421956097603
 20
-146.2043402412267
 30
0.0
 10
112.9870740819963
 20
-146.2043402412267
 30
0.0
 10
112.9426323502366
 20
-146.2484374634379
 30
0.0
 10
112.9426323502366
 20
-146.3035589912019
 30
0.0
 10
112.9426323502366
 20
-146.360747576257
 30
0.0
 10
112.9870740819963
 20
-146.4096679321476
 30
0.0
 10
113.0463297243426
 20
-146.4096679321476
 30
0.0
 10
113.1055853666889
 20
-146.4096679321476
 30
0.0
 10
113.1458929838663
 20
-146.3586805189659
 30
0.0
 10
113.1458929838663
 20
-146.3056260484931
 30
0.0
 10
113.1458929838663
 20
-146.2484374634379
 30
0.0
 10
113.0993841948154
 20
-146.2043402412267
 30
0.0
 10
113.0421956097603
 20
-146.2043402412267
 30
0.0
  0
HATCH
  5
14B
330
117
100
AcDbEntity
  8
_U+30EC_U+30A4_U+30E4_U+30FC 1
 62
   179
420
  2234388
100
AcDbHatch
 10
0.0
 20
0.0
 30
0.0
210
0.0
220
0.0
230
1.0
  2
SOLID
 70
     1
 71
     0
 91
        3
 92
        1
 93
        1
 72
     4
 94
        3
 73
     0
 74
     1
 95
       44
 96
       40
 40
0.0
 40
0.0
 40
0.0
 40
0.0
 40
1.0
 40
1.0
 40
1.0
 40
2.0
 40
2.0
 40
2.0
 40
3.0
 40
3.0
 40
3.0
 40
4.0
 40
4.0
 40
4.0
 40
5.0
 40
5.0
 40
5.0
 40
6.0
 40
6.0
 40
6.0
 40
7.0
 40
7.0
 40
7.0
 40
8.0
 40
8.0
 40
8.0
 40
9.0
 40
9.0
 40
9.0
 40
10.0
 40
10.0
 40
10.0
 40
11.0
 40
11.0
 40
11.0
 40
12.0
 40
12.0
 40
12.0
 40
13.0
 40
13.0
 40
13.0
 40
13.0
 10
112.8348008615482
 20
-146.732817888664
 10
112.7228352582776
 20
-147.1014431055858
 10
112.6718478450959
 20
-147.2599174979073
 10
112.4751328928882
 20
-147.5093424110393
 10
112.2911647939758
 20
-147.7401638085511
 10
112.0541422245906
 20
-147.9261989647546
 10
111.7750894902854
 20
-148.0192165428563
 10
111.7750894902854
 20
-148.0192165428563
 10
111.5825086526599
 20
-147.8393825585263
 10
111.5825086526599
 20
-147.8393825585263
 10
112.2236409224649
 20
-147.6871093380782
 10
112.5533365604033
 20
-147.1310709267589
 10
112.6170708268805
 20
-146.690787723744
 10
112.6170708268805
 20
-146.690787723744
 10
111.8512261005094
 20
-146.690787723744
 10
111.8512261005094
 20
-146.690787723744
 10
111.7582085224077
 20
-146.690787723744
 10
111.5738959139468
 20
-146.6949218383263
 10
111.4174885789165
 20
-146.7142143730437
 10
111.4174885789165
 20
-146.7142143730437
 10
111.4174885789165
 20
-146.4937282619877
 10
111.4174885789165
 20
-146.4937282619877
 10
111.5043049851448
 20
-146.5150878539962
 10
111.755796955568
 20
-146.5150878539962
 10
111.8553602150917
 20
-146.5150878539962
 10
111.8553602150917
 20
-146.5150878539962
 10
112.2870306793935
 20
-146.5150878539962
 10
112.2870306793935
 20
-146.5150878539962
 10
112.3294053538621
 20
-146.5150878539962
 10
112.5640163564076
 20
-146.5130207967051
 10
112.6022569162939
 20
-146.5068196248316
 10
112.6446315907625
 20
-146.5006184529582
 10
112.6466986480536
 20
-146.498551395667
 10
112.7080213476911
 20
-146.4578992689411
 10
112.7080213476911
 20
-146.4578992689411
 10
112.8961235611857
 20
-146.6122395466803
 10
112.8961235611857
 20
-146.6122395466803
 10
112.8664957400126
 20
-146.6418673678534
 10
112.851681829426
 20
-146.6735622463177
 10
112.8348008615482
 20
-146.732817888664
 97
        0
 97
        0
 92
        1
 93
        1
 72
     4
 94
        3
 73
     0
 74
     1
 95
       17
 96
       13
 40
0.0
 40
0.0
 40
0.0
 40
0.0
 40
1.0
 40
1.0
 40
1.0
 40
2.0
 40
2.0
 40
2.0
 40
3.0
 40
3.0
 40
3.0
 40
4.0
 40
4.0
 40
4.0
 40
4.0
 10
113.0442626670514
 20
-146.5343803887136
 10
112.9174831531942
 20
-146.5343803887136
 10
112.8158528363794
 20
-146.4324055623502
 10
112.8158528363794
 20
-146.3056260484931
 10
112.8158528363794
 20
-146.1788465346359
 10
112.9174831531942
 20
-146.0754936700783
 10
113.0442626670514
 20
-146.0754936700783
 10
113.1713866904572
 20
-146.0754936700783
 10
113.2750840645632
 20
-146.1788465346359
 10
113.2750840645632
 20
-146.3056260484931
 10
113.2750840645632
 20
-146.4324055623502
 10
113.1713866904572
 20
-146.5343803887136
 10
113.0442626670514
 20
-146.5343803887136
 97
        0
 97
        0
 92
        1
 93
        1
 72
     4
 94
        3
 73
     0
 74
     1
 95
       17
 96
       13
 40
0.0
 40
0.0
 40
0.0
 40
0.0
 40
1.0
 40
1.0
 40
1.0
 40
2.0
 40
2.0
 40
2.0
 40
3.0
 40
3.0
 40
3.0
 40
4.0
 40
4.0
 40
4.0
 40
4.0
 10
113.0421956097603
 20
-146.2043402412267
 10
112.9870740819963
 20
-146.2043402412267
 10
112.9426323502366
 20
-146.2484374634379
 10
112.9426323502366
 20
-146.3035589912019
 10
112.9426323502366
 20
-146.360747576257
 10
112.9870740819963
 20
-146.4096679321476
 10
113.0463297243426
 20
-146.4096679321476
 10
113.1055853666889
 20
-146.4096679321476
 10
113.1458929838663
 20
-146.3586805189659
 10
113.1458929838663
 20
-146.3056260484931
 10
113.1458929838663
 20
-146.2484374634379
 10
113.0993841948154
 20
-146.2043402412267
 10
113.0421956097603
 20
-146.2043402412267
 97
        0
 97
        0
 75
     2
 76
     1
 98
        0
  0
SPLINE
  5
14C
330
117
100
AcDbEntity
  8
_U+30EC_U+30A4_U+30E4_U+30FC 1
370
     0
100
AcDbSpline
210
0.0
220
0.0
230
1.0
 70
    11
 71
     3
 72
    50
 73
    46
 74
     0
 42
0.0000000001
 43
0.0000000001
 12
1.0
 22
0.0
 32
0.0
 13
1.0
 23
0.0
 33
0.0
 40
0.0
 40
0.0
 40
0.0
 40
0.0
 40
1.0
 40
1.0
 40
1.0
 40
2.0
 40
2.0
 40
2.0
 40
3.0
 40
3.0
 40
3.0
 40
4.0
 40
4.0
 40
4.0
 40
5.0
 40
5.0
 40
5.0
 40
6.0
 40
6.0
 40
6.0
 40
7.0
 40
7.0
 40
7.0
 40
8.0
 40
8.0
 40
8.0
 40
9.0
 40
9.0
 40
9.0
 40
10.0
 40
10.0
 40
10.0
 40
11.0
 40
11.0
 40
11.0
 40
12.0
 40
12.0
 40
12.0
 40
13.0
 40
13.0
 40
13.0
 40
14.0
 40
14.0
 40
14.0
 40
15.0
 40
15.0
 40
15.0
 40
15.0
 10
114.8395019244151
 20
-147.0421874632395
 30
0.0
 10
114.7609537473514
 20
-147.2199543902784
 30
0.0
 10
114.6255614947811
 20
-147.4266601193933
 30
0.0
 10
114.4881021849196
 20
-147.5665309960945
 30
0.0
 10
114.3189479965939
 20
-147.7380967512599
 30
0.0
 10
114.1559949801416
 20
-147.8269802147794
 30
0.0
 10
113.8366346286589
 20
-147.9682291296746
 30
0.0
 10
113.8366346286589
 20
-147.9682291296746
 30
0.0
 10
113.6674804403331
 20
-147.78012691618
 30
0.0
 10
113.6674804403331
 20
-147.78012691618
 30
0.0
 10
113.8535155965366
 20
-147.7567002668803
 30
0.0
 10
114.0247368421535
 20
-147.670572879749
 30
0.0
 10
114.1773545721501
 20
-147.5644639388033
 30
0.0
 10
114.4395263385776
 20
-147.3825628971821
 30
0.0
 10
114.6300401189119
 20
-147.0697482271215
 30
0.0
 10
114.678615965254
 20
-146.8878471855003
 30
0.0
 10
114.678615965254
 20
-146.8878471855003
 30
0.0
 10
114.0078558742758
 20
-146.8878471855003
 30
0.0
 10
114.0078558742758
 20
-146.8878471855003
 30
0.0
 10
113.8493814819543
 20
-146.8878471855003
 30
0.0
 10
113.5572373848051
 20
-146.8961154146649
 30
0.0
 10
113.4049641643571
 20
-146.9126518729941
 30
0.0
 10
113.4049641643571
 20
-146.9126518729941
 30
0.0
 10
113.4049641643571
 20
-146.6845865518705
 30
0.0
 10
113.4049641643571
 20
-146.6845865518705
 30
0.0
 10
113.4390706096611
 20
-146.690787723744
 30
0.0
 10
113.4642198067034
 20
-146.6969888956174
 30
0.0
 10
113.5172742771762
 20
-146.7011230101997
 30
0.0
 10
113.6185600844426
 20
-146.7080132011702
 30
0.0
 10
113.8156195461989
 20
-146.7100802584614
 30
0.0
 10
113.9000243855875
 20
-146.7100802584614
 30
0.0
 10
113.9000243855875
 20
-146.7100802584614
 30
0.0
 10
114.4057644028222
 20
-146.7100802584614
 30
0.0
 10
114.4057644028222
 20
-146.7100802584614
 30
0.0
 10
114.4732882743331
 20
-146.7100802584614
 30
0.0
 10
114.6193603229077
 20
-146.7059461438791
 30
0.0
 10
114.6806830225451
 20
-146.6990559529086
 30
0.0
 10
114.7526855181868
 20
-146.690787723744
 30
0.0
 10
114.7802462820688
 20
-146.6763183227059
 30
0.0
 10
114.8140082178243
 20
-146.6528916734062
 30
0.0
 10
114.8140082178243
 20
-146.6528916734062
 30
0.0
 10
114.9790282915677
 20
-146.8196342948923
 30
0.0
 10
114.9790282915677
 20
-146.8196342948923
 30
0.0
 10
114.9090928532172
 20
-146.8878471855003
 30
0.0
 10
114.8625840641663
 20
-146.9912000500578
 30
0.0
 10
114.8395019244151
 20
-147.0421874632395
 30
0.0
  0
SPLINE
  5
14D
330
117
100
AcDbEntity
  8
_U+30EC_U+30A4_U+30E4_U+30FC 1
370
     0
100
AcDbSpline
210
0.0
220
0.0
230
1.0
 70
    11
 71
     3
 72
    29
 73
    25
 74
     0
 42
0.0000000001
 43
0.0000000001
 12
1.0
 22
0.0
 32
0.0
 13
1.0
 23
0.0
 33
0.0
 40
0.0
 40
0.0
 40
0.0
 40
0.0
 40
1.0
 40
1.0
 40
1.0
 40
2.0
 40
2.0
 40
2.0
 40
3.0
 40
3.0
 40
3.0
 40
4.0
 40
4.0
 40
4.0
 40
5.0
 40
5.0
 40
5.0
 40
6.0
 40
6.0
 40
6.0
 40
7.0
 40
7.0
 40
7.0
 40
8.0
 40
8.0
 40
8.0
 40
8.0
 10
114.3465087604759
 20
-146.415869104021
 30
0.0
 10
114.3465087604759
 20
-146.415869104021
 30
0.0
 10
114.0057888169847
 20
-146.415869104021
 30
0.0
 10
114.0057888169847
 20
-146.415869104021
 30
0.0
 10
113.8917561564229
 20
-146.415869104021
 30
0.0
 10
113.7753119290215
 20
-146.4200032186033
 30
0.0
 10
113.6609347589112
 20
-146.4351616387384
 30
0.0
 10
113.6609347589112
 20
-146.4351616387384
 30
0.0
 10
113.6609347589112
 20
-146.2256998332352
 30
0.0
 10
113.6609347589112
 20
-146.2256998332352
 30
0.0
 10
113.7794460436038
 20
-146.2401692342733
 30
0.0
 10
113.9530788560603
 20
-146.2443033488556
 30
0.0
 10
114.0057888169847
 20
-146.2443033488556
 30
0.0
 10
114.0057888169847
 20
-146.2443033488556
 30
0.0
 10
114.3465087604759
 20
-146.2443033488556
 30
0.0
 10
114.3465087604759
 20
-146.2443033488556
 30
0.0
 10
114.4629529878773
 20
-146.2443033488556
 30
0.0
 10
114.5790527057302
 20
-146.2401692342733
 30
0.0
 10
114.6954969331317
 20
-146.2256998332352
 30
0.0
 10
114.6954969331317
 20
-146.2256998332352
 30
0.0
 10
114.6954969331317
 20
-146.4351616387384
 30
0.0
 10
114.6954969331317
 20
-146.4351616387384
 30
0.0
 10
114.5452907699748
 20
-146.415869104021
 30
0.0
 10
114.3613226710625
 20
-146.415869104021
 30
0.0
 10
114.3465087604759
 20
-146.415869104021
 30
0.0
  0
HATCH
  5
14E
330
117
100
AcDbEntity
  8
_U+30EC_U+30A4_U+30E4_U+30FC 1
 62
   179
420
  2234388
100
AcDbHatch
 10
0.0
 20
0.0
 30
0.0
210
0.0
220
0.0
230
1.0
  2
SOLID
 70
     1
 71
     0
 91
        2
 92
        1
 93
        1
 72
     4
 94
        3
 73
     0
 74
     1
 95
       50
 96
       46
 40
0.0
 40
0.0
 40
0.0
 40
0.0
 40
1.0
 40
1.0
 40
1.0
 40
2.0
 40
2.0
 40
2.0
 40
3.0
 40
3.0
 40
3.0
 40
4.0
 40
4.0
 40
4.0
 40
5.0
 40
5.0
 40
5.0
 40
6.0
 40
6.0
 40
6.0
 40
7.0
 40
7.0
 40
7.0
 40
8.0
 40
8.0
 40
8.0
 40
9.0
 40
9.0
 40
9.0
 40
10.0
 40
10.0
 40
10.0
 40
11.0
 40
11.0
 40
11.0
 40
12.0
 40
12.0
 40
12.0
 40
13.0
 40
13.0
 40
13.0
 40
14.0
 40
14.0
 40
14.0
 40
15.0
 40
15.0
 40
15.0
 40
15.0
 10
114.8395019244151
 20
-147.0421874632395
 10
114.7609537473514
 20
-147.2199543902784
 10
114.6255614947811
 20
-147.4266601193933
 10
114.4881021849196
 20
-147.5665309960945
 10
114.3189479965939
 20
-147.7380967512599
 10
114.1559949801416
 20
-147.8269802147794
 10
113.8366346286589
 20
-147.9682291296746
 10
113.8366346286589
 20
-147.9682291296746
 10
113.6674804403331
 20
-147.78012691618
 10
113.6674804403331
 20
-147.78012691618
 10
113.8535155965366
 20
-147.7567002668803
 10
114.0247368421535
 20
-147.670572879749
 10
114.1773545721501
 20
-147.5644639388033
 10
114.4395263385776
 20
-147.3825628971821
 10
114.6300401189119
 20
-147.0697482271215
 10
114.678615965254
 20
-146.8878471855003
 10
114.678615965254
 20
-146.8878471855003
 10
114.0078558742758
 20
-146.8878471855003
 10
114.0078558742758
 20
-146.8878471855003
 10
113.8493814819543
 20
-146.8878471855003
 10
113.5572373848051
 20
-146.8961154146649
 10
113.4049641643571
 20
-146.9126518729941
 10
113.4049641643571
 20
-146.9126518729941
 10
113.4049641643571
 20
-146.6845865518705
 10
113.4049641643571
 20
-146.6845865518705
 10
113.4390706096611
 20
-146.690787723744
 10
113.4642198067034
 20
-146.6969888956174
 10
113.5172742771762
 20
-146.7011230101997
 10
113.6185600844426
 20
-146.7080132011702
 10
113.8156195461989
 20
-146.7100802584614
 10
113.9000243855875
 20
-146.7100802584614
 10
113.9000243855875
 20
-146.7100802584614
 10
114.4057644028222
 20
-146.7100802584614
 10
114.4057644028222
 20
-146.7100802584614
 10
114.4732882743331
 20
-146.7100802584614
 10
114.6193603229077
 20
-146.7059461438791
 10
114.6806830225451
 20
-146.6990559529086
 10
114.7526855181868
 20
-146.690787723744
 10
114.7802462820688
 20
-146.6763183227059
 10
114.8140082178243
 20
-146.6528916734062
 10
114.8140082178243
 20
-146.6528916734062
 10
114.9790282915677
 20
-146.8196342948923
 10
114.9790282915677
 20
-146.8196342948923
 10
114.9090928532172
 20
-146.8878471855003
 10
114.8625840641663
 20
-146.9912000500578
 10
114.8395019244151
 20
-147.0421874632395
 97
        0
 97
        0
 92
        1
 93
        1
 72
     4
 94
        3
 73
     0
 74
     1
 95
       29
 96
       25
 40
0.0
 40
0.0
 40
0.0
 40
0.0
 40
1.0
 40
1.0
 40
1.0
 40
2.0
 40
2.0
 40
2.0
 40
3.0
 40
3.0
 40
3.0
 40
4.0
 40
4.0
 40
4.0
 40
5.0
 40
5.0
 40
5.0
 40
6.0
 40
6.0
 40
6.0
 40
7.0
 40
7.0
 40
7.0
 40
8.0
 40
8.0
 40
8.0
 40
8.0
 10
114.3465087604759
 20
-146.415869104021
 10
114.3465087604759
 20
-146.415869104021
 10
114.0057888169847
 20
-146.415869104021
 10
114.0057888169847
 20
-146.415869104021
 10
113.8917561564229
 20
-146.415869104021
 10
113.7753119290215
 20
-146.4200032186033
 10
113.6609347589112
 20
-146.4351616387384
 10
113.6609347589112
 20
-146.4351616387384
 10
113.6609347589112
 20
-146.2256998332352
 10
113.6609347589112
 20
-146.2256998332352
 10
113.7794460436038
 20
-146.2401692342733
 10
113.9530788560603
 20
-146.2443033488556
 10
114.0057888169847
 20
-146.2443033488556
 10
114.0057888169847
 20
-146.2443033488556
 10
114.3465087604759
 20
-146.2443033488556
 10
114.3465087604759
 20
-146.2443033488556
 10
114.4629529878773
 20
-146.2443033488556
 10
114.5790527057302
 20
-146.2401692342733
 10
114.6954969331317
 20
-146.2256998332352
 10
114.6954969331317
 20
-146.2256998332352
 10
114.6954969331317
 20
-146.4351616387384
 10
114.6954969331317
 20
-146.4351616387384
 10
114.5452907699748
 20
-146.415869104021
 10
114.3613226710625
 20
-146.415869104021
 10
114.3465087604759
 20
-146.415869104021
 97
        0
 97
        0
 75
     2
 76
     1
 98
        0
  0
SPLINE
  5
14F
330
117
100
AcDbEntity
  8
_U+30EC_U+30A4_U+30E4_U+30FC 1
370
     0
100
AcDbSpline
210
0.0
220
0.0
230
1.0
 70
    11
 71
     3
 72
    50
 73
    46
 74
     0
 42
0.0000000001
 43
0.0000000001
 12
1.0
 22
0.0
 32
0.0
 13
1.0
 23
0.0
 33
0.0
 40
0.0
 40
0.0
 40
0.0
 40
0.0
 40
1.0
 40
1.0
 40
1.0
 40
2.0
 40
2.0
 40
2.0
 40
3.0
 40
3.0
 40
3.0
 40
4.0
 40
4.0
 40
4.0
 40
5.0
 40
5.0
 40
5.0
 40
6.0
 40
6.0
 40
6.0
 40
7.0
 40
7.0
 40
7.0
 40
8.0
 40
8.0
 40
8.0
 40
9.0
 40
9.0
 40
9.0
 40
10.0
 40
10.0
 40
10.0
 40
11.0
 40
11.0
 40
11.0
 40
12.0
 40
12.0
 40
12.0
 40
13.0
 40
13.0
 40
13.0
 40
14.0
 40
14.0
 40
14.0
 40
15.0
 40
15.0
 40
15.0
 40
15.0
 10
116.5496473232931
 20
-146.4007106838859
 30
0.0
 10
116.34018551779
 20
-146.6143066039714
 30
0.0
 10
116.2685275316968
 20
-146.6866536091617
 30
0.0
 10
116.1265895977045
 20
-146.8051648938543
 30
0.0
 10
116.1265895977045
 20
-146.8051648938543
 30
0.0
 10
116.1265895977045
 20
-147.3722276107264
 30
0.0
 10
116.1265895977045
 20
-147.3722276107264
 30
0.0
 10
116.1265895977045
 20
-147.5224337738833
 30
0.0
 10
116.1331352791264
 20
-147.5410372895036
 30
0.0
 10
116.1372693937087
 20
-147.7188042165425
 30
0.0
 10
116.1393364509999
 20
-147.8504068640791
 30
0.0
 10
116.1455376228733
 20
-147.8986382008726
 30
0.0
 10
116.1520833042953
 20
-147.9578938432189
 30
0.0
 10
116.1520833042953
 20
-147.9578938432189
 30
0.0
 10
115.9257405309144
 20
-147.9578938432189
 30
0.0
 10
115.9257405309144
 20
-147.9578938432189
 30
0.0
 10
115.9298746454967
 20
-147.9137966210077
 30
0.0
 10
115.934008760079
 20
-147.8669433224083
 30
0.0
 10
115.934008760079
 20
-147.8586750932437
 30
0.0
 10
115.934008760079
 20
-147.7780598588888
 30
0.0
 10
115.9384873842098
 20
-147.4266601193933
 30
0.0
 10
115.9384873842098
 20
-147.3550021333001
 30
0.0
 10
115.9384873842098
 20
-147.3550021333001
 30
0.0
 10
115.9384873842098
 20
-146.9491698851377
 30
0.0
 10
115.9384873842098
 20
-146.9491698851377
 30
0.0
 10
115.7565863425886
 20
-147.0738823417038
 30
0.0
 10
115.561938447672
 20
-147.1834363781347
 30
0.0
 10
115.3586778140423
 20
-147.270252784363
 30
0.0
 10
115.3586778140423
 20
-147.270252784363
 30
0.0
 10
115.1557616899611
 20
-147.1076442774592
 30
0.0
 10
115.1557616899611
 20
-147.1076442774592
 30
0.0
 10
115.278407089236
 20
-147.0718152844126
 30
0.0
 10
115.53437768379
 20
-146.9974012219312
 30
0.0
 10
115.8792317418635
 20
-146.7417751369257
 30
0.0
 10
116.0948947192402
 20
-146.5826117255071
 30
0.0
 10
116.2874755568656
 20
-146.3945095120125
 30
0.0
 10
116.4397487773137
 20
-146.1747124200535
 30
0.0
 10
116.4397487773137
 20
-146.1747124200535
 30
0.0
 10
116.6323296149391
 20
-146.318717411337
 30
0.0
 10
116.6323296149391
 20
-146.318717411337
 30
0.0
 10
116.6450764682346
 20
-146.3290526977927
 30
0.0
 10
116.6533446973992
 20
-146.3435220988308
 30
0.0
 10
116.6533446973992
 20
-146.3566134616748
 30
0.0
 10
116.6533446973992
 20
-146.3965765693036
 30
0.0
 10
116.6154486470614
 20
-146.3965765693036
 30
0.0
 10
116.5496473232931
 20
-146.4007106838859
 30
0.0
  0
HATCH
  5
150
330
117
100
AcDbEntity
  8
_U+30EC_U+30A4_U+30E4_U+30FC 1
 62
   179
420
  2234388
100
AcDbHatch
 10
0.0
 20
0.0
 30
0.0
210
0.0
220
0.0
230
1.0
  2
SOLID
 70
     1
 71
     0
 91
        1
 92
        1
 93
        1
 72
     4
 94
        3
 73
     0
 74
     1
 95
       50
 96
       46
 40
0.0
 40
0.0
 40
0.0
 40
0.0
 40
1.0
 40
1.0
 40
1.0
 40
2.0
 40
2.0
 40
2.0
 40
3.0
 40
3.0
 40
3.0
 40
4.0
 40
4.0
 40
4.0
 40
5.0
 40
5.0
 40
5.0
 40
6.0
 40
6.0
 40
6.0
 40
7.0
 40
7.0
 40
7.0
 40
8.0
 40
8.0
 40
8.0
 40
9.0
 40
9.0
 40
9.0
 40
10.0
 40
10.0
 40
10.0
 40
11.0
 40
11.0
 40
11.0
 40
12.0
 40
12.0
 40
12.0
 40
13.0
 40
13.0
 40
13.0
 40
14.0
 40
14.0
 40
14.0
 40
15.0
 40
15.0
 40
15.0
 40
15.0
 10
116.5496473232931
 20
-146.4007106838859
 10
116.34018551779
 20
-146.6143066039714
 10
116.2685275316968
 20
-146.6866536091617
 10
116.1265895977045
 20
-146.8051648938543
 10
116.1265895977045
 20
-146.8051648938543
 10
116.1265895977045
 20
-147.3722276107264
 10
116.1265895977045
 20
-147.3722276107264
 10
116.1265895977045
 20
-147.5224337738833
 10
116.1331352791264
 20
-147.5410372895036
 10
116.1372693937087
 20
-147.7188042165425
 10
116.1393364509999
 20
-147.8504068640791
 10
116.1455376228733
 20
-147.8986382008726
 10
116.1520833042953
 20
-147.9578938432189
 10
116.1520833042953
 20
-147.9578938432189
 10
115.9257405309144
 20
-147.9578938432189
 10
115.9257405309144
 20
-147.9578938432189
 10
115.9298746454967
 20
-147.9137966210077
 10
115.934008760079
 20
-147.8669433224083
 10
115.934008760079
 20
-147.8586750932437
 10
115.934008760079
 20
-147.7780598588888
 10
115.9384873842098
 20
-147.4266601193933
 10
115.9384873842098
 20
-147.3550021333001
 10
115.9384873842098
 20
-147.3550021333001
 10
115.9384873842098
 20
-146.9491698851377
 10
115.9384873842098
 20
-146.9491698851377
 10
115.7565863425886
 20
-147.0738823417038
 10
115.561938447672
 20
-147.1834363781347
 10
115.3586778140423
 20
-147.270252784363
 10
115.3586778140423
 20
-147.270252784363
 10
115.1557616899611
 20
-147.1076442774592
 10
115.1557616899611
 20
-147.1076442774592
 10
115.278407089236
 20
-147.0718152844126
 10
115.53437768379
 20
-146.9974012219312
 10
115.8792317418635
 20
-146.7417751369257
 10
116.0948947192402
 20
-146.5826117255071
 10
116.2874755568656
 20
-146.3945095120125
 10
116.4397487773137
 20
-146.1747124200535
 10
116.4397487773137
 20
-146.1747124200535
 10
116.6323296149391
 20
-146.318717411337
 10
116.6323296149391
 20
-146.318717411337
 10
116.6450764682346
 20
-146.3290526977927
 10
116.6533446973992
 20
-146.3435220988308
 10
116.6533446973992
 20
-146.3566134616748
 10
116.6533446973992
 20
-146.3965765693036
 10
116.6154486470614
 20
-146.3965765693036
 10
116.5496473232931
 20
-146.4007106838859
 97
        0
 97
        0
 75
     2
 76
     1
 98
        0
  0
SPLINE
  5
151
330
117
100
AcDbEntity
  8
_U+30EC_U+30A4_U+30E4_U+30FC 1
370
     0
100
AcDbSpline
210
0.0
220
0.0
230
1.0
 70
    11
 71
     3
 72
    50
 73
    46
 74
     0
 42
0.0000000001
 43
0.0000000001
 12
1.0
 22
0.0
 32
0.0
 13
1.0
 23
0.0
 33
0.0
 40
0.0
 40
0.0
 40
0.0
 40
0.0
 40
1.0
 40
1.0
 40
1.0
 40
2.0
 40
2.0
 40
2.0
 40
3.0
 40
3.0
 40
3.0
 40
4.0
 40
4.0
 40
4.0
 40
5.0
 40
5.0
 40
5.0
 40
6.0
 40
6.0
 40
6.0
 40
7.0
 40
7.0
 40
7.0
 40
8.0
 40
8.0
 40
8.0
 40
9.0
 40
9.0
 40
9.0
 40
10.0
 40
10.0
 40
10.0
 40
11.0
 40
11.0
 40
11.0
 40
12.0
 40
12.0
 40
12.0
 40
13.0
 40
13.0
 40
13.0
 40
14.0
 40
14.0
 40
14.0
 40
15.0
 40
15.0
 40
15.0
 40
15.0
 10
118.2580701744285
 20
-146.9278102931292
 30
0.0
 10
118.1967474747911
 20
-146.9994682792224
 30
0.0
 10
117.9362982561062
 20
-147.3171060829624
 30
0.0
 10
117.8794541805996
 20
-147.380495839891
 30
0.0
 10
117.9638590199882
 20
-147.477647532575
 30
0.0
 10
118.0148464331699
 20
-147.5410372895036
 30
0.0
 10
118.0803032473897
 20
-147.6319878103142
 30
0.0
 10
118.0803032473897
 20
-147.6319878103142
 30
0.0
 10
117.8963351484773
 20
-147.7697916297242
 30
0.0
 10
117.8963351484773
 20
-147.7697916297242
 30
0.0
 10
117.760942895907
 20
-147.5582627669299
 30
0.0
 10
117.5893771407415
 20
-147.3336425412916
 30
0.0
 10
117.2955104958497
 20
-147.1352050413412
 30
0.0
 10
117.2955104958497
 20
-147.1352050413412
 30
0.0
 10
117.4436496017155
 20
-146.980864763602
 30
0.0
 10
117.4436496017155
 20
-146.980864763602
 30
0.0
 10
117.553548147695
 20
-147.0607909788598
 30
0.0
 10
117.657245521801
 20
-147.1496744423793
 30
0.0
 10
117.754397214485
 20
-147.2447590777722
 30
0.0
 10
117.8222655955444
 20
-147.1689669770967
 30
0.0
 10
118.0251817196256
 20
-146.925743235838
 30
0.0
 10
118.1585069149048
 20
-146.6969888956174
 30
0.0
 10
118.1585069149048
 20
-146.6969888956174
 30
0.0
 10
117.4856797666355
 20
-146.6969888956174
 30
0.0
 10
117.4856797666355
 20
-146.6969888956174
 30
0.0
 10
117.3609673100695
 20
-146.6969888956174
 30
0.0
 10
117.1091308300977
 20
-146.7059461438791
 30
0.0
 10
116.8996690245945
 20
-146.7162814303348
 30
0.0
 10
116.8996690245945
 20
-146.7162814303348
 30
0.0
 10
116.8996690245945
 20
-146.4964843383759
 30
0.0
 10
116.8996690245945
 20
-146.4964843383759
 30
0.0
 10
117.0839816330554
 20
-146.5150878539962
 30
0.0
 10
117.2889648144278
 20
-146.5192219685785
 30
0.0
 10
117.4774115374709
 20
-146.5192219685785
 30
0.0
 10
117.4774115374709
 20
-146.5192219685785
 30
0.0
 10
117.9807399878659
 20
-146.5192219685785
 30
0.0
 10
117.9807399878659
 20
-146.5192219685785
 30
0.0
 10
118.319392874066
 20
-146.5192219685785
 30
0.0
 10
118.3638346058257
 20
-146.5047525675405
 30
0.0
 10
118.4461723879232
 20
-146.4641004408145
 30
0.0
 10
118.4461723879232
 20
-146.4641004408145
 30
0.0
 10
118.6132595189578
 20
-146.6232638522331
 30
0.0
 10
118.6132595189578
 20
-146.6232638522331
 30
0.0
 10
118.4609862985098
 20
-146.6949218383263
 30
0.0
 10
118.3173258167748
 20
-146.8582193643271
 30
0.0
 10
118.2580701744285
 20
-146.9278102931292
 30
0.0
  0
HATCH
  5
152
330
117
100
AcDbEntity
  8
_U+30EC_U+30A4_U+30E4_U+30FC 1
 62
   179
420
  2234388
100
AcDbHatch
 10
0.0
 20
0.0
 30
0.0
210
0.0
220
0.0
230
1.0
  2
SOLID
 70
     1
 71
     0
 91
        1
 92
        1
 93
        1
 72
     4
 94
        3
 73
     0
 74
     1
 95
       50
 96
       46
 40
0.0
 40
0.0
 40
0.0
 40
0.0
 40
1.0
 40
1.0
 40
1.0
 40
2.0
 40
2.0
 40
2.0
 40
3.0
 40
3.0
 40
3.0
 40
4.0
 40
4.0
 40
4.0
 40
5.0
 40
5.0
 40
5.0
 40
6.0
 40
6.0
 40
6.0
 40
7.0
 40
7.0
 40
7.0
 40
8.0
 40
8.0
 40
8.0
 40
9.0
 40
9.0
 40
9.0
 40
10.0
 40
10.0
 40
10.0
 40
11.0
 40
11.0
 40
11.0
 40
12.0
 40
12.0
 40
12.0
 40
13.0
 40
13.0
 40
13.0
 40
14.0
 40
14.0
 40
14.0
 40
15.0
 40
15.0
 40
15.0
 40
15.0
 10
118.2580701744285
 20
-146.9278102931292
 10
118.1967474747911
 20
-146.9994682792224
 10
117.9362982561062
 20
-147.3171060829624
 10
117.8794541805996
 20
-147.380495839891
 10
117.9638590199882
 20
-147.477647532575
 10
118.0148464331699
 20
-147.5410372895036
 10
118.0803032473897
 20
-147.6319878103142
 10
118.0803032473897
 20
-147.6319878103142
 10
117.8963351484773
 20
-147.7697916297242
 10
117.8963351484773
 20
-147.7697916297242
 10
117.760942895907
 20
-147.5582627669299
 10
117.5893771407415
 20
-147.3336425412916
 10
117.2955104958497
 20
-147.1352050413412
 10
117.2955104958497
 20
-147.1352050413412
 10
117.4436496017155
 20
-146.980864763602
 10
117.4436496017155
 20
-146.980864763602
 10
117.553548147695
 20
-147.0607909788598
 10
117.657245521801
 20
-147.1496744423793
 10
117.754397214485
 20
-147.2447590777722
 10
117.8222655955444
 20
-147.1689669770967
 10
118.0251817196256
 20
-146.925743235838
 10
118.1585069149048
 20
-146.6969888956174
 10
118.1585069149048
 20
-146.6969888956174
 10
117.4856797666355
 20
-146.6969888956174
 10
117.4856797666355
 20
-146.6969888956174
 10
117.3609673100695
 20
-146.6969888956174
 10
117.1091308300977
 20
-146.7059461438791
 10
116.8996690245945
 20
-146.7162814303348
 10
116.8996690245945
 20
-146.7162814303348
 10
116.8996690245945
 20
-146.4964843383759
 10
116.8996690245945
 20
-146.4964843383759
 10
117.0839816330554
 20
-146.5150878539962
 10
117.2889648144278
 20
-146.5192219685785
 10
117.4774115374709
 20
-146.5192219685785
 10
117.4774115374709
 20
-146.5192219685785
 10
117.9807399878659
 20
-146.5192219685785
 10
117.9807399878659
 20
-146.5192219685785
 10
118.319392874066
 20
-146.5192219685785
 10
118.3638346058257
 20
-146.5047525675405
 10
118.4461723879232
 20
-146.4641004408145
 10
118.4461723879232
 20
-146.4641004408145
 10
118.6132595189578
 20
-146.6232638522331
 10
118.6132595189578
 20
-146.6232638522331
 10
118.4609862985098
 20
-146.6949218383263
 10
118.3173258167748
 20
-146.8582193643271
 10
118.2580701744285
 20
-146.9278102931292
 97
        0
 97
        0
 75
     2
 76
     1
 98
        0
  0
SPLINE
  5
153
330
117
100
AcDbEntity
  8
_U+30EC_U+30A4_U+30E4_U+30FC 1
370
     0
100
AcDbSpline
210
0.0
220
0.0
230
1.0
 70
    11
 71
     3
 72
    29
 73
    25
 74
     0
 42
0.0000000001
 43
0.0000000001
 12
1.0
 22
0.0
 32
0.0
 13
1.0
 23
0.0
 33
0.0
 40
0.0
 40
0.0
 40
0.0
 40
0.0
 40
1.0
 40
1.0
 40
1.0
 40
2.0
 40
2.0
 40
2.0
 40
3.0
 40
3.0
 40
3.0
 40
4.0
 40
4.0
 40
4.0
 40
5.0
 40
5.0
 40
5.0
 40
6.0
 40
6.0
 40
6.0
 40
7.0
 40
7.0
 40
7.0
 40
8.0
 40
8.0
 40
8.0
 40
8.0
 10
119.8813991670783
 20
-147.1710340343878
 30
0.0
 10
119.8813991670783
 20
-147.1710340343878
 30
0.0
 10
119.3970187418521
 20
-147.1710340343878
 30
0.0
 10
119.3970187418521
 20
-147.1710340343878
 30
0.0
 10
119.3694579779701
 20
-147.1710340343878
 30
0.0
 10
119.0521646837786
 20
-147.1710340343878
 30
0.0
 10
118.8406358209843
 20
-147.1965277409787
 30
0.0
 10
118.8406358209843
 20
-147.1965277409787
 30
0.0
 10
118.8406358209843
 20
-146.9657063434669
 30
0.0
 10
118.8406358209843
 20
-146.9657063434669
 30
0.0
 10
118.9991102133058
 20
-146.9891329927666
 30
0.0
 10
119.1896239936401
 20
-146.9912000500578
 30
0.0
 10
119.3970187418521
 20
-146.9912000500578
 30
0.0
 10
119.3970187418521
 20
-146.9912000500578
 30
0.0
 10
119.8813991670783
 20
-146.9912000500578
 30
0.0
 10
119.8813991670783
 20
-146.9912000500578
 30
0.0
 10
120.0674343232818
 20
-146.9912000500578
 30
0.0
 10
120.2538139890338
 20
-146.9891329927666
 30
0.0
 10
120.4377820879461
 20
-146.9657063434669
 30
0.0
 10
120.4377820879461
 20
-146.9657063434669
 30
0.0
 10
120.4377820879461
 20
-147.1965277409787
 30
0.0
 10
120.4377820879461
 20
-147.1965277409787
 30
0.0
 10
120.2538139890338
 20
-147.1731010916789
 30
0.0
 10
120.0061116236443
 20
-147.1710340343878
 30
0.0
 10
119.8813991670783
 20
-147.1710340343878
 30
0.0
  0
HATCH
  5
154
330
117
100
AcDbEntity
  8
_U+30EC_U+30A4_U+30E4_U+30FC 1
 62
   179
420
  2234388
100
AcDbHatch
 10
0.0
 20
0.0
 30
0.0
210
0.0
220
0.0
230
1.0
  2
SOLID
 70
     1
 71
     0
 91
        1
 92
        1
 93
        1
 72
     4
 94
        3
 73
     0
 74
     1
 95
       29
 96
       25
 40
0.0
 40
0.0
 40
0.0
 40
0.0
 40
1.0
 40
1.0
 40
1.0
 40
2.0
 40
2.0
 40
2.0
 40
3.0
 40
3.0
 40
3.0
 40
4.0
 40
4.0
 40
4.0
 40
5.0
 40
5.0
 40
5.0
 40
6.0
 40
6.0
 40
6.0
 40
7.0
 40
7.0
 40
7.0
 40
8.0
 40
8.0
 40
8.0
 40
8.0
 10
119.8813991670783
 20
-147.1710340343878
 10
119.8813991670783
 20
-147.1710340343878
 10
119.3970187418521
 20
-147.1710340343878
 10
119.3970187418521
 20
-147.1710340343878
 10
119.3694579779701
 20
-147.1710340343878
 10
119.0521646837786
 20
-147.1710340343878
 10
118.8406358209843
 20
-147.1965277409787
 10
118.8406358209843
 20
-147.1965277409787
 10
118.8406358209843
 20
-146.9657063434669
 10
118.8406358209843
 20
-146.9657063434669
 10
118.9991102133058
 20
-146.9891329927666
 10
119.1896239936401
 20
-146.9912000500578
 10
119.3970187418521
 20
-146.9912000500578
 10
119.3970187418521
 20
-146.9912000500578
 10
119.8813991670783
 20
-146.9912000500578
 10
119.8813991670783
 20
-146.9912000500578
 10
120.0674343232818
 20
-146.9912000500578
 10
120.2538139890338
 20
-146.9891329927666
 10
120.4377820879461
 20
-146.9657063434669
 10
120.4377820879461
 20
-146.9657063434669
 10
120.4377820879461
 20
-147.1965277409787
 10
120.4377820879461
 20
-147.1965277409787
 10
120.2538139890338
 20
-147.1731010916789
 10
120.0061116236443
 20
-147.1710340343878
 10
119.8813991670783
 20
-147.1710340343878
 97
        0
 97
        0
 75
     2
 76
     1
 98
        0
  0
ENDBLK
  5
11A
330
117
100
AcDbEntity
  8
0
100
AcDbBlockEnd
  0
ENDSEC
  0
SECTION
  2
ENTITIES
  0
POLYLINE
  5
41
330
1F
100
AcDbEntity
  8
_U+30EC_U+30A4_U+30E4_U+30FC 1
 62
     7
420
 16777215
370
    25
100
AcDb2dPolyline
 66
     1
 10
0.0
 20
0.0
 30
0.0
  0
VERTEX
  5
42
330
41
100
AcDbEntity
  8
_U+30EC_U+30A4_U+30E4_U+30FC 1
 62
     7
420
 16777215
370
    25
100
AcDbVertex
100
AcDb2dVertex
 10
69.71100553812772
 20
-143.7207846862917
 30
0.0
  0
VERTEX
  5
43
330
41
100
AcDbEntity
  8
_U+30EC_U+30A4_U+30E4_U+30FC 1
 62
     7
420
 16777215
370
    25
100
AcDbVertex
100
AcDb2dVertex
 10
101.2113774178826
 20
-143.7207846862917
 30
0.0
  0
SEQEND
  5
44
330
41
100
AcDbEntity
  8
_U+30EC_U+30A4_U+30E4_U+30FC 1
 62
     7
420
 16777215
370
    25
  0
POLYLINE
  5
45
330
1F
100
AcDbEntity
  8
_U+30EC_U+30A4_U+30E4_U+30FC 1
 62
     7
420
 16777215
370
    25
100
AcDb2dPolyline
 66
     1
 10
0.0
 20
0.0
 30
0.0
  0
VERTEX
  5
46
330
45
100
AcDbEntity
  8
_U+30EC_U+30A4_U+30E4_U+30FC 1
 62
     7
420
 16777215
370
    25
100
AcDbVertex
100
AcDb2dVertex
 10
69.71100553812772
 20
-122.2209546916669
 30
0.0
  0
VERTEX
  5
47
330
45
100
AcDbEntity
  8
_U+30EC_U+30A4_U+30E4_U+30FC 1
 62
     7
420
 16777215
370
    25
100
AcDbVertex
100
AcDb2dVertex
 10
100.6918768755806
 20
-122.2209546916669
 30
0.0
  0
SEQEND
  5
48
330
45
100
AcDbEntity
  8
_U+30EC_U+30A4_U+30E4_U+30FC 1
 62
     7
420
 16777215
370
    25
  0
POLYLINE
  5
49
330
1F
100
AcDbEntity
  8
_U+30EC_U+30A4_U+30E4_U+30FC 1
 62
     7
420
 16777215
370
    25
100
AcDb2dPolyline
 66
     1
 10
0.0
 20
0.0
 30
0.0
  0
VERTEX
  5
4A
330
49
100
AcDbEntity
  8
_U+30EC_U+30A4_U+30E4_U+30FC 1
 62
     7
420
 16777215
370
    25
100
AcDbVertex
100
AcDb2dVertex
 10
69.71100553812772
 20
-144.7212271860416
 30
0.0
  0
VERTEX
  5
4B
330
49
100
AcDbEntity
  8
_U+30EC_U+30A4_U+30E4_U+30FC 1
 62
     7
420
 16777215
370
    25
100
AcDbVertex
100
AcDb2dVertex
 10
100.2109349434061
 20
-144.7212271860416
 30
0.0
  0
SEQEND
  5
4C
330
49
100
AcDbEntity
  8
_U+30EC_U+30A4_U+30E4_U+30FC 1
 62
     7
420
 16777215
370
    25
  0
POLYLINE
  5
4D
330
1F
100
AcDbEntity
  8
_U+30EC_U+30A4_U+30E4_U+30FC 1
 62
     7
420
 16777215
370
    25
100
AcDb2dPolyline
 66
     1
 10
0.0
 20
0.0
 30
0.0
  0
VERTEX
  5
4E
330
4D
100
AcDbEntity
  8
_U+30EC_U+30A4_U+30E4_U+30FC 1
 62
     7
420
 16777215
370
    25
100
AcDbVertex
100
AcDb2dVertex
 10
68.7112333161555
 20
-114.2211188603335
 30
0.0
  0
VERTEX
  5
4F
330
4D
100
AcDbEntity
  8
_U+30EC_U+30A4_U+30E4_U+30FC 1
 62
     7
420
 16777215
370
    25
100
AcDbVertex
100
AcDb2dVertex
 10
68.7112333161555
 20
-143.7207846862917
 30
0.0
  0
SEQEND
  5
50
330
4D
100
AcDbEntity
  8
_U+30EC_U+30A4_U+30E4_U+30FC 1
 62
     7
420
 16777215
370
    25
  0
POLYLINE
  5
51
330
1F
100
AcDbEntity
  8
_U+30EC_U+30A4_U+30E4_U+30FC 1
 62
     7
420
 16777215
370
    25
100
AcDb2dPolyline
 66
     1
 10
0.0
 20
0.0
 30
0.0
  0
VERTEX
  5
52
330
51
100
AcDbEntity
  8
_U+30EC_U+30A4_U+30E4_U+30FC 1
 62
     7
420
 16777215
370
    25
100
AcDbVertex
100
AcDb2dVertex
 10
69.71100553812772
 20
-113.2213466383613
 30
0.0
  0
VERTEX
  5
53
330
51
100
AcDbEntity
  8
_U+30EC_U+30A4_U+30E4_U+30FC 1
 62
     7
420
 16777215
370
    25
100
AcDbVertex
100
AcDb2dVertex
 10
69.71100553812772
 20
-121.2208649696947
 30
0.0
  0
SEQEND
  5
54
330
51
100
AcDbEntity
  8
_U+30EC_U+30A4_U+30E4_U+30FC 1
 62
     7
420
 16777215
370
    25
  0
POLYLINE
  5
55
330
1F
100
AcDbEntity
  8
_U+30EC_U+30A4_U+30E4_U+30FC 1
 62
     7
420
 16777215
370
    25
100
AcDb2dPolyline
 66
     1
 10
0.0
 20
0.0
 30
0.0
  0
VERTEX
  5
56
330
55
100
AcDbEntity
  8
_U+30EC_U+30A4_U+30E4_U+30FC 1
 62
     7
420
 16777215
370
    25
100
AcDbVertex
100
AcDb2dVertex
 10
69.71100553812772
 20
-121.2208649696947
 30
0.0
  0
VERTEX
  5
57
330
55
100
AcDbEntity
  8
_U+30EC_U+30A4_U+30E4_U+30FC 1
 62
     7
420
 16777215
370
    25
100
AcDbVertex
100
AcDb2dVertex
 10
107.7109197520655
 20
-121.2208649696947
 30
0.0
  0
SEQEND
  5
58
330
55
100
AcDbEntity
  8
_U+30EC_U+30A4_U+30E4_U+30FC 1
 62
     7
420
 16777215
370
    25
  0
POLYLINE
  5
59
330
1F
100
AcDbEntity
  8
_U+30EC_U+30A4_U+30E4_U+30FC 1
 62
     7
420
 16777215
370
    25
100
AcDb2dPolyline
 66
     1
 10
0.0
 20
0.0
 30
0.0
  0
VERTEX
  5
5A
330
59
100
AcDbEntity
  8
_U+30EC_U+30A4_U+30E4_U+30FC 1
 62
     7
420
 16777215
370
    25
100
AcDbVertex
100
AcDb2dVertex
 10
69.71100553812772
 20
-122.2209546916669
 30
0.0
  0
VERTEX
  5
5B
330
59
100
AcDbEntity
  8
_U+30EC_U+30A4_U+30E4_U+30FC 1
 62
     7
420
 16777215
370
    25
100
AcDbVertex
100
AcDb2dVertex
 10
69.71100553812772
 20
-143.7207846862917
 30
0.0
  0
SEQEND
  5
5C
330
59
100
AcDbEntity
  8
_U+30EC_U+30A4_U+30E4_U+30FC 1
 62
     7
420
 16777215
370
    25
  0
POLYLINE
  5
5D
330
1F
100
AcDbEntity
  8
_U+30EC_U+30A4_U+30E4_U+30FC 1
 62
     7
420
 16777215
370
    25
100
AcDb2dPolyline
 66
     1
 10
0.0
 20
0.0
 30
0.0
  0
VERTEX
  5
5E
330
5D
100
AcDbEntity
  8
_U+30EC_U+30A4_U+30E4_U+30FC 1
 62
     7
420
 16777215
370
    25
100
AcDbVertex
100
AcDb2dVertex
 10
101.2113774178826
 20
-121.9208819139642
 30
0.0
  0
VERTEX
  5
5F
330
5D
100
AcDbEntity
  8
_U+30EC_U+30A4_U+30E4_U+30FC 1
 62
     7
420
 16777215
370
    25
100
AcDbVertex
100
AcDb2dVertex
 10
107.0108675477031
 20
-121.9208819139642
 30
0.0
  0
SEQEND
  5
60
330
5D
100
AcDbEntity
  8
_U+30EC_U+30A4_U+30E4_U+30FC 1
 62
     7
420
 16777215
370
    25
  0
POLYLINE
  5
61
330
1F
100
AcDbEntity
  8
_U+30EC_U+30A4_U+30E4_U+30FC 1
 62
     7
420
 16777215
370
    25
100
AcDb2dPolyline
 66
     1
 10
0.0
 20
0.0
 30
0.0
  0
VERTEX
  5
62
330
61
100
AcDbEntity
  8
_U+30EC_U+30A4_U+30E4_U+30FC 1
 62
     7
420
 16777215
370
    25
100
AcDbVertex
100
AcDb2dVertex
 10
100.6918768755806
 20
-122.2209546916669
 30
0.0
  0
VERTEX
  5
63
330
61
100
AcDbEntity
  8
_U+30EC_U+30A4_U+30E4_U+30FC 1
 62
     7
420
 16777215
370
    25
100
AcDbVertex
100
AcDb2dVertex
 10
101.2113774178826
 20
-121.9208819139642
 30
0.0
  0
SEQEND
  5
64
330
61
100
AcDbEntity
  8
_U+30EC_U+30A4_U+30E4_U+30FC 1
 62
     7
420
 16777215
370
    25
  0
POLYLINE
  5
65
330
1F
100
AcDbEntity
  8
_U+30EC_U+30A4_U+30E4_U+30FC 1
 62
     7
420
 16777215
370
     9
100
AcDb2dPolyline
 66
     1
 10
0.0
 20
0.0
 30
0.0
  0
VERTEX
  5
66
330
65
100
AcDbEntity
  8
_U+30EC_U+30A4_U+30E4_U+30FC 1
 62
     7
420
 16777215
370
     9
100
AcDbVertex
100
AcDb2dVertex
 10
69.00407240622611
 20
-144.428033575004
 30
0.0
  0
VERTEX
  5
67
330
65
100
AcDbEntity
  8
_U+30EC_U+30A4_U+30E4_U+30FC 1
 62
     7
420
 16777215
370
     9
100
AcDbVertex
100
AcDb2dVertex
 10
64.71147251573946
 20
-148.7209863517085
 30
0.0
  0
SEQEND
  5
68
330
65
100
AcDbEntity
  8
_U+30EC_U+30A4_U+30E4_U+30FC 1
 62
     7
420
 16777215
370
     9
  0
POLYLINE
  5
69
330
1F
100
AcDbEntity
  8
_U+30EC_U+30A4_U+30E4_U+30FC 1
 62
     7
420
 16777215
370
     9
100
AcDb2dPolyline
 66
     1
 10
0.0
 20
0.0
 30
0.0
  0
VERTEX
  5
6A
330
69
100
AcDbEntity
  8
_U+30EC_U+30A4_U+30E4_U+30FC 1
 62
     7
420
 16777215
370
     9
100
AcDbVertex
100
AcDb2dVertex
 10
60.49881206765783
 20
-148.7209863517085
 30
0.0
  0
VERTEX
  5
6B
330
69
100
AcDbEntity
  8
_U+30EC_U+30A4_U+30E4_U+30FC 1
 62
     7
420
 16777215
370
     9
100
AcDbVertex
100
AcDb2dVertex
 10
64.71147251573946
 20
-148.7209863517085
 30
0.0
  0
SEQEND
  5
6C
330
69
100
AcDbEntity
  8
_U+30EC_U+30A4_U+30E4_U+30FC 1
 62
     7
420
 16777215
370
     9
  0
POLYLINE
  5
6D
330
1F
100
AcDbEntity
  8
_U+30EC_U+30A4_U+30E4_U+30FC 1
 62
     7
420
 16777215
370
     9
100
AcDb2dPolyline
 66
     1
 10
0.0
 20
0.0
 30
0.0
  0
VERTEX
  5
6E
330
6D
100
AcDbEntity
  8
_U+30EC_U+30A4_U+30E4_U+30FC 1
 62
     7
420
 16777215
370
     9
100
AcDbVertex
100
AcDb2dVertex
 10
69.00407240622611
 20
-144.428033575004
 30
0.0
  0
VERTEX
  5
6F
330
6D
100
AcDbEntity
  8
_U+30EC_U+30A4_U+30E4_U+30FC 1
 62
     7
420
 16777215
370
     9
100
AcDbVertex
100
AcDb2dVertex
 10
67.70525049491738
 20
-145.1780391303722
 30
0.0
  0
SEQEND
  5
70
330
6D
100
AcDbEntity
  8
_U+30EC_U+30A4_U+30E4_U+30FC 1
 62
     7
420
 16777215
370
     9
  0
POLYLINE
  5
71
330
1F
100
AcDbEntity
  8
_U+30EC_U+30A4_U+30E4_U+30FC 1
 62
     7
420
 16777215
370
     9
100
AcDb2dPolyline
 66
     1
 10
0.0
 20
0.0
 30
0.0
  0
VERTEX
  5
72
330
71
100
AcDbEntity
  8
_U+30EC_U+30A4_U+30E4_U+30FC 1
 62
     7
420
 16777215
370
     9
100
AcDbVertex
100
AcDb2dVertex
 10
69.00407240622611
 20
-144.428033575004
 30
0.0
  0
VERTEX
  5
73
330
71
100
AcDbEntity
  8
_U+30EC_U+30A4_U+30E4_U+30FC 1
 62
     7
420
 16777215
370
     9
100
AcDbVertex
100
AcDb2dVertex
 10
68.25441964757357
 20
-145.7272082969012
 30
0.0
  0
SEQEND
  5
74
330
71
100
AcDbEntity
  8
_U+30EC_U+30A4_U+30E4_U+30FC 1
 62
     7
420
 16777215
370
     9
  0
SPLINE
  5
75
330
1F
100
AcDbEntity
  8
_U+30EC_U+30A4_U+30E4_U+30FC 1
 62
     7
420
 16777215
370
    25
100
AcDbSpline
210
0.0
220
0.0
230
1.0
 70
     8
 71
     3
 72
     8
 73
     4
 74
     0
 42
0.0000000001
 43
0.0000000001
 12
1.0
 22
0.0
 32
0.0
 13
1.0
 23
0.0
 33
0.0
 40
0.0
 40
0.0
 40
0.0
 40
0.0
 40
1.0
 40
1.0
 40
1.0
 40
1.0
 10
68.7112333161555
 20
-143.7207846862917
 30
0.0
 10
68.7112333161555
 20
-144.2733757972652
 30
0.0
 10
69.15908295782702
 20
-144.7212271860416
 30
0.0
 10
69.71100553812772
 20
-144.7212271860416
 30
0.0
  0
SPLINE
  5
76
330
1F
100
AcDbEntity
  8
_U+30EC_U+30A4_U+30E4_U+30FC 1
 62
     7
420
 16777215
370
    25
100
AcDbSpline
210
0.0
220
0.0
230
1.0
 70
     8
 71
     3
 72
     8
 73
     4
 74
     0
 42
0.0000000001
 43
0.0000000001
 12
1.0
 22
0.0
 32
0.0
 13
1.0
 23
0.0
 33
0.0
 40
0.0
 40
0.0
 40
0.0
 40
0.0
 40
1.0
 40
1.0
 40
1.0
 40
1.0
 10
69.71100553812772
 20
-113.2213466383613
 30
0.0
 10
69.15908295782702
 20
-113.2213466383613
 30
0.0
 10
68.7112333161555
 20
-113.6691980271383
 30
0.0
 10
68.7112333161555
 20
-114.2211188603335
 30
0.0
  0
SPLINE
  5
77
330
1F
100
AcDbEntity
  8
_U+30EC_U+30A4_U+30E4_U+30FC 1
 62
     7
420
 16777215
370
    25
100
AcDbSpline
210
0.0
220
0.0
230
1.0
 70
     8
 71
     3
 72
     8
 73
     4
 74
     0
 42
0.0000000001
 43
0.0000000001
 12
1.0
 22
0.0
 32
0.0
 13
1.0
 23
0.0
 33
0.0
 40
0.0
 40
0.0
 40
0.0
 40
0.0
 40
1.0
 40
1.0
 40
1.0
 40
1.0
 10
100.2109349434061
 20
-144.7212271860416
 30
0.0
 10
100.7635260404194
 20
-144.7212271860416
 30
0.0
 10
101.2113774178826
 20
-144.2733757972652
 30
0.0
 10
101.2113774178826
 20
-143.7207846862917
 30
0.0
  0
SPLINE
  5
78
330
1F
100
AcDbEntity
  8
_U+30EC_U+30A4_U+30E4_U+30FC 1
 62
     7
420
 16777215
370
    25
100
AcDbSpline
210
0.0
220
0.0
230
1.0
 70
     8
 71
     3
 72
     8
 73
     4
 74
     0
 42
0.0000000001
 43
0.0000000001
 12
1.0
 22
0.0
 32
0.0
 13
1.0
 23
0.0
 33
0.0
 40
0.0
 40
0.0
 40
0.0
 40
0.0
 40
1.0
 40
1.0
 40
1.0
 40
1.0
 10
107.0108675477031
 20
-121.9208819139642
 30
0.0
 10
107.3974061489528
 20
-121.9208819139642
 30
0.0
 10
107.7109197520655
 20
-121.6074035807092
 30
0.0
 10
107.7109197520655
 20
-121.2208649696947
 30
0.0
  0
SPLINE
  5
79
330
1F
100
AcDbEntity
  8
_U+30EC_U+30A4_U+30E4_U+30FC 1
 62
     7
420
 16777215
370
     9
100
AcDbSpline
210
0.0
220
0.0
230
1.0
 70
    11
 71
     3
 72
    17
 73
    13
 74
     0
 42
0.0000000001
 43
0.0000000001
 12
1.0
 22
0.0
 32
0.0
 13
1.0
 23
0.0
 33
0.0
 40
0.0
 40
0.0
 40
0.0
 40
0.0
 40
1.0
 40
1.0
 40
1.0
 40
2.0
 40
2.0
 40
2.0
 40
3.0
 40
3.0
 40
3.0
 40
4.0
 40
4.0
 40
4.0
 40
4.0
 10
107.8108264161833
 20
-110.0404905280454
 30
0.0
 10
107.8108264161833
 20
-109.9853513613927
 30
0.0
 10
107.7660236395486
 20
-109.9405838614038
 30
0.0
 10
107.7109197520655
 20
-109.9405838614038
 30
0.0
 10
107.6557833064191
 20
-109.9405838614038
 30
0.0
 10
107.6110130879477
 20
-109.9853513613927
 30
0.0
 10
107.6110130879477
 20
-110.0404905280454
 30
0.0
 10
107.6110130879477
 20
-110.0955944169207
 30
0.0
 10
107.6557833064191
 20
-110.1403971946871
 30
0.0
 10
107.7109197520655
 20
-110.1403971946871
 30
0.0
 10
107.7660236395486
 20
-110.1403971946871
 30
0.0
 10
107.8108264161833
 20
-110.0955944169207
 30
0.0
 10
107.8108264161833
 20
-110.0404905280454
 30
0.0
  0
SPLINE
  5
7A
330
1F
100
AcDbEntity
  8
_U+30EC_U+30A4_U+30E4_U+30FC 1
 62
     7
420
 16777215
370
     9
100
AcDbSpline
210
0.0
220
0.0
230
1.0
 70
    11
 71
     3
 72
    17
 73
    13
 74
     0
 42
0.0000000001
 43
0.0000000001
 12
1.0
 22
0.0
 32
0.0
 13
1.0
 23
0.0
 33
0.0
 40
0.0
 40
0.0
 40
0.0
 40
0.0
 40
1.0
 40
1.0
 40
1.0
 40
2.0
 40
2.0
 40
2.0
 40
3.0
 40
3.0
 40
3.0
 40
4.0
 40
4.0
 40
4.0
 40
4.0
 10
69.91081710531536
 20
-110.0404905280454
 30
0.0
 10
69.91081710531536
 20
-109.9853513613927
 30
0.0
 10
69.86601432868059
 20
-109.9405838614038
 30
0.0
 10
69.81091044119752
 20
-109.9405838614038
 30
0.0
 10
69.75577127593756
 20
-109.9405838614038
 30
0.0
 10
69.71100553812772
 20
-109.9853513613927
 30
0.0
 10
69.71100553812772
 20
-110.0404905280454
 30
0.0
 10
69.71100553812772
 20
-110.0955944169207
 30
0.0
 10
69.75577127593756
 20
-110.1403971946871
 30
0.0
 10
69.81091044119752
 20
-110.1403971946871
 30
0.0
 10
69.86601432868059
 20
-110.1403971946871
 30
0.0
 10
69.91081710531536
 20
-110.0955944169207
 30
0.0
 10
69.91081710531536
 20
-110.0404905280454
 30
0.0
  0
SPLINE
  5
7B
330
1F
100
AcDbEntity
  8
_U+30EC_U+30A4_U+30E4_U+30FC 1
 62
     7
420
 16777215
370
     9
100
AcDbSpline
210
0.0
220
0.0
230
1.0
 70
    11
 71
     3
 72
    17
 73
    13
 74
     0
 42
0.0000000001
 43
0.0000000001
 12
1.0
 22
0.0
 32
0.0
 13
1.0
 23
0.0
 33
0.0
 40
0.0
 40
0.0
 40
0.0
 40
0.0
 40
1.0
 40
1.0
 40
1.0
 40
2.0
 40
2.0
 40
2.0
 40
3.0
 40
3.0
 40
3.0
 40
4.0
 40
4.0
 40
4.0
 40
4.0
 10
68.81113824448161
 20
-115.221208582306
 30
0.0
 10
68.81113824448161
 20
-115.1661046934308
 30
0.0
 10
68.76633546784684
 20
-115.121301915664
 30
0.0
 10
68.7112333161555
 20
-115.121301915664
 30
0.0
 10
68.65609241510383
 20
-115.121301915664
 30
0.0
 10
68.61132491624593
 20
-115.1661046934308
 30
0.0
 10
68.61132491624593
 20
-115.221208582306
 30
0.0
 10
68.61132491624593
 20
-115.2767005267365
 30
0.0
 10
68.65609241510383
 20
-115.3214680267251
 30
0.0
 10
68.7112333161555
 20
-115.3214680267251
 30
0.0
 10
68.76633546784684
 20
-115.3214680267251
 30
0.0
 10
68.81113824448161
 20
-115.2767005267365
 30
0.0
 10
68.81113824448161
 20
-115.221208582306
 30
0.0
  0
SPLINE
  5
7C
330
1F
100
AcDbEntity
  8
_U+30EC_U+30A4_U+30E4_U+30FC 1
 62
     7
420
 16777215
370
     9
100
AcDbSpline
210
0.0
220
0.0
230
1.0
 70
    11
 71
     3
 72
    17
 73
    13
 74
     0
 42
0.0000000001
 43
0.0000000001
 12
1.0
 22
0.0
 32
0.0
 13
1.0
 23
0.0
 33
0.0
 40
0.0
 40
0.0
 40
0.0
 40
0.0
 40
1.0
 40
1.0
 40
1.0
 40
2.0
 40
2.0
 40
2.0
 40
3.0
 40
3.0
 40
3.0
 40
4.0
 40
4.0
 40
4.0
 40
4.0
 10
69.81091044119752
 20
-115.221208582306
 30
0.0
 10
69.81091044119752
 20
-115.1661046934308
 30
0.0
 10
69.76610766456275
 20
-115.121301915664
 30
0.0
 10
69.71100553812772
 20
-115.121301915664
 30
0.0
 10
69.65586461181974
 20
-115.121301915664
 30
0.0
 10
69.61109711296184
 20
-115.1661046934308
 30
0.0
 10
69.61109711296184
 20
-115.221208582306
 30
0.0
 10
69.61109711296184
 20
-115.2767005267365
 30
0.0
 10
69.65586461181974
 20
-115.3214680267251
 30
0.0
 10
69.71100553812772
 20
-115.3214680267251
 30
0.0
 10
69.76610766456275
 20
-115.3214680267251
 30
0.0
 10
69.81091044119752
 20
-115.2767005267365
 30
0.0
 10
69.81091044119752
 20
-115.221208582306
 30
0.0
  0
SPLINE
  5
7D
330
1F
100
AcDbEntity
  8
_U+30EC_U+30A4_U+30E4_U+30FC 1
 62
     7
420
 16777215
370
     9
100
AcDbSpline
210
0.0
220
0.0
230
1.0
 70
    11
 71
     3
 72
    17
 73
    13
 74
     0
 42
0.0000000001
 43
0.0000000001
 12
1.0
 22
0.0
 32
0.0
 13
1.0
 23
0.0
 33
0.0
 40
0.0
 40
0.0
 40
0.0
 40
0.0
 40
1.0
 40
1.0
 40
1.0
 40
2.0
 40
2.0
 40
2.0
 40
3.0
 40
3.0
 40
3.0
 40
4.0
 40
4.0
 40
4.0
 40
4.0
 10
64.8113791798573
 20
-144.7212271860416
 30
0.0
 10
64.8113791798573
 20
-144.665770519389
 30
0.0
 10
64.76657640322253
 20
-144.6209677416222
 30
0.0
 10
64.71147251573946
 20
-144.6209677416222
 30
0.0
 10
64.65566307271884
 20
-144.6209677416222
 30
0.0
 10
64.61086029608407
 20
-144.665770519389
 30
0.0
 10
64.61086029608407
 20
-144.7212271860416
 30
0.0
 10
64.61086029608407
 20
-144.7763310749172
 30
0.0
 10
64.65566307271884
 20
-144.8211338526839
 30
0.0
 10
64.71147251573946
 20
-144.8211338526839
 30
0.0
 10
64.76657640322253
 20
-144.8211338526839
 30
0.0
 10
64.8113791798573
 20
-144.7763310749172
 30
0.0
 10
64.8113791798573
 20
-144.7212271860416
 30
0.0
  0
SPLINE
  5
7E
330
1F
100
AcDbEntity
  8
_U+30EC_U+30A4_U+30E4_U+30FC 1
 62
     7
420
 16777215
370
     9
100
AcDbSpline
210
0.0
220
0.0
230
1.0
 70
    11
 71
     3
 72
    17
 73
    13
 74
     0
 42
0.0000000001
 43
0.0000000001
 12
1.0
 22
0.0
 32
0.0
 13
1.0
 23
0.0
 33
0.0
 40
0.0
 40
0.0
 40
0.0
 40
0.0
 40
1.0
 40
1.0
 40
1.0
 40
2.0
 40
2.0
 40
2.0
 40
3.0
 40
3.0
 40
3.0
 40
4.0
 40
4.0
 40
4.0
 40
4.0
 10
64.8113791798573
 20
-113.2213466383613
 30
0.0
 10
64.8113791798573
 20
-113.1662074717085
 30
0.0
 10
64.76657640322253
 20
-113.1214399717197
 30
0.0
 10
64.71147251573946
 20
-113.1214399717197
 30
0.0
 10
64.65566307271884
 20
-113.1214399717197
 30
0.0
 10
64.61086029608407
 20
-113.1662074717085
 30
0.0
 10
64.61086029608407
 20
-113.2213466383613
 30
0.0
 10
64.61086029608407
 20
-113.2764505272365
 30
0.0
 10
64.65566307271884
 20
-113.3212533050029
 30
0.0
 10
64.71147251573946
 20
-113.3212533050029
 30
0.0
 10
64.76657640322253
 20
-113.3212533050029
 30
0.0
 10
64.8113791798573
 20
-113.2764505272365
 30
0.0
 10
64.8113791798573
 20
-113.2213466383613
 30
0.0
  0
SPLINE
  5
7F
330
1F
100
AcDbEntity
  8
_U+30EC_U+30A4_U+30E4_U+30FC 1
 62
     7
420
 16777215
370
     9
100
AcDbSpline
210
0.0
220
0.0
230
1.0
 70
    11
 71
     3
 72
    17
 73
    13
 74
     0
 42
0.0000000001
 43
0.0000000001
 12
1.0
 22
0.0
 32
0.0
 13
1.0
 23
0.0
 33
0.0
 40
0.0
 40
0.0
 40
0.0
 40
0.0
 40
1.0
 40
1.0
 40
1.0
 40
2.0
 40
2.0
 40
2.0
 40
3.0
 40
3.0
 40
3.0
 40
4.0
 40
4.0
 40
4.0
 40
4.0
 10
100.3108416075239
 20
-148.7209863517085
 30
0.0
 10
100.3108416075239
 20
-148.6658471850561
 30
0.0
 10
100.266074108666
 20
-148.6210796850669
 30
0.0
 10
100.2109349434061
 20
-148.6210796850669
 30
0.0
 10
100.155831055923
 20
-148.6210796850669
 30
0.0
 10
100.1110282792882
 20
-148.6658471850561
 30
0.0
 10
100.1110282792882
 20
-148.7209863517085
 30
0.0
 10
100.1110282792882
 20
-148.7760902405841
 30
0.0
 10
100.155831055923
 20
-148.8208930183501
 30
0.0
 10
100.2109349434061
 20
-148.8208930183501
 30
0.0
 10
100.266074108666
 20
-148.8208930183501
 30
0.0
 10
100.3108416075239
 20
-148.7760902405841
 30
0.0
 10
100.3108416075239
 20
-148.7209863517085
 30
0.0
  0
SPLINE
  5
80
330
1F
100
AcDbEntity
  8
_U+30EC_U+30A4_U+30E4_U+30FC 1
 62
     7
420
 16777215
370
     9
100
AcDbSpline
210
0.0
220
0.0
230
1.0
 70
    11
 71
     3
 72
    17
 73
    13
 74
     0
 42
0.0000000001
 43
0.0000000001
 12
1.0
 22
0.0
 32
0.0
 13
1.0
 23
0.0
 33
0.0
 40
0.0
 40
0.0
 40
0.0
 40
0.0
 40
1.0
 40
1.0
 40
1.0
 40
2.0
 40
2.0
 40
2.0
 40
3.0
 40
3.0
 40
3.0
 40
4.0
 40
4.0
 40
4.0
 40
4.0
 10
68.81113824448161
 20
-148.7209863517085
 30
0.0
 10
68.81113824448161
 20
-148.6658471850561
 30
0.0
 10
68.76633546784684
 20
-148.6210796850669
 30
0.0
 10
68.7112333161555
 20
-148.6210796850669
 30
0.0
 10
68.65609241510383
 20
-148.6210796850669
 30
0.0
 10
68.61132491624593
 20
-148.6658471850561
 30
0.0
 10
68.61132491624593
 20
-148.7209863517085
 30
0.0
 10
68.61132491624593
 20
-148.7760902405841
 30
0.0
 10
68.65609241510383
 20
-148.8208930183501
 30
0.0
 10
68.7112333161555
 20
-148.8208930183501
 30
0.0
 10
68.76633546784684
 20
-148.8208930183501
 30
0.0
 10
68.81113824448161
 20
-148.7760902405841
 30
0.0
 10
68.81113824448161
 20
-148.7209863517085
 30
0.0
  0
SPLINE
  5
81
330
1F
100
AcDbEntity
  8
_U+30EC_U+30A4_U+30E4_U+30FC 1
 62
     7
420
 16777215
370
     9
100
AcDbSpline
210
0.0
220
0.0
230
1.0
 70
    11
 71
     3
 72
    17
 73
    13
 74
     0
 42
0.0000000001
 43
0.0000000001
 12
1.0
 22
0.0
 32
0.0
 13
1.0
 23
0.0
 33
0.0
 40
0.0
 40
0.0
 40
0.0
 40
0.0
 40
1.0
 40
1.0
 40
1.0
 40
2.0
 40
2.0
 40
2.0
 40
3.0
 40
3.0
 40
3.0
 40
4.0
 40
4.0
 40
4.0
 40
4.0
 10
106.8114069972362
 20
-122.2209546916669
 30
0.0
 10
106.8114069972362
 20
-122.165850802792
 30
0.0
 10
106.7666042206015
 20
-122.1210480250253
 30
0.0
 10
106.7115003331184
 20
-122.1210480250253
 30
0.0
 10
106.6556908900977
 20
-122.1210480250253
 30
0.0
 10
106.610888113463
 20
-122.165850802792
 30
0.0
 10
106.610888113463
 20
-122.2209546916669
 30
0.0
 10
106.610888113463
 20
-122.2764466360974
 30
0.0
 10
106.6556908900977
 20
-122.3212141360863
 30
0.0
 10
106.7115003331184
 20
-122.3212141360863
 30
0.0
 10
106.7666042206015
 20
-122.3212141360863
 30
0.0
 10
106.8114069972362
 20
-122.2764466360974
 30
0.0
 10
106.8114069972362
 20
-122.2209546916669
 30
0.0
  0
SPLINE
  5
82
330
1F
100
AcDbEntity
  8
_U+30EC_U+30A4_U+30E4_U+30FC 1
 62
     7
420
 16777215
370
     9
100
AcDbSpline
210
0.0
220
0.0
230
1.0
 70
    11
 71
     3
 72
    17
 73
    13
 74
     0
 42
0.0000000001
 43
0.0000000001
 12
1.0
 22
0.0
 32
0.0
 13
1.0
 23
0.0
 33
0.0
 40
0.0
 40
0.0
 40
0.0
 40
0.0
 40
1.0
 40
1.0
 40
1.0
 40
2.0
 40
2.0
 40
2.0
 40
3.0
 40
3.0
 40
3.0
 40
4.0
 40
4.0
 40
4.0
 40
4.0
 10
106.8114069972362
 20
-143.7204319085146
 30
0.0
 10
106.8114069972362
 20
-143.6652927418615
 30
0.0
 10
106.7666042206015
 20
-143.620525241873
 30
0.0
 10
106.7115003331184
 20
-143.620525241873
 30
0.0
 10
106.6556908900977
 20
-143.620525241873
 30
0.0
 10
106.610888113463
 20
-143.6652927418615
 30
0.0
 10
106.610888113463
 20
-143.7204319085146
 30
0.0
 10
106.610888113463
 20
-143.776241352945
 30
0.0
 10
106.6556908900977
 20
-143.8210088529336
 30
0.0
 10
106.7115003331184
 20
-143.8210088529336
 30
0.0
 10
106.7666042206015
 20
-143.8210088529336
 30
0.0
 10
106.8114069972362
 20
-143.776241352945
 30
0.0
 10
106.8114069972362
 20
-143.7204319085146
 30
0.0
  0
INSERT
  5
84
330
1F
100
AcDbEntity
  8
_U+30EC_U+30A4_U+30E4_U+30FC 1
100
AcDbBlockReference
  2
block 2
 10
0.0
 20
0.0
 30
0.0
  0
POLYLINE
  5
8C
330
1F
100
AcDbEntity
  8
_U+30EC_U+30A4_U+30E4_U+30FC 1
 62
     7
420
 16777215
370
     9
100
AcDb2dPolyline
 66
     1
 10
0.0
 20
0.0
 30
0.0
  0
VERTEX
  5
8D
330
8C
100
AcDbEntity
  8
_U+30EC_U+30A4_U+30E4_U+30FC 1
 62
     7
420
 16777215
370
     9
100
AcDbVertex
100
AcDb2dVertex
 10
69.71100553812772
 20
-110.0404905280454
 30
0.0
  0
VERTEX
  5
8E
330
8C
100
AcDbEntity
  8
_U+30EC_U+30A4_U+30E4_U+30FC 1
 62
     7
420
 16777215
370
     9
100
AcDbVertex
100
AcDb2dVertex
 10
107.7109197520655
 20
-110.0404905280454
 30
0.0
  0
SEQEND
  5
8F
330
8C
100
AcDbEntity
  8
_U+30EC_U+30A4_U+30E4_U+30FC 1
 62
     7
420
 16777215
370
     9
  0
POLYLINE
  5
90
330
1F
100
AcDbEntity
  8
_U+30EC_U+30A4_U+30E4_U+30FC 1
 62
     7
420
 16777215
370
     9
100
AcDb2dPolyline
 66
     1
 10
0.0
 20
0.0
 30
0.0
  0
VERTEX
  5
91
330
90
100
AcDbEntity
  8
_U+30EC_U+30A4_U+30E4_U+30FC 1
 62
     7
420
 16777215
370
     9
100
AcDbVertex
100
AcDb2dVertex
 10
69.81091044119752
 20
-112.5002688607638
 30
0.0
  0
VERTEX
  5
92
330
90
100
AcDbEntity
  8
_U+30EC_U+30A4_U+30E4_U+30FC 1
 62
     7
420
 16777215
370
     9
100
AcDbVertex
100
AcDb2dVertex
 10
69.81091044119752
 20
-109.0403655282955
 30
0.0
  0
SEQEND
  5
93
330
90
100
AcDbEntity
  8
_U+30EC_U+30A4_U+30E4_U+30FC 1
 62
     7
420
 16777215
370
     9
  0
POLYLINE
  5
94
330
1F
100
AcDbEntity
  8
_U+30EC_U+30A4_U+30E4_U+30FC 1
 62
     7
420
 16777215
370
     9
100
AcDb2dPolyline
 66
     1
 10
0.0
 20
0.0
 30
0.0
  0
VERTEX
  5
95
330
94
100
AcDbEntity
  8
_U+30EC_U+30A4_U+30E4_U+30FC 1
 62
     7
420
 16777215
370
     9
100
AcDbVertex
100
AcDb2dVertex
 10
107.7109197520655
 20
-120.0002538588888
 30
0.0
  0
VERTEX
  5
96
330
94
100
AcDbEntity
  8
_U+30EC_U+30A4_U+30E4_U+30FC 1
 62
     7
420
 16777215
370
     9
100
AcDbVertex
100
AcDb2dVertex
 10
107.7109197520655
 20
-109.0403655282955
 30
0.0
  0
SEQEND
  5
97
330
94
100
AcDbEntity
  8
_U+30EC_U+30A4_U+30E4_U+30FC 1
 62
     7
420
 16777215
370
     9
  0
INSERT
  5
99
330
1F
100
AcDbEntity
  8
_U+30EC_U+30A4_U+30E4_U+30FC 1
100
AcDbBlockReference
  2
block 3
 10
0.0
 20
0.0
 30
0.0
  0
POLYLINE
  5
A2
330
1F
100
AcDbEntity
  8
_U+30EC_U+30A4_U+30E4_U+30FC 1
 62
     7
420
 16777215
370
     9
100
AcDb2dPolyline
 66
     1
 10
0.0
 20
0.0
 30
0.0
  0
VERTEX
  5
A3
330
A2
100
AcDbEntity
  8
_U+30EC_U+30A4_U+30E4_U+30FC 1
 62
     7
420
 16777215
370
     9
100
AcDbVertex
100
AcDb2dVertex
 10
69.71100553812772
 20
-115.221208582306
 30
0.0
  0
VERTEX
  5
A4
330
A2
100
AcDbEntity
  8
_U+30EC_U+30A4_U+30E4_U+30FC 1
 62
     7
420
 16777215
370
     9
100
AcDbVertex
100
AcDb2dVertex
 10
73.481316180891
 20
-115.221208582306
 30
0.0
  0
SEQEND
  5
A5
330
A2
100
AcDbEntity
  8
_U+30EC_U+30A4_U+30E4_U+30FC 1
 62
     7
420
 16777215
370
     9
  0
POLYLINE
  5
A6
330
1F
100
AcDbEntity
  8
_U+30EC_U+30A4_U+30E4_U+30FC 1
 62
     7
420
 16777215
370
     9
100
AcDb2dPolyline
 66
     1
 10
0.0
 20
0.0
 30
0.0
  0
VERTEX
  5
A7
330
A6
100
AcDbEntity
  8
_U+30EC_U+30A4_U+30E4_U+30FC 1
 62
     7
420
 16777215
370
     9
100
AcDbVertex
100
AcDb2dVertex
 10
67.71146109418328
 20
-115.221208582306
 30
0.0
  0
VERTEX
  5
A8
330
A6
100
AcDbEntity
  8
_U+30EC_U+30A4_U+30E4_U+30FC 1
 62
     7
420
 16777215
370
     9
100
AcDbVertex
100
AcDb2dVertex
 10
69.71100553812772
 20
-115.221208582306
 30
0.0
  0
SEQEND
  5
A9
330
A6
100
AcDbEntity
  8
_U+30EC_U+30A4_U+30E4_U+30FC 1
 62
     7
420
 16777215
370
     9
  0
INSERT
  5
AB
330
1F
100
AcDbEntity
  8
_U+30EC_U+30A4_U+30E4_U+30FC 1
100
AcDbBlockReference
  2
block 4
 10
0.0
 20
0.0
 30
0.0
  0
POLYLINE
  5
B0
330
1F
100
AcDbEntity
  8
_U+30EC_U+30A4_U+30E4_U+30FC 1
 62
     7
420
 16777215
370
     9
100
AcDb2dPolyline
 66
     1
 10
0.0
 20
0.0
 30
0.0
  0
VERTEX
  5
B1
330
B0
100
AcDbEntity
  8
_U+30EC_U+30A4_U+30E4_U+30FC 1
 62
     7
420
 16777215
370
     9
100
AcDbVertex
100
AcDb2dVertex
 10
64.71147251573946
 20
-144.7212271860416
 30
0.0
  0
VERTEX
  5
B2
330
B0
100
AcDbEntity
  8
_U+30EC_U+30A4_U+30E4_U+30FC 1
 62
     7
420
 16777215
370
     9
100
AcDbVertex
100
AcDb2dVertex
 10
64.71147251573946
 20
-113.2213466383613
 30
0.0
  0
SEQEND
  5
B3
330
B0
100
AcDbEntity
  8
_U+30EC_U+30A4_U+30E4_U+30FC 1
 62
     7
420
 16777215
370
     9
  0
POLYLINE
  5
B4
330
1F
100
AcDbEntity
  8
_U+30EC_U+30A4_U+30E4_U+30FC 1
 62
     7
420
 16777215
370
     9
100
AcDb2dPolyline
 66
     1
 10
0.0
 20
0.0
 30
0.0
  0
VERTEX
  5
B5
330
B4
100
AcDbEntity
  8
_U+30EC_U+30A4_U+30E4_U+30FC 1
 62
     7
420
 16777215
370
     9
100
AcDbVertex
100
AcDb2dVertex
 10
67.17125078631862
 20
-144.7212271860416
 30
0.0
  0
VERTEX
  5
B6
330
B4
100
AcDbEntity
  8
_U+30EC_U+30A4_U+30E4_U+30FC 1
 62
     7
420
 16777215
370
     9
100
AcDbVertex
100
AcDb2dVertex
 10
63.710994763486
 20
-144.7212271860416
 30
0.0
  0
SEQEND
  5
B7
330
B4
100
AcDbEntity
  8
_U+30EC_U+30A4_U+30E4_U+30FC 1
 62
     7
420
 16777215
370
     9
  0
POLYLINE
  5
B8
330
1F
100
AcDbEntity
  8
_U+30EC_U+30A4_U+30E4_U+30FC 1
 62
     7
420
 16777215
370
     9
100
AcDb2dPolyline
 66
     1
 10
0.0
 20
0.0
 30
0.0
  0
VERTEX
  5
B9
330
B8
100
AcDbEntity
  8
_U+30EC_U+30A4_U+30E4_U+30FC 1
 62
     7
420
 16777215
370
     9
100
AcDbVertex
100
AcDb2dVertex
 10
67.17125078631862
 20
-113.2213466383613
 30
0.0
  0
VERTEX
  5
BA
330
B8
100
AcDbEntity
  8
_U+30EC_U+30A4_U+30E4_U+30FC 1
 62
     7
420
 16777215
370
     9
100
AcDbVertex
100
AcDb2dVertex
 10
63.710994763486
 20
-113.2213466383613
 30
0.0
  0
SEQEND
  5
BB
330
B8
100
AcDbEntity
  8
_U+30EC_U+30A4_U+30E4_U+30FC 1
 62
     7
420
 16777215
370
     9
  0
INSERT
  5
BD
330
1F
100
AcDbEntity
  8
_U+30EC_U+30A4_U+30E4_U+30FC 1
100
AcDbBlockReference
  2
block 5
 10
0.0
 20
0.0
 30
0.0
  0
POLYLINE
  5
CE
330
1F
100
AcDbEntity
  8
_U+30EC_U+30A4_U+30E4_U+30FC 1
 62
     7
420
 16777215
370
     9
100
AcDb2dPolyline
 66
     1
 10
0.0
 20
0.0
 30
0.0
  0
VERTEX
  5
CF
330
CE
100
AcDbEntity
  8
_U+30EC_U+30A4_U+30E4_U+30FC 1
 62
     7
420
 16777215
370
     9
100
AcDbVertex
100
AcDb2dVertex
 10
68.7112333161555
 20
-148.7209863517085
 30
0.0
  0
VERTEX
  5
D0
330
CE
100
AcDbEntity
  8
_U+30EC_U+30A4_U+30E4_U+30FC 1
 62
     7
420
 16777215
370
     9
100
AcDbVertex
100
AcDb2dVertex
 10
100.2109349434061
 20
-148.7209863517085
 30
0.0
  0
SEQEND
  5
D1
330
CE
100
AcDbEntity
  8
_U+30EC_U+30A4_U+30E4_U+30FC 1
 62
     7
420
 16777215
370
     9
  0
POLYLINE
  5
D2
330
1F
100
AcDbEntity
  8
_U+30EC_U+30A4_U+30E4_U+30FC 1
 62
     7
420
 16777215
370
     9
100
AcDb2dPolyline
 66
     1
 10
0.0
 20
0.0
 30
0.0
  0
VERTEX
  5
D3
330
D2
100
AcDbEntity
  8
_U+30EC_U+30A4_U+30E4_U+30FC 1
 62
     7
420
 16777215
370
     9
100
AcDbVertex
100
AcDb2dVertex
 10
68.7112333161555
 20
-146.2611727412122
 30
0.0
  0
VERTEX
  5
D4
330
D2
100
AcDbEntity
  8
_U+30EC_U+30A4_U+30E4_U+30FC 1
 62
     7
420
 16777215
370
     9
100
AcDbVertex
100
AcDb2dVertex
 10
68.7112333161555
 20
-149.7211113514588
 30
0.0
  0
SEQEND
  5
D5
330
D2
100
AcDbEntity
  8
_U+30EC_U+30A4_U+30E4_U+30FC 1
 62
     7
420
 16777215
370
     9
  0
POLYLINE
  5
D6
330
1F
100
AcDbEntity
  8
_U+30EC_U+30A4_U+30E4_U+30FC 1
 62
     7
420
 16777215
370
     9
100
AcDb2dPolyline
 66
     1
 10
0.0
 20
0.0
 30
0.0
  0
VERTEX
  5
D7
330
D6
100
AcDbEntity
  8
_U+30EC_U+30A4_U+30E4_U+30FC 1
 62
     7
420
 16777215
370
     9
100
AcDbVertex
100
AcDb2dVertex
 10
100.2109349434061
 20
-146.2611727412122
 30
0.0
  0
VERTEX
  5
D8
330
D6
100
AcDbEntity
  8
_U+30EC_U+30A4_U+30E4_U+30FC 1
 62
     7
420
 16777215
370
     9
100
AcDbVertex
100
AcDb2dVertex
 10
100.2109349434061
 20
-149.7211113514588
 30
0.0
  0
SEQEND
  5
D9
330
D6
100
AcDbEntity
  8
_U+30EC_U+30A4_U+30E4_U+30FC 1
 62
     7
420
 16777215
370
     9
  0
INSERT
  5
DB
330
1F
100
AcDbEntity
  8
_U+30EC_U+30A4_U+30E4_U+30FC 1
100
AcDbBlockReference
  2
block 6
 10
0.0
 20
0.0
 30
0.0
  0
POLYLINE
  5
EC
330
1F
100
AcDbEntity
  8
_U+30EC_U+30A4_U+30E4_U+30FC 1
 62
     7
420
 16777215
370
     9
100
AcDb2dPolyline
 66
     1
 10
0.0
 20
0.0
 30
0.0
  0
VERTEX
  5
ED
330
EC
100
AcDbEntity
  8
_U+30EC_U+30A4_U+30E4_U+30FC 1
 62
     7
420
 16777215
370
     9
100
AcDbVertex
100
AcDb2dVertex
 10
106.7115003331184
 20
-143.7207846862917
 30
0.0
  0
VERTEX
  5
EE
330
EC
100
AcDbEntity
  8
_U+30EC_U+30A4_U+30E4_U+30FC 1
 62
     7
420
 16777215
370
     9
100
AcDbVertex
100
AcDb2dVertex
 10
106.7115003331184
 20
-122.2209546916669
 30
0.0
  0
SEQEND
  5
EF
330
EC
100
AcDbEntity
  8
_U+30EC_U+30A4_U+30E4_U+30FC 1
 62
     7
420
 16777215
370
     9
  0
POLYLINE
  5
F0
330
1F
100
AcDbEntity
  8
_U+30EC_U+30A4_U+30E4_U+30FC 1
 62
     7
420
 16777215
370
     9
100
AcDb2dPolyline
 66
     1
 10
0.0
 20
0.0
 30
0.0
  0
VERTEX
  5
F1
330
F0
100
AcDbEntity
  8
_U+30EC_U+30A4_U+30E4_U+30FC 1
 62
     7
420
 16777215
370
     9
100
AcDbVertex
100
AcDb2dVertex
 10
102.7513582119278
 20
-143.7204319085146
 30
0.0
  0
VERTEX
  5
F2
330
F0
100
AcDbEntity
  8
_U+30EC_U+30A4_U+30E4_U+30FC 1
 62
     7
420
 16777215
370
     9
100
AcDbVertex
100
AcDb2dVertex
 10
107.7112372520574
 20
-143.7204319085146
 30
0.0
  0
SEQEND
  5
F3
330
F0
100
AcDbEntity
  8
_U+30EC_U+30A4_U+30E4_U+30FC 1
 62
     7
420
 16777215
370
     9
  0
POLYLINE
  5
F4
330
1F
100
AcDbEntity
  8
_U+30EC_U+30A4_U+30E4_U+30FC 1
 62
     7
420
 16777215
370
     9
100
AcDb2dPolyline
 66
     1
 10
0.0
 20
0.0
 30
0.0
  0
VERTEX
  5
F5
330
F4
100
AcDbEntity
  8
_U+30EC_U+30A4_U+30E4_U+30FC 1
 62
     7
420
 16777215
370
     9
100
AcDbVertex
100
AcDb2dVertex
 10
105.2514589814782
 20
-122.2209546916669
 30
0.0
  0
VERTEX
  5
F6
330
F4
100
AcDbEntity
  8
_U+30EC_U+30A4_U+30E4_U+30FC 1
 62
     7
420
 16777215
370
     9
100
AcDbVertex
100
AcDb2dVertex
 10
107.7112372520574
 20
-122.2209546916669
 30
0.0
  0
SEQEND
  5
F7
330
F4
100
AcDbEntity
  8
_U+30EC_U+30A4_U+30E4_U+30FC 1
 62
     7
420
 16777215
370
     9
  0
INSERT
  5
F9
330
1F
100
AcDbEntity
  8
_U+30EC_U+30A4_U+30E4_U+30FC 1
100
AcDbBlockReference
  2
block 7
 10
0.0
 20
0.0
 30
0.0
  0
POLYLINE
  5
10A
330
1F
100
AcDbEntity
  8
_U+30EC_U+30A4_U+30E4_U+30FC 1
  6
AI-Linetype-1
 62
   154
420
    23468
370
    25
100
AcDb2dPolyline
 66
     1
 10
0.0
 20
0.0
 30
0.0
  0
VERTEX
  5
10B
330
10A
100
AcDbEntity
  8
_U+30EC_U+30A4_U+30E4_U+30FC 1
  6
AI-Linetype-1
 62
   154
420
    23468
370
    25
100
AcDbVertex
100
AcDb2dVertex
 10
69.39801934062014
 20
-112.5002688607638
 30
0.0
  0
VERTEX
  5
10C
330
10A
100
AcDbEntity
  8
_U+30EC_U+30A4_U+30E4_U+30FC 1
  6
AI-Linetype-1
 62
   154
420
    23468
370
    25
100
AcDbVertex
100
AcDb2dVertex
 10
67.81051938112064
 20
-112.5002688607638
 30
0.0
  0
VERTEX
  5
10D
330
10A
100
AcDbEntity
  8
_U+30EC_U+30A4_U+30E4_U+30FC 1
  6
AI-Linetype-1
 62
   154
420
    23468
370
    25
100
AcDbVertex
100
AcDb2dVertex
 10
67.81051938112064
 20
-145.5294410747289
 30
0.0
  0
VERTEX
  5
10E
330
10A
100
AcDbEntity
  8
_U+30EC_U+30A4_U+30E4_U+30FC 1
  6
AI-Linetype-1
 62
   154
420
    23468
370
    25
100
AcDbVertex
100
AcDb2dVertex
 10
101.9527777522896
 20
-145.5294410747289
 30
0.0
  0
VERTEX
  5
10F
330
10A
100
AcDbEntity
  8
_U+30EC_U+30A4_U+30E4_U+30FC 1
  6
AI-Linetype-1
 62
   154
420
    23468
370
    25
100
AcDbVertex
100
AcDb2dVertex
 10
101.9527777522896
 20
-143.7118241307389
 30
0.0
  0
SEQEND
  5
111
330
10A
100
AcDbEntity
  8
_U+30EC_U+30A4_U+30E4_U+30FC 1
  6
AI-Linetype-1
 62
   154
420
    23468
370
    25
  0
POLYLINE
  5
112
330
1F
100
AcDbEntity
  8
_U+30EC_U+30A4_U+30E4_U+30FC 1
 62
   179
420
  2234388
370
     9
100
AcDb2dPolyline
 66
     1
 10
0.0
 20
0.0
 30
0.0
  0
VERTEX
  5
113
330
112
100
AcDbEntity
  8
_U+30EC_U+30A4_U+30E4_U+30FC 1
 62
   179
420
  2234388
370
     9
100
AcDbVertex
100
AcDb2dVertex
 10
102.0616423961906
 20
-145.6672360746946
 30
0.0
  0
VERTEX
  5
114
330
112
100
AcDbEntity
  8
_U+30EC_U+30A4_U+30E4_U+30FC 1
 62
   179
420
  2234388
370
     9
100
AcDbVertex
100
AcDb2dVertex
 10
104.5607201102116
 20
-148.4736185739928
 30
0.0
  0
VERTEX
  5
115
330
112
100
AcDbEntity
  8
_U+30EC_U+30A4_U+30E4_U+30FC 1
 62
   179
420
  2234388
370
     9
100
AcDbVertex
100
AcDb2dVertex
 10
120.9207891372759
 20
-148.4736185739928
 30
0.0
  0
SEQEND
  5
116
330
112
100
AcDbEntity
  8
_U+30EC_U+30A4_U+30E4_U+30FC 1
 62
   179
420
  2234388
370
     9
  0
INSERT
  5
118
330
1F
100
AcDbEntity
  8
_U+30EC_U+30A4_U+30E4_U+30FC 1
100
AcDbBlockReference
  2
block 8
 10
0.0
 20
0.0
 30
0.0
  0
ENDSEC
  0
SECTION
  2
OBJECTS
  0
DICTIONARY
  5
C
330
0
100
AcDbDictionary
281
     1
  3
ACAD_GROUP
350
D
  3
ACAD_LAYOUT
350
1A
  3
ACAD_MATERIAL
350
3B
  3
ACAD_MLEADERSTYLE
350
156
  3
ACAD_MLINESTYLE
350
17
  3
ACAD_PLOTSETTINGS
350
19
  3
ACAD_PLOTSTYLENAME
350
E
  3
ACAD_TABLESTYLE
350
155
  3
ACAD_VISUALSTYLE
350
2A
  0
SUN
  5
3F
330
29
100
AcDbSun
 90
        1
290
     0
 63
     7
421
 16777215
 40
1.0
291
     1
 91
  2455826
 92
 54000000
292
     0
 70
     2
 71
   256
280
     1
  0
DICTIONARY
  5
D
102
{ACAD_REACTORS
330
C
102
}
330
C
100
AcDbDictionary
281
     1
  0
DICTIONARY
  5
1A
102
{ACAD_REACTORS
330
C
102
}
330
C
100
AcDbDictionary
281
     1
  3
Layout1
350
1E
  3
Layout2
350
26
  3
Model
350
22
  0
DICTIONARY
  5
3B
102
{ACAD_REACTORS
330
C
102
}
330
C
100
AcDbDictionary
281
     1
  3
ByBlock
350
3D
  3
ByLayer
350
3C
  3
Global
350
3E
  0
DICTIONARY
  5
156
102
{ACAD_REACTORS
330
C
102
}
330
C
100
AcDbDictionary
281
     1
  0
DICTIONARY
  5
17
102
{ACAD_REACTORS
330
C
102
}
330
C
100
AcDbDictionary
281
     1
  3
Standard
350
18
  0
DICTIONARY
  5
19
102
{ACAD_REACTORS
330
C
102
}
330
C
100
AcDbDictionary
281
     1
  0
ACDBDICTIONARYWDFLT
  5
E
102
{ACAD_REACTORS
330
C
102
}
330
C
100
AcDbDictionary
281
     1
  3
Normal
350
F
100
AcDbDictionaryWithDefault
340
F
  0
DICTIONARY
  5
155
102
{ACAD_REACTORS
330
C
102
}
330
C
100
AcDbDictionary
281
     1
  0
DICTIONARY
  5
2A
102
{ACAD_REACTORS
330
C
102
}
330
C
100
AcDbDictionary
281
     1
  3
2dWireframe
350
2F
  3
3D Hidden
350
31
  3
3dWireframe
350
30
  3
Basic
350
32
  3
Brighten
350
36
  3
ColorChange
350
3A
  3
Conceptual
350
34
  3
Dim
350
35
  3
Facepattern
350
39
  3
Flat
350
2B
  3
FlatWithEdges
350
2C
  3
Gouraud
350
2D
  3
GouraudWithEdges
350
2E
  3
Linepattern
350
38
  3
Realistic
350
33
  3
Thicken
350
37
  0
LAYOUT
  5
1E
102
{ACAD_REACTORS
330
1A
102
}
330
1A
100
AcDbPlotSettings
  1

  2
none_device
  4

  6

 40
0.0
 41
0.0
 42
0.0
 43
0.0
 44
0.0
 45
0.0
 46
0.0
 47
0.0
 48
0.0
 49
0.0
140
0.0
141
0.0
142
1.0
143
1.0
 70
   688
 72
     0
 73
     0
 74
     5
  7

 75
    16
 76
     0
 77
     2
 78
   300
147
1.0
148
0.0
149
0.0
100
AcDbLayout
  1
Layout1
 70
     1
 71
     1
 10
0.0
 20
0.0
 11
12.0
 21
9.0
 12
0.0
 22
0.0
 32
0.0
 14
1.000000000000000E+20
 24
1.000000000000000E+20
 34
1.000000000000000E+20
 15
-1.000000000000000E+20
 25
-1.000000000000000E+20
 35
-1.000000000000000E+20
146
0.0
 13
0.0
 23
0.0
 33
0.0
 16
1.0
 26
0.0
 36
0.0
 17
0.0
 27
1.0
 37
0.0
 76
     0
330
1B
  0
LAYOUT
  5
26
102
{ACAD_REACTORS
330
1A
102
}
330
1A
100
AcDbPlotSettings
  1

  2
none_device
  4

  6

 40
0.0
 41
0.0
 42
0.0
 43
0.0
 44
0.0
 45
0.0
 46
0.0
 47
0.0
 48
0.0
 49
0.0
140
0.0
141
0.0
142
1.0
143
1.0
 70
   688
 72
     0
 73
     0
 74
     5
  7

 75
    16
 76
     0
 77
     2
 78
   300
147
1.0
148
0.0
149
0.0
100
AcDbLayout
  1
Layout2
 70
     1
 71
     2
 10
0.0
 20
0.0
 11
0.0
 21
0.0
 12
0.0
 22
0.0
 32
0.0
 14
0.0
 24
0.0
 34
0.0
 15
0.0
 25
0.0
 35
0.0
146
0.0
 13
0.0
 23
0.0
 33
0.0
 16
1.0
 26
0.0
 36
0.0
 17
0.0
 27
1.0
 37
0.0
 76
     0
330
23
  0
LAYOUT
  5
22
102
{ACAD_REACTORS
330
1A
102
}
330
1A
100
AcDbPlotSettings
  1

  2
none_device
  4

  6

 40
0.0
 41
0.0
 42
0.0
 43
0.0
 44
0.0
 45
0.0
 46
0.0
 47
0.0
 48
0.0
 49
0.0
140
0.0
141
0.0
142
1.0
143
1.0
 70
  1712
 72
     0
 73
     0
 74
     0
  7

 75
     0
 76
     0
 77
     2
 78
   300
147
1.0
148
0.0
149
0.0
100
AcDbLayout
  1
Model
 70
     1
 71
     0
 10
0.0
 20
0.0
 11
12.0
 21
9.0
 12
0.0
 22
0.0
 32
0.0
 14
1.000000000000000E+20
 24
1.000000000000000E+20
 34
1.000000000000000E+20
 15
-1.000000000000000E+20
 25
-1.000000000000000E+20
 35
-1.000000000000000E+20
146
0.0
 13
0.0
 23
0.0
 33
0.0
 16
1.0
 26
0.0
 36
0.0
 17
0.0
 27
1.0
 37
0.0
 76
     0
330
1F
331
29
  0
MATERIAL
  5
3D
102
{ACAD_REACTORS
330
3B
102
}
330
3B
100
AcDbMaterial
  1
ByBlock
 72
     1
 94
      127
  0
MATERIAL
  5
3C
102
{ACAD_REACTORS
330
3B
102
}
330
3B
100
AcDbMaterial
  1
ByLayer
 72
     1
 94
      127
  0
MATERIAL
  5
3E
102
{ACAD_REACTORS
330
3B
102
}
330
3B
100
AcDbMaterial
  1
Global
 72
     1
 94
      127
  0
MLINESTYLE
  5
18
102
{ACAD_REACTORS
330
17
102
}
330
17
100
AcDbMlineStyle
  2
Standard
 70
     0
  3

 62
   256
 51
90.0
 52
90.0
 71
     2
 49
0.5
 62
   256
  6
BYLAYER
 49
-0.5
 62
   256
  6
BYLAYER
  0
ACDBPLACEHOLDER
  5
F
102
{ACAD_REACTORS
330
E
102
}
330
E
  0
VISUALSTYLE
  5
2F
102
{ACAD_REACTORS
330
2A
102
}
330
2A
100
AcDbVisualStyle
  2
2dWireframe
 70
     4
177
     2
291
     0
 71
     0
176
     1
 72
     2
176
     1
 73
     0
176
     1
 90
        0
176
     1
 40
-0.6
176
     1
 41
-30.0
176
     1
 62
     5
 63
     7
421
 16777215
176
     1
 74
     1
176
     1
 91
        4
176
     1
 64
     7
176
     1
 65
   257
176
     1
 75
     1
176
     1
175
     1
176
     1
 42
1.0
176
     1
 92
        0
176
     1
 66
   257
176
     1
 43
1.0
176
     1
 76
     1
176
     1
 77
     6
176
     1
 78
     2
176
     1
 67
     7
176
     1
 79
     5
176
     1
170
     0
176
     1
171
     0
176
     1
290
     0
176
     1
 93
        1
176
     1
 44
0.0
176
     1
173
     0
176
     1
  0
VISUALSTYLE
  5
31
102
{ACAD_REACTORS
330
2A
102
}
330
2A
100
AcDbVisualStyle
  2
3D Hidden
 70
     6
177
     2
291
     0
 71
     1
176
     1
 72
     2
176
     1
 73
     2
176
     1
 90
        0
176
     1
 40
-0.6
176
     1
 41
-30.0
176
     1
 62
     5
 63
     7
421
 16777215
176
     1
 74
     2
176
     1
 91
        2
176
     1
 64
     7
176
     1
 65
   257
176
     1
 75
     2
176
     1
175
     1
176
     1
 42
40.0
176
     1
 92
        0
176
     1
 66
   257
176
     1
 43
1.0
176
     1
 76
     1
176
     1
 77
     6
176
     1
 78
     2
176
     1
 67
     7
176
     1
 79
     3
176
     1
170
     0
176
     1
171
     0
176
     1
290
     0
176
     1
 93
        1
176
     1
 44
0.0
176
     1
173
     0
176
     1
  0
VISUALSTYLE
  5
30
102
{ACAD_REACTORS
330
2A
102
}
330
2A
100
AcDbVisualStyle
  2
3dWireframe
 70
     5
177
     2
291
     0
 71
     0
176
     1
 72
     2
176
     1
 73
     0
176
     1
 90
        0
176
     1
 40
-0.6
176
     1
 41
-30.0
176
     1
 62
     5
 63
     7
421
 16777215
176
     1
 74
     1
176
     1
 91
        4
176
     1
 64
     7
176
     1
 65
   257
176
     1
 75
     1
176
     1
175
     1
176
     1
 42
1.0
176
     1
 92
        0
176
     1
 66
   257
176
     1
 43
1.0
176
     1
 76
     1
176
     1
 77
     6
176
     1
 78
     2
176
     1
 67
     7
176
     1
 79
     5
176
     1
170
     0
176
     1
171
     0
176
     1
290
     0
176
     1
 93
        1
176
     1
 44
0.0
176
     1
173
     0
176
     1
  0
VISUALSTYLE
  5
32
102
{ACAD_REACTORS
330
2A
102
}
330
2A
100
AcDbVisualStyle
  2
Basic
 70
     7
177
     2
291
     1
 71
     1
176
     1
 72
     0
176
     1
 73
     1
176
     1
 90
        0
176
     1
 40
-0.6
176
     1
 41
-30.0
176
     1
 62
     5
 63
     7
421
 16777215
176
     1
 74
     0
176
     1
 91
        4
176
     1
 64
     7
176
     1
 65
   257
176
     1
 75
     1
176
     1
175
     1
176
     1
 42
1.0
176
     1
 92
        8
176
     1
 66
     7
176
     1
 43
1.0
176
     1
 76
     1
176
     1
 77
     6
176
     1
 78
     2
176
     1
 67
     7
176
     1
 79
     5
176
     1
170
     0
176
     1
171
     0
176
     1
290
     0
176
     1
 93
        1
176
     1
 44
0.0
176
     1
173
     0
176
     1
  0
VISUALSTYLE
  5
36
102
{ACAD_REACTORS
330
2A
102
}
330
2A
100
AcDbVisualStyle
  2
Brighten
 70
    12
177
     2
291
     1
 71
     2
176
     1
 72
     2
176
     1
 73
     0
176
     1
 90
        0
176
     1
 40
-0.6
176
     1
 41
-30.0
176
     1
 62
     5
 63
     7
421
 16777215
176
     1
 74
     1
176
     1
 91
        4
176
     1
 64
     7
176
     1
 65
   257
176
     1
 75
     1
176
     1
175
     1
176
     1
 42
1.0
176
     1
 92
        8
176
     1
 66
     7
176
     1
 43
1.0
176
     1
 76
     1
176
     1
 77
     6
176
     1
 78
     2
176
     1
 67
     7
176
     1
 79
     5
176
     1
170
     0
176
     1
171
     0
176
     1
290
     0
176
     1
 93
        1
176
     1
 44
50.0
176
     1
173
     0
176
     1
  0
VISUALSTYLE
  5
3A
102
{ACAD_REACTORS
330
2A
102
}
330
2A
100
AcDbVisualStyle
  2
ColorChange
 70
    16
177
     2
291
     1
 71
     2
176
     1
 72
     2
176
     1
 73
     3
176
     1
 90
        0
176
     1
 40
-0.6
176
     1
 41
-30.0
176
     1
 62
     5
 63
     8
421
  8421504
176
     1
 74
     1
176
     1
 91
        4
176
     1
 64
     7
176
     1
 65
   257
176
     1
 75
     1
176
     1
175
     1
176
     1
 42
1.0
176
     1
 92
        8
176
     1
 66
     8
424
  8421504
176
     1
 43
1.0
176
     1
 76
     1
176
     1
 77
     6
176
     1
 78
     2
176
     1
 67
     7
176
     1
 79
     5
176
     1
170
     0
176
     1
171
     0
176
     1
290
     0
176
     1
 93
        1
176
     1
 44
0.0
176
     1
173
     0
176
     1
  0
VISUALSTYLE
  5
34
102
{ACAD_REACTORS
330
2A
102
}
330
2A
100
AcDbVisualStyle
  2
Conceptual
 70
     9
177
     2
291
     0
 71
     3
176
     1
 72
     2
176
     1
 73
     0
176
     1
 90
        0
176
     1
 40
-0.6
176
     1
 41
-30.0
176
     1
 62
     5
 63
     7
421
 16777215
176
     1
 74
     2
176
     1
 91
        2
176
     1
 64
     7
176
     1
 65
   257
176
     1
 75
     1
176
     1
175
     1
176
     1
 42
40.0
176
     1
 92
        8
176
     1
 66
     7
176
     1
 43
1.0
176
     1
 76
     1
176
     1
 77
     6
176
     1
 78
     2
176
     1
 67
     7
176
     1
 79
     3
176
     1
170
     0
176
     1
171
     0
176
     1
290
     0
176
     1
 93
        1
176
     1
 44
0.0
176
     1
173
     0
176
     1
  0
VISUALSTYLE
  5
35
102
{ACAD_REACTORS
330
2A
102
}
330
2A
100
AcDbVisualStyle
  2
Dim
 70
    11
177
     2
291
     1
 71
     2
176
     1
 72
     2
176
     1
 73
     0
176
     1
 90
        0
176
     1
 40
-0.6
176
     1
 41
-30.0
176
     1
 62
     5
 63
     7
421
 16777215
176
     1
 74
     1
176
     1
 91
        4
176
     1
 64
     7
176
     1
 65
   257
176
     1
 75
     1
176
     1
175
     1
176
     1
 42
1.0
176
     1
 92
        8
176
     1
 66
     7
176
     1
 43
1.0
176
     1
 76
     1
176
     1
 77
     6
176
     1
 78
     2
176
     1
 67
     7
176
     1
 79
     5
176
     1
170
     0
176
     1
171
     0
176
     1
290
     0
176
     1
 93
        1
176
     1
 44
-50.0
176
     1
173
     0
176
     1
  0
VISUALSTYLE
  5
39
102
{ACAD_REACTORS
330
2A
102
}
330
2A
100
AcDbVisualStyle
  2
Facepattern
 70
    15
177
     2
291
     1
 71
     2
176
     1
 72
     2
176
     1
 73
     0
176
     1
 90
        0
176
     1
 40
-0.6
176
     1
 41
-30.0
176
     1
 62
     5
 63
     7
421
 16777215
176
     1
 74
     1
176
     1
 91
        4
176
     1
 64
     7
176
     1
 65
   257
176
     1
 75
     1
176
     1
175
     1
176
     1
 42
1.0
176
     1
 92
        8
176
     1
 66
     7
176
     1
 43
1.0
176
     1
 76
     1
176
     1
 77
     6
176
     1
 78
     2
176
     1
 67
     7
176
     1
 79
     5
176
     1
170
     0
176
     1
171
     0
176
     1
290
     0
176
     1
 93
        1
176
     1
 44
0.0
176
     1
173
     0
176
     1
  0
VISUALSTYLE
  5
2B
102
{ACAD_REACTORS
330
2A
102
}
330
2A
100
AcDbVisualStyle
  2
Flat
 70
     0
177
     2
291
     1
 71
     2
176
     1
 72
     1
176
     1
 73
     1
176
     1
 90
        2
176
     1
 40
-0.6
176
     1
 41
30.0
176
     1
 62
     5
 63
     7
421
 16777215
176
     1
 74
     0
176
     1
 91
        4
176
     1
 64
     7
176
     1
 65
   257
176
     1
 75
     1
176
     1
175
     1
176
     1
 42
1.0
176
     1
 92
        8
176
     1
 66
     7
176
     1
 43
1.0
176
     1
 76
     1
176
     1
 77
     6
176
     1
 78
     2
176
     1
 67
     7
176
     1
 79
     5
176
     1
170
     0
176
     1
171
     0
176
     1
290
     0
176
     1
 93
       13
176
     1
 44
0.0
176
     1
173
     0
176
     1
  0
VISUALSTYLE
  5
2C
102
{ACAD_REACTORS
330
2A
102
}
330
2A
100
AcDbVisualStyle
  2
FlatWithEdges
 70
     1
177
     2
291
     1
 71
     2
176
     1
 72
     1
176
     1
 73
     1
176
     1
 90
        2
176
     1
 40
-0.6
176
     1
 41
30.0
176
     1
 62
     5
 63
     7
421
 16777215
176
     1
 74
     1
176
     1
 91
        4
176
     1
 64
     7
176
     1
 65
   257
176
     1
 75
     1
176
     1
175
     1
176
     1
 42
1.0
176
     1
 92
        0
176
     1
 66
   257
176
     1
 43
1.0
176
     1
 76
     1
176
     1
 77
     6
176
     1
 78
     2
176
     1
 67
     7
176
     1
 79
     5
176
     1
170
     0
176
     1
171
     0
176
     1
290
     0
176
     1
 93
       13
176
     1
 44
0.0
176
     1
173
     0
176
     1
  0
VISUALSTYLE
  5
2D
102
{ACAD_REACTORS
330
2A
102
}
330
2A
100
AcDbVisualStyle
  2
Gouraud
 70
     2
177
     2
291
     1
 71
     2
176
     1
 72
     2
176
     1
 73
     1
176
     1
 90
        2
176
     1
 40
-0.6
176
     1
 41
30.0
176
     1
 62
     5
 63
     7
421
 16777215
176
     1
 74
     0
176
     1
 91
        4
176
     1
 64
     7
176
     1
 65
   257
176
     1
 75
     1
176
     1
175
     1
176
     1
 42
1.0
176
     1
 92
        0
176
     1
 66
     7
176
     1
 43
1.0
176
     1
 76
     1
176
     1
 77
     6
176
     1
 78
     2
176
     1
 67
     7
176
     1
 79
     5
176
     1
170
     0
176
     1
171
     0
176
     1
290
     0
176
     1
 93
       13
176
     1
 44
0.0
176
     1
173
     0
176
     1
  0
VISUALSTYLE
  5
2E
102
{ACAD_REACTORS
330
2A
102
}
330
2A
100
AcDbVisualStyle
  2
GouraudWithEdges
 70
     3
177
     2
291
     1
 71
     2
176
     1
 72
     2
176
     1
 73
     1
176
     1
 90
        2
176
     1
 40
-0.6
176
     1
 41
30.0
176
     1
 62
     5
 63
     7
421
 16777215
176
     1
 74
     1
176
     1
 91
        4
176
     1
 64
     7
176
     1
 65
   257
176
     1
 75
     1
176
     1
175
     1
176
     1
 42
1.0
176
     1
 92
        0
176
     1
 66
   257
176
     1
 43
1.0
176
     1
 76
     1
176
     1
 77
     6
176
     1
 78
     2
176
     1
 67
     7
176
     1
 79
     5
176
     1
170
     0
176
     1
171
     0
176
     1
290
     0
176
     1
 93
       13
176
     1
 44
0.0
176
     1
173
     0
176
     1
  0
VISUALSTYLE
  5
38
102
{ACAD_REACTORS
330
2A
102
}
330
2A
100
AcDbVisualStyle
  2
Linepattern
 70
    14
177
     2
291
     1
 71
     2
176
     1
 72
     2
176
     1
 73
     0
176
     1
 90
        0
176
     1
 40
-0.6
176
     1
 41
-30.0
176
     1
 62
     5
 63
     7
421
 16777215
176
     1
 74
     1
176
     1
 91
        4
176
     1
 64
     7
176
     1
 65
   257
176
     1
 75
     7
176
     1
175
     7
176
     1
 42
1.0
176
     1
 92
        8
176
     1
 66
     7
176
     1
 43
1.0
176
     1
 76
     1
176
     1
 77
     6
176
     1
 78
     2
176
     1
 67
     7
176
     1
 79
     5
176
     1
170
     0
176
     1
171
     0
176
     1
290
     0
176
     1
 93
        1
176
     1
 44
0.0
176
     1
173
     0
176
     1
  0
VISUALSTYLE
  5
33
102
{ACAD_REACTORS
330
2A
102
}
330
2A
100
AcDbVisualStyle
  2
Realistic
 70
     8
177
     2
291
     0
 71
     2
176
     1
 72
     2
176
     1
 73
     0
176
     1
 90
        0
176
     1
 40
-0.6
176
     1
 41
-30.0
176
     1
 62
     5
 63
     7
421
 16777215
176
     1
 74
     1
176
     1
 91
        0
176
     1
 64
     7
176
     1
 65
   257
176
     1
 75
     1
176
     1
175
     1
176
     1
 42
1.0
176
     1
 92
        8
176
     1
 66
     8
424
  7895160
176
     1
 43
1.0
176
     1
 76
     1
176
     1
 77
     6
176
     1
 78
     2
176
     1
 67
     7
176
     1
 79
     5
176
     1
170
     0
176
     1
171
     0
176
     1
290
     0
176
     1
 93
       13
176
     1
 44
0.0
176
     1
173
     0
176
     1
  0
VISUALSTYLE
  5
37
102
{ACAD_REACTORS
330
2A
102
}
330
2A
100
AcDbVisualStyle
  2
Thicken
 70
    13
177
     2
291
     1
 71
     2
176
     1
 72
     2
176
     1
 73
     0
176
     1
 90
        0
176
     1
 40
-0.6
176
     1
 41
-30.0
176
     1
 62
     5
 63
     7
421
 16777215
176
     1
 74
     1
176
     1
 91
        4
176
     1
 64
     7
176
     1
 65
   257
176
     1
 75
     1
176
     1
175
     1
176
     1
 42
1.0
176
     1
 92
       12
176
     1
 66
     7
176
     1
 43
1.0
176
     1
 76
     1
176
     1
 77
     6
176
     1
 78
     2
176
     1
 67
     7
176
     1
 79
     5
176
     1
170
     0
176
     1
171
     0
176
     1
290
     0
176
     1
 93
        1
176
     1
 44
0.0
176
     1
173
     0
176
     1
  0
ENDSEC
  0
EOF
