  0
SECTION
  2
HEADER
  9
$ACADVER
  1
AC1024
  9
$ACADMAINTVER
 70
     6
  9
$DWGCODEPAGE
  3
UNDEFINED
  9
$INSBASE
 10
0.0
 20
0.0
 30
0.0
  9
$EXTMIN
 10
1.000000000000000E+20
 20
1.000000000000000E+20
 30
1.000000000000000E+20
  9
$EXTMAX
 10
-1.000000000000000E+20
 20
-1.000000000000000E+20
 30
-1.000000000000000E+20
  9
$LIMMIN
 10
0.0
 20
0.0
  9
$LIMMAX
 10
12.0
 20
9.0
  9
$ORTHOMODE
 70
     0
  9
$REGENMODE
 70
     1
  9
$FILLMODE
 70
     1
  9
$QTEXTMODE
 70
     0
  9
$MIRRTEXT
 70
     1
  9
$LTSCALE
 40
1.0
  9
$ATTMODE
 70
     1
  9
$TEXTSIZE
 40
0.2
  9
$TRACEWID
 40
0.05
  9
$TEXTSTYLE
  7
Standard
  9
$CLAYER
  8
0
  9
$CELTYPE
  6
ByLayer
  9
$CECOLOR
 62
   256
  9
$CELTSCALE
 40
1.0
  9
$DISPSILH
 70
     0
  9
$DIMSCALE
 40
1.0
  9
$DIMASZ
 40
0.18
  9
$DIMEXO
 40
0.0625
  9
$DIMDLI
 40
0.38
  9
$DIMRND
 40
0.0
  9
$DIMDLE
 40
0.0
  9
$DIMEXE
 40
0.18
  9
$DIMTP
 40
0.0
  9
$DIMTM
 40
0.0
  9
$DIMTXT
 40
0.18
  9
$DIMCEN
 40
0.09
  9
$DIMTSZ
 40
0.0
  9
$DIMTOL
 70
     0
  9
$DIMLIM
 70
     0
  9
$DIMTIH
 70
     1
  9
$DIMTOH
 70
     1
  9
$DIMSE1
 70
     0
  9
$DIMSE2
 70
     0
  9
$DIMTAD
 70
     0
  9
$DIMZIN
 70
     0
  9
$DIMBLK
  1

  9
$DIMASO
 70
     1
  9
$DIMSHO
 70
     1
  9
$DIMPOST
  1

  9
$DIMAPOST
  1

  9
$DIMALT
 70
     0
  9
$DIMALTD
 70
     2
  9
$DIMALTF
 40
25.4
  9
$DIMLFAC
 40
1.0
  9
$DIMTOFL
 70
     0
  9
$DIMTVP
 40
0.0
  9
$DIMTIX
 70
     0
  9
$DIMSOXD
 70
     0
  9
$DIMSAH
 70
     0
  9
$DIMBLK1
  1

  9
$DIMBLK2
  1

  9
$DIMSTYLE
  2
Standard
  9
$DIMCLRD
 70
     0
  9
$DIMCLRE
 70
     0
  9
$DIMCLRT
 70
     0
  9
$DIMTFAC
 40
1.0
  9
$DIMGAP
 40
0.09
  9
$DIMJUST
 70
     0
  9
$DIMSD1
 70
     0
  9
$DIMSD2
 70
     0
  9
$DIMTOLJ
 70
     1
  9
$DIMTZIN
 70
     0
  9
$DIMALTZ
 70
     0
  9
$DIMALTTZ
 70
     0
  9
$DIMUPT
 70
     0
  9
$DIMDEC
 70
     4
  9
$DIMTDEC
 70
     4
  9
$DIMALTU
 70
     2
  9
$DIMALTTD
 70
     2
  9
$DIMTXSTY
  7
Standard
  9
$DIMAUNIT
 70
     0
  9
$DIMADEC
 70
     0
  9
$DIMALTRND
 40
0.0
  9
$DIMAZIN
 70
     0
  9
$DIMDSEP
 70
    46
  9
$DIMATFIT
 70
     3
  9
$DIMFRAC
 70
     0
  9
$DIMLDRBLK
  1

  9
$DIMLUNIT
 70
     2
  9
$DIMLWD
 70
    -2
  9
$DIMLWE
 70
    -2
  9
$DIMTMOVE
 70
     0
  9
$DIMFXL
 40
1.0
  9
$DIMFXLON
 70
     0
  9
$DIMJOGANG
 40
0.7853981633974483
  9
$DIMTFILL
 70
     0
  9
$DIMTFILLCLR
 70
     0
  9
$DIMARCSYM
 70
     0
  9
$DIMLTYPE
  6

  9
$DIMLTEX1
  6

  9
$DIMLTEX2
  6

  9
$DIMTXTDIRECTION
 70
     0
  9
$LUNITS
 70
     2
  9
$LUPREC
 70
     4
  9
$SKETCHINC
 40
0.1
  9
$FILLETRAD
 40
0.5
  9
$AUNITS
 70
     0
  9
$AUPREC
 70
     0
  9
$MENU
  1
.
  9
$ELEVATION
 40
0.0
  9
$PELEVATION
 40
0.0
  9
$THICKNESS
 40
0.0
  9
$LIMCHECK
 70
     0
  9
$CHAMFERA
 40
0.5
  9
$CHAMFERB
 40
0.5
  9
$CHAMFERC
 40
1.0
  9
$CHAMFERD
 40
0.0
  9
$SKPOLY
 70
     0
  9
$TDCREATE
 40
2457917.599814815
  9
$TDUCREATE
 40
2457917.224814815
  9
$TDUPDATE
 40
2457917.599814815
  9
$TDUUPDATE
 40
2457917.224814815
  9
$TDINDWG
 40
0.0000000116
  9
$TDUSRTIMER
 40
0.0000000116
  9
$USRTIMER
 70
     1
  9
$ANGBASE
 50
0.0
  9
$ANGDIR
 70
     0
  9
$PDMODE
 70
     0
  9
$PDSIZE
 40
0.0
  9
$PLINEWID
 40
0.0
  9
$SPLFRAME
 70
     0
  9
$SPLINETYPE
 70
     6
  9
$SPLINESEGS
 70
     8
  9
$HANDSEED
  5
137
  9
$SURFTAB1
 70
     6
  9
$SURFTAB2
 70
     6
  9
$SURFTYPE
 70
     6
  9
$SURFU
 70
     6
  9
$SURFV
 70
     6
  9
$UCSBASE
  2

  9
$UCSNAME
  2

  9
$UCSORG
 10
0.0
 20
0.0
 30
0.0
  9
$UCSXDIR
 10
1.0
 20
0.0
 30
0.0
  9
$UCSYDIR
 10
0.0
 20
1.0
 30
0.0
  9
$UCSORTHOREF
  2

  9
$UCSORTHOVIEW
 70
     0
  9
$UCSORGTOP
 10
0.0
 20
0.0
 30
0.0
  9
$UCSORGBOTTOM
 10
0.0
 20
0.0
 30
0.0
  9
$UCSORGLEFT
 10
0.0
 20
0.0
 30
0.0
  9
$UCSORGRIGHT
 10
0.0
 20
0.0
 30
0.0
  9
$UCSORGFRONT
 10
0.0
 20
0.0
 30
0.0
  9
$UCSORGBACK
 10
0.0
 20
0.0
 30
0.0
  9
$PUCSBASE
  2

  9
$PUCSNAME
  2

  9
$PUCSORG
 10
0.0
 20
0.0
 30
0.0
  9
$PUCSXDIR
 10
1.0
 20
0.0
 30
0.0
  9
$PUCSYDIR
 10
0.0
 20
1.0
 30
0.0
  9
$PUCSORTHOREF
  2

  9
$PUCSORTHOVIEW
 70
     0
  9
$PUCSORGTOP
 10
0.0
 20
0.0
 30
0.0
  9
$PUCSORGBOTTOM
 10
0.0
 20
0.0
 30
0.0
  9
$PUCSORGLEFT
 10
0.0
 20
0.0
 30
0.0
  9
$PUCSORGRIGHT
 10
0.0
 20
0.0
 30
0.0
  9
$PUCSORGFRONT
 10
0.0
 20
0.0
 30
0.0
  9
$PUCSORGBACK
 10
0.0
 20
0.0
 30
0.0
  9
$USERI1
 70
     0
  9
$USERI2
 70
     0
  9
$USERI3
 70
     0
  9
$USERI4
 70
     0
  9
$USERI5
 70
     0
  9
$USERR1
 40
0.0
  9
$USERR2
 40
0.0
  9
$USERR3
 40
0.0
  9
$USERR4
 40
0.0
  9
$USERR5
 40
0.0
  9
$WORLDVIEW
 70
     1
  9
$SHADEDGE
 70
     3
  9
$SHADEDIF
 70
    70
  9
$TILEMODE
 70
     1
  9
$MAXACTVP
 70
    64
  9
$PINSBASE
 10
0.0
 20
0.0
 30
0.0
  9
$PLIMCHECK
 70
     0
  9
$PEXTMIN
 10
1.000000000000000E+20
 20
1.000000000000000E+20
 30
1.000000000000000E+20
  9
$PEXTMAX
 10
-1.000000000000000E+20
 20
-1.000000000000000E+20
 30
-1.000000000000000E+20
  9
$PLIMMIN
 10
0.0
 20
0.0
  9
$PLIMMAX
 10
12.0
 20
9.0
  9
$UNITMODE
 70
     0
  9
$VISRETAIN
 70
     1
  9
$PLINEGEN
 70
     0
  9
$PSLTSCALE
 70
     1
  9
$TREEDEPTH
 70
  3020
  9
$CMLSTYLE
  2
Standard
  9
$CMLJUST
 70
     0
  9
$CMLSCALE
 40
1.0
  9
$PROXYGRAPHICS
 70
     1
  9
$MEASUREMENT
 70
     0
  9
$CELWEIGHT
370
    -1
  9
$ENDCAPS
280
     0
  9
$JOINSTYLE
280
     0
  9
$LWDISPLAY
290
     1
  9
$INSUNITS
 70
     1
  9
$HYPERLINKBASE
  1

  9
$STYLESHEET
  1

  9
$XEDIT
290
     1
  9
$CEPSNTYPE
380
     0
  9
$PSTYLEMODE
290
     1
  9
$FINGERPRINTGUID
  2
{0842F3D7-EAD2-14D1-0D8E-6EF637E85E26}
  9
$VERSIONGUID
  2
{FAEB1C32-E019-11D5-929B-00C0DF256EC4}
  9
$EXTNAMES
290
     1
  9
$PSVPSCALE
 40
0.0
  9
$OLESTARTUP
290
     0
  9
$SORTENTS
280
   127
  9
$INDEXCTL
280
     0
  9
$HIDETEXT
280
     1
  9
$XCLIPFRAME
280
     2
  9
$HALOGAP
280
     0
  9
$OBSCOLOR
 70
   257
  9
$OBSLTYPE
280
     0
  9
$INTERSECTIONDISPLAY
280
     0
  9
$INTERSECTIONCOLOR
 70
   257
  9
$DIMASSOC
280
     2
  9
$PROJECTNAME
  1

  9
$CAMERADISPLAY
290
     0
  9
$LENSLENGTH
 40
50.0
  9
$CAMERAHEIGHT
 40
0.0
  9
$STEPSPERSEC
 40
2.0
  9
$STEPSIZE
 40
6.0
  9
$3DDWFPREC
 40
2.0
  9
$PSOLWIDTH
 40
0.25
  9
$PSOLHEIGHT
 40
4.0
  9
$LOFTANG1
 40
1.570796326794897
  9
$LOFTANG2
 40
1.570796326794897
  9
$LOFTMAG1
 40
0.0
  9
$LOFTMAG2
 40
0.0
  9
$LOFTPARAM
 70
     7
  9
$LOFTNORMALS
280
     1
  9
$LATITUDE
 40
37.795
  9
$LONGITUDE
 40
-122.394
  9
$NORTHDIRECTION
 40
0.0
  9
$TIMEZONE
 70
 -8000
  9
$LIGHTGLYPHDISPLAY
280
     1
  9
$TILEMODELIGHTSYNCH
280
     1
  9
$CMATERIAL
347
3C
  9
$SOLIDHIST
280
     1
  9
$SHOWHIST
280
     1
  9
$DWFFRAME
280
     2
  9
$DGNFRAME
280
     2
  9
$REALWORLDSCALE
290
     1
  9
$INTERFERECOLOR
 62
   256
  9
$CSHADOW
280
     0
  9
$SHADOWPLANELOCATION
 40
0.0
  0
ENDSEC
  0
SECTION
  2
CLASSES
  0
CLASS
  1
ACDBDICTIONARYWDFLT
  2
AcDbDictionaryWithDefault
  3
ObjectDBX Classes
 90
        0
 91
        4
280
     0
281
     0
  0
CLASS
  1
VISUALSTYLE
  2
AcDbVisualStyle
  3
ObjectDBX Classes
 90
     4095
 91
        4
280
     0
281
     0
  0
CLASS
  1
MATERIAL
  2
AcDbMaterial
  3
ObjectDBX Classes
 90
     1153
 91
        4
280
     0
281
     0
  0
CLASS
  1
SUN
  2
AcDbSun
  3
SCENEOE
 90
     1024
 91
        4
280
     0
281
     0
  0
ENDSEC
  0
SECTION
  2
TABLES
  0
TABLE
  2
VPORT
  5
8
330
0
100
AcDbSymbolTable
 70
     1
  0
VPORT
  5
29
330
8
100
AcDbSymbolTableRecord
100
AcDbViewportTableRecord
  2
*Active
 70
     0
 10
0.0
 20
0.0
 11
1.0
 21
1.0
 12
0.0
 22
0.0
 13
0.0
 23
0.0
 14
0.5
 24
0.5
 15
0.5
 25
0.5
 16
0.0
 26
0.0
 36
1.0
 17
91.00082462281999
 27
-128.4993055234307
 37
0.0
 40
256.9986110468615
 41
0.7081814508812795
 42
50.0
 43
0.0
 44
0.0
 50
0.0
 51
0.0
 71
     0
 72
   100
 73
     1
 74
     3
 75
     0
 76
     0
 77
     0
 78
     0
281
     0
 65
     1
110
0.0
120
0.0
130
0.0
111
1.0
121
0.0
131
0.0
112
0.0
122
1.0
132
0.0
 79
     0
146
0.0
 60
     3
 61
     5
292
     1
282
     1
141
0.0
142
0.0
 63
   250
361
3F
  0
ENDTAB
  0
TABLE
  2
LTYPE
  5
5
330
0
100
AcDbSymbolTable
 70
     2
  0
LTYPE
  5
14
330
5
100
AcDbSymbolTableRecord
100
AcDbLinetypeTableRecord
  2
ByBlock
 70
     0
  3

 72
    65
 73
     0
 40
0.0
  0
LTYPE
  5
15
330
5
100
AcDbSymbolTableRecord
100
AcDbLinetypeTableRecord
  2
ByLayer
 70
     0
  3

 72
    65
 73
     0
 40
0.0
  0
LTYPE
  5
16
330
5
100
AcDbSymbolTableRecord
100
AcDbLinetypeTableRecord
  2
Continuous
 70
     0
  3
Solid line
 72
    65
 73
     0
 40
0.0
  0
LTYPE
  5
F0
330
5
100
AcDbSymbolTableRecord
100
AcDbLinetypeTableRecord
  2
AI-Linetype-1
 70
     0
  3
Adobe Illustrator Linetype No. 1
 72
    65
 73
     2
 40
1.411111110758333
 49
0.7055555553791667
 74
     0
 49
-0.7055555553791667
 74
     0
  0
ENDTAB
  0
TABLE
  2
LAYER
  5
2
330
0
100
AcDbSymbolTable
 70
     2
  0
LAYER
  5
10
330
2
100
AcDbSymbolTableRecord
100
AcDbLayerTableRecord
  2
0
 70
     0
 62
     7
  6
Continuous
370
    -3
390
F
347
3E
  0
LAYER
  5
40
330
2
100
AcDbSymbolTableRecord
100
AcDbLayerTableRecord
  2
_U+30EC_U+30A4_U+30E4_U+30FC 1
 70
     0
 62
     7
  6
Continuous
370
    -3
390
F
347
3E
  0
ENDTAB
  0
TABLE
  2
STYLE
  5
3
330
0
100
AcDbSymbolTable
 70
     1
  0
STYLE
  5
11
330
3
100
AcDbSymbolTableRecord
100
AcDbTextStyleTableRecord
  2
Standard
 70
     0
 40
0.0
 41
1.0
 50
0.0
 71
     0
 42
0.2
  3
txt
  4

  0
ENDTAB
  0
TABLE
  2
VIEW
  5
6
330
0
100
AcDbSymbolTable
 70
     0
  0
ENDTAB
  0
TABLE
  2
UCS
  5
7
330
0
100
AcDbSymbolTable
 70
     0
  0
ENDTAB
  0
TABLE
  2
APPID
  5
9
330
0
100
AcDbSymbolTable
 70
     1
  0
APPID
  5
12
330
9
100
AcDbSymbolTableRecord
100
AcDbRegAppTableRecord
  2
ACAD
 70
     0
  0
ENDTAB
  0
TABLE
  2
DIMSTYLE
  5
A
330
0
100
AcDbSymbolTable
 70
     1
100
AcDbDimStyleTable
  0
DIMSTYLE
105
27
330
A
100
AcDbSymbolTableRecord
100
AcDbDimStyleTableRecord
  2
Standard
 70
     0
178
     0
340
11
  0
ENDTAB
  0
TABLE
  2
BLOCK_RECORD
  5
1
330
0
100
AcDbSymbolTable
 70
     8
  0
BLOCK_RECORD
  5
1F
330
1
100
AcDbSymbolTableRecord
100
AcDbBlockTableRecord
  2
*Model_Space
340
22
 70
     0
280
     1
281
     0
  0
BLOCK_RECORD
  5
1B
330
1
100
AcDbSymbolTableRecord
100
AcDbBlockTableRecord
  2
*Paper_Space
340
1E
 70
     0
280
     1
281
     0
  0
BLOCK_RECORD
  5
23
330
1
100
AcDbSymbolTableRecord
100
AcDbBlockTableRecord
  2
*Paper_Space0
340
26
 70
     0
280
     1
281
     0
  0
BLOCK_RECORD
  5
7D
330
1
100
AcDbSymbolTableRecord
100
AcDbBlockTableRecord
  2
block 2
340
0
102
{BLKREFS
331
7E
102
}
 70
     0
280
     1
281
     0
  0
BLOCK_RECORD
  5
92
330
1
100
AcDbSymbolTableRecord
100
AcDbBlockTableRecord
  2
block 3
340
0
102
{BLKREFS
331
93
102
}
 70
     0
280
     1
281
     0
  0
BLOCK_RECORD
  5
A2
330
1
100
AcDbSymbolTableRecord
100
AcDbBlockTableRecord
  2
block 4
340
0
102
{BLKREFS
331
A3
102
}
 70
     0
280
     1
281
     0
  0
BLOCK_RECORD
  5
B4
330
1
100
AcDbSymbolTableRecord
100
AcDbBlockTableRecord
  2
block 5
340
0
102
{BLKREFS
331
B5
102
}
 70
     0
280
     1
281
     0
  0
BLOCK_RECORD
  5
C4
330
1
100
AcDbSymbolTableRecord
100
AcDbBlockTableRecord
  2
block 6
340
0
102
{BLKREFS
331
C5
102
}
 70
     0
280
     1
281
     0
  0
BLOCK_RECORD
  5
D8
330
1
100
AcDbSymbolTableRecord
100
AcDbBlockTableRecord
  2
block 7
340
0
102
{BLKREFS
331
D9
102
}
 70
     0
280
     1
281
     0
  0
BLOCK_RECORD
  5
F7
330
1
100
AcDbSymbolTableRecord
100
AcDbBlockTableRecord
  2
block 8
340
0
102
{BLKREFS
331
F8
102
}
 70
     0
280
     1
281
     0
  0
ENDTAB
  0
ENDSEC
  0
SECTION
  2
BLOCKS
  0
BLOCK
  5
20
330
1F
100
AcDbEntity
  8
0
100
AcDbBlockBegin
  2
*Model_Space
 70
     0
 10
0.0
 20
0.0
 30
0.0
  3
*Model_Space
  1

  0
ENDBLK
  5
21
330
1F
100
AcDbEntity
  8
0
100
AcDbBlockEnd
  0
BLOCK
  5
1C
330
1B
100
AcDbEntity
 67
     1
  8
0
100
AcDbBlockBegin
  2
*Paper_Space
 70
     0
 10
0.0
 20
0.0
 30
0.0
  3
*Paper_Space
  1

  0
ENDBLK
  5
1D
330
1B
100
AcDbEntity
 67
     1
  8
0
100
AcDbBlockEnd
  0
BLOCK
  5
24
330
23
100
AcDbEntity
  8
0
100
AcDbBlockBegin
  2
*Paper_Space0
 70
     0
 10
0.0
 20
0.0
 30
0.0
  3
*Paper_Space0
  1

  0
ENDBLK
  5
25
330
23
100
AcDbEntity
  8
0
100
AcDbBlockEnd
  0
BLOCK
  5
7F
330
7D
100
AcDbEntity
  8
0
100
AcDbBlockBegin
  2
block 2
 70
     0
 10
0.0
 20
0.0
 30
0.0
  3
block 2
  1

  0
SPLINE
  5
81
330
7D
100
AcDbEntity
  8
_U+30EC_U+30A4_U+30E4_U+30FC 1
370
     0
100
AcDbSpline
210
0.0
220
0.0
230
1.0
 70
    11
 71
     3
 72
    26
 73
    22
 74
     0
 42
0.0000000001
 43
0.0000000001
 12
1.0
 22
0.0
 32
0.0
 13
1.0
 23
0.0
 33
0.0
 40
0.0
 40
0.0
 40
0.0
 40
0.0
 40
1.0
 40
1.0
 40
1.0
 40
2.0
 40
2.0
 40
2.0
 40
3.0
 40
3.0
 40
3.0
 40
4.0
 40
4.0
 40
4.0
 40
5.0
 40
5.0
 40
5.0
 40
6.0
 40
6.0
 40
6.0
 40
7.0
 40
7.0
 40
7.0
 40
7.0
 10
66.18596867920004
 20
-142.7223822342847
 30
0.0
 10
66.18596867920004
 20
-142.7223822342847
 30
0.0
 10
66.18596867920004
 20
-141.6182291312621
 30
0.0
 10
66.18596867920004
 20
-141.6182291312621
 30
0.0
 10
66.18596867920004
 20
-141.6182291312621
 30
0.0
 10
65.83319090151045
 20
-141.6182291312621
 30
0.0
 10
65.83319090151045
 20
-141.6182291312621
 30
0.0
 10
65.83319090151045
 20
-141.6182291312621
 30
0.0
 10
65.83319090151045
 20
-141.4700900253964
 30
0.0
 10
65.83319090151045
 20
-141.4700900253964
 30
0.0
 10
66.18820799126546
 20
-141.4552761148098
 30
0.0
 10
66.23798962102731
 20
-141.2923230983575
 30
0.0
 10
66.26951224471735
 20
-141.1779459282472
 30
0.0
 10
66.26951224471735
 20
-141.1779459282472
 30
0.0
 10
66.42557507019916
 20
-141.1779459282472
 30
0.0
 10
66.42557507019916
 20
-141.1779459282472
 30
0.0
 10
66.42557507019916
 20
-141.1779459282472
 30
0.0
 10
66.42557507019916
 20
-142.7223822342847
 30
0.0
 10
66.42557507019916
 20
-142.7223822342847
 30
0.0
 10
66.42557507019916
 20
-142.7223822342847
 30
0.0
 10
66.18596867920004
 20
-142.7223822342847
 30
0.0
 10
66.18596867920004
 20
-142.7223822342847
 30
0.0
  0
HATCH
  5
82
330
7D
100
AcDbEntity
  8
_U+30EC_U+30A4_U+30E4_U+30FC 1
 62
     7
420
 16777215
100
AcDbHatch
 10
0.0
 20
0.0
 30
0.0
210
0.0
220
0.0
230
1.0
  2
SOLID
 70
     1
 71
     0
 91
        1
 92
        1
 93
        1
 72
     4
 94
        3
 73
     0
 74
     1
 95
       26
 96
       22
 40
0.0
 40
0.0
 40
0.0
 40
0.0
 40
1.0
 40
1.0
 40
1.0
 40
2.0
 40
2.0
 40
2.0
 40
3.0
 40
3.0
 40
3.0
 40
4.0
 40
4.0
 40
4.0
 40
5.0
 40
5.0
 40
5.0
 40
6.0
 40
6.0
 40
6.0
 40
7.0
 40
7.0
 40
7.0
 40
7.0
 10
66.18596867920004
 20
-142.7223822342847
 10
66.18596867920004
 20
-142.7223822342847
 10
66.18596867920004
 20
-141.6182291312621
 10
66.18596867920004
 20
-141.6182291312621
 10
66.18596867920004
 20
-141.6182291312621
 10
65.83319090151045
 20
-141.6182291312621
 10
65.83319090151045
 20
-141.6182291312621
 10
65.83319090151045
 20
-141.6182291312621
 10
65.83319090151045
 20
-141.4700900253964
 10
65.83319090151045
 20
-141.4700900253964
 10
66.18820799126546
 20
-141.4552761148098
 10
66.23798962102731
 20
-141.2923230983575
 10
66.26951224471735
 20
-141.1779459282472
 10
66.26951224471735
 20
-141.1779459282472
 10
66.42557507019916
 20
-141.1779459282472
 10
66.42557507019916
 20
-141.1779459282472
 10
66.42557507019916
 20
-141.1779459282472
 10
66.42557507019916
 20
-142.7223822342847
 10
66.42557507019916
 20
-142.7223822342847
 10
66.42557507019916
 20
-142.7223822342847
 10
66.18596867920004
 20
-142.7223822342847
 10
66.18596867920004
 20
-142.7223822342847
 97
        0
 97
        0
 75
     2
 76
     1
 98
        0
  0
SPLINE
  5
83
330
7D
100
AcDbEntity
  8
_U+30EC_U+30A4_U+30E4_U+30FC 1
370
     0
100
AcDbSpline
210
0.0
220
0.0
230
1.0
 70
    11
 71
     3
 72
    44
 73
    40
 74
     0
 42
0.0000000001
 43
0.0000000001
 12
1.0
 22
0.0
 32
0.0
 13
1.0
 23
0.0
 33
0.0
 40
0.0
 40
0.0
 40
0.0
 40
0.0
 40
1.0
 40
1.0
 40
1.0
 40
2.0
 40
2.0
 40
2.0
 40
3.0
 40
3.0
 40
3.0
 40
4.0
 40
4.0
 40
4.0
 40
5.0
 40
5.0
 40
5.0
 40
6.0
 40
6.0
 40
6.0
 40
7.0
 40
7.0
 40
7.0
 40
8.0
 40
8.0
 40
8.0
 40
9.0
 40
9.0
 40
9.0
 40
10.0
 40
10.0
 40
10.0
 40
11.0
 40
11.0
 40
11.0
 40
12.0
 40
12.0
 40
12.0
 40
13.0
 40
13.0
 40
13.0
 40
13.0
 10
68.04511445781512
 20
-142.7223822342847
 30
0.0
 10
68.02030977032132
 20
-142.677940502525
 30
0.0
 10
67.99757214011866
 20
-142.6252305416006
 30
0.0
 10
67.99533282805325
 20
-142.3944091440889
 30
0.0
 10
67.99085420392242
 20
-142.1511854028303
 30
0.0
 10
67.9276367017681
 20
-142.0812499644797
 30
0.0
 10
67.73763968575656
 20
-142.0812499644797
 30
0.0
 10
67.73763968575656
 20
-142.0812499644797
 30
0.0
 10
67.30131834254968
 20
-142.0812499644797
 30
0.0
 10
67.30131834254968
 20
-142.0812499644797
 30
0.0
 10
67.30131834254968
 20
-142.0812499644797
 30
0.0
 10
67.30131834254968
 20
-142.7223822342847
 30
0.0
 10
67.30131834254968
 20
-142.7223822342847
 30
0.0
 10
67.30131834254968
 20
-142.7223822342847
 30
0.0
 10
67.05034313644923
 20
-142.7223822342847
 30
0.0
 10
67.05034313644923
 20
-142.7223822342847
 30
0.0
 10
67.05034313644923
 20
-142.7223822342847
 30
0.0
 10
67.05034313644923
 20
-141.1779459282472
 30
0.0
 10
67.05034313644923
 20
-141.1779459282472
 30
0.0
 10
67.05034313644923
 20
-141.1779459282472
 30
0.0
 10
67.77157387628628
 20
-141.1779459282472
 30
0.0
 10
67.77157387628628
 20
-141.1779459282472
 30
0.0
 10
68.0993747117078
 20
-141.1779459282472
 30
0.0
 10
68.278002912618
 20
-141.3495116834126
 30
0.0
 10
68.278002912618
 20
-141.6054822779667
 30
0.0
 10
68.278002912618
 20
-141.6561251815999
 30
0.0
 10
68.26904566435636
 20
-141.7388074732459
 30
0.0
 10
68.2215033466599
 20
-141.8190781980522
 30
0.0
 10
68.15811358973131
 20
-141.9227755721582
 30
0.0
 10
68.08817815138073
 20
-141.9417235973271
 30
0.0
 10
68.02254908238673
 20
-141.9586045652048
 30
0.0
 10
68.16948240483264
 20
-142.0009792396734
 30
0.0
 10
68.24182941002287
 20
-142.0495550860154
 30
0.0
 10
68.2463080341537
 20
-142.3647813229157
 30
0.0
 10
68.25078665828453
 20
-142.6355658280564
 30
0.0
 10
68.28937172771933
 20
-142.6672607065207
 30
0.0
 10
68.36171873290958
 20
-142.7223822342847
 30
0.0
 10
68.36171873290958
 20
-142.7223822342847
 30
0.0
 10
68.04511445781512
 20
-142.7223822342847
 30
0.0
 10
68.04511445781512
 20
-142.7223822342847
 30
0.0
  0
SPLINE
  5
84
330
7D
100
AcDbEntity
  8
_U+30EC_U+30A4_U+30E4_U+30FC 1
370
     0
100
AcDbSpline
210
0.0
220
0.0
230
1.0
 70
    11
 71
     3
 72
    20
 73
    16
 74
     0
 42
0.0000000001
 43
0.0000000001
 12
1.0
 22
0.0
 32
0.0
 13
1.0
 23
0.0
 33
0.0
 40
0.0
 40
0.0
 40
0.0
 40
0.0
 40
1.0
 40
1.0
 40
1.0
 40
2.0
 40
2.0
 40
2.0
 40
3.0
 40
3.0
 40
3.0
 40
4.0
 40
4.0
 40
4.0
 40
5.0
 40
5.0
 40
5.0
 40
5.0
 10
67.7760525004171
 20
-141.3894747910415
 30
0.0
 10
67.7760525004171
 20
-141.3894747910415
 30
0.0
 10
67.30131834254968
 20
-141.3894747910415
 30
0.0
 10
67.30131834254968
 20
-141.3894747910415
 30
0.0
 10
67.30131834254968
 20
-141.3894747910415
 30
0.0
 10
67.30131834254968
 20
-141.8697211016853
 30
0.0
 10
67.30131834254968
 20
-141.8697211016853
 30
0.0
 10
67.30131834254968
 20
-141.8697211016853
 30
0.0
 10
67.7738131883517
 20
-141.8697211016853
 30
0.0
 10
67.7738131883517
 20
-141.8697211016853
 30
0.0
 10
67.88009438407164
 20
-141.8697211016853
 30
0.0
 10
68.02478839445214
 20
-141.7935844914613
 30
0.0
 10
68.02478839445214
 20
-141.6223632458444
 30
0.0
 10
68.02478839445214
 20
-141.5441595783292
 30
0.0
 10
67.98861489185701
 20
-141.3894747910415
 30
0.0
 10
67.7760525004171
 20
-141.3894747910415
 30
0.0
  0
HATCH
  5
85
330
7D
100
AcDbEntity
  8
_U+30EC_U+30A4_U+30E4_U+30FC 1
 62
     7
420
 16777215
100
AcDbHatch
 10
0.0
 20
0.0
 30
0.0
210
0.0
220
0.0
230
1.0
  2
SOLID
 70
     1
 71
     0
 91
        2
 92
        1
 93
        1
 72
     4
 94
        3
 73
     0
 74
     1
 95
       44
 96
       40
 40
0.0
 40
0.0
 40
0.0
 40
0.0
 40
1.0
 40
1.0
 40
1.0
 40
2.0
 40
2.0
 40
2.0
 40
3.0
 40
3.0
 40
3.0
 40
4.0
 40
4.0
 40
4.0
 40
5.0
 40
5.0
 40
5.0
 40
6.0
 40
6.0
 40
6.0
 40
7.0
 40
7.0
 40
7.0
 40
8.0
 40
8.0
 40
8.0
 40
9.0
 40
9.0
 40
9.0
 40
10.0
 40
10.0
 40
10.0
 40
11.0
 40
11.0
 40
11.0
 40
12.0
 40
12.0
 40
12.0
 40
13.0
 40
13.0
 40
13.0
 40
13.0
 10
68.04511445781512
 20
-142.7223822342847
 10
68.02030977032132
 20
-142.677940502525
 10
67.99757214011866
 20
-142.6252305416006
 10
67.99533282805325
 20
-142.3944091440889
 10
67.99085420392242
 20
-142.1511854028303
 10
67.9276367017681
 20
-142.0812499644797
 10
67.73763968575656
 20
-142.0812499644797
 10
67.73763968575656
 20
-142.0812499644797
 10
67.30131834254968
 20
-142.0812499644797
 10
67.30131834254968
 20
-142.0812499644797
 10
67.30131834254968
 20
-142.0812499644797
 10
67.30131834254968
 20
-142.7223822342847
 10
67.30131834254968
 20
-142.7223822342847
 10
67.30131834254968
 20
-142.7223822342847
 10
67.05034313644923
 20
-142.7223822342847
 10
67.05034313644923
 20
-142.7223822342847
 10
67.05034313644923
 20
-142.7223822342847
 10
67.05034313644923
 20
-141.1779459282472
 10
67.05034313644923
 20
-141.1779459282472
 10
67.05034313644923
 20
-141.1779459282472
 10
67.77157387628628
 20
-141.1779459282472
 10
67.77157387628628
 20
-141.1779459282472
 10
68.0993747117078
 20
-141.1779459282472
 10
68.278002912618
 20
-141.3495116834126
 10
68.278002912618
 20
-141.6054822779667
 10
68.278002912618
 20
-141.6561251815999
 10
68.26904566435636
 20
-141.7388074732459
 10
68.2215033466599
 20
-141.8190781980522
 10
68.15811358973131
 20
-141.9227755721582
 10
68.08817815138073
 20
-141.9417235973271
 10
68.02254908238673
 20
-141.9586045652048
 10
68.16948240483264
 20
-142.0009792396734
 10
68.24182941002287
 20
-142.0495550860154
 10
68.2463080341537
 20
-142.3647813229157
 10
68.25078665828453
 20
-142.6355658280564
 10
68.28937172771933
 20
-142.6672607065207
 10
68.36171873290958
 20
-142.7223822342847
 10
68.36171873290958
 20
-142.7223822342847
 10
68.04511445781512
 20
-142.7223822342847
 10
68.04511445781512
 20
-142.7223822342847
 97
        0
 97
        0
 92
        1
 93
        1
 72
     4
 94
        3
 73
     0
 74
     1
 95
       20
 96
       16
 40
0.0
 40
0.0
 40
0.0
 40
0.0
 40
1.0
 40
1.0
 40
1.0
 40
2.0
 40
2.0
 40
2.0
 40
3.0
 40
3.0
 40
3.0
 40
4.0
 40
4.0
 40
4.0
 40
5.0
 40
5.0
 40
5.0
 40
5.0
 10
67.7760525004171
 20
-141.3894747910415
 10
67.7760525004171
 20
-141.3894747910415
 10
67.30131834254968
 20
-141.3894747910415
 10
67.30131834254968
 20
-141.3894747910415
 10
67.30131834254968
 20
-141.3894747910415
 10
67.30131834254968
 20
-141.8697211016853
 10
67.30131834254968
 20
-141.8697211016853
 10
67.30131834254968
 20
-141.8697211016853
 10
67.7738131883517
 20
-141.8697211016853
 10
67.7738131883517
 20
-141.8697211016853
 10
67.88009438407164
 20
-141.8697211016853
 10
68.02478839445214
 20
-141.7935844914613
 10
68.02478839445214
 20
-141.6223632458444
 10
68.02478839445214
 20
-141.5441595783292
 10
67.98861489185701
 20
-141.3894747910415
 10
67.7760525004171
 20
-141.3894747910415
 97
        0
 97
        0
 75
     2
 76
     1
 98
        0
  0
ENDBLK
  5
80
330
7D
100
AcDbEntity
  8
0
100
AcDbBlockEnd
  0
BLOCK
  5
94
330
92
100
AcDbEntity
  8
0
100
AcDbBlockBegin
  2
block 3
 70
     0
 10
0.0
 20
0.0
 30
0.0
  3
block 3
  1

  0
SPLINE
  5
96
330
92
100
AcDbEntity
  8
_U+30EC_U+30A4_U+30E4_U+30FC 1
370
     0
100
AcDbSpline
210
0.0
220
0.0
230
1.0
 70
    11
 71
     3
 72
    44
 73
    40
 74
     0
 42
0.0000000001
 43
0.0000000001
 12
1.0
 22
0.0
 32
0.0
 13
1.0
 23
0.0
 33
0.0
 40
0.0
 40
0.0
 40
0.0
 40
0.0
 40
1.0
 40
1.0
 40
1.0
 40
2.0
 40
2.0
 40
2.0
 40
3.0
 40
3.0
 40
3.0
 40
4.0
 40
4.0
 40
4.0
 40
5.0
 40
5.0
 40
5.0
 40
6.0
 40
6.0
 40
6.0
 40
7.0
 40
7.0
 40
7.0
 40
8.0
 40
8.0
 40
8.0
 40
9.0
 40
9.0
 40
9.0
 40
10.0
 40
10.0
 40
10.0
 40
11.0
 40
11.0
 40
11.0
 40
12.0
 40
12.0
 40
12.0
 40
13.0
 40
13.0
 40
13.0
 40
13.0
 10
87.64960257140358
 20
-113.5103840862057
 30
0.0
 10
87.41671411660069
 20
-113.6690307333015
 30
0.0
 10
87.31715085707697
 20
-113.7431002862344
 30
0.0
 10
87.26547442479821
 20
-113.8867607679693
 30
0.0
 10
87.26547442479821
 20
-113.8867607679693
 30
0.0
 10
88.09712047493753
 20
-113.8867607679693
 30
0.0
 10
88.09712047493753
 20
-113.8867607679693
 30
0.0
 10
88.09712047493753
 20
-113.8867607679693
 30
0.0
 10
88.09712047493753
 20
-114.0920884588902
 30
0.0
 10
88.09712047493753
 20
-114.0920884588902
 30
0.0
 10
88.09712047493753
 20
-114.0920884588902
 30
0.0
 10
86.99847952469136
 20
-114.0920884588902
 30
0.0
 10
86.99847952469136
 20
-114.0920884588902
 30
0.0
 10
87.03258596999532
 20
-113.7344875475212
 30
0.0
 10
87.10252140834591
 20
-113.6562838800061
 30
0.0
 10
87.51386580928474
 20
-113.3579386109834
 30
0.0
 10
87.78740639081357
 20
-113.1591566014845
 30
0.0
 10
87.85768633871267
 20
-113.0914604751994
 30
0.0
 10
87.85768633871267
 20
-112.9540011653379
 30
0.0
 10
87.85768633871267
 20
-112.8354898806453
 30
0.0
 10
87.78086070939159
 20
-112.7044039974315
 30
0.0
 10
87.57036537524283
 20
-112.7044039974315
 30
0.0
 10
87.29234616958317
 20
-112.7044039974315
 30
0.0
 10
87.28338892132152
 20
-112.9348808853948
 30
0.0
 10
87.27891029719069
 20
-113.0513251127962
 30
0.0
 10
87.27891029719069
 20
-113.0513251127962
 30
0.0
 10
87.0391316514173
 20
-113.0513251127962
 30
0.0
 10
87.0391316514173
 20
-113.0513251127962
 30
0.0
 10
87.04843340922748
 20
-112.9243733441647
 30
0.0
 10
87.05945771478028
 20
-112.8122354861199
 30
0.0
 10
87.14558510191152
 20
-112.6937242014273
 30
0.0
 10
87.26306285795854
 20
-112.5330104970404
 30
0.0
 10
87.46184486745746
 20
-112.4990763065107
 30
0.0
 10
87.58621281447498
 20
-112.4990763065107
 30
0.0
 10
87.88249102620647
 20
-112.4990763065107
 30
0.0
 10
88.10401066590804
 20
-112.6832166601973
 30
0.0
 10
88.10401066590804
 20
-112.956068222629
 30
0.0
 10
88.10401066590804
 20
-113.1844780533011
 30
0.0
 10
87.97964271889052
 20
-113.2840413128248
 30
0.0
 10
87.64960257140358
 20
-113.5103840862057
 30
0.0
  0
HATCH
  5
97
330
92
100
AcDbEntity
  8
_U+30EC_U+30A4_U+30E4_U+30FC 1
 62
     7
420
 16777215
100
AcDbHatch
 10
0.0
 20
0.0
 30
0.0
210
0.0
220
0.0
230
1.0
  2
SOLID
 70
     1
 71
     0
 91
        1
 92
        1
 93
        1
 72
     4
 94
        3
 73
     0
 74
     1
 95
       44
 96
       40
 40
0.0
 40
0.0
 40
0.0
 40
0.0
 40
1.0
 40
1.0
 40
1.0
 40
2.0
 40
2.0
 40
2.0
 40
3.0
 40
3.0
 40
3.0
 40
4.0
 40
4.0
 40
4.0
 40
5.0
 40
5.0
 40
5.0
 40
6.0
 40
6.0
 40
6.0
 40
7.0
 40
7.0
 40
7.0
 40
8.0
 40
8.0
 40
8.0
 40
9.0
 40
9.0
 40
9.0
 40
10.0
 40
10.0
 40
10.0
 40
11.0
 40
11.0
 40
11.0
 40
12.0
 40
12.0
 40
12.0
 40
13.0
 40
13.0
 40
13.0
 40
13.0
 10
87.64960257140358
 20
-113.5103840862057
 10
87.41671411660069
 20
-113.6690307333015
 10
87.31715085707697
 20
-113.7431002862344
 10
87.26547442479821
 20
-113.8867607679693
 10
87.26547442479821
 20
-113.8867607679693
 10
88.09712047493753
 20
-113.8867607679693
 10
88.09712047493753
 20
-113.8867607679693
 10
88.09712047493753
 20
-113.8867607679693
 10
88.09712047493753
 20
-114.0920884588902
 10
88.09712047493753
 20
-114.0920884588902
 10
88.09712047493753
 20
-114.0920884588902
 10
86.99847952469136
 20
-114.0920884588902
 10
86.99847952469136
 20
-114.0920884588902
 10
87.03258596999532
 20
-113.7344875475212
 10
87.10252140834591
 20
-113.6562838800061
 10
87.51386580928474
 20
-113.3579386109834
 10
87.78740639081357
 20
-113.1591566014845
 10
87.85768633871267
 20
-113.0914604751994
 10
87.85768633871267
 20
-112.9540011653379
 10
87.85768633871267
 20
-112.8354898806453
 10
87.78086070939159
 20
-112.7044039974315
 10
87.57036537524283
 20
-112.7044039974315
 10
87.29234616958317
 20
-112.7044039974315
 10
87.28338892132152
 20
-112.9348808853948
 10
87.27891029719069
 20
-113.0513251127962
 10
87.27891029719069
 20
-113.0513251127962
 10
87.0391316514173
 20
-113.0513251127962
 10
87.0391316514173
 20
-113.0513251127962
 10
87.04843340922748
 20
-112.9243733441647
 10
87.05945771478028
 20
-112.8122354861199
 10
87.14558510191152
 20
-112.6937242014273
 10
87.26306285795854
 20
-112.5330104970404
 10
87.46184486745746
 20
-112.4990763065107
 10
87.58621281447498
 20
-112.4990763065107
 10
87.88249102620647
 20
-112.4990763065107
 10
88.10401066590804
 20
-112.6832166601973
 10
88.10401066590804
 20
-112.956068222629
 10
88.10401066590804
 20
-113.1844780533011
 10
87.97964271889052
 20
-113.2840413128248
 10
87.64960257140358
 20
-113.5103840862057
 97
        0
 97
        0
 75
     2
 76
     1
 98
        0
  0
SPLINE
  5
98
330
92
100
AcDbEntity
  8
_U+30EC_U+30A4_U+30E4_U+30FC 1
370
     0
100
AcDbSpline
210
0.0
220
0.0
230
1.0
 70
    11
 71
     3
 72
    26
 73
    22
 74
     0
 42
0.0000000001
 43
0.0000000001
 12
1.0
 22
0.0
 32
0.0
 13
1.0
 23
0.0
 33
0.0
 40
0.0
 40
0.0
 40
0.0
 40
0.0
 40
1.0
 40
1.0
 40
1.0
 40
2.0
 40
2.0
 40
2.0
 40
3.0
 40
3.0
 40
3.0
 40
4.0
 40
4.0
 40
4.0
 40
5.0
 40
5.0
 40
5.0
 40
6.0
 40
6.0
 40
6.0
 40
7.0
 40
7.0
 40
7.0
 40
7.0
 10
88.7131035477002
 20
-114.0920884588902
 30
0.0
 10
88.7131035477002
 20
-114.0920884588902
 30
0.0
 10
88.45988902953434
 20
-114.0920884588902
 30
0.0
 10
88.45988902953434
 20
-114.0920884588902
 30
0.0
 10
88.4871052838678
 20
-113.7832356486375
 30
0.0
 10
88.69277748433723
 20
-113.2649210328817
 30
0.0
 10
89.1268595154787
 20
-112.7593532704213
 30
0.0
 10
89.1268595154787
 20
-112.7593532704213
 30
0.0
 10
88.23147919886227
 20
-112.7593532704213
 30
0.0
 10
88.23147919886227
 20
-112.7593532704213
 30
0.0
 10
88.23147919886227
 20
-112.7593532704213
 30
0.0
 10
88.23147919886227
 20
-112.5478244076269
 30
0.0
 10
88.23147919886227
 20
-112.5478244076269
 30
0.0
 10
88.23147919886227
 20
-112.5478244076269
 30
0.0
 10
89.38007403364458
 20
-112.5478244076269
 30
0.0
 10
89.38007403364458
 20
-112.5478244076269
 30
0.0
 10
89.38007403364458
 20
-112.5478244076269
 30
0.0
 10
89.38007403364458
 20
-112.7593532704213
 30
0.0
 10
89.38007403364458
 20
-112.7593532704213
 30
0.0
 10
89.03418644692549
 20
-113.0490858007308
 30
0.0
 10
88.74927705029532
 20
-113.6414699694195
 30
0.0
 10
88.7131035477002
 20
-114.0920884588902
 30
0.0
  0
HATCH
  5
99
330
92
100
AcDbEntity
  8
_U+30EC_U+30A4_U+30E4_U+30FC 1
 62
     7
420
 16777215
100
AcDbHatch
 10
0.0
 20
0.0
 30
0.0
210
0.0
220
0.0
230
1.0
  2
SOLID
 70
     1
 71
     0
 91
        1
 92
        1
 93
        1
 72
     4
 94
        3
 73
     0
 74
     1
 95
       26
 96
       22
 40
0.0
 40
0.0
 40
0.0
 40
0.0
 40
1.0
 40
1.0
 40
1.0
 40
2.0
 40
2.0
 40
2.0
 40
3.0
 40
3.0
 40
3.0
 40
4.0
 40
4.0
 40
4.0
 40
5.0
 40
5.0
 40
5.0
 40
6.0
 40
6.0
 40
6.0
 40
7.0
 40
7.0
 40
7.0
 40
7.0
 10
88.7131035477002
 20
-114.0920884588902
 10
88.7131035477002
 20
-114.0920884588902
 10
88.45988902953434
 20
-114.0920884588902
 10
88.45988902953434
 20
-114.0920884588902
 10
88.4871052838678
 20
-113.7832356486375
 10
88.69277748433723
 20
-113.2649210328817
 10
89.1268595154787
 20
-112.7593532704213
 10
89.1268595154787
 20
-112.7593532704213
 10
88.23147919886227
 20
-112.7593532704213
 10
88.23147919886227
 20
-112.7593532704213
 10
88.23147919886227
 20
-112.7593532704213
 10
88.23147919886227
 20
-112.5478244076269
 10
88.23147919886227
 20
-112.5478244076269
 10
88.23147919886227
 20
-112.5478244076269
 10
89.38007403364458
 20
-112.5478244076269
 10
89.38007403364458
 20
-112.5478244076269
 10
89.38007403364458
 20
-112.5478244076269
 10
89.38007403364458
 20
-112.7593532704213
 10
89.38007403364458
 20
-112.7593532704213
 10
89.03418644692549
 20
-113.0490858007308
 10
88.74927705029532
 20
-113.6414699694195
 10
88.7131035477002
 20
-114.0920884588902
 97
        0
 97
        0
 75
     2
 76
     1
 98
        0
  0
ENDBLK
  5
95
330
92
100
AcDbEntity
  8
0
100
AcDbBlockEnd
  0
BLOCK
  5
A4
330
A2
100
AcDbEntity
  8
0
100
AcDbBlockBegin
  2
block 4
 70
     0
 10
0.0
 20
0.0
 30
0.0
  3
block 4
  1

  0
SPLINE
  5
A6
330
A2
100
AcDbEntity
  8
_U+30EC_U+30A4_U+30E4_U+30FC 1
370
     0
100
AcDbSpline
210
0.0
220
0.0
230
1.0
 70
    11
 71
     3
 72
    26
 73
    22
 74
     0
 42
0.0000000001
 43
0.0000000001
 12
1.0
 22
0.0
 32
0.0
 13
1.0
 23
0.0
 33
0.0
 40
0.0
 40
0.0
 40
0.0
 40
0.0
 40
1.0
 40
1.0
 40
1.0
 40
2.0
 40
2.0
 40
2.0
 40
3.0
 40
3.0
 40
3.0
 40
4.0
 40
4.0
 40
4.0
 40
5.0
 40
5.0
 40
5.0
 40
6.0
 40
6.0
 40
6.0
 40
7.0
 40
7.0
 40
7.0
 40
7.0
 10
75.90682235515524
 20
-119.2731675591574
 30
0.0
 10
75.90682235515524
 20
-119.2731675591574
 30
0.0
 10
75.90682235515524
 20
-118.1688422013606
 30
0.0
 10
75.90682235515524
 20
-118.1688422013606
 30
0.0
 10
75.90682235515524
 20
-118.1688422013606
 30
0.0
 10
75.55404457746566
 20
-118.1688422013606
 30
0.0
 10
75.55404457746566
 20
-118.1688422013606
 30
0.0
 10
75.55404457746566
 20
-118.1688422013606
 30
0.0
 10
75.55404457746566
 20
-118.0207030954948
 30
0.0
 10
75.55404457746566
 20
-118.0207030954948
 30
0.0
 10
75.90906166722066
 20
-118.0060614396825
 30
0.0
 10
75.95884329698251
 20
-117.8431084232302
 30
0.0
 10
75.99053817544682
 20
-117.7289035078942
 30
0.0
 10
75.99053817544682
 20
-117.7289035078942
 30
0.0
 10
76.14642874615437
 20
-117.7289035078942
 30
0.0
 10
76.14642874615437
 20
-117.7289035078942
 30
0.0
 10
76.14642874615437
 20
-117.7289035078942
 30
0.0
 10
76.14642874615437
 20
-119.2731675591574
 30
0.0
 10
76.14642874615437
 20
-119.2731675591574
 30
0.0
 10
76.14642874615437
 20
-119.2731675591574
 30
0.0
 10
75.90682235515524
 20
-119.2731675591574
 30
0.0
 10
75.90682235515524
 20
-119.2731675591574
 30
0.0
  0
HATCH
  5
A7
330
A2
100
AcDbEntity
  8
_U+30EC_U+30A4_U+30E4_U+30FC 1
 62
     7
420
 16777215
100
AcDbHatch
 10
0.0
 20
0.0
 30
0.0
210
0.0
220
0.0
230
1.0
  2
SOLID
 70
     1
 71
     0
 91
        1
 92
        1
 93
        1
 72
     4
 94
        3
 73
     0
 74
     1
 95
       26
 96
       22
 40
0.0
 40
0.0
 40
0.0
 40
0.0
 40
1.0
 40
1.0
 40
1.0
 40
2.0
 40
2.0
 40
2.0
 40
3.0
 40
3.0
 40
3.0
 40
4.0
 40
4.0
 40
4.0
 40
5.0
 40
5.0
 40
5.0
 40
6.0
 40
6.0
 40
6.0
 40
7.0
 40
7.0
 40
7.0
 40
7.0
 10
75.90682235515524
 20
-119.2731675591574
 10
75.90682235515524
 20
-119.2731675591574
 10
75.90682235515524
 20
-118.1688422013606
 10
75.90682235515524
 20
-118.1688422013606
 10
75.90682235515524
 20
-118.1688422013606
 10
75.55404457746566
 20
-118.1688422013606
 10
75.55404457746566
 20
-118.1688422013606
 10
75.55404457746566
 20
-118.1688422013606
 10
75.55404457746566
 20
-118.0207030954948
 10
75.55404457746566
 20
-118.0207030954948
 10
75.90906166722066
 20
-118.0060614396825
 10
75.95884329698251
 20
-117.8431084232302
 10
75.99053817544682
 20
-117.7289035078942
 10
75.99053817544682
 20
-117.7289035078942
 10
76.14642874615437
 20
-117.7289035078942
 10
76.14642874615437
 20
-117.7289035078942
 10
76.14642874615437
 20
-117.7289035078942
 10
76.14642874615437
 20
-119.2731675591574
 10
76.14642874615437
 20
-119.2731675591574
 10
76.14642874615437
 20
-119.2731675591574
 10
75.90682235515524
 20
-119.2731675591574
 10
75.90682235515524
 20
-119.2731675591574
 97
        0
 97
        0
 75
     2
 76
     1
 98
        0
  0
ENDBLK
  5
A5
330
A2
100
AcDbEntity
  8
0
100
AcDbBlockEnd
  0
BLOCK
  5
B6
330
B4
100
AcDbEntity
  8
0
100
AcDbBlockBegin
  2
block 5
 70
     0
 10
0.0
 20
0.0
 30
0.0
  3
block 5
  1

  0
SPLINE
  5
B8
330
B4
100
AcDbEntity
  8
_U+30EC_U+30A4_U+30E4_U+30FC 1
370
     0
100
AcDbSpline
210
0.0
220
0.0
230
1.0
 70
    11
 71
     3
 72
    44
 73
    40
 74
     0
 42
0.0000000001
 43
0.0000000001
 12
1.0
 22
0.0
 32
0.0
 13
1.0
 23
0.0
 33
0.0
 40
0.0
 40
0.0
 40
0.0
 40
0.0
 40
1.0
 40
1.0
 40
1.0
 40
2.0
 40
2.0
 40
2.0
 40
3.0
 40
3.0
 40
3.0
 40
4.0
 40
4.0
 40
4.0
 40
5.0
 40
5.0
 40
5.0
 40
6.0
 40
6.0
 40
6.0
 40
7.0
 40
7.0
 40
7.0
 40
8.0
 40
8.0
 40
8.0
 40
9.0
 40
9.0
 40
9.0
 40
10.0
 40
10.0
 40
10.0
 40
11.0
 40
11.0
 40
11.0
 40
12.0
 40
12.0
 40
12.0
 40
13.0
 40
13.0
 40
13.0
 40
13.0
 10
68.50072833573941
 20
-129.3995089737265
 30
0.0
 10
68.65937498283516
 20
-129.6323974285294
 30
0.0
 10
68.73344453576803
 20
-129.7319606880531
 30
0.0
 10
68.87727727227721
 20
-129.7836371203319
 30
0.0
 10
68.87727727227721
 20
-129.7836371203319
 30
0.0
 10
68.87727727227721
 20
-128.9519910701926
 30
0.0
 10
68.87727727227721
 20
-128.9519910701926
 30
0.0
 10
68.87727727227721
 20
-128.9519910701926
 30
0.0
 10
69.08243270842384
 20
-128.9519910701926
 30
0.0
 10
69.08243270842384
 20
-128.9519910701926
 30
0.0
 10
69.08243270842384
 20
-128.9519910701926
 30
0.0
 10
69.08243270842384
 20
-130.0506320204387
 30
0.0
 10
69.08243270842384
 20
-130.0506320204387
 30
0.0
 10
68.7248317970549
 20
-130.0165255751348
 30
0.0
 10
68.64662812953974
 20
-129.9465901367842
 30
0.0
 10
68.3482828605171
 20
-129.5352457358454
 30
0.0
 10
68.14950085101819
 20
-129.2617051543165
 30
0.0
 10
68.08180472473302
 20
-129.1914252064174
 30
0.0
 10
67.94434541487155
 20
-129.1914252064174
 30
0.0
 10
67.82583413017896
 20
-129.1914252064174
 30
0.0
 10
67.69457599219095
 20
-129.2682508357385
 30
0.0
 10
67.69457599219095
 20
-129.4787461698873
 30
0.0
 10
67.69457599219095
 20
-129.7567653755469
 30
0.0
 10
67.92522513492843
 20
-129.7657226238086
 30
0.0
 10
68.04166936232987
 20
-129.7702012479394
 30
0.0
 10
68.04166936232987
 20
-129.7702012479394
 30
0.0
 10
68.04166936232987
 20
-130.0099798937128
 30
0.0
 10
68.04166936232987
 20
-130.0099798937128
 30
0.0
 10
67.91471759369841
 20
-130.0006781359026
 30
0.0
 10
67.80257973565352
 20
-129.9896538303498
 30
0.0
 10
67.68406845096094
 20
-129.9035264432186
 30
0.0
 10
67.52335474657403
 20
-129.7860486871716
 30
0.0
 10
67.48942055604431
 20
-129.5872666776726
 30
0.0
 10
67.48942055604431
 20
-129.4628987306551
 30
0.0
 10
67.48942055604431
 20
-129.1666205189236
 30
0.0
 10
67.67356090973092
 20
-128.9451008792221
 30
0.0
 10
67.9464124721627
 20
-128.9451008792221
 30
0.0
 10
68.17482230283477
 20
-128.9451008792221
 30
0.0
 10
68.27438556235849
 20
-129.0694688262396
 30
0.0
 10
68.50072833573941
 20
-129.3995089737265
 30
0.0
  0
HATCH
  5
B9
330
B4
100
AcDbEntity
  8
_U+30EC_U+30A4_U+30E4_U+30FC 1
 62
     7
420
 16777215
100
AcDbHatch
 10
0.0
 20
0.0
 30
0.0
210
0.0
220
0.0
230
1.0
  2
SOLID
 70
     1
 71
     0
 91
        1
 92
        1
 93
        1
 72
     4
 94
        3
 73
     0
 74
     1
 95
       44
 96
       40
 40
0.0
 40
0.0
 40
0.0
 40
0.0
 40
1.0
 40
1.0
 40
1.0
 40
2.0
 40
2.0
 40
2.0
 40
3.0
 40
3.0
 40
3.0
 40
4.0
 40
4.0
 40
4.0
 40
5.0
 40
5.0
 40
5.0
 40
6.0
 40
6.0
 40
6.0
 40
7.0
 40
7.0
 40
7.0
 40
8.0
 40
8.0
 40
8.0
 40
9.0
 40
9.0
 40
9.0
 40
10.0
 40
10.0
 40
10.0
 40
11.0
 40
11.0
 40
11.0
 40
12.0
 40
12.0
 40
12.0
 40
13.0
 40
13.0
 40
13.0
 40
13.0
 10
68.50072833573941
 20
-129.3995089737265
 10
68.65937498283516
 20
-129.6323974285294
 10
68.73344453576803
 20
-129.7319606880531
 10
68.87727727227721
 20
-129.7836371203319
 10
68.87727727227721
 20
-129.7836371203319
 10
68.87727727227721
 20
-128.9519910701926
 10
68.87727727227721
 20
-128.9519910701926
 10
68.87727727227721
 20
-128.9519910701926
 10
69.08243270842384
 20
-128.9519910701926
 10
69.08243270842384
 20
-128.9519910701926
 10
69.08243270842384
 20
-128.9519910701926
 10
69.08243270842384
 20
-130.0506320204387
 10
69.08243270842384
 20
-130.0506320204387
 10
68.7248317970549
 20
-130.0165255751348
 10
68.64662812953974
 20
-129.9465901367842
 10
68.3482828605171
 20
-129.5352457358454
 10
68.14950085101819
 20
-129.2617051543165
 10
68.08180472473302
 20
-129.1914252064174
 10
67.94434541487155
 20
-129.1914252064174
 10
67.82583413017896
 20
-129.1914252064174
 10
67.69457599219095
 20
-129.2682508357385
 10
67.69457599219095
 20
-129.4787461698873
 10
67.69457599219095
 20
-129.7567653755469
 10
67.92522513492843
 20
-129.7657226238086
 10
68.04166936232987
 20
-129.7702012479394
 10
68.04166936232987
 20
-129.7702012479394
 10
68.04166936232987
 20
-130.0099798937128
 10
68.04166936232987
 20
-130.0099798937128
 10
67.91471759369841
 20
-130.0006781359026
 10
67.80257973565352
 20
-129.9896538303498
 10
67.68406845096094
 20
-129.9035264432186
 10
67.52335474657403
 20
-129.7860486871716
 10
67.48942055604431
 20
-129.5872666776726
 10
67.48942055604431
 20
-129.4628987306551
 10
67.48942055604431
 20
-129.1666205189236
 10
67.67356090973092
 20
-128.9451008792221
 10
67.9464124721627
 20
-128.9451008792221
 10
68.17482230283477
 20
-128.9451008792221
 10
68.27438556235849
 20
-129.0694688262396
 10
68.50072833573941
 20
-129.3995089737265
 97
        0
 97
        0
 75
     2
 76
     1
 98
        0
  0
SPLINE
  5
BA
330
B4
100
AcDbEntity
  8
_U+30EC_U+30A4_U+30E4_U+30FC 1
370
     0
100
AcDbSpline
210
0.0
220
0.0
230
1.0
 70
    11
 71
     3
 72
    44
 73
    40
 74
     0
 42
0.0000000001
 43
0.0000000001
 12
1.0
 22
0.0
 32
0.0
 13
1.0
 23
0.0
 33
0.0
 40
0.0
 40
0.0
 40
0.0
 40
0.0
 40
1.0
 40
1.0
 40
1.0
 40
2.0
 40
2.0
 40
2.0
 40
3.0
 40
3.0
 40
3.0
 40
4.0
 40
4.0
 40
4.0
 40
5.0
 40
5.0
 40
5.0
 40
6.0
 40
6.0
 40
6.0
 40
7.0
 40
7.0
 40
7.0
 40
8.0
 40
8.0
 40
8.0
 40
9.0
 40
9.0
 40
9.0
 40
10.0
 40
10.0
 40
10.0
 40
11.0
 40
11.0
 40
11.0
 40
12.0
 40
12.0
 40
12.0
 40
13.0
 40
13.0
 40
13.0
 40
13.0
 10
68.50072833573941
 20
-128.1415323572875
 30
0.0
 10
68.65937498283516
 20
-128.3744208120904
 30
0.0
 10
68.73344453576803
 20
-128.4739840716142
 30
0.0
 10
68.87727727227721
 20
-128.5260050134414
 30
0.0
 10
68.87727727227721
 20
-128.5260050134414
 30
0.0
 10
68.87727727227721
 20
-127.6936699442051
 30
0.0
 10
68.87727727227721
 20
-127.6936699442051
 30
0.0
 10
68.87727727227721
 20
-127.6936699442051
 30
0.0
 10
69.08243270842384
 20
-127.6936699442051
 30
0.0
 10
69.08243270842384
 20
-127.6936699442051
 30
0.0
 10
69.08243270842384
 20
-127.6936699442051
 30
0.0
 10
69.08243270842384
 20
-128.792827658774
 30
0.0
 10
69.08243270842384
 20
-128.792827658774
 30
0.0
 10
68.7248317970549
 20
-128.7585489586958
 30
0.0
 10
68.64662812953974
 20
-128.6886135203452
 30
0.0
 10
68.3482828605171
 20
-128.2772691194064
 30
0.0
 10
68.14950085101819
 20
-128.0037285378775
 30
0.0
 10
68.08180472473302
 20
-127.9334485899785
 30
0.0
 10
67.94434541487155
 20
-127.9334485899785
 30
0.0
 10
67.82583413017896
 20
-127.9334485899785
 30
0.0
 10
67.69457599219095
 20
-128.0102742192995
 30
0.0
 10
67.69457599219095
 20
-128.2207695534483
 30
0.0
 10
67.69457599219095
 20
-128.498788759108
 30
0.0
 10
67.92522513492843
 20
-128.5077460073696
 30
0.0
 10
68.04166936232987
 20
-128.5122246315004
 30
0.0
 10
68.04166936232987
 20
-128.5122246315004
 30
0.0
 10
68.04166936232987
 20
-128.7520032772738
 30
0.0
 10
68.04166936232987
 20
-128.7520032772738
 30
0.0
 10
67.91471759369841
 20
-128.7430460290122
 30
0.0
 10
67.80257973565352
 20
-128.7316772139108
 30
0.0
 10
67.68406845096094
 20
-128.6455498267796
 30
0.0
 10
67.52335474657403
 20
-128.5280720707326
 30
0.0
 10
67.48942055604431
 20
-128.3292900612336
 30
0.0
 10
67.48942055604431
 20
-128.2049221142161
 30
0.0
 10
67.48942055604431
 20
-127.9086439024847
 30
0.0
 10
67.67356090973092
 20
-127.6871242627831
 30
0.0
 10
67.9464124721627
 20
-127.6871242627831
 30
0.0
 10
68.17482230283477
 20
-127.6871242627831
 30
0.0
 10
68.27438556235849
 20
-127.8114922098006
 30
0.0
 10
68.50072833573941
 20
-128.1415323572875
 30
0.0
  0
HATCH
  5
BB
330
B4
100
AcDbEntity
  8
_U+30EC_U+30A4_U+30E4_U+30FC 1
 62
     7
420
 16777215
100
AcDbHatch
 10
0.0
 20
0.0
 30
0.0
210
0.0
220
0.0
230
1.0
  2
SOLID
 70
     1
 71
     0
 91
        1
 92
        1
 93
        1
 72
     4
 94
        3
 73
     0
 74
     1
 95
       44
 96
       40
 40
0.0
 40
0.0
 40
0.0
 40
0.0
 40
1.0
 40
1.0
 40
1.0
 40
2.0
 40
2.0
 40
2.0
 40
3.0
 40
3.0
 40
3.0
 40
4.0
 40
4.0
 40
4.0
 40
5.0
 40
5.0
 40
5.0
 40
6.0
 40
6.0
 40
6.0
 40
7.0
 40
7.0
 40
7.0
 40
8.0
 40
8.0
 40
8.0
 40
9.0
 40
9.0
 40
9.0
 40
10.0
 40
10.0
 40
10.0
 40
11.0
 40
11.0
 40
11.0
 40
12.0
 40
12.0
 40
12.0
 40
13.0
 40
13.0
 40
13.0
 40
13.0
 10
68.50072833573941
 20
-128.1415323572875
 10
68.65937498283516
 20
-128.3744208120904
 10
68.73344453576803
 20
-128.4739840716142
 10
68.87727727227721
 20
-128.5260050134414
 10
68.87727727227721
 20
-128.5260050134414
 10
68.87727727227721
 20
-127.6936699442051
 10
68.87727727227721
 20
-127.6936699442051
 10
68.87727727227721
 20
-127.6936699442051
 10
69.08243270842384
 20
-127.6936699442051
 10
69.08243270842384
 20
-127.6936699442051
 10
69.08243270842384
 20
-127.6936699442051
 10
69.08243270842384
 20
-128.792827658774
 10
69.08243270842384
 20
-128.792827658774
 10
68.7248317970549
 20
-128.7585489586958
 10
68.64662812953974
 20
-128.6886135203452
 10
68.3482828605171
 20
-128.2772691194064
 10
68.14950085101819
 20
-128.0037285378775
 10
68.08180472473302
 20
-127.9334485899785
 10
67.94434541487155
 20
-127.9334485899785
 10
67.82583413017896
 20
-127.9334485899785
 10
67.69457599219095
 20
-128.0102742192995
 10
67.69457599219095
 20
-128.2207695534483
 10
67.69457599219095
 20
-128.498788759108
 10
67.92522513492843
 20
-128.5077460073696
 10
68.04166936232987
 20
-128.5122246315004
 10
68.04166936232987
 20
-128.5122246315004
 10
68.04166936232987
 20
-128.7520032772738
 10
68.04166936232987
 20
-128.7520032772738
 10
67.91471759369841
 20
-128.7430460290122
 10
67.80257973565352
 20
-128.7316772139108
 10
67.68406845096094
 20
-128.6455498267796
 10
67.52335474657403
 20
-128.5280720707326
 10
67.48942055604431
 20
-128.3292900612336
 10
67.48942055604431
 20
-128.2049221142161
 10
67.48942055604431
 20
-127.9086439024847
 10
67.67356090973092
 20
-127.6871242627831
 10
67.9464124721627
 20
-127.6871242627831
 10
68.17482230283477
 20
-127.6871242627831
 10
68.27438556235849
 20
-127.8114922098006
 10
68.50072833573941
 20
-128.1415323572875
 97
        0
 97
        0
 75
     2
 76
     1
 98
        0
  0
ENDBLK
  5
B7
330
B4
100
AcDbEntity
  8
0
100
AcDbBlockEnd
  0
BLOCK
  5
C6
330
C4
100
AcDbEntity
  8
0
100
AcDbBlockBegin
  2
block 6
 70
     0
 10
0.0
 20
0.0
 30
0.0
  3
block 6
  1

  0
SPLINE
  5
C8
330
C4
100
AcDbEntity
  8
_U+30EC_U+30A4_U+30E4_U+30FC 1
370
     0
100
AcDbSpline
210
0.0
220
0.0
230
1.0
 70
    11
 71
     3
 72
    44
 73
    40
 74
     0
 42
0.0000000001
 43
0.0000000001
 12
1.0
 22
0.0
 32
0.0
 13
1.0
 23
0.0
 33
0.0
 40
0.0
 40
0.0
 40
0.0
 40
0.0
 40
1.0
 40
1.0
 40
1.0
 40
2.0
 40
2.0
 40
2.0
 40
3.0
 40
3.0
 40
3.0
 40
4.0
 40
4.0
 40
4.0
 40
5.0
 40
5.0
 40
5.0
 40
6.0
 40
6.0
 40
6.0
 40
7.0
 40
7.0
 40
7.0
 40
8.0
 40
8.0
 40
8.0
 40
9.0
 40
9.0
 40
9.0
 40
10.0
 40
10.0
 40
10.0
 40
11.0
 40
11.0
 40
11.0
 40
12.0
 40
12.0
 40
12.0
 40
13.0
 40
13.0
 40
13.0
 40
13.0
 10
84.14990232271253
 20
-142.6906873558204
 30
0.0
 10
83.91701386790965
 20
-142.8495062576904
 30
0.0
 10
83.81745060838593
 20
-142.9235758106233
 30
0.0
 10
83.76542966655865
 20
-143.0672362923582
 30
0.0
 10
83.76542966655865
 20
-143.0672362923582
 30
0.0
 10
84.59776473579501
 20
-143.0672362923582
 30
0.0
 10
84.59776473579501
 20
-143.0672362923582
 30
0.0
 10
84.59776473579501
 20
-143.0672362923582
 30
0.0
 10
84.59776473579501
 20
-143.2725639832791
 30
0.0
 10
84.59776473579501
 20
-143.2725639832791
 30
0.0
 10
84.59776473579501
 20
-143.2725639832791
 30
0.0
 10
83.4987792760003
 20
-143.2725639832791
 30
0.0
 10
83.4987792760003
 20
-143.2725639832791
 30
0.0
 10
83.53288572130428
 20
-142.9149630719102
 30
0.0
 10
83.60282115965485
 20
-142.836759404395
 30
0.0
 10
84.01416556059368
 20
-142.5384141353723
 30
0.0
 10
84.28770614212252
 20
-142.3396321258734
 30
0.0
 10
84.35798609002161
 20
-142.271763744814
 30
0.0
 10
84.35798609002161
 20
-142.1343044349526
 30
0.0
 10
84.35798609002161
 20
-142.01579315026
 30
0.0
 10
84.28116046070055
 20
-141.8848795218205
 30
0.0
 10
84.07066512655179
 20
-141.8848795218205
 30
0.0
 10
83.79264592089211
 20
-141.8848795218205
 30
0.0
 10
83.78368867263048
 20
-142.1153564097837
 30
0.0
 10
83.77921004849965
 20
-142.2318006371851
 30
0.0
 10
83.77921004849965
 20
-142.2318006371851
 30
0.0
 10
83.53943140272625
 20
-142.2318006371851
 30
0.0
 10
83.53943140272625
 20
-142.2318006371851
 30
0.0
 10
83.5483886509879
 20
-142.1046766137794
 30
0.0
 10
83.55975746608924
 20
-141.9927110105088
 30
0.0
 10
83.64588485322048
 20
-141.8741997258162
 30
0.0
 10
83.7633626092675
 20
-141.713313766655
 30
0.0
 10
83.96214461876642
 20
-141.6795518308996
 30
0.0
 10
84.08651256578393
 20
-141.6795518308996
 30
0.0
 10
84.38279077751541
 20
-141.6795518308996
 30
0.0
 10
84.60431041721698
 20
-141.8635199298119
 30
0.0
 10
84.60431041721698
 20
-142.1363714922437
 30
0.0
 10
84.60431041721698
 20
-142.3651258324643
 30
0.0
 10
84.47994247019946
 20
-142.4643445824395
 30
0.0
 10
84.14990232271253
 20
-142.6906873558204
 30
0.0
  0
HATCH
  5
C9
330
C4
100
AcDbEntity
  8
_U+30EC_U+30A4_U+30E4_U+30FC 1
 62
     7
420
 16777215
100
AcDbHatch
 10
0.0
 20
0.0
 30
0.0
210
0.0
220
0.0
230
1.0
  2
SOLID
 70
     1
 71
     0
 91
        1
 92
        1
 93
        1
 72
     4
 94
        3
 73
     0
 74
     1
 95
       44
 96
       40
 40
0.0
 40
0.0
 40
0.0
 40
0.0
 40
1.0
 40
1.0
 40
1.0
 40
2.0
 40
2.0
 40
2.0
 40
3.0
 40
3.0
 40
3.0
 40
4.0
 40
4.0
 40
4.0
 40
5.0
 40
5.0
 40
5.0
 40
6.0
 40
6.0
 40
6.0
 40
7.0
 40
7.0
 40
7.0
 40
8.0
 40
8.0
 40
8.0
 40
9.0
 40
9.0
 40
9.0
 40
10.0
 40
10.0
 40
10.0
 40
11.0
 40
11.0
 40
11.0
 40
12.0
 40
12.0
 40
12.0
 40
13.0
 40
13.0
 40
13.0
 40
13.0
 10
84.14990232271253
 20
-142.6906873558204
 10
83.91701386790965
 20
-142.8495062576904
 10
83.81745060838593
 20
-142.9235758106233
 10
83.76542966655865
 20
-143.0672362923582
 10
83.76542966655865
 20
-143.0672362923582
 10
84.59776473579501
 20
-143.0672362923582
 10
84.59776473579501
 20
-143.0672362923582
 10
84.59776473579501
 20
-143.0672362923582
 10
84.59776473579501
 20
-143.2725639832791
 10
84.59776473579501
 20
-143.2725639832791
 10
84.59776473579501
 20
-143.2725639832791
 10
83.4987792760003
 20
-143.2725639832791
 10
83.4987792760003
 20
-143.2725639832791
 10
83.53288572130428
 20
-142.9149630719102
 10
83.60282115965485
 20
-142.836759404395
 10
84.01416556059368
 20
-142.5384141353723
 10
84.28770614212252
 20
-142.3396321258734
 10
84.35798609002161
 20
-142.271763744814
 10
84.35798609002161
 20
-142.1343044349526
 10
84.35798609002161
 20
-142.01579315026
 10
84.28116046070055
 20
-141.8848795218205
 10
84.07066512655179
 20
-141.8848795218205
 10
83.79264592089211
 20
-141.8848795218205
 10
83.78368867263048
 20
-142.1153564097837
 10
83.77921004849965
 20
-142.2318006371851
 10
83.77921004849965
 20
-142.2318006371851
 10
83.53943140272625
 20
-142.2318006371851
 10
83.53943140272625
 20
-142.2318006371851
 10
83.5483886509879
 20
-142.1046766137794
 10
83.55975746608924
 20
-141.9927110105088
 10
83.64588485322048
 20
-141.8741997258162
 10
83.7633626092675
 20
-141.713313766655
 10
83.96214461876642
 20
-141.6795518308996
 10
84.08651256578393
 20
-141.6795518308996
 10
84.38279077751541
 20
-141.6795518308996
 10
84.60431041721698
 20
-141.8635199298119
 10
84.60431041721698
 20
-142.1363714922437
 10
84.60431041721698
 20
-142.3651258324643
 10
84.47994247019946
 20
-142.4643445824395
 10
84.14990232271253
 20
-142.6906873558204
 97
        0
 97
        0
 75
     2
 76
     1
 98
        0
  0
SPLINE
  5
CA
330
C4
100
AcDbEntity
  8
_U+30EC_U+30A4_U+30E4_U+30FC 1
370
     0
100
AcDbSpline
210
0.0
220
0.0
230
1.0
 70
    11
 71
     3
 72
    44
 73
    40
 74
     0
 42
0.0000000001
 43
0.0000000001
 12
1.0
 22
0.0
 32
0.0
 13
1.0
 23
0.0
 33
0.0
 40
0.0
 40
0.0
 40
0.0
 40
0.0
 40
1.0
 40
1.0
 40
1.0
 40
2.0
 40
2.0
 40
2.0
 40
3.0
 40
3.0
 40
3.0
 40
4.0
 40
4.0
 40
4.0
 40
5.0
 40
5.0
 40
5.0
 40
6.0
 40
6.0
 40
6.0
 40
7.0
 40
7.0
 40
7.0
 40
8.0
 40
8.0
 40
8.0
 40
9.0
 40
9.0
 40
9.0
 40
10.0
 40
10.0
 40
10.0
 40
11.0
 40
11.0
 40
11.0
 40
12.0
 40
12.0
 40
12.0
 40
13.0
 40
13.0
 40
13.0
 40
13.0
 10
85.40770668437725
 20
-142.6906873558204
 30
0.0
 10
85.17481822957436
 20
-142.8495062576904
 30
0.0
 10
85.07525497005064
 20
-142.9235758106233
 30
0.0
 10
85.02357853777188
 20
-143.0672362923582
 30
0.0
 10
85.02357853777188
 20
-143.0672362923582
 30
0.0
 10
85.8552245879112
 20
-143.0672362923582
 30
0.0
 10
85.8552245879112
 20
-143.0672362923582
 30
0.0
 10
85.8552245879112
 20
-143.0672362923582
 30
0.0
 10
85.8552245879112
 20
-143.2725639832791
 30
0.0
 10
85.8552245879112
 20
-143.2725639832791
 30
0.0
 10
85.8552245879112
 20
-143.2725639832791
 30
0.0
 10
84.75658363766503
 20
-143.2725639832791
 30
0.0
 10
84.75658363766503
 20
-143.2725639832791
 30
0.0
 10
84.790690082969
 20
-142.9149630719102
 30
0.0
 10
84.86062552131958
 20
-142.836759404395
 30
0.0
 10
85.2719699222584
 20
-142.5384141353723
 30
0.0
 10
85.54551050378724
 20
-142.3396321258734
 30
0.0
 10
85.61579045168634
 20
-142.271763744814
 30
0.0
 10
85.61579045168634
 20
-142.1343044349526
 30
0.0
 10
85.61579045168634
 20
-142.01579315026
 30
0.0
 10
85.53896482236526
 20
-141.8848795218205
 30
0.0
 10
85.3284694882165
 20
-141.8848795218205
 30
0.0
 10
85.05045028255684
 20
-141.8848795218205
 30
0.0
 10
85.04149303429519
 20
-142.1153564097837
 30
0.0
 10
85.03701441016436
 20
-142.2318006371851
 30
0.0
 10
85.03701441016436
 20
-142.2318006371851
 30
0.0
 10
84.79723576439098
 20
-142.2318006371851
 30
0.0
 10
84.79723576439098
 20
-142.2318006371851
 30
0.0
 10
84.80653752220115
 20
-142.1046766137794
 30
0.0
 10
84.81756182775395
 20
-141.9927110105088
 30
0.0
 10
84.90368921488519
 20
-141.8741997258162
 30
0.0
 10
85.02116697093221
 20
-141.713313766655
 30
0.0
 10
85.21994898043113
 20
-141.6795518308996
 30
0.0
 10
85.34431692744865
 20
-141.6795518308996
 30
0.0
 10
85.64059513918014
 20
-141.6795518308996
 30
0.0
 10
85.8621147788817
 20
-141.8635199298119
 30
0.0
 10
85.8621147788817
 20
-142.1363714922437
 30
0.0
 10
85.8621147788817
 20
-142.3651258324643
 30
0.0
 10
85.73774683186417
 20
-142.4643445824395
 30
0.0
 10
85.40770668437725
 20
-142.6906873558204
 30
0.0
  0
HATCH
  5
CB
330
C4
100
AcDbEntity
  8
_U+30EC_U+30A4_U+30E4_U+30FC 1
 62
     7
420
 16777215
100
AcDbHatch
 10
0.0
 20
0.0
 30
0.0
210
0.0
220
0.0
230
1.0
  2
SOLID
 70
     1
 71
     0
 91
        1
 92
        1
 93
        1
 72
     4
 94
        3
 73
     0
 74
     1
 95
       44
 96
       40
 40
0.0
 40
0.0
 40
0.0
 40
0.0
 40
1.0
 40
1.0
 40
1.0
 40
2.0
 40
2.0
 40
2.0
 40
3.0
 40
3.0
 40
3.0
 40
4.0
 40
4.0
 40
4.0
 40
5.0
 40
5.0
 40
5.0
 40
6.0
 40
6.0
 40
6.0
 40
7.0
 40
7.0
 40
7.0
 40
8.0
 40
8.0
 40
8.0
 40
9.0
 40
9.0
 40
9.0
 40
10.0
 40
10.0
 40
10.0
 40
11.0
 40
11.0
 40
11.0
 40
12.0
 40
12.0
 40
12.0
 40
13.0
 40
13.0
 40
13.0
 40
13.0
 10
85.40770668437725
 20
-142.6906873558204
 10
85.17481822957436
 20
-142.8495062576904
 10
85.07525497005064
 20
-142.9235758106233
 10
85.02357853777188
 20
-143.0672362923582
 10
85.02357853777188
 20
-143.0672362923582
 10
85.8552245879112
 20
-143.0672362923582
 10
85.8552245879112
 20
-143.0672362923582
 10
85.8552245879112
 20
-143.0672362923582
 10
85.8552245879112
 20
-143.2725639832791
 10
85.8552245879112
 20
-143.2725639832791
 10
85.8552245879112
 20
-143.2725639832791
 10
84.75658363766503
 20
-143.2725639832791
 10
84.75658363766503
 20
-143.2725639832791
 10
84.790690082969
 20
-142.9149630719102
 10
84.86062552131958
 20
-142.836759404395
 10
85.2719699222584
 20
-142.5384141353723
 10
85.54551050378724
 20
-142.3396321258734
 10
85.61579045168634
 20
-142.271763744814
 10
85.61579045168634
 20
-142.1343044349526
 10
85.61579045168634
 20
-142.01579315026
 10
85.53896482236526
 20
-141.8848795218205
 10
85.3284694882165
 20
-141.8848795218205
 10
85.05045028255684
 20
-141.8848795218205
 10
85.04149303429519
 20
-142.1153564097837
 10
85.03701441016436
 20
-142.2318006371851
 10
85.03701441016436
 20
-142.2318006371851
 10
84.79723576439098
 20
-142.2318006371851
 10
84.79723576439098
 20
-142.2318006371851
 10
84.80653752220115
 20
-142.1046766137794
 10
84.81756182775395
 20
-141.9927110105088
 10
84.90368921488519
 20
-141.8741997258162
 10
85.02116697093221
 20
-141.713313766655
 10
85.21994898043113
 20
-141.6795518308996
 10
85.34431692744865
 20
-141.6795518308996
 10
85.64059513918014
 20
-141.6795518308996
 10
85.8621147788817
 20
-141.8635199298119
 10
85.8621147788817
 20
-142.1363714922437
 10
85.8621147788817
 20
-142.3651258324643
 10
85.73774683186417
 20
-142.4643445824395
 10
85.40770668437725
 20
-142.6906873558204
 97
        0
 97
        0
 75
     2
 76
     1
 98
        0
  0
ENDBLK
  5
C7
330
C4
100
AcDbEntity
  8
0
100
AcDbBlockEnd
  0
BLOCK
  5
DA
330
D8
100
AcDbEntity
  8
0
100
AcDbBlockBegin
  2
block 7
 70
     0
 10
0.0
 20
0.0
 30
0.0
  3
block 7
  1

  0
SPLINE
  5
DC
330
D8
100
AcDbEntity
  8
_U+30EC_U+30A4_U+30E4_U+30FC 1
370
     0
100
AcDbSpline
210
0.0
220
0.0
230
1.0
 70
    11
 71
     3
 72
    26
 73
    22
 74
     0
 42
0.0000000001
 43
0.0000000001
 12
1.0
 22
0.0
 32
0.0
 13
1.0
 23
0.0
 33
0.0
 40
0.0
 40
0.0
 40
0.0
 40
0.0
 40
1.0
 40
1.0
 40
1.0
 40
2.0
 40
2.0
 40
2.0
 40
3.0
 40
3.0
 40
3.0
 40
4.0
 40
4.0
 40
4.0
 40
5.0
 40
5.0
 40
5.0
 40
6.0
 40
6.0
 40
6.0
 40
7.0
 40
7.0
 40
7.0
 40
7.0
 10
99.08266870352794
 20
-132.7226480787985
 30
0.0
 10
99.08266870352794
 20
-132.7226480787985
 30
0.0
 10
97.97851560050538
 20
-132.7226480787985
 30
0.0
 10
97.97851560050538
 20
-132.7226480787985
 30
0.0
 10
97.97851560050538
 20
-132.7226480787985
 30
0.0
 10
97.97851560050538
 20
-133.0750813469396
 30
0.0
 10
97.97851560050538
 20
-133.0750813469396
 30
0.0
 10
97.97851560050538
 20
-133.0750813469396
 30
0.0
 10
97.83037649463964
 20
-133.0750813469396
 30
0.0
 10
97.83037649463964
 20
-133.0750813469396
 30
0.0
 10
97.81556258405305
 20
-132.7202365119588
 30
0.0
 10
97.65260956760073
 20
-132.6706271369712
 30
0.0
 10
97.53823239749045
 20
-132.6389322585069
 30
0.0
 10
97.53823239749045
 20
-132.6389322585069
 30
0.0
 10
97.53823239749045
 20
-132.4828694330251
 30
0.0
 10
97.53823239749045
 20
-132.4828694330251
 30
0.0
 10
97.53823239749045
 20
-132.4828694330251
 30
0.0
 10
99.08266870352794
 20
-132.4828694330251
 30
0.0
 10
99.08266870352794
 20
-132.4828694330251
 30
0.0
 10
99.08266870352794
 20
-132.4828694330251
 30
0.0
 10
99.08266870352794
 20
-132.7226480787985
 30
0.0
 10
99.08266870352794
 20
-132.7226480787985
 30
0.0
  0
HATCH
  5
DD
330
D8
100
AcDbEntity
  8
_U+30EC_U+30A4_U+30E4_U+30FC 1
 62
     7
420
 16777215
100
AcDbHatch
 10
0.0
 20
0.0
 30
0.0
210
0.0
220
0.0
230
1.0
  2
SOLID
 70
     1
 71
     0
 91
        1
 92
        1
 93
        1
 72
     4
 94
        3
 73
     0
 74
     1
 95
       26
 96
       22
 40
0.0
 40
0.0
 40
0.0
 40
0.0
 40
1.0
 40
1.0
 40
1.0
 40
2.0
 40
2.0
 40
2.0
 40
3.0
 40
3.0
 40
3.0
 40
4.0
 40
4.0
 40
4.0
 40
5.0
 40
5.0
 40
5.0
 40
6.0
 40
6.0
 40
6.0
 40
7.0
 40
7.0
 40
7.0
 40
7.0
 10
99.08266870352794
 20
-132.7226480787985
 10
99.08266870352794
 20
-132.7226480787985
 10
97.97851560050538
 20
-132.7226480787985
 10
97.97851560050538
 20
-132.7226480787985
 10
97.97851560050538
 20
-132.7226480787985
 10
97.97851560050538
 20
-133.0750813469396
 10
97.97851560050538
 20
-133.0750813469396
 10
97.97851560050538
 20
-133.0750813469396
 10
97.83037649463964
 20
-133.0750813469396
 10
97.83037649463964
 20
-133.0750813469396
 10
97.81556258405305
 20
-132.7202365119588
 10
97.65260956760073
 20
-132.6706271369712
 10
97.53823239749045
 20
-132.6389322585069
 10
97.53823239749045
 20
-132.6389322585069
 10
97.53823239749045
 20
-132.4828694330251
 10
97.53823239749045
 20
-132.4828694330251
 10
97.53823239749045
 20
-132.4828694330251
 10
99.08266870352794
 20
-132.4828694330251
 10
99.08266870352794
 20
-132.4828694330251
 10
99.08266870352794
 20
-132.4828694330251
 10
99.08266870352794
 20
-132.7226480787985
 10
99.08266870352794
 20
-132.7226480787985
 97
        0
 97
        0
 75
     2
 76
     1
 98
        0
  0
SPLINE
  5
DE
330
D8
100
AcDbEntity
  8
_U+30EC_U+30A4_U+30E4_U+30FC 1
370
     0
100
AcDbSpline
210
0.0
220
0.0
230
1.0
 70
    11
 71
     3
 72
    53
 73
    49
 74
     0
 42
0.0000000001
 43
0.0000000001
 12
1.0
 22
0.0
 32
0.0
 13
1.0
 23
0.0
 33
0.0
 40
0.0
 40
0.0
 40
0.0
 40
0.0
 40
1.0
 40
1.0
 40
1.0
 40
2.0
 40
2.0
 40
2.0
 40
3.0
 40
3.0
 40
3.0
 40
4.0
 40
4.0
 40
4.0
 40
5.0
 40
5.0
 40
5.0
 40
6.0
 40
6.0
 40
6.0
 40
7.0
 40
7.0
 40
7.0
 40
8.0
 40
8.0
 40
8.0
 40
9.0
 40
9.0
 40
9.0
 40
10.0
 40
10.0
 40
10.0
 40
11.0
 40
11.0
 40
11.0
 40
12.0
 40
12.0
 40
12.0
 40
13.0
 40
13.0
 40
13.0
 40
14.0
 40
14.0
 40
14.0
 40
15.0
 40
15.0
 40
15.0
 40
16.0
 40
16.0
 40
16.0
 40
16.0
 10
99.13331160716112
 20
-131.4331488386695
 30
0.0
 10
99.13331160716112
 20
-131.5165201494125
 30
0.0
 10
99.1164306392834
 20
-131.6253851667464
 30
0.0
 10
99.0530408823548
 20
-131.7335611649833
 30
0.0
 10
98.94314233637533
 20
-131.9192518116382
 30
0.0
 10
98.81188419838732
 20
-131.9416449322924
 30
0.0
 10
98.70405270969898
 20
-131.9619709956553
 30
0.0
 10
98.70405270969898
 20
-131.9619709956553
 30
0.0
 10
98.70405270969898
 20
-131.7246039167216
 30
0.0
 10
98.70405270969898
 20
-131.7246039167216
 30
0.0
 10
98.90283471919791
 20
-131.6660372934724
 30
0.0
 10
98.93246254037105
 20
-131.5303005313535
 30
0.0
 10
98.93246254037105
 20
-131.4307372718298
 30
0.0
 10
98.93246254037105
 20
-131.2815646373185
 30
0.0
 10
98.83289928084733
 20
-131.1189561304147
 30
0.0
 10
98.60035533559297
 20
-131.1189561304147
 30
0.0
 10
98.34438474103891
 20
-131.1189561304147
 30
0.0
 10
98.27444930268834
 20
-131.3108479489431
 30
0.0
 10
98.27444930268834
 20
-131.4396945200915
 30
0.0
 10
98.27444930268834
 20
-131.4738009653954
 30
0.0
 10
98.27444930268834
 20
-131.6253851667464
 30
0.0
 10
98.40364038338521
 20
-131.7201252925908
 30
0.0
 10
98.40364038338521
 20
-131.7201252925908
 30
0.0
 10
98.38469235821633
 20
-131.9078829965369
 30
0.0
 10
98.38469235821633
 20
-131.9078829965369
 30
0.0
 10
98.38469235821633
 20
-131.9078829965369
 30
0.0
 10
97.53823239749045
 20
-131.7790364253886
 30
0.0
 10
97.53823239749045
 20
-131.7790364253886
 30
0.0
 10
97.53823239749045
 20
-131.7790364253886
 30
0.0
 10
97.53823239749045
 20
-130.9470458657007
 30
0.0
 10
97.53823239749045
 20
-130.9470458657007
 30
0.0
 10
97.53823239749045
 20
-130.9470458657007
 30
0.0
 10
97.73288029240706
 20
-130.9470458657007
 30
0.0
 10
97.73288029240706
 20
-130.9470458657007
 30
0.0
 10
97.73288029240706
 20
-130.9470458657007
 30
0.0
 10
97.73288029240706
 20
-131.6047145938349
 30
0.0
 10
97.73288029240706
 20
-131.6047145938349
 30
0.0
 10
97.73288029240706
 20
-131.6047145938349
 30
0.0
 10
98.15593801799574
 20
-131.674994541734
 30
0.0
 10
98.15593801799574
 20
-131.674994541734
 30
0.0
 10
98.12217608224029
 20
-131.6095377275143
 30
0.0
 10
98.08186846506287
 20
-131.5213432830919
 30
0.0
 10
98.08186846506287
 20
-131.3945637692347
 30
0.0
 10
98.08186846506287
 20
-131.1234347545455
 30
0.0
 10
98.26824813081488
 20
-130.8702202363797
 30
0.0
 10
98.5814073104241
 20
-130.8702202363797
 30
0.0
 10
98.89870060461561
 20
-130.8702202363797
 30
0.0
 10
99.13331160716112
 20
-131.1096543726045
 30
0.0
 10
99.13331160716112
 20
-131.4331488386695
 30
0.0
  0
HATCH
  5
DF
330
D8
100
AcDbEntity
  8
_U+30EC_U+30A4_U+30E4_U+30FC 1
 62
     7
420
 16777215
100
AcDbHatch
 10
0.0
 20
0.0
 30
0.0
210
0.0
220
0.0
230
1.0
  2
SOLID
 70
     1
 71
     0
 91
        1
 92
        1
 93
        1
 72
     4
 94
        3
 73
     0
 74
     1
 95
       53
 96
       49
 40
0.0
 40
0.0
 40
0.0
 40
0.0
 40
1.0
 40
1.0
 40
1.0
 40
2.0
 40
2.0
 40
2.0
 40
3.0
 40
3.0
 40
3.0
 40
4.0
 40
4.0
 40
4.0
 40
5.0
 40
5.0
 40
5.0
 40
6.0
 40
6.0
 40
6.0
 40
7.0
 40
7.0
 40
7.0
 40
8.0
 40
8.0
 40
8.0
 40
9.0
 40
9.0
 40
9.0
 40
10.0
 40
10.0
 40
10.0
 40
11.0
 40
11.0
 40
11.0
 40
12.0
 40
12.0
 40
12.0
 40
13.0
 40
13.0
 40
13.0
 40
14.0
 40
14.0
 40
14.0
 40
15.0
 40
15.0
 40
15.0
 40
16.0
 40
16.0
 40
16.0
 40
16.0
 10
99.13331160716112
 20
-131.4331488386695
 10
99.13331160716112
 20
-131.5165201494125
 10
99.1164306392834
 20
-131.6253851667464
 10
99.0530408823548
 20
-131.7335611649833
 10
98.94314233637533
 20
-131.9192518116382
 10
98.81188419838732
 20
-131.9416449322924
 10
98.70405270969898
 20
-131.9619709956553
 10
98.70405270969898
 20
-131.9619709956553
 10
98.70405270969898
 20
-131.7246039167216
 10
98.70405270969898
 20
-131.7246039167216
 10
98.90283471919791
 20
-131.6660372934724
 10
98.93246254037105
 20
-131.5303005313535
 10
98.93246254037105
 20
-131.4307372718298
 10
98.93246254037105
 20
-131.2815646373185
 10
98.83289928084733
 20
-131.1189561304147
 10
98.60035533559297
 20
-131.1189561304147
 10
98.34438474103891
 20
-131.1189561304147
 10
98.27444930268834
 20
-131.3108479489431
 10
98.27444930268834
 20
-131.4396945200915
 10
98.27444930268834
 20
-131.4738009653954
 10
98.27444930268834
 20
-131.6253851667464
 10
98.40364038338521
 20
-131.7201252925908
 10
98.40364038338521
 20
-131.7201252925908
 10
98.38469235821633
 20
-131.9078829965369
 10
98.38469235821633
 20
-131.9078829965369
 10
98.38469235821633
 20
-131.9078829965369
 10
97.53823239749045
 20
-131.7790364253886
 10
97.53823239749045
 20
-131.7790364253886
 10
97.53823239749045
 20
-131.7790364253886
 10
97.53823239749045
 20
-130.9470458657007
 10
97.53823239749045
 20
-130.9470458657007
 10
97.53823239749045
 20
-130.9470458657007
 10
97.73288029240706
 20
-130.9470458657007
 10
97.73288029240706
 20
-130.9470458657007
 10
97.73288029240706
 20
-130.9470458657007
 10
97.73288029240706
 20
-131.6047145938349
 10
97.73288029240706
 20
-131.6047145938349
 10
97.73288029240706
 20
-131.6047145938349
 10
98.15593801799574
 20
-131.674994541734
 10
98.15593801799574
 20
-131.674994541734
 10
98.12217608224029
 20
-131.6095377275143
 10
98.08186846506287
 20
-131.5213432830919
 10
98.08186846506287
 20
-131.3945637692347
 10
98.08186846506287
 20
-131.1234347545455
 10
98.26824813081488
 20
-130.8702202363797
 10
98.5814073104241
 20
-130.8702202363797
 10
98.89870060461561
 20
-130.8702202363797
 10
99.13331160716112
 20
-131.1096543726045
 10
99.13331160716112
 20
-131.4331488386695
 97
        0
 97
        0
 75
     2
 76
     1
 98
        0
  0
POLYLINE
  5
E0
330
D8
100
AcDbEntity
  8
_U+30EC_U+30A4_U+30E4_U+30FC 1
370
     0
100
AcDb2dPolyline
 66
     1
 10
0.0
 20
0.0
 30
0.0
  0
VERTEX
  5
E1
330
E0
100
AcDbEntity
  8
_U+30EC_U+30A4_U+30E4_U+30FC 1
370
     0
100
AcDbVertex
100
AcDb2dVertex
 10
99.08266870352794
 20
-130.6252739473784
 30
0.0
  0
VERTEX
  5
E2
330
E0
100
AcDbEntity
  8
_U+30EC_U+30A4_U+30E4_U+30FC 1
370
     0
100
AcDbVertex
100
AcDb2dVertex
 10
98.83083222355619
 20
-130.6252739473784
 30
0.0
  0
VERTEX
  5
E3
330
E0
100
AcDbEntity
  8
_U+30EC_U+30A4_U+30E4_U+30FC 1
370
     0
100
AcDbVertex
100
AcDb2dVertex
 10
98.83083222355619
 20
-130.3562119899804
 30
0.0
  0
VERTEX
  5
E4
330
E0
100
AcDbEntity
  8
_U+30EC_U+30A4_U+30E4_U+30FC 1
370
     0
100
AcDbVertex
100
AcDb2dVertex
 10
99.08266870352794
 20
-130.3562119899804
 30
0.0
  0
VERTEX
  5
E5
330
E0
100
AcDbEntity
  8
_U+30EC_U+30A4_U+30E4_U+30FC 1
370
     0
100
AcDbVertex
100
AcDb2dVertex
 10
99.08266870352794
 20
-130.6252739473784
 30
0.0
  0
SEQEND
  5
E6
330
E0
100
AcDbEntity
  8
_U+30EC_U+30A4_U+30E4_U+30FC 1
370
     0
  0
HATCH
  5
E7
330
D8
100
AcDbEntity
  8
_U+30EC_U+30A4_U+30E4_U+30FC 1
 62
     7
420
 16777215
100
AcDbHatch
 10
0.0
 20
0.0
 30
0.0
210
0.0
220
0.0
230
1.0
  2
SOLID
 70
     1
 71
     0
 91
        1
 92
        1
 93
        4
 72
     1
 10
99.08266870352794
 20
-130.6252739473784
 11
98.83083222355619
 21
-130.6252739473784
 72
     1
 10
98.83083222355619
 20
-130.6252739473784
 11
98.83083222355619
 21
-130.3562119899804
 72
     1
 10
98.83083222355619
 20
-130.3562119899804
 11
99.08266870352794
 21
-130.3562119899804
 72
     1
 10
99.08266870352794
 20
-130.3562119899804
 11
99.08266870352794
 21
-130.6252739473784
 97
        0
 75
     2
 76
     1
 98
        0
  0
SPLINE
  5
E8
330
D8
100
AcDbEntity
  8
_U+30EC_U+30A4_U+30E4_U+30FC 1
370
     0
100
AcDbSpline
210
0.0
220
0.0
230
1.0
 70
    11
 71
     3
 72
    53
 73
    49
 74
     0
 42
0.0000000001
 43
0.0000000001
 12
1.0
 22
0.0
 32
0.0
 13
1.0
 23
0.0
 33
0.0
 40
0.0
 40
0.0
 40
0.0
 40
0.0
 40
1.0
 40
1.0
 40
1.0
 40
2.0
 40
2.0
 40
2.0
 40
3.0
 40
3.0
 40
3.0
 40
4.0
 40
4.0
 40
4.0
 40
5.0
 40
5.0
 40
5.0
 40
6.0
 40
6.0
 40
6.0
 40
7.0
 40
7.0
 40
7.0
 40
8.0
 40
8.0
 40
8.0
 40
9.0
 40
9.0
 40
9.0
 40
10.0
 40
10.0
 40
10.0
 40
11.0
 40
11.0
 40
11.0
 40
12.0
 40
12.0
 40
12.0
 40
13.0
 40
13.0
 40
13.0
 40
14.0
 40
14.0
 40
14.0
 40
15.0
 40
15.0
 40
15.0
 40
16.0
 40
16.0
 40
16.0
 40
16.0
 10
99.13331160716112
 20
-129.5893337349638
 30
0.0
 10
99.13331160716112
 20
-129.6727050457068
 30
0.0
 10
99.1164306392834
 20
-129.7815700630407
 30
0.0
 10
99.0530408823548
 20
-129.8897460612776
 30
0.0
 10
98.94314233637533
 20
-130.0754367079325
 30
0.0
 10
98.81188419838732
 20
-130.0978298285867
 30
0.0
 10
98.70405270969898
 20
-130.1181558919496
 30
0.0
 10
98.70405270969898
 20
-130.1181558919496
 30
0.0
 10
98.70405270969898
 20
-129.8807888130159
 30
0.0
 10
98.70405270969898
 20
-129.8807888130159
 30
0.0
 10
98.90283471919791
 20
-129.8222221897667
 30
0.0
 10
98.93246254037105
 20
-129.6864854276478
 30
0.0
 10
98.93246254037105
 20
-129.5869221681241
 30
0.0
 10
98.93246254037105
 20
-129.4377495336128
 30
0.0
 10
98.83289928084733
 20
-129.275141026709
 30
0.0
 10
98.60035533559297
 20
-129.275141026709
 30
0.0
 10
98.34438474103891
 20
-129.275141026709
 30
0.0
 10
98.27444930268834
 20
-129.4670328452374
 30
0.0
 10
98.27444930268834
 20
-129.5958794163858
 30
0.0
 10
98.27444930268834
 20
-129.6299858616897
 30
0.0
 10
98.27444930268834
 20
-129.7815700630407
 30
0.0
 10
98.40364038338521
 20
-129.8763101888851
 30
0.0
 10
98.40364038338521
 20
-129.8763101888851
 30
0.0
 10
98.38469235821633
 20
-130.0640678928312
 30
0.0
 10
98.38469235821633
 20
-130.0640678928312
 30
0.0
 10
98.38469235821633
 20
-130.0640678928312
 30
0.0
 10
97.53823239749045
 20
-129.9352213216829
 30
0.0
 10
97.53823239749045
 20
-129.9352213216829
 30
0.0
 10
97.53823239749045
 20
-129.9352213216829
 30
0.0
 10
97.53823239749045
 20
-129.103230761995
 30
0.0
 10
97.53823239749045
 20
-129.103230761995
 30
0.0
 10
97.53823239749045
 20
-129.103230761995
 30
0.0
 10
97.73288029240706
 20
-129.103230761995
 30
0.0
 10
97.73288029240706
 20
-129.103230761995
 30
0.0
 10
97.73288029240706
 20
-129.103230761995
 30
0.0
 10
97.73288029240706
 20
-129.7608994901292
 30
0.0
 10
97.73288029240706
 20
-129.7608994901292
 30
0.0
 10
97.73288029240706
 20
-129.7608994901292
 30
0.0
 10
98.15593801799574
 20
-129.8311794380283
 30
0.0
 10
98.15593801799574
 20
-129.8311794380283
 30
0.0
 10
98.12217608224029
 20
-129.7657226238086
 30
0.0
 10
98.08186846506287
 20
-129.6775281793862
 30
0.0
 10
98.08186846506287
 20
-129.550748665529
 30
0.0
 10
98.08186846506287
 20
-129.2796196508398
 30
0.0
 10
98.26824813081488
 20
-129.026405132674
 30
0.0
 10
98.5814073104241
 20
-129.026405132674
 30
0.0
 10
98.89870060461561
 20
-129.026405132674
 30
0.0
 10
99.13331160716112
 20
-129.2658392688988
 30
0.0
 10
99.13331160716112
 20
-129.5893337349638
 30
0.0
  0
HATCH
  5
E9
330
D8
100
AcDbEntity
  8
_U+30EC_U+30A4_U+30E4_U+30FC 1
 62
     7
420
 16777215
100
AcDbHatch
 10
0.0
 20
0.0
 30
0.0
210
0.0
220
0.0
230
1.0
  2
SOLID
 70
     1
 71
     0
 91
        1
 92
        1
 93
        1
 72
     4
 94
        3
 73
     0
 74
     1
 95
       53
 96
       49
 40
0.0
 40
0.0
 40
0.0
 40
0.0
 40
1.0
 40
1.0
 40
1.0
 40
2.0
 40
2.0
 40
2.0
 40
3.0
 40
3.0
 40
3.0
 40
4.0
 40
4.0
 40
4.0
 40
5.0
 40
5.0
 40
5.0
 40
6.0
 40
6.0
 40
6.0
 40
7.0
 40
7.0
 40
7.0
 40
8.0
 40
8.0
 40
8.0
 40
9.0
 40
9.0
 40
9.0
 40
10.0
 40
10.0
 40
10.0
 40
11.0
 40
11.0
 40
11.0
 40
12.0
 40
12.0
 40
12.0
 40
13.0
 40
13.0
 40
13.0
 40
14.0
 40
14.0
 40
14.0
 40
15.0
 40
15.0
 40
15.0
 40
16.0
 40
16.0
 40
16.0
 40
16.0
 10
99.13331160716112
 20
-129.5893337349638
 10
99.13331160716112
 20
-129.6727050457068
 10
99.1164306392834
 20
-129.7815700630407
 10
99.0530408823548
 20
-129.8897460612776
 10
98.94314233637533
 20
-130.0754367079325
 10
98.81188419838732
 20
-130.0978298285867
 10
98.70405270969898
 20
-130.1181558919496
 10
98.70405270969898
 20
-130.1181558919496
 10
98.70405270969898
 20
-129.8807888130159
 10
98.70405270969898
 20
-129.8807888130159
 10
98.90283471919791
 20
-129.8222221897667
 10
98.93246254037105
 20
-129.6864854276478
 10
98.93246254037105
 20
-129.5869221681241
 10
98.93246254037105
 20
-129.4377495336128
 10
98.83289928084733
 20
-129.275141026709
 10
98.60035533559297
 20
-129.275141026709
 10
98.34438474103891
 20
-129.275141026709
 10
98.27444930268834
 20
-129.4670328452374
 10
98.27444930268834
 20
-129.5958794163858
 10
98.27444930268834
 20
-129.6299858616897
 10
98.27444930268834
 20
-129.7815700630407
 10
98.40364038338521
 20
-129.8763101888851
 10
98.40364038338521
 20
-129.8763101888851
 10
98.38469235821633
 20
-130.0640678928312
 10
98.38469235821633
 20
-130.0640678928312
 10
98.38469235821633
 20
-130.0640678928312
 10
97.53823239749045
 20
-129.9352213216829
 10
97.53823239749045
 20
-129.9352213216829
 10
97.53823239749045
 20
-129.9352213216829
 10
97.53823239749045
 20
-129.103230761995
 10
97.53823239749045
 20
-129.103230761995
 10
97.53823239749045
 20
-129.103230761995
 10
97.73288029240706
 20
-129.103230761995
 10
97.73288029240706
 20
-129.103230761995
 10
97.73288029240706
 20
-129.103230761995
 10
97.73288029240706
 20
-129.7608994901292
 10
97.73288029240706
 20
-129.7608994901292
 10
97.73288029240706
 20
-129.7608994901292
 10
98.15593801799574
 20
-129.8311794380283
 10
98.15593801799574
 20
-129.8311794380283
 10
98.12217608224029
 20
-129.7657226238086
 10
98.08186846506287
 20
-129.6775281793862
 10
98.08186846506287
 20
-129.550748665529
 10
98.08186846506287
 20
-129.2796196508398
 10
98.26824813081488
 20
-129.026405132674
 10
98.5814073104241
 20
-129.026405132674
 10
98.89870060461561
 20
-129.026405132674
 10
99.13331160716112
 20
-129.2658392688988
 10
99.13331160716112
 20
-129.5893337349638
 97
        0
 97
        0
 75
     2
 76
     1
 98
        0
  0
ENDBLK
  5
DB
330
D8
100
AcDbEntity
  8
0
100
AcDbBlockEnd
  0
BLOCK
  5
F9
330
F7
100
AcDbEntity
  8
0
100
AcDbBlockBegin
  2
block 8
 70
     0
 10
0.0
 20
0.0
 30
0.0
  3
block 8
  1

  0
SPLINE
  5
FB
330
F7
100
AcDbEntity
  8
_U+30EC_U+30A4_U+30E4_U+30FC 1
370
     0
100
AcDbSpline
210
0.0
220
0.0
230
1.0
 70
    11
 71
     3
 72
    17
 73
    13
 74
     0
 42
0.0000000001
 43
0.0000000001
 12
1.0
 22
0.0
 32
0.0
 13
1.0
 23
0.0
 33
0.0
 40
0.0
 40
0.0
 40
0.0
 40
0.0
 40
1.0
 40
1.0
 40
1.0
 40
2.0
 40
2.0
 40
2.0
 40
3.0
 40
3.0
 40
3.0
 40
4.0
 40
4.0
 40
4.0
 40
4.0
 10
100.8186523185453
 20
-141.9324218395169
 30
0.0
 10
100.7132323966967
 20
-141.8266574081197
 30
0.0
 10
100.6326171623418
 20
-141.788761357782
 30
0.0
 10
100.5395995842401
 20
-141.7567219697692
 30
0.0
 10
100.5395995842401
 20
-141.7567219697692
 30
0.0
 10
100.6494981302196
 20
-141.5917018960257
 30
0.0
 10
100.6494981302196
 20
-141.5917018960257
 30
0.0
 10
100.7469943324521
 20
-141.6340765704943
 30
0.0
 10
100.8675726744359
 20
-141.712624747558
 30
0.0
 10
100.9202826353602
 20
-141.7674017657734
 30
0.0
 10
100.9202826353602
 20
-141.7674017657734
 30
0.0
 10
100.8186523185453
 20
-141.9324218395169
 30
0.0
 10
100.8186523185453
 20
-141.9324218395169
 30
0.0
  0
SPLINE
  5
FC
330
F7
100
AcDbEntity
  8
_U+30EC_U+30A4_U+30E4_U+30FC 1
370
     0
100
AcDbSpline
210
0.0
220
0.0
230
1.0
 70
    11
 71
     3
 72
   182
 73
   178
 74
     0
 42
0.0000000001
 43
0.0000000001
 12
1.0
 22
0.0
 32
0.0
 13
1.0
 23
0.0
 33
0.0
 40
0.0
 40
0.0
 40
0.0
 40
0.0
 40
1.0
 40
1.0
 40
1.0
 40
2.0
 40
2.0
 40
2.0
 40
3.0
 40
3.0
 40
3.0
 40
4.0
 40
4.0
 40
4.0
 40
5.0
 40
5.0
 40
5.0
 40
6.0
 40
6.0
 40
6.0
 40
7.0
 40
7.0
 40
7.0
 40
8.0
 40
8.0
 40
8.0
 40
9.0
 40
9.0
 40
9.0
 40
10.0
 40
10.0
 40
10.0
 40
11.0
 40
11.0
 40
11.0
 40
12.0
 40
12.0
 40
12.0
 40
13.0
 40
13.0
 40
13.0
 40
14.0
 40
14.0
 40
14.0
 40
15.0
 40
15.0
 40
15.0
 40
16.0
 40
16.0
 40
16.0
 40
17.0
 40
17.0
 40
17.0
 40
18.0
 40
18.0
 40
18.0
 40
19.0
 40
19.0
 40
19.0
 40
20.0
 40
20.0
 40
20.0
 40
21.0
 40
21.0
 40
21.0
 40
22.0
 40
22.0
 40
22.0
 40
23.0
 40
23.0
 40
23.0
 40
24.0
 40
24.0
 40
24.0
 40
25.0
 40
25.0
 40
25.0
 40
26.0
 40
26.0
 40
26.0
 40
27.0
 40
27.0
 40
27.0
 40
28.0
 40
28.0
 40
28.0
 40
29.0
 40
29.0
 40
29.0
 40
30.0
 40
30.0
 40
30.0
 40
31.0
 40
31.0
 40
31.0
 40
32.0
 40
32.0
 40
32.0
 40
33.0
 40
33.0
 40
33.0
 40
34.0
 40
34.0
 40
34.0
 40
35.0
 40
35.0
 40
35.0
 40
36.0
 40
36.0
 40
36.0
 40
37.0
 40
37.0
 40
37.0
 40
38.0
 40
38.0
 40
38.0
 40
39.0
 40
39.0
 40
39.0
 40
40.0
 40
40.0
 40
40.0
 40
41.0
 40
41.0
 40
41.0
 40
42.0
 40
42.0
 40
42.0
 40
43.0
 40
43.0
 40
43.0
 40
44.0
 40
44.0
 40
44.0
 40
45.0
 40
45.0
 40
45.0
 40
46.0
 40
46.0
 40
46.0
 40
47.0
 40
47.0
 40
47.0
 40
48.0
 40
48.0
 40
48.0
 40
49.0
 40
49.0
 40
49.0
 40
50.0
 40
50.0
 40
50.0
 40
51.0
 40
51.0
 40
51.0
 40
52.0
 40
52.0
 40
52.0
 40
53.0
 40
53.0
 40
53.0
 40
54.0
 40
54.0
 40
54.0
 40
55.0
 40
55.0
 40
55.0
 40
56.0
 40
56.0
 40
56.0
 40
57.0
 40
57.0
 40
57.0
 40
58.0
 40
58.0
 40
58.0
 40
59.0
 40
59.0
 40
59.0
 40
59.0
 10
101.8638942887701
 20
-143.1106444954723
 30
0.0
 10
101.8638942887701
 20
-143.1106444954723
 30
0.0
 10
101.227240643096
 20
-143.1106444954723
 30
0.0
 10
101.227240643096
 20
-143.1106444954723
 30
0.0
 10
101.013300213462
 20
-143.1106444954723
 30
0.0
 10
100.7976372360853
 20
-143.1151231196032
 30
0.0
 10
100.5836968064513
 20
-143.1278699728986
 30
0.0
 10
100.5836968064513
 20
-143.1278699728986
 30
0.0
 10
100.5836968064513
 20
-142.9204752246866
 30
0.0
 10
100.5836968064513
 20
-142.9204752246866
 30
0.0
 10
100.8062499747984
 20
-142.933222077982
 30
0.0
 10
101.1297444408634
 20
-142.9373561925643
 30
0.0
 10
101.227240643096
 20
-142.9373561925643
 30
0.0
 10
101.227240643096
 20
-142.9373561925643
 30
0.0
 10
101.4470377350549
 20
-142.9373561925643
 30
0.0
 10
101.4470377350549
 20
-142.9373561925643
 30
0.0
 10
101.4470377350549
 20
-142.9373561925643
 30
0.0
 10
101.4470377350549
 20
-142.7957627681205
 30
0.0
 10
101.4470377350549
 20
-142.7957627681205
 30
0.0
 10
101.4470377350549
 20
-142.7957627681205
 30
0.0
 10
101.2864962854423
 20
-142.7957627681205
 30
0.0
 10
101.2864962854423
 20
-142.7957627681205
 30
0.0
 10
101.1211317021503
 20
-142.7957627681205
 30
0.0
 10
100.9564561379553
 20
-142.7998968827028
 30
0.0
 10
100.7910915546633
 20
-142.8147107932894
 30
0.0
 10
100.7910915546633
 20
-142.8147107932894
 30
0.0
 10
100.7910915546633
 20
-142.6052489877862
 30
0.0
 10
100.7910915546633
 20
-142.6052489877862
 30
0.0
 10
100.9626573098288
 20
-142.6200628983728
 30
0.0
 10
101.2100151656697
 20
-142.6241970129551
 30
0.0
 10
101.2864962854423
 20
-142.6241970129551
 30
0.0
 10
101.2864962854423
 20
-142.6241970129551
 30
0.0
 10
101.4470377350549
 20
-142.6241970129551
 30
0.0
 10
101.4470377350549
 20
-142.6241970129551
 30
0.0
 10
101.4429036204726
 20
-142.5521945173134
 30
0.0
 10
101.4429036204726
 20
-142.5459933454399
 30
0.0
 10
101.4367024485992
 20
-142.4929388749671
 30
0.0
 10
101.4367024485992
 20
-142.4929388749671
 30
0.0
 10
101.5758843062032
 20
-142.5077527855536
 30
0.0
 10
101.5758843062032
 20
-142.5077527855536
 30
0.0
 10
101.5758843062032
 20
-142.5077527855536
 30
0.0
 10
101.4766655562281
 20
-142.3365315399367
 30
0.0
 10
101.4766655562281
 20
-142.3365315399367
 30
0.0
 10
101.5231743452789
 20
-142.3427327118102
 30
0.0
 10
101.5972438982118
 20
-142.3513454505233
 30
0.0
 10
101.6141248660895
 20
-142.3513454505233
 30
0.0
 10
101.6647677697227
 20
-142.3513454505233
 30
0.0
 10
101.681993247149
 20
-142.3303303680632
 30
0.0
 10
101.681993247149
 20
-142.2731417830081
 30
0.0
 10
101.681993247149
 20
-142.2731417830081
 30
0.0
 10
101.681993247149
 20
-142.1356824731466
 30
0.0
 10
101.681993247149
 20
-142.1356824731466
 30
0.0
 10
101.681993247149
 20
-142.1356824731466
 30
0.0
 10
101.5758843062032
 20
-142.1356824731466
 30
0.0
 10
101.5758843062032
 20
-142.1356824731466
 30
0.0
 10
101.4429036204726
 20
-142.1356824731466
 30
0.0
 10
101.2864962854423
 20
-142.1356824731466
 30
0.0
 10
101.1635063766189
 20
-142.1480848168935
 30
0.0
 10
101.1635063766189
 20
-142.1480848168935
 30
0.0
 10
101.1635063766189
 20
-141.9579155461078
 30
0.0
 10
101.1635063766189
 20
-141.9579155461078
 30
0.0
 10
101.3305935076535
 20
-141.9747965139855
 30
0.0
 10
101.5614149051652
 20
-141.9768635712766
 30
0.0
 10
101.5758843062032
 20
-141.9768635712766
 30
0.0
 10
101.5758843062032
 20
-141.9768635712766
 30
0.0
 10
101.681993247149
 20
-141.9768635712766
 30
0.0
 10
101.681993247149
 20
-141.9768635712766
 30
0.0
 10
101.681993247149
 20
-141.9768635712766
 30
0.0
 10
101.681993247149
 20
-141.8456054332886
 30
0.0
 10
101.681993247149
 20
-141.8456054332886
 30
0.0
 10
101.681993247149
 20
-141.8456054332886
 30
0.0
 10
101.6437526872627
 20
-141.8456054332886
 30
0.0
 10
101.6437526872627
 20
-141.8456054332886
 30
0.0
 10
101.599310955503
 20
-141.8456054332886
 30
0.0
 10
101.4745984989369
 20
-141.8500840574194
 30
0.0
 10
101.3857150354175
 20
-141.858352286584
 30
0.0
 10
101.3857150354175
 20
-141.858352286584
 30
0.0
 10
101.3857150354175
 20
-141.7780815617777
 30
0.0
 10
101.3857150354175
 20
-141.7780815617777
 30
0.0
 10
101.3326605649446
 20
-141.8159776121155
 30
0.0
 10
101.3075113679023
 20
-141.830791522702
 30
0.0
 10
101.2651366934337
 20
-141.8542181720017
 30
0.0
 10
101.2651366934337
 20
-141.8542181720017
 30
0.0
 10
101.0770344799391
 20
-141.7250270913049
 30
0.0
 10
101.0770344799391
 20
-141.7250270913049
 30
0.0
 10
101.1548936379057
 20
-141.6912651555494
 30
0.0
 10
101.3116454824846
 20
-141.6278753986208
 30
0.0
 10
101.4683973270635
 20
-141.4838704073374
 30
0.0
 10
101.5507351091609
 20
-141.4056667398222
 30
0.0
 10
101.6289387766761
 20
-141.3209173908851
 30
0.0
 10
101.681993247149
 20
-141.2196315836187
 30
0.0
 10
101.681993247149
 20
-141.2196315836187
 30
0.0
 10
101.8935221099433
 20
-141.2809542832562
 30
0.0
 10
101.8935221099433
 20
-141.2809542832562
 30
0.0
 10
101.9124701351122
 20
-141.2871554551296
 30
0.0
 10
101.9231499311164
 20
-141.2957681938427
 30
0.0
 10
101.9231499311164
 20
-141.3085150471381
 30
0.0
 10
101.9231499311164
 20
-141.3253960150159
 30
0.0
 10
101.910403077821
 20
-141.3315971868893
 30
0.0
 10
101.8849093712302
 20
-141.3443440401848
 30
0.0
 10
101.9651800960365
 20
-141.4418402424173
 30
0.0
 10
102.1284776220373
 20
-141.5389919351014
 30
0.0
 10
102.1622395577928
 20
-141.5579399602702
 30
0.0
 10
102.3124457209497
 20
-141.6468234237897
 30
0.0
 10
102.4264783815114
 20
-141.6743841876717
 30
0.0
 10
102.5046820490266
 20
-141.6933322128406
 30
0.0
 10
102.5046820490266
 20
-141.6933322128406
 30
0.0
 10
102.386170764334
 20
-141.8624864011663
 30
0.0
 10
102.386170764334
 20
-141.8624864011663
 30
0.0
 10
102.3017659249454
 20
-141.8332030895417
 30
0.0
 10
102.2511230213122
 20
-141.8139105548243
 30
0.0
 10
102.1326117366196
 20
-141.7484537406046
 30
0.0
 10
102.1326117366196
 20
-141.7484537406046
 30
0.0
 10
102.1326117366196
 20
-141.858352286584
 30
0.0
 10
102.1326117366196
 20
-141.858352286584
 30
0.0
 10
102.0499294449736
 20
-141.8500840574194
 30
0.0
 10
101.9231499311164
 20
-141.8456054332886
 30
0.0
 10
101.8700954606436
 20
-141.8456054332886
 30
0.0
 10
101.8700954606436
 20
-141.8456054332886
 30
0.0
 10
101.8700954606436
 20
-141.9768635712766
 30
0.0
 10
101.8700954606436
 20
-141.9768635712766
 30
0.0
 10
101.8700954606436
 20
-141.9768635712766
 30
0.0
 10
101.9906738026273
 20
-141.9768635712766
 30
0.0
 10
101.9906738026273
 20
-141.9768635712766
 30
0.0
 10
101.9927408599185
 20
-141.9768635712766
 30
0.0
 10
102.2256293147214
 20
-141.9747965139855
 30
0.0
 10
102.4033962417603
 20
-141.9579155461078
 30
0.0
 10
102.4033962417603
 20
-141.9579155461078
 30
0.0
 10
102.4033962417603
 20
-142.1480848168935
 30
0.0
 10
102.4033962417603
 20
-142.1480848168935
 30
0.0
 10
102.2742051610634
 20
-142.1356824731466
 30
0.0
 10
102.1174533164845
 20
-142.1356824731466
 30
0.0
 10
101.9906738026273
 20
-142.1356824731466
 30
0.0
 10
101.9906738026273
 20
-142.1356824731466
 30
0.0
 10
101.8700954606436
 20
-142.1356824731466
 30
0.0
 10
101.8700954606436
 20
-142.1356824731466
 30
0.0
 10
101.8700954606436
 20
-142.1356824731466
 30
0.0
 10
101.8700954606436
 20
-142.3620252465276
 30
0.0
 10
101.8700954606436
 20
-142.3620252465276
 30
0.0
 10
101.8700954606436
 20
-142.4805365312201
 30
0.0
 10
101.8446017540527
 20
-142.5163655242667
 30
0.0
 10
101.6840603044401
 20
-142.5311794348533
 30
0.0
 10
101.6881944190224
 20
-142.5501274600222
 30
0.0
 10
101.681993247149
 20
-142.5608072560265
 30
0.0
 10
101.6437526872627
 20
-142.5838893957776
 30
0.0
 10
101.6416856299715
 20
-142.6031819304951
 30
0.0
 10
101.6416856299715
 20
-142.6093831023685
 30
0.0
 10
101.6396185726804
 20
-142.6241970129551
 30
0.0
 10
101.6396185726804
 20
-142.6241970129551
 30
0.0
 10
101.7770778825418
 20
-142.6241970129551
 30
0.0
 10
101.7770778825418
 20
-142.6241970129551
 30
0.0
 10
101.9420979562853
 20
-142.6241970129551
 30
0.0
 10
102.1091850873199
 20
-142.6200628983728
 30
0.0
 10
102.2762722183545
 20
-142.6052489877862
 30
0.0
 10
102.2762722183545
 20
-142.6052489877862
 30
0.0
 10
102.2762722183545
 20
-142.8126437359982
 30
0.0
 10
102.2762722183545
 20
-142.8126437359982
 30
0.0
 10
102.0606092409779
 20
-142.7957627681205
 30
0.0
 10
101.7963704172592
 20
-142.7957627681205
 30
0.0
 10
101.7770778825418
 20
-142.7957627681205
 30
0.0
 10
101.7770778825418
 20
-142.7957627681205
 30
0.0
 10
101.6372070058407
 20
-142.7957627681205
 30
0.0
 10
101.6372070058407
 20
-142.7957627681205
 30
0.0
 10
101.6372070058407
 20
-142.7957627681205
 30
0.0
 10
101.6372070058407
 20
-142.9373561925643
 30
0.0
 10
101.6372070058407
 20
-142.9373561925643
 30
0.0
 10
101.6372070058407
 20
-142.9373561925643
 30
0.0
 10
101.8638942887701
 20
-142.9373561925643
 30
0.0
 10
101.8638942887701
 20
-142.9373561925643
 30
0.0
 10
102.0795572661468
 20
-142.9373561925643
 30
0.0
 10
102.2972873008146
 20
-142.933222077982
 30
0.0
 10
102.5132947877397
 20
-142.9204752246866
 30
0.0
 10
102.5132947877397
 20
-142.9204752246866
 30
0.0
 10
102.5132947877397
 20
-143.1278699728986
 30
0.0
 10
102.5132947877397
 20
-143.1278699728986
 30
0.0
 10
102.2318304865948
 20
-143.1106444954723
 30
0.0
 10
101.8873209380698
 20
-143.1106444954723
 30
0.0
 10
101.8638942887701
 20
-143.1106444954723
 30
0.0
  0
SPLINE
  5
FD
330
F7
100
AcDbEntity
  8
_U+30EC_U+30A4_U+30E4_U+30FC 1
370
     0
100
AcDbSpline
210
0.0
220
0.0
230
1.0
 70
    11
 71
     3
 72
    23
 73
    19
 74
     0
 42
0.0000000001
 43
0.0000000001
 12
1.0
 22
0.0
 32
0.0
 13
1.0
 23
0.0
 33
0.0
 40
0.0
 40
0.0
 40
0.0
 40
0.0
 40
1.0
 40
1.0
 40
1.0
 40
2.0
 40
2.0
 40
2.0
 40
3.0
 40
3.0
 40
3.0
 40
4.0
 40
4.0
 40
4.0
 40
5.0
 40
5.0
 40
5.0
 40
6.0
 40
6.0
 40
6.0
 40
6.0
 10
100.744927275161
 20
-142.4826035885113
 30
0.0
 10
100.744927275161
 20
-142.5036186709713
 30
0.0
 10
100.7469943324521
 20
-142.5418592308576
 30
0.0
 10
100.7215006258613
 20
-142.5418592308576
 30
0.0
 10
100.710820829857
 20
-142.5418592308576
 30
0.0
 10
100.7022080911439
 20
-142.5353135494356
 30
0.0
 10
100.6918728046881
 20
-142.5184325815579
 30
0.0
 10
100.6918728046881
 20
-142.5184325815579
 30
0.0
 10
100.5881754305821
 20
-142.3365315399367
 30
0.0
 10
100.5881754305821
 20
-142.3365315399367
 30
0.0
 10
100.8041829175073
 20
-142.2073404592398
 30
0.0
 10
101.0005533601665
 20
-141.9303547822257
 30
0.0
 10
101.0474066587659
 20
-141.858352286584
 30
0.0
 10
101.0474066587659
 20
-141.858352286584
 30
0.0
 10
101.1190646448591
 20
-142.0381862709141
 30
0.0
 10
101.1190646448591
 20
-142.0381862709141
 30
0.0
 10
100.9860839591285
 20
-142.2349012231218
 30
0.0
 10
100.8103840893807
 20
-142.4188693220342
 30
0.0
 10
100.744927275161
 20
-142.4826035885113
 30
0.0
  0
SPLINE
  5
FE
330
F7
100
AcDbEntity
  8
_U+30EC_U+30A4_U+30E4_U+30FC 1
370
     0
100
AcDbSpline
210
0.0
220
0.0
230
1.0
 70
    11
 71
     3
 72
    17
 73
    13
 74
     0
 42
0.0000000001
 43
0.0000000001
 12
1.0
 22
0.0
 32
0.0
 13
1.0
 23
0.0
 33
0.0
 40
0.0
 40
0.0
 40
0.0
 40
0.0
 40
1.0
 40
1.0
 40
1.0
 40
2.0
 40
2.0
 40
2.0
 40
3.0
 40
3.0
 40
3.0
 40
4.0
 40
4.0
 40
4.0
 40
4.0
 10
100.9984863028754
 20
-141.5875677814434
 30
0.0
 10
100.9371636032379
 20
-141.5114311712194
 30
0.0
 10
100.8083170320896
 20
-141.4352945609953
 30
0.0
 10
100.704275148435
 20
-141.4056667398222
 30
0.0
 10
100.704275148435
 20
-141.4056667398222
 30
0.0
 10
100.7997042933765
 20
-141.2406466660787
 30
0.0
 10
100.7997042933765
 20
-141.2406466660787
 30
0.0
 10
100.9013346101913
 20
-141.2768201686739
 30
0.0
 10
101.0070990415885
 20
-141.3336642441805
 30
0.0
 10
101.0956379955594
 20
-141.4142794785353
 30
0.0
 10
101.0956379955594
 20
-141.4142794785353
 30
0.0
 10
100.9984863028754
 20
-141.5875677814434
 30
0.0
 10
100.9984863028754
 20
-141.5875677814434
 30
0.0
  0
SPLINE
  5
FF
330
F7
100
AcDbEntity
  8
_U+30EC_U+30A4_U+30E4_U+30FC 1
370
     0
100
AcDbSpline
210
0.0
220
0.0
230
1.0
 70
    11
 71
     3
 72
    23
 73
    19
 74
     0
 42
0.0000000001
 43
0.0000000001
 12
1.0
 22
0.0
 32
0.0
 13
1.0
 23
0.0
 33
0.0
 40
0.0
 40
0.0
 40
0.0
 40
0.0
 40
1.0
 40
1.0
 40
1.0
 40
2.0
 40
2.0
 40
2.0
 40
3.0
 40
3.0
 40
3.0
 40
4.0
 40
4.0
 40
4.0
 40
5.0
 40
5.0
 40
5.0
 40
6.0
 40
6.0
 40
6.0
 40
6.0
 10
101.4511718496372
 20
-142.292089808177
 30
0.0
 10
101.4301567671772
 20
-142.3155164574767
 30
0.0
 10
101.3326605649446
 20
-142.4274820607473
 30
0.0
 10
101.193134197792
 20
-142.5077527855536
 30
0.0
 10
101.193134197792
 20
-142.5077527855536
 30
0.0
 10
101.0260470667574
 20
-142.3871744435699
 30
0.0
 10
101.0260470667574
 20
-142.3871744435699
 30
0.0
 10
101.1762532299143
 20
-142.3110378333459
 30
0.0
 10
101.2754719798895
 20
-142.215953197953
 30
0.0
 10
101.32439233578
 20
-142.1628987274801
 30
0.0
 10
101.32439233578
 20
-142.1628987274801
 30
0.0
 10
101.4980251482366
 20
-142.2455810191261
 30
0.0
 10
101.4980251482366
 20
-142.2455810191261
 30
0.0
 10
101.5062933774012
 20
-142.2497151337084
 30
0.0
 10
101.5145616065658
 20
-142.2562608151304
 30
0.0
 10
101.5145616065658
 20
-142.2665961015861
 30
0.0
 10
101.5145616065658
 20
-142.292089808177
 30
0.0
 10
101.4787326135192
 20
-142.292089808177
 30
0.0
 10
101.4511718496372
 20
-142.292089808177
 30
0.0
  0
SPLINE
  5
100
330
F7
100
AcDbEntity
  8
_U+30EC_U+30A4_U+30E4_U+30FC 1
370
     0
100
AcDbSpline
210
0.0
220
0.0
230
1.0
 70
    11
 71
     3
 72
    20
 73
    16
 74
     0
 42
0.0000000001
 43
0.0000000001
 12
1.0
 22
0.0
 32
0.0
 13
1.0
 23
0.0
 33
0.0
 40
0.0
 40
0.0
 40
0.0
 40
0.0
 40
1.0
 40
1.0
 40
1.0
 40
2.0
 40
2.0
 40
2.0
 40
3.0
 40
3.0
 40
3.0
 40
4.0
 40
4.0
 40
4.0
 40
5.0
 40
5.0
 40
5.0
 40
5.0
 10
101.7495171186599
 20
-141.4501084715819
 30
0.0
 10
101.7116210683221
 20
-141.498684317924
 30
0.0
 10
101.6502983686847
 20
-141.5772324949876
 30
0.0
 10
101.5104274919835
 20
-141.6871310409671
 30
0.0
 10
101.5910427263384
 20
-141.6912651555494
 30
0.0
 10
101.6206705475115
 20
-141.6912651555494
 30
0.0
 10
101.6437526872627
 20
-141.6912651555494
 30
0.0
 10
101.6437526872627
 20
-141.6912651555494
 30
0.0
 10
101.8721625179347
 20
-141.6912651555494
 30
0.0
 10
101.8721625179347
 20
-141.6912651555494
 30
0.0
 10
101.903857396399
 20
-141.6912651555494
 30
0.0
 10
101.9527777522896
 20
-141.6891980982583
 30
0.0
 10
102.0265027956739
 20
-141.6871310409671
 30
0.0
 10
101.9145371924033
 20
-141.6130614880342
 30
0.0
 10
101.8659613460613
 20
-141.5665526989834
 30
0.0
 10
101.7495171186599
 20
-141.4501084715819
 30
0.0
  0
SPLINE
  5
101
330
F7
100
AcDbEntity
  8
_U+30EC_U+30A4_U+30E4_U+30FC 1
370
     0
100
AcDbSpline
210
0.0
220
0.0
230
1.0
 70
    11
 71
     3
 72
    17
 73
    13
 74
     0
 42
0.0000000001
 43
0.0000000001
 12
1.0
 22
0.0
 32
0.0
 13
1.0
 23
0.0
 33
0.0
 40
0.0
 40
0.0
 40
0.0
 40
0.0
 40
1.0
 40
1.0
 40
1.0
 40
2.0
 40
2.0
 40
2.0
 40
3.0
 40
3.0
 40
3.0
 40
4.0
 40
4.0
 40
4.0
 40
4.0
 10
102.3103786636585
 20
-142.5056857282625
 30
0.0
 10
102.1746419015397
 20
-142.3937201249919
 30
0.0
 10
102.069221979691
 20
-142.3303303680632
 30
0.0
 10
101.9507106949984
 20
-142.2665961015861
 30
0.0
 10
101.9507106949984
 20
-142.2665961015861
 30
0.0
 10
102.0774902088556
 20
-142.1546304983155
 30
0.0
 10
102.0774902088556
 20
-142.1546304983155
 30
0.0
 10
102.2084038372951
 20
-142.2011392873664
 30
0.0
 10
102.3186468928231
 20
-142.2583278724215
 30
0.0
 10
102.4433593493892
 20
-142.3599581892364
 30
0.0
 10
102.4433593493892
 20
-142.3599581892364
 30
0.0
 10
102.3103786636585
 20
-142.5056857282625
 30
0.0
 10
102.3103786636585
 20
-142.5056857282625
 30
0.0
  0
HATCH
  5
102
330
F7
100
AcDbEntity
  8
_U+30EC_U+30A4_U+30E4_U+30FC 1
 62
   179
420
  2234388
100
AcDbHatch
 10
0.0
 20
0.0
 30
0.0
210
0.0
220
0.0
230
1.0
  2
SOLID
 70
     1
 71
     0
 91
        7
 92
        1
 93
        1
 72
     4
 94
        3
 73
     0
 74
     1
 95
       17
 96
       13
 40
0.0
 40
0.0
 40
0.0
 40
0.0
 40
1.0
 40
1.0
 40
1.0
 40
2.0
 40
2.0
 40
2.0
 40
3.0
 40
3.0
 40
3.0
 40
4.0
 40
4.0
 40
4.0
 40
4.0
 10
100.8186523185453
 20
-141.9324218395169
 10
100.7132323966967
 20
-141.8266574081197
 10
100.6326171623418
 20
-141.788761357782
 10
100.5395995842401
 20
-141.7567219697692
 10
100.5395995842401
 20
-141.7567219697692
 10
100.6494981302196
 20
-141.5917018960257
 10
100.6494981302196
 20
-141.5917018960257
 10
100.7469943324521
 20
-141.6340765704943
 10
100.8675726744359
 20
-141.712624747558
 10
100.9202826353602
 20
-141.7674017657734
 10
100.9202826353602
 20
-141.7674017657734
 10
100.8186523185453
 20
-141.9324218395169
 10
100.8186523185453
 20
-141.9324218395169
 97
        0
 97
        0
 92
        1
 93
        1
 72
     4
 94
        3
 73
     0
 74
     1
 95
      182
 96
      178
 40
0.0
 40
0.0
 40
0.0
 40
0.0
 40
1.0
 40
1.0
 40
1.0
 40
2.0
 40
2.0
 40
2.0
 40
3.0
 40
3.0
 40
3.0
 40
4.0
 40
4.0
 40
4.0
 40
5.0
 40
5.0
 40
5.0
 40
6.0
 40
6.0
 40
6.0
 40
7.0
 40
7.0
 40
7.0
 40
8.0
 40
8.0
 40
8.0
 40
9.0
 40
9.0
 40
9.0
 40
10.0
 40
10.0
 40
10.0
 40
11.0
 40
11.0
 40
11.0
 40
12.0
 40
12.0
 40
12.0
 40
13.0
 40
13.0
 40
13.0
 40
14.0
 40
14.0
 40
14.0
 40
15.0
 40
15.0
 40
15.0
 40
16.0
 40
16.0
 40
16.0
 40
17.0
 40
17.0
 40
17.0
 40
18.0
 40
18.0
 40
18.0
 40
19.0
 40
19.0
 40
19.0
 40
20.0
 40
20.0
 40
20.0
 40
21.0
 40
21.0
 40
21.0
 40
22.0
 40
22.0
 40
22.0
 40
23.0
 40
23.0
 40
23.0
 40
24.0
 40
24.0
 40
24.0
 40
25.0
 40
25.0
 40
25.0
 40
26.0
 40
26.0
 40
26.0
 40
27.0
 40
27.0
 40
27.0
 40
28.0
 40
28.0
 40
28.0
 40
29.0
 40
29.0
 40
29.0
 40
30.0
 40
30.0
 40
30.0
 40
31.0
 40
31.0
 40
31.0
 40
32.0
 40
32.0
 40
32.0
 40
33.0
 40
33.0
 40
33.0
 40
34.0
 40
34.0
 40
34.0
 40
35.0
 40
35.0
 40
35.0
 40
36.0
 40
36.0
 40
36.0
 40
37.0
 40
37.0
 40
37.0
 40
38.0
 40
38.0
 40
38.0
 40
39.0
 40
39.0
 40
39.0
 40
40.0
 40
40.0
 40
40.0
 40
41.0
 40
41.0
 40
41.0
 40
42.0
 40
42.0
 40
42.0
 40
43.0
 40
43.0
 40
43.0
 40
44.0
 40
44.0
 40
44.0
 40
45.0
 40
45.0
 40
45.0
 40
46.0
 40
46.0
 40
46.0
 40
47.0
 40
47.0
 40
47.0
 40
48.0
 40
48.0
 40
48.0
 40
49.0
 40
49.0
 40
49.0
 40
50.0
 40
50.0
 40
50.0
 40
51.0
 40
51.0
 40
51.0
 40
52.0
 40
52.0
 40
52.0
 40
53.0
 40
53.0
 40
53.0
 40
54.0
 40
54.0
 40
54.0
 40
55.0
 40
55.0
 40
55.0
 40
56.0
 40
56.0
 40
56.0
 40
57.0
 40
57.0
 40
57.0
 40
58.0
 40
58.0
 40
58.0
 40
59.0
 40
59.0
 40
59.0
 40
59.0
 10
101.8638942887701
 20
-143.1106444954723
 10
101.8638942887701
 20
-143.1106444954723
 10
101.227240643096
 20
-143.1106444954723
 10
101.227240643096
 20
-143.1106444954723
 10
101.013300213462
 20
-143.1106444954723
 10
100.7976372360853
 20
-143.1151231196032
 10
100.5836968064513
 20
-143.1278699728986
 10
100.5836968064513
 20
-143.1278699728986
 10
100.5836968064513
 20
-142.9204752246866
 10
100.5836968064513
 20
-142.9204752246866
 10
100.8062499747984
 20
-142.933222077982
 10
101.1297444408634
 20
-142.9373561925643
 10
101.227240643096
 20
-142.9373561925643
 10
101.227240643096
 20
-142.9373561925643
 10
101.4470377350549
 20
-142.9373561925643
 10
101.4470377350549
 20
-142.9373561925643
 10
101.4470377350549
 20
-142.9373561925643
 10
101.4470377350549
 20
-142.7957627681205
 10
101.4470377350549
 20
-142.7957627681205
 10
101.4470377350549
 20
-142.7957627681205
 10
101.2864962854423
 20
-142.7957627681205
 10
101.2864962854423
 20
-142.7957627681205
 10
101.1211317021503
 20
-142.7957627681205
 10
100.9564561379553
 20
-142.7998968827028
 10
100.7910915546633
 20
-142.8147107932894
 10
100.7910915546633
 20
-142.8147107932894
 10
100.7910915546633
 20
-142.6052489877862
 10
100.7910915546633
 20
-142.6052489877862
 10
100.9626573098288
 20
-142.6200628983728
 10
101.2100151656697
 20
-142.6241970129551
 10
101.2864962854423
 20
-142.6241970129551
 10
101.2864962854423
 20
-142.6241970129551
 10
101.4470377350549
 20
-142.6241970129551
 10
101.4470377350549
 20
-142.6241970129551
 10
101.4429036204726
 20
-142.5521945173134
 10
101.4429036204726
 20
-142.5459933454399
 10
101.4367024485992
 20
-142.4929388749671
 10
101.4367024485992
 20
-142.4929388749671
 10
101.5758843062032
 20
-142.5077527855536
 10
101.5758843062032
 20
-142.5077527855536
 10
101.5758843062032
 20
-142.5077527855536
 10
101.4766655562281
 20
-142.3365315399367
 10
101.4766655562281
 20
-142.3365315399367
 10
101.5231743452789
 20
-142.3427327118102
 10
101.5972438982118
 20
-142.3513454505233
 10
101.6141248660895
 20
-142.3513454505233
 10
101.6647677697227
 20
-142.3513454505233
 10
101.681993247149
 20
-142.3303303680632
 10
101.681993247149
 20
-142.2731417830081
 10
101.681993247149
 20
-142.2731417830081
 10
101.681993247149
 20
-142.1356824731466
 10
101.681993247149
 20
-142.1356824731466
 10
101.681993247149
 20
-142.1356824731466
 10
101.5758843062032
 20
-142.1356824731466
 10
101.5758843062032
 20
-142.1356824731466
 10
101.4429036204726
 20
-142.1356824731466
 10
101.2864962854423
 20
-142.1356824731466
 10
101.1635063766189
 20
-142.1480848168935
 10
101.1635063766189
 20
-142.1480848168935
 10
101.1635063766189
 20
-141.9579155461078
 10
101.1635063766189
 20
-141.9579155461078
 10
101.3305935076535
 20
-141.9747965139855
 10
101.5614149051652
 20
-141.9768635712766
 10
101.5758843062032
 20
-141.9768635712766
 10
101.5758843062032
 20
-141.9768635712766
 10
101.681993247149
 20
-141.9768635712766
 10
101.681993247149
 20
-141.9768635712766
 10
101.681993247149
 20
-141.9768635712766
 10
101.681993247149
 20
-141.8456054332886
 10
101.681993247149
 20
-141.8456054332886
 10
101.681993247149
 20
-141.8456054332886
 10
101.6437526872627
 20
-141.8456054332886
 10
101.6437526872627
 20
-141.8456054332886
 10
101.599310955503
 20
-141.8456054332886
 10
101.4745984989369
 20
-141.8500840574194
 10
101.3857150354175
 20
-141.858352286584
 10
101.3857150354175
 20
-141.858352286584
 10
101.3857150354175
 20
-141.7780815617777
 10
101.3857150354175
 20
-141.7780815617777
 10
101.3326605649446
 20
-141.8159776121155
 10
101.3075113679023
 20
-141.830791522702
 10
101.2651366934337
 20
-141.8542181720017
 10
101.2651366934337
 20
-141.8542181720017
 10
101.0770344799391
 20
-141.7250270913049
 10
101.0770344799391
 20
-141.7250270913049
 10
101.1548936379057
 20
-141.6912651555494
 10
101.3116454824846
 20
-141.6278753986208
 10
101.4683973270635
 20
-141.4838704073374
 10
101.5507351091609
 20
-141.4056667398222
 10
101.6289387766761
 20
-141.3209173908851
 10
101.681993247149
 20
-141.2196315836187
 10
101.681993247149
 20
-141.2196315836187
 10
101.8935221099433
 20
-141.2809542832562
 10
101.8935221099433
 20
-141.2809542832562
 10
101.9124701351122
 20
-141.2871554551296
 10
101.9231499311164
 20
-141.2957681938427
 10
101.9231499311164
 20
-141.3085150471381
 10
101.9231499311164
 20
-141.3253960150159
 10
101.910403077821
 20
-141.3315971868893
 10
101.8849093712302
 20
-141.3443440401848
 10
101.9651800960365
 20
-141.4418402424173
 10
102.1284776220373
 20
-141.5389919351014
 10
102.1622395577928
 20
-141.5579399602702
 10
102.3124457209497
 20
-141.6468234237897
 10
102.4264783815114
 20
-141.6743841876717
 10
102.5046820490266
 20
-141.6933322128406
 10
102.5046820490266
 20
-141.6933322128406
 10
102.386170764334
 20
-141.8624864011663
 10
102.386170764334
 20
-141.8624864011663
 10
102.3017659249454
 20
-141.8332030895417
 10
102.2511230213122
 20
-141.8139105548243
 10
102.1326117366196
 20
-141.7484537406046
 10
102.1326117366196
 20
-141.7484537406046
 10
102.1326117366196
 20
-141.858352286584
 10
102.1326117366196
 20
-141.858352286584
 10
102.0499294449736
 20
-141.8500840574194
 10
101.9231499311164
 20
-141.8456054332886
 10
101.8700954606436
 20
-141.8456054332886
 10
101.8700954606436
 20
-141.8456054332886
 10
101.8700954606436
 20
-141.9768635712766
 10
101.8700954606436
 20
-141.9768635712766
 10
101.8700954606436
 20
-141.9768635712766
 10
101.9906738026273
 20
-141.9768635712766
 10
101.9906738026273
 20
-141.9768635712766
 10
101.9927408599185
 20
-141.9768635712766
 10
102.2256293147214
 20
-141.9747965139855
 10
102.4033962417603
 20
-141.9579155461078
 10
102.4033962417603
 20
-141.9579155461078
 10
102.4033962417603
 20
-142.1480848168935
 10
102.4033962417603
 20
-142.1480848168935
 10
102.2742051610634
 20
-142.1356824731466
 10
102.1174533164845
 20
-142.1356824731466
 10
101.9906738026273
 20
-142.1356824731466
 10
101.9906738026273
 20
-142.1356824731466
 10
101.8700954606436
 20
-142.1356824731466
 10
101.8700954606436
 20
-142.1356824731466
 10
101.8700954606436
 20
-142.1356824731466
 10
101.8700954606436
 20
-142.3620252465276
 10
101.8700954606436
 20
-142.3620252465276
 10
101.8700954606436
 20
-142.4805365312201
 10
101.8446017540527
 20
-142.5163655242667
 10
101.6840603044401
 20
-142.5311794348533
 10
101.6881944190224
 20
-142.5501274600222
 10
101.681993247149
 20
-142.5608072560265
 10
101.6437526872627
 20
-142.5838893957776
 10
101.6416856299715
 20
-142.6031819304951
 10
101.6416856299715
 20
-142.6093831023685
 10
101.6396185726804
 20
-142.6241970129551
 10
101.6396185726804
 20
-142.6241970129551
 10
101.7770778825418
 20
-142.6241970129551
 10
101.7770778825418
 20
-142.6241970129551
 10
101.9420979562853
 20
-142.6241970129551
 10
102.1091850873199
 20
-142.6200628983728
 10
102.2762722183545
 20
-142.6052489877862
 10
102.2762722183545
 20
-142.6052489877862
 10
102.2762722183545
 20
-142.8126437359982
 10
102.2762722183545
 20
-142.8126437359982
 10
102.0606092409779
 20
-142.7957627681205
 10
101.7963704172592
 20
-142.7957627681205
 10
101.7770778825418
 20
-142.7957627681205
 10
101.7770778825418
 20
-142.7957627681205
 10
101.6372070058407
 20
-142.7957627681205
 10
101.6372070058407
 20
-142.7957627681205
 10
101.6372070058407
 20
-142.7957627681205
 10
101.6372070058407
 20
-142.9373561925643
 10
101.6372070058407
 20
-142.9373561925643
 10
101.6372070058407
 20
-142.9373561925643
 10
101.8638942887701
 20
-142.9373561925643
 10
101.8638942887701
 20
-142.9373561925643
 10
102.0795572661468
 20
-142.9373561925643
 10
102.2972873008146
 20
-142.933222077982
 10
102.5132947877397
 20
-142.9204752246866
 10
102.5132947877397
 20
-142.9204752246866
 10
102.5132947877397
 20
-143.1278699728986
 10
102.5132947877397
 20
-143.1278699728986
 10
102.2318304865948
 20
-143.1106444954723
 10
101.8873209380698
 20
-143.1106444954723
 10
101.8638942887701
 20
-143.1106444954723
 97
        0
 97
        0
 92
        1
 93
        1
 72
     4
 94
        3
 73
     0
 74
     1
 95
       23
 96
       19
 40
0.0
 40
0.0
 40
0.0
 40
0.0
 40
1.0
 40
1.0
 40
1.0
 40
2.0
 40
2.0
 40
2.0
 40
3.0
 40
3.0
 40
3.0
 40
4.0
 40
4.0
 40
4.0
 40
5.0
 40
5.0
 40
5.0
 40
6.0
 40
6.0
 40
6.0
 40
6.0
 10
100.744927275161
 20
-142.4826035885113
 10
100.744927275161
 20
-142.5036186709713
 10
100.7469943324521
 20
-142.5418592308576
 10
100.7215006258613
 20
-142.5418592308576
 10
100.710820829857
 20
-142.5418592308576
 10
100.7022080911439
 20
-142.5353135494356
 10
100.6918728046881
 20
-142.5184325815579
 10
100.6918728046881
 20
-142.5184325815579
 10
100.5881754305821
 20
-142.3365315399367
 10
100.5881754305821
 20
-142.3365315399367
 10
100.8041829175073
 20
-142.2073404592398
 10
101.0005533601665
 20
-141.9303547822257
 10
101.0474066587659
 20
-141.858352286584
 10
101.0474066587659
 20
-141.858352286584
 10
101.1190646448591
 20
-142.0381862709141
 10
101.1190646448591
 20
-142.0381862709141
 10
100.9860839591285
 20
-142.2349012231218
 10
100.8103840893807
 20
-142.4188693220342
 10
100.744927275161
 20
-142.4826035885113
 97
        0
 97
        0
 92
        1
 93
        1
 72
     4
 94
        3
 73
     0
 74
     1
 95
       17
 96
       13
 40
0.0
 40
0.0
 40
0.0
 40
0.0
 40
1.0
 40
1.0
 40
1.0
 40
2.0
 40
2.0
 40
2.0
 40
3.0
 40
3.0
 40
3.0
 40
4.0
 40
4.0
 40
4.0
 40
4.0
 10
100.9984863028754
 20
-141.5875677814434
 10
100.9371636032379
 20
-141.5114311712194
 10
100.8083170320896
 20
-141.4352945609953
 10
100.704275148435
 20
-141.4056667398222
 10
100.704275148435
 20
-141.4056667398222
 10
100.7997042933765
 20
-141.2406466660787
 10
100.7997042933765
 20
-141.2406466660787
 10
100.9013346101913
 20
-141.2768201686739
 10
101.0070990415885
 20
-141.3336642441805
 10
101.0956379955594
 20
-141.4142794785353
 10
101.0956379955594
 20
-141.4142794785353
 10
100.9984863028754
 20
-141.5875677814434
 10
100.9984863028754
 20
-141.5875677814434
 97
        0
 97
        0
 92
        1
 93
        1
 72
     4
 94
        3
 73
     0
 74
     1
 95
       23
 96
       19
 40
0.0
 40
0.0
 40
0.0
 40
0.0
 40
1.0
 40
1.0
 40
1.0
 40
2.0
 40
2.0
 40
2.0
 40
3.0
 40
3.0
 40
3.0
 40
4.0
 40
4.0
 40
4.0
 40
5.0
 40
5.0
 40
5.0
 40
6.0
 40
6.0
 40
6.0
 40
6.0
 10
101.4511718496372
 20
-142.292089808177
 10
101.4301567671772
 20
-142.3155164574767
 10
101.3326605649446
 20
-142.4274820607473
 10
101.193134197792
 20
-142.5077527855536
 10
101.193134197792
 20
-142.5077527855536
 10
101.0260470667574
 20
-142.3871744435699
 10
101.0260470667574
 20
-142.3871744435699
 10
101.1762532299143
 20
-142.3110378333459
 10
101.2754719798895
 20
-142.215953197953
 10
101.32439233578
 20
-142.1628987274801
 10
101.32439233578
 20
-142.1628987274801
 10
101.4980251482366
 20
-142.2455810191261
 10
101.4980251482366
 20
-142.2455810191261
 10
101.5062933774012
 20
-142.2497151337084
 10
101.5145616065658
 20
-142.2562608151304
 10
101.5145616065658
 20
-142.2665961015861
 10
101.5145616065658
 20
-142.292089808177
 10
101.4787326135192
 20
-142.292089808177
 10
101.4511718496372
 20
-142.292089808177
 97
        0
 97
        0
 92
        1
 93
        1
 72
     4
 94
        3
 73
     0
 74
     1
 95
       20
 96
       16
 40
0.0
 40
0.0
 40
0.0
 40
0.0
 40
1.0
 40
1.0
 40
1.0
 40
2.0
 40
2.0
 40
2.0
 40
3.0
 40
3.0
 40
3.0
 40
4.0
 40
4.0
 40
4.0
 40
5.0
 40
5.0
 40
5.0
 40
5.0
 10
101.7495171186599
 20
-141.4501084715819
 10
101.7116210683221
 20
-141.498684317924
 10
101.6502983686847
 20
-141.5772324949876
 10
101.5104274919835
 20
-141.6871310409671
 10
101.5910427263384
 20
-141.6912651555494
 10
101.6206705475115
 20
-141.6912651555494
 10
101.6437526872627
 20
-141.6912651555494
 10
101.6437526872627
 20
-141.6912651555494
 10
101.8721625179347
 20
-141.6912651555494
 10
101.8721625179347
 20
-141.6912651555494
 10
101.903857396399
 20
-141.6912651555494
 10
101.9527777522896
 20
-141.6891980982583
 10
102.0265027956739
 20
-141.6871310409671
 10
101.9145371924033
 20
-141.6130614880342
 10
101.8659613460613
 20
-141.5665526989834
 10
101.7495171186599
 20
-141.4501084715819
 97
        0
 97
        0
 92
        1
 93
        1
 72
     4
 94
        3
 73
     0
 74
     1
 95
       17
 96
       13
 40
0.0
 40
0.0
 40
0.0
 40
0.0
 40
1.0
 40
1.0
 40
1.0
 40
2.0
 40
2.0
 40
2.0
 40
3.0
 40
3.0
 40
3.0
 40
4.0
 40
4.0
 40
4.0
 40
4.0
 10
102.3103786636585
 20
-142.5056857282625
 10
102.1746419015397
 20
-142.3937201249919
 10
102.069221979691
 20
-142.3303303680632
 10
101.9507106949984
 20
-142.2665961015861
 10
101.9507106949984
 20
-142.2665961015861
 10
102.0774902088556
 20
-142.1546304983155
 10
102.0774902088556
 20
-142.1546304983155
 10
102.2084038372951
 20
-142.2011392873664
 10
102.3186468928231
 20
-142.2583278724215
 10
102.4433593493892
 20
-142.3599581892364
 10
102.4433593493892
 20
-142.3599581892364
 10
102.3103786636585
 20
-142.5056857282625
 10
102.3103786636585
 20
-142.5056857282625
 97
        0
 97
        0
 75
     2
 76
     1
 98
        0
  0
SPLINE
  5
103
330
F7
100
AcDbEntity
  8
_U+30EC_U+30A4_U+30E4_U+30FC 1
370
     0
100
AcDbSpline
210
0.0
220
0.0
230
1.0
 70
    11
 71
     3
 72
   113
 73
   109
 74
     0
 42
0.0000000001
 43
0.0000000001
 12
1.0
 22
0.0
 32
0.0
 13
1.0
 23
0.0
 33
0.0
 40
0.0
 40
0.0
 40
0.0
 40
0.0
 40
1.0
 40
1.0
 40
1.0
 40
2.0
 40
2.0
 40
2.0
 40
3.0
 40
3.0
 40
3.0
 40
4.0
 40
4.0
 40
4.0
 40
5.0
 40
5.0
 40
5.0
 40
6.0
 40
6.0
 40
6.0
 40
7.0
 40
7.0
 40
7.0
 40
8.0
 40
8.0
 40
8.0
 40
9.0
 40
9.0
 40
9.0
 40
10.0
 40
10.0
 40
10.0
 40
11.0
 40
11.0
 40
11.0
 40
12.0
 40
12.0
 40
12.0
 40
13.0
 40
13.0
 40
13.0
 40
14.0
 40
14.0
 40
14.0
 40
15.0
 40
15.0
 40
15.0
 40
16.0
 40
16.0
 40
16.0
 40
17.0
 40
17.0
 40
17.0
 40
18.0
 40
18.0
 40
18.0
 40
19.0
 40
19.0
 40
19.0
 40
20.0
 40
20.0
 40
20.0
 40
21.0
 40
21.0
 40
21.0
 40
22.0
 40
22.0
 40
22.0
 40
23.0
 40
23.0
 40
23.0
 40
24.0
 40
24.0
 40
24.0
 40
25.0
 40
25.0
 40
25.0
 40
26.0
 40
26.0
 40
26.0
 40
27.0
 40
27.0
 40
27.0
 40
28.0
 40
28.0
 40
28.0
 40
29.0
 40
29.0
 40
29.0
 40
30.0
 40
30.0
 40
30.0
 40
31.0
 40
31.0
 40
31.0
 40
32.0
 40
32.0
 40
32.0
 40
33.0
 40
33.0
 40
33.0
 40
34.0
 40
34.0
 40
34.0
 40
35.0
 40
35.0
 40
35.0
 40
36.0
 40
36.0
 40
36.0
 40
36.0
 10
104.1900227604108
 20
-142.4826035885113
 30
0.0
 10
104.1900227604108
 20
-142.4826035885113
 30
0.0
 10
104.289241510386
 20
-142.5818223384865
 30
0.0
 10
104.289241510386
 20
-142.5818223384865
 30
0.0
 10
104.2999213063903
 20
-142.5925021344908
 30
0.0
 10
104.3106011023946
 20
-142.6052489877862
 30
0.0
 10
104.3106011023946
 20
-142.6200628983728
 30
0.0
 10
104.3106011023946
 20
-142.6221299556639
 30
0.0
 10
104.3106011023946
 20
-142.6517577768371
 30
0.0
 10
104.2723605425083
 20
-142.6517577768371
 30
0.0
 10
104.2637478037952
 20
-142.6517577768371
 30
0.0
 10
104.2237846961663
 20
-142.6476236622548
 30
0.0
 10
104.2175835242928
 20
-142.6476236622548
 30
0.0
 10
104.1772759071154
 20
-142.6793185407191
 30
0.0
 10
104.1307671180645
 20
-142.7130804764745
 30
0.0
 10
104.0312038585408
 20
-142.7702690615297
 30
0.0
 10
104.1772759071154
 20
-142.878100550218
 30
0.0
 10
104.3360948089854
 20
-142.9352891352731
 30
0.0
 10
104.6089463714172
 20
-142.9731851856109
 30
0.0
 10
104.6089463714172
 20
-142.9731851856109
 30
0.0
 10
104.4587402082603
 20
-143.1488850553586
 30
0.0
 10
104.4587402082603
 20
-143.1488850553586
 30
0.0
 10
104.1962239322843
 20
-143.0768825597169
 30
0.0
 10
104.0398165972539
 20
-142.9879990961975
 30
0.0
 10
103.9633354774814
 20
-142.9352891352731
 30
0.0
 10
103.8131293143245
 20
-142.8336588184582
 30
0.0
 10
103.6694688325896
 20
-142.670705802006
 30
0.0
 10
103.5933322223656
 20
-142.5056857282625
 30
0.0
 10
103.5258083508547
 20
-142.5714870520307
 30
0.0
 10
103.4513942883733
 20
-142.6241970129551
 30
0.0
 10
103.3735351304066
 20
-142.6727728592971
 30
0.0
 10
103.3735351304066
 20
-142.6727728592971
 30
0.0
 10
103.3735351304066
 20
-142.9246093392688
 30
0.0
 10
103.3735351304066
 20
-142.9246093392688
 30
0.0
 10
103.5361436373104
 20
-142.899115632678
 30
0.0
 10
103.7221787935139
 20
-142.8546739009183
 30
0.0
 10
103.785913059991
 20
-142.8398599903317
 30
0.0
 10
103.785913059991
 20
-142.8398599903317
 30
0.0
 10
103.7562852388179
 20
-143.009358688206
 30
0.0
 10
103.7562852388179
 20
-143.009358688206
 30
0.0
 10
103.7538736719782
 20
-143.009358688206
 30
0.0
 10
103.7352701563579
 20
-143.0155598600795
 30
0.0
 10
103.7332030990667
 20
-143.0155598600795
 30
0.0
 10
103.5340765800193
 20
-143.0538004199657
 30
0.0
 10
103.2167832858278
 20
-143.1192572341855
 30
0.0
 10
103.02006833362
 20
-143.1550862272321
 30
0.0
 10
103.0093885376157
 20
-143.1723117046583
 30
0.0
 10
102.9863063978645
 20
-143.2040065831226
 30
0.0
 10
102.9628797485648
 20
-143.2040065831226
 30
0.0
 10
102.9353189846828
 20
-143.2040065831226
 30
0.0
 10
102.9311848701005
 20
-143.1847140484052
 30
0.0
 10
102.9291178128094
 20
-143.1657660232363
 30
0.0
 10
102.9291178128094
 20
-143.1657660232363
 30
0.0
 10
102.9036241062185
 20
-142.9924777203283
 30
0.0
 10
102.9036241062185
 20
-142.9924777203283
 30
0.0
 10
102.9776936591514
 20
-142.9838649816151
 30
0.0
 10
103.0855251478397
 20
-142.9711181283197
 30
0.0
 10
103.1937011460766
 20
-142.9501030458597
 30
0.0
 10
103.1937011460766
 20
-142.9501030458597
 30
0.0
 10
103.1937011460766
 20
-142.7723361188208
 30
0.0
 10
103.1937011460766
 20
-142.7723361188208
 30
0.0
 10
103.0496961547931
 20
-142.8443386144625
 30
0.0
 10
102.9546115194002
 20
-142.8739664356357
 30
0.0
 10
102.7892469361082
 20
-142.9035942568088
 30
0.0
 10
102.7892469361082
 20
-142.9035942568088
 30
0.0
 10
102.6686685941245
 20
-142.7340955589345
 30
0.0
 10
102.6686685941245
 20
-142.7340955589345
 30
0.0
 10
102.9863063978645
 20
-142.7068793046011
 30
0.0
 10
103.1785427259415
 20
-142.6135172169508
 30
0.0
 10
103.3563096529804
 20
-142.4805365312201
 30
0.0
 10
103.2102376044058
 20
-142.4805365312201
 30
0.0
 10
102.909825278092
 20
-142.4846706458025
 30
0.0
 10
102.7134548354328
 20
-142.4908718176759
 30
0.0
 10
102.7134548354328
 20
-142.4908718176759
 30
0.0
 10
102.7134548354328
 20
-142.313104890637
 30
0.0
 10
102.7134548354328
 20
-142.313104890637
 30
0.0
 10
102.867795113172
 20
-142.319650572059
 30
0.0
 10
103.1640733249034
 20
-142.3258517439324
 30
0.0
 10
103.3480414238158
 20
-142.3258517439324
 30
0.0
 10
103.3480414238158
 20
-142.3258517439324
 30
0.0
 10
103.5595702866101
 20
-142.3258517439324
 30
0.0
 10
103.5595702866101
 20
-142.3258517439324
 30
0.0
 10
103.5595702866101
 20
-142.2307671085395
 30
0.0
 10
103.557503229319
 20
-142.1801242049064
 30
0.0
 10
103.550957547897
 20
-142.133270906307
 30
0.0
 10
103.550957547897
 20
-142.133270906307
 30
0.0
 10
103.7669650348221
 20
-142.1504963837332
 30
0.0
 10
103.7669650348221
 20
-142.1504963837332
 30
0.0
 10
103.8155408811642
 20
-142.1546304983155
 30
0.0
 10
103.8241536198773
 20
-142.1694444089021
 30
0.0
 10
103.8241536198773
 20
-142.1842583194887
 30
0.0
 10
103.8241536198773
 20
-142.2097520260795
 30
0.0
 10
103.8069281424511
 20
-142.2180202552441
 30
0.0
 10
103.7562852388179
 20
-142.243513961835
 30
0.0
 10
103.7538736719782
 20
-142.2690076684258
 30
0.0
 10
103.7538736719782
 20
-142.2752088402993
 30
0.0
 10
103.7518066146871
 20
-142.3258517439324
 30
0.0
 10
103.7518066146871
 20
-142.3258517439324
 30
0.0
 10
103.9826280121988
 20
-142.3258517439324
 30
0.0
 10
103.9826280121988
 20
-142.3258517439324
 30
0.0
 10
104.1476480859423
 20
-142.3258517439324
 30
0.0
 10
104.4394476735429
 20
-142.319650572059
 30
0.0
 10
104.619281657873
 20
-142.313104890637
 30
0.0
 10
104.619281657873
 20
-142.313104890637
 30
0.0
 10
104.619281657873
 20
-142.4908718176759
 30
0.0
 10
104.619281657873
 20
-142.4908718176759
 30
0.0
 10
104.4904350867246
 20
-142.4867377030936
 30
0.0
 10
104.4670084374249
 20
-142.4867377030936
 30
0.0
 10
104.1900227604108
 20
-142.4826035885113
 30
0.0
  0
SPLINE
  5
104
330
F7
100
AcDbEntity
  8
_U+30EC_U+30A4_U+30E4_U+30FC 1
370
     0
100
AcDbSpline
210
0.0
220
0.0
230
1.0
 70
    11
 71
     3
 72
    23
 73
    19
 74
     0
 42
0.0000000001
 43
0.0000000001
 12
1.0
 22
0.0
 32
0.0
 13
1.0
 23
0.0
 33
0.0
 40
0.0
 40
0.0
 40
0.0
 40
0.0
 40
1.0
 40
1.0
 40
1.0
 40
2.0
 40
2.0
 40
2.0
 40
3.0
 40
3.0
 40
3.0
 40
4.0
 40
4.0
 40
4.0
 40
5.0
 40
5.0
 40
5.0
 40
6.0
 40
6.0
 40
6.0
 40
6.0
 10
102.9056911635097
 20
-142.1312038490158
 30
0.0
 10
102.888810195632
 20
-142.1715114661932
 30
0.0
 10
102.8826090237585
 20
-142.188392434071
 30
0.0
 10
102.8615939412985
 20
-142.188392434071
 30
0.0
 10
102.8464355211634
 20
-142.188392434071
 30
0.0
 10
102.8361002347076
 20
-142.1715114661932
 30
0.0
 10
102.8298990628342
 20
-142.1587646128978
 30
0.0
 10
102.8298990628342
 20
-142.1587646128978
 30
0.0
 10
102.729991293762
 20
-141.9937445391543
 30
0.0
 10
102.729991293762
 20
-141.9937445391543
 30
0.0
 10
102.8319661201253
 20
-141.96204966069
 30
0.0
 10
102.9821722832822
 20
-141.9069281329261
 30
0.0
 10
103.1806097832326
 20
-141.7443196260222
 30
0.0
 10
103.1806097832326
 20
-141.7443196260222
 30
0.0
 10
103.2377983682878
 20
-141.9176079289303
 30
0.0
 10
103.2377983682878
 20
-141.9176079289303
 30
0.0
 10
103.144780790186
 20
-142.0002902205763
 30
0.0
 10
103.0558973266666
 20
-142.0571342960829
 30
0.0
 10
102.9056911635097
 20
-142.1312038490158
 30
0.0
  0
SPLINE
  5
105
330
F7
100
AcDbEntity
  8
_U+30EC_U+30A4_U+30E4_U+30FC 1
370
     0
100
AcDbSpline
210
0.0
220
0.0
230
1.0
 70
    11
 71
     3
 72
    17
 73
    13
 74
     0
 42
0.0000000001
 43
0.0000000001
 12
1.0
 22
0.0
 32
0.0
 13
1.0
 23
0.0
 33
0.0
 40
0.0
 40
0.0
 40
0.0
 40
0.0
 40
1.0
 40
1.0
 40
1.0
 40
2.0
 40
2.0
 40
2.0
 40
3.0
 40
3.0
 40
3.0
 40
4.0
 40
4.0
 40
4.0
 40
4.0
 10
103.0579643839577
 20
-141.6657714489586
 30
0.0
 10
103.0283365627846
 20
-141.6258083413297
 30
0.0
 10
102.9608126912737
 20
-141.5283121390971
 30
0.0
 10
102.7789116496525
 20
-141.4184135931176
 30
0.0
 10
102.7789116496525
 20
-141.4184135931176
 30
0.0
 10
102.9056911635097
 20
-141.2850883978385
 30
0.0
 10
102.9056911635097
 20
-141.2850883978385
 30
0.0
 10
103.0917263197132
 20
-141.3867187146533
 30
0.0
 10
103.1489149047683
 20
-141.4756021781728
 30
0.0
 10
103.1764756686503
 20
-141.5179768526413
 30
0.0
 10
103.1764756686503
 20
-141.5179768526413
 30
0.0
 10
103.0579643839577
 20
-141.6657714489586
 30
0.0
 10
103.0579643839577
 20
-141.6657714489586
 30
0.0
  0
SPLINE
  5
106
330
F7
100
AcDbEntity
  8
_U+30EC_U+30A4_U+30E4_U+30FC 1
370
     0
100
AcDbSpline
210
0.0
220
0.0
230
1.0
 70
    11
 71
     3
 72
    38
 73
    34
 74
     0
 42
0.0000000001
 43
0.0000000001
 12
1.0
 22
0.0
 32
0.0
 13
1.0
 23
0.0
 33
0.0
 40
0.0
 40
0.0
 40
0.0
 40
0.0
 40
1.0
 40
1.0
 40
1.0
 40
2.0
 40
2.0
 40
2.0
 40
3.0
 40
3.0
 40
3.0
 40
4.0
 40
4.0
 40
4.0
 40
5.0
 40
5.0
 40
5.0
 40
6.0
 40
6.0
 40
6.0
 40
7.0
 40
7.0
 40
7.0
 40
8.0
 40
8.0
 40
8.0
 40
9.0
 40
9.0
 40
9.0
 40
10.0
 40
10.0
 40
10.0
 40
11.0
 40
11.0
 40
11.0
 40
11.0
 10
103.4262450913309
 20
-141.3612250080625
 30
0.0
 10
103.4241780340398
 20
-141.4077337971133
 30
0.0
 10
103.4217664672001
 20
-141.5241780245148
 30
0.0
 10
103.4217664672001
 20
-141.5686197562745
 30
0.0
 10
103.4217664672001
 20
-141.5686197562745
 30
0.0
 10
103.4217664672001
 20
-141.9155408716392
 30
0.0
 10
103.4217664672001
 20
-141.9155408716392
 30
0.0
 10
103.4217664672001
 20
-142.0023572778675
 30
0.0
 10
103.4241780340398
 20
-142.1439507023112
 30
0.0
 10
103.4348578300441
 20
-142.264529044295
 30
0.0
 10
103.4348578300441
 20
-142.264529044295
 30
0.0
 10
103.2443440497098
 20
-142.264529044295
 30
0.0
 10
103.2443440497098
 20
-142.264529044295
 30
0.0
 10
103.2484781642921
 20
-142.2011392873664
 30
0.0
 10
103.2529567884229
 20
-142.1480848168935
 30
0.0
 10
103.255023845714
 20
-142.0933077986781
 30
0.0
 10
103.2570909030052
 20
-141.9706623994032
 30
0.0
 10
103.2591579602963
 20
-141.9558484888166
 30
0.0
 10
103.2591579602963
 20
-141.9114067570569
 30
0.0
 10
103.2591579602963
 20
-141.9114067570569
 30
0.0
 10
103.2591579602963
 20
-141.5896348387346
 30
0.0
 10
103.2591579602963
 20
-141.5896348387346
 30
0.0
 10
103.2591579602963
 20
-141.5348578205191
 30
0.0
 10
103.2464111070009
 20
-141.2957681938427
 30
0.0
 10
103.2443440497098
 20
-141.244780780661
 30
0.0
 10
103.2443440497098
 20
-141.244780780661
 30
0.0
 10
103.4451931164998
 20
-141.272341544543
 30
0.0
 10
103.4451931164998
 20
-141.272341544543
 30
0.0
 10
103.4665527085084
 20
-141.2744086018342
 30
0.0
 10
103.4982475869727
 20
-141.278887225965
 30
0.0
 10
103.4982475869727
 20
-141.3040364230073
 30
0.0
 10
103.4982475869727
 20
-141.3315971868893
 30
0.0
 10
103.447260173791
 20
-141.3529567788979
 30
0.0
 10
103.4262450913309
 20
-141.3612250080625
 30
0.0
  0
SPLINE
  5
107
330
F7
100
AcDbEntity
  8
_U+30EC_U+30A4_U+30E4_U+30FC 1
370
     0
100
AcDbSpline
210
0.0
220
0.0
230
1.0
 70
    11
 71
     3
 72
    83
 73
    79
 74
     0
 42
0.0000000001
 43
0.0000000001
 12
1.0
 22
0.0
 32
0.0
 13
1.0
 23
0.0
 33
0.0
 40
0.0
 40
0.0
 40
0.0
 40
0.0
 40
1.0
 40
1.0
 40
1.0
 40
2.0
 40
2.0
 40
2.0
 40
3.0
 40
3.0
 40
3.0
 40
4.0
 40
4.0
 40
4.0
 40
5.0
 40
5.0
 40
5.0
 40
6.0
 40
6.0
 40
6.0
 40
7.0
 40
7.0
 40
7.0
 40
8.0
 40
8.0
 40
8.0
 40
9.0
 40
9.0
 40
9.0
 40
10.0
 40
10.0
 40
10.0
 40
11.0
 40
11.0
 40
11.0
 40
12.0
 40
12.0
 40
12.0
 40
13.0
 40
13.0
 40
13.0
 40
14.0
 40
14.0
 40
14.0
 40
15.0
 40
15.0
 40
15.0
 40
16.0
 40
16.0
 40
16.0
 40
17.0
 40
17.0
 40
17.0
 40
18.0
 40
18.0
 40
18.0
 40
19.0
 40
19.0
 40
19.0
 40
20.0
 40
20.0
 40
20.0
 40
21.0
 40
21.0
 40
21.0
 40
22.0
 40
22.0
 40
22.0
 40
23.0
 40
23.0
 40
23.0
 40
24.0
 40
24.0
 40
24.0
 40
25.0
 40
25.0
 40
25.0
 40
26.0
 40
26.0
 40
26.0
 40
26.0
 10
104.2279188107486
 20
-141.6829969263848
 30
0.0
 10
104.2279188107486
 20
-141.6829969263848
 30
0.0
 10
104.1307671180645
 20
-141.6829969263848
 30
0.0
 10
104.1307671180645
 20
-141.6829969263848
 30
0.0
 10
104.1307671180645
 20
-141.6829969263848
 30
0.0
 10
104.1307671180645
 20
-141.9303547822257
 30
0.0
 10
104.1307671180645
 20
-141.9303547822257
 30
0.0
 10
104.1307671180645
 20
-141.9303547822257
 30
0.0
 10
104.213104900162
 20
-141.9303547822257
 30
0.0
 10
104.213104900162
 20
-141.9303547822257
 30
0.0
 10
104.2789062239303
 20
-141.9303547822257
 30
0.0
 10
104.4184325910829
 20
-141.9262206676435
 30
0.0
 10
104.5179958506066
 20
-141.9176079289303
 30
0.0
 10
104.5179958506066
 20
-141.9176079289303
 30
0.0
 10
104.5179958506066
 20
-142.0974419132604
 30
0.0
 10
104.5179958506066
 20
-142.0974419132604
 30
0.0
 10
104.4249782725049
 20
-142.0891736840958
 30
0.0
 10
104.274772109348
 20
-142.084695059965
 30
0.0
 10
104.213104900162
 20
-142.084695059965
 30
0.0
 10
104.213104900162
 20
-142.084695059965
 30
0.0
 10
103.9085584592659
 20
-142.084695059965
 30
0.0
 10
103.9085584592659
 20
-142.084695059965
 30
0.0
 10
103.8558484983416
 20
-142.084695059965
 30
0.0
 10
103.709776449767
 20
-142.0891736840958
 30
0.0
 10
103.6036675088213
 20
-142.0974419132604
 30
0.0
 10
103.6036675088213
 20
-142.0974419132604
 30
0.0
 10
103.6036675088213
 20
-141.9176079289303
 30
0.0
 10
103.6036675088213
 20
-141.9176079289303
 30
0.0
 10
103.7035752778935
 20
-141.9262206676435
 30
0.0
 10
103.8427571354976
 20
-141.9303547822257
 30
0.0
 10
103.9085584592659
 20
-141.9303547822257
 30
0.0
 10
103.9085584592659
 20
-141.9303547822257
 30
0.0
 10
103.9530001910256
 20
-141.9303547822257
 30
0.0
 10
103.9530001910256
 20
-141.9303547822257
 30
0.0
 10
103.9530001910256
 20
-141.9303547822257
 30
0.0
 10
103.9530001910256
 20
-141.6829969263848
 30
0.0
 10
103.9530001910256
 20
-141.6829969263848
 30
0.0
 10
103.9530001910256
 20
-141.6829969263848
 30
0.0
 10
103.8789306380928
 20
-141.6829969263848
 30
0.0
 10
103.8789306380928
 20
-141.6829969263848
 30
0.0
 10
103.8176079384553
 20
-141.6829969263848
 30
0.0
 10
103.6505208074207
 20
-141.6871310409671
 30
0.0
 10
103.529942465437
 20
-141.6953992701317
 30
0.0
 10
103.529942465437
 20
-141.6953992701317
 30
0.0
 10
103.529942465437
 20
-141.5179768526413
 30
0.0
 10
103.529942465437
 20
-141.5179768526413
 30
0.0
 10
103.6443196355473
 20
-141.5241780245148
 30
0.0
 10
103.8027940278688
 20
-141.5283121390971
 30
0.0
 10
103.8789306380928
 20
-141.5283121390971
 30
0.0
 10
103.8789306380928
 20
-141.5283121390971
 30
0.0
 10
103.9509331337345
 20
-141.5283121390971
 30
0.0
 10
103.9509331337345
 20
-141.5283121390971
 30
0.0
 10
103.9467990191522
 20
-141.376038918649
 30
0.0
 10
103.944731961861
 20
-141.3422769828936
 30
0.0
 10
103.9381862804391
 20
-141.2492594047919
 30
0.0
 10
103.9381862804391
 20
-141.2492594047919
 30
0.0
 10
104.1497151432334
 20
-141.272341544543
 30
0.0
 10
104.1497151432334
 20
-141.272341544543
 30
0.0
 10
104.1748643402757
 20
-141.2744086018342
 30
0.0
 10
104.1982909895754
 20
-141.278887225965
 30
0.0
 10
104.1982909895754
 20
-141.3019693657162
 30
0.0
 10
104.1982909895754
 20
-141.3336642441805
 30
0.0
 10
104.1541937673642
 20
-141.3505452120582
 30
0.0
 10
104.1307671180645
 20
-141.3591579507713
 30
0.0
 10
104.1307671180645
 20
-141.3591579507713
 30
0.0
 10
104.1307671180645
 20
-141.5283121390971
 30
0.0
 10
104.1307671180645
 20
-141.5283121390971
 30
0.0
 10
104.1307671180645
 20
-141.5283121390971
 30
0.0
 10
104.2279188107486
 20
-141.5283121390971
 30
0.0
 10
104.2279188107486
 20
-141.5283121390971
 30
0.0
 10
104.3043999305211
 20
-141.5283121390971
 30
0.0
 10
104.4628743228426
 20
-141.5241780245148
 30
0.0
 10
104.5793185502441
 20
-141.5179768526413
 30
0.0
 10
104.5793185502441
 20
-141.5179768526413
 30
0.0
 10
104.5793185502441
 20
-141.6953992701317
 30
0.0
 10
104.5793185502441
 20
-141.6953992701317
 30
0.0
 10
104.4711425520072
 20
-141.6891980982583
 30
0.0
 10
104.2978542490991
 20
-141.6829969263848
 30
0.0
 10
104.2279188107486
 20
-141.6829969263848
 30
0.0
  0
SPLINE
  5
108
330
F7
100
AcDbEntity
  8
_U+30EC_U+30A4_U+30E4_U+30FC 1
370
     0
100
AcDbSpline
210
0.0
220
0.0
230
1.0
 70
    11
 71
     3
 72
    17
 73
    13
 74
     0
 42
0.0000000001
 43
0.0000000001
 12
1.0
 22
0.0
 32
0.0
 13
1.0
 23
0.0
 33
0.0
 40
0.0
 40
0.0
 40
0.0
 40
0.0
 40
1.0
 40
1.0
 40
1.0
 40
2.0
 40
2.0
 40
2.0
 40
3.0
 40
3.0
 40
3.0
 40
4.0
 40
4.0
 40
4.0
 40
4.0
 10
103.9826280121988
 20
-142.4805365312201
 30
0.0
 10
103.9826280121988
 20
-142.4805365312201
 30
0.0
 10
103.779367378569
 20
-142.4805365312201
 30
0.0
 10
103.779367378569
 20
-142.4805365312201
 30
0.0
 10
103.8069281424511
 20
-142.5397921735664
 30
0.0
 10
103.862049670215
 20
-142.6114501596597
 30
0.0
 10
103.8896104340971
 20
-142.6410779808328
 30
0.0
 10
103.917171197979
 20
-142.6262640702462
 30
0.0
 10
104.0312038585408
 20
-142.5628743133176
 30
0.0
 10
104.1221543793514
 20
-142.4805365312201
 30
0.0
 10
104.1221543793514
 20
-142.4805365312201
 30
0.0
 10
103.9826280121988
 20
-142.4805365312201
 30
0.0
 10
103.9826280121988
 20
-142.4805365312201
 30
0.0
  0
HATCH
  5
109
330
F7
100
AcDbEntity
  8
_U+30EC_U+30A4_U+30E4_U+30FC 1
 62
   179
420
  2234388
100
AcDbHatch
 10
0.0
 20
0.0
 30
0.0
210
0.0
220
0.0
230
1.0
  2
SOLID
 70
     1
 71
     0
 91
        6
 92
        1
 93
        1
 72
     4
 94
        3
 73
     0
 74
     1
 95
      113
 96
      109
 40
0.0
 40
0.0
 40
0.0
 40
0.0
 40
1.0
 40
1.0
 40
1.0
 40
2.0
 40
2.0
 40
2.0
 40
3.0
 40
3.0
 40
3.0
 40
4.0
 40
4.0
 40
4.0
 40
5.0
 40
5.0
 40
5.0
 40
6.0
 40
6.0
 40
6.0
 40
7.0
 40
7.0
 40
7.0
 40
8.0
 40
8.0
 40
8.0
 40
9.0
 40
9.0
 40
9.0
 40
10.0
 40
10.0
 40
10.0
 40
11.0
 40
11.0
 40
11.0
 40
12.0
 40
12.0
 40
12.0
 40
13.0
 40
13.0
 40
13.0
 40
14.0
 40
14.0
 40
14.0
 40
15.0
 40
15.0
 40
15.0
 40
16.0
 40
16.0
 40
16.0
 40
17.0
 40
17.0
 40
17.0
 40
18.0
 40
18.0
 40
18.0
 40
19.0
 40
19.0
 40
19.0
 40
20.0
 40
20.0
 40
20.0
 40
21.0
 40
21.0
 40
21.0
 40
22.0
 40
22.0
 40
22.0
 40
23.0
 40
23.0
 40
23.0
 40
24.0
 40
24.0
 40
24.0
 40
25.0
 40
25.0
 40
25.0
 40
26.0
 40
26.0
 40
26.0
 40
27.0
 40
27.0
 40
27.0
 40
28.0
 40
28.0
 40
28.0
 40
29.0
 40
29.0
 40
29.0
 40
30.0
 40
30.0
 40
30.0
 40
31.0
 40
31.0
 40
31.0
 40
32.0
 40
32.0
 40
32.0
 40
33.0
 40
33.0
 40
33.0
 40
34.0
 40
34.0
 40
34.0
 40
35.0
 40
35.0
 40
35.0
 40
36.0
 40
36.0
 40
36.0
 40
36.0
 10
104.1900227604108
 20
-142.4826035885113
 10
104.1900227604108
 20
-142.4826035885113
 10
104.289241510386
 20
-142.5818223384865
 10
104.289241510386
 20
-142.5818223384865
 10
104.2999213063903
 20
-142.5925021344908
 10
104.3106011023946
 20
-142.6052489877862
 10
104.3106011023946
 20
-142.6200628983728
 10
104.3106011023946
 20
-142.6221299556639
 10
104.3106011023946
 20
-142.6517577768371
 10
104.2723605425083
 20
-142.6517577768371
 10
104.2637478037952
 20
-142.6517577768371
 10
104.2237846961663
 20
-142.6476236622548
 10
104.2175835242928
 20
-142.6476236622548
 10
104.1772759071154
 20
-142.6793185407191
 10
104.1307671180645
 20
-142.7130804764745
 10
104.0312038585408
 20
-142.7702690615297
 10
104.1772759071154
 20
-142.878100550218
 10
104.3360948089854
 20
-142.9352891352731
 10
104.6089463714172
 20
-142.9731851856109
 10
104.6089463714172
 20
-142.9731851856109
 10
104.4587402082603
 20
-143.1488850553586
 10
104.4587402082603
 20
-143.1488850553586
 10
104.1962239322843
 20
-143.0768825597169
 10
104.0398165972539
 20
-142.9879990961975
 10
103.9633354774814
 20
-142.9352891352731
 10
103.8131293143245
 20
-142.8336588184582
 10
103.6694688325896
 20
-142.670705802006
 10
103.5933322223656
 20
-142.5056857282625
 10
103.5258083508547
 20
-142.5714870520307
 10
103.4513942883733
 20
-142.6241970129551
 10
103.3735351304066
 20
-142.6727728592971
 10
103.3735351304066
 20
-142.6727728592971
 10
103.3735351304066
 20
-142.9246093392688
 10
103.3735351304066
 20
-142.9246093392688
 10
103.5361436373104
 20
-142.899115632678
 10
103.7221787935139
 20
-142.8546739009183
 10
103.785913059991
 20
-142.8398599903317
 10
103.785913059991
 20
-142.8398599903317
 10
103.7562852388179
 20
-143.009358688206
 10
103.7562852388179
 20
-143.009358688206
 10
103.7538736719782
 20
-143.009358688206
 10
103.7352701563579
 20
-143.0155598600795
 10
103.7332030990667
 20
-143.0155598600795
 10
103.5340765800193
 20
-143.0538004199657
 10
103.2167832858278
 20
-143.1192572341855
 10
103.02006833362
 20
-143.1550862272321
 10
103.0093885376157
 20
-143.1723117046583
 10
102.9863063978645
 20
-143.2040065831226
 10
102.9628797485648
 20
-143.2040065831226
 10
102.9353189846828
 20
-143.2040065831226
 10
102.9311848701005
 20
-143.1847140484052
 10
102.9291178128094
 20
-143.1657660232363
 10
102.9291178128094
 20
-143.1657660232363
 10
102.9036241062185
 20
-142.9924777203283
 10
102.9036241062185
 20
-142.9924777203283
 10
102.9776936591514
 20
-142.9838649816151
 10
103.0855251478397
 20
-142.9711181283197
 10
103.1937011460766
 20
-142.9501030458597
 10
103.1937011460766
 20
-142.9501030458597
 10
103.1937011460766
 20
-142.7723361188208
 10
103.1937011460766
 20
-142.7723361188208
 10
103.0496961547931
 20
-142.8443386144625
 10
102.9546115194002
 20
-142.8739664356357
 10
102.7892469361082
 20
-142.9035942568088
 10
102.7892469361082
 20
-142.9035942568088
 10
102.6686685941245
 20
-142.7340955589345
 10
102.6686685941245
 20
-142.7340955589345
 10
102.9863063978645
 20
-142.7068793046011
 10
103.1785427259415
 20
-142.6135172169508
 10
103.3563096529804
 20
-142.4805365312201
 10
103.2102376044058
 20
-142.4805365312201
 10
102.909825278092
 20
-142.4846706458025
 10
102.7134548354328
 20
-142.4908718176759
 10
102.7134548354328
 20
-142.4908718176759
 10
102.7134548354328
 20
-142.313104890637
 10
102.7134548354328
 20
-142.313104890637
 10
102.867795113172
 20
-142.319650572059
 10
103.1640733249034
 20
-142.3258517439324
 10
103.3480414238158
 20
-142.3258517439324
 10
103.3480414238158
 20
-142.3258517439324
 10
103.5595702866101
 20
-142.3258517439324
 10
103.5595702866101
 20
-142.3258517439324
 10
103.5595702866101
 20
-142.2307671085395
 10
103.557503229319
 20
-142.1801242049064
 10
103.550957547897
 20
-142.133270906307
 10
103.550957547897
 20
-142.133270906307
 10
103.7669650348221
 20
-142.1504963837332
 10
103.7669650348221
 20
-142.1504963837332
 10
103.8155408811642
 20
-142.1546304983155
 10
103.8241536198773
 20
-142.1694444089021
 10
103.8241536198773
 20
-142.1842583194887
 10
103.8241536198773
 20
-142.2097520260795
 10
103.8069281424511
 20
-142.2180202552441
 10
103.7562852388179
 20
-142.243513961835
 10
103.7538736719782
 20
-142.2690076684258
 10
103.7538736719782
 20
-142.2752088402993
 10
103.7518066146871
 20
-142.3258517439324
 10
103.7518066146871
 20
-142.3258517439324
 10
103.9826280121988
 20
-142.3258517439324
 10
103.9826280121988
 20
-142.3258517439324
 10
104.1476480859423
 20
-142.3258517439324
 10
104.4394476735429
 20
-142.319650572059
 10
104.619281657873
 20
-142.313104890637
 10
104.619281657873
 20
-142.313104890637
 10
104.619281657873
 20
-142.4908718176759
 10
104.619281657873
 20
-142.4908718176759
 10
104.4904350867246
 20
-142.4867377030936
 10
104.4670084374249
 20
-142.4867377030936
 10
104.1900227604108
 20
-142.4826035885113
 97
        0
 97
        0
 92
        1
 93
        1
 72
     4
 94
        3
 73
     0
 74
     1
 95
       23
 96
       19
 40
0.0
 40
0.0
 40
0.0
 40
0.0
 40
1.0
 40
1.0
 40
1.0
 40
2.0
 40
2.0
 40
2.0
 40
3.0
 40
3.0
 40
3.0
 40
4.0
 40
4.0
 40
4.0
 40
5.0
 40
5.0
 40
5.0
 40
6.0
 40
6.0
 40
6.0
 40
6.0
 10
102.9056911635097
 20
-142.1312038490158
 10
102.888810195632
 20
-142.1715114661932
 10
102.8826090237585
 20
-142.188392434071
 10
102.8615939412985
 20
-142.188392434071
 10
102.8464355211634
 20
-142.188392434071
 10
102.8361002347076
 20
-142.1715114661932
 10
102.8298990628342
 20
-142.1587646128978
 10
102.8298990628342
 20
-142.1587646128978
 10
102.729991293762
 20
-141.9937445391543
 10
102.729991293762
 20
-141.9937445391543
 10
102.8319661201253
 20
-141.96204966069
 10
102.9821722832822
 20
-141.9069281329261
 10
103.1806097832326
 20
-141.7443196260222
 10
103.1806097832326
 20
-141.7443196260222
 10
103.2377983682878
 20
-141.9176079289303
 10
103.2377983682878
 20
-141.9176079289303
 10
103.144780790186
 20
-142.0002902205763
 10
103.0558973266666
 20
-142.0571342960829
 10
102.9056911635097
 20
-142.1312038490158
 97
        0
 97
        0
 92
        1
 93
        1
 72
     4
 94
        3
 73
     0
 74
     1
 95
       17
 96
       13
 40
0.0
 40
0.0
 40
0.0
 40
0.0
 40
1.0
 40
1.0
 40
1.0
 40
2.0
 40
2.0
 40
2.0
 40
3.0
 40
3.0
 40
3.0
 40
4.0
 40
4.0
 40
4.0
 40
4.0
 10
103.0579643839577
 20
-141.6657714489586
 10
103.0283365627846
 20
-141.6258083413297
 10
102.9608126912737
 20
-141.5283121390971
 10
102.7789116496525
 20
-141.4184135931176
 10
102.7789116496525
 20
-141.4184135931176
 10
102.9056911635097
 20
-141.2850883978385
 10
102.9056911635097
 20
-141.2850883978385
 10
103.0917263197132
 20
-141.3867187146533
 10
103.1489149047683
 20
-141.4756021781728
 10
103.1764756686503
 20
-141.5179768526413
 10
103.1764756686503
 20
-141.5179768526413
 10
103.0579643839577
 20
-141.6657714489586
 10
103.0579643839577
 20
-141.6657714489586
 97
        0
 97
        0
 92
        1
 93
        1
 72
     4
 94
        3
 73
     0
 74
     1
 95
       38
 96
       34
 40
0.0
 40
0.0
 40
0.0
 40
0.0
 40
1.0
 40
1.0
 40
1.0
 40
2.0
 40
2.0
 40
2.0
 40
3.0
 40
3.0
 40
3.0
 40
4.0
 40
4.0
 40
4.0
 40
5.0
 40
5.0
 40
5.0
 40
6.0
 40
6.0
 40
6.0
 40
7.0
 40
7.0
 40
7.0
 40
8.0
 40
8.0
 40
8.0
 40
9.0
 40
9.0
 40
9.0
 40
10.0
 40
10.0
 40
10.0
 40
11.0
 40
11.0
 40
11.0
 40
11.0
 10
103.4262450913309
 20
-141.3612250080625
 10
103.4241780340398
 20
-141.4077337971133
 10
103.4217664672001
 20
-141.5241780245148
 10
103.4217664672001
 20
-141.5686197562745
 10
103.4217664672001
 20
-141.5686197562745
 10
103.4217664672001
 20
-141.9155408716392
 10
103.4217664672001
 20
-141.9155408716392
 10
103.4217664672001
 20
-142.0023572778675
 10
103.4241780340398
 20
-142.1439507023112
 10
103.4348578300441
 20
-142.264529044295
 10
103.4348578300441
 20
-142.264529044295
 10
103.2443440497098
 20
-142.264529044295
 10
103.2443440497098
 20
-142.264529044295
 10
103.2484781642921
 20
-142.2011392873664
 10
103.2529567884229
 20
-142.1480848168935
 10
103.255023845714
 20
-142.0933077986781
 10
103.2570909030052
 20
-141.9706623994032
 10
103.2591579602963
 20
-141.9558484888166
 10
103.2591579602963
 20
-141.9114067570569
 10
103.2591579602963
 20
-141.9114067570569
 10
103.2591579602963
 20
-141.5896348387346
 10
103.2591579602963
 20
-141.5896348387346
 10
103.2591579602963
 20
-141.5348578205191
 10
103.2464111070009
 20
-141.2957681938427
 10
103.2443440497098
 20
-141.244780780661
 10
103.2443440497098
 20
-141.244780780661
 10
103.4451931164998
 20
-141.272341544543
 10
103.4451931164998
 20
-141.272341544543
 10
103.4665527085084
 20
-141.2744086018342
 10
103.4982475869727
 20
-141.278887225965
 10
103.4982475869727
 20
-141.3040364230073
 10
103.4982475869727
 20
-141.3315971868893
 10
103.447260173791
 20
-141.3529567788979
 10
103.4262450913309
 20
-141.3612250080625
 97
        0
 97
        0
 92
        1
 93
        1
 72
     4
 94
        3
 73
     0
 74
     1
 95
       83
 96
       79
 40
0.0
 40
0.0
 40
0.0
 40
0.0
 40
1.0
 40
1.0
 40
1.0
 40
2.0
 40
2.0
 40
2.0
 40
3.0
 40
3.0
 40
3.0
 40
4.0
 40
4.0
 40
4.0
 40
5.0
 40
5.0
 40
5.0
 40
6.0
 40
6.0
 40
6.0
 40
7.0
 40
7.0
 40
7.0
 40
8.0
 40
8.0
 40
8.0
 40
9.0
 40
9.0
 40
9.0
 40
10.0
 40
10.0
 40
10.0
 40
11.0
 40
11.0
 40
11.0
 40
12.0
 40
12.0
 40
12.0
 40
13.0
 40
13.0
 40
13.0
 40
14.0
 40
14.0
 40
14.0
 40
15.0
 40
15.0
 40
15.0
 40
16.0
 40
16.0
 40
16.0
 40
17.0
 40
17.0
 40
17.0
 40
18.0
 40
18.0
 40
18.0
 40
19.0
 40
19.0
 40
19.0
 40
20.0
 40
20.0
 40
20.0
 40
21.0
 40
21.0
 40
21.0
 40
22.0
 40
22.0
 40
22.0
 40
23.0
 40
23.0
 40
23.0
 40
24.0
 40
24.0
 40
24.0
 40
25.0
 40
25.0
 40
25.0
 40
26.0
 40
26.0
 40
26.0
 40
26.0
 10
104.2279188107486
 20
-141.6829969263848
 10
104.2279188107486
 20
-141.6829969263848
 10
104.1307671180645
 20
-141.6829969263848
 10
104.1307671180645
 20
-141.6829969263848
 10
104.1307671180645
 20
-141.6829969263848
 10
104.1307671180645
 20
-141.9303547822257
 10
104.1307671180645
 20
-141.9303547822257
 10
104.1307671180645
 20
-141.9303547822257
 10
104.213104900162
 20
-141.9303547822257
 10
104.213104900162
 20
-141.9303547822257
 10
104.2789062239303
 20
-141.9303547822257
 10
104.4184325910829
 20
-141.9262206676435
 10
104.5179958506066
 20
-141.9176079289303
 10
104.5179958506066
 20
-141.9176079289303
 10
104.5179958506066
 20
-142.0974419132604
 10
104.5179958506066
 20
-142.0974419132604
 10
104.4249782725049
 20
-142.0891736840958
 10
104.274772109348
 20
-142.084695059965
 10
104.213104900162
 20
-142.084695059965
 10
104.213104900162
 20
-142.084695059965
 10
103.9085584592659
 20
-142.084695059965
 10
103.9085584592659
 20
-142.084695059965
 10
103.8558484983416
 20
-142.084695059965
 10
103.709776449767
 20
-142.0891736840958
 10
103.6036675088213
 20
-142.0974419132604
 10
103.6036675088213
 20
-142.0974419132604
 10
103.6036675088213
 20
-141.9176079289303
 10
103.6036675088213
 20
-141.9176079289303
 10
103.7035752778935
 20
-141.9262206676435
 10
103.8427571354976
 20
-141.9303547822257
 10
103.9085584592659
 20
-141.9303547822257
 10
103.9085584592659
 20
-141.9303547822257
 10
103.9530001910256
 20
-141.9303547822257
 10
103.9530001910256
 20
-141.9303547822257
 10
103.9530001910256
 20
-141.9303547822257
 10
103.9530001910256
 20
-141.6829969263848
 10
103.9530001910256
 20
-141.6829969263848
 10
103.9530001910256
 20
-141.6829969263848
 10
103.8789306380928
 20
-141.6829969263848
 10
103.8789306380928
 20
-141.6829969263848
 10
103.8176079384553
 20
-141.6829969263848
 10
103.6505208074207
 20
-141.6871310409671
 10
103.529942465437
 20
-141.6953992701317
 10
103.529942465437
 20
-141.6953992701317
 10
103.529942465437
 20
-141.5179768526413
 10
103.529942465437
 20
-141.5179768526413
 10
103.6443196355473
 20
-141.5241780245148
 10
103.8027940278688
 20
-141.5283121390971
 10
103.8789306380928
 20
-141.5283121390971
 10
103.8789306380928
 20
-141.5283121390971
 10
103.9509331337345
 20
-141.5283121390971
 10
103.9509331337345
 20
-141.5283121390971
 10
103.9467990191522
 20
-141.376038918649
 10
103.944731961861
 20
-141.3422769828936
 10
103.9381862804391
 20
-141.2492594047919
 10
103.9381862804391
 20
-141.2492594047919
 10
104.1497151432334
 20
-141.272341544543
 10
104.1497151432334
 20
-141.272341544543
 10
104.1748643402757
 20
-141.2744086018342
 10
104.1982909895754
 20
-141.278887225965
 10
104.1982909895754
 20
-141.3019693657162
 10
104.1982909895754
 20
-141.3336642441805
 10
104.1541937673642
 20
-141.3505452120582
 10
104.1307671180645
 20
-141.3591579507713
 10
104.1307671180645
 20
-141.3591579507713
 10
104.1307671180645
 20
-141.5283121390971
 10
104.1307671180645
 20
-141.5283121390971
 10
104.1307671180645
 20
-141.5283121390971
 10
104.2279188107486
 20
-141.5283121390971
 10
104.2279188107486
 20
-141.5283121390971
 10
104.3043999305211
 20
-141.5283121390971
 10
104.4628743228426
 20
-141.5241780245148
 10
104.5793185502441
 20
-141.5179768526413
 10
104.5793185502441
 20
-141.5179768526413
 10
104.5793185502441
 20
-141.6953992701317
 10
104.5793185502441
 20
-141.6953992701317
 10
104.4711425520072
 20
-141.6891980982583
 10
104.2978542490991
 20
-141.6829969263848
 10
104.2279188107486
 20
-141.6829969263848
 97
        0
 97
        0
 92
        1
 93
        1
 72
     4
 94
        3
 73
     0
 74
     1
 95
       17
 96
       13
 40
0.0
 40
0.0
 40
0.0
 40
0.0
 40
1.0
 40
1.0
 40
1.0
 40
2.0
 40
2.0
 40
2.0
 40
3.0
 40
3.0
 40
3.0
 40
4.0
 40
4.0
 40
4.0
 40
4.0
 10
103.9826280121988
 20
-142.4805365312201
 10
103.9826280121988
 20
-142.4805365312201
 10
103.779367378569
 20
-142.4805365312201
 10
103.779367378569
 20
-142.4805365312201
 10
103.8069281424511
 20
-142.5397921735664
 10
103.862049670215
 20
-142.6114501596597
 10
103.8896104340971
 20
-142.6410779808328
 10
103.917171197979
 20
-142.6262640702462
 10
104.0312038585408
 20
-142.5628743133176
 10
104.1221543793514
 20
-142.4805365312201
 10
104.1221543793514
 20
-142.4805365312201
 10
103.9826280121988
 20
-142.4805365312201
 10
103.9826280121988
 20
-142.4805365312201
 97
        0
 97
        0
 75
     2
 76
     1
 98
        0
  0
SPLINE
  5
10A
330
F7
100
AcDbEntity
  8
_U+30EC_U+30A4_U+30E4_U+30FC 1
370
     0
100
AcDbSpline
210
0.0
220
0.0
230
1.0
 70
    11
 71
     3
 72
    77
 73
    73
 74
     0
 42
0.0000000001
 43
0.0000000001
 12
1.0
 22
0.0
 32
0.0
 13
1.0
 23
0.0
 33
0.0
 40
0.0
 40
0.0
 40
0.0
 40
0.0
 40
1.0
 40
1.0
 40
1.0
 40
2.0
 40
2.0
 40
2.0
 40
3.0
 40
3.0
 40
3.0
 40
4.0
 40
4.0
 40
4.0
 40
5.0
 40
5.0
 40
5.0
 40
6.0
 40
6.0
 40
6.0
 40
7.0
 40
7.0
 40
7.0
 40
8.0
 40
8.0
 40
8.0
 40
9.0
 40
9.0
 40
9.0
 40
10.0
 40
10.0
 40
10.0
 40
11.0
 40
11.0
 40
11.0
 40
12.0
 40
12.0
 40
12.0
 40
13.0
 40
13.0
 40
13.0
 40
14.0
 40
14.0
 40
14.0
 40
15.0
 40
15.0
 40
15.0
 40
16.0
 40
16.0
 40
16.0
 40
17.0
 40
17.0
 40
17.0
 40
18.0
 40
18.0
 40
18.0
 40
19.0
 40
19.0
 40
19.0
 40
20.0
 40
20.0
 40
20.0
 40
21.0
 40
21.0
 40
21.0
 40
22.0
 40
22.0
 40
22.0
 40
23.0
 40
23.0
 40
23.0
 40
24.0
 40
24.0
 40
24.0
 40
24.0
 10
106.473776557583
 20
-143.1106444954723
 30
0.0
 10
106.4272677685321
 20
-143.1361382020632
 30
0.0
 10
106.302555311966
 20
-143.1488850553586
 30
0.0
 10
106.2240071349023
 20
-143.1488850553586
 30
0.0
 10
106.2116047911554
 20
-143.1488850553586
 30
0.0
 10
106.1861110845646
 20
-143.1488850553586
 30
0.0
 10
106.1523491488091
 20
-143.1447509407763
 30
0.0
 10
106.1523491488091
 20
-143.1447509407763
 30
0.0
 10
106.0548529465766
 20
-142.9184081673954
 30
0.0
 10
106.0548529465766
 20
-142.9184081673954
 30
0.0
 10
106.0844807677497
 20
-142.9246093392688
 30
0.0
 10
106.1416693528049
 20
-142.933222077982
 30
0.0
 10
106.2577690706578
 20
-142.933222077982
 30
0.0
 10
106.3363172477215
 20
-142.933222077982
 30
0.0
 10
106.3383843050126
 20
-142.8908474035134
 30
0.0
 10
106.3383843050126
 20
-142.8336588184582
 30
0.0
 10
106.3383843050126
 20
-142.8336588184582
 30
0.0
 10
106.3383843050126
 20
-142.4846706458025
 30
0.0
 10
106.3383843050126
 20
-142.4846706458025
 30
0.0
 10
106.3383843050126
 20
-142.4846706458025
 30
0.0
 10
105.8794975863774
 20
-142.4846706458025
 30
0.0
 10
105.8794975863774
 20
-142.4846706458025
 30
0.0
 10
105.8815646436685
 20
-142.6221299556639
 30
0.0
 10
105.8836317009597
 20
-142.8209119651628
 30
0.0
 10
105.8898328728331
 20
-142.954237160442
 30
0.0
 10
105.8918999301243
 20
-142.981797924324
 30
0.0
 10
105.8918999301243
 20
-143.0262396560837
 30
0.0
 10
105.9046467834197
 20
-143.0875623557212
 30
0.0
 10
105.9046467834197
 20
-143.0875623557212
 30
0.0
 10
105.6634900994522
 20
-143.0875623557212
 30
0.0
 10
105.6634900994522
 20
-143.0875623557212
 30
0.0
 10
105.688983806043
 20
-142.9628498991551
 30
0.0
 10
105.688983806043
 20
-142.6221299556639
 30
0.0
 10
105.688983806043
 20
-142.4846706458025
 30
0.0
 10
105.688983806043
 20
-142.4846706458025
 30
0.0
 10
105.2469780552855
 20
-142.4846706458025
 30
0.0
 10
105.2469780552855
 20
-142.4846706458025
 30
0.0
 10
105.2235514059858
 20
-142.6920653940145
 30
0.0
 10
105.158094591766
 20
-142.9604383323154
 30
0.0
 10
104.9610351300097
 20
-143.1447509407763
 30
0.0
 10
104.9610351300097
 20
-143.1447509407763
 30
0.0
 10
104.7729329165151
 20
-143.0221055415014
 30
0.0
 10
104.7729329165151
 20
-143.0221055415014
 30
0.0
 10
105.026836453778
 20
-142.801963939994
 30
0.0
 10
105.0585313322423
 20
-142.4698567352159
 30
0.0
 10
105.0585313322423
 20
-142.1377495304378
 30
0.0
 10
105.0585313322423
 20
-142.1377495304378
 30
0.0
 10
105.0585313322423
 20
-141.7019449515537
 30
0.0
 10
105.0585313322423
 20
-141.7019449515537
 30
0.0
 10
105.0585313322423
 20
-141.6657714489586
 30
0.0
 10
105.0564642749512
 20
-141.4332275037042
 30
0.0
 10
105.047851536238
 20
-141.3315971868893
 30
0.0
 10
105.1877224129392
 20
-141.3422769828936
 30
0.0
 10
105.4288790969067
 20
-141.3422769828936
 30
0.0
 10
105.5725395786416
 20
-141.3422769828936
 30
0.0
 10
105.5725395786416
 20
-141.3422769828936
 30
0.0
 10
106.0317708068254
 20
-141.3422769828936
 30
0.0
 10
106.0317708068254
 20
-141.3422769828936
 30
0.0
 10
106.0462402078634
 20
-141.3422769828936
 30
0.0
 10
106.3955728900678
 20
-141.3422769828936
 30
0.0
 10
106.5540472823893
 20
-141.3315971868893
 30
0.0
 10
106.5519802250981
 20
-141.3846516573622
 30
0.0
 10
106.5457790532247
 20
-141.5451931069748
 30
0.0
 10
106.5457790532247
 20
-141.5961805201565
 30
0.0
 10
106.5457790532247
 20
-141.5961805201565
 30
0.0
 10
106.5457790532247
 20
-142.2032063446575
 30
0.0
 10
106.5457790532247
 20
-142.2032063446575
 30
0.0
 10
106.5457790532247
 20
-142.2221543698264
 30
0.0
 10
106.5561143396804
 20
-142.7933512012808
 30
0.0
 10
106.5561143396804
 20
-142.9056613141
 30
0.0
 10
106.5561143396804
 20
-142.9628498991551
 30
0.0
 10
106.5561143396804
 20
-143.0641357064215
 30
0.0
 10
106.473776557583
 20
-143.1106444954723
 30
0.0
  0
POLYLINE
  5
10B
330
F7
100
AcDbEntity
  8
_U+30EC_U+30A4_U+30E4_U+30FC 1
370
     0
100
AcDb2dPolyline
 66
     1
 10
0.0
 20
0.0
 30
0.0
  0
VERTEX
  5
10C
330
10B
100
AcDbEntity
  8
_U+30EC_U+30A4_U+30E4_U+30FC 1
370
     0
100
AcDbVertex
100
AcDb2dVertex
 10
105.688983806043
 20
-141.5241780245148
 30
0.0
  0
VERTEX
  5
10D
330
10B
100
AcDbEntity
  8
_U+30EC_U+30A4_U+30E4_U+30FC 1
370
     0
100
AcDbVertex
100
AcDb2dVertex
 10
105.2511121698678
 20
-141.5241780245148
 30
0.0
  0
VERTEX
  5
10E
330
10B
100
AcDbEntity
  8
_U+30EC_U+30A4_U+30E4_U+30FC 1
370
     0
100
AcDbVertex
100
AcDb2dVertex
 10
105.2511121698678
 20
-141.8287244654109
 30
0.0
  0
VERTEX
  5
10F
330
10B
100
AcDbEntity
  8
_U+30EC_U+30A4_U+30E4_U+30FC 1
370
     0
100
AcDbVertex
100
AcDb2dVertex
 10
105.688983806043
 20
-141.8287244654109
 30
0.0
  0
VERTEX
  5
110
330
10B
100
AcDbEntity
  8
_U+30EC_U+30A4_U+30E4_U+30FC 1
370
     0
100
AcDbVertex
100
AcDb2dVertex
 10
105.688983806043
 20
-141.5241780245148
 30
0.0
  0
SEQEND
  5
111
330
10B
100
AcDbEntity
  8
_U+30EC_U+30A4_U+30E4_U+30FC 1
370
     0
  0
POLYLINE
  5
112
330
F7
100
AcDbEntity
  8
_U+30EC_U+30A4_U+30E4_U+30FC 1
370
     0
100
AcDb2dPolyline
 66
     1
 10
0.0
 20
0.0
 30
0.0
  0
VERTEX
  5
113
330
112
100
AcDbEntity
  8
_U+30EC_U+30A4_U+30E4_U+30FC 1
370
     0
100
AcDbVertex
100
AcDb2dVertex
 10
105.688983806043
 20
-141.9958115964455
 30
0.0
  0
VERTEX
  5
114
330
112
100
AcDbEntity
  8
_U+30EC_U+30A4_U+30E4_U+30FC 1
370
     0
100
AcDbVertex
100
AcDb2dVertex
 10
105.2511121698678
 20
-141.9958115964455
 30
0.0
  0
VERTEX
  5
115
330
112
100
AcDbEntity
  8
_U+30EC_U+30A4_U+30E4_U+30FC 1
370
     0
100
AcDbVertex
100
AcDb2dVertex
 10
105.2511121698678
 20
-142.3048366614724
 30
0.0
  0
VERTEX
  5
116
330
112
100
AcDbEntity
  8
_U+30EC_U+30A4_U+30E4_U+30FC 1
370
     0
100
AcDbVertex
100
AcDb2dVertex
 10
105.688983806043
 20
-142.3048366614724
 30
0.0
  0
VERTEX
  5
117
330
112
100
AcDbEntity
  8
_U+30EC_U+30A4_U+30E4_U+30FC 1
370
     0
100
AcDbVertex
100
AcDb2dVertex
 10
105.688983806043
 20
-141.9958115964455
 30
0.0
  0
SEQEND
  5
118
330
112
100
AcDbEntity
  8
_U+30EC_U+30A4_U+30E4_U+30FC 1
370
     0
  0
POLYLINE
  5
119
330
F7
100
AcDbEntity
  8
_U+30EC_U+30A4_U+30E4_U+30FC 1
370
     0
100
AcDb2dPolyline
 66
     1
 10
0.0
 20
0.0
 30
0.0
  0
VERTEX
  5
11A
330
119
100
AcDbEntity
  8
_U+30EC_U+30A4_U+30E4_U+30FC 1
370
     0
100
AcDbVertex
100
AcDb2dVertex
 10
106.3383843050126
 20
-141.5241780245148
 30
0.0
  0
VERTEX
  5
11B
330
119
100
AcDbEntity
  8
_U+30EC_U+30A4_U+30E4_U+30FC 1
370
     0
100
AcDbVertex
100
AcDb2dVertex
 10
105.8794975863774
 20
-141.5241780245148
 30
0.0
  0
VERTEX
  5
11C
330
119
100
AcDbEntity
  8
_U+30EC_U+30A4_U+30E4_U+30FC 1
370
     0
100
AcDbVertex
100
AcDb2dVertex
 10
105.8794975863774
 20
-141.8287244654109
 30
0.0
  0
VERTEX
  5
11D
330
119
100
AcDbEntity
  8
_U+30EC_U+30A4_U+30E4_U+30FC 1
370
     0
100
AcDbVertex
100
AcDb2dVertex
 10
106.3383843050126
 20
-141.8287244654109
 30
0.0
  0
VERTEX
  5
11E
330
119
100
AcDbEntity
  8
_U+30EC_U+30A4_U+30E4_U+30FC 1
370
     0
100
AcDbVertex
100
AcDb2dVertex
 10
106.3383843050126
 20
-141.5241780245148
 30
0.0
  0
SEQEND
  5
11F
330
119
100
AcDbEntity
  8
_U+30EC_U+30A4_U+30E4_U+30FC 1
370
     0
  0
POLYLINE
  5
120
330
F7
100
AcDbEntity
  8
_U+30EC_U+30A4_U+30E4_U+30FC 1
370
     0
100
AcDb2dPolyline
 66
     1
 10
0.0
 20
0.0
 30
0.0
  0
VERTEX
  5
121
330
120
100
AcDbEntity
  8
_U+30EC_U+30A4_U+30E4_U+30FC 1
370
     0
100
AcDbVertex
100
AcDb2dVertex
 10
106.3383843050126
 20
-141.9958115964455
 30
0.0
  0
VERTEX
  5
122
330
120
100
AcDbEntity
  8
_U+30EC_U+30A4_U+30E4_U+30FC 1
370
     0
100
AcDbVertex
100
AcDb2dVertex
 10
105.8794975863774
 20
-141.9958115964455
 30
0.0
  0
VERTEX
  5
123
330
120
100
AcDbEntity
  8
_U+30EC_U+30A4_U+30E4_U+30FC 1
370
     0
100
AcDbVertex
100
AcDb2dVertex
 10
105.8794975863774
 20
-142.3048366614724
 30
0.0
  0
VERTEX
  5
124
330
120
100
AcDbEntity
  8
_U+30EC_U+30A4_U+30E4_U+30FC 1
370
     0
100
AcDbVertex
100
AcDb2dVertex
 10
106.3383843050126
 20
-142.3048366614724
 30
0.0
  0
VERTEX
  5
125
330
120
100
AcDbEntity
  8
_U+30EC_U+30A4_U+30E4_U+30FC 1
370
     0
100
AcDbVertex
100
AcDb2dVertex
 10
106.3383843050126
 20
-141.9958115964455
 30
0.0
  0
SEQEND
  5
126
330
120
100
AcDbEntity
  8
_U+30EC_U+30A4_U+30E4_U+30FC 1
370
     0
  0
HATCH
  5
127
330
F7
100
AcDbEntity
  8
_U+30EC_U+30A4_U+30E4_U+30FC 1
 62
   179
420
  2234388
100
AcDbHatch
 10
0.0
 20
0.0
 30
0.0
210
0.0
220
0.0
230
1.0
  2
SOLID
 70
     1
 71
     0
 91
        5
 92
        1
 93
        1
 72
     4
 94
        3
 73
     0
 74
     1
 95
       77
 96
       73
 40
0.0
 40
0.0
 40
0.0
 40
0.0
 40
1.0
 40
1.0
 40
1.0
 40
2.0
 40
2.0
 40
2.0
 40
3.0
 40
3.0
 40
3.0
 40
4.0
 40
4.0
 40
4.0
 40
5.0
 40
5.0
 40
5.0
 40
6.0
 40
6.0
 40
6.0
 40
7.0
 40
7.0
 40
7.0
 40
8.0
 40
8.0
 40
8.0
 40
9.0
 40
9.0
 40
9.0
 40
10.0
 40
10.0
 40
10.0
 40
11.0
 40
11.0
 40
11.0
 40
12.0
 40
12.0
 40
12.0
 40
13.0
 40
13.0
 40
13.0
 40
14.0
 40
14.0
 40
14.0
 40
15.0
 40
15.0
 40
15.0
 40
16.0
 40
16.0
 40
16.0
 40
17.0
 40
17.0
 40
17.0
 40
18.0
 40
18.0
 40
18.0
 40
19.0
 40
19.0
 40
19.0
 40
20.0
 40
20.0
 40
20.0
 40
21.0
 40
21.0
 40
21.0
 40
22.0
 40
22.0
 40
22.0
 40
23.0
 40
23.0
 40
23.0
 40
24.0
 40
24.0
 40
24.0
 40
24.0
 10
106.473776557583
 20
-143.1106444954723
 10
106.4272677685321
 20
-143.1361382020632
 10
106.302555311966
 20
-143.1488850553586
 10
106.2240071349023
 20
-143.1488850553586
 10
106.2116047911554
 20
-143.1488850553586
 10
106.1861110845646
 20
-143.1488850553586
 10
106.1523491488091
 20
-143.1447509407763
 10
106.1523491488091
 20
-143.1447509407763
 10
106.0548529465766
 20
-142.9184081673954
 10
106.0548529465766
 20
-142.9184081673954
 10
106.0844807677497
 20
-142.9246093392688
 10
106.1416693528049
 20
-142.933222077982
 10
106.2577690706578
 20
-142.933222077982
 10
106.3363172477215
 20
-142.933222077982
 10
106.3383843050126
 20
-142.8908474035134
 10
106.3383843050126
 20
-142.8336588184582
 10
106.3383843050126
 20
-142.8336588184582
 10
106.3383843050126
 20
-142.4846706458025
 10
106.3383843050126
 20
-142.4846706458025
 10
106.3383843050126
 20
-142.4846706458025
 10
105.8794975863774
 20
-142.4846706458025
 10
105.8794975863774
 20
-142.4846706458025
 10
105.8815646436685
 20
-142.6221299556639
 10
105.8836317009597
 20
-142.8209119651628
 10
105.8898328728331
 20
-142.954237160442
 10
105.8918999301243
 20
-142.981797924324
 10
105.8918999301243
 20
-143.0262396560837
 10
105.9046467834197
 20
-143.0875623557212
 10
105.9046467834197
 20
-143.0875623557212
 10
105.6634900994522
 20
-143.0875623557212
 10
105.6634900994522
 20
-143.0875623557212
 10
105.688983806043
 20
-142.9628498991551
 10
105.688983806043
 20
-142.6221299556639
 10
105.688983806043
 20
-142.4846706458025
 10
105.688983806043
 20
-142.4846706458025
 10
105.2469780552855
 20
-142.4846706458025
 10
105.2469780552855
 20
-142.4846706458025
 10
105.2235514059858
 20
-142.6920653940145
 10
105.158094591766
 20
-142.9604383323154
 10
104.9610351300097
 20
-143.1447509407763
 10
104.9610351300097
 20
-143.1447509407763
 10
104.7729329165151
 20
-143.0221055415014
 10
104.7729329165151
 20
-143.0221055415014
 10
105.026836453778
 20
-142.801963939994
 10
105.0585313322423
 20
-142.4698567352159
 10
105.0585313322423
 20
-142.1377495304378
 10
105.0585313322423
 20
-142.1377495304378
 10
105.0585313322423
 20
-141.7019449515537
 10
105.0585313322423
 20
-141.7019449515537
 10
105.0585313322423
 20
-141.6657714489586
 10
105.0564642749512
 20
-141.4332275037042
 10
105.047851536238
 20
-141.3315971868893
 10
105.1877224129392
 20
-141.3422769828936
 10
105.4288790969067
 20
-141.3422769828936
 10
105.5725395786416
 20
-141.3422769828936
 10
105.5725395786416
 20
-141.3422769828936
 10
106.0317708068254
 20
-141.3422769828936
 10
106.0317708068254
 20
-141.3422769828936
 10
106.0462402078634
 20
-141.3422769828936
 10
106.3955728900678
 20
-141.3422769828936
 10
106.5540472823893
 20
-141.3315971868893
 10
106.5519802250981
 20
-141.3846516573622
 10
106.5457790532247
 20
-141.5451931069748
 10
106.5457790532247
 20
-141.5961805201565
 10
106.5457790532247
 20
-141.5961805201565
 10
106.5457790532247
 20
-142.2032063446575
 10
106.5457790532247
 20
-142.2032063446575
 10
106.5457790532247
 20
-142.2221543698264
 10
106.5561143396804
 20
-142.7933512012808
 10
106.5561143396804
 20
-142.9056613141
 10
106.5561143396804
 20
-142.9628498991551
 10
106.5561143396804
 20
-143.0641357064215
 10
106.473776557583
 20
-143.1106444954723
 97
        0
 97
        0
 92
        1
 93
        4
 72
     1
 10
105.688983806043
 20
-141.5241780245148
 11
105.2511121698678
 21
-141.5241780245148
 72
     1
 10
105.2511121698678
 20
-141.5241780245148
 11
105.2511121698678
 21
-141.8287244654109
 72
     1
 10
105.2511121698678
 20
-141.8287244654109
 11
105.688983806043
 21
-141.8287244654109
 72
     1
 10
105.688983806043
 20
-141.8287244654109
 11
105.688983806043
 21
-141.5241780245148
 97
        0
 92
        1
 93
        4
 72
     1
 10
105.688983806043
 20
-141.9958115964455
 11
105.2511121698678
 21
-141.9958115964455
 72
     1
 10
105.2511121698678
 20
-141.9958115964455
 11
105.2511121698678
 21
-142.3048366614724
 72
     1
 10
105.2511121698678
 20
-142.3048366614724
 11
105.688983806043
 21
-142.3048366614724
 72
     1
 10
105.688983806043
 20
-142.3048366614724
 11
105.688983806043
 21
-141.9958115964455
 97
        0
 92
        1
 93
        4
 72
     1
 10
106.3383843050126
 20
-141.5241780245148
 11
105.8794975863774
 21
-141.5241780245148
 72
     1
 10
105.8794975863774
 20
-141.5241780245148
 11
105.8794975863774
 21
-141.8287244654109
 72
     1
 10
105.8794975863774
 20
-141.8287244654109
 11
106.3383843050126
 21
-141.8287244654109
 72
     1
 10
106.3383843050126
 20
-141.8287244654109
 11
106.3383843050126
 21
-141.5241780245148
 97
        0
 92
        1
 93
        4
 72
     1
 10
106.3383843050126
 20
-141.9958115964455
 11
105.8794975863774
 21
-141.9958115964455
 72
     1
 10
105.8794975863774
 20
-141.9958115964455
 11
105.8794975863774
 21
-142.3048366614724
 72
     1
 10
105.8794975863774
 20
-142.3048366614724
 11
106.3383843050126
 21
-142.3048366614724
 72
     1
 10
106.3383843050126
 20
-142.3048366614724
 11
106.3383843050126
 21
-141.9958115964455
 97
        0
 75
     2
 76
     1
 98
        0
  0
SPLINE
  5
128
330
F7
100
AcDbEntity
  8
_U+30EC_U+30A4_U+30E4_U+30FC 1
370
     0
100
AcDbSpline
210
0.0
220
0.0
230
1.0
 70
    11
 71
     3
 72
    44
 73
    40
 74
     0
 42
0.0000000001
 43
0.0000000001
 12
1.0
 22
0.0
 32
0.0
 13
1.0
 23
0.0
 33
0.0
 40
0.0
 40
0.0
 40
0.0
 40
0.0
 40
1.0
 40
1.0
 40
1.0
 40
2.0
 40
2.0
 40
2.0
 40
3.0
 40
3.0
 40
3.0
 40
4.0
 40
4.0
 40
4.0
 40
5.0
 40
5.0
 40
5.0
 40
6.0
 40
6.0
 40
6.0
 40
7.0
 40
7.0
 40
7.0
 40
8.0
 40
8.0
 40
8.0
 40
9.0
 40
9.0
 40
9.0
 40
10.0
 40
10.0
 40
10.0
 40
11.0
 40
11.0
 40
11.0
 40
12.0
 40
12.0
 40
12.0
 40
13.0
 40
13.0
 40
13.0
 40
13.0
 10
108.3513535970441
 20
-141.8604193438752
 30
0.0
 10
108.2393879937735
 20
-142.2287000512484
 30
0.0
 10
108.1884005805918
 20
-142.3871744435699
 30
0.0
 10
107.991685628384
 20
-142.6369438662505
 30
0.0
 10
107.8077175294717
 20
-142.8674207542137
 30
0.0
 10
107.5706949600865
 20
-143.0538004199657
 30
0.0
 10
107.2912977162327
 20
-143.1468179980675
 30
0.0
 10
107.2912977162327
 20
-143.1468179980675
 30
0.0
 10
107.0990613881558
 20
-142.9669840137374
 30
0.0
 10
107.0990613881558
 20
-142.9669840137374
 30
0.0
 10
107.7398491484123
 20
-142.8147107932894
 30
0.0
 10
108.0698892958992
 20
-142.2583278724215
 30
0.0
 10
108.1332790528278
 20
-141.8183891789551
 30
0.0
 10
108.1332790528278
 20
-141.8183891789551
 30
0.0
 10
107.3677788360053
 20
-141.8183891789551
 30
0.0
 10
107.3677788360053
 20
-141.8183891789551
 30
0.0
 10
107.2747612579035
 20
-141.8183891789551
 30
0.0
 10
107.0904486494427
 20
-141.8225232935374
 30
0.0
 10
106.9336968048638
 20
-141.8414713187063
 30
0.0
 10
106.9336968048638
 20
-141.8414713187063
 30
0.0
 10
106.9336968048638
 20
-141.6213297171988
 30
0.0
 10
106.9336968048638
 20
-141.6213297171988
 30
0.0
 10
107.0205132110921
 20
-141.6426893092074
 30
0.0
 10
107.2723496910639
 20
-141.6426893092074
 30
0.0
 10
107.3719129505876
 20
-141.6426893092074
 30
0.0
 10
107.3719129505876
 20
-141.6426893092074
 30
0.0
 10
107.8032389053409
 20
-141.6426893092074
 30
0.0
 10
107.8032389053409
 20
-141.6426893092074
 30
0.0
 10
107.845958089358
 20
-141.6426893092074
 30
0.0
 10
108.0805690919035
 20
-141.6406222519162
 30
0.0
 10
108.1188096517897
 20
-141.6340765704943
 30
0.0
 10
108.1608398167098
 20
-141.6278753986208
 30
0.0
 10
108.1629068740009
 20
-141.6258083413297
 30
0.0
 10
108.2242295736384
 20
-141.5855007241522
 30
0.0
 10
108.2242295736384
 20
-141.5855007241522
 30
0.0
 10
108.4126762966816
 20
-141.7398410018914
 30
0.0
 10
108.4126762966816
 20
-141.7398410018914
 30
0.0
 10
108.3830484755084
 20
-141.7694688230646
 30
0.0
 10
108.3682345649218
 20
-141.8011637015289
 30
0.0
 10
108.3513535970441
 20
-141.8604193438752
 30
0.0
  0
SPLINE
  5
129
330
F7
100
AcDbEntity
  8
_U+30EC_U+30A4_U+30E4_U+30FC 1
370
     0
100
AcDbSpline
210
0.0
220
0.0
230
1.0
 70
    11
 71
     3
 72
    17
 73
    13
 74
     0
 42
0.0000000001
 43
0.0000000001
 12
1.0
 22
0.0
 32
0.0
 13
1.0
 23
0.0
 33
0.0
 40
0.0
 40
0.0
 40
0.0
 40
0.0
 40
1.0
 40
1.0
 40
1.0
 40
2.0
 40
2.0
 40
2.0
 40
3.0
 40
3.0
 40
3.0
 40
4.0
 40
4.0
 40
4.0
 40
4.0
 10
108.5608154025473
 20
-141.6616373343763
 30
0.0
 10
108.4336913791416
 20
-141.6616373343763
 30
0.0
 10
108.3324055718752
 20
-141.5600070175614
 30
0.0
 10
108.3324055718752
 20
-141.4332275037042
 30
0.0
 10
108.3324055718752
 20
-141.306447989847
 30
0.0
 10
108.4336913791416
 20
-141.202750615741
 30
0.0
 10
108.5608154025473
 20
-141.202750615741
 30
0.0
 10
108.687939425953
 20
-141.202750615741
 30
0.0
 10
108.7912922905105
 20
-141.306447989847
 30
0.0
 10
108.7912922905105
 20
-141.4332275037042
 30
0.0
 10
108.7912922905105
 20
-141.5600070175614
 30
0.0
 10
108.687939425953
 20
-141.6616373343763
 30
0.0
 10
108.5608154025473
 20
-141.6616373343763
 30
0.0
  0
SPLINE
  5
12A
330
F7
100
AcDbEntity
  8
_U+30EC_U+30A4_U+30E4_U+30FC 1
370
     0
100
AcDbSpline
210
0.0
220
0.0
230
1.0
 70
    11
 71
     3
 72
    17
 73
    13
 74
     0
 42
0.0000000001
 43
0.0000000001
 12
1.0
 22
0.0
 32
0.0
 13
1.0
 23
0.0
 33
0.0
 40
0.0
 40
0.0
 40
0.0
 40
0.0
 40
1.0
 40
1.0
 40
1.0
 40
2.0
 40
2.0
 40
2.0
 40
3.0
 40
3.0
 40
3.0
 40
4.0
 40
4.0
 40
4.0
 40
4.0
 10
108.5584038357076
 20
-141.3315971868893
 30
0.0
 10
108.5036268174921
 20
-141.3315971868893
 30
0.0
 10
108.4591850857324
 20
-141.376038918649
 30
0.0
 10
108.4591850857324
 20
-141.4311604464131
 30
0.0
 10
108.4591850857324
 20
-141.4883490314682
 30
0.0
 10
108.5036268174921
 20
-141.5369248778102
 30
0.0
 10
108.5628824598384
 20
-141.5369248778102
 30
0.0
 10
108.6221381021847
 20
-141.5369248778102
 30
0.0
 10
108.6624457193622
 20
-141.4859374646285
 30
0.0
 10
108.6624457193622
 20
-141.4332275037042
 30
0.0
 10
108.6624457193622
 20
-141.376038918649
 30
0.0
 10
108.6155924207628
 20
-141.3315971868893
 30
0.0
 10
108.5584038357076
 20
-141.3315971868893
 30
0.0
  0
HATCH
  5
12B
330
F7
100
AcDbEntity
  8
_U+30EC_U+30A4_U+30E4_U+30FC 1
 62
   179
420
  2234388
100
AcDbHatch
 10
0.0
 20
0.0
 30
0.0
210
0.0
220
0.0
230
1.0
  2
SOLID
 70
     1
 71
     0
 91
        3
 92
        1
 93
        1
 72
     4
 94
        3
 73
     0
 74
     1
 95
       44
 96
       40
 40
0.0
 40
0.0
 40
0.0
 40
0.0
 40
1.0
 40
1.0
 40
1.0
 40
2.0
 40
2.0
 40
2.0
 40
3.0
 40
3.0
 40
3.0
 40
4.0
 40
4.0
 40
4.0
 40
5.0
 40
5.0
 40
5.0
 40
6.0
 40
6.0
 40
6.0
 40
7.0
 40
7.0
 40
7.0
 40
8.0
 40
8.0
 40
8.0
 40
9.0
 40
9.0
 40
9.0
 40
10.0
 40
10.0
 40
10.0
 40
11.0
 40
11.0
 40
11.0
 40
12.0
 40
12.0
 40
12.0
 40
13.0
 40
13.0
 40
13.0
 40
13.0
 10
108.3513535970441
 20
-141.8604193438752
 10
108.2393879937735
 20
-142.2287000512484
 10
108.1884005805918
 20
-142.3871744435699
 10
107.991685628384
 20
-142.6369438662505
 10
107.8077175294717
 20
-142.8674207542137
 10
107.5706949600865
 20
-143.0538004199657
 10
107.2912977162327
 20
-143.1468179980675
 10
107.2912977162327
 20
-143.1468179980675
 10
107.0990613881558
 20
-142.9669840137374
 10
107.0990613881558
 20
-142.9669840137374
 10
107.7398491484123
 20
-142.8147107932894
 10
108.0698892958992
 20
-142.2583278724215
 10
108.1332790528278
 20
-141.8183891789551
 10
108.1332790528278
 20
-141.8183891789551
 10
107.3677788360053
 20
-141.8183891789551
 10
107.3677788360053
 20
-141.8183891789551
 10
107.2747612579035
 20
-141.8183891789551
 10
107.0904486494427
 20
-141.8225232935374
 10
106.9336968048638
 20
-141.8414713187063
 10
106.9336968048638
 20
-141.8414713187063
 10
106.9336968048638
 20
-141.6213297171988
 10
106.9336968048638
 20
-141.6213297171988
 10
107.0205132110921
 20
-141.6426893092074
 10
107.2723496910639
 20
-141.6426893092074
 10
107.3719129505876
 20
-141.6426893092074
 10
107.3719129505876
 20
-141.6426893092074
 10
107.8032389053409
 20
-141.6426893092074
 10
107.8032389053409
 20
-141.6426893092074
 10
107.845958089358
 20
-141.6426893092074
 10
108.0805690919035
 20
-141.6406222519162
 10
108.1188096517897
 20
-141.6340765704943
 10
108.1608398167098
 20
-141.6278753986208
 10
108.1629068740009
 20
-141.6258083413297
 10
108.2242295736384
 20
-141.5855007241522
 10
108.2242295736384
 20
-141.5855007241522
 10
108.4126762966816
 20
-141.7398410018914
 10
108.4126762966816
 20
-141.7398410018914
 10
108.3830484755084
 20
-141.7694688230646
 10
108.3682345649218
 20
-141.8011637015289
 10
108.3513535970441
 20
-141.8604193438752
 97
        0
 97
        0
 92
        1
 93
        1
 72
     4
 94
        3
 73
     0
 74
     1
 95
       17
 96
       13
 40
0.0
 40
0.0
 40
0.0
 40
0.0
 40
1.0
 40
1.0
 40
1.0
 40
2.0
 40
2.0
 40
2.0
 40
3.0
 40
3.0
 40
3.0
 40
4.0
 40
4.0
 40
4.0
 40
4.0
 10
108.5608154025473
 20
-141.6616373343763
 10
108.4336913791416
 20
-141.6616373343763
 10
108.3324055718752
 20
-141.5600070175614
 10
108.3324055718752
 20
-141.4332275037042
 10
108.3324055718752
 20
-141.306447989847
 10
108.4336913791416
 20
-141.202750615741
 10
108.5608154025473
 20
-141.202750615741
 10
108.687939425953
 20
-141.202750615741
 10
108.7912922905105
 20
-141.306447989847
 10
108.7912922905105
 20
-141.4332275037042
 10
108.7912922905105
 20
-141.5600070175614
 10
108.687939425953
 20
-141.6616373343763
 10
108.5608154025473
 20
-141.6616373343763
 97
        0
 97
        0
 92
        1
 93
        1
 72
     4
 94
        3
 73
     0
 74
     1
 95
       17
 96
       13
 40
0.0
 40
0.0
 40
0.0
 40
0.0
 40
1.0
 40
1.0
 40
1.0
 40
2.0
 40
2.0
 40
2.0
 40
3.0
 40
3.0
 40
3.0
 40
4.0
 40
4.0
 40
4.0
 40
4.0
 10
108.5584038357076
 20
-141.3315971868893
 10
108.5036268174921
 20
-141.3315971868893
 10
108.4591850857324
 20
-141.376038918649
 10
108.4591850857324
 20
-141.4311604464131
 10
108.4591850857324
 20
-141.4883490314682
 10
108.5036268174921
 20
-141.5369248778102
 10
108.5628824598384
 20
-141.5369248778102
 10
108.6221381021847
 20
-141.5369248778102
 10
108.6624457193622
 20
-141.4859374646285
 10
108.6624457193622
 20
-141.4332275037042
 10
108.6624457193622
 20
-141.376038918649
 10
108.6155924207628
 20
-141.3315971868893
 10
108.5584038357076
 20
-141.3315971868893
 97
        0
 97
        0
 75
     2
 76
     1
 98
        0
  0
SPLINE
  5
12C
330
F7
100
AcDbEntity
  8
_U+30EC_U+30A4_U+30E4_U+30FC 1
370
     0
100
AcDbSpline
210
0.0
220
0.0
230
1.0
 70
    11
 71
     3
 72
    50
 73
    46
 74
     0
 42
0.0000000001
 43
0.0000000001
 12
1.0
 22
0.0
 32
0.0
 13
1.0
 23
0.0
 33
0.0
 40
0.0
 40
0.0
 40
0.0
 40
0.0
 40
1.0
 40
1.0
 40
1.0
 40
2.0
 40
2.0
 40
2.0
 40
3.0
 40
3.0
 40
3.0
 40
4.0
 40
4.0
 40
4.0
 40
5.0
 40
5.0
 40
5.0
 40
6.0
 40
6.0
 40
6.0
 40
7.0
 40
7.0
 40
7.0
 40
8.0
 40
8.0
 40
8.0
 40
9.0
 40
9.0
 40
9.0
 40
10.0
 40
10.0
 40
10.0
 40
11.0
 40
11.0
 40
11.0
 40
12.0
 40
12.0
 40
12.0
 40
13.0
 40
13.0
 40
13.0
 40
14.0
 40
14.0
 40
14.0
 40
15.0
 40
15.0
 40
15.0
 40
15.0
 10
110.356054659911
 20
-142.1694444089021
 30
0.0
 10
110.2775064828473
 20
-142.347211335941
 30
0.0
 10
110.1417697207284
 20
-142.5542615746045
 30
0.0
 10
110.0046549204155
 20
-142.6941324513056
 30
0.0
 10
109.8351562225412
 20
-142.8653536969226
 30
0.0
 10
109.6725477156374
 20
-142.954237160442
 30
0.0
 10
109.3528428546062
 20
-143.0958305848858
 30
0.0
 10
109.3528428546062
 20
-143.0958305848858
 30
0.0
 10
109.184033175829
 20
-142.9077283713911
 30
0.0
 10
109.184033175829
 20
-142.9077283713911
 30
0.0
 10
109.3700683320325
 20
-142.8843017220914
 30
0.0
 10
109.5409450681009
 20
-142.7978298254117
 30
0.0
 10
109.693907307646
 20
-142.6920653940145
 30
0.0
 10
109.955734564525
 20
-142.5101643523933
 30
0.0
 10
110.1465928544078
 20
-142.1970051727841
 30
0.0
 10
110.1948241912013
 20
-142.0151041311629
 30
0.0
 10
110.1948241912013
 20
-142.0151041311629
 30
0.0
 10
109.5244086097717
 20
-142.0151041311629
 30
0.0
 10
109.5244086097717
 20
-142.0151041311629
 30
0.0
 10
109.3659342174502
 20
-142.0151041311629
 30
0.0
 10
109.073790120301
 20
-142.0233723603275
 30
0.0
 10
108.921516899853
 20
-142.0402533282052
 30
0.0
 10
108.921516899853
 20
-142.0402533282052
 30
0.0
 10
108.921516899853
 20
-141.8118434975331
 30
0.0
 10
108.921516899853
 20
-141.8118434975331
 30
0.0
 10
108.9552788356084
 20
-141.8183891789551
 30
0.0
 10
108.9807725421993
 20
-141.8245903508286
 30
0.0
 10
109.0338270126721
 20
-141.8287244654109
 30
0.0
 10
109.1351128199384
 20
-141.8352701468329
 30
0.0
 10
109.3321722816947
 20
-141.837337204124
 30
0.0
 10
109.4162326115348
 20
-141.837337204124
 30
0.0
 10
109.4162326115348
 20
-141.837337204124
 30
0.0
 10
109.9219726287695
 20
-141.837337204124
 30
0.0
 10
109.9219726287695
 20
-141.837337204124
 30
0.0
 10
109.9894965002804
 20
-141.837337204124
 30
0.0
 10
110.135568548855
 20
-141.8332030895417
 30
0.0
 10
110.1968912484924
 20
-141.8266574081197
 30
0.0
 10
110.2692382536827
 20
-141.8183891789551
 30
0.0
 10
110.2967990175647
 20
-141.8035752683685
 30
0.0
 10
110.3305609533201
 20
-141.7801486190689
 30
0.0
 10
110.3305609533201
 20
-141.7801486190689
 30
0.0
 10
110.4952365175151
 20
-141.9472357501035
 30
0.0
 10
110.4952365175151
 20
-141.9472357501035
 30
0.0
 10
110.425645588713
 20
-142.0151041311629
 30
0.0
 10
110.3787922901136
 20
-142.1188015052689
 30
0.0
 10
110.356054659911
 20
-142.1694444089021
 30
0.0
  0
SPLINE
  5
12D
330
F7
100
AcDbEntity
  8
_U+30EC_U+30A4_U+30E4_U+30FC 1
370
     0
100
AcDbSpline
210
0.0
220
0.0
230
1.0
 70
    11
 71
     3
 72
    29
 73
    25
 74
     0
 42
0.0000000001
 43
0.0000000001
 12
1.0
 22
0.0
 32
0.0
 13
1.0
 23
0.0
 33
0.0
 40
0.0
 40
0.0
 40
0.0
 40
0.0
 40
1.0
 40
1.0
 40
1.0
 40
2.0
 40
2.0
 40
2.0
 40
3.0
 40
3.0
 40
3.0
 40
4.0
 40
4.0
 40
4.0
 40
5.0
 40
5.0
 40
5.0
 40
6.0
 40
6.0
 40
6.0
 40
7.0
 40
7.0
 40
7.0
 40
8.0
 40
8.0
 40
8.0
 40
8.0
 10
109.8627169864232
 20
-141.5431260496837
 30
0.0
 10
109.8627169864232
 20
-141.5431260496837
 30
0.0
 10
109.5223415524805
 20
-141.5431260496837
 30
0.0
 10
109.5223415524805
 20
-141.5431260496837
 30
0.0
 10
109.4079643823702
 20
-141.5431260496837
 30
0.0
 10
109.2915201549688
 20
-141.5476046738145
 30
0.0
 10
109.1771429848585
 20
-141.5624185844011
 30
0.0
 10
109.1771429848585
 20
-141.5624185844011
 30
0.0
 10
109.1771429848585
 20
-141.3529567788979
 30
0.0
 10
109.1771429848585
 20
-141.3529567788979
 30
0.0
 10
109.2956542695511
 20
-141.3677706894844
 30
0.0
 10
109.4692870820077
 20
-141.3719048040668
 30
0.0
 10
109.5223415524805
 20
-141.3719048040668
 30
0.0
 10
109.5223415524805
 20
-141.3719048040668
 30
0.0
 10
109.8627169864232
 20
-141.3719048040668
 30
0.0
 10
109.8627169864232
 20
-141.3719048040668
 30
0.0
 10
109.9791612138247
 20
-141.3719048040668
 30
0.0
 10
110.0956054412261
 20
-141.3677706894844
 30
0.0
 10
110.2120496686275
 20
-141.3529567788979
 30
0.0
 10
110.2120496686275
 20
-141.3529567788979
 30
0.0
 10
110.2120496686275
 20
-141.5624185844011
 30
0.0
 10
110.2120496686275
 20
-141.5624185844011
 30
0.0
 10
110.0618435054707
 20
-141.5431260496837
 30
0.0
 10
109.8778754065583
 20
-141.5431260496837
 30
0.0
 10
109.8627169864232
 20
-141.5431260496837
 30
0.0
  0
HATCH
  5
12E
330
F7
100
AcDbEntity
  8
_U+30EC_U+30A4_U+30E4_U+30FC 1
 62
   179
420
  2234388
100
AcDbHatch
 10
0.0
 20
0.0
 30
0.0
210
0.0
220
0.0
230
1.0
  2
SOLID
 70
     1
 71
     0
 91
        2
 92
        1
 93
        1
 72
     4
 94
        3
 73
     0
 74
     1
 95
       50
 96
       46
 40
0.0
 40
0.0
 40
0.0
 40
0.0
 40
1.0
 40
1.0
 40
1.0
 40
2.0
 40
2.0
 40
2.0
 40
3.0
 40
3.0
 40
3.0
 40
4.0
 40
4.0
 40
4.0
 40
5.0
 40
5.0
 40
5.0
 40
6.0
 40
6.0
 40
6.0
 40
7.0
 40
7.0
 40
7.0
 40
8.0
 40
8.0
 40
8.0
 40
9.0
 40
9.0
 40
9.0
 40
10.0
 40
10.0
 40
10.0
 40
11.0
 40
11.0
 40
11.0
 40
12.0
 40
12.0
 40
12.0
 40
13.0
 40
13.0
 40
13.0
 40
14.0
 40
14.0
 40
14.0
 40
15.0
 40
15.0
 40
15.0
 40
15.0
 10
110.356054659911
 20
-142.1694444089021
 10
110.2775064828473
 20
-142.347211335941
 10
110.1417697207284
 20
-142.5542615746045
 10
110.0046549204155
 20
-142.6941324513056
 10
109.8351562225412
 20
-142.8653536969226
 10
109.6725477156374
 20
-142.954237160442
 10
109.3528428546062
 20
-143.0958305848858
 10
109.3528428546062
 20
-143.0958305848858
 10
109.184033175829
 20
-142.9077283713911
 10
109.184033175829
 20
-142.9077283713911
 10
109.3700683320325
 20
-142.8843017220914
 10
109.5409450681009
 20
-142.7978298254117
 10
109.693907307646
 20
-142.6920653940145
 10
109.955734564525
 20
-142.5101643523933
 10
110.1465928544078
 20
-142.1970051727841
 10
110.1948241912013
 20
-142.0151041311629
 10
110.1948241912013
 20
-142.0151041311629
 10
109.5244086097717
 20
-142.0151041311629
 10
109.5244086097717
 20
-142.0151041311629
 10
109.3659342174502
 20
-142.0151041311629
 10
109.073790120301
 20
-142.0233723603275
 10
108.921516899853
 20
-142.0402533282052
 10
108.921516899853
 20
-142.0402533282052
 10
108.921516899853
 20
-141.8118434975331
 10
108.921516899853
 20
-141.8118434975331
 10
108.9552788356084
 20
-141.8183891789551
 10
108.9807725421993
 20
-141.8245903508286
 10
109.0338270126721
 20
-141.8287244654109
 10
109.1351128199384
 20
-141.8352701468329
 10
109.3321722816947
 20
-141.837337204124
 10
109.4162326115348
 20
-141.837337204124
 10
109.4162326115348
 20
-141.837337204124
 10
109.9219726287695
 20
-141.837337204124
 10
109.9219726287695
 20
-141.837337204124
 10
109.9894965002804
 20
-141.837337204124
 10
110.135568548855
 20
-141.8332030895417
 10
110.1968912484924
 20
-141.8266574081197
 10
110.2692382536827
 20
-141.8183891789551
 10
110.2967990175647
 20
-141.8035752683685
 10
110.3305609533201
 20
-141.7801486190689
 10
110.3305609533201
 20
-141.7801486190689
 10
110.4952365175151
 20
-141.9472357501035
 10
110.4952365175151
 20
-141.9472357501035
 10
110.425645588713
 20
-142.0151041311629
 10
110.3787922901136
 20
-142.1188015052689
 10
110.356054659911
 20
-142.1694444089021
 97
        0
 97
        0
 92
        1
 93
        1
 72
     4
 94
        3
 73
     0
 74
     1
 95
       29
 96
       25
 40
0.0
 40
0.0
 40
0.0
 40
0.0
 40
1.0
 40
1.0
 40
1.0
 40
2.0
 40
2.0
 40
2.0
 40
3.0
 40
3.0
 40
3.0
 40
4.0
 40
4.0
 40
4.0
 40
5.0
 40
5.0
 40
5.0
 40
6.0
 40
6.0
 40
6.0
 40
7.0
 40
7.0
 40
7.0
 40
8.0
 40
8.0
 40
8.0
 40
8.0
 10
109.8627169864232
 20
-141.5431260496837
 10
109.8627169864232
 20
-141.5431260496837
 10
109.5223415524805
 20
-141.5431260496837
 10
109.5223415524805
 20
-141.5431260496837
 10
109.4079643823702
 20
-141.5431260496837
 10
109.2915201549688
 20
-141.5476046738145
 10
109.1771429848585
 20
-141.5624185844011
 10
109.1771429848585
 20
-141.5624185844011
 10
109.1771429848585
 20
-141.3529567788979
 10
109.1771429848585
 20
-141.3529567788979
 10
109.2956542695511
 20
-141.3677706894844
 10
109.4692870820077
 20
-141.3719048040668
 10
109.5223415524805
 20
-141.3719048040668
 10
109.5223415524805
 20
-141.3719048040668
 10
109.8627169864232
 20
-141.3719048040668
 10
109.8627169864232
 20
-141.3719048040668
 10
109.9791612138247
 20
-141.3719048040668
 10
110.0956054412261
 20
-141.3677706894844
 10
110.2120496686275
 20
-141.3529567788979
 10
110.2120496686275
 20
-141.3529567788979
 10
110.2120496686275
 20
-141.5624185844011
 10
110.2120496686275
 20
-141.5624185844011
 10
110.0618435054707
 20
-141.5431260496837
 10
109.8778754065583
 20
-141.5431260496837
 10
109.8627169864232
 20
-141.5431260496837
 97
        0
 97
        0
 75
     2
 76
     1
 98
        0
  0
SPLINE
  5
12F
330
F7
100
AcDbEntity
  8
_U+30EC_U+30A4_U+30E4_U+30FC 1
370
     0
100
AcDbSpline
210
0.0
220
0.0
230
1.0
 70
    11
 71
     3
 72
    50
 73
    46
 74
     0
 42
0.0000000001
 43
0.0000000001
 12
1.0
 22
0.0
 32
0.0
 13
1.0
 23
0.0
 33
0.0
 40
0.0
 40
0.0
 40
0.0
 40
0.0
 40
1.0
 40
1.0
 40
1.0
 40
2.0
 40
2.0
 40
2.0
 40
3.0
 40
3.0
 40
3.0
 40
4.0
 40
4.0
 40
4.0
 40
5.0
 40
5.0
 40
5.0
 40
6.0
 40
6.0
 40
6.0
 40
7.0
 40
7.0
 40
7.0
 40
8.0
 40
8.0
 40
8.0
 40
9.0
 40
9.0
 40
9.0
 40
10.0
 40
10.0
 40
10.0
 40
11.0
 40
11.0
 40
11.0
 40
12.0
 40
12.0
 40
12.0
 40
13.0
 40
13.0
 40
13.0
 40
14.0
 40
14.0
 40
14.0
 40
15.0
 40
15.0
 40
15.0
 40
15.0
 10
112.066200058789
 20
-141.5283121390971
 30
0.0
 10
111.8567382532858
 20
-141.7419080591826
 30
0.0
 10
111.7850802671926
 20
-141.8139105548243
 30
0.0
 10
111.6431423332003
 20
-141.9324218395169
 30
0.0
 10
111.6431423332003
 20
-141.9324218395169
 30
0.0
 10
111.6431423332003
 20
-142.499484556389
 30
0.0
 10
111.6431423332003
 20
-142.499484556389
 30
0.0
 10
111.6431423332003
 20
-142.6496907195459
 30
0.0
 10
111.6493435050738
 20
-142.6686387447148
 30
0.0
 10
111.6534776196561
 20
-142.8464056717537
 30
0.0
 10
111.6555446769472
 20
-142.9776638097417
 30
0.0
 10
111.6617458488207
 20
-143.0262396560837
 30
0.0
 10
111.6686360397912
 20
-143.08549529843
 30
0.0
 10
111.6686360397912
 20
-143.08549529843
 30
0.0
 10
111.4419487568617
 20
-143.08549529843
 30
0.0
 10
111.4419487568617
 20
-143.08549529843
 30
0.0
 10
111.446082871444
 20
-143.0410535666703
 30
0.0
 10
111.4502169860263
 20
-142.9945447776194
 30
0.0
 10
111.4502169860263
 20
-142.9859320389063
 30
0.0
 10
111.4502169860263
 20
-142.9056613141
 30
0.0
 10
111.4550401197057
 20
-142.5542615746045
 30
0.0
 10
111.4550401197057
 20
-142.4826035885113
 30
0.0
 10
111.4550401197057
 20
-142.4826035885113
 30
0.0
 10
111.4550401197057
 20
-142.0764268308004
 30
0.0
 10
111.4550401197057
 20
-142.0764268308004
 30
0.0
 10
111.2731390780845
 20
-142.2011392873664
 30
0.0
 10
111.0781466736194
 20
-142.3110378333459
 30
0.0
 10
110.8748860399896
 20
-142.3978542395741
 30
0.0
 10
110.8748860399896
 20
-142.3978542395741
 30
0.0
 10
110.6723144254569
 20
-142.2349012231218
 30
0.0
 10
110.6723144254569
 20
-142.2349012231218
 30
0.0
 10
110.7949598247318
 20
-142.1990722300752
 30
0.0
 10
111.0505859097374
 20
-142.1250026771424
 30
0.0
 10
111.3957844773594
 20
-141.8690320825883
 30
0.0
 10
111.611447454736
 20
-141.7102131807183
 30
0.0
 10
111.803683782813
 20
-141.5221109672237
 30
0.0
 10
111.955957003261
 20
-141.3019693657162
 30
0.0
 10
111.955957003261
 20
-141.3019693657162
 30
0.0
 10
112.148882350435
 20
-141.4459743569996
 30
0.0
 10
112.148882350435
 20
-141.4459743569996
 30
0.0
 10
112.1612846941819
 20
-141.4566541530039
 30
0.0
 10
112.1695529233465
 20
-141.471123554042
 30
0.0
 10
112.1695529233465
 20
-141.4838704073374
 30
0.0
 10
112.1695529233465
 20
-141.5241780245148
 30
0.0
 10
112.1316568730088
 20
-141.5241780245148
 30
0.0
 10
112.066200058789
 20
-141.5283121390971
 30
0.0
  0
HATCH
  5
130
330
F7
100
AcDbEntity
  8
_U+30EC_U+30A4_U+30E4_U+30FC 1
 62
   179
420
  2234388
100
AcDbHatch
 10
0.0
 20
0.0
 30
0.0
210
0.0
220
0.0
230
1.0
  2
SOLID
 70
     1
 71
     0
 91
        1
 92
        1
 93
        1
 72
     4
 94
        3
 73
     0
 74
     1
 95
       50
 96
       46
 40
0.0
 40
0.0
 40
0.0
 40
0.0
 40
1.0
 40
1.0
 40
1.0
 40
2.0
 40
2.0
 40
2.0
 40
3.0
 40
3.0
 40
3.0
 40
4.0
 40
4.0
 40
4.0
 40
5.0
 40
5.0
 40
5.0
 40
6.0
 40
6.0
 40
6.0
 40
7.0
 40
7.0
 40
7.0
 40
8.0
 40
8.0
 40
8.0
 40
9.0
 40
9.0
 40
9.0
 40
10.0
 40
10.0
 40
10.0
 40
11.0
 40
11.0
 40
11.0
 40
12.0
 40
12.0
 40
12.0
 40
13.0
 40
13.0
 40
13.0
 40
14.0
 40
14.0
 40
14.0
 40
15.0
 40
15.0
 40
15.0
 40
15.0
 10
112.066200058789
 20
-141.5283121390971
 10
111.8567382532858
 20
-141.7419080591826
 10
111.7850802671926
 20
-141.8139105548243
 10
111.6431423332003
 20
-141.9324218395169
 10
111.6431423332003
 20
-141.9324218395169
 10
111.6431423332003
 20
-142.499484556389
 10
111.6431423332003
 20
-142.499484556389
 10
111.6431423332003
 20
-142.6496907195459
 10
111.6493435050738
 20
-142.6686387447148
 10
111.6534776196561
 20
-142.8464056717537
 10
111.6555446769472
 20
-142.9776638097417
 10
111.6617458488207
 20
-143.0262396560837
 10
111.6686360397912
 20
-143.08549529843
 10
111.6686360397912
 20
-143.08549529843
 10
111.4419487568617
 20
-143.08549529843
 10
111.4419487568617
 20
-143.08549529843
 10
111.446082871444
 20
-143.0410535666703
 10
111.4502169860263
 20
-142.9945447776194
 10
111.4502169860263
 20
-142.9859320389063
 10
111.4502169860263
 20
-142.9056613141
 10
111.4550401197057
 20
-142.5542615746045
 10
111.4550401197057
 20
-142.4826035885113
 10
111.4550401197057
 20
-142.4826035885113
 10
111.4550401197057
 20
-142.0764268308004
 10
111.4550401197057
 20
-142.0764268308004
 10
111.2731390780845
 20
-142.2011392873664
 10
111.0781466736194
 20
-142.3110378333459
 10
110.8748860399896
 20
-142.3978542395741
 10
110.8748860399896
 20
-142.3978542395741
 10
110.6723144254569
 20
-142.2349012231218
 10
110.6723144254569
 20
-142.2349012231218
 10
110.7949598247318
 20
-142.1990722300752
 10
111.0505859097374
 20
-142.1250026771424
 10
111.3957844773594
 20
-141.8690320825883
 10
111.611447454736
 20
-141.7102131807183
 10
111.803683782813
 20
-141.5221109672237
 10
111.955957003261
 20
-141.3019693657162
 10
111.955957003261
 20
-141.3019693657162
 10
112.148882350435
 20
-141.4459743569996
 10
112.148882350435
 20
-141.4459743569996
 10
112.1612846941819
 20
-141.4566541530039
 10
112.1695529233465
 20
-141.471123554042
 10
112.1695529233465
 20
-141.4838704073374
 10
112.1695529233465
 20
-141.5241780245148
 10
112.1316568730088
 20
-141.5241780245148
 10
112.066200058789
 20
-141.5283121390971
 97
        0
 97
        0
 75
     2
 76
     1
 98
        0
  0
SPLINE
  5
131
330
F7
100
AcDbEntity
  8
_U+30EC_U+30A4_U+30E4_U+30FC 1
370
     0
100
AcDbSpline
210
0.0
220
0.0
230
1.0
 70
    11
 71
     3
 72
    50
 73
    46
 74
     0
 42
0.0000000001
 43
0.0000000001
 12
1.0
 22
0.0
 32
0.0
 13
1.0
 23
0.0
 33
0.0
 40
0.0
 40
0.0
 40
0.0
 40
0.0
 40
1.0
 40
1.0
 40
1.0
 40
2.0
 40
2.0
 40
2.0
 40
3.0
 40
3.0
 40
3.0
 40
4.0
 40
4.0
 40
4.0
 40
5.0
 40
5.0
 40
5.0
 40
6.0
 40
6.0
 40
6.0
 40
7.0
 40
7.0
 40
7.0
 40
8.0
 40
8.0
 40
8.0
 40
9.0
 40
9.0
 40
9.0
 40
10.0
 40
10.0
 40
10.0
 40
11.0
 40
11.0
 40
11.0
 40
12.0
 40
12.0
 40
12.0
 40
13.0
 40
13.0
 40
13.0
 40
14.0
 40
14.0
 40
14.0
 40
15.0
 40
15.0
 40
15.0
 40
15.0
 10
113.7742784003759
 20
-142.0550672387918
 30
0.0
 10
113.7129557007384
 20
-142.1270697344335
 30
0.0
 10
113.4525064820536
 20
-142.444363028625
 30
0.0
 10
113.3960069160954
 20
-142.5077527855536
 30
0.0
 10
113.4800672459355
 20
-142.6052489877862
 30
0.0
 10
113.5310546591172
 20
-142.6686387447148
 30
0.0
 10
113.596511473337
 20
-142.7595892655254
 30
0.0
 10
113.596511473337
 20
-142.7595892655254
 30
0.0
 10
113.4125433744246
 20
-142.8970485753869
 30
0.0
 10
113.4125433744246
 20
-142.8970485753869
 30
0.0
 10
113.2774956314029
 20
-142.6855197125925
 30
0.0
 10
113.1059298762374
 20
-142.4612439965028
 30
0.0
 10
112.8117187217971
 20
-142.2624619870038
 30
0.0
 10
112.8117187217971
 20
-142.2624619870038
 30
0.0
 10
112.9598578276628
 20
-142.1081217092647
 30
0.0
 10
112.9598578276628
 20
-142.1081217092647
 30
0.0
 10
113.0701008831908
 20
-142.188392434071
 30
0.0
 10
113.1734537477483
 20
-142.2772758975904
 30
0.0
 10
113.2706054404323
 20
-142.3723605329833
 30
0.0
 10
113.3388183310403
 20
-142.2962239227593
 30
0.0
 10
113.541389945573
 20
-142.0530001815006
 30
0.0
 10
113.6750596504007
 20
-141.8245903508286
 30
0.0
 10
113.6750596504007
 20
-141.8245903508286
 30
0.0
 10
113.0018879925829
 20
-141.8245903508286
 30
0.0
 10
113.0018879925829
 20
-141.8245903508286
 30
0.0
 10
112.8771755360168
 20
-141.8245903508286
 30
0.0
 10
112.6256835655936
 20
-141.8332030895417
 30
0.0
 10
112.4162217600904
 20
-141.8435383759975
 30
0.0
 10
112.4162217600904
 20
-141.8435383759975
 30
0.0
 10
112.4162217600904
 20
-141.6237412840385
 30
0.0
 10
112.4162217600904
 20
-141.6237412840385
 30
0.0
 10
112.6001898590027
 20
-141.6426893092074
 30
0.0
 10
112.8055175499236
 20
-141.6468234237897
 30
0.0
 10
112.9936197634183
 20
-141.6468234237897
 30
0.0
 10
112.9936197634183
 20
-141.6468234237897
 30
0.0
 10
113.4972927233618
 20
-141.6468234237897
 30
0.0
 10
113.4972927233618
 20
-141.6468234237897
 30
0.0
 10
113.8356011000133
 20
-141.6468234237897
 30
0.0
 10
113.8803873413216
 20
-141.6320095132031
 30
0.0
 10
113.9623806138705
 20
-141.5917018960257
 30
0.0
 10
113.9623806138705
 20
-141.5917018960257
 30
0.0
 10
114.1298122544537
 20
-141.7505207978957
 30
0.0
 10
114.1298122544537
 20
-141.7505207978957
 30
0.0
 10
113.9775390340056
 20
-141.8225232935374
 30
0.0
 10
113.8335340427222
 20
-141.9854763099897
 30
0.0
 10
113.7742784003759
 20
-142.0550672387918
 30
0.0
  0
HATCH
  5
132
330
F7
100
AcDbEntity
  8
_U+30EC_U+30A4_U+30E4_U+30FC 1
 62
   179
420
  2234388
100
AcDbHatch
 10
0.0
 20
0.0
 30
0.0
210
0.0
220
0.0
230
1.0
  2
SOLID
 70
     1
 71
     0
 91
        1
 92
        1
 93
        1
 72
     4
 94
        3
 73
     0
 74
     1
 95
       50
 96
       46
 40
0.0
 40
0.0
 40
0.0
 40
0.0
 40
1.0
 40
1.0
 40
1.0
 40
2.0
 40
2.0
 40
2.0
 40
3.0
 40
3.0
 40
3.0
 40
4.0
 40
4.0
 40
4.0
 40
5.0
 40
5.0
 40
5.0
 40
6.0
 40
6.0
 40
6.0
 40
7.0
 40
7.0
 40
7.0
 40
8.0
 40
8.0
 40
8.0
 40
9.0
 40
9.0
 40
9.0
 40
10.0
 40
10.0
 40
10.0
 40
11.0
 40
11.0
 40
11.0
 40
12.0
 40
12.0
 40
12.0
 40
13.0
 40
13.0
 40
13.0
 40
14.0
 40
14.0
 40
14.0
 40
15.0
 40
15.0
 40
15.0
 40
15.0
 10
113.7742784003759
 20
-142.0550672387918
 10
113.7129557007384
 20
-142.1270697344335
 10
113.4525064820536
 20
-142.444363028625
 10
113.3960069160954
 20
-142.5077527855536
 10
113.4800672459355
 20
-142.6052489877862
 10
113.5310546591172
 20
-142.6686387447148
 10
113.596511473337
 20
-142.7595892655254
 10
113.596511473337
 20
-142.7595892655254
 10
113.4125433744246
 20
-142.8970485753869
 10
113.4125433744246
 20
-142.8970485753869
 10
113.2774956314029
 20
-142.6855197125925
 10
113.1059298762374
 20
-142.4612439965028
 10
112.8117187217971
 20
-142.2624619870038
 10
112.8117187217971
 20
-142.2624619870038
 10
112.9598578276628
 20
-142.1081217092647
 10
112.9598578276628
 20
-142.1081217092647
 10
113.0701008831908
 20
-142.188392434071
 10
113.1734537477483
 20
-142.2772758975904
 10
113.2706054404323
 20
-142.3723605329833
 10
113.3388183310403
 20
-142.2962239227593
 10
113.541389945573
 20
-142.0530001815006
 10
113.6750596504007
 20
-141.8245903508286
 10
113.6750596504007
 20
-141.8245903508286
 10
113.0018879925829
 20
-141.8245903508286
 10
113.0018879925829
 20
-141.8245903508286
 10
112.8771755360168
 20
-141.8245903508286
 10
112.6256835655936
 20
-141.8332030895417
 10
112.4162217600904
 20
-141.8435383759975
 10
112.4162217600904
 20
-141.8435383759975
 10
112.4162217600904
 20
-141.6237412840385
 10
112.4162217600904
 20
-141.6237412840385
 10
112.6001898590027
 20
-141.6426893092074
 10
112.8055175499236
 20
-141.6468234237897
 10
112.9936197634183
 20
-141.6468234237897
 10
112.9936197634183
 20
-141.6468234237897
 10
113.4972927233618
 20
-141.6468234237897
 10
113.4972927233618
 20
-141.6468234237897
 10
113.8356011000133
 20
-141.6468234237897
 10
113.8803873413216
 20
-141.6320095132031
 10
113.9623806138705
 20
-141.5917018960257
 10
113.9623806138705
 20
-141.5917018960257
 10
114.1298122544537
 20
-141.7505207978957
 10
114.1298122544537
 20
-141.7505207978957
 10
113.9775390340056
 20
-141.8225232935374
 10
113.8335340427222
 20
-141.9854763099897
 10
113.7742784003759
 20
-142.0550672387918
 97
        0
 97
        0
 75
     2
 76
     1
 98
        0
  0
SPLINE
  5
133
330
F7
100
AcDbEntity
  8
_U+30EC_U+30A4_U+30E4_U+30FC 1
370
     0
100
AcDbSpline
210
0.0
220
0.0
230
1.0
 70
    11
 71
     3
 72
    29
 73
    25
 74
     0
 42
0.0000000001
 43
0.0000000001
 12
1.0
 22
0.0
 32
0.0
 13
1.0
 23
0.0
 33
0.0
 40
0.0
 40
0.0
 40
0.0
 40
0.0
 40
1.0
 40
1.0
 40
1.0
 40
2.0
 40
2.0
 40
2.0
 40
3.0
 40
3.0
 40
3.0
 40
4.0
 40
4.0
 40
4.0
 40
5.0
 40
5.0
 40
5.0
 40
6.0
 40
6.0
 40
6.0
 40
7.0
 40
7.0
 40
7.0
 40
8.0
 40
8.0
 40
8.0
 40
8.0
 10
115.3976073930256
 20
-142.2982909800504
 30
0.0
 10
115.3976073930256
 20
-142.2982909800504
 30
0.0
 10
114.9132269677995
 20
-142.2982909800504
 30
0.0
 10
114.9132269677995
 20
-142.2982909800504
 30
0.0
 10
114.8856662039175
 20
-142.2982909800504
 30
0.0
 10
114.5687174192745
 20
-142.2982909800504
 30
0.0
 10
114.3571885564802
 20
-142.3237846866413
 30
0.0
 10
114.3571885564802
 20
-142.3237846866413
 30
0.0
 10
114.3571885564802
 20
-142.0933077986781
 30
0.0
 10
114.3571885564802
 20
-142.0933077986781
 30
0.0
 10
114.5156629488016
 20
-142.1163899384293
 30
0.0
 10
114.7058322195874
 20
-142.1188015052689
 30
0.0
 10
114.9132269677995
 20
-142.1188015052689
 30
0.0
 10
114.9132269677995
 20
-142.1188015052689
 30
0.0
 10
115.3976073930256
 20
-142.1188015052689
 30
0.0
 10
115.3976073930256
 20
-142.1188015052689
 30
0.0
 10
115.5836425492291
 20
-142.1188015052689
 30
0.0
 10
115.7703667245296
 20
-142.1163899384293
 30
0.0
 10
115.954334823442
 20
-142.0933077986781
 30
0.0
 10
115.954334823442
 20
-142.0933077986781
 30
0.0
 10
115.954334823442
 20
-142.3237846866413
 30
0.0
 10
115.954334823442
 20
-142.3237846866413
 30
0.0
 10
115.7703667245296
 20
-142.3007025468901
 30
0.0
 10
115.5223198495917
 20
-142.2982909800504
 30
0.0
 10
115.3976073930256
 20
-142.2982909800504
 30
0.0
  0
HATCH
  5
134
330
F7
100
AcDbEntity
  8
_U+30EC_U+30A4_U+30E4_U+30FC 1
 62
   179
420
  2234388
100
AcDbHatch
 10
0.0
 20
0.0
 30
0.0
210
0.0
220
0.0
230
1.0
  2
SOLID
 70
     1
 71
     0
 91
        1
 92
        1
 93
        1
 72
     4
 94
        3
 73
     0
 74
     1
 95
       29
 96
       25
 40
0.0
 40
0.0
 40
0.0
 40
0.0
 40
1.0
 40
1.0
 40
1.0
 40
2.0
 40
2.0
 40
2.0
 40
3.0
 40
3.0
 40
3.0
 40
4.0
 40
4.0
 40
4.0
 40
5.0
 40
5.0
 40
5.0
 40
6.0
 40
6.0
 40
6.0
 40
7.0
 40
7.0
 40
7.0
 40
8.0
 40
8.0
 40
8.0
 40
8.0
 10
115.3976073930256
 20
-142.2982909800504
 10
115.3976073930256
 20
-142.2982909800504
 10
114.9132269677995
 20
-142.2982909800504
 10
114.9132269677995
 20
-142.2982909800504
 10
114.8856662039175
 20
-142.2982909800504
 10
114.5687174192745
 20
-142.2982909800504
 10
114.3571885564802
 20
-142.3237846866413
 10
114.3571885564802
 20
-142.3237846866413
 10
114.3571885564802
 20
-142.0933077986781
 10
114.3571885564802
 20
-142.0933077986781
 10
114.5156629488016
 20
-142.1163899384293
 10
114.7058322195874
 20
-142.1188015052689
 10
114.9132269677995
 20
-142.1188015052689
 10
114.9132269677995
 20
-142.1188015052689
 10
115.3976073930256
 20
-142.1188015052689
 10
115.3976073930256
 20
-142.1188015052689
 10
115.5836425492291
 20
-142.1188015052689
 10
115.7703667245296
 20
-142.1163899384293
 10
115.954334823442
 20
-142.0933077986781
 10
115.954334823442
 20
-142.0933077986781
 10
115.954334823442
 20
-142.3237846866413
 10
115.954334823442
 20
-142.3237846866413
 10
115.7703667245296
 20
-142.3007025468901
 10
115.5223198495917
 20
-142.2982909800504
 10
115.3976073930256
 20
-142.2982909800504
 97
        0
 97
        0
 75
     2
 76
     1
 98
        0
  0
ENDBLK
  5
FA
330
F7
100
AcDbEntity
  8
0
100
AcDbBlockEnd
  0
ENDSEC
  0
SECTION
  2
ENTITIES
  0
POLYLINE
  5
41
330
1F
100
AcDbEntity
  8
_U+30EC_U+30A4_U+30E4_U+30FC 1
 62
     7
420
 16777215
370
    25
100
AcDb2dPolyline
 66
     1
 10
0.0
 20
0.0
 30
0.0
  0
VERTEX
  5
42
330
41
100
AcDbEntity
  8
_U+30EC_U+30A4_U+30E4_U+30FC 1
 62
     7
420
 16777215
370
    25
100
AcDbVertex
100
AcDb2dVertex
 10
74.67949059476747
 20
-138.8690319097273
 30
0.0
  0
VERTEX
  5
43
330
41
100
AcDbEntity
  8
_U+30EC_U+30A4_U+30E4_U+30FC 1
 62
     7
420
 16777215
370
    25
100
AcDbVertex
100
AcDb2dVertex
 10
96.67970003349537
 20
-138.8690319097273
 30
0.0
  0
SEQEND
  5
44
330
41
100
AcDbEntity
  8
_U+30EC_U+30A4_U+30E4_U+30FC 1
 62
     7
420
 16777215
370
    25
  0
POLYLINE
  5
45
330
1F
100
AcDbEntity
  8
_U+30EC_U+30A4_U+30E4_U+30FC 1
 62
     7
420
 16777215
370
    25
100
AcDb2dPolyline
 66
     1
 10
0.0
 20
0.0
 30
0.0
  0
VERTEX
  5
46
330
45
100
AcDbEntity
  8
_U+30EC_U+30A4_U+30E4_U+30FC 1
 62
     7
420
 16777215
370
    25
100
AcDbVertex
100
AcDb2dVertex
 10
74.67949059476747
 20
-123.3693874691576
 30
0.0
  0
VERTEX
  5
47
330
45
100
AcDbEntity
  8
_U+30EC_U+30A4_U+30E4_U+30FC 1
 62
     7
420
 16777215
370
    25
100
AcDbVertex
100
AcDb2dVertex
 10
96.16019949119337
 20
-123.3693874691576
 30
0.0
  0
SEQEND
  5
48
330
45
100
AcDbEntity
  8
_U+30EC_U+30A4_U+30E4_U+30FC 1
 62
     7
420
 16777215
370
    25
  0
POLYLINE
  5
49
330
1F
100
AcDbEntity
  8
_U+30EC_U+30A4_U+30E4_U+30FC 1
 62
     7
420
 16777215
370
    25
100
AcDb2dPolyline
 66
     1
 10
0.0
 20
0.0
 30
0.0
  0
VERTEX
  5
4A
330
49
100
AcDbEntity
  8
_U+30EC_U+30A4_U+30E4_U+30FC 1
 62
     7
420
 16777215
370
    25
100
AcDbVertex
100
AcDb2dVertex
 10
74.67949059476747
 20
-139.8695096872547
 30
0.0
  0
VERTEX
  5
4B
330
49
100
AcDbEntity
  8
_U+30EC_U+30A4_U+30E4_U+30FC 1
 62
     7
420
 16777215
370
    25
100
AcDbVertex
100
AcDb2dVertex
 10
95.67925755901878
 20
-139.8695096872547
 30
0.0
  0
SEQEND
  5
4C
330
49
100
AcDbEntity
  8
_U+30EC_U+30A4_U+30E4_U+30FC 1
 62
     7
420
 16777215
370
    25
  0
POLYLINE
  5
4D
330
1F
100
AcDbEntity
  8
_U+30EC_U+30A4_U+30E4_U+30FC 1
 62
     7
420
 16777215
370
    25
100
AcDb2dPolyline
 66
     1
 10
0.0
 20
0.0
 30
0.0
  0
VERTEX
  5
4E
330
4D
100
AcDbEntity
  8
_U+30EC_U+30A4_U+30E4_U+30FC 1
 62
     7
420
 16777215
370
    25
100
AcDbVertex
100
AcDb2dVertex
 10
73.67975553713553
 20
-118.8695658036159
 30
0.0
  0
VERTEX
  5
4F
330
4D
100
AcDbEntity
  8
_U+30EC_U+30A4_U+30E4_U+30FC 1
 62
     7
420
 16777215
370
    25
100
AcDbVertex
100
AcDb2dVertex
 10
73.67975553713553
 20
-138.8690319097273
 30
0.0
  0
SEQEND
  5
50
330
4D
100
AcDbEntity
  8
_U+30EC_U+30A4_U+30E4_U+30FC 1
 62
     7
420
 16777215
370
    25
  0
POLYLINE
  5
51
330
1F
100
AcDbEntity
  8
_U+30EC_U+30A4_U+30E4_U+30FC 1
 62
     7
420
 16777215
370
    25
100
AcDb2dPolyline
 66
     1
 10
0.0
 20
0.0
 30
0.0
  0
VERTEX
  5
52
330
51
100
AcDbEntity
  8
_U+30EC_U+30A4_U+30E4_U+30FC 1
 62
     7
420
 16777215
370
    25
100
AcDbVertex
100
AcDb2dVertex
 10
74.67949059476747
 20
-117.8694760816437
 30
0.0
  0
VERTEX
  5
53
330
51
100
AcDbEntity
  8
_U+30EC_U+30A4_U+30E4_U+30FC 1
 62
     7
420
 16777215
370
    25
100
AcDbVertex
100
AcDb2dVertex
 10
74.67949059476747
 20
-122.3692624694076
 30
0.0
  0
SEQEND
  5
54
330
51
100
AcDbEntity
  8
_U+30EC_U+30A4_U+30E4_U+30FC 1
 62
     7
420
 16777215
370
    25
  0
POLYLINE
  5
55
330
1F
100
AcDbEntity
  8
_U+30EC_U+30A4_U+30E4_U+30FC 1
 62
     7
420
 16777215
370
    25
100
AcDb2dPolyline
 66
     1
 10
0.0
 20
0.0
 30
0.0
  0
VERTEX
  5
56
330
55
100
AcDbEntity
  8
_U+30EC_U+30A4_U+30E4_U+30FC 1
 62
     7
420
 16777215
370
    25
100
AcDbVertex
100
AcDb2dVertex
 10
74.67949059476747
 20
-122.3692624694076
 30
0.0
  0
VERTEX
  5
57
330
55
100
AcDbEntity
  8
_U+30EC_U+30A4_U+30E4_U+30FC 1
 62
     7
420
 16777215
370
    25
100
AcDbVertex
100
AcDb2dVertex
 10
101.6792312948356
 20
-122.3692624694076
 30
0.0
  0
SEQEND
  5
58
330
55
100
AcDbEntity
  8
_U+30EC_U+30A4_U+30E4_U+30FC 1
 62
     7
420
 16777215
370
    25
  0
POLYLINE
  5
59
330
1F
100
AcDbEntity
  8
_U+30EC_U+30A4_U+30E4_U+30FC 1
 62
     7
420
 16777215
370
    25
100
AcDb2dPolyline
 66
     1
 10
0.0
 20
0.0
 30
0.0
  0
VERTEX
  5
5A
330
59
100
AcDbEntity
  8
_U+30EC_U+30A4_U+30E4_U+30FC 1
 62
     7
420
 16777215
370
    25
100
AcDbVertex
100
AcDb2dVertex
 10
74.67949059476747
 20
-123.3693874691576
 30
0.0
  0
VERTEX
  5
5B
330
59
100
AcDbEntity
  8
_U+30EC_U+30A4_U+30E4_U+30FC 1
 62
     7
420
 16777215
370
    25
100
AcDbVertex
100
AcDb2dVertex
 10
74.67949059476747
 20
-138.8690319097273
 30
0.0
  0
SEQEND
  5
5C
330
59
100
AcDbEntity
  8
_U+30EC_U+30A4_U+30E4_U+30FC 1
 62
     7
420
 16777215
370
    25
  0
POLYLINE
  5
5D
330
1F
100
AcDbEntity
  8
_U+30EC_U+30A4_U+30E4_U+30FC 1
 62
     7
420
 16777215
370
    25
100
AcDb2dPolyline
 66
     1
 10
0.0
 20
0.0
 30
0.0
  0
VERTEX
  5
5E
330
5D
100
AcDbEntity
  8
_U+30EC_U+30A4_U+30E4_U+30FC 1
 62
     7
420
 16777215
370
    25
100
AcDbVertex
100
AcDb2dVertex
 10
96.67970003349537
 20
-123.0693146914549
 30
0.0
  0
VERTEX
  5
5F
330
5D
100
AcDbEntity
  8
_U+30EC_U+30A4_U+30E4_U+30FC 1
 62
     7
420
 16777215
370
    25
100
AcDbVertex
100
AcDb2dVertex
 10
100.9791790904732
 20
-123.0693146914549
 30
0.0
  0
SEQEND
  5
60
330
5D
100
AcDbEntity
  8
_U+30EC_U+30A4_U+30E4_U+30FC 1
 62
     7
420
 16777215
370
    25
  0
POLYLINE
  5
61
330
1F
100
AcDbEntity
  8
_U+30EC_U+30A4_U+30E4_U+30FC 1
 62
     7
420
 16777215
370
    25
100
AcDb2dPolyline
 66
     1
 10
0.0
 20
0.0
 30
0.0
  0
VERTEX
  5
62
330
61
100
AcDbEntity
  8
_U+30EC_U+30A4_U+30E4_U+30FC 1
 62
     7
420
 16777215
370
    25
100
AcDbVertex
100
AcDb2dVertex
 10
96.16019949119337
 20
-123.3693874691576
 30
0.0
  0
VERTEX
  5
63
330
61
100
AcDbEntity
  8
_U+30EC_U+30A4_U+30E4_U+30FC 1
 62
     7
420
 16777215
370
    25
100
AcDbVertex
100
AcDb2dVertex
 10
96.67970003349537
 20
-123.0693146914549
 30
0.0
  0
SEQEND
  5
64
330
61
100
AcDbEntity
  8
_U+30EC_U+30A4_U+30E4_U+30FC 1
 62
     7
420
 16777215
370
    25
  0
POLYLINE
  5
65
330
1F
100
AcDbEntity
  8
_U+30EC_U+30A4_U+30E4_U+30FC 1
 62
     7
420
 16777215
370
     9
100
AcDb2dPolyline
 66
     1
 10
0.0
 20
0.0
 30
0.0
  0
VERTEX
  5
66
330
65
100
AcDbEntity
  8
_U+30EC_U+30A4_U+30E4_U+30FC 1
 62
     7
420
 16777215
370
     9
100
AcDbVertex
100
AcDb2dVertex
 10
73.97256109261787
 20
-139.5766688539949
 30
0.0
  0
VERTEX
  5
67
330
65
100
AcDbEntity
  8
_U+30EC_U+30A4_U+30E4_U+30FC 1
 62
     7
420
 16777215
370
     9
100
AcDbVertex
100
AcDb2dVertex
 10
69.67999461120412
 20
-143.8692688529216
 30
0.0
  0
SEQEND
  5
68
330
65
100
AcDbEntity
  8
_U+30EC_U+30A4_U+30E4_U+30FC 1
 62
     7
420
 16777215
370
     9
  0
POLYLINE
  5
69
330
1F
100
AcDbEntity
  8
_U+30EC_U+30A4_U+30E4_U+30FC 1
 62
     7
420
 16777215
370
     9
100
AcDb2dPolyline
 66
     1
 10
0.0
 20
0.0
 30
0.0
  0
VERTEX
  5
6A
330
69
100
AcDbEntity
  8
_U+30EC_U+30A4_U+30E4_U+30FC 1
 62
     7
420
 16777215
370
     9
100
AcDbVertex
100
AcDb2dVertex
 10
73.97256109261787
 20
-139.5766688539949
 30
0.0
  0
VERTEX
  5
6B
330
69
100
AcDbEntity
  8
_U+30EC_U+30A4_U+30E4_U+30FC 1
 62
     7
420
 16777215
370
     9
100
AcDbVertex
100
AcDb2dVertex
 10
72.67377259038204
 20
-140.3263216315852
 30
0.0
  0
SEQEND
  5
6C
330
69
100
AcDbEntity
  8
_U+30EC_U+30A4_U+30E4_U+30FC 1
 62
     7
420
 16777215
370
     9
  0
POLYLINE
  5
6D
330
1F
100
AcDbEntity
  8
_U+30EC_U+30A4_U+30E4_U+30FC 1
 62
     7
420
 16777215
370
     9
100
AcDb2dPolyline
 66
     1
 10
0.0
 20
0.0
 30
0.0
  0
VERTEX
  5
6E
330
6D
100
AcDbEntity
  8
_U+30EC_U+30A4_U+30E4_U+30FC 1
 62
     7
420
 16777215
370
     9
100
AcDbVertex
100
AcDb2dVertex
 10
73.97256109261787
 20
-139.5766688539949
 30
0.0
  0
VERTEX
  5
6F
330
6D
100
AcDbEntity
  8
_U+30EC_U+30A4_U+30E4_U+30FC 1
 62
     7
420
 16777215
370
     9
100
AcDbVertex
100
AcDb2dVertex
 10
73.2229083150275
 20
-140.8754555203368
 30
0.0
  0
SEQEND
  5
70
330
6D
100
AcDbEntity
  8
_U+30EC_U+30A4_U+30E4_U+30FC 1
 62
     7
420
 16777215
370
     9
  0
SPLINE
  5
71
330
1F
100
AcDbEntity
  8
_U+30EC_U+30A4_U+30E4_U+30FC 1
 62
     7
420
 16777215
370
    25
100
AcDbSpline
210
0.0
220
0.0
230
1.0
 70
     8
 71
     3
 72
     8
 73
     4
 74
     0
 42
0.0000000001
 43
0.0000000001
 12
1.0
 22
0.0
 32
0.0
 13
1.0
 23
0.0
 33
0.0
 40
0.0
 40
0.0
 40
0.0
 40
0.0
 40
1.0
 40
1.0
 40
1.0
 40
1.0
 10
73.67975553713553
 20
-138.8690319097273
 30
0.0
 10
73.67975553713553
 20
-139.4216230207002
 30
0.0
 10
74.12760505329169
 20
-139.8695096872547
 30
0.0
 10
74.67949059476747
 20
-139.8695096872547
 30
0.0
  0
SPLINE
  5
72
330
1F
100
AcDbEntity
  8
_U+30EC_U+30A4_U+30E4_U+30FC 1
 62
     7
420
 16777215
370
    25
100
AcDbSpline
210
0.0
220
0.0
230
1.0
 70
     8
 71
     3
 72
     8
 73
     4
 74
     0
 42
0.0000000001
 43
0.0000000001
 12
1.0
 22
0.0
 32
0.0
 13
1.0
 23
0.0
 33
0.0
 40
0.0
 40
0.0
 40
0.0
 40
0.0
 40
1.0
 40
1.0
 40
1.0
 40
1.0
 10
74.67949059476747
 20
-117.8694760816437
 30
0.0
 10
74.12760505329169
 20
-117.8694760816437
 30
0.0
 10
73.67975553713553
 20
-118.3173274704208
 30
0.0
 10
73.67975553713553
 20
-118.8695658036159
 30
0.0
  0
SPLINE
  5
73
330
1F
100
AcDbEntity
  8
_U+30EC_U+30A4_U+30E4_U+30FC 1
 62
     7
420
 16777215
370
    25
100
AcDbSpline
210
0.0
220
0.0
230
1.0
 70
     8
 71
     3
 72
     8
 73
     4
 74
     0
 42
0.0000000001
 43
0.0000000001
 12
1.0
 22
0.0
 32
0.0
 13
1.0
 23
0.0
 33
0.0
 40
0.0
 40
0.0
 40
0.0
 40
0.0
 40
1.0
 40
1.0
 40
1.0
 40
1.0
 10
95.67925755901878
 20
-139.8695096872547
 30
0.0
 10
96.23184865603211
 20
-139.8695096872547
 30
0.0
 10
96.67970003349537
 20
-139.4216230207002
 30
0.0
 10
96.67970003349537
 20
-138.8690319097273
 30
0.0
  0
SPLINE
  5
74
330
1F
100
AcDbEntity
  8
_U+30EC_U+30A4_U+30E4_U+30FC 1
 62
     7
420
 16777215
370
    25
100
AcDbSpline
210
0.0
220
0.0
230
1.0
 70
     8
 71
     3
 72
     8
 73
     4
 74
     0
 42
0.0000000001
 43
0.0000000001
 12
1.0
 22
0.0
 32
0.0
 13
1.0
 23
0.0
 33
0.0
 40
0.0
 40
0.0
 40
0.0
 40
0.0
 40
1.0
 40
1.0
 40
1.0
 40
1.0
 10
100.9791790904732
 20
-123.0693146914549
 30
0.0
 10
101.3657176917229
 20
-123.0693146914549
 30
0.0
 10
101.6792312948356
 20
-122.755801080422
 30
0.0
 10
101.6792312948356
 20
-122.3692624694076
 30
0.0
  0
SPLINE
  5
75
330
1F
100
AcDbEntity
  8
_U+30EC_U+30A4_U+30E4_U+30FC 1
 62
     7
420
 16777215
370
     9
100
AcDbSpline
210
0.0
220
0.0
230
1.0
 70
    11
 71
     3
 72
    17
 73
    13
 74
     0
 42
0.0000000001
 43
0.0000000001
 12
1.0
 22
0.0
 32
0.0
 13
1.0
 23
0.0
 33
0.0
 40
0.0
 40
0.0
 40
0.0
 40
0.0
 40
1.0
 40
1.0
 40
1.0
 40
2.0
 40
2.0
 40
2.0
 40
3.0
 40
3.0
 40
3.0
 40
4.0
 40
4.0
 40
4.0
 40
4.0
 10
101.7791379589534
 20
-114.6887963602167
 30
0.0
 10
101.7791379589534
 20
-114.633657193564
 30
0.0
 10
101.7343704600955
 20
-114.5888544157972
 30
0.0
 10
101.6792312948356
 20
-114.5888544157972
 30
0.0
 10
101.6241274073525
 20
-114.5888544157972
 30
0.0
 10
101.5793246307177
 20
-114.633657193564
 30
0.0
 10
101.5793246307177
 20
-114.6887963602167
 30
0.0
 10
101.5793246307177
 20
-114.743900249092
 30
0.0
 10
101.6241274073525
 20
-114.7887030268584
 30
0.0
 10
101.6792312948356
 20
-114.7887030268584
 30
0.0
 10
101.7343704600955
 20
-114.7887030268584
 30
0.0
 10
101.7791379589534
 20
-114.743900249092
 30
0.0
 10
101.7791379589534
 20
-114.6887963602167
 30
0.0
  0
SPLINE
  5
76
330
1F
100
AcDbEntity
  8
_U+30EC_U+30A4_U+30E4_U+30FC 1
 62
     7
420
 16777215
370
     9
100
AcDbSpline
210
0.0
220
0.0
230
1.0
 70
    11
 71
     3
 72
    17
 73
    13
 74
     0
 42
0.0000000001
 43
0.0000000001
 12
1.0
 22
0.0
 32
0.0
 13
1.0
 23
0.0
 33
0.0
 40
0.0
 40
0.0
 40
0.0
 40
0.0
 40
1.0
 40
1.0
 40
1.0
 40
2.0
 40
2.0
 40
2.0
 40
3.0
 40
3.0
 40
3.0
 40
4.0
 40
4.0
 40
4.0
 40
4.0
 10
74.87930392300314
 20
-114.6887963602167
 30
0.0
 10
74.87930392300314
 20
-114.633657193564
 30
0.0
 10
74.83453642414526
 20
-114.5888544157972
 30
0.0
 10
74.77939725888531
 20
-114.5888544157972
 30
0.0
 10
74.72429337140223
 20
-114.5888544157972
 30
0.0
 10
74.67949059476747
 20
-114.633657193564
 30
0.0
 10
74.67949059476747
 20
-114.6887963602167
 30
0.0
 10
74.67949059476747
 20
-114.743900249092
 30
0.0
 10
74.72429337140223
 20
-114.7887030268584
 30
0.0
 10
74.77939725888531
 20
-114.7887030268584
 30
0.0
 10
74.83453642414526
 20
-114.7887030268584
 30
0.0
 10
74.87930392300314
 20
-114.743900249092
 30
0.0
 10
74.87930392300314
 20
-114.6887963602167
 30
0.0
  0
SPLINE
  5
77
330
1F
100
AcDbEntity
  8
_U+30EC_U+30A4_U+30E4_U+30FC 1
 62
     7
420
 16777215
370
     9
100
AcDbSpline
210
0.0
220
0.0
230
1.0
 70
    11
 71
     3
 72
    17
 73
    13
 74
     0
 42
0.0000000001
 43
0.0000000001
 12
1.0
 22
0.0
 32
0.0
 13
1.0
 23
0.0
 33
0.0
 40
0.0
 40
0.0
 40
0.0
 40
0.0
 40
1.0
 40
1.0
 40
1.0
 40
2.0
 40
2.0
 40
2.0
 40
3.0
 40
3.0
 40
3.0
 40
4.0
 40
4.0
 40
4.0
 40
4.0
 10
73.77966033994628
 20
-119.869514414477
 30
0.0
 10
73.77966033994628
 20
-119.8143752478242
 30
0.0
 10
73.73485756331151
 20
-119.7696077478353
 30
0.0
 10
73.67975553713553
 20
-119.7696077478353
 30
0.0
 10
73.62461451056849
 20
-119.7696077478353
 30
0.0
 10
73.5798470117106
 20
-119.8143752478242
 30
0.0
 10
73.5798470117106
 20
-119.869514414477
 30
0.0
 10
73.5798470117106
 20
-119.92497108113
 30
0.0
 10
73.62461451056849
 20
-119.9697738588963
 30
0.0
 10
73.67975553713553
 20
-119.9697738588963
 30
0.0
 10
73.73485756331151
 20
-119.9697738588963
 30
0.0
 10
73.77966033994628
 20
-119.92497108113
 30
0.0
 10
73.77966033994628
 20
-119.869514414477
 30
0.0
  0
SPLINE
  5
78
330
1F
100
AcDbEntity
  8
_U+30EC_U+30A4_U+30E4_U+30FC 1
 62
     7
420
 16777215
370
     9
100
AcDbSpline
210
0.0
220
0.0
230
1.0
 70
    11
 71
     3
 72
    17
 73
    13
 74
     0
 42
0.0000000001
 43
0.0000000001
 12
1.0
 22
0.0
 32
0.0
 13
1.0
 23
0.0
 33
0.0
 40
0.0
 40
0.0
 40
0.0
 40
0.0
 40
1.0
 40
1.0
 40
1.0
 40
2.0
 40
2.0
 40
2.0
 40
3.0
 40
3.0
 40
3.0
 40
4.0
 40
4.0
 40
4.0
 40
4.0
 10
74.77939725888531
 20
-119.869514414477
 30
0.0
 10
74.77939725888531
 20
-119.8143752478242
 30
0.0
 10
74.73462976002742
 20
-119.7696077478353
 30
0.0
 10
74.67949059476747
 20
-119.7696077478353
 30
0.0
 10
74.6243867072844
 20
-119.7696077478353
 30
0.0
 10
74.57958393064963
 20
-119.8143752478242
 30
0.0
 10
74.57958393064963
 20
-119.869514414477
 30
0.0
 10
74.57958393064963
 20
-119.92497108113
 30
0.0
 10
74.6243867072844
 20
-119.9697738588963
 30
0.0
 10
74.67949059476747
 20
-119.9697738588963
 30
0.0
 10
74.73462976002742
 20
-119.9697738588963
 30
0.0
 10
74.77939725888531
 20
-119.92497108113
 30
0.0
 10
74.77939725888531
 20
-119.869514414477
 30
0.0
  0
SPLINE
  5
79
330
1F
100
AcDbEntity
  8
_U+30EC_U+30A4_U+30E4_U+30FC 1
 62
     7
420
 16777215
370
     9
100
AcDbSpline
210
0.0
220
0.0
230
1.0
 70
    11
 71
     3
 72
    17
 73
    13
 74
     0
 42
0.0000000001
 43
0.0000000001
 12
1.0
 22
0.0
 32
0.0
 13
1.0
 23
0.0
 33
0.0
 40
0.0
 40
0.0
 40
0.0
 40
0.0
 40
1.0
 40
1.0
 40
1.0
 40
2.0
 40
2.0
 40
2.0
 40
3.0
 40
3.0
 40
3.0
 40
4.0
 40
4.0
 40
4.0
 40
4.0
 10
69.77990127532196
 20
-139.8695096872547
 30
0.0
 10
69.77990127532196
 20
-139.8143705206016
 30
0.0
 10
69.7350984986872
 20
-139.7696030206131
 30
0.0
 10
69.67999461120412
 20
-139.7696030206131
 30
0.0
 10
69.6241851681835
 20
-139.7696030206131
 30
0.0
 10
69.57938239154873
 20
-139.8143705206016
 30
0.0
 10
69.57938239154873
 20
-139.8695096872547
 30
0.0
 10
69.57938239154873
 20
-139.9246135761296
 30
0.0
 10
69.6241851681835
 20
-139.9694163538964
 30
0.0
 10
69.67999461120412
 20
-139.9694163538964
 30
0.0
 10
69.7350984986872
 20
-139.9694163538964
 30
0.0
 10
69.77990127532196
 20
-139.9246135761296
 30
0.0
 10
69.77990127532196
 20
-139.8695096872547
 30
0.0
  0
SPLINE
  5
7A
330
1F
100
AcDbEntity
  8
_U+30EC_U+30A4_U+30E4_U+30FC 1
 62
     7
420
 16777215
370
     9
100
AcDbSpline
210
0.0
220
0.0
230
1.0
 70
    11
 71
     3
 72
    17
 73
    13
 74
     0
 42
0.0000000001
 43
0.0000000001
 12
1.0
 22
0.0
 32
0.0
 13
1.0
 23
0.0
 33
0.0
 40
0.0
 40
0.0
 40
0.0
 40
0.0
 40
1.0
 40
1.0
 40
1.0
 40
2.0
 40
2.0
 40
2.0
 40
3.0
 40
3.0
 40
3.0
 40
4.0
 40
4.0
 40
4.0
 40
4.0
 10
69.77990127532196
 20
-117.8696524705326
 30
0.0
 10
69.77990127532196
 20
-117.8145133038798
 30
0.0
 10
69.7350984986872
 20
-117.7697105261131
 30
0.0
 10
69.67999461120412
 20
-117.7697105261131
 30
0.0
 10
69.6241851681835
 20
-117.7697105261131
 30
0.0
 10
69.57938239154873
 20
-117.8145133038798
 30
0.0
 10
69.57938239154873
 20
-117.8696524705326
 30
0.0
 10
69.57938239154873
 20
-117.9247563594078
 30
0.0
 10
69.6241851681835
 20
-117.9695591371742
 30
0.0
 10
69.67999461120412
 20
-117.9695591371742
 30
0.0
 10
69.7350984986872
 20
-117.9695591371742
 30
0.0
 10
69.77990127532196
 20
-117.9247563594078
 30
0.0
 10
69.77990127532196
 20
-117.8696524705326
 30
0.0
  0
SPLINE
  5
7B
330
1F
100
AcDbEntity
  8
_U+30EC_U+30A4_U+30E4_U+30FC 1
 62
     7
420
 16777215
370
     9
100
AcDbSpline
210
0.0
220
0.0
230
1.0
 70
    11
 71
     3
 72
    17
 73
    13
 74
     0
 42
0.0000000001
 43
0.0000000001
 12
1.0
 22
0.0
 32
0.0
 13
1.0
 23
0.0
 33
0.0
 40
0.0
 40
0.0
 40
0.0
 40
0.0
 40
1.0
 40
1.0
 40
1.0
 40
2.0
 40
2.0
 40
2.0
 40
3.0
 40
3.0
 40
3.0
 40
4.0
 40
4.0
 40
4.0
 40
4.0
 10
99.77959356552161
 20
-123.3693874691576
 30
0.0
 10
99.77959356552161
 20
-123.3142483025048
 30
0.0
 10
99.73482606666371
 20
-123.2694808025159
 30
0.0
 10
99.67968690140377
 20
-123.2694808025159
 30
0.0
 10
99.62387745838315
 20
-123.2694808025159
 30
0.0
 10
99.57910995952525
 20
-123.3142483025048
 30
0.0
 10
99.57910995952525
 20
-123.3693874691576
 30
0.0
 10
99.57910995952525
 20
-123.4248441358106
 30
0.0
 10
99.62387745838315
 20
-123.469646913577
 30
0.0
 10
99.67968690140377
 20
-123.469646913577
 30
0.0
 10
99.73482606666371
 20
-123.469646913577
 30
0.0
 10
99.77959356552161
 20
-123.4248441358106
 30
0.0
 10
99.77959356552161
 20
-123.3693874691576
 30
0.0
  0
SPLINE
  5
7C
330
1F
100
AcDbEntity
  8
_U+30EC_U+30A4_U+30E4_U+30FC 1
 62
     7
420
 16777215
370
     9
100
AcDbSpline
210
0.0
220
0.0
230
1.0
 70
    11
 71
     3
 72
    17
 73
    13
 74
     0
 42
0.0000000001
 43
0.0000000001
 12
1.0
 22
0.0
 32
0.0
 13
1.0
 23
0.0
 33
0.0
 40
0.0
 40
0.0
 40
0.0
 40
0.0
 40
1.0
 40
1.0
 40
1.0
 40
2.0
 40
2.0
 40
2.0
 40
3.0
 40
3.0
 40
3.0
 40
4.0
 40
4.0
 40
4.0
 40
4.0
 10
99.77959356552161
 20
-138.8690319097273
 30
0.0
 10
99.77959356552161
 20
-138.8139280208524
 30
0.0
 10
99.73482606666371
 20
-138.7691252430857
 30
0.0
 10
99.67968690140377
 20
-138.7691252430857
 30
0.0
 10
99.62387745838315
 20
-138.7691252430857
 30
0.0
 10
99.57910995952525
 20
-138.8139280208524
 30
0.0
 10
99.57910995952525
 20
-138.8690319097273
 30
0.0
 10
99.57910995952525
 20
-138.9248413541578
 30
0.0
 10
99.62387745838315
 20
-138.9696441319245
 30
0.0
 10
99.67968690140377
 20
-138.9696441319245
 30
0.0
 10
99.73482606666371
 20
-138.9696441319245
 30
0.0
 10
99.77959356552161
 20
-138.9248413541578
 30
0.0
 10
99.77959356552161
 20
-138.8690319097273
 30
0.0
  0
INSERT
  5
7E
330
1F
100
AcDbEntity
  8
_U+30EC_U+30A4_U+30E4_U+30FC 1
100
AcDbBlockReference
  2
block 2
 10
0.0
 20
0.0
 30
0.0
  0
POLYLINE
  5
86
330
1F
100
AcDbEntity
  8
_U+30EC_U+30A4_U+30E4_U+30FC 1
 62
     7
420
 16777215
370
     9
100
AcDb2dPolyline
 66
     1
 10
0.0
 20
0.0
 30
0.0
  0
VERTEX
  5
87
330
86
100
AcDbEntity
  8
_U+30EC_U+30A4_U+30E4_U+30FC 1
 62
     7
420
 16777215
370
     9
100
AcDbVertex
100
AcDb2dVertex
 10
74.67949059476747
 20
-114.6887963602167
 30
0.0
  0
VERTEX
  5
88
330
86
100
AcDbEntity
  8
_U+30EC_U+30A4_U+30E4_U+30FC 1
 62
     7
420
 16777215
370
     9
100
AcDbVertex
100
AcDb2dVertex
 10
101.6792312948356
 20
-114.6887963602167
 30
0.0
  0
SEQEND
  5
89
330
86
100
AcDbEntity
  8
_U+30EC_U+30A4_U+30E4_U+30FC 1
 62
     7
420
 16777215
370
     9
  0
POLYLINE
  5
8A
330
1F
100
AcDbEntity
  8
_U+30EC_U+30A4_U+30E4_U+30FC 1
 62
     7
420
 16777215
370
     9
100
AcDb2dPolyline
 66
     1
 10
0.0
 20
0.0
 30
0.0
  0
VERTEX
  5
8B
330
8A
100
AcDbEntity
  8
_U+30EC_U+30A4_U+30E4_U+30FC 1
 62
     7
420
 16777215
370
     9
100
AcDbVertex
100
AcDb2dVertex
 10
74.77939725888531
 20
-117.1485746929351
 30
0.0
  0
VERTEX
  5
8C
330
8A
100
AcDbEntity
  8
_U+30EC_U+30A4_U+30E4_U+30FC 1
 62
     7
420
 16777215
370
     9
100
AcDbVertex
100
AcDb2dVertex
 10
74.77939725888531
 20
-113.6886713604667
 30
0.0
  0
SEQEND
  5
8D
330
8A
100
AcDbEntity
  8
_U+30EC_U+30A4_U+30E4_U+30FC 1
 62
     7
420
 16777215
370
     9
  0
POLYLINE
  5
8E
330
1F
100
AcDbEntity
  8
_U+30EC_U+30A4_U+30E4_U+30FC 1
 62
     7
420
 16777215
370
     9
100
AcDb2dPolyline
 66
     1
 10
0.0
 20
0.0
 30
0.0
  0
VERTEX
  5
8F
330
8E
100
AcDbEntity
  8
_U+30EC_U+30A4_U+30E4_U+30FC 1
 62
     7
420
 16777215
370
     9
100
AcDbVertex
100
AcDb2dVertex
 10
101.6792312948356
 20
-121.1488630252683
 30
0.0
  0
VERTEX
  5
90
330
8E
100
AcDbEntity
  8
_U+30EC_U+30A4_U+30E4_U+30FC 1
 62
     7
420
 16777215
370
     9
100
AcDbVertex
100
AcDb2dVertex
 10
101.6792312948356
 20
-113.6886713604667
 30
0.0
  0
SEQEND
  5
91
330
8E
100
AcDbEntity
  8
_U+30EC_U+30A4_U+30E4_U+30FC 1
 62
     7
420
 16777215
370
     9
  0
INSERT
  5
93
330
1F
100
AcDbEntity
  8
_U+30EC_U+30A4_U+30E4_U+30FC 1
100
AcDbBlockReference
  2
block 3
 10
0.0
 20
0.0
 30
0.0
  0
POLYLINE
  5
9A
330
1F
100
AcDbEntity
  8
_U+30EC_U+30A4_U+30E4_U+30FC 1
 62
     7
420
 16777215
370
     9
100
AcDb2dPolyline
 66
     1
 10
0.0
 20
0.0
 30
0.0
  0
VERTEX
  5
9B
330
9A
100
AcDbEntity
  8
_U+30EC_U+30A4_U+30E4_U+30FC 1
 62
     7
420
 16777215
370
     9
100
AcDbVertex
100
AcDb2dVertex
 10
74.67949059476747
 20
-119.869514414477
 30
0.0
  0
VERTEX
  5
9C
330
9A
100
AcDbEntity
  8
_U+30EC_U+30A4_U+30E4_U+30FC 1
 62
     7
420
 16777215
370
     9
100
AcDbVertex
100
AcDb2dVertex
 10
78.44980299857879
 20
-119.869514414477
 30
0.0
  0
SEQEND
  5
9D
330
9A
100
AcDbEntity
  8
_U+30EC_U+30A4_U+30E4_U+30FC 1
 62
     7
420
 16777215
370
     9
  0
POLYLINE
  5
9E
330
1F
100
AcDbEntity
  8
_U+30EC_U+30A4_U+30E4_U+30FC 1
 62
     7
420
 16777215
370
     9
100
AcDb2dPolyline
 66
     1
 10
0.0
 20
0.0
 30
0.0
  0
VERTEX
  5
9F
330
9E
100
AcDbEntity
  8
_U+30EC_U+30A4_U+30E4_U+30FC 1
 62
     7
420
 16777215
370
     9
100
AcDbVertex
100
AcDb2dVertex
 10
72.67998331516331
 20
-119.869514414477
 30
0.0
  0
VERTEX
  5
A0
330
9E
100
AcDbEntity
  8
_U+30EC_U+30A4_U+30E4_U+30FC 1
 62
     7
420
 16777215
370
     9
100
AcDbVertex
100
AcDb2dVertex
 10
74.67949059476747
 20
-119.869514414477
 30
0.0
  0
SEQEND
  5
A1
330
9E
100
AcDbEntity
  8
_U+30EC_U+30A4_U+30E4_U+30FC 1
 62
     7
420
 16777215
370
     9
  0
INSERT
  5
A3
330
1F
100
AcDbEntity
  8
_U+30EC_U+30A4_U+30E4_U+30FC 1
100
AcDbBlockReference
  2
block 4
 10
0.0
 20
0.0
 30
0.0
  0
POLYLINE
  5
A8
330
1F
100
AcDbEntity
  8
_U+30EC_U+30A4_U+30E4_U+30FC 1
 62
     7
420
 16777215
370
     9
100
AcDb2dPolyline
 66
     1
 10
0.0
 20
0.0
 30
0.0
  0
VERTEX
  5
A9
330
A8
100
AcDbEntity
  8
_U+30EC_U+30A4_U+30E4_U+30FC 1
 62
     7
420
 16777215
370
     9
100
AcDbVertex
100
AcDb2dVertex
 10
69.67999461120412
 20
-139.8695096872547
 30
0.0
  0
VERTEX
  5
AA
330
A8
100
AcDbEntity
  8
_U+30EC_U+30A4_U+30E4_U+30FC 1
 62
     7
420
 16777215
370
     9
100
AcDbVertex
100
AcDb2dVertex
 10
69.67999461120412
 20
-117.8696524705326
 30
0.0
  0
SEQEND
  5
AB
330
A8
100
AcDbEntity
  8
_U+30EC_U+30A4_U+30E4_U+30FC 1
 62
     7
420
 16777215
370
     9
  0
POLYLINE
  5
AC
330
1F
100
AcDbEntity
  8
_U+30EC_U+30A4_U+30E4_U+30FC 1
 62
     7
420
 16777215
370
     9
100
AcDb2dPolyline
 66
     1
 10
0.0
 20
0.0
 30
0.0
  0
VERTEX
  5
AD
330
AC
100
AcDbEntity
  8
_U+30EC_U+30A4_U+30E4_U+30FC 1
 62
     7
420
 16777215
370
     9
100
AcDbVertex
100
AcDb2dVertex
 10
72.13977288178329
 20
-139.8695096872547
 30
0.0
  0
VERTEX
  5
AE
330
AC
100
AcDbEntity
  8
_U+30EC_U+30A4_U+30E4_U+30FC 1
 62
     7
420
 16777215
370
     9
100
AcDbVertex
100
AcDb2dVertex
 10
68.67951685895066
 20
-139.8695096872547
 30
0.0
  0
SEQEND
  5
AF
330
AC
100
AcDbEntity
  8
_U+30EC_U+30A4_U+30E4_U+30FC 1
 62
     7
420
 16777215
370
     9
  0
POLYLINE
  5
B0
330
1F
100
AcDbEntity
  8
_U+30EC_U+30A4_U+30E4_U+30FC 1
 62
     7
420
 16777215
370
     9
100
AcDb2dPolyline
 66
     1
 10
0.0
 20
0.0
 30
0.0
  0
VERTEX
  5
B1
330
B0
100
AcDbEntity
  8
_U+30EC_U+30A4_U+30E4_U+30FC 1
 62
     7
420
 16777215
370
     9
100
AcDbVertex
100
AcDb2dVertex
 10
72.13977288178329
 20
-117.8696524705326
 30
0.0
  0
VERTEX
  5
B2
330
B0
100
AcDbEntity
  8
_U+30EC_U+30A4_U+30E4_U+30FC 1
 62
     7
420
 16777215
370
     9
100
AcDbVertex
100
AcDb2dVertex
 10
68.67951685895066
 20
-117.8696524705326
 30
0.0
  0
SEQEND
  5
B3
330
B0
100
AcDbEntity
  8
_U+30EC_U+30A4_U+30E4_U+30FC 1
 62
     7
420
 16777215
370
     9
  0
INSERT
  5
B5
330
1F
100
AcDbEntity
  8
_U+30EC_U+30A4_U+30E4_U+30FC 1
100
AcDbBlockReference
  2
block 5
 10
0.0
 20
0.0
 30
0.0
  0
POLYLINE
  5
BC
330
1F
100
AcDbEntity
  8
_U+30EC_U+30A4_U+30E4_U+30FC 1
 62
     7
420
 16777215
370
     9
100
AcDb2dPolyline
 66
     1
 10
0.0
 20
0.0
 30
0.0
  0
VERTEX
  5
BD
330
BC
100
AcDbEntity
  8
_U+30EC_U+30A4_U+30E4_U+30FC 1
 62
     7
420
 16777215
370
     9
100
AcDbVertex
100
AcDb2dVertex
 10
73.67975553713553
 20
-141.4094552424254
 30
0.0
  0
VERTEX
  5
BE
330
BC
100
AcDbEntity
  8
_U+30EC_U+30A4_U+30E4_U+30FC 1
 62
     7
420
 16777215
370
     9
100
AcDbVertex
100
AcDb2dVertex
 10
73.67975553713553
 20
-144.8697113526715
 30
0.0
  0
SEQEND
  5
BF
330
BC
100
AcDbEntity
  8
_U+30EC_U+30A4_U+30E4_U+30FC 1
 62
     7
420
 16777215
370
     9
  0
POLYLINE
  5
C0
330
1F
100
AcDbEntity
  8
_U+30EC_U+30A4_U+30E4_U+30FC 1
 62
     7
420
 16777215
370
     9
100
AcDb2dPolyline
 66
     1
 10
0.0
 20
0.0
 30
0.0
  0
VERTEX
  5
C1
330
C0
100
AcDbEntity
  8
_U+30EC_U+30A4_U+30E4_U+30FC 1
 62
     7
420
 16777215
370
     9
100
AcDbVertex
100
AcDb2dVertex
 10
95.67925755901878
 20
-141.4094552424254
 30
0.0
  0
VERTEX
  5
C2
330
C0
100
AcDbEntity
  8
_U+30EC_U+30A4_U+30E4_U+30FC 1
 62
     7
420
 16777215
370
     9
100
AcDbVertex
100
AcDb2dVertex
 10
95.67925755901878
 20
-144.8697113526715
 30
0.0
  0
SEQEND
  5
C3
330
C0
100
AcDbEntity
  8
_U+30EC_U+30A4_U+30E4_U+30FC 1
 62
     7
420
 16777215
370
     9
  0
INSERT
  5
C5
330
1F
100
AcDbEntity
  8
_U+30EC_U+30A4_U+30E4_U+30FC 1
100
AcDbBlockReference
  2
block 6
 10
0.0
 20
0.0
 30
0.0
  0
POLYLINE
  5
CC
330
1F
100
AcDbEntity
  8
_U+30EC_U+30A4_U+30E4_U+30FC 1
 62
     7
420
 16777215
370
     9
100
AcDb2dPolyline
 66
     1
 10
0.0
 20
0.0
 30
0.0
  0
VERTEX
  5
CD
330
CC
100
AcDbEntity
  8
_U+30EC_U+30A4_U+30E4_U+30FC 1
 62
     7
420
 16777215
370
     9
100
AcDbVertex
100
AcDb2dVertex
 10
99.67968690140377
 20
-138.8690319097273
 30
0.0
  0
VERTEX
  5
CE
330
CC
100
AcDbEntity
  8
_U+30EC_U+30A4_U+30E4_U+30FC 1
 62
     7
420
 16777215
370
     9
100
AcDbVertex
100
AcDb2dVertex
 10
99.67968690140377
 20
-123.3695638580464
 30
0.0
  0
SEQEND
  5
CF
330
CC
100
AcDbEntity
  8
_U+30EC_U+30A4_U+30E4_U+30FC 1
 62
     7
420
 16777215
370
     9
  0
POLYLINE
  5
D0
330
1F
100
AcDbEntity
  8
_U+30EC_U+30A4_U+30E4_U+30FC 1
 62
     7
420
 16777215
370
     9
100
AcDb2dPolyline
 66
     1
 10
0.0
 20
0.0
 30
0.0
  0
VERTEX
  5
D1
330
D0
100
AcDbEntity
  8
_U+30EC_U+30A4_U+30E4_U+30FC 1
 62
     7
420
 16777215
370
     9
100
AcDbVertex
100
AcDb2dVertex
 10
98.2196833087783
 20
-138.8690319097273
 30
0.0
  0
VERTEX
  5
D2
330
D0
100
AcDbEntity
  8
_U+30EC_U+30A4_U+30E4_U+30FC 1
 62
     7
420
 16777215
370
     9
100
AcDbVertex
100
AcDb2dVertex
 10
100.6794590981197
 20
-138.8690319097273
 30
0.0
  0
SEQEND
  5
D3
330
D0
100
AcDbEntity
  8
_U+30EC_U+30A4_U+30E4_U+30FC 1
 62
     7
420
 16777215
370
     9
  0
POLYLINE
  5
D4
330
1F
100
AcDbEntity
  8
_U+30EC_U+30A4_U+30E4_U+30FC 1
 62
     7
420
 16777215
370
     9
100
AcDb2dPolyline
 66
     1
 10
0.0
 20
0.0
 30
0.0
  0
VERTEX
  5
D5
330
D4
100
AcDbEntity
  8
_U+30EC_U+30A4_U+30E4_U+30FC 1
 62
     7
420
 16777215
370
     9
100
AcDbVertex
100
AcDb2dVertex
 10
98.2196833087783
 20
-123.3693874691576
 30
0.0
  0
VERTEX
  5
D6
330
D4
100
AcDbEntity
  8
_U+30EC_U+30A4_U+30E4_U+30FC 1
 62
     7
420
 16777215
370
     9
100
AcDbVertex
100
AcDb2dVertex
 10
100.6794590981197
 20
-123.3693874691576
 30
0.0
  0
SEQEND
  5
D7
330
D4
100
AcDbEntity
  8
_U+30EC_U+30A4_U+30E4_U+30FC 1
 62
     7
420
 16777215
370
     9
  0
INSERT
  5
D9
330
1F
100
AcDbEntity
  8
_U+30EC_U+30A4_U+30E4_U+30FC 1
100
AcDbBlockReference
  2
block 7
 10
0.0
 20
0.0
 30
0.0
  0
POLYLINE
  5
EA
330
1F
100
AcDbEntity
  8
_U+30EC_U+30A4_U+30E4_U+30FC 1
  6
AI-Linetype-1
 62
   154
420
    23468
370
    25
100
AcDb2dPolyline
 66
     1
 10
0.0
 20
0.0
 30
0.0
  0
VERTEX
  5
EB
330
EA
100
AcDbEntity
  8
_U+30EC_U+30A4_U+30E4_U+30FC 1
  6
AI-Linetype-1
 62
   154
420
    23468
370
    25
100
AcDbVertex
100
AcDb2dVertex
 10
74.48588615526228
 20
-117.1485746929351
 30
0.0
  0
VERTEX
  5
EC
330
EA
100
AcDbEntity
  8
_U+30EC_U+30A4_U+30E4_U+30FC 1
  6
AI-Linetype-1
 62
   154
420
    23468
370
    25
100
AcDbVertex
100
AcDb2dVertex
 10
72.89838619576278
 20
-117.1485746929351
 30
0.0
  0
VERTEX
  5
ED
330
EA
100
AcDbEntity
  8
_U+30EC_U+30A4_U+30E4_U+30FC 1
  6
AI-Linetype-1
 62
   154
420
    23468
370
    25
100
AcDbVertex
100
AcDb2dVertex
 10
72.89838619576278
 20
-140.6577210759466
 30
0.0
  0
VERTEX
  5
EE
330
EA
100
AcDbEntity
  8
_U+30EC_U+30A4_U+30E4_U+30FC 1
  6
AI-Linetype-1
 62
   154
420
    23468
370
    25
100
AcDbVertex
100
AcDb2dVertex
 10
97.47003053118793
 20
-140.6577210759466
 30
0.0
  0
VERTEX
  5
EF
330
EA
100
AcDbEntity
  8
_U+30EC_U+30A4_U+30E4_U+30FC 1
  6
AI-Linetype-1
 62
   154
420
    23468
370
    25
100
AcDbVertex
100
AcDb2dVertex
 10
97.47003053118793
 20
-138.8401041319567
 30
0.0
  0
SEQEND
  5
F1
330
EA
100
AcDbEntity
  8
_U+30EC_U+30A4_U+30E4_U+30FC 1
  6
AI-Linetype-1
 62
   154
420
    23468
370
    25
  0
POLYLINE
  5
F2
330
1F
100
AcDbEntity
  8
_U+30EC_U+30A4_U+30E4_U+30FC 1
 62
   179
420
  2234388
370
     9
100
AcDb2dPolyline
 66
     1
 10
0.0
 20
0.0
 30
0.0
  0
VERTEX
  5
F3
330
F2
100
AcDbEntity
  8
_U+30EC_U+30A4_U+30E4_U+30FC 1
 62
   179
420
  2234388
370
     9
100
AcDbVertex
100
AcDb2dVertex
 10
97.57889528833276
 20
-140.7955513536899
 30
0.0
  0
VERTEX
  5
F4
330
F2
100
AcDbEntity
  8
_U+30EC_U+30A4_U+30E4_U+30FC 1
 62
   179
420
  2234388
370
     9
100
AcDbVertex
100
AcDb2dVertex
 10
100.0779377245769
 20
-143.6018985752105
 30
0.0
  0
VERTEX
  5
F5
330
F2
100
AcDbEntity
  8
_U+30EC_U+30A4_U+30E4_U+30FC 1
 62
   179
420
  2234388
370
     9
100
AcDbVertex
100
AcDb2dVertex
 10
116.4380067516412
 20
-143.6018985752105
 30
0.0
  0
SEQEND
  5
F6
330
F2
100
AcDbEntity
  8
_U+30EC_U+30A4_U+30E4_U+30FC 1
 62
   179
420
  2234388
370
     9
  0
INSERT
  5
F8
330
1F
100
AcDbEntity
  8
_U+30EC_U+30A4_U+30E4_U+30FC 1
100
AcDbBlockReference
  2
block 8
 10
0.0
 20
0.0
 30
0.0
  0
ENDSEC
  0
SECTION
  2
OBJECTS
  0
DICTIONARY
  5
C
330
0
100
AcDbDictionary
281
     1
  3
ACAD_GROUP
350
D
  3
ACAD_LAYOUT
350
1A
  3
ACAD_MATERIAL
350
3B
  3
ACAD_MLEADERSTYLE
350
136
  3
ACAD_MLINESTYLE
350
17
  3
ACAD_PLOTSETTINGS
350
19
  3
ACAD_PLOTSTYLENAME
350
E
  3
ACAD_TABLESTYLE
350
135
  3
ACAD_VISUALSTYLE
350
2A
  0
SUN
  5
3F
330
29
100
AcDbSun
 90
        1
290
     0
 63
     7
421
 16777215
 40
1.0
291
     1
 91
  2455826
 92
 54000000
292
     0
 70
     2
 71
   256
280
     1
  0
DICTIONARY
  5
D
102
{ACAD_REACTORS
330
C
102
}
330
C
100
AcDbDictionary
281
     1
  0
DICTIONARY
  5
1A
102
{ACAD_REACTORS
330
C
102
}
330
C
100
AcDbDictionary
281
     1
  3
Layout1
350
1E
  3
Layout2
350
26
  3
Model
350
22
  0
DICTIONARY
  5
3B
102
{ACAD_REACTORS
330
C
102
}
330
C
100
AcDbDictionary
281
     1
  3
ByBlock
350
3D
  3
ByLayer
350
3C
  3
Global
350
3E
  0
DICTIONARY
  5
136
102
{ACAD_REACTORS
330
C
102
}
330
C
100
AcDbDictionary
281
     1
  0
DICTIONARY
  5
17
102
{ACAD_REACTORS
330
C
102
}
330
C
100
AcDbDictionary
281
     1
  3
Standard
350
18
  0
DICTIONARY
  5
19
102
{ACAD_REACTORS
330
C
102
}
330
C
100
AcDbDictionary
281
     1
  0
ACDBDICTIONARYWDFLT
  5
E
102
{ACAD_REACTORS
330
C
102
}
330
C
100
AcDbDictionary
281
     1
  3
Normal
350
F
100
AcDbDictionaryWithDefault
340
F
  0
DICTIONARY
  5
135
102
{ACAD_REACTORS
330
C
102
}
330
C
100
AcDbDictionary
281
     1
  0
DICTIONARY
  5
2A
102
{ACAD_REACTORS
330
C
102
}
330
C
100
AcDbDictionary
281
     1
  3
2dWireframe
350
2F
  3
3D Hidden
350
31
  3
3dWireframe
350
30
  3
Basic
350
32
  3
Brighten
350
36
  3
ColorChange
350
3A
  3
Conceptual
350
34
  3
Dim
350
35
  3
Facepattern
350
39
  3
Flat
350
2B
  3
FlatWithEdges
350
2C
  3
Gouraud
350
2D
  3
GouraudWithEdges
350
2E
  3
Linepattern
350
38
  3
Realistic
350
33
  3
Thicken
350
37
  0
LAYOUT
  5
1E
102
{ACAD_REACTORS
330
1A
102
}
330
1A
100
AcDbPlotSettings
  1

  2
none_device
  4

  6

 40
0.0
 41
0.0
 42
0.0
 43
0.0
 44
0.0
 45
0.0
 46
0.0
 47
0.0
 48
0.0
 49
0.0
140
0.0
141
0.0
142
1.0
143
1.0
 70
   688
 72
     0
 73
     0
 74
     5
  7

 75
    16
 76
     0
 77
     2
 78
   300
147
1.0
148
0.0
149
0.0
100
AcDbLayout
  1
Layout1
 70
     1
 71
     1
 10
0.0
 20
0.0
 11
12.0
 21
9.0
 12
0.0
 22
0.0
 32
0.0
 14
1.000000000000000E+20
 24
1.000000000000000E+20
 34
1.000000000000000E+20
 15
-1.000000000000000E+20
 25
-1.000000000000000E+20
 35
-1.000000000000000E+20
146
0.0
 13
0.0
 23
0.0
 33
0.0
 16
1.0
 26
0.0
 36
0.0
 17
0.0
 27
1.0
 37
0.0
 76
     0
330
1B
  0
LAYOUT
  5
26
102
{ACAD_REACTORS
330
1A
102
}
330
1A
100
AcDbPlotSettings
  1

  2
none_device
  4

  6

 40
0.0
 41
0.0
 42
0.0
 43
0.0
 44
0.0
 45
0.0
 46
0.0
 47
0.0
 48
0.0
 49
0.0
140
0.0
141
0.0
142
1.0
143
1.0
 70
   688
 72
     0
 73
     0
 74
     5
  7

 75
    16
 76
     0
 77
     2
 78
   300
147
1.0
148
0.0
149
0.0
100
AcDbLayout
  1
Layout2
 70
     1
 71
     2
 10
0.0
 20
0.0
 11
0.0
 21
0.0
 12
0.0
 22
0.0
 32
0.0
 14
0.0
 24
0.0
 34
0.0
 15
0.0
 25
0.0
 35
0.0
146
0.0
 13
0.0
 23
0.0
 33
0.0
 16
1.0
 26
0.0
 36
0.0
 17
0.0
 27
1.0
 37
0.0
 76
     0
330
23
  0
LAYOUT
  5
22
102
{ACAD_REACTORS
330
1A
102
}
330
1A
100
AcDbPlotSettings
  1

  2
none_device
  4

  6

 40
0.0
 41
0.0
 42
0.0
 43
0.0
 44
0.0
 45
0.0
 46
0.0
 47
0.0
 48
0.0
 49
0.0
140
0.0
141
0.0
142
1.0
143
1.0
 70
  1712
 72
     0
 73
     0
 74
     0
  7

 75
     0
 76
     0
 77
     2
 78
   300
147
1.0
148
0.0
149
0.0
100
AcDbLayout
  1
Model
 70
     1
 71
     0
 10
0.0
 20
0.0
 11
12.0
 21
9.0
 12
0.0
 22
0.0
 32
0.0
 14
1.000000000000000E+20
 24
1.000000000000000E+20
 34
1.000000000000000E+20
 15
-1.000000000000000E+20
 25
-1.000000000000000E+20
 35
-1.000000000000000E+20
146
0.0
 13
0.0
 23
0.0
 33
0.0
 16
1.0
 26
0.0
 36
0.0
 17
0.0
 27
1.0
 37
0.0
 76
     0
330
1F
331
29
  0
MATERIAL
  5
3D
102
{ACAD_REACTORS
330
3B
102
}
330
3B
100
AcDbMaterial
  1
ByBlock
 72
     1
 94
      127
  0
MATERIAL
  5
3C
102
{ACAD_REACTORS
330
3B
102
}
330
3B
100
AcDbMaterial
  1
ByLayer
 72
     1
 94
      127
  0
MATERIAL
  5
3E
102
{ACAD_REACTORS
330
3B
102
}
330
3B
100
AcDbMaterial
  1
Global
 72
     1
 94
      127
  0
MLINESTYLE
  5
18
102
{ACAD_REACTORS
330
17
102
}
330
17
100
AcDbMlineStyle
  2
Standard
 70
     0
  3

 62
   256
 51
90.0
 52
90.0
 71
     2
 49
0.5
 62
   256
  6
BYLAYER
 49
-0.5
 62
   256
  6
BYLAYER
  0
ACDBPLACEHOLDER
  5
F
102
{ACAD_REACTORS
330
E
102
}
330
E
  0
VISUALSTYLE
  5
2F
102
{ACAD_REACTORS
330
2A
102
}
330
2A
100
AcDbVisualStyle
  2
2dWireframe
 70
     4
177
     2
291
     0
 71
     0
176
     1
 72
     2
176
     1
 73
     0
176
     1
 90
        0
176
     1
 40
-0.6
176
     1
 41
-30.0
176
     1
 62
     5
 63
     7
421
 16777215
176
     1
 74
     1
176
     1
 91
        4
176
     1
 64
     7
176
     1
 65
   257
176
     1
 75
     1
176
     1
175
     1
176
     1
 42
1.0
176
     1
 92
        0
176
     1
 66
   257
176
     1
 43
1.0
176
     1
 76
     1
176
     1
 77
     6
176
     1
 78
     2
176
     1
 67
     7
176
     1
 79
     5
176
     1
170
     0
176
     1
171
     0
176
     1
290
     0
176
     1
 93
        1
176
     1
 44
0.0
176
     1
173
     0
176
     1
  0
VISUALSTYLE
  5
31
102
{ACAD_REACTORS
330
2A
102
}
330
2A
100
AcDbVisualStyle
  2
3D Hidden
 70
     6
177
     2
291
     0
 71
     1
176
     1
 72
     2
176
     1
 73
     2
176
     1
 90
        0
176
     1
 40
-0.6
176
     1
 41
-30.0
176
     1
 62
     5
 63
     7
421
 16777215
176
     1
 74
     2
176
     1
 91
        2
176
     1
 64
     7
176
     1
 65
   257
176
     1
 75
     2
176
     1
175
     1
176
     1
 42
40.0
176
     1
 92
        0
176
     1
 66
   257
176
     1
 43
1.0
176
     1
 76
     1
176
     1
 77
     6
176
     1
 78
     2
176
     1
 67
     7
176
     1
 79
     3
176
     1
170
     0
176
     1
171
     0
176
     1
290
     0
176
     1
 93
        1
176
     1
 44
0.0
176
     1
173
     0
176
     1
  0
VISUALSTYLE
  5
30
102
{ACAD_REACTORS
330
2A
102
}
330
2A
100
AcDbVisualStyle
  2
3dWireframe
 70
     5
177
     2
291
     0
 71
     0
176
     1
 72
     2
176
     1
 73
     0
176
     1
 90
        0
176
     1
 40
-0.6
176
     1
 41
-30.0
176
     1
 62
     5
 63
     7
421
 16777215
176
     1
 74
     1
176
     1
 91
        4
176
     1
 64
     7
176
     1
 65
   257
176
     1
 75
     1
176
     1
175
     1
176
     1
 42
1.0
176
     1
 92
        0
176
     1
 66
   257
176
     1
 43
1.0
176
     1
 76
     1
176
     1
 77
     6
176
     1
 78
     2
176
     1
 67
     7
176
     1
 79
     5
176
     1
170
     0
176
     1
171
     0
176
     1
290
     0
176
     1
 93
        1
176
     1
 44
0.0
176
     1
173
     0
176
     1
  0
VISUALSTYLE
  5
32
102
{ACAD_REACTORS
330
2A
102
}
330
2A
100
AcDbVisualStyle
  2
Basic
 70
     7
177
     2
291
     1
 71
     1
176
     1
 72
     0
176
     1
 73
     1
176
     1
 90
        0
176
     1
 40
-0.6
176
     1
 41
-30.0
176
     1
 62
     5
 63
     7
421
 16777215
176
     1
 74
     0
176
     1
 91
        4
176
     1
 64
     7
176
     1
 65
   257
176
     1
 75
     1
176
     1
175
     1
176
     1
 42
1.0
176
     1
 92
        8
176
     1
 66
     7
176
     1
 43
1.0
176
     1
 76
     1
176
     1
 77
     6
176
     1
 78
     2
176
     1
 67
     7
176
     1
 79
     5
176
     1
170
     0
176
     1
171
     0
176
     1
290
     0
176
     1
 93
        1
176
     1
 44
0.0
176
     1
173
     0
176
     1
  0
VISUALSTYLE
  5
36
102
{ACAD_REACTORS
330
2A
102
}
330
2A
100
AcDbVisualStyle
  2
Brighten
 70
    12
177
     2
291
     1
 71
     2
176
     1
 72
     2
176
     1
 73
     0
176
     1
 90
        0
176
     1
 40
-0.6
176
     1
 41
-30.0
176
     1
 62
     5
 63
     7
421
 16777215
176
     1
 74
     1
176
     1
 91
        4
176
     1
 64
     7
176
     1
 65
   257
176
     1
 75
     1
176
     1
175
     1
176
     1
 42
1.0
176
     1
 92
        8
176
     1
 66
     7
176
     1
 43
1.0
176
     1
 76
     1
176
     1
 77
     6
176
     1
 78
     2
176
     1
 67
     7
176
     1
 79
     5
176
     1
170
     0
176
     1
171
     0
176
     1
290
     0
176
     1
 93
        1
176
     1
 44
50.0
176
     1
173
     0
176
     1
  0
VISUALSTYLE
  5
3A
102
{ACAD_REACTORS
330
2A
102
}
330
2A
100
AcDbVisualStyle
  2
ColorChange
 70
    16
177
     2
291
     1
 71
     2
176
     1
 72
     2
176
     1
 73
     3
176
     1
 90
        0
176
     1
 40
-0.6
176
     1
 41
-30.0
176
     1
 62
     5
 63
     8
421
  8421504
176
     1
 74
     1
176
     1
 91
        4
176
     1
 64
     7
176
     1
 65
   257
176
     1
 75
     1
176
     1
175
     1
176
     1
 42
1.0
176
     1
 92
        8
176
     1
 66
     8
424
  8421504
176
     1
 43
1.0
176
     1
 76
     1
176
     1
 77
     6
176
     1
 78
     2
176
     1
 67
     7
176
     1
 79
     5
176
     1
170
     0
176
     1
171
     0
176
     1
290
     0
176
     1
 93
        1
176
     1
 44
0.0
176
     1
173
     0
176
     1
  0
VISUALSTYLE
  5
34
102
{ACAD_REACTORS
330
2A
102
}
330
2A
100
AcDbVisualStyle
  2
Conceptual
 70
     9
177
     2
291
     0
 71
     3
176
     1
 72
     2
176
     1
 73
     0
176
     1
 90
        0
176
     1
 40
-0.6
176
     1
 41
-30.0
176
     1
 62
     5
 63
     7
421
 16777215
176
     1
 74
     2
176
     1
 91
        2
176
     1
 64
     7
176
     1
 65
   257
176
     1
 75
     1
176
     1
175
     1
176
     1
 42
40.0
176
     1
 92
        8
176
     1
 66
     7
176
     1
 43
1.0
176
     1
 76
     1
176
     1
 77
     6
176
     1
 78
     2
176
     1
 67
     7
176
     1
 79
     3
176
     1
170
     0
176
     1
171
     0
176
     1
290
     0
176
     1
 93
        1
176
     1
 44
0.0
176
     1
173
     0
176
     1
  0
VISUALSTYLE
  5
35
102
{ACAD_REACTORS
330
2A
102
}
330
2A
100
AcDbVisualStyle
  2
Dim
 70
    11
177
     2
291
     1
 71
     2
176
     1
 72
     2
176
     1
 73
     0
176
     1
 90
        0
176
     1
 40
-0.6
176
     1
 41
-30.0
176
     1
 62
     5
 63
     7
421
 16777215
176
     1
 74
     1
176
     1
 91
        4
176
     1
 64
     7
176
     1
 65
   257
176
     1
 75
     1
176
     1
175
     1
176
     1
 42
1.0
176
     1
 92
        8
176
     1
 66
     7
176
     1
 43
1.0
176
     1
 76
     1
176
     1
 77
     6
176
     1
 78
     2
176
     1
 67
     7
176
     1
 79
     5
176
     1
170
     0
176
     1
171
     0
176
     1
290
     0
176
     1
 93
        1
176
     1
 44
-50.0
176
     1
173
     0
176
     1
  0
VISUALSTYLE
  5
39
102
{ACAD_REACTORS
330
2A
102
}
330
2A
100
AcDbVisualStyle
  2
Facepattern
 70
    15
177
     2
291
     1
 71
     2
176
     1
 72
     2
176
     1
 73
     0
176
     1
 90
        0
176
     1
 40
-0.6
176
     1
 41
-30.0
176
     1
 62
     5
 63
     7
421
 16777215
176
     1
 74
     1
176
     1
 91
        4
176
     1
 64
     7
176
     1
 65
   257
176
     1
 75
     1
176
     1
175
     1
176
     1
 42
1.0
176
     1
 92
        8
176
     1
 66
     7
176
     1
 43
1.0
176
     1
 76
     1
176
     1
 77
     6
176
     1
 78
     2
176
     1
 67
     7
176
     1
 79
     5
176
     1
170
     0
176
     1
171
     0
176
     1
290
     0
176
     1
 93
        1
176
     1
 44
0.0
176
     1
173
     0
176
     1
  0
VISUALSTYLE
  5
2B
102
{ACAD_REACTORS
330
2A
102
}
330
2A
100
AcDbVisualStyle
  2
Flat
 70
     0
177
     2
291
     1
 71
     2
176
     1
 72
     1
176
     1
 73
     1
176
     1
 90
        2
176
     1
 40
-0.6
176
     1
 41
30.0
176
     1
 62
     5
 63
     7
421
 16777215
176
     1
 74
     0
176
     1
 91
        4
176
     1
 64
     7
176
     1
 65
   257
176
     1
 75
     1
176
     1
175
     1
176
     1
 42
1.0
176
     1
 92
        8
176
     1
 66
     7
176
     1
 43
1.0
176
     1
 76
     1
176
     1
 77
     6
176
     1
 78
     2
176
     1
 67
     7
176
     1
 79
     5
176
     1
170
     0
176
     1
171
     0
176
     1
290
     0
176
     1
 93
       13
176
     1
 44
0.0
176
     1
173
     0
176
     1
  0
VISUALSTYLE
  5
2C
102
{ACAD_REACTORS
330
2A
102
}
330
2A
100
AcDbVisualStyle
  2
FlatWithEdges
 70
     1
177
     2
291
     1
 71
     2
176
     1
 72
     1
176
     1
 73
     1
176
     1
 90
        2
176
     1
 40
-0.6
176
     1
 41
30.0
176
     1
 62
     5
 63
     7
421
 16777215
176
     1
 74
     1
176
     1
 91
        4
176
     1
 64
     7
176
     1
 65
   257
176
     1
 75
     1
176
     1
175
     1
176
     1
 42
1.0
176
     1
 92
        0
176
     1
 66
   257
176
     1
 43
1.0
176
     1
 76
     1
176
     1
 77
     6
176
     1
 78
     2
176
     1
 67
     7
176
     1
 79
     5
176
     1
170
     0
176
     1
171
     0
176
     1
290
     0
176
     1
 93
       13
176
     1
 44
0.0
176
     1
173
     0
176
     1
  0
VISUALSTYLE
  5
2D
102
{ACAD_REACTORS
330
2A
102
}
330
2A
100
AcDbVisualStyle
  2
Gouraud
 70
     2
177
     2
291
     1
 71
     2
176
     1
 72
     2
176
     1
 73
     1
176
     1
 90
        2
176
     1
 40
-0.6
176
     1
 41
30.0
176
     1
 62
     5
 63
     7
421
 16777215
176
     1
 74
     0
176
     1
 91
        4
176
     1
 64
     7
176
     1
 65
   257
176
     1
 75
     1
176
     1
175
     1
176
     1
 42
1.0
176
     1
 92
        0
176
     1
 66
     7
176
     1
 43
1.0
176
     1
 76
     1
176
     1
 77
     6
176
     1
 78
     2
176
     1
 67
     7
176
     1
 79
     5
176
     1
170
     0
176
     1
171
     0
176
     1
290
     0
176
     1
 93
       13
176
     1
 44
0.0
176
     1
173
     0
176
     1
  0
VISUALSTYLE
  5
2E
102
{ACAD_REACTORS
330
2A
102
}
330
2A
100
AcDbVisualStyle
  2
GouraudWithEdges
 70
     3
177
     2
291
     1
 71
     2
176
     1
 72
     2
176
     1
 73
     1
176
     1
 90
        2
176
     1
 40
-0.6
176
     1
 41
30.0
176
     1
 62
     5
 63
     7
421
 16777215
176
     1
 74
     1
176
     1
 91
        4
176
     1
 64
     7
176
     1
 65
   257
176
     1
 75
     1
176
     1
175
     1
176
     1
 42
1.0
176
     1
 92
        0
176
     1
 66
   257
176
     1
 43
1.0
176
     1
 76
     1
176
     1
 77
     6
176
     1
 78
     2
176
     1
 67
     7
176
     1
 79
     5
176
     1
170
     0
176
     1
171
     0
176
     1
290
     0
176
     1
 93
       13
176
     1
 44
0.0
176
     1
173
     0
176
     1
  0
VISUALSTYLE
  5
38
102
{ACAD_REACTORS
330
2A
102
}
330
2A
100
AcDbVisualStyle
  2
Linepattern
 70
    14
177
     2
291
     1
 71
     2
176
     1
 72
     2
176
     1
 73
     0
176
     1
 90
        0
176
     1
 40
-0.6
176
     1
 41
-30.0
176
     1
 62
     5
 63
     7
421
 16777215
176
     1
 74
     1
176
     1
 91
        4
176
     1
 64
     7
176
     1
 65
   257
176
     1
 75
     7
176
     1
175
     7
176
     1
 42
1.0
176
     1
 92
        8
176
     1
 66
     7
176
     1
 43
1.0
176
     1
 76
     1
176
     1
 77
     6
176
     1
 78
     2
176
     1
 67
     7
176
     1
 79
     5
176
     1
170
     0
176
     1
171
     0
176
     1
290
     0
176
     1
 93
        1
176
     1
 44
0.0
176
     1
173
     0
176
     1
  0
VISUALSTYLE
  5
33
102
{ACAD_REACTORS
330
2A
102
}
330
2A
100
AcDbVisualStyle
  2
Realistic
 70
     8
177
     2
291
     0
 71
     2
176
     1
 72
     2
176
     1
 73
     0
176
     1
 90
        0
176
     1
 40
-0.6
176
     1
 41
-30.0
176
     1
 62
     5
 63
     7
421
 16777215
176
     1
 74
     1
176
     1
 91
        0
176
     1
 64
     7
176
     1
 65
   257
176
     1
 75
     1
176
     1
175
     1
176
     1
 42
1.0
176
     1
 92
        8
176
     1
 66
     8
424
  7895160
176
     1
 43
1.0
176
     1
 76
     1
176
     1
 77
     6
176
     1
 78
     2
176
     1
 67
     7
176
     1
 79
     5
176
     1
170
     0
176
     1
171
     0
176
     1
290
     0
176
     1
 93
       13
176
     1
 44
0.0
176
     1
173
     0
176
     1
  0
VISUALSTYLE
  5
37
102
{ACAD_REACTORS
330
2A
102
}
330
2A
100
AcDbVisualStyle
  2
Thicken
 70
    13
177
     2
291
     1
 71
     2
176
     1
 72
     2
176
     1
 73
     0
176
     1
 90
        0
176
     1
 40
-0.6
176
     1
 41
-30.0
176
     1
 62
     5
 63
     7
421
 16777215
176
     1
 74
     1
176
     1
 91
        4
176
     1
 64
     7
176
     1
 65
   257
176
     1
 75
     1
176
     1
175
     1
176
     1
 42
1.0
176
     1
 92
       12
176
     1
 66
     7
176
     1
 43
1.0
176
     1
 76
     1
176
     1
 77
     6
176
     1
 78
     2
176
     1
 67
     7
176
     1
 79
     5
176
     1
170
     0
176
     1
171
     0
176
     1
290
     0
176
     1
 93
        1
176
     1
 44
0.0
176
     1
173
     0
176
     1
  0
ENDSEC
  0
EOF
