  0
SECTION
  2
HEADER
  9
$ACADVER
  1
AC1024
  9
$ACADMAINTVER
 70
     6
  9
$DWGCODEPAGE
  3
UNDEFINED
  9
$INSBASE
 10
0.0
 20
0.0
 30
0.0
  9
$EXTMIN
 10
1.000000000000000E+20
 20
1.000000000000000E+20
 30
1.000000000000000E+20
  9
$EXTMAX
 10
-1.000000000000000E+20
 20
-1.000000000000000E+20
 30
-1.000000000000000E+20
  9
$LIMMIN
 10
0.0
 20
0.0
  9
$LIMMAX
 10
12.0
 20
9.0
  9
$ORTHOMODE
 70
     0
  9
$REGENMODE
 70
     1
  9
$FILLMODE
 70
     1
  9
$QTEXTMODE
 70
     0
  9
$MIRRTEXT
 70
     1
  9
$LTSCALE
 40
1.0
  9
$ATTMODE
 70
     1
  9
$TEXTSIZE
 40
0.2
  9
$TRACEWID
 40
0.05
  9
$TEXTSTYLE
  7
Standard
  9
$CLAYER
  8
0
  9
$CELTYPE
  6
ByLayer
  9
$CECOLOR
 62
   256
  9
$CELTSCALE
 40
1.0
  9
$DISPSILH
 70
     0
  9
$DIMSCALE
 40
1.0
  9
$DIMASZ
 40
0.18
  9
$DIMEXO
 40
0.0625
  9
$DIMDLI
 40
0.38
  9
$DIMRND
 40
0.0
  9
$DIMDLE
 40
0.0
  9
$DIMEXE
 40
0.18
  9
$DIMTP
 40
0.0
  9
$DIMTM
 40
0.0
  9
$DIMTXT
 40
0.18
  9
$DIMCEN
 40
0.09
  9
$DIMTSZ
 40
0.0
  9
$DIMTOL
 70
     0
  9
$DIMLIM
 70
     0
  9
$DIMTIH
 70
     1
  9
$DIMTOH
 70
     1
  9
$DIMSE1
 70
     0
  9
$DIMSE2
 70
     0
  9
$DIMTAD
 70
     0
  9
$DIMZIN
 70
     0
  9
$DIMBLK
  1

  9
$DIMASO
 70
     1
  9
$DIMSHO
 70
     1
  9
$DIMPOST
  1

  9
$DIMAPOST
  1

  9
$DIMALT
 70
     0
  9
$DIMALTD
 70
     2
  9
$DIMALTF
 40
25.4
  9
$DIMLFAC
 40
1.0
  9
$DIMTOFL
 70
     0
  9
$DIMTVP
 40
0.0
  9
$DIMTIX
 70
     0
  9
$DIMSOXD
 70
     0
  9
$DIMSAH
 70
     0
  9
$DIMBLK1
  1

  9
$DIMBLK2
  1

  9
$DIMSTYLE
  2
Standard
  9
$DIMCLRD
 70
     0
  9
$DIMCLRE
 70
     0
  9
$DIMCLRT
 70
     0
  9
$DIMTFAC
 40
1.0
  9
$DIMGAP
 40
0.09
  9
$DIMJUST
 70
     0
  9
$DIMSD1
 70
     0
  9
$DIMSD2
 70
     0
  9
$DIMTOLJ
 70
     1
  9
$DIMTZIN
 70
     0
  9
$DIMALTZ
 70
     0
  9
$DIMALTTZ
 70
     0
  9
$DIMUPT
 70
     0
  9
$DIMDEC
 70
     4
  9
$DIMTDEC
 70
     4
  9
$DIMALTU
 70
     2
  9
$DIMALTTD
 70
     2
  9
$DIMTXSTY
  7
Standard
  9
$DIMAUNIT
 70
     0
  9
$DIMADEC
 70
     0
  9
$DIMALTRND
 40
0.0
  9
$DIMAZIN
 70
     0
  9
$DIMDSEP
 70
    46
  9
$DIMATFIT
 70
     3
  9
$DIMFRAC
 70
     0
  9
$DIMLDRBLK
  1

  9
$DIMLUNIT
 70
     2
  9
$DIMLWD
 70
    -2
  9
$DIMLWE
 70
    -2
  9
$DIMTMOVE
 70
     0
  9
$DIMFXL
 40
1.0
  9
$DIMFXLON
 70
     0
  9
$DIMJOGANG
 40
0.7853981633974483
  9
$DIMTFILL
 70
     0
  9
$DIMTFILLCLR
 70
     0
  9
$DIMARCSYM
 70
     0
  9
$DIMLTYPE
  6

  9
$DIMLTEX1
  6

  9
$DIMLTEX2
  6

  9
$DIMTXTDIRECTION
 70
     0
  9
$LUNITS
 70
     2
  9
$LUPREC
 70
     4
  9
$SKETCHINC
 40
0.1
  9
$FILLETRAD
 40
0.5
  9
$AUNITS
 70
     0
  9
$AUPREC
 70
     0
  9
$MENU
  1
.
  9
$ELEVATION
 40
0.0
  9
$PELEVATION
 40
0.0
  9
$THICKNESS
 40
0.0
  9
$LIMCHECK
 70
     0
  9
$CHAMFERA
 40
0.5
  9
$CHAMFERB
 40
0.5
  9
$CHAMFERC
 40
1.0
  9
$CHAMFERD
 40
0.0
  9
$SKPOLY
 70
     0
  9
$TDCREATE
 40
2457917.599791655
  9
$TDUCREATE
 40
2457917.224791666
  9
$TDUPDATE
 40
2457917.599791655
  9
$TDUUPDATE
 40
2457917.224791666
  9
$TDINDWG
 40
0.0000000116
  9
$TDUSRTIMER
 40
0.0000000116
  9
$USRTIMER
 70
     1
  9
$ANGBASE
 50
0.0
  9
$ANGDIR
 70
     0
  9
$PDMODE
 70
     0
  9
$PDSIZE
 40
0.0
  9
$PLINEWID
 40
0.0
  9
$SPLFRAME
 70
     0
  9
$SPLINETYPE
 70
     6
  9
$SPLINESEGS
 70
     8
  9
$HANDSEED
  5
145
  9
$SURFTAB1
 70
     6
  9
$SURFTAB2
 70
     6
  9
$SURFTYPE
 70
     6
  9
$SURFU
 70
     6
  9
$SURFV
 70
     6
  9
$UCSBASE
  2

  9
$UCSNAME
  2

  9
$UCSORG
 10
0.0
 20
0.0
 30
0.0
  9
$UCSXDIR
 10
1.0
 20
0.0
 30
0.0
  9
$UCSYDIR
 10
0.0
 20
1.0
 30
0.0
  9
$UCSORTHOREF
  2

  9
$UCSORTHOVIEW
 70
     0
  9
$UCSORGTOP
 10
0.0
 20
0.0
 30
0.0
  9
$UCSORGBOTTOM
 10
0.0
 20
0.0
 30
0.0
  9
$UCSORGLEFT
 10
0.0
 20
0.0
 30
0.0
  9
$UCSORGRIGHT
 10
0.0
 20
0.0
 30
0.0
  9
$UCSORGFRONT
 10
0.0
 20
0.0
 30
0.0
  9
$UCSORGBACK
 10
0.0
 20
0.0
 30
0.0
  9
$PUCSBASE
  2

  9
$PUCSNAME
  2

  9
$PUCSORG
 10
0.0
 20
0.0
 30
0.0
  9
$PUCSXDIR
 10
1.0
 20
0.0
 30
0.0
  9
$PUCSYDIR
 10
0.0
 20
1.0
 30
0.0
  9
$PUCSORTHOREF
  2

  9
$PUCSORTHOVIEW
 70
     0
  9
$PUCSORGTOP
 10
0.0
 20
0.0
 30
0.0
  9
$PUCSORGBOTTOM
 10
0.0
 20
0.0
 30
0.0
  9
$PUCSORGLEFT
 10
0.0
 20
0.0
 30
0.0
  9
$PUCSORGRIGHT
 10
0.0
 20
0.0
 30
0.0
  9
$PUCSORGFRONT
 10
0.0
 20
0.0
 30
0.0
  9
$PUCSORGBACK
 10
0.0
 20
0.0
 30
0.0
  9
$USERI1
 70
     0
  9
$USERI2
 70
     0
  9
$USERI3
 70
     0
  9
$USERI4
 70
     0
  9
$USERI5
 70
     0
  9
$USERR1
 40
0.0
  9
$USERR2
 40
0.0
  9
$USERR3
 40
0.0
  9
$USERR4
 40
0.0
  9
$USERR5
 40
0.0
  9
$WORLDVIEW
 70
     1
  9
$SHADEDGE
 70
     3
  9
$SHADEDIF
 70
    70
  9
$TILEMODE
 70
     1
  9
$MAXACTVP
 70
    64
  9
$PINSBASE
 10
0.0
 20
0.0
 30
0.0
  9
$PLIMCHECK
 70
     0
  9
$PEXTMIN
 10
1.000000000000000E+20
 20
1.000000000000000E+20
 30
1.000000000000000E+20
  9
$PEXTMAX
 10
-1.000000000000000E+20
 20
-1.000000000000000E+20
 30
-1.000000000000000E+20
  9
$PLIMMIN
 10
0.0
 20
0.0
  9
$PLIMMAX
 10
12.0
 20
9.0
  9
$UNITMODE
 70
     0
  9
$VISRETAIN
 70
     1
  9
$PLINEGEN
 70
     0
  9
$PSLTSCALE
 70
     1
  9
$TREEDEPTH
 70
  3020
  9
$CMLSTYLE
  2
Standard
  9
$CMLJUST
 70
     0
  9
$CMLSCALE
 40
1.0
  9
$PROXYGRAPHICS
 70
     1
  9
$MEASUREMENT
 70
     0
  9
$CELWEIGHT
370
    -1
  9
$ENDCAPS
280
     0
  9
$JOINSTYLE
280
     0
  9
$LWDISPLAY
290
     1
  9
$INSUNITS
 70
     1
  9
$HYPERLINKBASE
  1

  9
$STYLESHEET
  1

  9
$XEDIT
290
     1
  9
$CEPSNTYPE
380
     0
  9
$PSTYLEMODE
290
     1
  9
$FINGERPRINTGUID
  2
{3854AD5E-3037-46FB-8F36-DA08ED71A063}
  9
$VERSIONGUID
  2
{FAEB1C32-E019-11D5-929B-00C0DF256EC4}
  9
$EXTNAMES
290
     1
  9
$PSVPSCALE
 40
0.0
  9
$OLESTARTUP
290
     0
  9
$SORTENTS
280
   127
  9
$INDEXCTL
280
     0
  9
$HIDETEXT
280
     1
  9
$XCLIPFRAME
280
     2
  9
$HALOGAP
280
     0
  9
$OBSCOLOR
 70
   257
  9
$OBSLTYPE
280
     0
  9
$INTERSECTIONDISPLAY
280
     0
  9
$INTERSECTIONCOLOR
 70
   257
  9
$DIMASSOC
280
     2
  9
$PROJECTNAME
  1

  9
$CAMERADISPLAY
290
     0
  9
$LENSLENGTH
 40
50.0
  9
$CAMERAHEIGHT
 40
0.0
  9
$STEPSPERSEC
 40
2.0
  9
$STEPSIZE
 40
6.0
  9
$3DDWFPREC
 40
2.0
  9
$PSOLWIDTH
 40
0.25
  9
$PSOLHEIGHT
 40
4.0
  9
$LOFTANG1
 40
1.570796326794897
  9
$LOFTANG2
 40
1.570796326794897
  9
$LOFTMAG1
 40
0.0
  9
$LOFTMAG2
 40
0.0
  9
$LOFTPARAM
 70
     7
  9
$LOFTNORMALS
280
     1
  9
$LATITUDE
 40
37.795
  9
$LONGITUDE
 40
-122.394
  9
$NORTHDIRECTION
 40
0.0
  9
$TIMEZONE
 70
 -8000
  9
$LIGHTGLYPHDISPLAY
280
     1
  9
$TILEMODELIGHTSYNCH
280
     1
  9
$CMATERIAL
347
3C
  9
$SOLIDHIST
280
     1
  9
$SHOWHIST
280
     1
  9
$DWFFRAME
280
     2
  9
$DGNFRAME
280
     2
  9
$REALWORLDSCALE
290
     1
  9
$INTERFERECOLOR
 62
   256
  9
$CSHADOW
280
     0
  9
$SHADOWPLANELOCATION
 40
0.0
  0
ENDSEC
  0
SECTION
  2
CLASSES
  0
CLASS
  1
ACDBDICTIONARYWDFLT
  2
AcDbDictionaryWithDefault
  3
ObjectDBX Classes
 90
        0
 91
        4
280
     0
281
     0
  0
CLASS
  1
VISUALSTYLE
  2
AcDbVisualStyle
  3
ObjectDBX Classes
 90
     4095
 91
        4
280
     0
281
     0
  0
CLASS
  1
MATERIAL
  2
AcDbMaterial
  3
ObjectDBX Classes
 90
     1153
 91
        4
280
     0
281
     0
  0
CLASS
  1
SUN
  2
AcDbSun
  3
SCENEOE
 90
     1024
 91
        4
280
     0
281
     0
  0
ENDSEC
  0
SECTION
  2
TABLES
  0
TABLE
  2
VPORT
  5
8
330
0
100
AcDbSymbolTable
 70
     1
  0
VPORT
  5
29
330
8
100
AcDbSymbolTableRecord
100
AcDbViewportTableRecord
  2
*Active
 70
     0
 10
0.0
 20
0.0
 11
1.0
 21
1.0
 12
0.0
 22
0.0
 13
0.0
 23
0.0
 14
0.5
 24
0.5
 15
0.5
 25
0.5
 16
0.0
 26
0.0
 36
1.0
 17
91.00082462281999
 27
-128.4993055234307
 37
0.0
 40
256.9986110468615
 41
0.7081814508812795
 42
50.0
 43
0.0
 44
0.0
 50
0.0
 51
0.0
 71
     0
 72
   100
 73
     1
 74
     3
 75
     0
 76
     0
 77
     0
 78
     0
281
     0
 65
     1
110
0.0
120
0.0
130
0.0
111
1.0
121
0.0
131
0.0
112
0.0
122
1.0
132
0.0
 79
     0
146
0.0
 60
     3
 61
     5
292
     1
282
     1
141
0.0
142
0.0
 63
   250
361
3F
  0
ENDTAB
  0
TABLE
  2
LTYPE
  5
5
330
0
100
AcDbSymbolTable
 70
     2
  0
LTYPE
  5
14
330
5
100
AcDbSymbolTableRecord
100
AcDbLinetypeTableRecord
  2
ByBlock
 70
     0
  3

 72
    65
 73
     0
 40
0.0
  0
LTYPE
  5
15
330
5
100
AcDbSymbolTableRecord
100
AcDbLinetypeTableRecord
  2
ByLayer
 70
     0
  3

 72
    65
 73
     0
 40
0.0
  0
LTYPE
  5
16
330
5
100
AcDbSymbolTableRecord
100
AcDbLinetypeTableRecord
  2
Continuous
 70
     0
  3
Solid line
 72
    65
 73
     0
 40
0.0
  0
LTYPE
  5
47
330
5
100
AcDbSymbolTableRecord
100
AcDbLinetypeTableRecord
  2
AI-Linetype-1
 70
     0
  3
Adobe Illustrator Linetype No. 1
 72
    65
 73
     2
 40
1.411111110758333
 49
0.7055555553791667
 74
     0
 49
-0.7055555553791667
 74
     0
  0
ENDTAB
  0
TABLE
  2
LAYER
  5
2
330
0
100
AcDbSymbolTable
 70
     2
  0
LAYER
  5
10
330
2
100
AcDbSymbolTableRecord
100
AcDbLayerTableRecord
  2
0
 70
     0
 62
     7
  6
Continuous
370
    -3
390
F
347
3E
  0
LAYER
  5
40
330
2
100
AcDbSymbolTableRecord
100
AcDbLayerTableRecord
  2
_U+30EC_U+30A4_U+30E4_U+30FC 1
 70
     0
 62
     7
  6
Continuous
370
    -3
390
F
347
3E
  0
ENDTAB
  0
TABLE
  2
STYLE
  5
3
330
0
100
AcDbSymbolTable
 70
     1
  0
STYLE
  5
11
330
3
100
AcDbSymbolTableRecord
100
AcDbTextStyleTableRecord
  2
Standard
 70
     0
 40
0.0
 41
1.0
 50
0.0
 71
     0
 42
0.2
  3
txt
  4

  0
ENDTAB
  0
TABLE
  2
VIEW
  5
6
330
0
100
AcDbSymbolTable
 70
     0
  0
ENDTAB
  0
TABLE
  2
UCS
  5
7
330
0
100
AcDbSymbolTable
 70
     0
  0
ENDTAB
  0
TABLE
  2
APPID
  5
9
330
0
100
AcDbSymbolTable
 70
     1
  0
APPID
  5
12
330
9
100
AcDbSymbolTableRecord
100
AcDbRegAppTableRecord
  2
ACAD
 70
     0
  0
ENDTAB
  0
TABLE
  2
DIMSTYLE
  5
A
330
0
100
AcDbSymbolTable
 70
     1
100
AcDbDimStyleTable
  0
DIMSTYLE
105
27
330
A
100
AcDbSymbolTableRecord
100
AcDbDimStyleTableRecord
  2
Standard
 70
     0
178
     0
340
11
  0
ENDTAB
  0
TABLE
  2
BLOCK_RECORD
  5
1
330
0
100
AcDbSymbolTable
 70
     8
  0
BLOCK_RECORD
  5
1F
330
1
100
AcDbSymbolTableRecord
100
AcDbBlockTableRecord
  2
*Model_Space
340
22
 70
     0
280
     1
281
     0
  0
BLOCK_RECORD
  5
1B
330
1
100
AcDbSymbolTableRecord
100
AcDbBlockTableRecord
  2
*Paper_Space
340
1E
 70
     0
280
     1
281
     0
  0
BLOCK_RECORD
  5
23
330
1
100
AcDbSymbolTableRecord
100
AcDbBlockTableRecord
  2
*Paper_Space0
340
26
 70
     0
280
     1
281
     0
  0
BLOCK_RECORD
  5
4E
330
1
100
AcDbSymbolTableRecord
100
AcDbBlockTableRecord
  2
block 2
340
0
102
{BLKREFS
331
4F
102
}
 70
     0
280
     1
281
     0
  0
BLOCK_RECORD
  5
C5
330
1
100
AcDbSymbolTableRecord
100
AcDbBlockTableRecord
  2
block 3
340
0
102
{BLKREFS
331
C6
102
}
 70
     0
280
     1
281
     0
  0
BLOCK_RECORD
  5
D7
330
1
100
AcDbSymbolTableRecord
100
AcDbBlockTableRecord
  2
block 4
340
0
102
{BLKREFS
331
D8
102
}
 70
     0
280
     1
281
     0
  0
BLOCK_RECORD
  5
100
330
1
100
AcDbSymbolTableRecord
100
AcDbBlockTableRecord
  2
block 5
340
0
102
{BLKREFS
331
101
102
}
 70
     0
280
     1
281
     0
  0
BLOCK_RECORD
  5
113
330
1
100
AcDbSymbolTableRecord
100
AcDbBlockTableRecord
  2
block 6
340
0
102
{BLKREFS
331
114
102
}
 70
     0
280
     1
281
     0
  0
BLOCK_RECORD
  5
12C
330
1
100
AcDbSymbolTableRecord
100
AcDbBlockTableRecord
  2
block 7
340
0
102
{BLKREFS
331
12D
102
}
 70
     0
280
     1
281
     0
  0
BLOCK_RECORD
  5
13C
330
1
100
AcDbSymbolTableRecord
100
AcDbBlockTableRecord
  2
block 8
340
0
102
{BLKREFS
331
13D
102
}
 70
     0
280
     1
281
     0
  0
ENDTAB
  0
ENDSEC
  0
SECTION
  2
BLOCKS
  0
BLOCK
  5
20
330
1F
100
AcDbEntity
  8
0
100
AcDbBlockBegin
  2
*Model_Space
 70
     0
 10
0.0
 20
0.0
 30
0.0
  3
*Model_Space
  1

  0
ENDBLK
  5
21
330
1F
100
AcDbEntity
  8
0
100
AcDbBlockEnd
  0
BLOCK
  5
1C
330
1B
100
AcDbEntity
 67
     1
  8
0
100
AcDbBlockBegin
  2
*Paper_Space
 70
     0
 10
0.0
 20
0.0
 30
0.0
  3
*Paper_Space
  1

  0
ENDBLK
  5
1D
330
1B
100
AcDbEntity
 67
     1
  8
0
100
AcDbBlockEnd
  0
BLOCK
  5
24
330
23
100
AcDbEntity
  8
0
100
AcDbBlockBegin
  2
*Paper_Space0
 70
     0
 10
0.0
 20
0.0
 30
0.0
  3
*Paper_Space0
  1

  0
ENDBLK
  5
25
330
23
100
AcDbEntity
  8
0
100
AcDbBlockEnd
  0
BLOCK
  5
50
330
4E
100
AcDbEntity
  8
0
100
AcDbBlockBegin
  2
block 2
 70
     0
 10
0.0
 20
0.0
 30
0.0
  3
block 2
  1

  0
SPLINE
  5
52
330
4E
100
AcDbEntity
  8
_U+30EC_U+30A4_U+30E4_U+30FC 1
370
     0
100
AcDbSpline
210
0.0
220
0.0
230
1.0
 70
    11
 71
     3
 72
    17
 73
    13
 74
     0
 42
0.0000000001
 43
0.0000000001
 12
1.0
 22
0.0
 32
0.0
 13
1.0
 23
0.0
 33
0.0
 40
0.0
 40
0.0
 40
0.0
 40
0.0
 40
1.0
 40
1.0
 40
1.0
 40
2.0
 40
2.0
 40
2.0
 40
3.0
 40
3.0
 40
3.0
 40
4.0
 40
4.0
 40
4.0
 40
4.0
 10
92.32821449514712
 20
-113.9530788560603
 30
0.0
 10
92.22245006374995
 20
-113.8473144246632
 30
0.0
 10
92.1418348293951
 20
-113.8094183743254
 30
0.0
 10
92.04881725129336
 20
-113.7773789863126
 30
0.0
 10
92.04881725129336
 20
-113.7773789863126
 30
0.0
 10
92.15906030682135
 20
-113.6123589125691
 30
0.0
 10
92.15906030682135
 20
-113.6123589125691
 30
0.0
 10
92.2562119995054
 20
-113.6547335870377
 30
0.0
 10
92.37679034148914
 20
-113.7332817641014
 30
0.0
 10
92.42984481196198
 20
-113.7880587823169
 30
0.0
 10
92.42984481196198
 20
-113.7880587823169
 30
0.0
 10
92.32821449514712
 20
-113.9530788560603
 30
0.0
 10
92.32821449514712
 20
-113.9530788560603
 30
0.0
  0
SPLINE
  5
53
330
4E
100
AcDbEntity
  8
_U+30EC_U+30A4_U+30E4_U+30FC 1
370
     0
100
AcDbSpline
210
0.0
220
0.0
230
1.0
 70
    11
 71
     3
 72
   182
 73
   178
 74
     0
 42
0.0000000001
 43
0.0000000001
 12
1.0
 22
0.0
 32
0.0
 13
1.0
 23
0.0
 33
0.0
 40
0.0
 40
0.0
 40
0.0
 40
0.0
 40
1.0
 40
1.0
 40
1.0
 40
2.0
 40
2.0
 40
2.0
 40
3.0
 40
3.0
 40
3.0
 40
4.0
 40
4.0
 40
4.0
 40
5.0
 40
5.0
 40
5.0
 40
6.0
 40
6.0
 40
6.0
 40
7.0
 40
7.0
 40
7.0
 40
8.0
 40
8.0
 40
8.0
 40
9.0
 40
9.0
 40
9.0
 40
10.0
 40
10.0
 40
10.0
 40
11.0
 40
11.0
 40
11.0
 40
12.0
 40
12.0
 40
12.0
 40
13.0
 40
13.0
 40
13.0
 40
14.0
 40
14.0
 40
14.0
 40
15.0
 40
15.0
 40
15.0
 40
16.0
 40
16.0
 40
16.0
 40
17.0
 40
17.0
 40
17.0
 40
18.0
 40
18.0
 40
18.0
 40
19.0
 40
19.0
 40
19.0
 40
20.0
 40
20.0
 40
20.0
 40
21.0
 40
21.0
 40
21.0
 40
22.0
 40
22.0
 40
22.0
 40
23.0
 40
23.0
 40
23.0
 40
24.0
 40
24.0
 40
24.0
 40
25.0
 40
25.0
 40
25.0
 40
26.0
 40
26.0
 40
26.0
 40
27.0
 40
27.0
 40
27.0
 40
28.0
 40
28.0
 40
28.0
 40
29.0
 40
29.0
 40
29.0
 40
30.0
 40
30.0
 40
30.0
 40
31.0
 40
31.0
 40
31.0
 40
32.0
 40
32.0
 40
32.0
 40
33.0
 40
33.0
 40
33.0
 40
34.0
 40
34.0
 40
34.0
 40
35.0
 40
35.0
 40
35.0
 40
36.0
 40
36.0
 40
36.0
 40
37.0
 40
37.0
 40
37.0
 40
38.0
 40
38.0
 40
38.0
 40
39.0
 40
39.0
 40
39.0
 40
40.0
 40
40.0
 40
40.0
 40
41.0
 40
41.0
 40
41.0
 40
42.0
 40
42.0
 40
42.0
 40
43.0
 40
43.0
 40
43.0
 40
44.0
 40
44.0
 40
44.0
 40
45.0
 40
45.0
 40
45.0
 40
46.0
 40
46.0
 40
46.0
 40
47.0
 40
47.0
 40
47.0
 40
48.0
 40
48.0
 40
48.0
 40
49.0
 40
49.0
 40
49.0
 40
50.0
 40
50.0
 40
50.0
 40
51.0
 40
51.0
 40
51.0
 40
52.0
 40
52.0
 40
52.0
 40
53.0
 40
53.0
 40
53.0
 40
54.0
 40
54.0
 40
54.0
 40
55.0
 40
55.0
 40
55.0
 40
56.0
 40
56.0
 40
56.0
 40
57.0
 40
57.0
 40
57.0
 40
58.0
 40
58.0
 40
58.0
 40
59.0
 40
59.0
 40
59.0
 40
59.0
 10
93.37311195582339
 20
-115.1313015120158
 30
0.0
 10
93.37311195582339
 20
-115.1313015120158
 30
0.0
 10
92.73645831014922
 20
-115.1313015120158
 30
0.0
 10
92.73645831014922
 20
-115.1313015120158
 30
0.0
 10
92.52286239006374
 20
-115.1313015120158
 30
0.0
 10
92.3071994126871
 20
-115.1357801361466
 30
0.0
 10
92.09325898305308
 20
-115.148526989442
 30
0.0
 10
92.09325898305308
 20
-115.148526989442
 30
0.0
 10
92.09325898305308
 20
-114.94113224123
 30
0.0
 10
92.09325898305308
 20
-114.94113224123
 30
0.0
 10
92.3154676418517
 20
-114.9538790945254
 30
0.0
 10
92.63930661746518
 20
-114.9580132091077
 30
0.0
 10
92.73645831014922
 20
-114.9580132091077
 30
0.0
 10
92.73645831014922
 20
-114.9580132091077
 30
0.0
 10
92.95625540210817
 20
-114.9580132091077
 30
0.0
 10
92.95625540210817
 20
-114.9580132091077
 30
0.0
 10
92.95625540210817
 20
-114.9580132091077
 30
0.0
 10
92.95625540210817
 20
-114.8164197846639
 30
0.0
 10
92.95625540210817
 20
-114.8164197846639
 30
0.0
 10
92.95625540210817
 20
-114.8164197846639
 30
0.0
 10
92.79571395249552
 20
-114.8164197846639
 30
0.0
 10
92.79571395249552
 20
-114.8164197846639
 30
0.0
 10
92.63069387875206
 20
-114.8164197846639
 30
0.0
 10
92.46567380500859
 20
-114.8205538992462
 30
0.0
 10
92.30065373126511
 20
-114.8353678098328
 30
0.0
 10
92.30065373126511
 20
-114.8353678098328
 30
0.0
 10
92.30065373126511
 20
-114.6259060043296
 30
0.0
 10
92.30065373126511
 20
-114.6259060043296
 30
0.0
 10
92.47187497688203
 20
-114.6407199149162
 30
0.0
 10
92.71957734227149
 20
-114.6448540294985
 30
0.0
 10
92.79571395249552
 20
-114.6448540294985
 30
0.0
 10
92.79571395249552
 20
-114.6448540294985
 30
0.0
 10
92.95625540210817
 20
-114.6448540294985
 30
0.0
 10
92.95625540210817
 20
-114.6448540294985
 30
0.0
 10
92.95212128752587
 20
-114.5728515338568
 30
0.0
 10
92.95212128752587
 20
-114.5666503619833
 30
0.0
 10
92.94592011565241
 20
-114.5135958915105
 30
0.0
 10
92.94592011565241
 20
-114.5135958915105
 30
0.0
 10
93.08544648280503
 20
-114.5284098020971
 30
0.0
 10
93.08544648280503
 20
-114.5284098020971
 30
0.0
 10
93.08544648280503
 20
-114.5284098020971
 30
0.0
 10
92.9858832232813
 20
-114.3571885564802
 30
0.0
 10
92.9858832232813
 20
-114.3571885564802
 30
0.0
 10
93.03273652188071
 20
-114.3633897283536
 30
0.0
 10
93.10646156526505
 20
-114.3720024670667
 30
0.0
 10
93.1236870426913
 20
-114.3720024670667
 30
0.0
 10
93.17432994632448
 20
-114.3720024670667
 30
0.0
 10
93.1912109142022
 20
-114.3509873846067
 30
0.0
 10
93.1912109142022
 20
-114.2937987995516
 30
0.0
 10
93.1912109142022
 20
-114.2937987995516
 30
0.0
 10
93.1912109142022
 20
-114.1563394896901
 30
0.0
 10
93.1912109142022
 20
-114.1563394896901
 30
0.0
 10
93.1912109142022
 20
-114.1563394896901
 30
0.0
 10
93.08544648280503
 20
-114.1563394896901
 30
0.0
 10
93.08544648280503
 20
-114.1563394896901
 30
0.0
 10
92.95212128752587
 20
-114.1563394896901
 30
0.0
 10
92.79571395249552
 20
-114.1563394896901
 30
0.0
 10
92.67306855322063
 20
-114.168741833437
 30
0.0
 10
92.67306855322063
 20
-114.168741833437
 30
0.0
 10
92.67306855322063
 20
-113.9785725626512
 30
0.0
 10
92.67306855322063
 20
-113.9785725626512
 30
0.0
 10
92.84015568425524
 20
-113.9954535305289
 30
0.0
 10
93.07063257221846
 20
-113.9975205878201
 30
0.0
 10
93.08544648280503
 20
-113.9975205878201
 30
0.0
 10
93.08544648280503
 20
-113.9975205878201
 30
0.0
 10
93.1912109142022
 20
-113.9975205878201
 30
0.0
 10
93.1912109142022
 20
-113.9975205878201
 30
0.0
 10
93.1912109142022
 20
-113.9975205878201
 30
0.0
 10
93.1912109142022
 20
-113.866262449832
 30
0.0
 10
93.1912109142022
 20
-113.866262449832
 30
0.0
 10
93.1912109142022
 20
-113.866262449832
 30
0.0
 10
93.15331486386445
 20
-113.866262449832
 30
0.0
 10
93.15331486386445
 20
-113.866262449832
 30
0.0
 10
93.10852862255621
 20
-113.866262449832
 30
0.0
 10
92.98381616599016
 20
-113.8707410739629
 30
0.0
 10
92.89493270247071
 20
-113.8790093031275
 30
0.0
 10
92.89493270247071
 20
-113.8790093031275
 30
0.0
 10
92.89493270247071
 20
-113.7987385783211
 30
0.0
 10
92.89493270247071
 20
-113.7987385783211
 30
0.0
 10
92.8422227415464
 20
-113.8366346286589
 30
0.0
 10
92.81707354450407
 20
-113.8514485392455
 30
0.0
 10
92.77435436048697
 20
-113.8748751885452
 30
0.0
 10
92.77435436048697
 20
-113.8748751885452
 30
0.0
 10
92.58625214699234
 20
-113.7456841078483
 30
0.0
 10
92.58625214699234
 20
-113.7456841078483
 30
0.0
 10
92.6644558145075
 20
-113.7119221720929
 30
0.0
 10
92.82120765908637
 20
-113.6485324151643
 30
0.0
 10
92.9776149941167
 20
-113.5045274238808
 30
0.0
 10
93.0602972857627
 20
-113.4263237563656
 30
0.0
 10
93.13815644372936
 20
-113.3415744074285
 30
0.0
 10
93.1912109142022
 20
-113.2402886001622
 30
0.0
 10
93.1912109142022
 20
-113.2402886001622
 30
0.0
 10
93.40273977699654
 20
-113.3016112997996
 30
0.0
 10
93.40273977699654
 20
-113.3016112997996
 30
0.0
 10
93.42203231171393
 20
-113.307812471673
 30
0.0
 10
93.43236759816969
 20
-113.3164252103862
 30
0.0
 10
93.43236759816969
 20
-113.3291720636816
 30
0.0
 10
93.43236759816969
 20
-113.3460530315593
 30
0.0
 10
93.41996525442279
 20
-113.3522542034328
 30
0.0
 10
93.39447154783194
 20
-113.3650010567282
 30
0.0
 10
93.47474227263827
 20
-113.4624972589608
 30
0.0
 10
93.63769528909059
 20
-113.5596489516448
 30
0.0
 10
93.67145722484602
 20
-113.5785969768137
 30
0.0
 10
93.82166338800292
 20
-113.6674804403331
 30
0.0
 10
93.93604055811322
 20
-113.6950412042151
 30
0.0
 10
94.01424422562839
 20
-113.713989229384
 30
0.0
 10
94.01424422562839
 20
-113.713989229384
 30
0.0
 10
93.89573294093579
 20
-113.8831434177098
 30
0.0
 10
93.89573294093579
 20
-113.8831434177098
 30
0.0
 10
93.81132810154718
 20
-113.8538601060852
 30
0.0
 10
93.76034068836547
 20
-113.8345675713678
 30
0.0
 10
93.64182940367289
 20
-113.769110757148
 30
0.0
 10
93.64182940367289
 20
-113.769110757148
 30
0.0
 10
93.64182940367289
 20
-113.8790093031275
 30
0.0
 10
93.64182940367289
 20
-113.8790093031275
 30
0.0
 10
93.55914711202688
 20
-113.8707410739629
 30
0.0
 10
93.43236759816969
 20
-113.866262449832
 30
0.0
 10
93.37931312769685
 20
-113.866262449832
 30
0.0
 10
93.37931312769685
 20
-113.866262449832
 30
0.0
 10
93.37931312769685
 20
-113.9975205878201
 30
0.0
 10
93.37931312769685
 20
-113.9975205878201
 30
0.0
 10
93.37931312769685
 20
-113.9975205878201
 30
0.0
 10
93.49989146968059
 20
-113.9975205878201
 30
0.0
 10
93.49989146968059
 20
-113.9975205878201
 30
0.0
 10
93.50230303652026
 20
-113.9975205878201
 30
0.0
 10
93.73484698177462
 20
-113.9954535305289
 30
0.0
 10
93.91261390881351
 20
-113.9785725626512
 30
0.0
 10
93.91261390881351
 20
-113.9785725626512
 30
0.0
 10
93.91261390881351
 20
-114.168741833437
 30
0.0
 10
93.91261390881351
 20
-114.168741833437
 30
0.0
 10
93.78376733766517
 20
-114.1563394896901
 30
0.0
 10
93.6270154930863
 20
-114.1563394896901
 30
0.0
 10
93.49989146968059
 20
-114.1563394896901
 30
0.0
 10
93.49989146968059
 20
-114.1563394896901
 30
0.0
 10
93.37931312769685
 20
-114.1563394896901
 30
0.0
 10
93.37931312769685
 20
-114.1563394896901
 30
0.0
 10
93.37931312769685
 20
-114.1563394896901
 30
0.0
 10
93.37931312769685
 20
-114.382682263071
 30
0.0
 10
93.37931312769685
 20
-114.382682263071
 30
0.0
 10
93.37931312769685
 20
-114.5011935477636
 30
0.0
 10
93.35416393065452
 20
-114.5370225408102
 30
0.0
 10
93.19327797149334
 20
-114.5518364513968
 30
0.0
 10
93.19741208607564
 20
-114.5707844765656
 30
0.0
 10
93.1912109142022
 20
-114.5814642725699
 30
0.0
 10
93.15331486386445
 20
-114.6045464123211
 30
0.0
 10
93.15124780657331
 20
-114.6238389470385
 30
0.0
 10
93.15124780657331
 20
-114.6300401189119
 30
0.0
 10
93.14918074928215
 20
-114.6448540294985
 30
0.0
 10
93.14918074928215
 20
-114.6448540294985
 30
0.0
 10
93.2862955495951
 20
-114.6448540294985
 30
0.0
 10
93.2862955495951
 20
-114.6448540294985
 30
0.0
 10
93.45166013288708
 20
-114.6448540294985
 30
0.0
 10
93.61840275437318
 20
-114.6407199149162
 30
0.0
 10
93.78583439495632
 20
-114.6259060043296
 30
0.0
 10
93.78583439495632
 20
-114.6259060043296
 30
0.0
 10
93.78583439495632
 20
-114.8333007525417
 30
0.0
 10
93.78583439495632
 20
-114.8333007525417
 30
0.0
 10
93.57017141757969
 20
-114.8164197846639
 30
0.0
 10
93.30558808431249
 20
-114.8164197846639
 30
0.0
 10
93.2862955495951
 20
-114.8164197846639
 30
0.0
 10
93.2862955495951
 20
-114.8164197846639
 30
0.0
 10
93.14676918244248
 20
-114.8164197846639
 30
0.0
 10
93.14676918244248
 20
-114.8164197846639
 30
0.0
 10
93.14676918244248
 20
-114.8164197846639
 30
0.0
 10
93.14676918244248
 20
-114.9580132091077
 30
0.0
 10
93.14676918244248
 20
-114.9580132091077
 30
0.0
 10
93.14676918244248
 20
-114.9580132091077
 30
0.0
 10
93.37311195582339
 20
-114.9580132091077
 30
0.0
 10
93.37311195582339
 20
-114.9580132091077
 30
0.0
 10
93.58877493320003
 20
-114.9580132091077
 30
0.0
 10
93.80684947741635
 20
-114.9538790945254
 30
0.0
 10
94.02285696434151
 20
-114.94113224123
 30
0.0
 10
94.02285696434151
 20
-114.94113224123
 30
0.0
 10
94.02285696434151
 20
-115.148526989442
 30
0.0
 10
94.02285696434151
 20
-115.148526989442
 30
0.0
 10
93.74104815364808
 20
-115.1313015120158
 30
0.0
 10
93.3965386051231
 20
-115.1313015120158
 30
0.0
 10
93.37311195582339
 20
-115.1313015120158
 30
0.0
  0
SPLINE
  5
54
330
4E
100
AcDbEntity
  8
_U+30EC_U+30A4_U+30E4_U+30FC 1
370
     0
100
AcDbSpline
210
0.0
220
0.0
230
1.0
 70
    11
 71
     3
 72
    23
 73
    19
 74
     0
 42
0.0000000001
 43
0.0000000001
 12
1.0
 22
0.0
 32
0.0
 13
1.0
 23
0.0
 33
0.0
 40
0.0
 40
0.0
 40
0.0
 40
0.0
 40
1.0
 40
1.0
 40
1.0
 40
2.0
 40
2.0
 40
2.0
 40
3.0
 40
3.0
 40
3.0
 40
4.0
 40
4.0
 40
4.0
 40
5.0
 40
5.0
 40
5.0
 40
6.0
 40
6.0
 40
6.0
 40
6.0
 10
92.25414494221424
 20
-114.5032606050547
 30
0.0
 10
92.25414494221424
 20
-114.5242756875148
 30
0.0
 10
92.2562119995054
 20
-114.562516247401
 30
0.0
 10
92.23071829291455
 20
-114.562516247401
 30
0.0
 10
92.2203830064588
 20
-114.562516247401
 30
0.0
 10
92.21177026774568
 20
-114.5559705659791
 30
0.0
 10
92.2010904717414
 20
-114.5390895981013
 30
0.0
 10
92.2010904717414
 20
-114.5390895981013
 30
0.0
 10
92.0977376071839
 20
-114.3571885564802
 30
0.0
 10
92.0977376071839
 20
-114.3571885564802
 30
0.0
 10
92.31340058456054
 20
-114.2279974757833
 30
0.0
 10
92.51011553676831
 20
-113.9510117987692
 30
0.0
 10
92.55662432581919
 20
-113.8790093031275
 30
0.0
 10
92.55662432581919
 20
-113.8790093031275
 30
0.0
 10
92.6286268214609
 20
-114.0588432874575
 30
0.0
 10
92.6286268214609
 20
-114.0588432874575
 30
0.0
 10
92.49530162618173
 20
-114.2555582396653
 30
0.0
 10
92.319601756434
 20
-114.4395263385776
 30
0.0
 10
92.25414494221424
 20
-114.5032606050547
 30
0.0
  0
SPLINE
  5
55
330
4E
100
AcDbEntity
  8
_U+30EC_U+30A4_U+30E4_U+30FC 1
370
     0
100
AcDbSpline
210
0.0
220
0.0
230
1.0
 70
    11
 71
     3
 72
    17
 73
    13
 74
     0
 42
0.0000000001
 43
0.0000000001
 12
1.0
 22
0.0
 32
0.0
 13
1.0
 23
0.0
 33
0.0
 40
0.0
 40
0.0
 40
0.0
 40
0.0
 40
1.0
 40
1.0
 40
1.0
 40
2.0
 40
2.0
 40
2.0
 40
3.0
 40
3.0
 40
3.0
 40
4.0
 40
4.0
 40
4.0
 40
4.0
 10
92.50804847947715
 20
-113.6082247979868
 30
0.0
 10
92.44638127029118
 20
-113.5320881877628
 30
0.0
 10
92.31753469914284
 20
-113.4559515775388
 30
0.0
 10
92.21383732503682
 20
-113.4263237563656
 30
0.0
 10
92.21383732503682
 20
-113.4263237563656
 30
0.0
 10
92.30926646997824
 20
-113.2613036826222
 30
0.0
 10
92.30926646997824
 20
-113.2613036826222
 30
0.0
 10
92.41055227724459
 20
-113.2974771852173
 30
0.0
 10
92.51666121819028
 20
-113.3543212607239
 30
0.0
 10
92.6052001721612
 20
-113.4349364950788
 30
0.0
 10
92.6052001721612
 20
-113.4349364950788
 30
0.0
 10
92.50804847947715
 20
-113.6082247979868
 30
0.0
 10
92.50804847947715
 20
-113.6082247979868
 30
0.0
  0
SPLINE
  5
56
330
4E
100
AcDbEntity
  8
_U+30EC_U+30A4_U+30E4_U+30FC 1
370
     0
100
AcDbSpline
210
0.0
220
0.0
230
1.0
 70
    11
 71
     3
 72
    23
 73
    19
 74
     0
 42
0.0000000001
 43
0.0000000001
 12
1.0
 22
0.0
 32
0.0
 13
1.0
 23
0.0
 33
0.0
 40
0.0
 40
0.0
 40
0.0
 40
0.0
 40
1.0
 40
1.0
 40
1.0
 40
2.0
 40
2.0
 40
2.0
 40
3.0
 40
3.0
 40
3.0
 40
4.0
 40
4.0
 40
4.0
 40
5.0
 40
5.0
 40
5.0
 40
6.0
 40
6.0
 40
6.0
 40
6.0
 10
92.96073402623898
 20
-114.3127468247204
 30
0.0
 10
92.93971894377896
 20
-114.3361734740201
 30
0.0
 10
92.8422227415464
 20
-114.4481390772907
 30
0.0
 10
92.70269637439378
 20
-114.5284098020971
 30
0.0
 10
92.70269637439378
 20
-114.5284098020971
 30
0.0
 10
92.53526473381064
 20
-114.4078314601133
 30
0.0
 10
92.53526473381064
 20
-114.4078314601133
 30
0.0
 10
92.68547089696753
 20
-114.3316948498893
 30
0.0
 10
92.78503415649125
 20
-114.2366102144964
 30
0.0
 10
92.83361000283327
 20
-114.1835557440236
 30
0.0
 10
92.83361000283327
 20
-114.1835557440236
 30
0.0
 10
93.00724281528986
 20
-114.2662380356696
 30
0.0
 10
93.00724281528986
 20
-114.2662380356696
 30
0.0
 10
93.01551104445446
 20
-114.2703721502519
 30
0.0
 10
93.02412378316758
 20
-114.2769178316738
 30
0.0
 10
93.02412378316758
 20
-114.2872531181296
 30
0.0
 10
93.02412378316758
 20
-114.3127468247204
 30
0.0
 10
92.98795028057246
 20
-114.3127468247204
 30
0.0
 10
92.96073402623898
 20
-114.3127468247204
 30
0.0
  0
SPLINE
  5
57
330
4E
100
AcDbEntity
  8
_U+30EC_U+30A4_U+30E4_U+30FC 1
370
     0
100
AcDbSpline
210
0.0
220
0.0
230
1.0
 70
    11
 71
     3
 72
    20
 73
    16
 74
     0
 42
0.0000000001
 43
0.0000000001
 12
1.0
 22
0.0
 32
0.0
 13
1.0
 23
0.0
 33
0.0
 40
0.0
 40
0.0
 40
0.0
 40
0.0
 40
1.0
 40
1.0
 40
1.0
 40
2.0
 40
2.0
 40
2.0
 40
3.0
 40
3.0
 40
3.0
 40
4.0
 40
4.0
 40
4.0
 40
5.0
 40
5.0
 40
5.0
 40
5.0
 10
93.2587347857131
 20
-113.4707654881254
 30
0.0
 10
93.22083873537535
 20
-113.5193413344674
 30
0.0
 10
93.15951603573791
 20
-113.5978895115311
 30
0.0
 10
93.01998966858528
 20
-113.7077880575106
 30
0.0
 10
93.10026039339161
 20
-113.7119221720929
 30
0.0
 10
93.12988821456476
 20
-113.7119221720929
 30
0.0
 10
93.15331486386445
 20
-113.7119221720929
 30
0.0
 10
93.15331486386445
 20
-113.7119221720929
 30
0.0
 10
93.38172469453652
 20
-113.7119221720929
 30
0.0
 10
93.38172469453652
 20
-113.7119221720929
 30
0.0
 10
93.41341957300082
 20
-113.7119221720929
 30
0.0
 10
93.46199541934284
 20
-113.7098551148017
 30
0.0
 10
93.53606497227571
 20
-113.7077880575106
 30
0.0
 10
93.42409936900509
 20
-113.6337185045777
 30
0.0
 10
93.37517901311455
 20
-113.5872097155268
 30
0.0
 10
93.2587347857131
 20
-113.4707654881254
 30
0.0
  0
SPLINE
  5
58
330
4E
100
AcDbEntity
  8
_U+30EC_U+30A4_U+30E4_U+30FC 1
370
     0
100
AcDbSpline
210
0.0
220
0.0
230
1.0
 70
    11
 71
     3
 72
    17
 73
    13
 74
     0
 42
0.0000000001
 43
0.0000000001
 12
1.0
 22
0.0
 32
0.0
 13
1.0
 23
0.0
 33
0.0
 40
0.0
 40
0.0
 40
0.0
 40
0.0
 40
1.0
 40
1.0
 40
1.0
 40
2.0
 40
2.0
 40
2.0
 40
3.0
 40
3.0
 40
3.0
 40
4.0
 40
4.0
 40
4.0
 40
4.0
 10
93.81959633071178
 20
-114.5263427448059
 30
0.0
 10
93.68420407814145
 20
-114.4143771415353
 30
0.0
 10
93.57843964674429
 20
-114.3509873846067
 30
0.0
 10
93.45992836205168
 20
-114.2872531181296
 30
0.0
 10
93.45992836205168
 20
-114.2872531181296
 30
0.0
 10
93.58670787590889
 20
-114.175287514859
 30
0.0
 10
93.58670787590889
 20
-114.175287514859
 30
0.0
 10
93.7179660138969
 20
-114.2217963039098
 30
0.0
 10
93.82786455987637
 20
-114.278984888965
 30
0.0
 10
93.95292152599094
 20
-114.3806152057798
 30
0.0
 10
93.95292152599094
 20
-114.3806152057798
 30
0.0
 10
93.81959633071178
 20
-114.5263427448059
 30
0.0
 10
93.81959633071178
 20
-114.5263427448059
 30
0.0
  0
HATCH
  5
59
330
4E
100
AcDbEntity
  8
_U+30EC_U+30A4_U+30E4_U+30FC 1
 62
   179
420
  2234388
100
AcDbHatch
 10
0.0
 20
0.0
 30
0.0
210
0.0
220
0.0
230
1.0
  2
SOLID
 70
     1
 71
     0
 91
        7
 92
        1
 93
        1
 72
     4
 94
        3
 73
     0
 74
     1
 95
       17
 96
       13
 40
0.0
 40
0.0
 40
0.0
 40
0.0
 40
1.0
 40
1.0
 40
1.0
 40
2.0
 40
2.0
 40
2.0
 40
3.0
 40
3.0
 40
3.0
 40
4.0
 40
4.0
 40
4.0
 40
4.0
 10
92.32821449514712
 20
-113.9530788560603
 10
92.22245006374995
 20
-113.8473144246632
 10
92.1418348293951
 20
-113.8094183743254
 10
92.04881725129336
 20
-113.7773789863126
 10
92.04881725129336
 20
-113.7773789863126
 10
92.15906030682135
 20
-113.6123589125691
 10
92.15906030682135
 20
-113.6123589125691
 10
92.2562119995054
 20
-113.6547335870377
 10
92.37679034148914
 20
-113.7332817641014
 10
92.42984481196198
 20
-113.7880587823169
 10
92.42984481196198
 20
-113.7880587823169
 10
92.32821449514712
 20
-113.9530788560603
 10
92.32821449514712
 20
-113.9530788560603
 97
        0
 97
        0
 92
        1
 93
        1
 72
     4
 94
        3
 73
     0
 74
     1
 95
      182
 96
      178
 40
0.0
 40
0.0
 40
0.0
 40
0.0
 40
1.0
 40
1.0
 40
1.0
 40
2.0
 40
2.0
 40
2.0
 40
3.0
 40
3.0
 40
3.0
 40
4.0
 40
4.0
 40
4.0
 40
5.0
 40
5.0
 40
5.0
 40
6.0
 40
6.0
 40
6.0
 40
7.0
 40
7.0
 40
7.0
 40
8.0
 40
8.0
 40
8.0
 40
9.0
 40
9.0
 40
9.0
 40
10.0
 40
10.0
 40
10.0
 40
11.0
 40
11.0
 40
11.0
 40
12.0
 40
12.0
 40
12.0
 40
13.0
 40
13.0
 40
13.0
 40
14.0
 40
14.0
 40
14.0
 40
15.0
 40
15.0
 40
15.0
 40
16.0
 40
16.0
 40
16.0
 40
17.0
 40
17.0
 40
17.0
 40
18.0
 40
18.0
 40
18.0
 40
19.0
 40
19.0
 40
19.0
 40
20.0
 40
20.0
 40
20.0
 40
21.0
 40
21.0
 40
21.0
 40
22.0
 40
22.0
 40
22.0
 40
23.0
 40
23.0
 40
23.0
 40
24.0
 40
24.0
 40
24.0
 40
25.0
 40
25.0
 40
25.0
 40
26.0
 40
26.0
 40
26.0
 40
27.0
 40
27.0
 40
27.0
 40
28.0
 40
28.0
 40
28.0
 40
29.0
 40
29.0
 40
29.0
 40
30.0
 40
30.0
 40
30.0
 40
31.0
 40
31.0
 40
31.0
 40
32.0
 40
32.0
 40
32.0
 40
33.0
 40
33.0
 40
33.0
 40
34.0
 40
34.0
 40
34.0
 40
35.0
 40
35.0
 40
35.0
 40
36.0
 40
36.0
 40
36.0
 40
37.0
 40
37.0
 40
37.0
 40
38.0
 40
38.0
 40
38.0
 40
39.0
 40
39.0
 40
39.0
 40
40.0
 40
40.0
 40
40.0
 40
41.0
 40
41.0
 40
41.0
 40
42.0
 40
42.0
 40
42.0
 40
43.0
 40
43.0
 40
43.0
 40
44.0
 40
44.0
 40
44.0
 40
45.0
 40
45.0
 40
45.0
 40
46.0
 40
46.0
 40
46.0
 40
47.0
 40
47.0
 40
47.0
 40
48.0
 40
48.0
 40
48.0
 40
49.0
 40
49.0
 40
49.0
 40
50.0
 40
50.0
 40
50.0
 40
51.0
 40
51.0
 40
51.0
 40
52.0
 40
52.0
 40
52.0
 40
53.0
 40
53.0
 40
53.0
 40
54.0
 40
54.0
 40
54.0
 40
55.0
 40
55.0
 40
55.0
 40
56.0
 40
56.0
 40
56.0
 40
57.0
 40
57.0
 40
57.0
 40
58.0
 40
58.0
 40
58.0
 40
59.0
 40
59.0
 40
59.0
 40
59.0
 10
93.37311195582339
 20
-115.1313015120158
 10
93.37311195582339
 20
-115.1313015120158
 10
92.73645831014922
 20
-115.1313015120158
 10
92.73645831014922
 20
-115.1313015120158
 10
92.52286239006374
 20
-115.1313015120158
 10
92.3071994126871
 20
-115.1357801361466
 10
92.09325898305308
 20
-115.148526989442
 10
92.09325898305308
 20
-115.148526989442
 10
92.09325898305308
 20
-114.94113224123
 10
92.09325898305308
 20
-114.94113224123
 10
92.3154676418517
 20
-114.9538790945254
 10
92.63930661746518
 20
-114.9580132091077
 10
92.73645831014922
 20
-114.9580132091077
 10
92.73645831014922
 20
-114.9580132091077
 10
92.95625540210817
 20
-114.9580132091077
 10
92.95625540210817
 20
-114.9580132091077
 10
92.95625540210817
 20
-114.9580132091077
 10
92.95625540210817
 20
-114.8164197846639
 10
92.95625540210817
 20
-114.8164197846639
 10
92.95625540210817
 20
-114.8164197846639
 10
92.79571395249552
 20
-114.8164197846639
 10
92.79571395249552
 20
-114.8164197846639
 10
92.63069387875206
 20
-114.8164197846639
 10
92.46567380500859
 20
-114.8205538992462
 10
92.30065373126511
 20
-114.8353678098328
 10
92.30065373126511
 20
-114.8353678098328
 10
92.30065373126511
 20
-114.6259060043296
 10
92.30065373126511
 20
-114.6259060043296
 10
92.47187497688203
 20
-114.6407199149162
 10
92.71957734227149
 20
-114.6448540294985
 10
92.79571395249552
 20
-114.6448540294985
 10
92.79571395249552
 20
-114.6448540294985
 10
92.95625540210817
 20
-114.6448540294985
 10
92.95625540210817
 20
-114.6448540294985
 10
92.95212128752587
 20
-114.5728515338568
 10
92.95212128752587
 20
-114.5666503619833
 10
92.94592011565241
 20
-114.5135958915105
 10
92.94592011565241
 20
-114.5135958915105
 10
93.08544648280503
 20
-114.5284098020971
 10
93.08544648280503
 20
-114.5284098020971
 10
93.08544648280503
 20
-114.5284098020971
 10
92.9858832232813
 20
-114.3571885564802
 10
92.9858832232813
 20
-114.3571885564802
 10
93.03273652188071
 20
-114.3633897283536
 10
93.10646156526505
 20
-114.3720024670667
 10
93.1236870426913
 20
-114.3720024670667
 10
93.17432994632448
 20
-114.3720024670667
 10
93.1912109142022
 20
-114.3509873846067
 10
93.1912109142022
 20
-114.2937987995516
 10
93.1912109142022
 20
-114.2937987995516
 10
93.1912109142022
 20
-114.1563394896901
 10
93.1912109142022
 20
-114.1563394896901
 10
93.1912109142022
 20
-114.1563394896901
 10
93.08544648280503
 20
-114.1563394896901
 10
93.08544648280503
 20
-114.1563394896901
 10
92.95212128752587
 20
-114.1563394896901
 10
92.79571395249552
 20
-114.1563394896901
 10
92.67306855322063
 20
-114.168741833437
 10
92.67306855322063
 20
-114.168741833437
 10
92.67306855322063
 20
-113.9785725626512
 10
92.67306855322063
 20
-113.9785725626512
 10
92.84015568425524
 20
-113.9954535305289
 10
93.07063257221846
 20
-113.9975205878201
 10
93.08544648280503
 20
-113.9975205878201
 10
93.08544648280503
 20
-113.9975205878201
 10
93.1912109142022
 20
-113.9975205878201
 10
93.1912109142022
 20
-113.9975205878201
 10
93.1912109142022
 20
-113.9975205878201
 10
93.1912109142022
 20
-113.866262449832
 10
93.1912109142022
 20
-113.866262449832
 10
93.1912109142022
 20
-113.866262449832
 10
93.15331486386445
 20
-113.866262449832
 10
93.15331486386445
 20
-113.866262449832
 10
93.10852862255621
 20
-113.866262449832
 10
92.98381616599016
 20
-113.8707410739629
 10
92.89493270247071
 20
-113.8790093031275
 10
92.89493270247071
 20
-113.8790093031275
 10
92.89493270247071
 20
-113.7987385783211
 10
92.89493270247071
 20
-113.7987385783211
 10
92.8422227415464
 20
-113.8366346286589
 10
92.81707354450407
 20
-113.8514485392455
 10
92.77435436048697
 20
-113.8748751885452
 10
92.77435436048697
 20
-113.8748751885452
 10
92.58625214699234
 20
-113.7456841078483
 10
92.58625214699234
 20
-113.7456841078483
 10
92.6644558145075
 20
-113.7119221720929
 10
92.82120765908637
 20
-113.6485324151643
 10
92.9776149941167
 20
-113.5045274238808
 10
93.0602972857627
 20
-113.4263237563656
 10
93.13815644372936
 20
-113.3415744074285
 10
93.1912109142022
 20
-113.2402886001622
 10
93.1912109142022
 20
-113.2402886001622
 10
93.40273977699654
 20
-113.3016112997996
 10
93.40273977699654
 20
-113.3016112997996
 10
93.42203231171393
 20
-113.307812471673
 10
93.43236759816969
 20
-113.3164252103862
 10
93.43236759816969
 20
-113.3291720636816
 10
93.43236759816969
 20
-113.3460530315593
 10
93.41996525442279
 20
-113.3522542034328
 10
93.39447154783194
 20
-113.3650010567282
 10
93.47474227263827
 20
-113.4624972589608
 10
93.63769528909059
 20
-113.5596489516448
 10
93.67145722484602
 20
-113.5785969768137
 10
93.82166338800292
 20
-113.6674804403331
 10
93.93604055811322
 20
-113.6950412042151
 10
94.01424422562839
 20
-113.713989229384
 10
94.01424422562839
 20
-113.713989229384
 10
93.89573294093579
 20
-113.8831434177098
 10
93.89573294093579
 20
-113.8831434177098
 10
93.81132810154718
 20
-113.8538601060852
 10
93.76034068836547
 20
-113.8345675713678
 10
93.64182940367289
 20
-113.769110757148
 10
93.64182940367289
 20
-113.769110757148
 10
93.64182940367289
 20
-113.8790093031275
 10
93.64182940367289
 20
-113.8790093031275
 10
93.55914711202688
 20
-113.8707410739629
 10
93.43236759816969
 20
-113.866262449832
 10
93.37931312769685
 20
-113.866262449832
 10
93.37931312769685
 20
-113.866262449832
 10
93.37931312769685
 20
-113.9975205878201
 10
93.37931312769685
 20
-113.9975205878201
 10
93.37931312769685
 20
-113.9975205878201
 10
93.49989146968059
 20
-113.9975205878201
 10
93.49989146968059
 20
-113.9975205878201
 10
93.50230303652026
 20
-113.9975205878201
 10
93.73484698177462
 20
-113.9954535305289
 10
93.91261390881351
 20
-113.9785725626512
 10
93.91261390881351
 20
-113.9785725626512
 10
93.91261390881351
 20
-114.168741833437
 10
93.91261390881351
 20
-114.168741833437
 10
93.78376733766517
 20
-114.1563394896901
 10
93.6270154930863
 20
-114.1563394896901
 10
93.49989146968059
 20
-114.1563394896901
 10
93.49989146968059
 20
-114.1563394896901
 10
93.37931312769685
 20
-114.1563394896901
 10
93.37931312769685
 20
-114.1563394896901
 10
93.37931312769685
 20
-114.1563394896901
 10
93.37931312769685
 20
-114.382682263071
 10
93.37931312769685
 20
-114.382682263071
 10
93.37931312769685
 20
-114.5011935477636
 10
93.35416393065452
 20
-114.5370225408102
 10
93.19327797149334
 20
-114.5518364513968
 10
93.19741208607564
 20
-114.5707844765656
 10
93.1912109142022
 20
-114.5814642725699
 10
93.15331486386445
 20
-114.6045464123211
 10
93.15124780657331
 20
-114.6238389470385
 10
93.15124780657331
 20
-114.6300401189119
 10
93.14918074928215
 20
-114.6448540294985
 10
93.14918074928215
 20
-114.6448540294985
 10
93.2862955495951
 20
-114.6448540294985
 10
93.2862955495951
 20
-114.6448540294985
 10
93.45166013288708
 20
-114.6448540294985
 10
93.61840275437318
 20
-114.6407199149162
 10
93.78583439495632
 20
-114.6259060043296
 10
93.78583439495632
 20
-114.6259060043296
 10
93.78583439495632
 20
-114.8333007525417
 10
93.78583439495632
 20
-114.8333007525417
 10
93.57017141757969
 20
-114.8164197846639
 10
93.30558808431249
 20
-114.8164197846639
 10
93.2862955495951
 20
-114.8164197846639
 10
93.2862955495951
 20
-114.8164197846639
 10
93.14676918244248
 20
-114.8164197846639
 10
93.14676918244248
 20
-114.8164197846639
 10
93.14676918244248
 20
-114.8164197846639
 10
93.14676918244248
 20
-114.9580132091077
 10
93.14676918244248
 20
-114.9580132091077
 10
93.14676918244248
 20
-114.9580132091077
 10
93.37311195582339
 20
-114.9580132091077
 10
93.37311195582339
 20
-114.9580132091077
 10
93.58877493320003
 20
-114.9580132091077
 10
93.80684947741635
 20
-114.9538790945254
 10
94.02285696434151
 20
-114.94113224123
 10
94.02285696434151
 20
-114.94113224123
 10
94.02285696434151
 20
-115.148526989442
 10
94.02285696434151
 20
-115.148526989442
 10
93.74104815364808
 20
-115.1313015120158
 10
93.3965386051231
 20
-115.1313015120158
 10
93.37311195582339
 20
-115.1313015120158
 97
        0
 97
        0
 92
        1
 93
        1
 72
     4
 94
        3
 73
     0
 74
     1
 95
       23
 96
       19
 40
0.0
 40
0.0
 40
0.0
 40
0.0
 40
1.0
 40
1.0
 40
1.0
 40
2.0
 40
2.0
 40
2.0
 40
3.0
 40
3.0
 40
3.0
 40
4.0
 40
4.0
 40
4.0
 40
5.0
 40
5.0
 40
5.0
 40
6.0
 40
6.0
 40
6.0
 40
6.0
 10
92.25414494221424
 20
-114.5032606050547
 10
92.25414494221424
 20
-114.5242756875148
 10
92.2562119995054
 20
-114.562516247401
 10
92.23071829291455
 20
-114.562516247401
 10
92.2203830064588
 20
-114.562516247401
 10
92.21177026774568
 20
-114.5559705659791
 10
92.2010904717414
 20
-114.5390895981013
 10
92.2010904717414
 20
-114.5390895981013
 10
92.0977376071839
 20
-114.3571885564802
 10
92.0977376071839
 20
-114.3571885564802
 10
92.31340058456054
 20
-114.2279974757833
 10
92.51011553676831
 20
-113.9510117987692
 10
92.55662432581919
 20
-113.8790093031275
 10
92.55662432581919
 20
-113.8790093031275
 10
92.6286268214609
 20
-114.0588432874575
 10
92.6286268214609
 20
-114.0588432874575
 10
92.49530162618173
 20
-114.2555582396653
 10
92.319601756434
 20
-114.4395263385776
 10
92.25414494221424
 20
-114.5032606050547
 97
        0
 97
        0
 92
        1
 93
        1
 72
     4
 94
        3
 73
     0
 74
     1
 95
       17
 96
       13
 40
0.0
 40
0.0
 40
0.0
 40
0.0
 40
1.0
 40
1.0
 40
1.0
 40
2.0
 40
2.0
 40
2.0
 40
3.0
 40
3.0
 40
3.0
 40
4.0
 40
4.0
 40
4.0
 40
4.0
 10
92.50804847947715
 20
-113.6082247979868
 10
92.44638127029118
 20
-113.5320881877628
 10
92.31753469914284
 20
-113.4559515775388
 10
92.21383732503682
 20
-113.4263237563656
 10
92.21383732503682
 20
-113.4263237563656
 10
92.30926646997824
 20
-113.2613036826222
 10
92.30926646997824
 20
-113.2613036826222
 10
92.41055227724459
 20
-113.2974771852173
 10
92.51666121819028
 20
-113.3543212607239
 10
92.6052001721612
 20
-113.4349364950788
 10
92.6052001721612
 20
-113.4349364950788
 10
92.50804847947715
 20
-113.6082247979868
 10
92.50804847947715
 20
-113.6082247979868
 97
        0
 97
        0
 92
        1
 93
        1
 72
     4
 94
        3
 73
     0
 74
     1
 95
       23
 96
       19
 40
0.0
 40
0.0
 40
0.0
 40
0.0
 40
1.0
 40
1.0
 40
1.0
 40
2.0
 40
2.0
 40
2.0
 40
3.0
 40
3.0
 40
3.0
 40
4.0
 40
4.0
 40
4.0
 40
5.0
 40
5.0
 40
5.0
 40
6.0
 40
6.0
 40
6.0
 40
6.0
 10
92.96073402623898
 20
-114.3127468247204
 10
92.93971894377896
 20
-114.3361734740201
 10
92.8422227415464
 20
-114.4481390772907
 10
92.70269637439378
 20
-114.5284098020971
 10
92.70269637439378
 20
-114.5284098020971
 10
92.53526473381064
 20
-114.4078314601133
 10
92.53526473381064
 20
-114.4078314601133
 10
92.68547089696753
 20
-114.3316948498893
 10
92.78503415649125
 20
-114.2366102144964
 10
92.83361000283327
 20
-114.1835557440236
 10
92.83361000283327
 20
-114.1835557440236
 10
93.00724281528986
 20
-114.2662380356696
 10
93.00724281528986
 20
-114.2662380356696
 10
93.01551104445446
 20
-114.2703721502519
 10
93.02412378316758
 20
-114.2769178316738
 10
93.02412378316758
 20
-114.2872531181296
 10
93.02412378316758
 20
-114.3127468247204
 10
92.98795028057246
 20
-114.3127468247204
 10
92.96073402623898
 20
-114.3127468247204
 97
        0
 97
        0
 92
        1
 93
        1
 72
     4
 94
        3
 73
     0
 74
     1
 95
       20
 96
       16
 40
0.0
 40
0.0
 40
0.0
 40
0.0
 40
1.0
 40
1.0
 40
1.0
 40
2.0
 40
2.0
 40
2.0
 40
3.0
 40
3.0
 40
3.0
 40
4.0
 40
4.0
 40
4.0
 40
5.0
 40
5.0
 40
5.0
 40
5.0
 10
93.2587347857131
 20
-113.4707654881254
 10
93.22083873537535
 20
-113.5193413344674
 10
93.15951603573791
 20
-113.5978895115311
 10
93.01998966858528
 20
-113.7077880575106
 10
93.10026039339161
 20
-113.7119221720929
 10
93.12988821456476
 20
-113.7119221720929
 10
93.15331486386445
 20
-113.7119221720929
 10
93.15331486386445
 20
-113.7119221720929
 10
93.38172469453652
 20
-113.7119221720929
 10
93.38172469453652
 20
-113.7119221720929
 10
93.41341957300082
 20
-113.7119221720929
 10
93.46199541934284
 20
-113.7098551148017
 10
93.53606497227571
 20
-113.7077880575106
 10
93.42409936900509
 20
-113.6337185045777
 10
93.37517901311455
 20
-113.5872097155268
 10
93.2587347857131
 20
-113.4707654881254
 97
        0
 97
        0
 92
        1
 93
        1
 72
     4
 94
        3
 73
     0
 74
     1
 95
       17
 96
       13
 40
0.0
 40
0.0
 40
0.0
 40
0.0
 40
1.0
 40
1.0
 40
1.0
 40
2.0
 40
2.0
 40
2.0
 40
3.0
 40
3.0
 40
3.0
 40
4.0
 40
4.0
 40
4.0
 40
4.0
 10
93.81959633071178
 20
-114.5263427448059
 10
93.68420407814145
 20
-114.4143771415353
 10
93.57843964674429
 20
-114.3509873846067
 10
93.45992836205168
 20
-114.2872531181296
 10
93.45992836205168
 20
-114.2872531181296
 10
93.58670787590889
 20
-114.175287514859
 10
93.58670787590889
 20
-114.175287514859
 10
93.7179660138969
 20
-114.2217963039098
 10
93.82786455987637
 20
-114.278984888965
 10
93.95292152599094
 20
-114.3806152057798
 10
93.95292152599094
 20
-114.3806152057798
 10
93.81959633071178
 20
-114.5263427448059
 10
93.81959633071178
 20
-114.5263427448059
 97
        0
 97
        0
 75
     2
 76
     1
 98
        0
  0
SPLINE
  5
5A
330
4E
100
AcDbEntity
  8
_U+30EC_U+30A4_U+30E4_U+30FC 1
370
     0
100
AcDbSpline
210
0.0
220
0.0
230
1.0
 70
    11
 71
     3
 72
   113
 73
   109
 74
     0
 42
0.0000000001
 43
0.0000000001
 12
1.0
 22
0.0
 32
0.0
 13
1.0
 23
0.0
 33
0.0
 40
0.0
 40
0.0
 40
0.0
 40
0.0
 40
1.0
 40
1.0
 40
1.0
 40
2.0
 40
2.0
 40
2.0
 40
3.0
 40
3.0
 40
3.0
 40
4.0
 40
4.0
 40
4.0
 40
5.0
 40
5.0
 40
5.0
 40
6.0
 40
6.0
 40
6.0
 40
7.0
 40
7.0
 40
7.0
 40
8.0
 40
8.0
 40
8.0
 40
9.0
 40
9.0
 40
9.0
 40
10.0
 40
10.0
 40
10.0
 40
11.0
 40
11.0
 40
11.0
 40
12.0
 40
12.0
 40
12.0
 40
13.0
 40
13.0
 40
13.0
 40
14.0
 40
14.0
 40
14.0
 40
15.0
 40
15.0
 40
15.0
 40
16.0
 40
16.0
 40
16.0
 40
17.0
 40
17.0
 40
17.0
 40
18.0
 40
18.0
 40
18.0
 40
19.0
 40
19.0
 40
19.0
 40
20.0
 40
20.0
 40
20.0
 40
21.0
 40
21.0
 40
21.0
 40
22.0
 40
22.0
 40
22.0
 40
23.0
 40
23.0
 40
23.0
 40
24.0
 40
24.0
 40
24.0
 40
25.0
 40
25.0
 40
25.0
 40
26.0
 40
26.0
 40
26.0
 40
27.0
 40
27.0
 40
27.0
 40
28.0
 40
28.0
 40
28.0
 40
29.0
 40
29.0
 40
29.0
 40
30.0
 40
30.0
 40
30.0
 40
31.0
 40
31.0
 40
31.0
 40
32.0
 40
32.0
 40
32.0
 40
33.0
 40
33.0
 40
33.0
 40
34.0
 40
34.0
 40
34.0
 40
35.0
 40
35.0
 40
35.0
 40
36.0
 40
36.0
 40
36.0
 40
36.0
 10
95.69924042746408
 20
-114.5032606050547
 30
0.0
 10
95.69924042746408
 20
-114.5032606050547
 30
0.0
 10
95.79880368698781
 20
-114.6024793550299
 30
0.0
 10
95.79880368698781
 20
-114.6024793550299
 30
0.0
 10
95.80948348299208
 20
-114.6131591510342
 30
0.0
 10
95.81981876944782
 20
-114.6259060043296
 30
0.0
 10
95.81981876944782
 20
-114.6407199149162
 30
0.0
 10
95.81981876944782
 20
-114.6427869722074
 30
0.0
 10
95.81981876944782
 20
-114.6724147933805
 30
0.0
 10
95.78192271911009
 20
-114.6724147933805
 30
0.0
 10
95.77330998039696
 20
-114.6724147933805
 30
0.0
 10
95.73300236321953
 20
-114.6682806787982
 30
0.0
 10
95.72680119134608
 20
-114.6682806787982
 30
0.0
 10
95.68683808371718
 20
-114.6999755572625
 30
0.0
 10
95.63998478511779
 20
-114.733737493018
 30
0.0
 10
95.5407660351426
 20
-114.7909260780731
 30
0.0
 10
95.68683808371718
 20
-114.8987575667614
 30
0.0
 10
95.84531247603867
 20
-114.9559461518166
 30
0.0
 10
96.11816403847047
 20
-114.9938422021543
 30
0.0
 10
96.11816403847047
 20
-114.9938422021543
 30
0.0
 10
95.96795787531357
 20
-115.1695420719021
 30
0.0
 10
95.96795787531357
 20
-115.1695420719021
 30
0.0
 10
95.70544159933753
 20
-115.0975395762603
 30
0.0
 10
95.5490342643072
 20
-115.0086561127409
 30
0.0
 10
95.47289765408317
 20
-114.9559461518166
 30
0.0
 10
95.32269149092627
 20
-114.8543158350017
 30
0.0
 10
95.17903100919136
 20
-114.6913628185494
 30
0.0
 10
95.10254988941881
 20
-114.5263427448059
 30
0.0
 10
95.03502601790791
 20
-114.5921440685742
 30
0.0
 10
94.96095646497504
 20
-114.6448540294985
 30
0.0
 10
94.88275279745987
 20
-114.6934298758405
 30
0.0
 10
94.88275279745987
 20
-114.6934298758405
 30
0.0
 10
94.88275279745987
 20
-114.9452663558123
 30
0.0
 10
94.88275279745987
 20
-114.9452663558123
 30
0.0
 10
95.04536130436367
 20
-114.9197726492215
 30
0.0
 10
95.23174097011568
 20
-114.8753309174617
 30
0.0
 10
95.29547523659281
 20
-114.8605170068752
 30
0.0
 10
95.29547523659281
 20
-114.8605170068752
 30
0.0
 10
95.26584741541966
 20
-115.0300157047494
 30
0.0
 10
95.26584741541966
 20
-115.0300157047494
 30
0.0
 10
95.26343584857997
 20
-115.0300157047494
 30
0.0
 10
95.2444878234111
 20
-115.0362168766229
 30
0.0
 10
95.24242076611995
 20
-115.0362168766229
 30
0.0
 10
95.04329424707251
 20
-115.0744574365092
 30
0.0
 10
94.72634546242953
 20
-115.1399142507289
 30
0.0
 10
94.52928600067324
 20
-115.1757432437755
 30
0.0
 10
94.51895071421748
 20
-115.1929687212018
 30
0.0
 10
94.49552406491779
 20
-115.2246635996661
 30
0.0
 10
94.4720974156181
 20
-115.2246635996661
 30
0.0
 10
94.44488116128461
 20
-115.2246635996661
 30
0.0
 10
94.44040253715379
 20
-115.2053710649487
 30
0.0
 10
94.43833547986264
 20
-115.1864230397798
 30
0.0
 10
94.43833547986264
 20
-115.1864230397798
 30
0.0
 10
94.4128417732718
 20
-115.0131347368717
 30
0.0
 10
94.4128417732718
 20
-115.0131347368717
 30
0.0
 10
94.48725583575319
 20
-115.0045219981586
 30
0.0
 10
94.59508732444151
 20
-114.9917751448632
 30
0.0
 10
94.70291881312983
 20
-114.9707600624031
 30
0.0
 10
94.70291881312983
 20
-114.9707600624031
 30
0.0
 10
94.70291881312983
 20
-114.7929931353643
 30
0.0
 10
94.70291881312983
 20
-114.7929931353643
 30
0.0
 10
94.55891382184639
 20
-114.864995631006
 30
0.0
 10
94.4638291864535
 20
-114.8946234521791
 30
0.0
 10
94.29880911271002
 20
-114.9242512733523
 30
0.0
 10
94.29880911271002
 20
-114.9242512733523
 30
0.0
 10
94.17823077072627
 20
-114.754752575478
 30
0.0
 10
94.17823077072627
 20
-114.754752575478
 30
0.0
 10
94.49552406491779
 20
-114.7275363211445
 30
0.0
 10
94.68810490254326
 20
-114.6341742334942
 30
0.0
 10
94.86587182958215
 20
-114.5011935477636
 30
0.0
 10
94.71979978100755
 20
-114.5011935477636
 30
0.0
 10
94.41938745469376
 20
-114.5053276623459
 30
0.0
 10
94.222672502486
 20
-114.5115288342193
 30
0.0
 10
94.222672502486
 20
-114.5115288342193
 30
0.0
 10
94.222672502486
 20
-114.3337619071805
 30
0.0
 10
94.222672502486
 20
-114.3337619071805
 30
0.0
 10
94.3770127802252
 20
-114.3403075886024
 30
0.0
 10
94.67329099195668
 20
-114.3465087604759
 30
0.0
 10
94.85725909086902
 20
-114.3465087604759
 30
0.0
 10
94.85725909086902
 20
-114.3465087604759
 30
0.0
 10
95.06878795366336
 20
-114.3465087604759
 30
0.0
 10
95.06878795366336
 20
-114.3465087604759
 30
0.0
 10
95.06878795366336
 20
-114.251424125083
 30
0.0
 10
95.06672089637222
 20
-114.2007812214498
 30
0.0
 10
95.06051972449876
 20
-114.1539279228504
 30
0.0
 10
95.06051972449876
 20
-114.1539279228504
 30
0.0
 10
95.2761827018754
 20
-114.1711534002767
 30
0.0
 10
95.2761827018754
 20
-114.1711534002767
 30
0.0
 10
95.32510305776596
 20
-114.175287514859
 30
0.0
 10
95.33337128693056
 20
-114.1901014254455
 30
0.0
 10
95.33337128693056
 20
-114.2049153360321
 30
0.0
 10
95.33337128693056
 20
-114.230409042623
 30
0.0
 10
95.3161458095043
 20
-114.2386772717876
 30
0.0
 10
95.26584741541966
 20
-114.2641709783784
 30
0.0
 10
95.26343584857997
 20
-114.2896646849693
 30
0.0
 10
95.26343584857997
 20
-114.2958658568427
 30
0.0
 10
95.26136879128883
 20
-114.3465087604759
 30
0.0
 10
95.26136879128883
 20
-114.3465087604759
 30
0.0
 10
95.49184567925204
 20
-114.3465087604759
 30
0.0
 10
95.49184567925204
 20
-114.3465087604759
 30
0.0
 10
95.65721026254404
 20
-114.3465087604759
 30
0.0
 10
95.94900985014469
 20
-114.3403075886024
 30
0.0
 10
96.12849932492621
 20
-114.3337619071805
 30
0.0
 10
96.12849932492621
 20
-114.3337619071805
 30
0.0
 10
96.12849932492621
 20
-114.5115288342193
 30
0.0
 10
96.12849932492621
 20
-114.5115288342193
 30
0.0
 10
95.99965275377787
 20
-114.507394719637
 30
0.0
 10
95.97622610447817
 20
-114.507394719637
 30
0.0
 10
95.69924042746408
 20
-114.5032606050547
 30
0.0
  0
SPLINE
  5
5B
330
4E
100
AcDbEntity
  8
_U+30EC_U+30A4_U+30E4_U+30FC 1
370
     0
100
AcDbSpline
210
0.0
220
0.0
230
1.0
 70
    11
 71
     3
 72
    23
 73
    19
 74
     0
 42
0.0000000001
 43
0.0000000001
 12
1.0
 22
0.0
 32
0.0
 13
1.0
 23
0.0
 33
0.0
 40
0.0
 40
0.0
 40
0.0
 40
0.0
 40
1.0
 40
1.0
 40
1.0
 40
2.0
 40
2.0
 40
2.0
 40
3.0
 40
3.0
 40
3.0
 40
4.0
 40
4.0
 40
4.0
 40
5.0
 40
5.0
 40
5.0
 40
6.0
 40
6.0
 40
6.0
 40
6.0
 10
94.41525334011146
 20
-114.1518608655593
 30
0.0
 10
94.39837237223375
 20
-114.1921684827367
 30
0.0
 10
94.3921712003603
 20
-114.2090494506144
 30
0.0
 10
94.37081160835174
 20
-114.2090494506144
 30
0.0
 10
94.35599769776518
 20
-114.2090494506144
 30
0.0
 10
94.3453179017609
 20
-114.1921684827367
 30
0.0
 10
94.33911672988745
 20
-114.1794216294413
 30
0.0
 10
94.33911672988745
 20
-114.1794216294413
 30
0.0
 10
94.23955347036373
 20
-114.0144015556978
 30
0.0
 10
94.23955347036373
 20
-114.0144015556978
 30
0.0
 10
94.3411837871786
 20
-113.9827066772335
 30
0.0
 10
94.49138995033549
 20
-113.9275851494695
 30
0.0
 10
94.6901719598344
 20
-113.7649766425657
 30
0.0
 10
94.6901719598344
 20
-113.7649766425657
 30
0.0
 10
94.74736054488956
 20
-113.9382649454738
 30
0.0
 10
94.74736054488956
 20
-113.9382649454738
 30
0.0
 10
94.65399845723928
 20
-114.0209472371198
 30
0.0
 10
94.56545950326836
 20
-114.0777913126264
 30
0.0
 10
94.41525334011146
 20
-114.1518608655593
 30
0.0
  0
SPLINE
  5
5C
330
4E
100
AcDbEntity
  8
_U+30EC_U+30A4_U+30E4_U+30FC 1
370
     0
100
AcDbSpline
210
0.0
220
0.0
230
1.0
 70
    11
 71
     3
 72
    17
 73
    13
 74
     0
 42
0.0000000001
 43
0.0000000001
 12
1.0
 22
0.0
 32
0.0
 13
1.0
 23
0.0
 33
0.0
 40
0.0
 40
0.0
 40
0.0
 40
0.0
 40
1.0
 40
1.0
 40
1.0
 40
2.0
 40
2.0
 40
2.0
 40
3.0
 40
3.0
 40
3.0
 40
4.0
 40
4.0
 40
4.0
 40
4.0
 10
94.56752656055951
 20
-113.686428465502
 30
0.0
 10
94.53789873938636
 20
-113.6464653578731
 30
0.0
 10
94.47003035832694
 20
-113.5489691556405
 30
0.0
 10
94.28812931670575
 20
-113.4390706096611
 30
0.0
 10
94.28812931670575
 20
-113.4390706096611
 30
0.0
 10
94.41525334011146
 20
-113.3057454143819
 30
0.0
 10
94.41525334011146
 20
-113.3057454143819
 30
0.0
 10
94.60128849631496
 20
-113.4073757311968
 30
0.0
 10
94.65847708137011
 20
-113.4962591947162
 30
0.0
 10
94.6860378452521
 20
-113.5386338691848
 30
0.0
 10
94.6860378452521
 20
-113.5386338691848
 30
0.0
 10
94.56752656055951
 20
-113.686428465502
 30
0.0
 10
94.56752656055951
 20
-113.686428465502
 30
0.0
  0
SPLINE
  5
5D
330
4E
100
AcDbEntity
  8
_U+30EC_U+30A4_U+30E4_U+30FC 1
370
     0
100
AcDbSpline
210
0.0
220
0.0
230
1.0
 70
    11
 71
     3
 72
    38
 73
    34
 74
     0
 42
0.0000000001
 43
0.0000000001
 12
1.0
 22
0.0
 32
0.0
 13
1.0
 23
0.0
 33
0.0
 40
0.0
 40
0.0
 40
0.0
 40
0.0
 40
1.0
 40
1.0
 40
1.0
 40
2.0
 40
2.0
 40
2.0
 40
3.0
 40
3.0
 40
3.0
 40
4.0
 40
4.0
 40
4.0
 40
5.0
 40
5.0
 40
5.0
 40
6.0
 40
6.0
 40
6.0
 40
7.0
 40
7.0
 40
7.0
 40
8.0
 40
8.0
 40
8.0
 40
9.0
 40
9.0
 40
9.0
 40
10.0
 40
10.0
 40
10.0
 40
11.0
 40
11.0
 40
11.0
 40
11.0
 10
94.93580726793272
 20
-113.3818820246059
 30
0.0
 10
94.93374021064157
 20
-113.4283908136568
 30
0.0
 10
94.93132864380189
 20
-113.5448350410582
 30
0.0
 10
94.93132864380189
 20
-113.589276772818
 30
0.0
 10
94.93132864380189
 20
-113.589276772818
 30
0.0
 10
94.93132864380189
 20
-113.9361978881826
 30
0.0
 10
94.93132864380189
 20
-113.9361978881826
 30
0.0
 10
94.93132864380189
 20
-114.0230142944109
 30
0.0
 10
94.93374021064157
 20
-114.1646077188547
 30
0.0
 10
94.94407549709732
 20
-114.2851860608384
 30
0.0
 10
94.94407549709732
 20
-114.2851860608384
 30
0.0
 10
94.75390622631153
 20
-114.2851860608384
 30
0.0
 10
94.75390622631153
 20
-114.2851860608384
 30
0.0
 10
94.75804034089383
 20
-114.2217963039098
 30
0.0
 10
94.76217445547613
 20
-114.168741833437
 30
0.0
 10
94.76424151276727
 20
-114.1139648152215
 30
0.0
 10
94.76630857005843
 20
-113.9913194159466
 30
0.0
 10
94.76837562734957
 20
-113.9765055053601
 30
0.0
 10
94.76837562734957
 20
-113.9320637736003
 30
0.0
 10
94.76837562734957
 20
-113.9320637736003
 30
0.0
 10
94.76837562734957
 20
-113.610291855278
 30
0.0
 10
94.76837562734957
 20
-113.610291855278
 30
0.0
 10
94.76837562734957
 20
-113.5555148370625
 30
0.0
 10
94.75597328360267
 20
-113.3164252103862
 30
0.0
 10
94.75390622631153
 20
-113.2654377972045
 30
0.0
 10
94.75390622631153
 20
-113.2654377972045
 30
0.0
 10
94.95441078355307
 20
-113.2929985610865
 30
0.0
 10
94.95441078355307
 20
-113.2929985610865
 30
0.0
 10
94.97577037556162
 20
-113.2950656183776
 30
0.0
 10
95.00746525402592
 20
-113.2995442425084
 30
0.0
 10
95.00746525402592
 20
-113.3246934395508
 30
0.0
 10
95.00746525402592
 20
-113.3522542034328
 30
0.0
 10
94.95682235039274
 20
-113.3736137954413
 30
0.0
 10
94.93580726793272
 20
-113.3818820246059
 30
0.0
  0
SPLINE
  5
5E
330
4E
100
AcDbEntity
  8
_U+30EC_U+30A4_U+30E4_U+30FC 1
370
     0
100
AcDbSpline
210
0.0
220
0.0
230
1.0
 70
    11
 71
     3
 72
    83
 73
    79
 74
     0
 42
0.0000000001
 43
0.0000000001
 12
1.0
 22
0.0
 32
0.0
 13
1.0
 23
0.0
 33
0.0
 40
0.0
 40
0.0
 40
0.0
 40
0.0
 40
1.0
 40
1.0
 40
1.0
 40
2.0
 40
2.0
 40
2.0
 40
3.0
 40
3.0
 40
3.0
 40
4.0
 40
4.0
 40
4.0
 40
5.0
 40
5.0
 40
5.0
 40
6.0
 40
6.0
 40
6.0
 40
7.0
 40
7.0
 40
7.0
 40
8.0
 40
8.0
 40
8.0
 40
9.0
 40
9.0
 40
9.0
 40
10.0
 40
10.0
 40
10.0
 40
11.0
 40
11.0
 40
11.0
 40
12.0
 40
12.0
 40
12.0
 40
13.0
 40
13.0
 40
13.0
 40
14.0
 40
14.0
 40
14.0
 40
15.0
 40
15.0
 40
15.0
 40
16.0
 40
16.0
 40
16.0
 40
17.0
 40
17.0
 40
17.0
 40
18.0
 40
18.0
 40
18.0
 40
19.0
 40
19.0
 40
19.0
 40
20.0
 40
20.0
 40
20.0
 40
21.0
 40
21.0
 40
21.0
 40
22.0
 40
22.0
 40
22.0
 40
23.0
 40
23.0
 40
23.0
 40
24.0
 40
24.0
 40
24.0
 40
25.0
 40
25.0
 40
25.0
 40
26.0
 40
26.0
 40
26.0
 40
26.0
 10
95.73713647780183
 20
-113.7036539429283
 30
0.0
 10
95.73713647780183
 20
-113.7036539429283
 30
0.0
 10
95.63998478511779
 20
-113.7036539429283
 30
0.0
 10
95.63998478511779
 20
-113.7036539429283
 30
0.0
 10
95.63998478511779
 20
-113.7036539429283
 30
0.0
 10
95.63998478511779
 20
-113.9510117987692
 30
0.0
 10
95.63998478511779
 20
-113.9510117987692
 30
0.0
 10
95.63998478511779
 20
-113.9510117987692
 30
0.0
 10
95.72266707676378
 20
-113.9510117987692
 30
0.0
 10
95.72266707676378
 20
-113.9510117987692
 30
0.0
 10
95.78812389098353
 20
-113.9510117987692
 30
0.0
 10
95.92799476768467
 20
-113.9468776841869
 30
0.0
 10
96.02721351765987
 20
-113.9382649454738
 30
0.0
 10
96.02721351765987
 20
-113.9382649454738
 30
0.0
 10
96.02721351765987
 20
-114.1180989298038
 30
0.0
 10
96.02721351765987
 20
-114.1180989298038
 30
0.0
 10
95.93419593955812
 20
-114.1098307006392
 30
0.0
 10
95.78398977640123
 20
-114.1053520765084
 30
0.0
 10
95.72266707676378
 20
-114.1053520765084
 30
0.0
 10
95.72266707676378
 20
-114.1053520765084
 30
0.0
 10
95.4181206358677
 20
-114.1053520765084
 30
0.0
 10
95.4181206358677
 20
-114.1053520765084
 30
0.0
 10
95.36506616539485
 20
-114.1053520765084
 30
0.0
 10
95.21899411682026
 20
-114.1098307006392
 30
0.0
 10
95.11322968542308
 20
-114.1180989298038
 30
0.0
 10
95.11322968542308
 20
-114.1180989298038
 30
0.0
 10
95.11322968542308
 20
-113.9382649454738
 30
0.0
 10
95.11322968542308
 20
-113.9382649454738
 30
0.0
 10
95.21279294494681
 20
-113.9468776841869
 30
0.0
 10
95.35231931209943
 20
-113.9510117987692
 30
0.0
 10
95.4181206358677
 20
-113.9510117987692
 30
0.0
 10
95.4181206358677
 20
-113.9510117987692
 30
0.0
 10
95.4622178580789
 20
-113.9510117987692
 30
0.0
 10
95.4622178580789
 20
-113.9510117987692
 30
0.0
 10
95.4622178580789
 20
-113.9510117987692
 30
0.0
 10
95.4622178580789
 20
-113.7036539429283
 30
0.0
 10
95.4622178580789
 20
-113.7036539429283
 30
0.0
 10
95.4622178580789
 20
-113.7036539429283
 30
0.0
 10
95.38849281469454
 20
-113.7036539429283
 30
0.0
 10
95.38849281469454
 20
-113.7036539429283
 30
0.0
 10
95.3271701150571
 20
-113.7036539429283
 30
0.0
 10
95.15973847447395
 20
-113.7077880575106
 30
0.0
 10
95.03916013249021
 20
-113.7160562866752
 30
0.0
 10
95.03916013249021
 20
-113.7160562866752
 30
0.0
 10
95.03916013249021
 20
-113.5386338691848
 30
0.0
 10
95.03916013249021
 20
-113.5386338691848
 30
0.0
 10
95.15353730260051
 20
-113.5448350410582
 30
0.0
 10
95.312011694922
 20
-113.5489691556405
 30
0.0
 10
95.38849281469454
 20
-113.5489691556405
 30
0.0
 10
95.38849281469454
 20
-113.5489691556405
 30
0.0
 10
95.46015080078774
 20
-113.5489691556405
 30
0.0
 10
95.46015080078774
 20
-113.5489691556405
 30
0.0
 10
95.45601668620544
 20
-113.3966959351925
 30
0.0
 10
95.4539496289143
 20
-113.362933999437
 30
0.0
 10
95.44774845704084
 20
-113.2699164213353
 30
0.0
 10
95.44774845704084
 20
-113.2699164213353
 30
0.0
 10
95.65927731983518
 20
-113.2929985610865
 30
0.0
 10
95.65927731983518
 20
-113.2929985610865
 30
0.0
 10
95.68442651687751
 20
-113.2950656183776
 30
0.0
 10
95.7078531661772
 20
-113.2995442425084
 30
0.0
 10
95.7078531661772
 20
-113.3226263822596
 30
0.0
 10
95.7078531661772
 20
-113.3543212607239
 30
0.0
 10
95.66341143441748
 20
-113.3712022286016
 30
0.0
 10
95.63998478511779
 20
-113.3798149673148
 30
0.0
 10
95.63998478511779
 20
-113.3798149673148
 30
0.0
 10
95.63998478511779
 20
-113.5489691556405
 30
0.0
 10
95.63998478511779
 20
-113.5489691556405
 30
0.0
 10
95.63998478511779
 20
-113.5489691556405
 30
0.0
 10
95.73713647780183
 20
-113.5489691556405
 30
0.0
 10
95.73713647780183
 20
-113.5489691556405
 30
0.0
 10
95.81361759757438
 20
-113.5489691556405
 30
0.0
 10
95.97209198989587
 20
-113.5448350410582
 30
0.0
 10
96.08853621729732
 20
-113.5386338691848
 30
0.0
 10
96.08853621729732
 20
-113.5386338691848
 30
0.0
 10
96.08853621729732
 20
-113.7160562866752
 30
0.0
 10
96.08853621729732
 20
-113.7160562866752
 30
0.0
 10
95.980704728609
 20
-113.7098551148017
 30
0.0
 10
95.80741642570092
 20
-113.7036539429283
 30
0.0
 10
95.73713647780183
 20
-113.7036539429283
 30
0.0
  0
SPLINE
  5
5F
330
4E
100
AcDbEntity
  8
_U+30EC_U+30A4_U+30E4_U+30FC 1
370
     0
100
AcDbSpline
210
0.0
220
0.0
230
1.0
 70
    11
 71
     3
 72
    17
 73
    13
 74
     0
 42
0.0000000001
 43
0.0000000001
 12
1.0
 22
0.0
 32
0.0
 13
1.0
 23
0.0
 33
0.0
 40
0.0
 40
0.0
 40
0.0
 40
0.0
 40
1.0
 40
1.0
 40
1.0
 40
2.0
 40
2.0
 40
2.0
 40
3.0
 40
3.0
 40
3.0
 40
4.0
 40
4.0
 40
4.0
 40
4.0
 10
95.49184567925204
 20
-114.5011935477636
 30
0.0
 10
95.49184567925204
 20
-114.5011935477636
 30
0.0
 10
95.28892955517082
 20
-114.5011935477636
 30
0.0
 10
95.28892955517082
 20
-114.5011935477636
 30
0.0
 10
95.3161458095043
 20
-114.5604491901099
 30
0.0
 10
95.37126733726829
 20
-114.6321071762031
 30
0.0
 10
95.3988281011503
 20
-114.6617349973762
 30
0.0
 10
95.4263888650323
 20
-114.6469210867897
 30
0.0
 10
95.5407660351426
 20
-114.5835313298611
 30
0.0
 10
95.63171655595319
 20
-114.5011935477636
 30
0.0
 10
95.63171655595319
 20
-114.5011935477636
 30
0.0
 10
95.49184567925204
 20
-114.5011935477636
 30
0.0
 10
95.49184567925204
 20
-114.5011935477636
 30
0.0
  0
HATCH
  5
60
330
4E
100
AcDbEntity
  8
_U+30EC_U+30A4_U+30E4_U+30FC 1
 62
   179
420
  2234388
100
AcDbHatch
 10
0.0
 20
0.0
 30
0.0
210
0.0
220
0.0
230
1.0
  2
SOLID
 70
     1
 71
     0
 91
        6
 92
        1
 93
        1
 72
     4
 94
        3
 73
     0
 74
     1
 95
      113
 96
      109
 40
0.0
 40
0.0
 40
0.0
 40
0.0
 40
1.0
 40
1.0
 40
1.0
 40
2.0
 40
2.0
 40
2.0
 40
3.0
 40
3.0
 40
3.0
 40
4.0
 40
4.0
 40
4.0
 40
5.0
 40
5.0
 40
5.0
 40
6.0
 40
6.0
 40
6.0
 40
7.0
 40
7.0
 40
7.0
 40
8.0
 40
8.0
 40
8.0
 40
9.0
 40
9.0
 40
9.0
 40
10.0
 40
10.0
 40
10.0
 40
11.0
 40
11.0
 40
11.0
 40
12.0
 40
12.0
 40
12.0
 40
13.0
 40
13.0
 40
13.0
 40
14.0
 40
14.0
 40
14.0
 40
15.0
 40
15.0
 40
15.0
 40
16.0
 40
16.0
 40
16.0
 40
17.0
 40
17.0
 40
17.0
 40
18.0
 40
18.0
 40
18.0
 40
19.0
 40
19.0
 40
19.0
 40
20.0
 40
20.0
 40
20.0
 40
21.0
 40
21.0
 40
21.0
 40
22.0
 40
22.0
 40
22.0
 40
23.0
 40
23.0
 40
23.0
 40
24.0
 40
24.0
 40
24.0
 40
25.0
 40
25.0
 40
25.0
 40
26.0
 40
26.0
 40
26.0
 40
27.0
 40
27.0
 40
27.0
 40
28.0
 40
28.0
 40
28.0
 40
29.0
 40
29.0
 40
29.0
 40
30.0
 40
30.0
 40
30.0
 40
31.0
 40
31.0
 40
31.0
 40
32.0
 40
32.0
 40
32.0
 40
33.0
 40
33.0
 40
33.0
 40
34.0
 40
34.0
 40
34.0
 40
35.0
 40
35.0
 40
35.0
 40
36.0
 40
36.0
 40
36.0
 40
36.0
 10
95.69924042746408
 20
-114.5032606050547
 10
95.69924042746408
 20
-114.5032606050547
 10
95.79880368698781
 20
-114.6024793550299
 10
95.79880368698781
 20
-114.6024793550299
 10
95.80948348299208
 20
-114.6131591510342
 10
95.81981876944782
 20
-114.6259060043296
 10
95.81981876944782
 20
-114.6407199149162
 10
95.81981876944782
 20
-114.6427869722074
 10
95.81981876944782
 20
-114.6724147933805
 10
95.78192271911009
 20
-114.6724147933805
 10
95.77330998039696
 20
-114.6724147933805
 10
95.73300236321953
 20
-114.6682806787982
 10
95.72680119134608
 20
-114.6682806787982
 10
95.68683808371718
 20
-114.6999755572625
 10
95.63998478511779
 20
-114.733737493018
 10
95.5407660351426
 20
-114.7909260780731
 10
95.68683808371718
 20
-114.8987575667614
 10
95.84531247603867
 20
-114.9559461518166
 10
96.11816403847047
 20
-114.9938422021543
 10
96.11816403847047
 20
-114.9938422021543
 10
95.96795787531357
 20
-115.1695420719021
 10
95.96795787531357
 20
-115.1695420719021
 10
95.70544159933753
 20
-115.0975395762603
 10
95.5490342643072
 20
-115.0086561127409
 10
95.47289765408317
 20
-114.9559461518166
 10
95.32269149092627
 20
-114.8543158350017
 10
95.17903100919136
 20
-114.6913628185494
 10
95.10254988941881
 20
-114.5263427448059
 10
95.03502601790791
 20
-114.5921440685742
 10
94.96095646497504
 20
-114.6448540294985
 10
94.88275279745987
 20
-114.6934298758405
 10
94.88275279745987
 20
-114.6934298758405
 10
94.88275279745987
 20
-114.9452663558123
 10
94.88275279745987
 20
-114.9452663558123
 10
95.04536130436367
 20
-114.9197726492215
 10
95.23174097011568
 20
-114.8753309174617
 10
95.29547523659281
 20
-114.8605170068752
 10
95.29547523659281
 20
-114.8605170068752
 10
95.26584741541966
 20
-115.0300157047494
 10
95.26584741541966
 20
-115.0300157047494
 10
95.26343584857997
 20
-115.0300157047494
 10
95.2444878234111
 20
-115.0362168766229
 10
95.24242076611995
 20
-115.0362168766229
 10
95.04329424707251
 20
-115.0744574365092
 10
94.72634546242953
 20
-115.1399142507289
 10
94.52928600067324
 20
-115.1757432437755
 10
94.51895071421748
 20
-115.1929687212018
 10
94.49552406491779
 20
-115.2246635996661
 10
94.4720974156181
 20
-115.2246635996661
 10
94.44488116128461
 20
-115.2246635996661
 10
94.44040253715379
 20
-115.2053710649487
 10
94.43833547986264
 20
-115.1864230397798
 10
94.43833547986264
 20
-115.1864230397798
 10
94.4128417732718
 20
-115.0131347368717
 10
94.4128417732718
 20
-115.0131347368717
 10
94.48725583575319
 20
-115.0045219981586
 10
94.59508732444151
 20
-114.9917751448632
 10
94.70291881312983
 20
-114.9707600624031
 10
94.70291881312983
 20
-114.9707600624031
 10
94.70291881312983
 20
-114.7929931353643
 10
94.70291881312983
 20
-114.7929931353643
 10
94.55891382184639
 20
-114.864995631006
 10
94.4638291864535
 20
-114.8946234521791
 10
94.29880911271002
 20
-114.9242512733523
 10
94.29880911271002
 20
-114.9242512733523
 10
94.17823077072627
 20
-114.754752575478
 10
94.17823077072627
 20
-114.754752575478
 10
94.49552406491779
 20
-114.7275363211445
 10
94.68810490254326
 20
-114.6341742334942
 10
94.86587182958215
 20
-114.5011935477636
 10
94.71979978100755
 20
-114.5011935477636
 10
94.41938745469376
 20
-114.5053276623459
 10
94.222672502486
 20
-114.5115288342193
 10
94.222672502486
 20
-114.5115288342193
 10
94.222672502486
 20
-114.3337619071805
 10
94.222672502486
 20
-114.3337619071805
 10
94.3770127802252
 20
-114.3403075886024
 10
94.67329099195668
 20
-114.3465087604759
 10
94.85725909086902
 20
-114.3465087604759
 10
94.85725909086902
 20
-114.3465087604759
 10
95.06878795366336
 20
-114.3465087604759
 10
95.06878795366336
 20
-114.3465087604759
 10
95.06878795366336
 20
-114.251424125083
 10
95.06672089637222
 20
-114.2007812214498
 10
95.06051972449876
 20
-114.1539279228504
 10
95.06051972449876
 20
-114.1539279228504
 10
95.2761827018754
 20
-114.1711534002767
 10
95.2761827018754
 20
-114.1711534002767
 10
95.32510305776596
 20
-114.175287514859
 10
95.33337128693056
 20
-114.1901014254455
 10
95.33337128693056
 20
-114.2049153360321
 10
95.33337128693056
 20
-114.230409042623
 10
95.3161458095043
 20
-114.2386772717876
 10
95.26584741541966
 20
-114.2641709783784
 10
95.26343584857997
 20
-114.2896646849693
 10
95.26343584857997
 20
-114.2958658568427
 10
95.26136879128883
 20
-114.3465087604759
 10
95.26136879128883
 20
-114.3465087604759
 10
95.49184567925204
 20
-114.3465087604759
 10
95.49184567925204
 20
-114.3465087604759
 10
95.65721026254404
 20
-114.3465087604759
 10
95.94900985014469
 20
-114.3403075886024
 10
96.12849932492621
 20
-114.3337619071805
 10
96.12849932492621
 20
-114.3337619071805
 10
96.12849932492621
 20
-114.5115288342193
 10
96.12849932492621
 20
-114.5115288342193
 10
95.99965275377787
 20
-114.507394719637
 10
95.97622610447817
 20
-114.507394719637
 10
95.69924042746408
 20
-114.5032606050547
 97
        0
 97
        0
 92
        1
 93
        1
 72
     4
 94
        3
 73
     0
 74
     1
 95
       23
 96
       19
 40
0.0
 40
0.0
 40
0.0
 40
0.0
 40
1.0
 40
1.0
 40
1.0
 40
2.0
 40
2.0
 40
2.0
 40
3.0
 40
3.0
 40
3.0
 40
4.0
 40
4.0
 40
4.0
 40
5.0
 40
5.0
 40
5.0
 40
6.0
 40
6.0
 40
6.0
 40
6.0
 10
94.41525334011146
 20
-114.1518608655593
 10
94.39837237223375
 20
-114.1921684827367
 10
94.3921712003603
 20
-114.2090494506144
 10
94.37081160835174
 20
-114.2090494506144
 10
94.35599769776518
 20
-114.2090494506144
 10
94.3453179017609
 20
-114.1921684827367
 10
94.33911672988745
 20
-114.1794216294413
 10
94.33911672988745
 20
-114.1794216294413
 10
94.23955347036373
 20
-114.0144015556978
 10
94.23955347036373
 20
-114.0144015556978
 10
94.3411837871786
 20
-113.9827066772335
 10
94.49138995033549
 20
-113.9275851494695
 10
94.6901719598344
 20
-113.7649766425657
 10
94.6901719598344
 20
-113.7649766425657
 10
94.74736054488956
 20
-113.9382649454738
 10
94.74736054488956
 20
-113.9382649454738
 10
94.65399845723928
 20
-114.0209472371198
 10
94.56545950326836
 20
-114.0777913126264
 10
94.41525334011146
 20
-114.1518608655593
 97
        0
 97
        0
 92
        1
 93
        1
 72
     4
 94
        3
 73
     0
 74
     1
 95
       17
 96
       13
 40
0.0
 40
0.0
 40
0.0
 40
0.0
 40
1.0
 40
1.0
 40
1.0
 40
2.0
 40
2.0
 40
2.0
 40
3.0
 40
3.0
 40
3.0
 40
4.0
 40
4.0
 40
4.0
 40
4.0
 10
94.56752656055951
 20
-113.686428465502
 10
94.53789873938636
 20
-113.6464653578731
 10
94.47003035832694
 20
-113.5489691556405
 10
94.28812931670575
 20
-113.4390706096611
 10
94.28812931670575
 20
-113.4390706096611
 10
94.41525334011146
 20
-113.3057454143819
 10
94.41525334011146
 20
-113.3057454143819
 10
94.60128849631496
 20
-113.4073757311968
 10
94.65847708137011
 20
-113.4962591947162
 10
94.6860378452521
 20
-113.5386338691848
 10
94.6860378452521
 20
-113.5386338691848
 10
94.56752656055951
 20
-113.686428465502
 10
94.56752656055951
 20
-113.686428465502
 97
        0
 97
        0
 92
        1
 93
        1
 72
     4
 94
        3
 73
     0
 74
     1
 95
       38
 96
       34
 40
0.0
 40
0.0
 40
0.0
 40
0.0
 40
1.0
 40
1.0
 40
1.0
 40
2.0
 40
2.0
 40
2.0
 40
3.0
 40
3.0
 40
3.0
 40
4.0
 40
4.0
 40
4.0
 40
5.0
 40
5.0
 40
5.0
 40
6.0
 40
6.0
 40
6.0
 40
7.0
 40
7.0
 40
7.0
 40
8.0
 40
8.0
 40
8.0
 40
9.0
 40
9.0
 40
9.0
 40
10.0
 40
10.0
 40
10.0
 40
11.0
 40
11.0
 40
11.0
 40
11.0
 10
94.93580726793272
 20
-113.3818820246059
 10
94.93374021064157
 20
-113.4283908136568
 10
94.93132864380189
 20
-113.5448350410582
 10
94.93132864380189
 20
-113.589276772818
 10
94.93132864380189
 20
-113.589276772818
 10
94.93132864380189
 20
-113.9361978881826
 10
94.93132864380189
 20
-113.9361978881826
 10
94.93132864380189
 20
-114.0230142944109
 10
94.93374021064157
 20
-114.1646077188547
 10
94.94407549709732
 20
-114.2851860608384
 10
94.94407549709732
 20
-114.2851860608384
 10
94.75390622631153
 20
-114.2851860608384
 10
94.75390622631153
 20
-114.2851860608384
 10
94.75804034089383
 20
-114.2217963039098
 10
94.76217445547613
 20
-114.168741833437
 10
94.76424151276727
 20
-114.1139648152215
 10
94.76630857005843
 20
-113.9913194159466
 10
94.76837562734957
 20
-113.9765055053601
 10
94.76837562734957
 20
-113.9320637736003
 10
94.76837562734957
 20
-113.9320637736003
 10
94.76837562734957
 20
-113.610291855278
 10
94.76837562734957
 20
-113.610291855278
 10
94.76837562734957
 20
-113.5555148370625
 10
94.75597328360267
 20
-113.3164252103862
 10
94.75390622631153
 20
-113.2654377972045
 10
94.75390622631153
 20
-113.2654377972045
 10
94.95441078355307
 20
-113.2929985610865
 10
94.95441078355307
 20
-113.2929985610865
 10
94.97577037556162
 20
-113.2950656183776
 10
95.00746525402592
 20
-113.2995442425084
 10
95.00746525402592
 20
-113.3246934395508
 10
95.00746525402592
 20
-113.3522542034328
 10
94.95682235039274
 20
-113.3736137954413
 10
94.93580726793272
 20
-113.3818820246059
 97
        0
 97
        0
 92
        1
 93
        1
 72
     4
 94
        3
 73
     0
 74
     1
 95
       83
 96
       79
 40
0.0
 40
0.0
 40
0.0
 40
0.0
 40
1.0
 40
1.0
 40
1.0
 40
2.0
 40
2.0
 40
2.0
 40
3.0
 40
3.0
 40
3.0
 40
4.0
 40
4.0
 40
4.0
 40
5.0
 40
5.0
 40
5.0
 40
6.0
 40
6.0
 40
6.0
 40
7.0
 40
7.0
 40
7.0
 40
8.0
 40
8.0
 40
8.0
 40
9.0
 40
9.0
 40
9.0
 40
10.0
 40
10.0
 40
10.0
 40
11.0
 40
11.0
 40
11.0
 40
12.0
 40
12.0
 40
12.0
 40
13.0
 40
13.0
 40
13.0
 40
14.0
 40
14.0
 40
14.0
 40
15.0
 40
15.0
 40
15.0
 40
16.0
 40
16.0
 40
16.0
 40
17.0
 40
17.0
 40
17.0
 40
18.0
 40
18.0
 40
18.0
 40
19.0
 40
19.0
 40
19.0
 40
20.0
 40
20.0
 40
20.0
 40
21.0
 40
21.0
 40
21.0
 40
22.0
 40
22.0
 40
22.0
 40
23.0
 40
23.0
 40
23.0
 40
24.0
 40
24.0
 40
24.0
 40
25.0
 40
25.0
 40
25.0
 40
26.0
 40
26.0
 40
26.0
 40
26.0
 10
95.73713647780183
 20
-113.7036539429283
 10
95.73713647780183
 20
-113.7036539429283
 10
95.63998478511779
 20
-113.7036539429283
 10
95.63998478511779
 20
-113.7036539429283
 10
95.63998478511779
 20
-113.7036539429283
 10
95.63998478511779
 20
-113.9510117987692
 10
95.63998478511779
 20
-113.9510117987692
 10
95.63998478511779
 20
-113.9510117987692
 10
95.72266707676378
 20
-113.9510117987692
 10
95.72266707676378
 20
-113.9510117987692
 10
95.78812389098353
 20
-113.9510117987692
 10
95.92799476768467
 20
-113.9468776841869
 10
96.02721351765987
 20
-113.9382649454738
 10
96.02721351765987
 20
-113.9382649454738
 10
96.02721351765987
 20
-114.1180989298038
 10
96.02721351765987
 20
-114.1180989298038
 10
95.93419593955812
 20
-114.1098307006392
 10
95.78398977640123
 20
-114.1053520765084
 10
95.72266707676378
 20
-114.1053520765084
 10
95.72266707676378
 20
-114.1053520765084
 10
95.4181206358677
 20
-114.1053520765084
 10
95.4181206358677
 20
-114.1053520765084
 10
95.36506616539485
 20
-114.1053520765084
 10
95.21899411682026
 20
-114.1098307006392
 10
95.11322968542308
 20
-114.1180989298038
 10
95.11322968542308
 20
-114.1180989298038
 10
95.11322968542308
 20
-113.9382649454738
 10
95.11322968542308
 20
-113.9382649454738
 10
95.21279294494681
 20
-113.9468776841869
 10
95.35231931209943
 20
-113.9510117987692
 10
95.4181206358677
 20
-113.9510117987692
 10
95.4181206358677
 20
-113.9510117987692
 10
95.4622178580789
 20
-113.9510117987692
 10
95.4622178580789
 20
-113.9510117987692
 10
95.4622178580789
 20
-113.9510117987692
 10
95.4622178580789
 20
-113.7036539429283
 10
95.4622178580789
 20
-113.7036539429283
 10
95.4622178580789
 20
-113.7036539429283
 10
95.38849281469454
 20
-113.7036539429283
 10
95.38849281469454
 20
-113.7036539429283
 10
95.3271701150571
 20
-113.7036539429283
 10
95.15973847447395
 20
-113.7077880575106
 10
95.03916013249021
 20
-113.7160562866752
 10
95.03916013249021
 20
-113.7160562866752
 10
95.03916013249021
 20
-113.5386338691848
 10
95.03916013249021
 20
-113.5386338691848
 10
95.15353730260051
 20
-113.5448350410582
 10
95.312011694922
 20
-113.5489691556405
 10
95.38849281469454
 20
-113.5489691556405
 10
95.38849281469454
 20
-113.5489691556405
 10
95.46015080078774
 20
-113.5489691556405
 10
95.46015080078774
 20
-113.5489691556405
 10
95.45601668620544
 20
-113.3966959351925
 10
95.4539496289143
 20
-113.362933999437
 10
95.44774845704084
 20
-113.2699164213353
 10
95.44774845704084
 20
-113.2699164213353
 10
95.65927731983518
 20
-113.2929985610865
 10
95.65927731983518
 20
-113.2929985610865
 10
95.68442651687751
 20
-113.2950656183776
 10
95.7078531661772
 20
-113.2995442425084
 10
95.7078531661772
 20
-113.3226263822596
 10
95.7078531661772
 20
-113.3543212607239
 10
95.66341143441748
 20
-113.3712022286016
 10
95.63998478511779
 20
-113.3798149673148
 10
95.63998478511779
 20
-113.3798149673148
 10
95.63998478511779
 20
-113.5489691556405
 10
95.63998478511779
 20
-113.5489691556405
 10
95.63998478511779
 20
-113.5489691556405
 10
95.73713647780183
 20
-113.5489691556405
 10
95.73713647780183
 20
-113.5489691556405
 10
95.81361759757438
 20
-113.5489691556405
 10
95.97209198989587
 20
-113.5448350410582
 10
96.08853621729732
 20
-113.5386338691848
 10
96.08853621729732
 20
-113.5386338691848
 10
96.08853621729732
 20
-113.7160562866752
 10
96.08853621729732
 20
-113.7160562866752
 10
95.980704728609
 20
-113.7098551148017
 10
95.80741642570092
 20
-113.7036539429283
 10
95.73713647780183
 20
-113.7036539429283
 97
        0
 97
        0
 92
        1
 93
        1
 72
     4
 94
        3
 73
     0
 74
     1
 95
       17
 96
       13
 40
0.0
 40
0.0
 40
0.0
 40
0.0
 40
1.0
 40
1.0
 40
1.0
 40
2.0
 40
2.0
 40
2.0
 40
3.0
 40
3.0
 40
3.0
 40
4.0
 40
4.0
 40
4.0
 40
4.0
 10
95.49184567925204
 20
-114.5011935477636
 10
95.49184567925204
 20
-114.5011935477636
 10
95.28892955517082
 20
-114.5011935477636
 10
95.28892955517082
 20
-114.5011935477636
 10
95.3161458095043
 20
-114.5604491901099
 10
95.37126733726829
 20
-114.6321071762031
 10
95.3988281011503
 20
-114.6617349973762
 10
95.4263888650323
 20
-114.6469210867897
 10
95.5407660351426
 20
-114.5835313298611
 10
95.63171655595319
 20
-114.5011935477636
 10
95.63171655595319
 20
-114.5011935477636
 10
95.49184567925204
 20
-114.5011935477636
 10
95.49184567925204
 20
-114.5011935477636
 97
        0
 97
        0
 75
     2
 76
     1
 98
        0
  0
SPLINE
  5
61
330
4E
100
AcDbEntity
  8
_U+30EC_U+30A4_U+30E4_U+30FC 1
370
     0
100
AcDbSpline
210
0.0
220
0.0
230
1.0
 70
    11
 71
     3
 72
    77
 73
    73
 74
     0
 42
0.0000000001
 43
0.0000000001
 12
1.0
 22
0.0
 32
0.0
 13
1.0
 23
0.0
 33
0.0
 40
0.0
 40
0.0
 40
0.0
 40
0.0
 40
1.0
 40
1.0
 40
1.0
 40
2.0
 40
2.0
 40
2.0
 40
3.0
 40
3.0
 40
3.0
 40
4.0
 40
4.0
 40
4.0
 40
5.0
 40
5.0
 40
5.0
 40
6.0
 40
6.0
 40
6.0
 40
7.0
 40
7.0
 40
7.0
 40
8.0
 40
8.0
 40
8.0
 40
9.0
 40
9.0
 40
9.0
 40
10.0
 40
10.0
 40
10.0
 40
11.0
 40
11.0
 40
11.0
 40
12.0
 40
12.0
 40
12.0
 40
13.0
 40
13.0
 40
13.0
 40
14.0
 40
14.0
 40
14.0
 40
15.0
 40
15.0
 40
15.0
 40
16.0
 40
16.0
 40
16.0
 40
17.0
 40
17.0
 40
17.0
 40
18.0
 40
18.0
 40
18.0
 40
19.0
 40
19.0
 40
19.0
 40
20.0
 40
20.0
 40
20.0
 40
21.0
 40
21.0
 40
21.0
 40
22.0
 40
22.0
 40
22.0
 40
23.0
 40
23.0
 40
23.0
 40
24.0
 40
24.0
 40
24.0
 40
24.0
 10
97.98333873418473
 20
-115.1313015120158
 30
0.0
 10
97.93648543558533
 20
-115.1567952186066
 30
0.0
 10
97.81177297901928
 20
-115.1695420719021
 30
0.0
 10
97.73356931150411
 20
-115.1695420719021
 30
0.0
 10
97.72082245820869
 20
-115.1695420719021
 30
0.0
 10
97.69532875161784
 20
-115.1695420719021
 30
0.0
 10
97.66156681586239
 20
-115.1654079573198
 30
0.0
 10
97.66156681586239
 20
-115.1654079573198
 30
0.0
 10
97.56441512317835
 20
-114.9390651839389
 30
0.0
 10
97.56441512317835
 20
-114.9390651839389
 30
0.0
 10
97.5940429443515
 20
-114.9452663558123
 30
0.0
 10
97.65123152940664
 20
-114.9538790945254
 30
0.0
 10
97.76733124725956
 20
-114.9538790945254
 30
0.0
 10
97.84553491477473
 20
-114.9538790945254
 30
0.0
 10
97.84760197206589
 20
-114.9115044200569
 30
0.0
 10
97.84760197206589
 20
-114.8543158350017
 30
0.0
 10
97.84760197206589
 20
-114.8543158350017
 30
0.0
 10
97.84760197206589
 20
-114.5053276623459
 30
0.0
 10
97.84760197206589
 20
-114.5053276623459
 30
0.0
 10
97.84760197206589
 20
-114.5053276623459
 30
0.0
 10
97.3887152534306
 20
-114.5053276623459
 30
0.0
 10
97.3887152534306
 20
-114.5053276623459
 30
0.0
 10
97.39078231072175
 20
-114.6427869722074
 30
0.0
 10
97.3928493680129
 20
-114.8415689817063
 30
0.0
 10
97.39905053988635
 20
-114.9748941769854
 30
0.0
 10
97.40146210672603
 20
-115.0024549408675
 30
0.0
 10
97.40146210672603
 20
-115.0468966726272
 30
0.0
 10
97.41420896002145
 20
-115.1082193722646
 30
0.0
 10
97.41420896002145
 20
-115.1082193722646
 30
0.0
 10
97.17305227605397
 20
-115.1082193722646
 30
0.0
 10
97.17305227605397
 20
-115.1082193722646
 30
0.0
 10
97.19854598264482
 20
-114.9835069156986
 30
0.0
 10
97.19854598264482
 20
-114.6427869722074
 30
0.0
 10
97.19854598264482
 20
-114.5053276623459
 30
0.0
 10
97.19854598264482
 20
-114.5053276623459
 30
0.0
 10
96.75619572233873
 20
-114.5053276623459
 30
0.0
 10
96.75619572233873
 20
-114.5053276623459
 30
0.0
 10
96.73276907303904
 20
-114.7127224105579
 30
0.0
 10
96.6673122588193
 20
-114.9810953488589
 30
0.0
 10
96.47059730661152
 20
-115.1654079573198
 30
0.0
 10
96.47059730661152
 20
-115.1654079573198
 30
0.0
 10
96.28215058356835
 20
-115.0427625580449
 30
0.0
 10
96.28215058356835
 20
-115.0427625580449
 30
0.0
 10
96.5363986303798
 20
-114.8226209565374
 30
0.0
 10
96.56809350884409
 20
-114.4905137517593
 30
0.0
 10
96.56809350884409
 20
-114.1584065469812
 30
0.0
 10
96.56809350884409
 20
-114.1584065469812
 30
0.0
 10
96.56809350884409
 20
-113.7226019680971
 30
0.0
 10
96.56809350884409
 20
-113.7226019680971
 30
0.0
 10
96.56809350884409
 20
-113.686428465502
 30
0.0
 10
96.56602645155294
 20
-113.4538845202476
 30
0.0
 10
96.55706920329129
 20
-113.3522542034328
 30
0.0
 10
96.69694007999243
 20
-113.362933999437
 30
0.0
 10
96.93809676395992
 20
-113.362933999437
 30
0.0
 10
97.08210175524337
 20
-113.362933999437
 30
0.0
 10
97.08210175524337
 20
-113.362933999437
 30
0.0
 10
97.54098847387864
 20
-113.362933999437
 30
0.0
 10
97.54098847387864
 20
-113.362933999437
 30
0.0
 10
97.55580238446522
 20
-113.362933999437
 30
0.0
 10
97.90479055712103
 20
-113.362933999437
 30
0.0
 10
98.06360945899105
 20
-113.3522542034328
 30
0.0
 10
98.06119789215137
 20
-113.4053086739056
 30
0.0
 10
98.05499672027793
 20
-113.5658501235183
 30
0.0
 10
98.05499672027793
 20
-113.6168375367
 30
0.0
 10
98.05499672027793
 20
-113.6168375367
 30
0.0
 10
98.05499672027793
 20
-114.223863361201
 30
0.0
 10
98.05499672027793
 20
-114.223863361201
 30
0.0
 10
98.05499672027793
 20
-114.2428113863699
 30
0.0
 10
98.0656765162822
 20
-114.8140082178243
 30
0.0
 10
98.0656765162822
 20
-114.9263183306434
 30
0.0
 10
98.0656765162822
 20
-114.9835069156986
 30
0.0
 10
98.0656765162822
 20
-115.0847927229649
 30
0.0
 10
97.98333873418473
 20
-115.1313015120158
 30
0.0
  0
POLYLINE
  5
62
330
4E
100
AcDbEntity
  8
_U+30EC_U+30A4_U+30E4_U+30FC 1
370
     0
100
AcDb2dPolyline
 66
     1
 10
0.0
 20
0.0
 30
0.0
  0
VERTEX
  5
63
330
62
100
AcDbEntity
  8
_U+30EC_U+30A4_U+30E4_U+30FC 1
370
     0
100
AcDbVertex
100
AcDb2dVertex
 10
97.19854598264482
 20
-113.5448350410582
 30
0.0
  0
VERTEX
  5
64
330
62
100
AcDbEntity
  8
_U+30EC_U+30A4_U+30E4_U+30FC 1
370
     0
100
AcDbVertex
100
AcDb2dVertex
 10
96.76032983692103
 20
-113.5448350410582
 30
0.0
  0
VERTEX
  5
65
330
62
100
AcDbEntity
  8
_U+30EC_U+30A4_U+30E4_U+30FC 1
370
     0
100
AcDbVertex
100
AcDb2dVertex
 10
96.76032983692103
 20
-113.8493814819543
 30
0.0
  0
VERTEX
  5
66
330
62
100
AcDbEntity
  8
_U+30EC_U+30A4_U+30E4_U+30FC 1
370
     0
100
AcDbVertex
100
AcDb2dVertex
 10
97.19854598264482
 20
-113.8493814819543
 30
0.0
  0
VERTEX
  5
67
330
62
100
AcDbEntity
  8
_U+30EC_U+30A4_U+30E4_U+30FC 1
370
     0
100
AcDbVertex
100
AcDb2dVertex
 10
97.19854598264482
 20
-113.5448350410582
 30
0.0
  0
SEQEND
  5
68
330
62
100
AcDbEntity
  8
_U+30EC_U+30A4_U+30E4_U+30FC 1
370
     0
  0
POLYLINE
  5
69
330
4E
100
AcDbEntity
  8
_U+30EC_U+30A4_U+30E4_U+30FC 1
370
     0
100
AcDb2dPolyline
 66
     1
 10
0.0
 20
0.0
 30
0.0
  0
VERTEX
  5
6A
330
69
100
AcDbEntity
  8
_U+30EC_U+30A4_U+30E4_U+30FC 1
370
     0
100
AcDbVertex
100
AcDb2dVertex
 10
97.19854598264482
 20
-114.0164686129889
 30
0.0
  0
VERTEX
  5
6B
330
69
100
AcDbEntity
  8
_U+30EC_U+30A4_U+30E4_U+30FC 1
370
     0
100
AcDbVertex
100
AcDb2dVertex
 10
96.76032983692103
 20
-114.0164686129889
 30
0.0
  0
VERTEX
  5
6C
330
69
100
AcDbEntity
  8
_U+30EC_U+30A4_U+30E4_U+30FC 1
370
     0
100
AcDbVertex
100
AcDb2dVertex
 10
96.76032983692103
 20
-114.3254936780159
 30
0.0
  0
VERTEX
  5
6D
330
69
100
AcDbEntity
  8
_U+30EC_U+30A4_U+30E4_U+30FC 1
370
     0
100
AcDbVertex
100
AcDb2dVertex
 10
97.19854598264482
 20
-114.3254936780159
 30
0.0
  0
VERTEX
  5
6E
330
69
100
AcDbEntity
  8
_U+30EC_U+30A4_U+30E4_U+30FC 1
370
     0
100
AcDbVertex
100
AcDb2dVertex
 10
97.19854598264482
 20
-114.0164686129889
 30
0.0
  0
SEQEND
  5
6F
330
69
100
AcDbEntity
  8
_U+30EC_U+30A4_U+30E4_U+30FC 1
370
     0
  0
POLYLINE
  5
70
330
4E
100
AcDbEntity
  8
_U+30EC_U+30A4_U+30E4_U+30FC 1
370
     0
100
AcDb2dPolyline
 66
     1
 10
0.0
 20
0.0
 30
0.0
  0
VERTEX
  5
71
330
70
100
AcDbEntity
  8
_U+30EC_U+30A4_U+30E4_U+30FC 1
370
     0
100
AcDbVertex
100
AcDb2dVertex
 10
97.84760197206589
 20
-113.5448350410582
 30
0.0
  0
VERTEX
  5
72
330
70
100
AcDbEntity
  8
_U+30EC_U+30A4_U+30E4_U+30FC 1
370
     0
100
AcDbVertex
100
AcDb2dVertex
 10
97.3887152534306
 20
-113.5448350410582
 30
0.0
  0
VERTEX
  5
73
330
70
100
AcDbEntity
  8
_U+30EC_U+30A4_U+30E4_U+30FC 1
370
     0
100
AcDbVertex
100
AcDb2dVertex
 10
97.3887152534306
 20
-113.8493814819543
 30
0.0
  0
VERTEX
  5
74
330
70
100
AcDbEntity
  8
_U+30EC_U+30A4_U+30E4_U+30FC 1
370
     0
100
AcDbVertex
100
AcDb2dVertex
 10
97.84760197206589
 20
-113.8493814819543
 30
0.0
  0
VERTEX
  5
75
330
70
100
AcDbEntity
  8
_U+30EC_U+30A4_U+30E4_U+30FC 1
370
     0
100
AcDbVertex
100
AcDb2dVertex
 10
97.84760197206589
 20
-113.5448350410582
 30
0.0
  0
SEQEND
  5
76
330
70
100
AcDbEntity
  8
_U+30EC_U+30A4_U+30E4_U+30FC 1
370
     0
  0
POLYLINE
  5
77
330
4E
100
AcDbEntity
  8
_U+30EC_U+30A4_U+30E4_U+30FC 1
370
     0
100
AcDb2dPolyline
 66
     1
 10
0.0
 20
0.0
 30
0.0
  0
VERTEX
  5
78
330
77
100
AcDbEntity
  8
_U+30EC_U+30A4_U+30E4_U+30FC 1
370
     0
100
AcDbVertex
100
AcDb2dVertex
 10
97.84760197206589
 20
-114.0164686129889
 30
0.0
  0
VERTEX
  5
79
330
77
100
AcDbEntity
  8
_U+30EC_U+30A4_U+30E4_U+30FC 1
370
     0
100
AcDbVertex
100
AcDb2dVertex
 10
97.3887152534306
 20
-114.0164686129889
 30
0.0
  0
VERTEX
  5
7A
330
77
100
AcDbEntity
  8
_U+30EC_U+30A4_U+30E4_U+30FC 1
370
     0
100
AcDbVertex
100
AcDb2dVertex
 10
97.3887152534306
 20
-114.3254936780159
 30
0.0
  0
VERTEX
  5
7B
330
77
100
AcDbEntity
  8
_U+30EC_U+30A4_U+30E4_U+30FC 1
370
     0
100
AcDbVertex
100
AcDb2dVertex
 10
97.84760197206589
 20
-114.3254936780159
 30
0.0
  0
VERTEX
  5
7C
330
77
100
AcDbEntity
  8
_U+30EC_U+30A4_U+30E4_U+30FC 1
370
     0
100
AcDbVertex
100
AcDb2dVertex
 10
97.84760197206589
 20
-114.0164686129889
 30
0.0
  0
SEQEND
  5
7D
330
77
100
AcDbEntity
  8
_U+30EC_U+30A4_U+30E4_U+30FC 1
370
     0
  0
HATCH
  5
7E
330
4E
100
AcDbEntity
  8
_U+30EC_U+30A4_U+30E4_U+30FC 1
 62
   179
420
  2234388
100
AcDbHatch
 10
0.0
 20
0.0
 30
0.0
210
0.0
220
0.0
230
1.0
  2
SOLID
 70
     1
 71
     0
 91
        5
 92
        1
 93
        1
 72
     4
 94
        3
 73
     0
 74
     1
 95
       77
 96
       73
 40
0.0
 40
0.0
 40
0.0
 40
0.0
 40
1.0
 40
1.0
 40
1.0
 40
2.0
 40
2.0
 40
2.0
 40
3.0
 40
3.0
 40
3.0
 40
4.0
 40
4.0
 40
4.0
 40
5.0
 40
5.0
 40
5.0
 40
6.0
 40
6.0
 40
6.0
 40
7.0
 40
7.0
 40
7.0
 40
8.0
 40
8.0
 40
8.0
 40
9.0
 40
9.0
 40
9.0
 40
10.0
 40
10.0
 40
10.0
 40
11.0
 40
11.0
 40
11.0
 40
12.0
 40
12.0
 40
12.0
 40
13.0
 40
13.0
 40
13.0
 40
14.0
 40
14.0
 40
14.0
 40
15.0
 40
15.0
 40
15.0
 40
16.0
 40
16.0
 40
16.0
 40
17.0
 40
17.0
 40
17.0
 40
18.0
 40
18.0
 40
18.0
 40
19.0
 40
19.0
 40
19.0
 40
20.0
 40
20.0
 40
20.0
 40
21.0
 40
21.0
 40
21.0
 40
22.0
 40
22.0
 40
22.0
 40
23.0
 40
23.0
 40
23.0
 40
24.0
 40
24.0
 40
24.0
 40
24.0
 10
97.98333873418473
 20
-115.1313015120158
 10
97.93648543558533
 20
-115.1567952186066
 10
97.81177297901928
 20
-115.1695420719021
 10
97.73356931150411
 20
-115.1695420719021
 10
97.72082245820869
 20
-115.1695420719021
 10
97.69532875161784
 20
-115.1695420719021
 10
97.66156681586239
 20
-115.1654079573198
 10
97.66156681586239
 20
-115.1654079573198
 10
97.56441512317835
 20
-114.9390651839389
 10
97.56441512317835
 20
-114.9390651839389
 10
97.5940429443515
 20
-114.9452663558123
 10
97.65123152940664
 20
-114.9538790945254
 10
97.76733124725956
 20
-114.9538790945254
 10
97.84553491477473
 20
-114.9538790945254
 10
97.84760197206589
 20
-114.9115044200569
 10
97.84760197206589
 20
-114.8543158350017
 10
97.84760197206589
 20
-114.8543158350017
 10
97.84760197206589
 20
-114.5053276623459
 10
97.84760197206589
 20
-114.5053276623459
 10
97.84760197206589
 20
-114.5053276623459
 10
97.3887152534306
 20
-114.5053276623459
 10
97.3887152534306
 20
-114.5053276623459
 10
97.39078231072175
 20
-114.6427869722074
 10
97.3928493680129
 20
-114.8415689817063
 10
97.39905053988635
 20
-114.9748941769854
 10
97.40146210672603
 20
-115.0024549408675
 10
97.40146210672603
 20
-115.0468966726272
 10
97.41420896002145
 20
-115.1082193722646
 10
97.41420896002145
 20
-115.1082193722646
 10
97.17305227605397
 20
-115.1082193722646
 10
97.17305227605397
 20
-115.1082193722646
 10
97.19854598264482
 20
-114.9835069156986
 10
97.19854598264482
 20
-114.6427869722074
 10
97.19854598264482
 20
-114.5053276623459
 10
97.19854598264482
 20
-114.5053276623459
 10
96.75619572233873
 20
-114.5053276623459
 10
96.75619572233873
 20
-114.5053276623459
 10
96.73276907303904
 20
-114.7127224105579
 10
96.6673122588193
 20
-114.9810953488589
 10
96.47059730661152
 20
-115.1654079573198
 10
96.47059730661152
 20
-115.1654079573198
 10
96.28215058356835
 20
-115.0427625580449
 10
96.28215058356835
 20
-115.0427625580449
 10
96.5363986303798
 20
-114.8226209565374
 10
96.56809350884409
 20
-114.4905137517593
 10
96.56809350884409
 20
-114.1584065469812
 10
96.56809350884409
 20
-114.1584065469812
 10
96.56809350884409
 20
-113.7226019680971
 10
96.56809350884409
 20
-113.7226019680971
 10
96.56809350884409
 20
-113.686428465502
 10
96.56602645155294
 20
-113.4538845202476
 10
96.55706920329129
 20
-113.3522542034328
 10
96.69694007999243
 20
-113.362933999437
 10
96.93809676395992
 20
-113.362933999437
 10
97.08210175524337
 20
-113.362933999437
 10
97.08210175524337
 20
-113.362933999437
 10
97.54098847387864
 20
-113.362933999437
 10
97.54098847387864
 20
-113.362933999437
 10
97.55580238446522
 20
-113.362933999437
 10
97.90479055712103
 20
-113.362933999437
 10
98.06360945899105
 20
-113.3522542034328
 10
98.06119789215137
 20
-113.4053086739056
 10
98.05499672027793
 20
-113.5658501235183
 10
98.05499672027793
 20
-113.6168375367
 10
98.05499672027793
 20
-113.6168375367
 10
98.05499672027793
 20
-114.223863361201
 10
98.05499672027793
 20
-114.223863361201
 10
98.05499672027793
 20
-114.2428113863699
 10
98.0656765162822
 20
-114.8140082178243
 10
98.0656765162822
 20
-114.9263183306434
 10
98.0656765162822
 20
-114.9835069156986
 10
98.0656765162822
 20
-115.0847927229649
 10
97.98333873418473
 20
-115.1313015120158
 97
        0
 97
        0
 92
        1
 93
        4
 72
     1
 10
97.19854598264482
 20
-113.5448350410582
 11
96.76032983692103
 21
-113.5448350410582
 72
     1
 10
96.76032983692103
 20
-113.5448350410582
 11
96.76032983692103
 21
-113.8493814819543
 72
     1
 10
96.76032983692103
 20
-113.8493814819543
 11
97.19854598264482
 21
-113.8493814819543
 72
     1
 10
97.19854598264482
 20
-113.8493814819543
 11
97.19854598264482
 21
-113.5448350410582
 97
        0
 92
        1
 93
        4
 72
     1
 10
97.19854598264482
 20
-114.0164686129889
 11
96.76032983692103
 21
-114.0164686129889
 72
     1
 10
96.76032983692103
 20
-114.0164686129889
 11
96.76032983692103
 21
-114.3254936780159
 72
     1
 10
96.76032983692103
 20
-114.3254936780159
 11
97.19854598264482
 21
-114.3254936780159
 72
     1
 10
97.19854598264482
 20
-114.3254936780159
 11
97.19854598264482
 21
-114.0164686129889
 97
        0
 92
        1
 93
        4
 72
     1
 10
97.84760197206589
 20
-113.5448350410582
 11
97.3887152534306
 21
-113.5448350410582
 72
     1
 10
97.3887152534306
 20
-113.5448350410582
 11
97.3887152534306
 21
-113.8493814819543
 72
     1
 10
97.3887152534306
 20
-113.8493814819543
 11
97.84760197206589
 21
-113.8493814819543
 72
     1
 10
97.84760197206589
 20
-113.8493814819543
 11
97.84760197206589
 21
-113.5448350410582
 97
        0
 92
        1
 93
        4
 72
     1
 10
97.84760197206589
 20
-114.0164686129889
 11
97.3887152534306
 21
-114.0164686129889
 72
     1
 10
97.3887152534306
 20
-114.0164686129889
 11
97.3887152534306
 21
-114.3254936780159
 72
     1
 10
97.3887152534306
 20
-114.3254936780159
 11
97.84760197206589
 21
-114.3254936780159
 72
     1
 10
97.84760197206589
 20
-114.3254936780159
 11
97.84760197206589
 21
-114.0164686129889
 97
        0
 75
     2
 76
     1
 98
        0
  0
SPLINE
  5
7F
330
4E
100
AcDbEntity
  8
_U+30EC_U+30A4_U+30E4_U+30FC 1
370
     0
100
AcDbSpline
210
0.0
220
0.0
230
1.0
 70
    11
 71
     3
 72
    44
 73
    40
 74
     0
 42
0.0000000001
 43
0.0000000001
 12
1.0
 22
0.0
 32
0.0
 13
1.0
 23
0.0
 33
0.0
 40
0.0
 40
0.0
 40
0.0
 40
0.0
 40
1.0
 40
1.0
 40
1.0
 40
2.0
 40
2.0
 40
2.0
 40
3.0
 40
3.0
 40
3.0
 40
4.0
 40
4.0
 40
4.0
 40
5.0
 40
5.0
 40
5.0
 40
6.0
 40
6.0
 40
6.0
 40
7.0
 40
7.0
 40
7.0
 40
8.0
 40
8.0
 40
8.0
 40
9.0
 40
9.0
 40
9.0
 40
10.0
 40
10.0
 40
10.0
 40
11.0
 40
11.0
 40
11.0
 40
12.0
 40
12.0
 40
12.0
 40
13.0
 40
13.0
 40
13.0
 40
13.0
 10
99.86091577364589
 20
-113.8810763604186
 30
0.0
 10
99.74860566082674
 20
-114.2493570677918
 30
0.0
 10
99.69761824764504
 20
-114.4078314601133
 30
0.0
 10
99.50124780498581
 20
-114.6576008827939
 30
0.0
 10
99.31727970607346
 20
-114.8880777707571
 30
0.0
 10
99.08025713668827
 20
-115.0744574365092
 30
0.0
 10
98.80085989283451
 20
-115.1674750146109
 30
0.0
 10
98.80085989283451
 20
-115.1674750146109
 30
0.0
 10
98.60827905520905
 20
-114.9876410302809
 30
0.0
 10
98.60827905520905
 20
-114.9876410302809
 30
0.0
 10
99.24941132501404
 20
-114.8353678098328
 30
0.0
 10
99.57910696295245
 20
-114.278984888965
 30
0.0
 10
99.64284122942958
 20
-113.8390461954986
 30
0.0
 10
99.64284122942958
 20
-113.8390461954986
 30
0.0
 10
98.87699650305854
 20
-113.8390461954986
 30
0.0
 10
98.87699650305854
 20
-113.8390461954986
 30
0.0
 10
98.78397892495678
 20
-113.8390461954986
 30
0.0
 10
98.60001082604444
 20
-113.8431803100809
 30
0.0
 10
98.44325898146558
 20
-113.8621283352497
 30
0.0
 10
98.44325898146558
 20
-113.8621283352497
 30
0.0
 10
98.44325898146558
 20
-113.6419867337423
 30
0.0
 10
98.44325898146558
 20
-113.6419867337423
 30
0.0
 10
98.53007538769387
 20
-113.6633463257508
 30
0.0
 10
98.78191186766564
 20
-113.6633463257508
 30
0.0
 10
98.88113061764084
 20
-113.6633463257508
 30
0.0
 10
98.88113061764084
 20
-113.6633463257508
 30
0.0
 10
99.31280108194264
 20
-113.6633463257508
 30
0.0
 10
99.31280108194264
 20
-113.6633463257508
 30
0.0
 10
99.35517575641121
 20
-113.6633463257508
 30
0.0
 10
99.59013126850525
 20
-113.6612792684597
 30
0.0
 10
99.628027318843
 20
-113.6547335870377
 30
0.0
 10
99.67040199331157
 20
-113.6485324151643
 30
0.0
 10
99.67246905060271
 20
-113.6464653578731
 30
0.0
 10
99.73379175024017
 20
-113.6061577406957
 30
0.0
 10
99.73379175024017
 20
-113.6061577406957
 30
0.0
 10
99.92223847328333
 20
-113.7604980184349
 30
0.0
 10
99.92223847328333
 20
-113.7604980184349
 30
0.0
 10
99.89261065211018
 20
-113.790125839608
 30
0.0
 10
99.87745223197508
 20
-113.8218207180723
 30
0.0
 10
99.86091577364589
 20
-113.8810763604186
 30
0.0
  0
SPLINE
  5
80
330
4E
100
AcDbEntity
  8
_U+30EC_U+30A4_U+30E4_U+30FC 1
370
     0
100
AcDbSpline
210
0.0
220
0.0
230
1.0
 70
    11
 71
     3
 72
    17
 73
    13
 74
     0
 42
0.0000000001
 43
0.0000000001
 12
1.0
 22
0.0
 32
0.0
 13
1.0
 23
0.0
 33
0.0
 40
0.0
 40
0.0
 40
0.0
 40
0.0
 40
1.0
 40
1.0
 40
1.0
 40
2.0
 40
2.0
 40
2.0
 40
3.0
 40
3.0
 40
3.0
 40
4.0
 40
4.0
 40
4.0
 40
4.0
 10
100.0703775791491
 20
-113.6822943509197
 30
0.0
 10
99.94325355574335
 20
-113.6822943509197
 30
0.0
 10
99.84162323892849
 20
-113.5806640341048
 30
0.0
 10
99.84162323892849
 20
-113.4538845202476
 30
0.0
 10
99.84162323892849
 20
-113.3271050063905
 30
0.0
 10
99.94325355574335
 20
-113.2234076322844
 30
0.0
 10
100.0703775791491
 20
-113.2234076322844
 30
0.0
 10
100.1971570930063
 20
-113.2234076322844
 30
0.0
 10
100.3008544671123
 20
-113.3271050063905
 30
0.0
 10
100.3008544671123
 20
-113.4538845202476
 30
0.0
 10
100.3008544671123
 20
-113.5806640341048
 30
0.0
 10
100.1971570930063
 20
-113.6822943509197
 30
0.0
 10
100.0703775791491
 20
-113.6822943509197
 30
0.0
  0
SPLINE
  5
81
330
4E
100
AcDbEntity
  8
_U+30EC_U+30A4_U+30E4_U+30FC 1
370
     0
100
AcDbSpline
210
0.0
220
0.0
230
1.0
 70
    11
 71
     3
 72
    17
 73
    13
 74
     0
 42
0.0000000001
 43
0.0000000001
 12
1.0
 22
0.0
 32
0.0
 13
1.0
 23
0.0
 33
0.0
 40
0.0
 40
0.0
 40
0.0
 40
0.0
 40
1.0
 40
1.0
 40
1.0
 40
2.0
 40
2.0
 40
2.0
 40
3.0
 40
3.0
 40
3.0
 40
4.0
 40
4.0
 40
4.0
 40
4.0
 10
100.0679660123094
 20
-113.3522542034328
 30
0.0
 10
100.0131889940939
 20
-113.3522542034328
 30
0.0
 10
99.96840275278568
 20
-113.3966959351925
 30
0.0
 10
99.96840275278568
 20
-113.4518174629565
 30
0.0
 10
99.96840275278568
 20
-113.5090060480116
 30
0.0
 10
100.0131889940939
 20
-113.5575818943537
 30
0.0
 10
100.0724446364402
 20
-113.5575818943537
 30
0.0
 10
100.1317002787865
 20
-113.5575818943537
 30
0.0
 10
100.1716633864154
 20
-113.506594481172
 30
0.0
 10
100.1716633864154
 20
-113.4538845202476
 30
0.0
 10
100.1716633864154
 20
-113.3966959351925
 30
0.0
 10
100.1251545973646
 20
-113.3522542034328
 30
0.0
 10
100.0679660123094
 20
-113.3522542034328
 30
0.0
  0
HATCH
  5
82
330
4E
100
AcDbEntity
  8
_U+30EC_U+30A4_U+30E4_U+30FC 1
 62
   179
420
  2234388
100
AcDbHatch
 10
0.0
 20
0.0
 30
0.0
210
0.0
220
0.0
230
1.0
  2
SOLID
 70
     1
 71
     0
 91
        3
 92
        1
 93
        1
 72
     4
 94
        3
 73
     0
 74
     1
 95
       44
 96
       40
 40
0.0
 40
0.0
 40
0.0
 40
0.0
 40
1.0
 40
1.0
 40
1.0
 40
2.0
 40
2.0
 40
2.0
 40
3.0
 40
3.0
 40
3.0
 40
4.0
 40
4.0
 40
4.0
 40
5.0
 40
5.0
 40
5.0
 40
6.0
 40
6.0
 40
6.0
 40
7.0
 40
7.0
 40
7.0
 40
8.0
 40
8.0
 40
8.0
 40
9.0
 40
9.0
 40
9.0
 40
10.0
 40
10.0
 40
10.0
 40
11.0
 40
11.0
 40
11.0
 40
12.0
 40
12.0
 40
12.0
 40
13.0
 40
13.0
 40
13.0
 40
13.0
 10
99.86091577364589
 20
-113.8810763604186
 10
99.74860566082674
 20
-114.2493570677918
 10
99.69761824764504
 20
-114.4078314601133
 10
99.50124780498581
 20
-114.6576008827939
 10
99.31727970607346
 20
-114.8880777707571
 10
99.08025713668827
 20
-115.0744574365092
 10
98.80085989283451
 20
-115.1674750146109
 10
98.80085989283451
 20
-115.1674750146109
 10
98.60827905520905
 20
-114.9876410302809
 10
98.60827905520905
 20
-114.9876410302809
 10
99.24941132501404
 20
-114.8353678098328
 10
99.57910696295245
 20
-114.278984888965
 10
99.64284122942958
 20
-113.8390461954986
 10
99.64284122942958
 20
-113.8390461954986
 10
98.87699650305854
 20
-113.8390461954986
 10
98.87699650305854
 20
-113.8390461954986
 10
98.78397892495678
 20
-113.8390461954986
 10
98.60001082604444
 20
-113.8431803100809
 10
98.44325898146558
 20
-113.8621283352497
 10
98.44325898146558
 20
-113.8621283352497
 10
98.44325898146558
 20
-113.6419867337423
 10
98.44325898146558
 20
-113.6419867337423
 10
98.53007538769387
 20
-113.6633463257508
 10
98.78191186766564
 20
-113.6633463257508
 10
98.88113061764084
 20
-113.6633463257508
 10
98.88113061764084
 20
-113.6633463257508
 10
99.31280108194264
 20
-113.6633463257508
 10
99.31280108194264
 20
-113.6633463257508
 10
99.35517575641121
 20
-113.6633463257508
 10
99.59013126850525
 20
-113.6612792684597
 10
99.628027318843
 20
-113.6547335870377
 10
99.67040199331157
 20
-113.6485324151643
 10
99.67246905060271
 20
-113.6464653578731
 10
99.73379175024017
 20
-113.6061577406957
 10
99.73379175024017
 20
-113.6061577406957
 10
99.92223847328333
 20
-113.7604980184349
 10
99.92223847328333
 20
-113.7604980184349
 10
99.89261065211018
 20
-113.790125839608
 10
99.87745223197508
 20
-113.8218207180723
 10
99.86091577364589
 20
-113.8810763604186
 97
        0
 97
        0
 92
        1
 93
        1
 72
     4
 94
        3
 73
     0
 74
     1
 95
       17
 96
       13
 40
0.0
 40
0.0
 40
0.0
 40
0.0
 40
1.0
 40
1.0
 40
1.0
 40
2.0
 40
2.0
 40
2.0
 40
3.0
 40
3.0
 40
3.0
 40
4.0
 40
4.0
 40
4.0
 40
4.0
 10
100.0703775791491
 20
-113.6822943509197
 10
99.94325355574335
 20
-113.6822943509197
 10
99.84162323892849
 20
-113.5806640341048
 10
99.84162323892849
 20
-113.4538845202476
 10
99.84162323892849
 20
-113.3271050063905
 10
99.94325355574335
 20
-113.2234076322844
 10
100.0703775791491
 20
-113.2234076322844
 10
100.1971570930063
 20
-113.2234076322844
 10
100.3008544671123
 20
-113.3271050063905
 10
100.3008544671123
 20
-113.4538845202476
 10
100.3008544671123
 20
-113.5806640341048
 10
100.1971570930063
 20
-113.6822943509197
 10
100.0703775791491
 20
-113.6822943509197
 97
        0
 97
        0
 92
        1
 93
        1
 72
     4
 94
        3
 73
     0
 74
     1
 95
       17
 96
       13
 40
0.0
 40
0.0
 40
0.0
 40
0.0
 40
1.0
 40
1.0
 40
1.0
 40
2.0
 40
2.0
 40
2.0
 40
3.0
 40
3.0
 40
3.0
 40
4.0
 40
4.0
 40
4.0
 40
4.0
 10
100.0679660123094
 20
-113.3522542034328
 10
100.0131889940939
 20
-113.3522542034328
 10
99.96840275278568
 20
-113.3966959351925
 10
99.96840275278568
 20
-113.4518174629565
 10
99.96840275278568
 20
-113.5090060480116
 10
100.0131889940939
 20
-113.5575818943537
 10
100.0724446364402
 20
-113.5575818943537
 10
100.1317002787865
 20
-113.5575818943537
 10
100.1716633864154
 20
-113.506594481172
 10
100.1716633864154
 20
-113.4538845202476
 10
100.1716633864154
 20
-113.3966959351925
 10
100.1251545973646
 20
-113.3522542034328
 10
100.0679660123094
 20
-113.3522542034328
 97
        0
 97
        0
 75
     2
 76
     1
 98
        0
  0
SPLINE
  5
83
330
4E
100
AcDbEntity
  8
_U+30EC_U+30A4_U+30E4_U+30FC 1
370
     0
100
AcDbSpline
210
0.0
220
0.0
230
1.0
 70
    11
 71
     3
 72
    50
 73
    46
 74
     0
 42
0.0000000001
 43
0.0000000001
 12
1.0
 22
0.0
 32
0.0
 13
1.0
 23
0.0
 33
0.0
 40
0.0
 40
0.0
 40
0.0
 40
0.0
 40
1.0
 40
1.0
 40
1.0
 40
2.0
 40
2.0
 40
2.0
 40
3.0
 40
3.0
 40
3.0
 40
4.0
 40
4.0
 40
4.0
 40
5.0
 40
5.0
 40
5.0
 40
6.0
 40
6.0
 40
6.0
 40
7.0
 40
7.0
 40
7.0
 40
8.0
 40
8.0
 40
8.0
 40
9.0
 40
9.0
 40
9.0
 40
10.0
 40
10.0
 40
10.0
 40
11.0
 40
11.0
 40
11.0
 40
12.0
 40
12.0
 40
12.0
 40
13.0
 40
13.0
 40
13.0
 40
14.0
 40
14.0
 40
14.0
 40
15.0
 40
15.0
 40
15.0
 40
15.0
 10
101.8652723269642
 20
-114.1901014254455
 30
0.0
 10
101.7867241499006
 20
-114.3678683524844
 30
0.0
 10
101.6513318973302
 20
-114.5749185911479
 30
0.0
 10
101.5138725874688
 20
-114.7147894678491
 30
0.0
 10
101.344718399143
 20
-114.886010713466
 30
0.0
 10
101.1817653826907
 20
-114.9748941769854
 30
0.0
 10
100.862405031208
 20
-115.1164876014292
 30
0.0
 10
100.862405031208
 20
-115.1164876014292
 30
0.0
 10
100.6932508428823
 20
-114.9283853879346
 30
0.0
 10
100.6932508428823
 20
-114.9283853879346
 30
0.0
 10
100.8792859990857
 20
-114.9049587386349
 30
0.0
 10
101.0505072447027
 20
-114.8184868419551
 30
0.0
 10
101.2031249746992
 20
-114.7127224105579
 30
0.0
 10
101.4652967411267
 20
-114.5308213689367
 30
0.0
 10
101.655810521461
 20
-114.2176621893275
 30
0.0
 10
101.7043863678031
 20
-114.0357611477063
 30
0.0
 10
101.7043863678031
 20
-114.0357611477063
 30
0.0
 10
101.0336262768249
 20
-114.0357611477063
 30
0.0
 10
101.0336262768249
 20
-114.0357611477063
 30
0.0
 10
100.8751518845034
 20
-114.0357611477063
 30
0.0
 10
100.5830077873542
 20
-114.0440293768709
 30
0.0
 10
100.4307345669062
 20
-114.0609103447487
 30
0.0
 10
100.4307345669062
 20
-114.0609103447487
 30
0.0
 10
100.4307345669062
 20
-113.8325005140766
 30
0.0
 10
100.4307345669062
 20
-113.8325005140766
 30
0.0
 10
100.4648410122102
 20
-113.8390461954986
 30
0.0
 10
100.4899902092525
 20
-113.845247367372
 30
0.0
 10
100.5430446797254
 20
-113.8493814819543
 30
0.0
 10
100.6443304869917
 20
-113.8559271633763
 30
0.0
 10
100.841389948748
 20
-113.8579942206675
 30
0.0
 10
100.9257947881366
 20
-113.8579942206675
 30
0.0
 10
100.9257947881366
 20
-113.8579942206675
 30
0.0
 10
101.4315348053713
 20
-113.8579942206675
 30
0.0
 10
101.4315348053713
 20
-113.8579942206675
 30
0.0
 10
101.4990586768822
 20
-113.8579942206675
 30
0.0
 10
101.6451307254568
 20
-113.8538601060852
 30
0.0
 10
101.7064534250942
 20
-113.8473144246632
 30
0.0
 10
101.778455920736
 20
-113.8390461954986
 30
0.0
 10
101.8060166846179
 20
-113.824232284912
 30
0.0
 10
101.8397786203734
 20
-113.8008056356123
 30
0.0
 10
101.8397786203734
 20
-113.8008056356123
 30
0.0
 10
102.0047986941169
 20
-113.9678927666469
 30
0.0
 10
102.0047986941169
 20
-113.9678927666469
 30
0.0
 10
101.9348632557663
 20
-114.0357611477063
 30
0.0
 10
101.8883544667154
 20
-114.1394585218124
 30
0.0
 10
101.8652723269642
 20
-114.1901014254455
 30
0.0
  0
SPLINE
  5
84
330
4E
100
AcDbEntity
  8
_U+30EC_U+30A4_U+30E4_U+30FC 1
370
     0
100
AcDbSpline
210
0.0
220
0.0
230
1.0
 70
    11
 71
     3
 72
    29
 73
    25
 74
     0
 42
0.0000000001
 43
0.0000000001
 12
1.0
 22
0.0
 32
0.0
 13
1.0
 23
0.0
 33
0.0
 40
0.0
 40
0.0
 40
0.0
 40
0.0
 40
1.0
 40
1.0
 40
1.0
 40
2.0
 40
2.0
 40
2.0
 40
3.0
 40
3.0
 40
3.0
 40
4.0
 40
4.0
 40
4.0
 40
5.0
 40
5.0
 40
5.0
 40
6.0
 40
6.0
 40
6.0
 40
7.0
 40
7.0
 40
7.0
 40
8.0
 40
8.0
 40
8.0
 40
8.0
 10
101.372279163025
 20
-113.5637830662271
 30
0.0
 10
101.372279163025
 20
-113.5637830662271
 30
0.0
 10
101.0315592195338
 20
-113.5637830662271
 30
0.0
 10
101.0315592195338
 20
-113.5637830662271
 30
0.0
 10
100.917526558972
 20
-113.5637830662271
 30
0.0
 10
100.8010823315706
 20
-113.5682616903579
 30
0.0
 10
100.6867051614603
 20
-113.5830756009445
 30
0.0
 10
100.6867051614603
 20
-113.5830756009445
 30
0.0
 10
100.6867051614603
 20
-113.3736137954413
 30
0.0
 10
100.6867051614603
 20
-113.3736137954413
 30
0.0
 10
100.8052164461529
 20
-113.3884277060279
 30
0.0
 10
100.9788492586095
 20
-113.3925618206102
 30
0.0
 10
101.0315592195338
 20
-113.3925618206102
 30
0.0
 10
101.0315592195338
 20
-113.3925618206102
 30
0.0
 10
101.372279163025
 20
-113.3925618206102
 30
0.0
 10
101.372279163025
 20
-113.3925618206102
 30
0.0
 10
101.4887233904264
 20
-113.3925618206102
 30
0.0
 10
101.6048231082793
 20
-113.3884277060279
 30
0.0
 10
101.7212673356808
 20
-113.3736137954413
 30
0.0
 10
101.7212673356808
 20
-113.3736137954413
 30
0.0
 10
101.7212673356808
 20
-113.5830756009445
 30
0.0
 10
101.7212673356808
 20
-113.5830756009445
 30
0.0
 10
101.5710611725239
 20
-113.5637830662271
 30
0.0
 10
101.3870930736116
 20
-113.5637830662271
 30
0.0
 10
101.372279163025
 20
-113.5637830662271
 30
0.0
  0
HATCH
  5
85
330
4E
100
AcDbEntity
  8
_U+30EC_U+30A4_U+30E4_U+30FC 1
 62
   179
420
  2234388
100
AcDbHatch
 10
0.0
 20
0.0
 30
0.0
210
0.0
220
0.0
230
1.0
  2
SOLID
 70
     1
 71
     0
 91
        2
 92
        1
 93
        1
 72
     4
 94
        3
 73
     0
 74
     1
 95
       50
 96
       46
 40
0.0
 40
0.0
 40
0.0
 40
0.0
 40
1.0
 40
1.0
 40
1.0
 40
2.0
 40
2.0
 40
2.0
 40
3.0
 40
3.0
 40
3.0
 40
4.0
 40
4.0
 40
4.0
 40
5.0
 40
5.0
 40
5.0
 40
6.0
 40
6.0
 40
6.0
 40
7.0
 40
7.0
 40
7.0
 40
8.0
 40
8.0
 40
8.0
 40
9.0
 40
9.0
 40
9.0
 40
10.0
 40
10.0
 40
10.0
 40
11.0
 40
11.0
 40
11.0
 40
12.0
 40
12.0
 40
12.0
 40
13.0
 40
13.0
 40
13.0
 40
14.0
 40
14.0
 40
14.0
 40
15.0
 40
15.0
 40
15.0
 40
15.0
 10
101.8652723269642
 20
-114.1901014254455
 10
101.7867241499006
 20
-114.3678683524844
 10
101.6513318973302
 20
-114.5749185911479
 10
101.5138725874688
 20
-114.7147894678491
 10
101.344718399143
 20
-114.886010713466
 10
101.1817653826907
 20
-114.9748941769854
 10
100.862405031208
 20
-115.1164876014292
 10
100.862405031208
 20
-115.1164876014292
 10
100.6932508428823
 20
-114.9283853879346
 10
100.6932508428823
 20
-114.9283853879346
 10
100.8792859990857
 20
-114.9049587386349
 10
101.0505072447027
 20
-114.8184868419551
 10
101.2031249746992
 20
-114.7127224105579
 10
101.4652967411267
 20
-114.5308213689367
 10
101.655810521461
 20
-114.2176621893275
 10
101.7043863678031
 20
-114.0357611477063
 10
101.7043863678031
 20
-114.0357611477063
 10
101.0336262768249
 20
-114.0357611477063
 10
101.0336262768249
 20
-114.0357611477063
 10
100.8751518845034
 20
-114.0357611477063
 10
100.5830077873542
 20
-114.0440293768709
 10
100.4307345669062
 20
-114.0609103447487
 10
100.4307345669062
 20
-114.0609103447487
 10
100.4307345669062
 20
-113.8325005140766
 10
100.4307345669062
 20
-113.8325005140766
 10
100.4648410122102
 20
-113.8390461954986
 10
100.4899902092525
 20
-113.845247367372
 10
100.5430446797254
 20
-113.8493814819543
 10
100.6443304869917
 20
-113.8559271633763
 10
100.841389948748
 20
-113.8579942206675
 10
100.9257947881366
 20
-113.8579942206675
 10
100.9257947881366
 20
-113.8579942206675
 10
101.4315348053713
 20
-113.8579942206675
 10
101.4315348053713
 20
-113.8579942206675
 10
101.4990586768822
 20
-113.8579942206675
 10
101.6451307254568
 20
-113.8538601060852
 10
101.7064534250942
 20
-113.8473144246632
 10
101.778455920736
 20
-113.8390461954986
 10
101.8060166846179
 20
-113.824232284912
 10
101.8397786203734
 20
-113.8008056356123
 10
101.8397786203734
 20
-113.8008056356123
 10
102.0047986941169
 20
-113.9678927666469
 10
102.0047986941169
 20
-113.9678927666469
 10
101.9348632557663
 20
-114.0357611477063
 10
101.8883544667154
 20
-114.1394585218124
 10
101.8652723269642
 20
-114.1901014254455
 97
        0
 97
        0
 92
        1
 93
        1
 72
     4
 94
        3
 73
     0
 74
     1
 95
       29
 96
       25
 40
0.0
 40
0.0
 40
0.0
 40
0.0
 40
1.0
 40
1.0
 40
1.0
 40
2.0
 40
2.0
 40
2.0
 40
3.0
 40
3.0
 40
3.0
 40
4.0
 40
4.0
 40
4.0
 40
5.0
 40
5.0
 40
5.0
 40
6.0
 40
6.0
 40
6.0
 40
7.0
 40
7.0
 40
7.0
 40
8.0
 40
8.0
 40
8.0
 40
8.0
 10
101.372279163025
 20
-113.5637830662271
 10
101.372279163025
 20
-113.5637830662271
 10
101.0315592195338
 20
-113.5637830662271
 10
101.0315592195338
 20
-113.5637830662271
 10
100.917526558972
 20
-113.5637830662271
 10
100.8010823315706
 20
-113.5682616903579
 10
100.6867051614603
 20
-113.5830756009445
 10
100.6867051614603
 20
-113.5830756009445
 10
100.6867051614603
 20
-113.3736137954413
 10
100.6867051614603
 20
-113.3736137954413
 10
100.8052164461529
 20
-113.3884277060279
 10
100.9788492586095
 20
-113.3925618206102
 10
101.0315592195338
 20
-113.3925618206102
 10
101.0315592195338
 20
-113.3925618206102
 10
101.372279163025
 20
-113.3925618206102
 10
101.372279163025
 20
-113.3925618206102
 10
101.4887233904264
 20
-113.3925618206102
 10
101.6048231082793
 20
-113.3884277060279
 10
101.7212673356808
 20
-113.3736137954413
 10
101.7212673356808
 20
-113.3736137954413
 10
101.7212673356808
 20
-113.5830756009445
 10
101.7212673356808
 20
-113.5830756009445
 10
101.5710611725239
 20
-113.5637830662271
 10
101.3870930736116
 20
-113.5637830662271
 10
101.372279163025
 20
-113.5637830662271
 97
        0
 97
        0
 75
     2
 76
     1
 98
        0
  0
SPLINE
  5
86
330
4E
100
AcDbEntity
  8
_U+30EC_U+30A4_U+30E4_U+30FC 1
370
     0
100
AcDbSpline
210
0.0
220
0.0
230
1.0
 70
    11
 71
     3
 72
    50
 73
    46
 74
     0
 42
0.0000000001
 43
0.0000000001
 12
1.0
 22
0.0
 32
0.0
 13
1.0
 23
0.0
 33
0.0
 40
0.0
 40
0.0
 40
0.0
 40
0.0
 40
1.0
 40
1.0
 40
1.0
 40
2.0
 40
2.0
 40
2.0
 40
3.0
 40
3.0
 40
3.0
 40
4.0
 40
4.0
 40
4.0
 40
5.0
 40
5.0
 40
5.0
 40
6.0
 40
6.0
 40
6.0
 40
7.0
 40
7.0
 40
7.0
 40
8.0
 40
8.0
 40
8.0
 40
9.0
 40
9.0
 40
9.0
 40
10.0
 40
10.0
 40
10.0
 40
11.0
 40
11.0
 40
11.0
 40
12.0
 40
12.0
 40
12.0
 40
13.0
 40
13.0
 40
13.0
 40
14.0
 40
14.0
 40
14.0
 40
15.0
 40
15.0
 40
15.0
 40
15.0
 10
103.5754177258423
 20
-113.5489691556405
 30
0.0
 10
103.3659559203391
 20
-113.762565075726
 30
0.0
 10
103.2942979342459
 20
-113.8345675713678
 30
0.0
 10
103.1523600002536
 20
-113.9530788560603
 30
0.0
 10
103.1523600002536
 20
-113.9530788560603
 30
0.0
 10
103.1523600002536
 20
-114.5201415729325
 30
0.0
 10
103.1523600002536
 20
-114.5201415729325
 30
0.0
 10
103.1523600002536
 20
-114.6703477360894
 30
0.0
 10
103.1589056816756
 20
-114.6892957612582
 30
0.0
 10
103.1630397962579
 20
-114.8670626882971
 30
0.0
 10
103.165106853549
 20
-114.9983208262852
 30
0.0
 10
103.1713080254225
 20
-115.0468966726272
 30
0.0
 10
103.1778537068444
 20
-115.1061523149735
 30
0.0
 10
103.1778537068444
 20
-115.1061523149735
 30
0.0
 10
102.9515109334635
 20
-115.1061523149735
 30
0.0
 10
102.9515109334635
 20
-115.1061523149735
 30
0.0
 10
102.9556450480458
 20
-115.0617105832137
 30
0.0
 10
102.9597791626281
 20
-115.0152017941629
 30
0.0
 10
102.9597791626281
 20
-115.0065890554498
 30
0.0
 10
102.9597791626281
 20
-114.9263183306434
 30
0.0
 10
102.9642577867589
 20
-114.5749185911479
 30
0.0
 10
102.9642577867589
 20
-114.5032606050547
 30
0.0
 10
102.9642577867589
 20
-114.5032606050547
 30
0.0
 10
102.9642577867589
 20
-114.0970838473438
 30
0.0
 10
102.9642577867589
 20
-114.0970838473438
 30
0.0
 10
102.7823567451377
 20
-114.2217963039098
 30
0.0
 10
102.5877088502211
 20
-114.3316948498893
 30
0.0
 10
102.3844482165914
 20
-114.4185112561176
 30
0.0
 10
102.3844482165914
 20
-114.4185112561176
 30
0.0
 10
102.1815320925102
 20
-114.2555582396653
 30
0.0
 10
102.1815320925102
 20
-114.2555582396653
 30
0.0
 10
102.3041774917851
 20
-114.2197292466187
 30
0.0
 10
102.5601480863391
 20
-114.1456596936858
 30
0.0
 10
102.9050021444126
 20
-113.8896890991317
 30
0.0
 10
103.1206651217893
 20
-113.7308701972617
 30
0.0
 10
103.3132459594147
 20
-113.5427679837671
 30
0.0
 10
103.4655191798628
 20
-113.3226263822596
 30
0.0
 10
103.4655191798628
 20
-113.3226263822596
 30
0.0
 10
103.6581000174883
 20
-113.4666313735431
 30
0.0
 10
103.6581000174883
 20
-113.4666313735431
 30
0.0
 10
103.6708468707837
 20
-113.4773111695473
 30
0.0
 10
103.6791150999483
 20
-113.4917805705854
 30
0.0
 10
103.6791150999483
 20
-113.5045274238808
 30
0.0
 10
103.6791150999483
 20
-113.5448350410582
 30
0.0
 10
103.6412190496105
 20
-113.5448350410582
 30
0.0
 10
103.5754177258423
 20
-113.5489691556405
 30
0.0
  0
HATCH
  5
87
330
4E
100
AcDbEntity
  8
_U+30EC_U+30A4_U+30E4_U+30FC 1
 62
   179
420
  2234388
100
AcDbHatch
 10
0.0
 20
0.0
 30
0.0
210
0.0
220
0.0
230
1.0
  2
SOLID
 70
     1
 71
     0
 91
        1
 92
        1
 93
        1
 72
     4
 94
        3
 73
     0
 74
     1
 95
       50
 96
       46
 40
0.0
 40
0.0
 40
0.0
 40
0.0
 40
1.0
 40
1.0
 40
1.0
 40
2.0
 40
2.0
 40
2.0
 40
3.0
 40
3.0
 40
3.0
 40
4.0
 40
4.0
 40
4.0
 40
5.0
 40
5.0
 40
5.0
 40
6.0
 40
6.0
 40
6.0
 40
7.0
 40
7.0
 40
7.0
 40
8.0
 40
8.0
 40
8.0
 40
9.0
 40
9.0
 40
9.0
 40
10.0
 40
10.0
 40
10.0
 40
11.0
 40
11.0
 40
11.0
 40
12.0
 40
12.0
 40
12.0
 40
13.0
 40
13.0
 40
13.0
 40
14.0
 40
14.0
 40
14.0
 40
15.0
 40
15.0
 40
15.0
 40
15.0
 10
103.5754177258423
 20
-113.5489691556405
 10
103.3659559203391
 20
-113.762565075726
 10
103.2942979342459
 20
-113.8345675713678
 10
103.1523600002536
 20
-113.9530788560603
 10
103.1523600002536
 20
-113.9530788560603
 10
103.1523600002536
 20
-114.5201415729325
 10
103.1523600002536
 20
-114.5201415729325
 10
103.1523600002536
 20
-114.6703477360894
 10
103.1589056816756
 20
-114.6892957612582
 10
103.1630397962579
 20
-114.8670626882971
 10
103.165106853549
 20
-114.9983208262852
 10
103.1713080254225
 20
-115.0468966726272
 10
103.1778537068444
 20
-115.1061523149735
 10
103.1778537068444
 20
-115.1061523149735
 10
102.9515109334635
 20
-115.1061523149735
 10
102.9515109334635
 20
-115.1061523149735
 10
102.9556450480458
 20
-115.0617105832137
 10
102.9597791626281
 20
-115.0152017941629
 10
102.9597791626281
 20
-115.0065890554498
 10
102.9597791626281
 20
-114.9263183306434
 10
102.9642577867589
 20
-114.5749185911479
 10
102.9642577867589
 20
-114.5032606050547
 10
102.9642577867589
 20
-114.5032606050547
 10
102.9642577867589
 20
-114.0970838473438
 10
102.9642577867589
 20
-114.0970838473438
 10
102.7823567451377
 20
-114.2217963039098
 10
102.5877088502211
 20
-114.3316948498893
 10
102.3844482165914
 20
-114.4185112561176
 10
102.3844482165914
 20
-114.4185112561176
 10
102.1815320925102
 20
-114.2555582396653
 10
102.1815320925102
 20
-114.2555582396653
 10
102.3041774917851
 20
-114.2197292466187
 10
102.5601480863391
 20
-114.1456596936858
 10
102.9050021444126
 20
-113.8896890991317
 10
103.1206651217893
 20
-113.7308701972617
 10
103.3132459594147
 20
-113.5427679837671
 10
103.4655191798628
 20
-113.3226263822596
 10
103.4655191798628
 20
-113.3226263822596
 10
103.6581000174883
 20
-113.4666313735431
 10
103.6581000174883
 20
-113.4666313735431
 10
103.6708468707837
 20
-113.4773111695473
 10
103.6791150999483
 20
-113.4917805705854
 10
103.6791150999483
 20
-113.5045274238808
 10
103.6791150999483
 20
-113.5448350410582
 10
103.6412190496105
 20
-113.5448350410582
 10
103.5754177258423
 20
-113.5489691556405
 97
        0
 97
        0
 75
     2
 76
     1
 98
        0
  0
SPLINE
  5
88
330
4E
100
AcDbEntity
  8
_U+30EC_U+30A4_U+30E4_U+30FC 1
370
     0
100
AcDbSpline
210
0.0
220
0.0
230
1.0
 70
    11
 71
     3
 72
    50
 73
    46
 74
     0
 42
0.0000000001
 43
0.0000000001
 12
1.0
 22
0.0
 32
0.0
 13
1.0
 23
0.0
 33
0.0
 40
0.0
 40
0.0
 40
0.0
 40
0.0
 40
1.0
 40
1.0
 40
1.0
 40
2.0
 40
2.0
 40
2.0
 40
3.0
 40
3.0
 40
3.0
 40
4.0
 40
4.0
 40
4.0
 40
5.0
 40
5.0
 40
5.0
 40
6.0
 40
6.0
 40
6.0
 40
7.0
 40
7.0
 40
7.0
 40
8.0
 40
8.0
 40
8.0
 40
9.0
 40
9.0
 40
9.0
 40
10.0
 40
10.0
 40
10.0
 40
11.0
 40
11.0
 40
11.0
 40
12.0
 40
12.0
 40
12.0
 40
13.0
 40
13.0
 40
13.0
 40
14.0
 40
14.0
 40
14.0
 40
15.0
 40
15.0
 40
15.0
 40
15.0
 10
105.2838405769777
 20
-114.0757242553352
 30
0.0
 10
105.2225178773402
 20
-114.147726750977
 30
0.0
 10
104.9620686586553
 20
-114.4650200451685
 30
0.0
 10
104.9052245831487
 20
-114.5284098020971
 30
0.0
 10
104.9896294225373
 20
-114.6259060043296
 30
0.0
 10
105.040616835719
 20
-114.6892957612582
 30
0.0
 10
105.1060736499388
 20
-114.7802462820688
 30
0.0
 10
105.1060736499388
 20
-114.7802462820688
 30
0.0
 10
104.9221055510264
 20
-114.9177055919303
 30
0.0
 10
104.9221055510264
 20
-114.9177055919303
 30
0.0
 10
104.7867132984561
 20
-114.706176729136
 30
0.0
 10
104.6151475432907
 20
-114.4819010130462
 30
0.0
 10
104.3212808983989
 20
-114.2831190035473
 30
0.0
 10
104.3212808983989
 20
-114.2831190035473
 30
0.0
 10
104.4694200042646
 20
-114.1287787258081
 30
0.0
 10
104.4694200042646
 20
-114.1287787258081
 30
0.0
 10
104.5793185502441
 20
-114.2090494506144
 30
0.0
 10
104.6830159243501
 20
-114.2979329141339
 30
0.0
 10
104.7801676170341
 20
-114.3930175495267
 30
0.0
 10
104.8480359980936
 20
-114.3168809393027
 30
0.0
 10
105.0509521221748
 20
-114.0736571980441
 30
0.0
 10
105.1842773174539
 20
-113.845247367372
 30
0.0
 10
105.1842773174539
 20
-113.845247367372
 30
0.0
 10
104.5114501691846
 20
-113.845247367372
 30
0.0
 10
104.5114501691846
 20
-113.845247367372
 30
0.0
 10
104.3867377126186
 20
-113.845247367372
 30
0.0
 10
104.1349012326468
 20
-113.8538601060852
 30
0.0
 10
103.9254394271436
 20
-113.8641953925409
 30
0.0
 10
103.9254394271436
 20
-113.8641953925409
 30
0.0
 10
103.9254394271436
 20
-113.644398300582
 30
0.0
 10
103.9254394271436
 20
-113.644398300582
 30
0.0
 10
104.1097520356045
 20
-113.6633463257508
 30
0.0
 10
104.3147352169769
 20
-113.6674804403331
 30
0.0
 10
104.50318194002
 20
-113.6674804403331
 30
0.0
 10
104.50318194002
 20
-113.6674804403331
 30
0.0
 10
105.006510390415
 20
-113.6674804403331
 30
0.0
 10
105.006510390415
 20
-113.6674804403331
 30
0.0
 10
105.3451632766151
 20
-113.6674804403331
 30
0.0
 10
105.3896050083748
 20
-113.6526665297466
 30
0.0
 10
105.4719427904723
 20
-113.6123589125691
 30
0.0
 10
105.4719427904723
 20
-113.6123589125691
 30
0.0
 10
105.6390299215069
 20
-113.7711778144392
 30
0.0
 10
105.6390299215069
 20
-113.7711778144392
 30
0.0
 10
105.4867567010589
 20
-113.8431803100809
 30
0.0
 10
105.343096219324
 20
-114.0061333265332
 30
0.0
 10
105.2838405769777
 20
-114.0757242553352
 30
0.0
  0
HATCH
  5
89
330
4E
100
AcDbEntity
  8
_U+30EC_U+30A4_U+30E4_U+30FC 1
 62
   179
420
  2234388
100
AcDbHatch
 10
0.0
 20
0.0
 30
0.0
210
0.0
220
0.0
230
1.0
  2
SOLID
 70
     1
 71
     0
 91
        1
 92
        1
 93
        1
 72
     4
 94
        3
 73
     0
 74
     1
 95
       50
 96
       46
 40
0.0
 40
0.0
 40
0.0
 40
0.0
 40
1.0
 40
1.0
 40
1.0
 40
2.0
 40
2.0
 40
2.0
 40
3.0
 40
3.0
 40
3.0
 40
4.0
 40
4.0
 40
4.0
 40
5.0
 40
5.0
 40
5.0
 40
6.0
 40
6.0
 40
6.0
 40
7.0
 40
7.0
 40
7.0
 40
8.0
 40
8.0
 40
8.0
 40
9.0
 40
9.0
 40
9.0
 40
10.0
 40
10.0
 40
10.0
 40
11.0
 40
11.0
 40
11.0
 40
12.0
 40
12.0
 40
12.0
 40
13.0
 40
13.0
 40
13.0
 40
14.0
 40
14.0
 40
14.0
 40
15.0
 40
15.0
 40
15.0
 40
15.0
 10
105.2838405769777
 20
-114.0757242553352
 10
105.2225178773402
 20
-114.147726750977
 10
104.9620686586553
 20
-114.4650200451685
 10
104.9052245831487
 20
-114.5284098020971
 10
104.9896294225373
 20
-114.6259060043296
 10
105.040616835719
 20
-114.6892957612582
 10
105.1060736499388
 20
-114.7802462820688
 10
105.1060736499388
 20
-114.7802462820688
 10
104.9221055510264
 20
-114.9177055919303
 10
104.9221055510264
 20
-114.9177055919303
 10
104.7867132984561
 20
-114.706176729136
 10
104.6151475432907
 20
-114.4819010130462
 10
104.3212808983989
 20
-114.2831190035473
 10
104.3212808983989
 20
-114.2831190035473
 10
104.4694200042646
 20
-114.1287787258081
 10
104.4694200042646
 20
-114.1287787258081
 10
104.5793185502441
 20
-114.2090494506144
 10
104.6830159243501
 20
-114.2979329141339
 10
104.7801676170341
 20
-114.3930175495267
 10
104.8480359980936
 20
-114.3168809393027
 10
105.0509521221748
 20
-114.0736571980441
 10
105.1842773174539
 20
-113.845247367372
 10
105.1842773174539
 20
-113.845247367372
 10
104.5114501691846
 20
-113.845247367372
 10
104.5114501691846
 20
-113.845247367372
 10
104.3867377126186
 20
-113.845247367372
 10
104.1349012326468
 20
-113.8538601060852
 10
103.9254394271436
 20
-113.8641953925409
 10
103.9254394271436
 20
-113.8641953925409
 10
103.9254394271436
 20
-113.644398300582
 10
103.9254394271436
 20
-113.644398300582
 10
104.1097520356045
 20
-113.6633463257508
 10
104.3147352169769
 20
-113.6674804403331
 10
104.50318194002
 20
-113.6674804403331
 10
104.50318194002
 20
-113.6674804403331
 10
105.006510390415
 20
-113.6674804403331
 10
105.006510390415
 20
-113.6674804403331
 10
105.3451632766151
 20
-113.6674804403331
 10
105.3896050083748
 20
-113.6526665297466
 10
105.4719427904723
 20
-113.6123589125691
 10
105.4719427904723
 20
-113.6123589125691
 10
105.6390299215069
 20
-113.7711778144392
 10
105.6390299215069
 20
-113.7711778144392
 10
105.4867567010589
 20
-113.8431803100809
 10
105.343096219324
 20
-114.0061333265332
 10
105.2838405769777
 20
-114.0757242553352
 97
        0
 97
        0
 75
     2
 76
     1
 98
        0
  0
SPLINE
  5
8A
330
4E
100
AcDbEntity
  8
_U+30EC_U+30A4_U+30E4_U+30FC 1
370
     0
100
AcDbSpline
210
0.0
220
0.0
230
1.0
 70
    11
 71
     3
 72
    29
 73
    25
 74
     0
 42
0.0000000001
 43
0.0000000001
 12
1.0
 22
0.0
 32
0.0
 13
1.0
 23
0.0
 33
0.0
 40
0.0
 40
0.0
 40
0.0
 40
0.0
 40
1.0
 40
1.0
 40
1.0
 40
2.0
 40
2.0
 40
2.0
 40
3.0
 40
3.0
 40
3.0
 40
4.0
 40
4.0
 40
4.0
 40
5.0
 40
5.0
 40
5.0
 40
6.0
 40
6.0
 40
6.0
 40
7.0
 40
7.0
 40
7.0
 40
8.0
 40
8.0
 40
8.0
 40
8.0
 10
106.9071695696274
 20
-114.3189479965939
 30
0.0
 10
106.9071695696274
 20
-114.3189479965939
 30
0.0
 10
106.4227891444012
 20
-114.3189479965939
 30
0.0
 10
106.4227891444012
 20
-114.3189479965939
 30
0.0
 10
106.3952283805193
 20
-114.3189479965939
 30
0.0
 10
106.0779350863277
 20
-114.3189479965939
 30
0.0
 10
105.8664062235334
 20
-114.3444417031847
 30
0.0
 10
105.8664062235334
 20
-114.3444417031847
 30
0.0
 10
105.8664062235334
 20
-114.1139648152215
 30
0.0
 10
105.8664062235334
 20
-114.1139648152215
 30
0.0
 10
106.0248806158549
 20
-114.1370469549727
 30
0.0
 10
106.2153943961892
 20
-114.1394585218124
 30
0.0
 10
106.4227891444012
 20
-114.1394585218124
 30
0.0
 10
106.4227891444012
 20
-114.1394585218124
 30
0.0
 10
106.9071695696274
 20
-114.1394585218124
 30
0.0
 10
106.9071695696274
 20
-114.1394585218124
 30
0.0
 10
107.0932047258309
 20
-114.1394585218124
 30
0.0
 10
107.2795843915829
 20
-114.1370469549727
 30
0.0
 10
107.4635524904952
 20
-114.1139648152215
 30
0.0
 10
107.4635524904952
 20
-114.1139648152215
 30
0.0
 10
107.4635524904952
 20
-114.3444417031847
 30
0.0
 10
107.4635524904952
 20
-114.3444417031847
 30
0.0
 10
107.2795843915829
 20
-114.3213595634336
 30
0.0
 10
107.0318820261934
 20
-114.3189479965939
 30
0.0
 10
106.9071695696274
 20
-114.3189479965939
 30
0.0
  0
HATCH
  5
8B
330
4E
100
AcDbEntity
  8
_U+30EC_U+30A4_U+30E4_U+30FC 1
 62
   179
420
  2234388
100
AcDbHatch
 10
0.0
 20
0.0
 30
0.0
210
0.0
220
0.0
230
1.0
  2
SOLID
 70
     1
 71
     0
 91
        1
 92
        1
 93
        1
 72
     4
 94
        3
 73
     0
 74
     1
 95
       29
 96
       25
 40
0.0
 40
0.0
 40
0.0
 40
0.0
 40
1.0
 40
1.0
 40
1.0
 40
2.0
 40
2.0
 40
2.0
 40
3.0
 40
3.0
 40
3.0
 40
4.0
 40
4.0
 40
4.0
 40
5.0
 40
5.0
 40
5.0
 40
6.0
 40
6.0
 40
6.0
 40
7.0
 40
7.0
 40
7.0
 40
8.0
 40
8.0
 40
8.0
 40
8.0
 10
106.9071695696274
 20
-114.3189479965939
 10
106.9071695696274
 20
-114.3189479965939
 10
106.4227891444012
 20
-114.3189479965939
 10
106.4227891444012
 20
-114.3189479965939
 10
106.3952283805193
 20
-114.3189479965939
 10
106.0779350863277
 20
-114.3189479965939
 10
105.8664062235334
 20
-114.3444417031847
 10
105.8664062235334
 20
-114.3444417031847
 10
105.8664062235334
 20
-114.1139648152215
 10
105.8664062235334
 20
-114.1139648152215
 10
106.0248806158549
 20
-114.1370469549727
 10
106.2153943961892
 20
-114.1394585218124
 10
106.4227891444012
 20
-114.1394585218124
 10
106.4227891444012
 20
-114.1394585218124
 10
106.9071695696274
 20
-114.1394585218124
 10
106.9071695696274
 20
-114.1394585218124
 10
107.0932047258309
 20
-114.1394585218124
 10
107.2795843915829
 20
-114.1370469549727
 10
107.4635524904952
 20
-114.1139648152215
 10
107.4635524904952
 20
-114.1139648152215
 10
107.4635524904952
 20
-114.3444417031847
 10
107.4635524904952
 20
-114.3444417031847
 10
107.2795843915829
 20
-114.3213595634336
 10
107.0318820261934
 20
-114.3189479965939
 10
106.9071695696274
 20
-114.3189479965939
 97
        0
 97
        0
 75
     2
 76
     1
 98
        0
  0
ENDBLK
  5
51
330
4E
100
AcDbEntity
  8
0
100
AcDbBlockEnd
  0
BLOCK
  5
C7
330
C5
100
AcDbEntity
  8
0
100
AcDbBlockBegin
  2
block 3
 70
     0
 10
0.0
 20
0.0
 30
0.0
  3
block 3
  1

  0
SPLINE
  5
C9
330
C5
100
AcDbEntity
  8
_U+30EC_U+30A4_U+30E4_U+30FC 1
370
     0
100
AcDbSpline
210
0.0
220
0.0
230
1.0
 70
    11
 71
     3
 72
    26
 73
    22
 74
     0
 42
0.0000000001
 43
0.0000000001
 12
1.0
 22
0.0
 32
0.0
 13
1.0
 23
0.0
 33
0.0
 40
0.0
 40
0.0
 40
0.0
 40
0.0
 40
1.0
 40
1.0
 40
1.0
 40
2.0
 40
2.0
 40
2.0
 40
3.0
 40
3.0
 40
3.0
 40
4.0
 40
4.0
 40
4.0
 40
5.0
 40
5.0
 40
5.0
 40
6.0
 40
6.0
 40
6.0
 40
7.0
 40
7.0
 40
7.0
 40
7.0
 10
84.65581459472146
 20
-121.6494221701085
 30
0.0
 10
84.65581459472146
 20
-121.6494221701085
 30
0.0
 10
84.65581459472146
 20
-120.5450968123116
 30
0.0
 10
84.65581459472146
 20
-120.5450968123116
 30
0.0
 10
84.65581459472146
 20
-120.5450968123116
 30
0.0
 10
84.30303681703188
 20
-120.5450968123116
 30
0.0
 10
84.30303681703188
 20
-120.5450968123116
 30
0.0
 10
84.30303681703188
 20
-120.5450968123116
 30
0.0
 10
84.30303681703188
 20
-120.3971299612202
 30
0.0
 10
84.30303681703188
 20
-120.3971299612202
 30
0.0
 10
84.65805390678688
 20
-120.3823160506336
 30
0.0
 10
84.70783553654874
 20
-120.2193630341813
 30
0.0
 10
84.73935816023878
 20
-120.1051581188452
 30
0.0
 10
84.73935816023878
 20
-120.1051581188452
 30
0.0
 10
84.89542098572059
 20
-120.1051581188452
 30
0.0
 10
84.89542098572059
 20
-120.1051581188452
 30
0.0
 10
84.89542098572059
 20
-120.1051581188452
 30
0.0
 10
84.89542098572059
 20
-121.6494221701085
 30
0.0
 10
84.89542098572059
 20
-121.6494221701085
 30
0.0
 10
84.89542098572059
 20
-121.6494221701085
 30
0.0
 10
84.65581459472146
 20
-121.6494221701085
 30
0.0
 10
84.65581459472146
 20
-121.6494221701085
 30
0.0
  0
HATCH
  5
CA
330
C5
100
AcDbEntity
  8
_U+30EC_U+30A4_U+30E4_U+30FC 1
 62
     7
420
 16777215
100
AcDbHatch
 10
0.0
 20
0.0
 30
0.0
210
0.0
220
0.0
230
1.0
  2
SOLID
 70
     1
 71
     0
 91
        1
 92
        1
 93
        1
 72
     4
 94
        3
 73
     0
 74
     1
 95
       26
 96
       22
 40
0.0
 40
0.0
 40
0.0
 40
0.0
 40
1.0
 40
1.0
 40
1.0
 40
2.0
 40
2.0
 40
2.0
 40
3.0
 40
3.0
 40
3.0
 40
4.0
 40
4.0
 40
4.0
 40
5.0
 40
5.0
 40
5.0
 40
6.0
 40
6.0
 40
6.0
 40
7.0
 40
7.0
 40
7.0
 40
7.0
 10
84.65581459472146
 20
-121.6494221701085
 10
84.65581459472146
 20
-121.6494221701085
 10
84.65581459472146
 20
-120.5450968123116
 10
84.65581459472146
 20
-120.5450968123116
 10
84.65581459472146
 20
-120.5450968123116
 10
84.30303681703188
 20
-120.5450968123116
 10
84.30303681703188
 20
-120.5450968123116
 10
84.30303681703188
 20
-120.5450968123116
 10
84.30303681703188
 20
-120.3971299612202
 10
84.30303681703188
 20
-120.3971299612202
 10
84.65805390678688
 20
-120.3823160506336
 10
84.70783553654874
 20
-120.2193630341813
 10
84.73935816023878
 20
-120.1051581188452
 10
84.73935816023878
 20
-120.1051581188452
 10
84.89542098572059
 20
-120.1051581188452
 10
84.89542098572059
 20
-120.1051581188452
 10
84.89542098572059
 20
-120.1051581188452
 10
84.89542098572059
 20
-121.6494221701085
 10
84.89542098572059
 20
-121.6494221701085
 10
84.89542098572059
 20
-121.6494221701085
 10
84.65581459472146
 20
-121.6494221701085
 10
84.65581459472146
 20
-121.6494221701085
 97
        0
 97
        0
 75
     2
 76
     1
 98
        0
  0
ENDBLK
  5
C8
330
C5
100
AcDbEntity
  8
0
100
AcDbBlockEnd
  0
BLOCK
  5
D9
330
D7
100
AcDbEntity
  8
0
100
AcDbBlockBegin
  2
block 4
 70
     0
 10
0.0
 20
0.0
 30
0.0
  3
block 4
  1

  0
SPLINE
  5
DB
330
D7
100
AcDbEntity
  8
_U+30EC_U+30A4_U+30E4_U+30FC 1
370
     0
100
AcDbSpline
210
0.0
220
0.0
230
1.0
 70
    11
 71
     3
 72
    26
 73
    22
 74
     0
 42
0.0000000001
 43
0.0000000001
 12
1.0
 22
0.0
 32
0.0
 13
1.0
 23
0.0
 33
0.0
 40
0.0
 40
0.0
 40
0.0
 40
0.0
 40
1.0
 40
1.0
 40
1.0
 40
2.0
 40
2.0
 40
2.0
 40
3.0
 40
3.0
 40
3.0
 40
4.0
 40
4.0
 40
4.0
 40
5.0
 40
5.0
 40
5.0
 40
6.0
 40
6.0
 40
6.0
 40
7.0
 40
7.0
 40
7.0
 40
7.0
 10
86.98383786887905
 20
-142.2679741397802
 30
0.0
 10
86.98383786887905
 20
-142.2679741397802
 30
0.0
 10
86.98383786887905
 20
-141.1638210367577
 30
0.0
 10
86.98383786887905
 20
-141.1638210367577
 30
0.0
 10
86.98383786887905
 20
-141.1638210367577
 30
0.0
 10
86.63140460073798
 20
-141.1638210367577
 30
0.0
 10
86.63140460073798
 20
-141.1638210367577
 30
0.0
 10
86.63140460073798
 20
-141.1638210367577
 30
0.0
 10
86.63140460073798
 20
-141.0156819308919
 30
0.0
 10
86.63140460073798
 20
-141.0156819308919
 30
0.0
 10
86.98624943571872
 20
-141.0008680203053
 30
0.0
 10
87.03585881070632
 20
-140.837915003853
 30
0.0
 10
87.06755368917061
 20
-140.7235378337427
 30
0.0
 10
87.06755368917061
 20
-140.7235378337427
 30
0.0
 10
87.22361651465243
 20
-140.7235378337427
 30
0.0
 10
87.22361651465243
 20
-140.7235378337427
 30
0.0
 10
87.22361651465243
 20
-140.7235378337427
 30
0.0
 10
87.22361651465243
 20
-142.2679741397802
 30
0.0
 10
87.22361651465243
 20
-142.2679741397802
 30
0.0
 10
87.22361651465243
 20
-142.2679741397802
 30
0.0
 10
86.98383786887905
 20
-142.2679741397802
 30
0.0
 10
86.98383786887905
 20
-142.2679741397802
 30
0.0
  0
HATCH
  5
DC
330
D7
100
AcDbEntity
  8
_U+30EC_U+30A4_U+30E4_U+30FC 1
 62
     7
420
 16777215
100
AcDbHatch
 10
0.0
 20
0.0
 30
0.0
210
0.0
220
0.0
230
1.0
  2
SOLID
 70
     1
 71
     0
 91
        1
 92
        1
 93
        1
 72
     4
 94
        3
 73
     0
 74
     1
 95
       26
 96
       22
 40
0.0
 40
0.0
 40
0.0
 40
0.0
 40
1.0
 40
1.0
 40
1.0
 40
2.0
 40
2.0
 40
2.0
 40
3.0
 40
3.0
 40
3.0
 40
4.0
 40
4.0
 40
4.0
 40
5.0
 40
5.0
 40
5.0
 40
6.0
 40
6.0
 40
6.0
 40
7.0
 40
7.0
 40
7.0
 40
7.0
 10
86.98383786887905
 20
-142.2679741397802
 10
86.98383786887905
 20
-142.2679741397802
 10
86.98383786887905
 20
-141.1638210367577
 10
86.98383786887905
 20
-141.1638210367577
 10
86.98383786887905
 20
-141.1638210367577
 10
86.63140460073798
 20
-141.1638210367577
 10
86.63140460073798
 20
-141.1638210367577
 10
86.63140460073798
 20
-141.1638210367577
 10
86.63140460073798
 20
-141.0156819308919
 10
86.63140460073798
 20
-141.0156819308919
 10
86.98624943571872
 20
-141.0008680203053
 10
87.03585881070632
 20
-140.837915003853
 10
87.06755368917061
 20
-140.7235378337427
 10
87.06755368917061
 20
-140.7235378337427
 10
87.22361651465243
 20
-140.7235378337427
 10
87.22361651465243
 20
-140.7235378337427
 10
87.22361651465243
 20
-140.7235378337427
 10
87.22361651465243
 20
-142.2679741397802
 10
87.22361651465243
 20
-142.2679741397802
 10
87.22361651465243
 20
-142.2679741397802
 10
86.98383786887905
 20
-142.2679741397802
 10
86.98383786887905
 20
-142.2679741397802
 97
        0
 97
        0
 75
     2
 76
     1
 98
        0
  0
POLYLINE
  5
DD
330
D7
100
AcDbEntity
  8
_U+30EC_U+30A4_U+30E4_U+30FC 1
370
     0
100
AcDb2dPolyline
 66
     1
 10
0.0
 20
0.0
 30
0.0
  0
VERTEX
  5
DE
330
DD
100
AcDbEntity
  8
_U+30EC_U+30A4_U+30E4_U+30FC 1
370
     0
100
AcDbVertex
100
AcDb2dVertex
 10
88.64885251690029
 20
-141.9210530244156
 30
0.0
  0
VERTEX
  5
DF
330
DD
100
AcDbEntity
  8
_U+30EC_U+30A4_U+30E4_U+30FC 1
370
     0
100
AcDbVertex
100
AcDb2dVertex
 10
88.64885251690029
 20
-142.2679741397802
 30
0.0
  0
VERTEX
  5
E0
330
DD
100
AcDbEntity
  8
_U+30EC_U+30A4_U+30E4_U+30FC 1
370
     0
100
AcDbVertex
100
AcDb2dVertex
 10
88.4159640620974
 20
-142.2679741397802
 30
0.0
  0
VERTEX
  5
E1
330
DD
100
AcDbEntity
  8
_U+30EC_U+30A4_U+30E4_U+30FC 1
370
     0
100
AcDbVertex
100
AcDb2dVertex
 10
88.4159640620974
 20
-141.9210530244156
 30
0.0
  0
VERTEX
  5
E2
330
DD
100
AcDbEntity
  8
_U+30EC_U+30A4_U+30E4_U+30FC 1
370
     0
100
AcDbVertex
100
AcDb2dVertex
 10
87.71488713084906
 20
-141.9210530244156
 30
0.0
  0
VERTEX
  5
E3
330
DD
100
AcDbEntity
  8
_U+30EC_U+30A4_U+30E4_U+30FC 1
370
     0
100
AcDbVertex
100
AcDb2dVertex
 10
87.71488713084906
 20
-141.6967773083258
 30
0.0
  0
VERTEX
  5
E4
330
DD
100
AcDbEntity
  8
_U+30EC_U+30A4_U+30E4_U+30FC 1
370
     0
100
AcDbVertex
100
AcDb2dVertex
 10
88.4407687495912
 20
-140.7235378337427
 30
0.0
  0
VERTEX
  5
E5
330
DD
100
AcDbEntity
  8
_U+30EC_U+30A4_U+30E4_U+30FC 1
370
     0
100
AcDbVertex
100
AcDb2dVertex
 10
88.64885251690029
 20
-140.7235378337427
 30
0.0
  0
VERTEX
  5
E6
330
DD
100
AcDbEntity
  8
_U+30EC_U+30A4_U+30E4_U+30FC 1
370
     0
100
AcDbVertex
100
AcDb2dVertex
 10
88.64885251690029
 20
-141.7222710149167
 30
0.0
  0
VERTEX
  5
E7
330
DD
100
AcDbEntity
  8
_U+30EC_U+30A4_U+30E4_U+30FC 1
370
     0
100
AcDbVertex
100
AcDb2dVertex
 10
88.87037215660186
 20
-141.7222710149167
 30
0.0
  0
VERTEX
  5
E8
330
DD
100
AcDbEntity
  8
_U+30EC_U+30A4_U+30E4_U+30FC 1
370
     0
100
AcDbVertex
100
AcDb2dVertex
 10
88.87037215660186
 20
-141.9210530244156
 30
0.0
  0
VERTEX
  5
E9
330
DD
100
AcDbEntity
  8
_U+30EC_U+30A4_U+30E4_U+30FC 1
370
     0
100
AcDbVertex
100
AcDb2dVertex
 10
88.64885251690029
 20
-141.9210530244156
 30
0.0
  0
SEQEND
  5
EA
330
DD
100
AcDbEntity
  8
_U+30EC_U+30A4_U+30E4_U+30FC 1
370
     0
  0
POLYLINE
  5
EB
330
D7
100
AcDbEntity
  8
_U+30EC_U+30A4_U+30E4_U+30FC 1
370
     0
100
AcDb2dPolyline
 66
     1
 10
0.0
 20
0.0
 30
0.0
  0
VERTEX
  5
EC
330
EB
100
AcDbEntity
  8
_U+30EC_U+30A4_U+30E4_U+30FC 1
370
     0
100
AcDbVertex
100
AcDb2dVertex
 10
88.4159640620974
 20
-141.0663248345251
 30
0.0
  0
VERTEX
  5
ED
330
EB
100
AcDbEntity
  8
_U+30EC_U+30A4_U+30E4_U+30FC 1
370
     0
100
AcDbVertex
100
AcDb2dVertex
 10
87.92744952228898
 20
-141.7222710149167
 30
0.0
  0
VERTEX
  5
EE
330
EB
100
AcDbEntity
  8
_U+30EC_U+30A4_U+30E4_U+30FC 1
370
     0
100
AcDbVertex
100
AcDb2dVertex
 10
88.4159640620974
 20
-141.7222710149167
 30
0.0
  0
VERTEX
  5
EF
330
EB
100
AcDbEntity
  8
_U+30EC_U+30A4_U+30E4_U+30FC 1
370
     0
100
AcDbVertex
100
AcDb2dVertex
 10
88.4159640620974
 20
-141.0663248345251
 30
0.0
  0
SEQEND
  5
F0
330
EB
100
AcDbEntity
  8
_U+30EC_U+30A4_U+30E4_U+30FC 1
370
     0
  0
HATCH
  5
F1
330
D7
100
AcDbEntity
  8
_U+30EC_U+30A4_U+30E4_U+30FC 1
 62
     7
420
 16777215
100
AcDbHatch
 10
0.0
 20
0.0
 30
0.0
210
0.0
220
0.0
230
1.0
  2
SOLID
 70
     1
 71
     0
 91
        2
 92
        1
 93
       11
 72
     1
 10
88.64885251690029
 20
-141.9210530244156
 11
88.64885251690029
 21
-142.2679741397802
 72
     1
 10
88.64885251690029
 20
-142.2679741397802
 11
88.4159640620974
 21
-142.2679741397802
 72
     1
 10
88.4159640620974
 20
-142.2679741397802
 11
88.4159640620974
 21
-141.9210530244156
 72
     1
 10
88.4159640620974
 20
-141.9210530244156
 11
87.71488713084906
 21
-141.9210530244156
 72
     1
 10
87.71488713084906
 20
-141.9210530244156
 11
87.71488713084906
 21
-141.6967773083258
 72
     1
 10
87.71488713084906
 20
-141.6967773083258
 11
88.4407687495912
 21
-140.7235378337427
 72
     1
 10
88.4407687495912
 20
-140.7235378337427
 11
88.64885251690029
 21
-140.7235378337427
 72
     1
 10
88.64885251690029
 20
-140.7235378337427
 11
88.64885251690029
 21
-141.7222710149167
 72
     1
 10
88.64885251690029
 20
-141.7222710149167
 11
88.87037215660186
 21
-141.7222710149167
 72
     1
 10
88.87037215660186
 20
-141.7222710149167
 11
88.87037215660186
 21
-141.9210530244156
 72
     1
 10
88.87037215660186
 20
-141.9210530244156
 11
88.64885251690029
 21
-141.9210530244156
 97
        0
 92
        1
 93
        3
 72
     1
 10
88.4159640620974
 20
-141.0663248345251
 11
87.92744952228898
 21
-141.7222710149167
 72
     1
 10
87.92744952228898
 20
-141.7222710149167
 11
88.4159640620974
 21
-141.7222710149167
 72
     1
 10
88.4159640620974
 20
-141.7222710149167
 11
88.4159640620974
 21
-141.0663248345251
 97
        0
 75
     2
 76
     1
 98
        0
  0
ENDBLK
  5
DA
330
D7
100
AcDbEntity
  8
0
100
AcDbBlockEnd
  0
BLOCK
  5
102
330
100
100
AcDbEntity
  8
0
100
AcDbBlockBegin
  2
block 5
 70
     0
 10
0.0
 20
0.0
 30
0.0
  3
block 5
  1

  0
SPLINE
  5
104
330
100
100
AcDbEntity
  8
_U+30EC_U+30A4_U+30E4_U+30FC 1
370
     0
100
AcDbSpline
210
0.0
220
0.0
230
1.0
 70
    11
 71
     3
 72
    32
 73
    28
 74
     0
 42
0.0000000001
 43
0.0000000001
 12
1.0
 22
0.0
 32
0.0
 13
1.0
 23
0.0
 33
0.0
 40
0.0
 40
0.0
 40
0.0
 40
0.0
 40
1.0
 40
1.0
 40
1.0
 40
2.0
 40
2.0
 40
2.0
 40
3.0
 40
3.0
 40
3.0
 40
4.0
 40
4.0
 40
4.0
 40
5.0
 40
5.0
 40
5.0
 40
6.0
 40
6.0
 40
6.0
 40
7.0
 40
7.0
 40
7.0
 40
8.0
 40
8.0
 40
8.0
 40
9.0
 40
9.0
 40
9.0
 40
9.0
 10
84.76933049096044
 20
-115.2987331525989
 30
0.0
 10
84.21777070377195
 20
-115.2987331525989
 30
0.0
 10
84.2088134555103
 20
-114.7447617985708
 30
0.0
 10
84.2088134555103
 20
-114.5308213689367
 30
0.0
 10
84.2088134555103
 20
-114.3003444809735
 30
0.0
 10
84.22913951887327
 20
-113.6530110392951
 30
0.0
 10
84.81032712723493
 20
-113.6530110392951
 30
0.0
 10
84.99567326434136
 20
-113.6530110392951
 30
0.0
 10
85.25784503076888
 20
-113.7229464776457
 30
0.0
 10
85.29849715749482
 20
-114.0550536824237
 30
0.0
 10
85.29849715749482
 20
-114.0550536824237
 30
0.0
 10
85.07008732682276
 20
-114.0550536824237
 30
0.0
 10
85.07008732682276
 20
-114.0550536824237
 30
0.0
 10
85.05871851172144
 20
-113.9978650973686
 30
0.0
 10
85.02495657596599
 20
-113.8497259915029
 30
0.0
 10
84.80791556039524
 20
-113.8497259915029
 30
0.0
 10
84.49578990943161
 20
-113.8497259915029
 30
0.0
 10
84.45307072541452
 20
-114.1776990816986
 30
0.0
 10
84.43929034347352
 20
-114.382682263071
 30
0.0
 10
84.53885360299724
 20
-114.3044785955558
 30
0.0
 10
84.61120060818749
 20
-114.2452229532095
 30
0.0
 10
84.8058485031041
 20
-114.2452229532095
 30
0.0
 10
84.99774032163252
 20
-114.2452229532095
 30
0.0
 10
85.32123478769748
 20
-114.3533989514464
 30
0.0
 10
85.32123478769748
 20
-114.7595757091573
 30
0.0
 10
85.32123478769748
 20
-115.07893606064
 30
0.0
 10
85.10867239625756
 20
-115.2987331525989
 30
0.0
 10
84.76933049096044
 20
-115.2987331525989
 30
0.0
  0
SPLINE
  5
105
330
100
100
AcDbEntity
  8
_U+30EC_U+30A4_U+30E4_U+30FC 1
370
     0
100
AcDbSpline
210
0.0
220
0.0
230
1.0
 70
    11
 71
     3
 72
    17
 73
    13
 74
     0
 42
0.0000000001
 43
0.0000000001
 12
1.0
 22
0.0
 32
0.0
 13
1.0
 23
0.0
 33
0.0
 40
0.0
 40
0.0
 40
0.0
 40
0.0
 40
1.0
 40
1.0
 40
1.0
 40
2.0
 40
2.0
 40
2.0
 40
3.0
 40
3.0
 40
3.0
 40
4.0
 40
4.0
 40
4.0
 40
4.0
 10
84.78758949703227
 20
-114.4398708481261
 30
0.0
 10
84.50715872453294
 20
-114.4398708481261
 30
0.0
 10
84.46650659780698
 20
-114.6513997109205
 30
0.0
 10
84.46650659780698
 20
-114.7678439383219
 30
0.0
 10
84.46650659780698
 20
-114.9435438080697
 30
0.0
 10
84.56813691462186
 20
-115.106496824522
 30
0.0
 10
84.76485186682963
 20
-115.106496824522
 30
0.0
 10
84.89369843797797
 20
-115.106496824522
 30
0.0
 10
85.08145614192408
 20
-115.0472411821757
 30
0.0
 10
85.08145614192408
 20
-114.7616427664485
 30
0.0
 10
85.08145614192408
 20
-114.5373670503587
 30
0.0
 10
84.93228350741276
 20
-114.4398708481261
 30
0.0
 10
84.78758949703227
 20
-114.4398708481261
 30
0.0
  0
HATCH
  5
106
330
100
100
AcDbEntity
  8
_U+30EC_U+30A4_U+30E4_U+30FC 1
 62
     7
420
 16777215
100
AcDbHatch
 10
0.0
 20
0.0
 30
0.0
210
0.0
220
0.0
230
1.0
  2
SOLID
 70
     1
 71
     0
 91
        2
 92
        1
 93
        1
 72
     4
 94
        3
 73
     0
 74
     1
 95
       32
 96
       28
 40
0.0
 40
0.0
 40
0.0
 40
0.0
 40
1.0
 40
1.0
 40
1.0
 40
2.0
 40
2.0
 40
2.0
 40
3.0
 40
3.0
 40
3.0
 40
4.0
 40
4.0
 40
4.0
 40
5.0
 40
5.0
 40
5.0
 40
6.0
 40
6.0
 40
6.0
 40
7.0
 40
7.0
 40
7.0
 40
8.0
 40
8.0
 40
8.0
 40
9.0
 40
9.0
 40
9.0
 40
9.0
 10
84.76933049096044
 20
-115.2987331525989
 10
84.21777070377195
 20
-115.2987331525989
 10
84.2088134555103
 20
-114.7447617985708
 10
84.2088134555103
 20
-114.5308213689367
 10
84.2088134555103
 20
-114.3003444809735
 10
84.22913951887327
 20
-113.6530110392951
 10
84.81032712723493
 20
-113.6530110392951
 10
84.99567326434136
 20
-113.6530110392951
 10
85.25784503076888
 20
-113.7229464776457
 10
85.29849715749482
 20
-114.0550536824237
 10
85.29849715749482
 20
-114.0550536824237
 10
85.07008732682276
 20
-114.0550536824237
 10
85.07008732682276
 20
-114.0550536824237
 10
85.05871851172144
 20
-113.9978650973686
 10
85.02495657596599
 20
-113.8497259915029
 10
84.80791556039524
 20
-113.8497259915029
 10
84.49578990943161
 20
-113.8497259915029
 10
84.45307072541452
 20
-114.1776990816986
 10
84.43929034347352
 20
-114.382682263071
 10
84.53885360299724
 20
-114.3044785955558
 10
84.61120060818749
 20
-114.2452229532095
 10
84.8058485031041
 20
-114.2452229532095
 10
84.99774032163252
 20
-114.2452229532095
 10
85.32123478769748
 20
-114.3533989514464
 10
85.32123478769748
 20
-114.7595757091573
 10
85.32123478769748
 20
-115.07893606064
 10
85.10867239625756
 20
-115.2987331525989
 10
84.76933049096044
 20
-115.2987331525989
 97
        0
 97
        0
 92
        1
 93
        1
 72
     4
 94
        3
 73
     0
 74
     1
 95
       17
 96
       13
 40
0.0
 40
0.0
 40
0.0
 40
0.0
 40
1.0
 40
1.0
 40
1.0
 40
2.0
 40
2.0
 40
2.0
 40
3.0
 40
3.0
 40
3.0
 40
4.0
 40
4.0
 40
4.0
 40
4.0
 10
84.78758949703227
 20
-114.4398708481261
 10
84.50715872453294
 20
-114.4398708481261
 10
84.46650659780698
 20
-114.6513997109205
 10
84.46650659780698
 20
-114.7678439383219
 10
84.46650659780698
 20
-114.9435438080697
 10
84.56813691462186
 20
-115.106496824522
 10
84.76485186682963
 20
-115.106496824522
 10
84.89369843797797
 20
-115.106496824522
 10
85.08145614192408
 20
-115.0472411821757
 10
85.08145614192408
 20
-114.7616427664485
 10
85.08145614192408
 20
-114.5373670503587
 10
84.93228350741276
 20
-114.4398708481261
 10
84.78758949703227
 20
-114.4398708481261
 97
        0
 97
        0
 75
     2
 76
     1
 98
        0
  0
ENDBLK
  5
103
330
100
100
AcDbEntity
  8
0
100
AcDbBlockEnd
  0
BLOCK
  5
115
330
113
100
AcDbEntity
  8
0
100
AcDbBlockBegin
  2
block 6
 70
     0
 10
0.0
 20
0.0
 30
0.0
  3
block 6
  1

  0
SPLINE
  5
117
330
113
100
AcDbEntity
  8
_U+30EC_U+30A4_U+30E4_U+30FC 1
370
     0
100
AcDbSpline
210
0.0
220
0.0
230
1.0
 70
    11
 71
     3
 72
    44
 73
    40
 74
     0
 42
0.0000000001
 43
0.0000000001
 12
1.0
 22
0.0
 32
0.0
 13
1.0
 23
0.0
 33
0.0
 40
0.0
 40
0.0
 40
0.0
 40
0.0
 40
1.0
 40
1.0
 40
1.0
 40
2.0
 40
2.0
 40
2.0
 40
3.0
 40
3.0
 40
3.0
 40
4.0
 40
4.0
 40
4.0
 40
5.0
 40
5.0
 40
5.0
 40
6.0
 40
6.0
 40
6.0
 40
7.0
 40
7.0
 40
7.0
 40
8.0
 40
8.0
 40
8.0
 40
9.0
 40
9.0
 40
9.0
 40
10.0
 40
10.0
 40
10.0
 40
11.0
 40
11.0
 40
11.0
 40
12.0
 40
12.0
 40
12.0
 40
13.0
 40
13.0
 40
13.0
 40
13.0
 10
75.48703747027756
 20
-128.9337320641207
 30
0.0
 10
75.6456841173733
 20
-129.1666205189236
 30
0.0
 10
75.71975367030618
 20
-129.2661837784474
 30
0.0
 10
75.86358640681536
 20
-129.3182047202746
 30
0.0
 10
75.86358640681536
 20
-129.3182047202746
 30
0.0
 10
75.86358640681536
 20
-128.4862141605868
 30
0.0
 10
75.86358640681536
 20
-128.4862141605868
 30
0.0
 10
75.86358640681536
 20
-128.4862141605868
 30
0.0
 10
76.06874184296198
 20
-128.4862141605868
 30
0.0
 10
76.06874184296198
 20
-128.4862141605868
 30
0.0
 10
76.06874184296198
 20
-128.4862141605868
 30
0.0
 10
76.06874184296198
 20
-129.584855110833
 30
0.0
 10
76.06874184296198
 20
-129.584855110833
 30
0.0
 10
75.71114093159305
 20
-129.5510931750775
 30
0.0
 10
75.63293726407788
 20
-129.4808132271784
 30
0.0
 10
75.33459199505525
 20
-129.0694688262396
 30
0.0
 10
75.13580998555634
 20
-128.7959282447108
 30
0.0
 10
75.06811385927116
 20
-128.7258205515859
 30
0.0
 10
74.9306545494097
 20
-128.7258205515859
 30
0.0
 10
74.81214326471711
 20
-128.7258205515859
 30
0.0
 10
74.6808851267291
 20
-128.8028184356812
 30
0.0
 10
74.6808851267291
 20
-129.0129692602815
 30
0.0
 10
74.6808851267291
 20
-129.2909884659412
 30
0.0
 10
74.91153426946657
 20
-129.2999457142028
 30
0.0
 10
75.027978496868
 20
-129.3044243383336
 30
0.0
 10
75.027978496868
 20
-129.3044243383336
 30
0.0
 10
75.027978496868
 20
-129.544202984107
 30
0.0
 10
75.027978496868
 20
-129.544202984107
 30
0.0
 10
74.90102672823656
 20
-129.5352457358454
 30
0.0
 10
74.78888887019167
 20
-129.523876920744
 30
0.0
 10
74.67037758549908
 20
-129.4380940431613
 30
0.0
 10
74.50966388111217
 20
-129.3202717775658
 30
0.0
 10
74.47572969058245
 20
-129.1214897680669
 30
0.0
 10
74.47572969058245
 20
-128.9971218210493
 30
0.0
 10
74.47572969058245
 20
-128.7010158640921
 30
0.0
 10
74.65987004426907
 20
-128.4794962243905
 30
0.0
 10
74.93272160670085
 20
-128.4794962243905
 30
0.0
 10
75.16113143737292
 20
-128.4794962243905
 30
0.0
 10
75.26069469689664
 20
-128.6036919166338
 30
0.0
 10
75.48703747027756
 20
-128.9337320641207
 30
0.0
  0
HATCH
  5
118
330
113
100
AcDbEntity
  8
_U+30EC_U+30A4_U+30E4_U+30FC 1
 62
     7
420
 16777215
100
AcDbHatch
 10
0.0
 20
0.0
 30
0.0
210
0.0
220
0.0
230
1.0
  2
SOLID
 70
     1
 71
     0
 91
        1
 92
        1
 93
        1
 72
     4
 94
        3
 73
     0
 74
     1
 95
       44
 96
       40
 40
0.0
 40
0.0
 40
0.0
 40
0.0
 40
1.0
 40
1.0
 40
1.0
 40
2.0
 40
2.0
 40
2.0
 40
3.0
 40
3.0
 40
3.0
 40
4.0
 40
4.0
 40
4.0
 40
5.0
 40
5.0
 40
5.0
 40
6.0
 40
6.0
 40
6.0
 40
7.0
 40
7.0
 40
7.0
 40
8.0
 40
8.0
 40
8.0
 40
9.0
 40
9.0
 40
9.0
 40
10.0
 40
10.0
 40
10.0
 40
11.0
 40
11.0
 40
11.0
 40
12.0
 40
12.0
 40
12.0
 40
13.0
 40
13.0
 40
13.0
 40
13.0
 10
75.48703747027756
 20
-128.9337320641207
 10
75.6456841173733
 20
-129.1666205189236
 10
75.71975367030618
 20
-129.2661837784474
 10
75.86358640681536
 20
-129.3182047202746
 10
75.86358640681536
 20
-129.3182047202746
 10
75.86358640681536
 20
-128.4862141605868
 10
75.86358640681536
 20
-128.4862141605868
 10
75.86358640681536
 20
-128.4862141605868
 10
76.06874184296198
 20
-128.4862141605868
 10
76.06874184296198
 20
-128.4862141605868
 10
76.06874184296198
 20
-128.4862141605868
 10
76.06874184296198
 20
-129.584855110833
 10
76.06874184296198
 20
-129.584855110833
 10
75.71114093159305
 20
-129.5510931750775
 10
75.63293726407788
 20
-129.4808132271784
 10
75.33459199505525
 20
-129.0694688262396
 10
75.13580998555634
 20
-128.7959282447108
 10
75.06811385927116
 20
-128.7258205515859
 10
74.9306545494097
 20
-128.7258205515859
 10
74.81214326471711
 20
-128.7258205515859
 10
74.6808851267291
 20
-128.8028184356812
 10
74.6808851267291
 20
-129.0129692602815
 10
74.6808851267291
 20
-129.2909884659412
 10
74.91153426946657
 20
-129.2999457142028
 10
75.027978496868
 20
-129.3044243383336
 10
75.027978496868
 20
-129.3044243383336
 10
75.027978496868
 20
-129.544202984107
 10
75.027978496868
 20
-129.544202984107
 10
74.90102672823656
 20
-129.5352457358454
 10
74.78888887019167
 20
-129.523876920744
 10
74.67037758549908
 20
-129.4380940431613
 10
74.50966388111217
 20
-129.3202717775658
 10
74.47572969058245
 20
-129.1214897680669
 10
74.47572969058245
 20
-128.9971218210493
 10
74.47572969058245
 20
-128.7010158640921
 10
74.65987004426907
 20
-128.4794962243905
 10
74.93272160670085
 20
-128.4794962243905
 10
75.16113143737292
 20
-128.4794962243905
 10
75.26069469689664
 20
-128.6036919166338
 10
75.48703747027756
 20
-128.9337320641207
 97
        0
 97
        0
 75
     2
 76
     1
 98
        0
  0
SPLINE
  5
119
330
113
100
AcDbEntity
  8
_U+30EC_U+30A4_U+30E4_U+30FC 1
370
     0
100
AcDbSpline
210
0.0
220
0.0
230
1.0
 70
    11
 71
     3
 72
    26
 73
    22
 74
     0
 42
0.0000000001
 43
0.0000000001
 12
1.0
 22
0.0
 32
0.0
 13
1.0
 23
0.0
 33
0.0
 40
0.0
 40
0.0
 40
0.0
 40
0.0
 40
1.0
 40
1.0
 40
1.0
 40
2.0
 40
2.0
 40
2.0
 40
3.0
 40
3.0
 40
3.0
 40
4.0
 40
4.0
 40
4.0
 40
5.0
 40
5.0
 40
5.0
 40
6.0
 40
6.0
 40
6.0
 40
7.0
 40
7.0
 40
7.0
 40
7.0
 10
76.06874184296198
 20
-127.827511903807
 30
0.0
 10
76.06874184296198
 20
-127.827511903807
 30
0.0
 10
74.96441648516515
 20
-127.827511903807
 30
0.0
 10
74.96441648516515
 20
-127.827511903807
 30
0.0
 10
74.96441648516515
 20
-127.827511903807
 30
0.0
 10
74.96441648516515
 20
-128.1802896814966
 30
0.0
 10
74.96441648516515
 20
-128.1802896814966
 30
0.0
 10
74.96441648516515
 20
-128.1802896814966
 30
0.0
 10
74.81627737929941
 20
-128.1802896814966
 30
0.0
 10
74.81627737929941
 20
-128.1802896814966
 30
0.0
 10
74.8016357234871
 20
-127.8252725917416
 30
0.0
 10
74.63868270703477
 20
-127.7754909619797
 30
0.0
 10
74.52447779169874
 20
-127.7437960835154
 30
0.0
 10
74.52447779169874
 20
-127.7437960835154
 30
0.0
 10
74.52447779169874
 20
-127.5879055128079
 30
0.0
 10
74.52447779169874
 20
-127.5879055128079
 30
0.0
 10
74.52447779169874
 20
-127.5879055128079
 30
0.0
 10
76.06874184296198
 20
-127.5879055128079
 30
0.0
 10
76.06874184296198
 20
-127.5879055128079
 30
0.0
 10
76.06874184296198
 20
-127.5879055128079
 30
0.0
 10
76.06874184296198
 20
-127.827511903807
 30
0.0
 10
76.06874184296198
 20
-127.827511903807
 30
0.0
  0
HATCH
  5
11A
330
113
100
AcDbEntity
  8
_U+30EC_U+30A4_U+30E4_U+30FC 1
 62
     7
420
 16777215
100
AcDbHatch
 10
0.0
 20
0.0
 30
0.0
210
0.0
220
0.0
230
1.0
  2
SOLID
 70
     1
 71
     0
 91
        1
 92
        1
 93
        1
 72
     4
 94
        3
 73
     0
 74
     1
 95
       26
 96
       22
 40
0.0
 40
0.0
 40
0.0
 40
0.0
 40
1.0
 40
1.0
 40
1.0
 40
2.0
 40
2.0
 40
2.0
 40
3.0
 40
3.0
 40
3.0
 40
4.0
 40
4.0
 40
4.0
 40
5.0
 40
5.0
 40
5.0
 40
6.0
 40
6.0
 40
6.0
 40
7.0
 40
7.0
 40
7.0
 40
7.0
 10
76.06874184296198
 20
-127.827511903807
 10
76.06874184296198
 20
-127.827511903807
 10
74.96441648516515
 20
-127.827511903807
 10
74.96441648516515
 20
-127.827511903807
 10
74.96441648516515
 20
-127.827511903807
 10
74.96441648516515
 20
-128.1802896814966
 10
74.96441648516515
 20
-128.1802896814966
 10
74.96441648516515
 20
-128.1802896814966
 10
74.81627737929941
 20
-128.1802896814966
 10
74.81627737929941
 20
-128.1802896814966
 10
74.8016357234871
 20
-127.8252725917416
 10
74.63868270703477
 20
-127.7754909619797
 10
74.52447779169874
 20
-127.7437960835154
 10
74.52447779169874
 20
-127.7437960835154
 10
74.52447779169874
 20
-127.5879055128079
 10
74.52447779169874
 20
-127.5879055128079
 10
74.52447779169874
 20
-127.5879055128079
 10
76.06874184296198
 20
-127.5879055128079
 10
76.06874184296198
 20
-127.5879055128079
 10
76.06874184296198
 20
-127.5879055128079
 10
76.06874184296198
 20
-127.827511903807
 10
76.06874184296198
 20
-127.827511903807
 97
        0
 97
        0
 75
     2
 76
     1
 98
        0
  0
ENDBLK
  5
116
330
113
100
AcDbEntity
  8
0
100
AcDbBlockEnd
  0
BLOCK
  5
12E
330
12C
100
AcDbEntity
  8
0
100
AcDbBlockBegin
  2
block 7
 70
     0
 10
0.0
 20
0.0
 30
0.0
  3
block 7
  1

  0
SPLINE
  5
130
330
12C
100
AcDbEntity
  8
_U+30EC_U+30A4_U+30E4_U+30FC 1
370
     0
100
AcDbSpline
210
0.0
220
0.0
230
1.0
 70
    11
 71
     3
 72
    26
 73
    22
 74
     0
 42
0.0000000001
 43
0.0000000001
 12
1.0
 22
0.0
 32
0.0
 13
1.0
 23
0.0
 33
0.0
 40
0.0
 40
0.0
 40
0.0
 40
0.0
 40
1.0
 40
1.0
 40
1.0
 40
2.0
 40
2.0
 40
2.0
 40
3.0
 40
3.0
 40
3.0
 40
4.0
 40
4.0
 40
4.0
 40
5.0
 40
5.0
 40
5.0
 40
6.0
 40
6.0
 40
6.0
 40
7.0
 40
7.0
 40
7.0
 40
7.0
 10
96.48127710261579
 20
-131.8972032005327
 30
0.0
 10
96.48127710261579
 20
-131.8972032005327
 30
0.0
 10
95.37746850914175
 20
-131.8972032005327
 30
0.0
 10
95.37746850914175
 20
-131.8972032005327
 30
0.0
 10
95.37746850914175
 20
-131.8972032005327
 30
0.0
 10
95.37746850914175
 20
-132.2496364686737
 30
0.0
 10
95.37746850914175
 20
-132.2496364686737
 30
0.0
 10
95.37746850914175
 20
-132.2496364686737
 30
0.0
 10
95.22932940327601
 20
-132.2496364686737
 30
0.0
 10
95.22932940327601
 20
-132.2496364686737
 30
0.0
 10
95.2141709831409
 20
-131.894791633693
 30
0.0
 10
95.05156247623711
 20
-131.8451822587054
 30
0.0
 10
94.93718530612682
 20
-131.8134873802411
 30
0.0
 10
94.93718530612682
 20
-131.8134873802411
 30
0.0
 10
94.93718530612682
 20
-131.6574245547593
 30
0.0
 10
94.93718530612682
 20
-131.6574245547593
 30
0.0
 10
94.93718530612682
 20
-131.6574245547593
 30
0.0
 10
96.48127710261579
 20
-131.6574245547593
 30
0.0
 10
96.48127710261579
 20
-131.6574245547593
 30
0.0
 10
96.48127710261579
 20
-131.6574245547593
 30
0.0
 10
96.48127710261579
 20
-131.8972032005327
 30
0.0
 10
96.48127710261579
 20
-131.8972032005327
 30
0.0
  0
HATCH
  5
131
330
12C
100
AcDbEntity
  8
_U+30EC_U+30A4_U+30E4_U+30FC 1
 62
     7
420
 16777215
100
AcDbHatch
 10
0.0
 20
0.0
 30
0.0
210
0.0
220
0.0
230
1.0
  2
SOLID
 70
     1
 71
     0
 91
        1
 92
        1
 93
        1
 72
     4
 94
        3
 73
     0
 74
     1
 95
       26
 96
       22
 40
0.0
 40
0.0
 40
0.0
 40
0.0
 40
1.0
 40
1.0
 40
1.0
 40
2.0
 40
2.0
 40
2.0
 40
3.0
 40
3.0
 40
3.0
 40
4.0
 40
4.0
 40
4.0
 40
5.0
 40
5.0
 40
5.0
 40
6.0
 40
6.0
 40
6.0
 40
7.0
 40
7.0
 40
7.0
 40
7.0
 10
96.48127710261579
 20
-131.8972032005327
 10
96.48127710261579
 20
-131.8972032005327
 10
95.37746850914175
 20
-131.8972032005327
 10
95.37746850914175
 20
-131.8972032005327
 10
95.37746850914175
 20
-131.8972032005327
 10
95.37746850914175
 20
-132.2496364686737
 10
95.37746850914175
 20
-132.2496364686737
 10
95.37746850914175
 20
-132.2496364686737
 10
95.22932940327601
 20
-132.2496364686737
 10
95.22932940327601
 20
-132.2496364686737
 10
95.2141709831409
 20
-131.894791633693
 10
95.05156247623711
 20
-131.8451822587054
 10
94.93718530612682
 20
-131.8134873802411
 10
94.93718530612682
 20
-131.8134873802411
 10
94.93718530612682
 20
-131.6574245547593
 10
94.93718530612682
 20
-131.6574245547593
 10
94.93718530612682
 20
-131.6574245547593
 10
96.48127710261579
 20
-131.6574245547593
 10
96.48127710261579
 20
-131.6574245547593
 10
96.48127710261579
 20
-131.6574245547593
 10
96.48127710261579
 20
-131.8972032005327
 10
96.48127710261579
 20
-131.8972032005327
 97
        0
 97
        0
 75
     2
 76
     1
 98
        0
  0
SPLINE
  5
132
330
12C
100
AcDbEntity
  8
_U+30EC_U+30A4_U+30E4_U+30FC 1
370
     0
100
AcDbSpline
210
0.0
220
0.0
230
1.0
 70
    11
 71
     3
 72
    62
 73
    58
 74
     0
 42
0.0000000001
 43
0.0000000001
 12
1.0
 22
0.0
 32
0.0
 13
1.0
 23
0.0
 33
0.0
 40
0.0
 40
0.0
 40
0.0
 40
0.0
 40
1.0
 40
1.0
 40
1.0
 40
2.0
 40
2.0
 40
2.0
 40
3.0
 40
3.0
 40
3.0
 40
4.0
 40
4.0
 40
4.0
 40
5.0
 40
5.0
 40
5.0
 40
6.0
 40
6.0
 40
6.0
 40
7.0
 40
7.0
 40
7.0
 40
8.0
 40
8.0
 40
8.0
 40
9.0
 40
9.0
 40
9.0
 40
10.0
 40
10.0
 40
10.0
 40
11.0
 40
11.0
 40
11.0
 40
12.0
 40
12.0
 40
12.0
 40
13.0
 40
13.0
 40
13.0
 40
14.0
 40
14.0
 40
14.0
 40
15.0
 40
15.0
 40
15.0
 40
16.0
 40
16.0
 40
16.0
 40
17.0
 40
17.0
 40
17.0
 40
18.0
 40
18.0
 40
18.0
 40
19.0
 40
19.0
 40
19.0
 40
19.0
 10
96.5322645157975
 20
-130.5963351453023
 30
0.0
 10
96.5322645157975
 20
-130.6979654621172
 30
0.0
 10
96.51090492378894
 20
-130.9308539169201
 30
0.0
 10
96.32486976758545
 20
-131.0641791121992
 30
0.0
 10
96.21255965476631
 20
-131.14341630836
 30
0.0
 10
96.11334090479112
 20
-131.1478949324908
 30
0.0
 10
96.02859155585396
 20
-131.1523735566216
 30
0.0
 10
96.02859155585396
 20
-131.1523735566216
 30
0.0
 10
96.02859155585396
 20
-130.9174180445276
 30
0.0
 10
96.02859155585396
 20
-130.9174180445276
 30
0.0
 10
96.10300561833536
 20
-130.9150064776879
 30
0.0
 10
96.33727211133235
 20
-130.9036376625866
 30
0.0
 10
96.33727211133235
 20
-130.6008137694331
 30
0.0
 10
96.33727211133235
 20
-130.453708192213
 30
0.0
 10
96.26768118253031
 20
-130.2910996853092
 30
0.0
 10
96.03961586140677
 20
-130.2910996853092
 30
0.0
 10
95.92317163400533
 20
-130.2910996853092
 30
0.0
 10
95.87425127811477
 20
-130.3317518120351
 30
0.0
 10
95.84255639965048
 20
-130.3658582573391
 30
0.0
 10
95.76883135626613
 20
-130.4447509439513
 30
0.0
 10
95.75573999342218
 20
-130.5691188909688
 30
0.0
 10
95.75573999342218
 20
-130.6280300237666
 30
0.0
 10
95.75573999342218
 20
-130.6483560871296
 30
0.0
 10
95.75780705071332
 20
-130.6865966470158
 30
0.0
 10
95.76194116529562
 20
-130.716224468189
 30
0.0
 10
95.76194116529562
 20
-130.716224468189
 30
0.0
 10
95.56763777992754
 20
-130.716224468189
 30
0.0
 10
95.56763777992754
 20
-130.716224468189
 30
0.0
 10
95.573838951801
 20
-130.6755723414631
 30
0.0
 10
95.57590600909214
 20
-130.6300970810578
 30
0.0
 10
95.57590600909214
 20
-130.6235513996358
 30
0.0
 10
95.57590600909214
 20
-130.5532714517367
 30
0.0
 10
95.55454641708359
 20
-130.3407090602968
 30
0.0
 10
95.31821286679545
 20
-130.3407090602968
 30
0.0
 10
95.14044593975656
 20
-130.3407090602968
 30
0.0
 10
95.08532441199256
 20
-130.4809244465465
 30
0.0
 10
95.08532441199256
 20
-130.5984022025935
 30
0.0
 10
95.08532441199256
 20
-130.8812445419325
 30
0.0
 10
95.31821286679545
 20
-130.8902017901941
 30
0.0
 10
95.38987085288865
 20
-130.8946804143249
 30
0.0
 10
95.38987085288865
 20
-130.8946804143249
 30
0.0
 10
95.38987085288865
 20
-131.1117214298957
 30
0.0
 10
95.38987085288865
 20
-131.1117214298957
 30
0.0
 10
95.2651583963226
 20
-131.102764181634
 30
0.0
 10
94.88826495023628
 20
-131.0734808700094
 30
0.0
 10
94.88826495023628
 20
-130.584966330201
 30
0.0
 10
94.88826495023628
 20
-130.3451876844276
 30
0.0
 10
95.01573348319052
 20
-130.0874945421309
 30
0.0
 10
95.31132267582495
 20
-130.0874945421309
 30
0.0
 10
95.4980468511255
 20
-130.0874945421309
 30
0.0
 10
95.58004012367444
 20
-130.1894693684943
 30
0.0
 10
95.64136282331188
 20
-130.29557830944
 30
0.0
 10
95.66892358719389
 20
-130.2301214952203
 30
0.0
 10
95.74953882154873
 20
-130.0354736003036
 30
0.0
 10
96.02652449856282
 20
-130.0354736003036
 30
0.0
 10
96.36483287521435
 20
-130.0354736003036
 30
0.0
 10
96.5322645157975
 20
-130.3000569335708
 30
0.0
 10
96.5322645157975
 20
-130.5963351453023
 30
0.0
  0
HATCH
  5
133
330
12C
100
AcDbEntity
  8
_U+30EC_U+30A4_U+30E4_U+30FC 1
 62
     7
420
 16777215
100
AcDbHatch
 10
0.0
 20
0.0
 30
0.0
210
0.0
220
0.0
230
1.0
  2
SOLID
 70
     1
 71
     0
 91
        1
 92
        1
 93
        1
 72
     4
 94
        3
 73
     0
 74
     1
 95
       62
 96
       58
 40
0.0
 40
0.0
 40
0.0
 40
0.0
 40
1.0
 40
1.0
 40
1.0
 40
2.0
 40
2.0
 40
2.0
 40
3.0
 40
3.0
 40
3.0
 40
4.0
 40
4.0
 40
4.0
 40
5.0
 40
5.0
 40
5.0
 40
6.0
 40
6.0
 40
6.0
 40
7.0
 40
7.0
 40
7.0
 40
8.0
 40
8.0
 40
8.0
 40
9.0
 40
9.0
 40
9.0
 40
10.0
 40
10.0
 40
10.0
 40
11.0
 40
11.0
 40
11.0
 40
12.0
 40
12.0
 40
12.0
 40
13.0
 40
13.0
 40
13.0
 40
14.0
 40
14.0
 40
14.0
 40
15.0
 40
15.0
 40
15.0
 40
16.0
 40
16.0
 40
16.0
 40
17.0
 40
17.0
 40
17.0
 40
18.0
 40
18.0
 40
18.0
 40
19.0
 40
19.0
 40
19.0
 40
19.0
 10
96.5322645157975
 20
-130.5963351453023
 10
96.5322645157975
 20
-130.6979654621172
 10
96.51090492378894
 20
-130.9308539169201
 10
96.32486976758545
 20
-131.0641791121992
 10
96.21255965476631
 20
-131.14341630836
 10
96.11334090479112
 20
-131.1478949324908
 10
96.02859155585396
 20
-131.1523735566216
 10
96.02859155585396
 20
-131.1523735566216
 10
96.02859155585396
 20
-130.9174180445276
 10
96.02859155585396
 20
-130.9174180445276
 10
96.10300561833536
 20
-130.9150064776879
 10
96.33727211133235
 20
-130.9036376625866
 10
96.33727211133235
 20
-130.6008137694331
 10
96.33727211133235
 20
-130.453708192213
 10
96.26768118253031
 20
-130.2910996853092
 10
96.03961586140677
 20
-130.2910996853092
 10
95.92317163400533
 20
-130.2910996853092
 10
95.87425127811477
 20
-130.3317518120351
 10
95.84255639965048
 20
-130.3658582573391
 10
95.76883135626613
 20
-130.4447509439513
 10
95.75573999342218
 20
-130.5691188909688
 10
95.75573999342218
 20
-130.6280300237666
 10
95.75573999342218
 20
-130.6483560871296
 10
95.75780705071332
 20
-130.6865966470158
 10
95.76194116529562
 20
-130.716224468189
 10
95.76194116529562
 20
-130.716224468189
 10
95.56763777992754
 20
-130.716224468189
 10
95.56763777992754
 20
-130.716224468189
 10
95.573838951801
 20
-130.6755723414631
 10
95.57590600909214
 20
-130.6300970810578
 10
95.57590600909214
 20
-130.6235513996358
 10
95.57590600909214
 20
-130.5532714517367
 10
95.55454641708359
 20
-130.3407090602968
 10
95.31821286679545
 20
-130.3407090602968
 10
95.14044593975656
 20
-130.3407090602968
 10
95.08532441199256
 20
-130.4809244465465
 10
95.08532441199256
 20
-130.5984022025935
 10
95.08532441199256
 20
-130.8812445419325
 10
95.31821286679545
 20
-130.8902017901941
 10
95.38987085288865
 20
-130.8946804143249
 10
95.38987085288865
 20
-130.8946804143249
 10
95.38987085288865
 20
-131.1117214298957
 10
95.38987085288865
 20
-131.1117214298957
 10
95.2651583963226
 20
-131.102764181634
 10
94.88826495023628
 20
-131.0734808700094
 10
94.88826495023628
 20
-130.584966330201
 10
94.88826495023628
 20
-130.3451876844276
 10
95.01573348319052
 20
-130.0874945421309
 10
95.31132267582495
 20
-130.0874945421309
 10
95.4980468511255
 20
-130.0874945421309
 10
95.58004012367444
 20
-130.1894693684943
 10
95.64136282331188
 20
-130.29557830944
 10
95.66892358719389
 20
-130.2301214952203
 10
95.74953882154873
 20
-130.0354736003036
 10
96.02652449856282
 20
-130.0354736003036
 10
96.36483287521435
 20
-130.0354736003036
 10
96.5322645157975
 20
-130.3000569335708
 10
96.5322645157975
 20
-130.5963351453023
 97
        0
 97
        0
 75
     2
 76
     1
 98
        0
  0
ENDBLK
  5
12F
330
12C
100
AcDbEntity
  8
0
100
AcDbBlockEnd
  0
BLOCK
  5
13E
330
13C
100
AcDbEntity
  8
0
100
AcDbBlockBegin
  2
block 8
 70
     0
 10
0.0
 20
0.0
 30
0.0
  3
block 8
  1

  0
SPLINE
  5
140
330
13C
100
AcDbEntity
  8
_U+30EC_U+30A4_U+30E4_U+30FC 1
370
     0
100
AcDbSpline
210
0.0
220
0.0
230
1.0
 70
    11
 71
     3
 72
    32
 73
    28
 74
     0
 42
0.0000000001
 43
0.0000000001
 12
1.0
 22
0.0
 32
0.0
 13
1.0
 23
0.0
 33
0.0
 40
0.0
 40
0.0
 40
0.0
 40
0.0
 40
1.0
 40
1.0
 40
1.0
 40
2.0
 40
2.0
 40
2.0
 40
3.0
 40
3.0
 40
3.0
 40
4.0
 40
4.0
 40
4.0
 40
5.0
 40
5.0
 40
5.0
 40
6.0
 40
6.0
 40
6.0
 40
7.0
 40
7.0
 40
7.0
 40
8.0
 40
8.0
 40
8.0
 40
9.0
 40
9.0
 40
9.0
 40
9.0
 10
96.5322645157975
 20
-120.9192341820098
 30
0.0
 10
96.5322645157975
 20
-121.4709662239725
 30
0.0
 10
95.97829316176932
 20
-121.4799234722342
 30
0.0
 10
95.76435273213531
 20
-121.4799234722342
 30
0.0
 10
95.53387584417209
 20
-121.4799234722342
 30
0.0
 10
94.88654240249365
 20
-121.4595974088712
 30
0.0
 10
94.88654240249365
 20
-120.8785820552838
 30
0.0
 10
94.88654240249365
 20
-120.6930636634031
 30
0.0
 10
94.95647784084422
 20
-120.4308918969756
 30
0.0
 10
95.2885850456223
 20
-120.3902397702497
 30
0.0
 10
95.2885850456223
 20
-120.3902397702497
 30
0.0
 10
95.2885850456223
 20
-120.6184773461475
 30
0.0
 10
95.2885850456223
 20
-120.6184773461475
 30
0.0
 10
95.23139646056715
 20
-120.6298461612488
 30
0.0
 10
95.08325735470142
 20
-120.6637803517785
 30
0.0
 10
95.08325735470142
 20
-120.8808213673492
 30
0.0
 10
95.08325735470142
 20
-121.1927747635386
 30
0.0
 10
95.4112304448972
 20
-121.23566620233
 30
0.0
 10
95.61621362626956
 20
-121.2492743294967
 30
0.0
 10
95.53800995875439
 20
-121.1498833247473
 30
0.0
 10
95.4787543164081
 20
-121.077536319557
 30
0.0
 10
95.4787543164081
 20
-120.8830606794147
 30
0.0
 10
95.4787543164081
 20
-120.6908243513377
 30
0.0
 10
95.58693031464495
 20
-120.367502140047
 30
0.0
 10
95.9931070723559
 20
-120.367502140047
 30
0.0
 10
96.31246742383856
 20
-120.367502140047
 30
0.0
 10
96.5322645157975
 20
-120.5800645314869
 30
0.0
 10
96.5322645157975
 20
-120.9192341820098
 30
0.0
  0
SPLINE
  5
141
330
13C
100
AcDbEntity
  8
_U+30EC_U+30A4_U+30E4_U+30FC 1
370
     0
100
AcDbSpline
210
0.0
220
0.0
230
1.0
 70
    11
 71
     3
 72
    17
 73
    13
 74
     0
 42
0.0000000001
 43
0.0000000001
 12
1.0
 22
0.0
 32
0.0
 13
1.0
 23
0.0
 33
0.0
 40
0.0
 40
0.0
 40
0.0
 40
0.0
 40
1.0
 40
1.0
 40
1.0
 40
2.0
 40
2.0
 40
2.0
 40
3.0
 40
3.0
 40
3.0
 40
4.0
 40
4.0
 40
4.0
 40
4.0
 10
95.67340221132471
 20
-120.9011474307122
 30
0.0
 10
95.67340221132471
 20
-121.1815782032116
 30
0.0
 10
95.88493107411905
 20
-121.2222303299375
 30
0.0
 10
96.0013753015205
 20
-121.2222303299375
 30
0.0
 10
96.17707517126824
 20
-121.2222303299375
 30
0.0
 10
96.34002818772055
 20
-121.1204277583484
 30
0.0
 10
96.34002818772055
 20
-120.9237128061406
 30
0.0
 10
96.34002818772055
 20
-120.7948662349923
 30
0.0
 10
96.28077254537426
 20
-120.6072807858204
 30
0.0
 10
95.99517412964704
 20
-120.6072807858204
 30
0.0
 10
95.77089841355728
 20
-120.6072807858204
 30
0.0
 10
95.67340221132471
 20
-120.7564534203317
 30
0.0
 10
95.67340221132471
 20
-120.9011474307122
 30
0.0
  0
HATCH
  5
142
330
13C
100
AcDbEntity
  8
_U+30EC_U+30A4_U+30E4_U+30FC 1
 62
     7
420
 16777215
100
AcDbHatch
 10
0.0
 20
0.0
 30
0.0
210
0.0
220
0.0
230
1.0
  2
SOLID
 70
     1
 71
     0
 91
        2
 92
        1
 93
        1
 72
     4
 94
        3
 73
     0
 74
     1
 95
       32
 96
       28
 40
0.0
 40
0.0
 40
0.0
 40
0.0
 40
1.0
 40
1.0
 40
1.0
 40
2.0
 40
2.0
 40
2.0
 40
3.0
 40
3.0
 40
3.0
 40
4.0
 40
4.0
 40
4.0
 40
5.0
 40
5.0
 40
5.0
 40
6.0
 40
6.0
 40
6.0
 40
7.0
 40
7.0
 40
7.0
 40
8.0
 40
8.0
 40
8.0
 40
9.0
 40
9.0
 40
9.0
 40
9.0
 10
96.5322645157975
 20
-120.9192341820098
 10
96.5322645157975
 20
-121.4709662239725
 10
95.97829316176932
 20
-121.4799234722342
 10
95.76435273213531
 20
-121.4799234722342
 10
95.53387584417209
 20
-121.4799234722342
 10
94.88654240249365
 20
-121.4595974088712
 10
94.88654240249365
 20
-120.8785820552838
 10
94.88654240249365
 20
-120.6930636634031
 10
94.95647784084422
 20
-120.4308918969756
 10
95.2885850456223
 20
-120.3902397702497
 10
95.2885850456223
 20
-120.3902397702497
 10
95.2885850456223
 20
-120.6184773461475
 10
95.2885850456223
 20
-120.6184773461475
 10
95.23139646056715
 20
-120.6298461612488
 10
95.08325735470142
 20
-120.6637803517785
 10
95.08325735470142
 20
-120.8808213673492
 10
95.08325735470142
 20
-121.1927747635386
 10
95.4112304448972
 20
-121.23566620233
 10
95.61621362626956
 20
-121.2492743294967
 10
95.53800995875439
 20
-121.1498833247473
 10
95.4787543164081
 20
-121.077536319557
 10
95.4787543164081
 20
-120.8830606794147
 10
95.4787543164081
 20
-120.6908243513377
 10
95.58693031464495
 20
-120.367502140047
 10
95.9931070723559
 20
-120.367502140047
 10
96.31246742383856
 20
-120.367502140047
 10
96.5322645157975
 20
-120.5800645314869
 10
96.5322645157975
 20
-120.9192341820098
 97
        0
 97
        0
 92
        1
 93
        1
 72
     4
 94
        3
 73
     0
 74
     1
 95
       17
 96
       13
 40
0.0
 40
0.0
 40
0.0
 40
0.0
 40
1.0
 40
1.0
 40
1.0
 40
2.0
 40
2.0
 40
2.0
 40
3.0
 40
3.0
 40
3.0
 40
4.0
 40
4.0
 40
4.0
 40
4.0
 10
95.67340221132471
 20
-120.9011474307122
 10
95.67340221132471
 20
-121.1815782032116
 10
95.88493107411905
 20
-121.2222303299375
 10
96.0013753015205
 20
-121.2222303299375
 10
96.17707517126824
 20
-121.2222303299375
 10
96.34002818772055
 20
-121.1204277583484
 10
96.34002818772055
 20
-120.9237128061406
 10
96.34002818772055
 20
-120.7948662349923
 10
96.28077254537426
 20
-120.6072807858204
 10
95.99517412964704
 20
-120.6072807858204
 10
95.77089841355728
 20
-120.6072807858204
 10
95.67340221132471
 20
-120.7564534203317
 10
95.67340221132471
 20
-120.9011474307122
 97
        0
 97
        0
 75
     2
 76
     1
 98
        0
  0
ENDBLK
  5
13F
330
13C
100
AcDbEntity
  8
0
100
AcDbBlockEnd
  0
ENDSEC
  0
SECTION
  2
ENTITIES
  0
POLYLINE
  5
41
330
1F
100
AcDbEntity
  8
_U+30EC_U+30A4_U+30E4_U+30FC 1
  6
AI-Linetype-1
 62
   154
420
    23468
370
    25
100
AcDb2dPolyline
 66
     1
 10
0.0
 20
0.0
 30
0.0
  0
VERTEX
  5
42
330
41
100
AcDbEntity
  8
_U+30EC_U+30A4_U+30E4_U+30FC 1
  6
AI-Linetype-1
 62
   154
420
    23468
370
    25
100
AcDbVertex
100
AcDb2dVertex
 10
80.63624905390901
 20
-117.2670727484611
 30
0.0
  0
VERTEX
  5
43
330
41
100
AcDbEntity
  8
_U+30EC_U+30A4_U+30E4_U+30FC 1
  6
AI-Linetype-1
 62
   154
420
    23468
370
    25
100
AcDbVertex
100
AcDb2dVertex
 10
82.26544734567803
 20
-117.2670727484611
 30
0.0
  0
VERTEX
  5
44
330
41
100
AcDbEntity
  8
_U+30EC_U+30A4_U+30E4_U+30FC 1
  6
AI-Linetype-1
 62
   154
420
    23468
370
    25
100
AcDbVertex
100
AcDb2dVertex
 10
82.26544734567803
 20
-123.2641538580729
 30
0.0
  0
VERTEX
  5
45
330
41
100
AcDbEntity
  8
_U+30EC_U+30A4_U+30E4_U+30FC 1
  6
AI-Linetype-1
 62
   154
420
    23468
370
    25
100
AcDbVertex
100
AcDb2dVertex
 10
88.27145358134094
 20
-123.2641538580729
 30
0.0
  0
VERTEX
  5
46
330
41
100
AcDbEntity
  8
_U+30EC_U+30A4_U+30E4_U+30FC 1
  6
AI-Linetype-1
 62
   154
420
    23468
370
    25
100
AcDbVertex
100
AcDb2dVertex
 10
88.27145358134094
 20
-124.7510416354789
 30
0.0
  0
SEQEND
  5
48
330
41
100
AcDbEntity
  8
_U+30EC_U+30A4_U+30E4_U+30FC 1
  6
AI-Linetype-1
 62
   154
420
    23468
370
    25
  0
POLYLINE
  5
49
330
1F
100
AcDbEntity
  8
_U+30EC_U+30A4_U+30E4_U+30FC 1
 62
   179
420
  2234388
370
     9
100
AcDb2dPolyline
 66
     1
 10
0.0
 20
0.0
 30
0.0
  0
VERTEX
  5
4A
330
49
100
AcDbEntity
  8
_U+30EC_U+30A4_U+30E4_U+30FC 1
 62
   179
420
  2234388
370
     9
100
AcDbVertex
100
AcDb2dVertex
 10
86.18886530113886
 20
-123.1477019136576
 30
0.0
  0
VERTEX
  5
4B
330
49
100
AcDbEntity
  8
_U+30EC_U+30A4_U+30E4_U+30FC 1
 62
   179
420
  2234388
370
     9
100
AcDbVertex
100
AcDb2dVertex
 10
91.58717655230535
 20
-115.4904485822385
 30
0.0
  0
VERTEX
  5
4C
330
49
100
AcDbEntity
  8
_U+30EC_U+30A4_U+30E4_U+30FC 1
 62
   179
420
  2234388
370
     9
100
AcDbVertex
100
AcDb2dVertex
 10
107.9472455793697
 20
-115.4904485822385
 30
0.0
  0
SEQEND
  5
4D
330
49
100
AcDbEntity
  8
_U+30EC_U+30A4_U+30E4_U+30FC 1
 62
   179
420
  2234388
370
     9
  0
INSERT
  5
4F
330
1F
100
AcDbEntity
  8
_U+30EC_U+30A4_U+30E4_U+30FC 1
100
AcDbBlockReference
  2
block 2
 10
0.0
 20
0.0
 30
0.0
  0
POLYLINE
  5
8C
330
1F
100
AcDbEntity
  8
_U+30EC_U+30A4_U+30E4_U+30FC 1
 62
     7
420
 16777215
370
    25
100
AcDb2dPolyline
 66
     1
 10
0.0
 20
0.0
 30
0.0
  0
VERTEX
  5
8D
330
8C
100
AcDbEntity
  8
_U+30EC_U+30A4_U+30E4_U+30FC 1
 62
     7
420
 16777215
370
    25
100
AcDbVertex
100
AcDb2dVertex
 10
81.66547819431786
 20
-137.8641091322004
 30
0.0
  0
VERTEX
  5
8E
330
8C
100
AcDbEntity
  8
_U+30EC_U+30A4_U+30E4_U+30FC 1
 62
     7
420
 16777215
370
    25
100
AcDbVertex
100
AcDb2dVertex
 10
87.66545193013467
 20
-137.8641091322004
 30
0.0
  0
SEQEND
  5
8F
330
8C
100
AcDbEntity
  8
_U+30EC_U+30A4_U+30E4_U+30FC 1
 62
     7
420
 16777215
370
    25
  0
POLYLINE
  5
90
330
1F
100
AcDbEntity
  8
_U+30EC_U+30A4_U+30E4_U+30FC 1
 62
     7
420
 16777215
370
    25
100
AcDb2dPolyline
 66
     1
 10
0.0
 20
0.0
 30
0.0
  0
VERTEX
  5
91
330
90
100
AcDbEntity
  8
_U+30EC_U+30A4_U+30E4_U+30FC 1
 62
     7
420
 16777215
370
    25
100
AcDbVertex
100
AcDb2dVertex
 10
81.66547819431786
 20
-124.8643891354504
 30
0.0
  0
VERTEX
  5
92
330
90
100
AcDbEntity
  8
_U+30EC_U+30A4_U+30E4_U+30FC 1
 62
     7
420
 16777215
370
    25
100
AcDbVertex
100
AcDb2dVertex
 10
87.66545193013467
 20
-124.8643891354504
 30
0.0
  0
SEQEND
  5
93
330
90
100
AcDbEntity
  8
_U+30EC_U+30A4_U+30E4_U+30FC 1
 62
     7
420
 16777215
370
    25
  0
POLYLINE
  5
94
330
1F
100
AcDbEntity
  8
_U+30EC_U+30A4_U+30E4_U+30FC 1
 62
     7
420
 16777215
370
    25
100
AcDb2dPolyline
 66
     1
 10
0.0
 20
0.0
 30
0.0
  0
VERTEX
  5
95
330
94
100
AcDbEntity
  8
_U+30EC_U+30A4_U+30E4_U+30FC 1
 62
     7
420
 16777215
370
    25
100
AcDbVertex
100
AcDb2dVertex
 10
81.66547819431786
 20
-138.8642341319507
 30
0.0
  0
VERTEX
  5
96
330
94
100
AcDbEntity
  8
_U+30EC_U+30A4_U+30E4_U+30FC 1
 62
     7
420
 16777215
370
    25
100
AcDbVertex
100
AcDb2dVertex
 10
94.66502147378299
 20
-138.8642341319507
 30
0.0
  0
SEQEND
  5
97
330
94
100
AcDbEntity
  8
_U+30EC_U+30A4_U+30E4_U+30FC 1
 62
     7
420
 16777215
370
    25
  0
POLYLINE
  5
98
330
1F
100
AcDbEntity
  8
_U+30EC_U+30A4_U+30E4_U+30FC 1
 62
     7
420
 16777215
370
    25
100
AcDb2dPolyline
 66
     1
 10
0.0
 20
0.0
 30
0.0
  0
VERTEX
  5
99
330
98
100
AcDbEntity
  8
_U+30EC_U+30A4_U+30E4_U+30FC 1
 62
     7
420
 16777215
370
    25
100
AcDbVertex
100
AcDb2dVertex
 10
80.6650004420644
 20
-117.8642902483118
 30
0.0
  0
VERTEX
  5
9A
330
98
100
AcDbEntity
  8
_U+30EC_U+30A4_U+30E4_U+30FC 1
 62
     7
420
 16777215
370
    25
100
AcDbVertex
100
AcDb2dVertex
 10
80.6650004420644
 20
-137.8641091322004
 30
0.0
  0
SEQEND
  5
9B
330
98
100
AcDbEntity
  8
_U+30EC_U+30A4_U+30E4_U+30FC 1
 62
     7
420
 16777215
370
    25
  0
POLYLINE
  5
9C
330
1F
100
AcDbEntity
  8
_U+30EC_U+30A4_U+30E4_U+30FC 1
 62
     7
420
 16777215
370
    25
100
AcDb2dPolyline
 66
     1
 10
0.0
 20
0.0
 30
0.0
  0
VERTEX
  5
9D
330
9C
100
AcDbEntity
  8
_U+30EC_U+30A4_U+30E4_U+30FC 1
 62
     7
420
 16777215
370
    25
100
AcDbVertex
100
AcDb2dVertex
 10
81.66547819431786
 20
-118.8644152480617
 30
0.0
  0
VERTEX
  5
9E
330
9C
100
AcDbEntity
  8
_U+30EC_U+30A4_U+30E4_U+30FC 1
 62
     7
420
 16777215
370
    25
100
AcDbVertex
100
AcDb2dVertex
 10
81.66547819431786
 20
-123.8642641357008
 30
0.0
  0
SEQEND
  5
9F
330
9C
100
AcDbEntity
  8
_U+30EC_U+30A4_U+30E4_U+30FC 1
 62
     7
420
 16777215
370
    25
  0
POLYLINE
  5
A0
330
1F
100
AcDbEntity
  8
_U+30EC_U+30A4_U+30E4_U+30FC 1
 62
     7
420
 16777215
370
    25
100
AcDb2dPolyline
 66
     1
 10
0.0
 20
0.0
 30
0.0
  0
VERTEX
  5
A1
330
A0
100
AcDbEntity
  8
_U+30EC_U+30A4_U+30E4_U+30FC 1
 62
     7
420
 16777215
370
    25
100
AcDbVertex
100
AcDb2dVertex
 10
81.66547819431786
 20
-123.8642641357008
 30
0.0
  0
VERTEX
  5
A2
330
A0
100
AcDbEntity
  8
_U+30EC_U+30A4_U+30E4_U+30FC 1
 62
     7
420
 16777215
370
    25
100
AcDbVertex
100
AcDb2dVertex
 10
86.66500945565808
 20
-123.8642641357008
 30
0.0
  0
SEQEND
  5
A3
330
A0
100
AcDbEntity
  8
_U+30EC_U+30A4_U+30E4_U+30FC 1
 62
     7
420
 16777215
370
    25
  0
POLYLINE
  5
A4
330
1F
100
AcDbEntity
  8
_U+30EC_U+30A4_U+30E4_U+30FC 1
 62
     7
420
 16777215
370
    25
100
AcDb2dPolyline
 66
     1
 10
0.0
 20
0.0
 30
0.0
  0
VERTEX
  5
A5
330
A4
100
AcDbEntity
  8
_U+30EC_U+30A4_U+30E4_U+30FC 1
 62
     7
420
 16777215
370
    25
100
AcDbVertex
100
AcDb2dVertex
 10
81.66547819431786
 20
-124.8643891354504
 30
0.0
  0
VERTEX
  5
A6
330
A4
100
AcDbEntity
  8
_U+30EC_U+30A4_U+30E4_U+30FC 1
 62
     7
420
 16777215
370
    25
100
AcDbVertex
100
AcDb2dVertex
 10
81.66547819431786
 20
-137.8641091322004
 30
0.0
  0
SEQEND
  5
A7
330
A4
100
AcDbEntity
  8
_U+30EC_U+30A4_U+30E4_U+30FC 1
 62
     7
420
 16777215
370
    25
  0
POLYLINE
  5
A8
330
1F
100
AcDbEntity
  8
_U+30EC_U+30A4_U+30E4_U+30FC 1
 62
     7
420
 16777215
370
    25
100
AcDb2dPolyline
 66
     1
 10
0.0
 20
0.0
 30
0.0
  0
VERTEX
  5
A9
330
A8
100
AcDbEntity
  8
_U+30EC_U+30A4_U+30E4_U+30FC 1
 62
     7
420
 16777215
370
    25
100
AcDbVertex
100
AcDb2dVertex
 10
88.02373303210526
 20
-138.064275243262
 30
0.0
  0
VERTEX
  5
AA
330
A8
100
AcDbEntity
  8
_U+30EC_U+30A4_U+30E4_U+30FC 1
 62
     7
420
 16777215
370
    25
100
AcDbVertex
100
AcDb2dVertex
 10
93.86506260530275
 20
-138.064275243262
 30
0.0
  0
SEQEND
  5
AB
330
A8
100
AcDbEntity
  8
_U+30EC_U+30A4_U+30E4_U+30FC 1
 62
     7
420
 16777215
370
    25
  0
POLYLINE
  5
AC
330
1F
100
AcDbEntity
  8
_U+30EC_U+30A4_U+30E4_U+30FC 1
 62
     7
420
 16777215
370
    25
100
AcDb2dPolyline
 66
     1
 10
0.0
 20
0.0
 30
0.0
  0
VERTEX
  5
AD
330
AC
100
AcDbEntity
  8
_U+30EC_U+30A4_U+30E4_U+30FC 1
 62
     7
420
 16777215
370
    25
100
AcDbVertex
100
AcDb2dVertex
 10
87.66545193013467
 20
-137.8641091322004
 30
0.0
  0
VERTEX
  5
AE
330
AC
100
AcDbEntity
  8
_U+30EC_U+30A4_U+30E4_U+30FC 1
 62
     7
420
 16777215
370
    25
100
AcDbVertex
100
AcDb2dVertex
 10
88.01135275577487
 20
-138.064275243262
 30
0.0
  0
SEQEND
  5
AF
330
AC
100
AcDbEntity
  8
_U+30EC_U+30A4_U+30E4_U+30FC 1
 62
     7
420
 16777215
370
    25
  0
SPLINE
  5
B0
330
1F
100
AcDbEntity
  8
_U+30EC_U+30A4_U+30E4_U+30FC 1
 62
     7
420
 16777215
370
    25
100
AcDbSpline
210
0.0
220
0.0
230
1.0
 70
     8
 71
     3
 72
     8
 73
     4
 74
     0
 42
0.0000000001
 43
0.0000000001
 12
1.0
 22
0.0
 32
0.0
 13
1.0
 23
0.0
 33
0.0
 40
0.0
 40
0.0
 40
0.0
 40
0.0
 40
1.0
 40
1.0
 40
1.0
 40
1.0
 10
80.6650004420644
 20
-137.8641091322004
 30
0.0
 10
80.6650004420644
 20
-138.4167002431739
 30
0.0
 10
81.11288709730452
 20
-138.8642341319507
 30
0.0
 10
81.66547819431786
 20
-138.8642341319507
 30
0.0
  0
SPLINE
  5
B1
330
1F
100
AcDbEntity
  8
_U+30EC_U+30A4_U+30E4_U+30FC 1
 62
     7
420
 16777215
370
     9
100
AcDbSpline
210
0.0
220
0.0
230
1.0
 70
    11
 71
     3
 72
    17
 73
    13
 74
     0
 42
0.0000000001
 43
0.0000000001
 12
1.0
 22
0.0
 32
0.0
 13
1.0
 23
0.0
 33
0.0
 40
0.0
 40
0.0
 40
0.0
 40
0.0
 40
1.0
 40
1.0
 40
1.0
 40
2.0
 40
2.0
 40
2.0
 40
3.0
 40
3.0
 40
3.0
 40
4.0
 40
4.0
 40
4.0
 40
4.0
 10
80.76490710618222
 20
-122.0986466361419
 30
0.0
 10
80.76490710618222
 20
-122.043542747267
 30
0.0
 10
80.72014164648667
 20
-121.9987399695002
 30
0.0
 10
80.6650004420644
 20
-121.9987399695002
 30
0.0
 10
80.60989655458133
 20
-121.9987399695002
 30
0.0
 10
80.56509377794656
 20
-122.043542747267
 30
0.0
 10
80.56509377794656
 20
-122.0986466361419
 30
0.0
 10
80.56509377794656
 20
-122.153785802795
 30
0.0
 10
80.60989655458133
 20
-122.1985533027838
 30
0.0
 10
80.6650004420644
 20
-122.1985533027838
 30
0.0
 10
80.72014164648667
 20
-122.1985533027838
 30
0.0
 10
80.76490710618222
 20
-122.153785802795
 30
0.0
 10
80.76490710618222
 20
-122.0986466361419
 30
0.0
  0
SPLINE
  5
B2
330
1F
100
AcDbEntity
  8
_U+30EC_U+30A4_U+30E4_U+30FC 1
 62
     7
420
 16777215
370
     9
100
AcDbSpline
210
0.0
220
0.0
230
1.0
 70
    11
 71
     3
 72
    17
 73
    13
 74
     0
 42
0.0000000001
 43
0.0000000001
 12
1.0
 22
0.0
 32
0.0
 13
1.0
 23
0.0
 33
0.0
 40
0.0
 40
0.0
 40
0.0
 40
0.0
 40
1.0
 40
1.0
 40
1.0
 40
2.0
 40
2.0
 40
2.0
 40
3.0
 40
3.0
 40
3.0
 40
4.0
 40
4.0
 40
4.0
 40
4.0
 10
81.7653848584357
 20
-122.0986466361419
 30
0.0
 10
81.7653848584357
 20
-122.043542747267
 30
0.0
 10
81.72058208180093
 20
-121.9987399695002
 30
0.0
 10
81.66547819431786
 20
-121.9987399695002
 30
0.0
 10
81.60966875129722
 20
-121.9987399695002
 30
0.0
 10
81.56486597466247
 20
-122.043542747267
 30
0.0
 10
81.56486597466247
 20
-122.0986466361419
 30
0.0
 10
81.56486597466247
 20
-122.153785802795
 30
0.0
 10
81.60966875129722
 20
-122.1985533027838
 30
0.0
 10
81.66547819431786
 20
-122.1985533027838
 30
0.0
 10
81.72058208180093
 20
-122.1985533027838
 30
0.0
 10
81.7653848584357
 20
-122.153785802795
 30
0.0
 10
81.7653848584357
 20
-122.0986466361419
 30
0.0
  0
SPLINE
  5
B3
330
1F
100
AcDbEntity
  8
_U+30EC_U+30A4_U+30E4_U+30FC 1
 62
     7
420
 16777215
370
     9
100
AcDbSpline
210
0.0
220
0.0
230
1.0
 70
    11
 71
     3
 72
    17
 73
    13
 74
     0
 42
0.0000000001
 43
0.0000000001
 12
1.0
 22
0.0
 32
0.0
 13
1.0
 23
0.0
 33
0.0
 40
0.0
 40
0.0
 40
0.0
 40
0.0
 40
1.0
 40
1.0
 40
1.0
 40
2.0
 40
2.0
 40
2.0
 40
3.0
 40
3.0
 40
3.0
 40
4.0
 40
4.0
 40
4.0
 40
4.0
 10
94.66502147378299
 20
-142.8643107976172
 30
0.0
 10
94.66502147378299
 20
-142.8092069087422
 30
0.0
 10
94.62021869714822
 20
-142.7644041309755
 30
0.0
 10
94.56511480966515
 20
-142.7644041309755
 30
0.0
 10
94.5099756444052
 20
-142.7644041309755
 30
0.0
 10
94.46520814554732
 20
-142.8092069087422
 30
0.0
 10
94.46520814554732
 20
-142.8643107976172
 30
0.0
 10
94.46520814554732
 20
-142.9194499642702
 30
0.0
 10
94.5099756444052
 20
-142.9642174642588
 30
0.0
 10
94.56511480966515
 20
-142.9642174642588
 30
0.0
 10
94.62021869714822
 20
-142.9642174642588
 30
0.0
 10
94.66502147378299
 20
-142.9194499642702
 30
0.0
 10
94.66502147378299
 20
-142.8643107976172
 30
0.0
  0
SPLINE
  5
B4
330
1F
100
AcDbEntity
  8
_U+30EC_U+30A4_U+30E4_U+30FC 1
 62
     7
420
 16777215
370
     9
100
AcDbSpline
210
0.0
220
0.0
230
1.0
 70
    11
 71
     3
 72
    17
 73
    13
 74
     0
 42
0.0000000001
 43
0.0000000001
 12
1.0
 22
0.0
 32
0.0
 13
1.0
 23
0.0
 33
0.0
 40
0.0
 40
0.0
 40
0.0
 40
0.0
 40
1.0
 40
1.0
 40
1.0
 40
2.0
 40
2.0
 40
2.0
 40
3.0
 40
3.0
 40
3.0
 40
4.0
 40
4.0
 40
4.0
 40
4.0
 10
80.76490710618222
 20
-142.8643107976172
 30
0.0
 10
80.76490710618222
 20
-142.8092069087422
 30
0.0
 10
80.72014164648667
 20
-142.7644041309755
 30
0.0
 10
80.6650004420644
 20
-142.7644041309755
 30
0.0
 10
80.60989655458133
 20
-142.7644041309755
 30
0.0
 10
80.56509377794656
 20
-142.8092069087422
 30
0.0
 10
80.56509377794656
 20
-142.8643107976172
 30
0.0
 10
80.56509377794656
 20
-142.9194499642702
 30
0.0
 10
80.60989655458133
 20
-142.9642174642588
 30
0.0
 10
80.6650004420644
 20
-142.9642174642588
 30
0.0
 10
80.72014164648667
 20
-142.9642174642588
 30
0.0
 10
80.76490710618222
 20
-142.9194499642702
 30
0.0
 10
80.76490710618222
 20
-142.8643107976172
 30
0.0
  0
SPLINE
  5
B5
330
1F
100
AcDbEntity
  8
_U+30EC_U+30A4_U+30E4_U+30FC 1
 62
     7
420
 16777215
370
    25
100
AcDbSpline
210
0.0
220
0.0
230
1.0
 70
     8
 71
     3
 72
     8
 73
     4
 74
     0
 42
0.0000000001
 43
0.0000000001
 12
1.0
 22
0.0
 32
0.0
 13
1.0
 23
0.0
 33
0.0
 40
0.0
 40
0.0
 40
0.0
 40
0.0
 40
1.0
 40
1.0
 40
1.0
 40
1.0
 10
81.66547819431786
 20
-118.864062470284
 30
0.0
 10
81.66547819431786
 20
-118.3121416370885
 30
0.0
 10
81.21759153907773
 20
-117.8642902483118
 30
0.0
 10
80.6650004420644
 20
-117.8642902483118
 30
0.0
  0
SPLINE
  5
B6
330
1F
100
AcDbEntity
  8
_U+30EC_U+30A4_U+30E4_U+30FC 1
 62
     7
420
 16777215
370
    25
100
AcDbSpline
210
0.0
220
0.0
230
1.0
 70
     8
 71
     3
 72
     8
 73
     4
 74
     0
 42
0.0000000001
 43
0.0000000001
 12
1.0
 22
0.0
 32
0.0
 13
1.0
 23
0.0
 33
0.0
 40
0.0
 40
0.0
 40
0.0
 40
0.0
 40
1.0
 40
1.0
 40
1.0
 40
1.0
 10
87.66545193013467
 20
-124.8643891354504
 30
0.0
 10
87.66545193013467
 20
-124.3121508022553
 30
0.0
 10
87.2176027559733
 20
-123.8642641357008
 30
0.0
 10
86.66500945565808
 20
-123.8642641357008
 30
0.0
  0
SPLINE
  5
B7
330
1F
100
AcDbEntity
  8
_U+30EC_U+30A4_U+30E4_U+30FC 1
 62
     7
420
 16777215
370
    25
100
AcDbSpline
210
0.0
220
0.0
230
1.0
 70
     8
 71
     3
 72
     8
 73
     4
 74
     0
 42
0.0000000001
 43
0.0000000001
 12
1.0
 22
0.0
 32
0.0
 13
1.0
 23
0.0
 33
0.0
 40
0.0
 40
0.0
 40
0.0
 40
0.0
 40
1.0
 40
1.0
 40
1.0
 40
1.0
 10
94.66502147378299
 20
-138.8642341319507
 30
0.0
 10
94.66502147378299
 20
-138.4225563542832
 30
0.0
 10
94.30674037181238
 20
-138.064275243262
 30
0.0
 10
93.86506260530275
 20
-138.064275243262
 30
0.0
  0
SPLINE
  5
B8
330
1F
100
AcDbEntity
  8
_U+30EC_U+30A4_U+30E4_U+30FC 1
 62
     7
420
 16777215
370
     9
100
AcDbSpline
210
0.0
220
0.0
230
1.0
 70
    11
 71
     3
 72
    17
 73
    13
 74
     0
 42
0.0000000001
 43
0.0000000001
 12
1.0
 22
0.0
 32
0.0
 13
1.0
 23
0.0
 33
0.0
 40
0.0
 40
0.0
 40
0.0
 40
0.0
 40
1.0
 40
1.0
 40
1.0
 40
2.0
 40
2.0
 40
2.0
 40
3.0
 40
3.0
 40
3.0
 40
4.0
 40
4.0
 40
4.0
 40
4.0
 10
76.7651833193348
 20
-117.8642902483118
 30
0.0
 10
76.7651833193348
 20
-117.8091863594365
 30
0.0
 10
76.72038054270003
 20
-117.7643835816701
 30
0.0
 10
76.66524137744008
 20
-117.7643835816701
 30
0.0
 10
76.61013748995701
 20
-117.7643835816701
 30
0.0
 10
76.56533471332224
 20
-117.8091863594365
 30
0.0
 10
76.56533471332224
 20
-117.8642902483118
 30
0.0
 10
76.56533471332224
 20
-117.9194294149645
 30
0.0
 10
76.61013748995701
 20
-117.9641969149534
 30
0.0
 10
76.66524137744008
 20
-117.9641969149534
 30
0.0
 10
76.72038054270003
 20
-117.9641969149534
 30
0.0
 10
76.7651833193348
 20
-117.9194294149645
 30
0.0
 10
76.7651833193348
 20
-117.8642902483118
 30
0.0
  0
SPLINE
  5
B9
330
1F
100
AcDbEntity
  8
_U+30EC_U+30A4_U+30E4_U+30FC 1
 62
     7
420
 16777215
370
     9
100
AcDbSpline
210
0.0
220
0.0
230
1.0
 70
    11
 71
     3
 72
    17
 73
    13
 74
     0
 42
0.0000000001
 43
0.0000000001
 12
1.0
 22
0.0
 32
0.0
 13
1.0
 23
0.0
 33
0.0
 40
0.0
 40
0.0
 40
0.0
 40
0.0
 40
1.0
 40
1.0
 40
1.0
 40
2.0
 40
2.0
 40
2.0
 40
3.0
 40
3.0
 40
3.0
 40
4.0
 40
4.0
 40
4.0
 40
4.0
 10
76.7651833193348
 20
-138.8642341319507
 30
0.0
 10
76.7651833193348
 20
-138.8090949652976
 30
0.0
 10
76.72038054270003
 20
-138.764327465309
 30
0.0
 10
76.66524137744008
 20
-138.764327465309
 30
0.0
 10
76.61013748995701
 20
-138.764327465309
 30
0.0
 10
76.56533471332224
 20
-138.8090949652976
 30
0.0
 10
76.56533471332224
 20
-138.8642341319507
 30
0.0
 10
76.56533471332224
 20
-138.9196907986033
 30
0.0
 10
76.61013748995701
 20
-138.9644582985925
 30
0.0
 10
76.66524137744008
 20
-138.9644582985925
 30
0.0
 10
76.72038054270003
 20
-138.9644582985925
 30
0.0
 10
76.7651833193348
 20
-138.9196907986033
 30
0.0
 10
76.7651833193348
 20
-138.8642341319507
 30
0.0
  0
SPLINE
  5
BA
330
1F
100
AcDbEntity
  8
_U+30EC_U+30A4_U+30E4_U+30FC 1
 62
     7
420
 16777215
370
     9
100
AcDbSpline
210
0.0
220
0.0
230
1.0
 70
    11
 71
     3
 72
    17
 73
    13
 74
     0
 42
0.0000000001
 43
0.0000000001
 12
1.0
 22
0.0
 32
0.0
 13
1.0
 23
0.0
 33
0.0
 40
0.0
 40
0.0
 40
0.0
 40
0.0
 40
1.0
 40
1.0
 40
1.0
 40
2.0
 40
2.0
 40
2.0
 40
3.0
 40
3.0
 40
3.0
 40
4.0
 40
4.0
 40
4.0
 40
4.0
 10
97.17754002079441
 20
-137.8641091322004
 30
0.0
 10
97.17754002079441
 20
-137.8089699655479
 30
0.0
 10
97.13273724415964
 20
-137.7642024655587
 30
0.0
 10
97.07763335667657
 20
-137.7642024655587
 30
0.0
 10
97.02249419141663
 20
-137.7642024655587
 30
0.0
 10
96.97772669255873
 20
-137.8089699655479
 30
0.0
 10
96.97772669255873
 20
-137.8641091322004
 30
0.0
 10
96.97772669255873
 20
-137.9195657988537
 30
0.0
 10
97.02249419141663
 20
-137.9643685766198
 30
0.0
 10
97.07763335667657
 20
-137.9643685766198
 30
0.0
 10
97.13273724415964
 20
-137.9643685766198
 30
0.0
 10
97.17754002079441
 20
-137.9195657988537
 30
0.0
 10
97.17754002079441
 20
-137.8641091322004
 30
0.0
  0
SPLINE
  5
BB
330
1F
100
AcDbEntity
  8
_U+30EC_U+30A4_U+30E4_U+30FC 1
 62
     7
420
 16777215
370
     9
100
AcDbSpline
210
0.0
220
0.0
230
1.0
 70
    11
 71
     3
 72
    17
 73
    13
 74
     0
 42
0.0000000001
 43
0.0000000001
 12
1.0
 22
0.0
 32
0.0
 13
1.0
 23
0.0
 33
0.0
 40
0.0
 40
0.0
 40
0.0
 40
0.0
 40
1.0
 40
1.0
 40
1.0
 40
2.0
 40
2.0
 40
2.0
 40
3.0
 40
3.0
 40
3.0
 40
4.0
 40
4.0
 40
4.0
 40
4.0
 10
97.17754002079441
 20
-124.8643891354504
 30
0.0
 10
97.17754002079441
 20
-124.8092499687977
 30
0.0
 10
97.13273724415964
 20
-124.7644824688088
 30
0.0
 10
97.07763335667657
 20
-124.7644824688088
 30
0.0
 10
97.02249419141663
 20
-124.7644824688088
 30
0.0
 10
96.97772669255873
 20
-124.8092499687977
 30
0.0
 10
96.97772669255873
 20
-124.8643891354504
 30
0.0
 10
96.97772669255873
 20
-124.9198458021034
 30
0.0
 10
97.02249419141663
 20
-124.9646485798698
 30
0.0
 10
97.07763335667657
 20
-124.9646485798698
 30
0.0
 10
97.13273724415964
 20
-124.9646485798698
 30
0.0
 10
97.17754002079441
 20
-124.9198458021034
 30
0.0
 10
97.17754002079441
 20
-124.8643891354504
 30
0.0
  0
SPLINE
  5
BC
330
1F
100
AcDbEntity
  8
_U+30EC_U+30A4_U+30E4_U+30FC 1
 62
     7
420
 16777215
370
     9
100
AcDbSpline
210
0.0
220
0.0
230
1.0
 70
    11
 71
     3
 72
    17
 73
    13
 74
     0
 42
0.0000000001
 43
0.0000000001
 12
1.0
 22
0.0
 32
0.0
 13
1.0
 23
0.0
 33
0.0
 40
0.0
 40
0.0
 40
0.0
 40
0.0
 40
1.0
 40
1.0
 40
1.0
 40
2.0
 40
2.0
 40
2.0
 40
3.0
 40
3.0
 40
3.0
 40
4.0
 40
4.0
 40
4.0
 40
4.0
 10
97.17754002079441
 20
-117.8642902483118
 30
0.0
 10
97.17754002079441
 20
-117.8091863594365
 30
0.0
 10
97.13273724415964
 20
-117.7643835816701
 30
0.0
 10
97.07763335667657
 20
-117.7643835816701
 30
0.0
 10
97.02249419141663
 20
-117.7643835816701
 30
0.0
 10
96.97772669255873
 20
-117.8091863594365
 30
0.0
 10
96.97772669255873
 20
-117.8642902483118
 30
0.0
 10
96.97772669255873
 20
-117.9194294149645
 30
0.0
 10
97.02249419141663
 20
-117.9641969149534
 30
0.0
 10
97.07763335667657
 20
-117.9641969149534
 30
0.0
 10
97.13273724415964
 20
-117.9641969149534
 30
0.0
 10
97.17754002079441
 20
-117.9194294149645
 30
0.0
 10
97.17754002079441
 20
-117.8642902483118
 30
0.0
  0
POLYLINE
  5
BD
330
1F
100
AcDbEntity
  8
_U+30EC_U+30A4_U+30E4_U+30FC 1
 62
     7
420
 16777215
370
     9
100
AcDb2dPolyline
 66
     1
 10
0.0
 20
0.0
 30
0.0
  0
VERTEX
  5
BE
330
BD
100
AcDbEntity
  8
_U+30EC_U+30A4_U+30E4_U+30FC 1
 62
     7
420
 16777215
370
     9
100
AcDbVertex
100
AcDb2dVertex
 10
81.66547819431786
 20
-122.0986466361419
 30
0.0
  0
VERTEX
  5
BF
330
BD
100
AcDbEntity
  8
_U+30EC_U+30A4_U+30E4_U+30FC 1
 62
     7
420
 16777215
370
     9
100
AcDbVertex
100
AcDb2dVertex
 10
85.43579059812917
 20
-122.0986466361419
 30
0.0
  0
SEQEND
  5
C0
330
BD
100
AcDbEntity
  8
_U+30EC_U+30A4_U+30E4_U+30FC 1
 62
     7
420
 16777215
370
     9
  0
POLYLINE
  5
C1
330
1F
100
AcDbEntity
  8
_U+30EC_U+30A4_U+30E4_U+30FC 1
 62
     7
420
 16777215
370
     9
100
AcDb2dPolyline
 66
     1
 10
0.0
 20
0.0
 30
0.0
  0
VERTEX
  5
C2
330
C1
100
AcDbEntity
  8
_U+30EC_U+30A4_U+30E4_U+30FC 1
 62
     7
420
 16777215
370
     9
100
AcDbVertex
100
AcDb2dVertex
 10
79.66526352312536
 20
-122.0986466361419
 30
0.0
  0
VERTEX
  5
C3
330
C1
100
AcDbEntity
  8
_U+30EC_U+30A4_U+30E4_U+30FC 1
 62
     7
420
 16777215
370
     9
100
AcDbVertex
100
AcDb2dVertex
 10
81.66547819431786
 20
-122.0986466361419
 30
0.0
  0
SEQEND
  5
C4
330
C1
100
AcDbEntity
  8
_U+30EC_U+30A4_U+30E4_U+30FC 1
 62
     7
420
 16777215
370
     9
  0
INSERT
  5
C6
330
1F
100
AcDbEntity
  8
_U+30EC_U+30A4_U+30E4_U+30FC 1
100
AcDbBlockReference
  2
block 3
 10
0.0
 20
0.0
 30
0.0
  0
POLYLINE
  5
CB
330
1F
100
AcDbEntity
  8
_U+30EC_U+30A4_U+30E4_U+30FC 1
 62
     7
420
 16777215
370
     9
100
AcDb2dPolyline
 66
     1
 10
0.0
 20
0.0
 30
0.0
  0
VERTEX
  5
CC
330
CB
100
AcDbEntity
  8
_U+30EC_U+30A4_U+30E4_U+30FC 1
 62
     7
420
 16777215
370
     9
100
AcDbVertex
100
AcDb2dVertex
 10
80.6650004420644
 20
-142.8643107976172
 30
0.0
  0
VERTEX
  5
CD
330
CB
100
AcDbEntity
  8
_U+30EC_U+30A4_U+30E4_U+30FC 1
 62
     7
420
 16777215
370
     9
100
AcDbVertex
100
AcDb2dVertex
 10
94.66502147378299
 20
-142.8643107976172
 30
0.0
  0
SEQEND
  5
CE
330
CB
100
AcDbEntity
  8
_U+30EC_U+30A4_U+30E4_U+30FC 1
 62
     7
420
 16777215
370
     9
  0
POLYLINE
  5
CF
330
1F
100
AcDbEntity
  8
_U+30EC_U+30A4_U+30E4_U+30FC 1
 62
     7
420
 16777215
370
     9
100
AcDb2dPolyline
 66
     1
 10
0.0
 20
0.0
 30
0.0
  0
VERTEX
  5
D0
330
CF
100
AcDbEntity
  8
_U+30EC_U+30A4_U+30E4_U+30FC 1
 62
     7
420
 16777215
370
     9
100
AcDbVertex
100
AcDb2dVertex
 10
80.6650004420644
 20
-140.4041796871213
 30
0.0
  0
VERTEX
  5
D1
330
CF
100
AcDbEntity
  8
_U+30EC_U+30A4_U+30E4_U+30FC 1
 62
     7
420
 16777215
370
     9
100
AcDbVertex
100
AcDb2dVertex
 10
80.6650004420644
 20
-143.8644357973674
 30
0.0
  0
SEQEND
  5
D2
330
CF
100
AcDbEntity
  8
_U+30EC_U+30A4_U+30E4_U+30FC 1
 62
     7
420
 16777215
370
     9
  0
POLYLINE
  5
D3
330
1F
100
AcDbEntity
  8
_U+30EC_U+30A4_U+30E4_U+30FC 1
 62
     7
420
 16777215
370
     9
100
AcDb2dPolyline
 66
     1
 10
0.0
 20
0.0
 30
0.0
  0
VERTEX
  5
D4
330
D3
100
AcDbEntity
  8
_U+30EC_U+30A4_U+30E4_U+30FC 1
 62
     7
420
 16777215
370
     9
100
AcDbVertex
100
AcDb2dVertex
 10
94.56511480966515
 20
-140.4041796871213
 30
0.0
  0
VERTEX
  5
D5
330
D3
100
AcDbEntity
  8
_U+30EC_U+30A4_U+30E4_U+30FC 1
 62
     7
420
 16777215
370
     9
100
AcDbVertex
100
AcDb2dVertex
 10
94.56511480966515
 20
-143.8644357973674
 30
0.0
  0
SEQEND
  5
D6
330
D3
100
AcDbEntity
  8
_U+30EC_U+30A4_U+30E4_U+30FC 1
 62
     7
420
 16777215
370
     9
  0
INSERT
  5
D8
330
1F
100
AcDbEntity
  8
_U+30EC_U+30A4_U+30E4_U+30FC 1
100
AcDbBlockReference
  2
block 4
 10
0.0
 20
0.0
 30
0.0
  0
SPLINE
  5
F2
330
1F
100
AcDbEntity
  8
_U+30EC_U+30A4_U+30E4_U+30FC 1
 62
     7
420
 16777215
370
     9
100
AcDbSpline
210
0.0
220
0.0
230
1.0
 70
    11
 71
     3
 72
    17
 73
    13
 74
     0
 42
0.0000000001
 43
0.0000000001
 12
1.0
 22
0.0
 32
0.0
 13
1.0
 23
0.0
 33
0.0
 40
0.0
 40
0.0
 40
0.0
 40
0.0
 40
1.0
 40
1.0
 40
1.0
 40
2.0
 40
2.0
 40
2.0
 40
3.0
 40
3.0
 40
3.0
 40
4.0
 40
4.0
 40
4.0
 40
4.0
 10
87.86526525837033
 20
-115.8442494154835
 30
0.0
 10
87.86526525837033
 20
-115.7891455266083
 30
0.0
 10
87.82046248173556
 20
-115.7443427488415
 30
0.0
 10
87.76535859425249
 20
-115.7443427488415
 30
0.0
 10
87.71021942899254
 20
-115.7443427488415
 30
0.0
 10
87.66545193013467
 20
-115.7891455266083
 30
0.0
 10
87.66545193013467
 20
-115.8442494154835
 30
0.0
 10
87.66545193013467
 20
-115.8993885821363
 30
0.0
 10
87.71021942899254
 20
-115.9441560821251
 30
0.0
 10
87.76535859425249
 20
-115.9441560821251
 30
0.0
 10
87.82046248173556
 20
-115.9441560821251
 30
0.0
 10
87.86526525837033
 20
-115.8993885821363
 30
0.0
 10
87.86526525837033
 20
-115.8442494154835
 30
0.0
  0
SPLINE
  5
F3
330
1F
100
AcDbEntity
  8
_U+30EC_U+30A4_U+30E4_U+30FC 1
 62
     7
420
 16777215
370
     9
100
AcDbSpline
210
0.0
220
0.0
230
1.0
 70
    11
 71
     3
 72
    17
 73
    13
 74
     0
 42
0.0000000001
 43
0.0000000001
 12
1.0
 22
0.0
 32
0.0
 13
1.0
 23
0.0
 33
0.0
 40
0.0
 40
0.0
 40
0.0
 40
0.0
 40
1.0
 40
1.0
 40
1.0
 40
2.0
 40
2.0
 40
2.0
 40
3.0
 40
3.0
 40
3.0
 40
4.0
 40
4.0
 40
4.0
 40
4.0
 10
81.86529152255352
 20
-115.8442494154835
 30
0.0
 10
81.86529152255352
 20
-115.7891455266083
 30
0.0
 10
81.82048874591877
 20
-115.7443427488415
 30
0.0
 10
81.7653848584357
 20
-115.7443427488415
 30
0.0
 10
81.71024569317574
 20
-115.7443427488415
 30
0.0
 10
81.66547819431786
 20
-115.7891455266083
 30
0.0
 10
81.66547819431786
 20
-115.8442494154835
 30
0.0
 10
81.66547819431786
 20
-115.8993885821363
 30
0.0
 10
81.71024569317574
 20
-115.9441560821251
 30
0.0
 10
81.7653848584357
 20
-115.9441560821251
 30
0.0
 10
81.82048874591877
 20
-115.9441560821251
 30
0.0
 10
81.86529152255352
 20
-115.8993885821363
 30
0.0
 10
81.86529152255352
 20
-115.8442494154835
 30
0.0
  0
POLYLINE
  5
F4
330
1F
100
AcDbEntity
  8
_U+30EC_U+30A4_U+30E4_U+30FC 1
 62
     7
420
 16777215
370
     9
100
AcDb2dPolyline
 66
     1
 10
0.0
 20
0.0
 30
0.0
  0
VERTEX
  5
F5
330
F4
100
AcDbEntity
  8
_U+30EC_U+30A4_U+30E4_U+30FC 1
 62
     7
420
 16777215
370
     9
100
AcDbVertex
100
AcDb2dVertex
 10
81.7653848584357
 20
-115.8442494154835
 30
0.0
  0
VERTEX
  5
F6
330
F4
100
AcDbEntity
  8
_U+30EC_U+30A4_U+30E4_U+30FC 1
 62
     7
420
 16777215
370
     9
100
AcDbVertex
100
AcDb2dVertex
 10
87.76535859425249
 20
-115.8442494154835
 30
0.0
  0
SEQEND
  5
F7
330
F4
100
AcDbEntity
  8
_U+30EC_U+30A4_U+30E4_U+30FC 1
 62
     7
420
 16777215
370
     9
  0
POLYLINE
  5
F8
330
1F
100
AcDbEntity
  8
_U+30EC_U+30A4_U+30E4_U+30FC 1
 62
     7
420
 16777215
370
     9
100
AcDb2dPolyline
 66
     1
 10
0.0
 20
0.0
 30
0.0
  0
VERTEX
  5
F9
330
F8
100
AcDbEntity
  8
_U+30EC_U+30A4_U+30E4_U+30FC 1
 62
     7
420
 16777215
370
     9
100
AcDbVertex
100
AcDb2dVertex
 10
81.7653848584357
 20
-114.3842433047373
 30
0.0
  0
VERTEX
  5
FA
330
F8
100
AcDbEntity
  8
_U+30EC_U+30A4_U+30E4_U+30FC 1
 62
     7
420
 16777215
370
     9
100
AcDbVertex
100
AcDb2dVertex
 10
81.7653848584357
 20
-116.8443744152335
 30
0.0
  0
SEQEND
  5
FB
330
F8
100
AcDbEntity
  8
_U+30EC_U+30A4_U+30E4_U+30FC 1
 62
     7
420
 16777215
370
     9
  0
POLYLINE
  5
FC
330
1F
100
AcDbEntity
  8
_U+30EC_U+30A4_U+30E4_U+30FC 1
 62
     7
420
 16777215
370
     9
100
AcDb2dPolyline
 66
     1
 10
0.0
 20
0.0
 30
0.0
  0
VERTEX
  5
FD
330
FC
100
AcDbEntity
  8
_U+30EC_U+30A4_U+30E4_U+30FC 1
 62
     7
420
 16777215
370
     9
100
AcDbVertex
100
AcDb2dVertex
 10
87.76535859425249
 20
-114.3842433047373
 30
0.0
  0
VERTEX
  5
FE
330
FC
100
AcDbEntity
  8
_U+30EC_U+30A4_U+30E4_U+30FC 1
 62
     7
420
 16777215
370
     9
100
AcDbVertex
100
AcDb2dVertex
 10
87.76535859425249
 20
-116.8443744152335
 30
0.0
  0
SEQEND
  5
FF
330
FC
100
AcDbEntity
  8
_U+30EC_U+30A4_U+30E4_U+30FC 1
 62
     7
420
 16777215
370
     9
  0
INSERT
  5
101
330
1F
100
AcDbEntity
  8
_U+30EC_U+30A4_U+30E4_U+30FC 1
100
AcDbBlockReference
  2
block 5
 10
0.0
 20
0.0
 30
0.0
  0
POLYLINE
  5
107
330
1F
100
AcDbEntity
  8
_U+30EC_U+30A4_U+30E4_U+30FC 1
 62
     7
420
 16777215
370
     9
100
AcDb2dPolyline
 66
     1
 10
0.0
 20
0.0
 30
0.0
  0
VERTEX
  5
108
330
107
100
AcDbEntity
  8
_U+30EC_U+30A4_U+30E4_U+30FC 1
 62
     7
420
 16777215
370
     9
100
AcDbVertex
100
AcDb2dVertex
 10
76.66524137744008
 20
-138.8642341319507
 30
0.0
  0
VERTEX
  5
109
330
107
100
AcDbEntity
  8
_U+30EC_U+30A4_U+30E4_U+30FC 1
 62
     7
420
 16777215
370
     9
100
AcDbVertex
100
AcDb2dVertex
 10
76.66524137744008
 20
-117.8642902483118
 30
0.0
  0
SEQEND
  5
10A
330
107
100
AcDbEntity
  8
_U+30EC_U+30A4_U+30E4_U+30FC 1
 62
     7
420
 16777215
370
     9
  0
POLYLINE
  5
10B
330
1F
100
AcDbEntity
  8
_U+30EC_U+30A4_U+30E4_U+30FC 1
 62
     7
420
 16777215
370
     9
100
AcDb2dPolyline
 66
     1
 10
0.0
 20
0.0
 30
0.0
  0
VERTEX
  5
10C
330
10B
100
AcDbEntity
  8
_U+30EC_U+30A4_U+30E4_U+30FC 1
 62
     7
420
 16777215
370
     9
100
AcDbVertex
100
AcDb2dVertex
 10
79.12505492579612
 20
-138.8642341319507
 30
0.0
  0
VERTEX
  5
10D
330
10B
100
AcDbEntity
  8
_U+30EC_U+30A4_U+30E4_U+30FC 1
 62
     7
420
 16777215
370
     9
100
AcDbVertex
100
AcDb2dVertex
 10
75.66550445850105
 20
-138.8642341319507
 30
0.0
  0
SEQEND
  5
10E
330
10B
100
AcDbEntity
  8
_U+30EC_U+30A4_U+30E4_U+30FC 1
 62
     7
420
 16777215
370
     9
  0
POLYLINE
  5
10F
330
1F
100
AcDbEntity
  8
_U+30EC_U+30A4_U+30E4_U+30FC 1
 62
     7
420
 16777215
370
     9
100
AcDb2dPolyline
 66
     1
 10
0.0
 20
0.0
 30
0.0
  0
VERTEX
  5
110
330
10F
100
AcDbEntity
  8
_U+30EC_U+30A4_U+30E4_U+30FC 1
 62
     7
420
 16777215
370
     9
100
AcDbVertex
100
AcDb2dVertex
 10
78.12528272908021
 20
-117.8642902483118
 30
0.0
  0
VERTEX
  5
111
330
10F
100
AcDbEntity
  8
_U+30EC_U+30A4_U+30E4_U+30FC 1
 62
     7
420
 16777215
370
     9
100
AcDbVertex
100
AcDb2dVertex
 10
75.66550445850105
 20
-117.8642902483118
 30
0.0
  0
SEQEND
  5
112
330
10F
100
AcDbEntity
  8
_U+30EC_U+30A4_U+30E4_U+30FC 1
 62
     7
420
 16777215
370
     9
  0
INSERT
  5
114
330
1F
100
AcDbEntity
  8
_U+30EC_U+30A4_U+30E4_U+30FC 1
100
AcDbBlockReference
  2
block 6
 10
0.0
 20
0.0
 30
0.0
  0
POLYLINE
  5
11B
330
1F
100
AcDbEntity
  8
_U+30EC_U+30A4_U+30E4_U+30FC 1
 62
     7
420
 16777215
370
     9
100
AcDb2dPolyline
 66
     1
 10
0.0
 20
0.0
 30
0.0
  0
VERTEX
  5
11C
330
11B
100
AcDbEntity
  8
_U+30EC_U+30A4_U+30E4_U+30FC 1
 62
     7
420
 16777215
370
     9
100
AcDbVertex
100
AcDb2dVertex
 10
97.07763335667657
 20
-137.8641091322004
 30
0.0
  0
VERTEX
  5
11D
330
11B
100
AcDbEntity
  8
_U+30EC_U+30A4_U+30E4_U+30FC 1
 62
     7
420
 16777215
370
     9
100
AcDbVertex
100
AcDb2dVertex
 10
97.07763335667657
 20
-124.8643891354504
 30
0.0
  0
SEQEND
  5
11E
330
11B
100
AcDbEntity
  8
_U+30EC_U+30A4_U+30E4_U+30FC 1
 62
     7
420
 16777215
370
     9
  0
POLYLINE
  5
11F
330
1F
100
AcDbEntity
  8
_U+30EC_U+30A4_U+30E4_U+30FC 1
 62
     7
420
 16777215
370
     9
100
AcDb2dPolyline
 66
     1
 10
0.0
 20
0.0
 30
0.0
  0
VERTEX
  5
120
330
11F
100
AcDbEntity
  8
_U+30EC_U+30A4_U+30E4_U+30FC 1
 62
     7
420
 16777215
370
     9
100
AcDbVertex
100
AcDb2dVertex
 10
90.61721407705116
 20
-137.8641091322004
 30
0.0
  0
VERTEX
  5
121
330
11F
100
AcDbEntity
  8
_U+30EC_U+30A4_U+30E4_U+30FC 1
 62
     7
420
 16777215
370
     9
100
AcDbVertex
100
AcDb2dVertex
 10
98.0770527756237
 20
-137.8641091322004
 30
0.0
  0
SEQEND
  5
122
330
11F
100
AcDbEntity
  8
_U+30EC_U+30A4_U+30E4_U+30FC 1
 62
     7
420
 16777215
370
     9
  0
POLYLINE
  5
123
330
1F
100
AcDbEntity
  8
_U+30EC_U+30A4_U+30E4_U+30FC 1
 62
     7
420
 16777215
370
     9
100
AcDb2dPolyline
 66
     1
 10
0.0
 20
0.0
 30
0.0
  0
VERTEX
  5
124
330
123
100
AcDbEntity
  8
_U+30EC_U+30A4_U+30E4_U+30FC 1
 62
     7
420
 16777215
370
     9
100
AcDbVertex
100
AcDb2dVertex
 10
90.61721407705116
 20
-124.8643891354504
 30
0.0
  0
VERTEX
  5
125
330
123
100
AcDbEntity
  8
_U+30EC_U+30A4_U+30E4_U+30FC 1
 62
     7
420
 16777215
370
     9
100
AcDbVertex
100
AcDb2dVertex
 10
98.0770527756237
 20
-124.8643891354504
 30
0.0
  0
SEQEND
  5
126
330
123
100
AcDbEntity
  8
_U+30EC_U+30A4_U+30E4_U+30FC 1
 62
     7
420
 16777215
370
     9
  0
SPLINE
  5
127
330
1F
100
AcDbEntity
  8
_U+30EC_U+30A4_U+30E4_U+30FC 1
 62
     7
420
 16777215
370
     9
100
AcDbSpline
210
0.0
220
0.0
230
1.0
 70
    11
 71
     3
 72
    17
 73
    13
 74
     0
 42
0.0000000001
 43
0.0000000001
 12
1.0
 22
0.0
 32
0.0
 13
1.0
 23
0.0
 33
0.0
 40
0.0
 40
0.0
 40
0.0
 40
0.0
 40
1.0
 40
1.0
 40
1.0
 40
2.0
 40
2.0
 40
2.0
 40
3.0
 40
3.0
 40
3.0
 40
4.0
 40
4.0
 40
4.0
 40
4.0
 10
97.17754002079441
 20
-123.7640046912814
 30
0.0
 10
97.17754002079441
 20
-123.7089008024061
 30
0.0
 10
97.13273724415964
 20
-123.6640980246394
 30
0.0
 10
97.07763335667657
 20
-123.6640980246394
 30
0.0
 10
97.02249419141663
 20
-123.6640980246394
 30
0.0
 10
96.97772669255873
 20
-123.7089008024061
 30
0.0
 10
96.97772669255873
 20
-123.7640046912814
 30
0.0
 10
96.97772669255873
 20
-123.8194966357119
 30
0.0
 10
97.02249419141663
 20
-123.8642641357008
 30
0.0
 10
97.07763335667657
 20
-123.8642641357008
 30
0.0
 10
97.13273724415964
 20
-123.8642641357008
 30
0.0
 10
97.17754002079441
 20
-123.8194966357119
 30
0.0
 10
97.17754002079441
 20
-123.7640046912814
 30
0.0
  0
POLYLINE
  5
128
330
1F
100
AcDbEntity
  8
_U+30EC_U+30A4_U+30E4_U+30FC 1
 62
     7
420
 16777215
370
     9
100
AcDb2dPolyline
 66
     1
 10
0.0
 20
0.0
 30
0.0
  0
VERTEX
  5
129
330
128
100
AcDbEntity
  8
_U+30EC_U+30A4_U+30E4_U+30FC 1
 62
     7
420
 16777215
370
     9
100
AcDbVertex
100
AcDb2dVertex
 10
90.61721407705116
 20
-123.7640046912814
 30
0.0
  0
VERTEX
  5
12A
330
128
100
AcDbEntity
  8
_U+30EC_U+30A4_U+30E4_U+30FC 1
 62
     7
420
 16777215
370
     9
100
AcDbVertex
100
AcDb2dVertex
 10
98.0770527756237
 20
-123.7640046912814
 30
0.0
  0
SEQEND
  5
12B
330
128
100
AcDbEntity
  8
_U+30EC_U+30A4_U+30E4_U+30FC 1
 62
     7
420
 16777215
370
     9
  0
INSERT
  5
12D
330
1F
100
AcDbEntity
  8
_U+30EC_U+30A4_U+30E4_U+30FC 1
100
AcDbBlockReference
  2
block 7
 10
0.0
 20
0.0
 30
0.0
  0
POLYLINE
  5
134
330
1F
100
AcDbEntity
  8
_U+30EC_U+30A4_U+30E4_U+30FC 1
 62
     7
420
 16777215
370
     9
100
AcDb2dPolyline
 66
     1
 10
0.0
 20
0.0
 30
0.0
  0
VERTEX
  5
135
330
134
100
AcDbEntity
  8
_U+30EC_U+30A4_U+30E4_U+30FC 1
 62
     7
420
 16777215
370
     9
100
AcDbVertex
100
AcDb2dVertex
 10
97.07763335667657
 20
-124.8643891354504
 30
0.0
  0
VERTEX
  5
136
330
134
100
AcDbEntity
  8
_U+30EC_U+30A4_U+30E4_U+30FC 1
 62
     7
420
 16777215
370
     9
100
AcDbVertex
100
AcDb2dVertex
 10
97.07763335667657
 20
-117.8642902483118
 30
0.0
  0
SEQEND
  5
137
330
134
100
AcDbEntity
  8
_U+30EC_U+30A4_U+30E4_U+30FC 1
 62
     7
420
 16777215
370
     9
  0
POLYLINE
  5
138
330
1F
100
AcDbEntity
  8
_U+30EC_U+30A4_U+30E4_U+30FC 1
 62
     7
420
 16777215
370
     9
100
AcDb2dPolyline
 66
     1
 10
0.0
 20
0.0
 30
0.0
  0
VERTEX
  5
139
330
138
100
AcDbEntity
  8
_U+30EC_U+30A4_U+30E4_U+30FC 1
 62
     7
420
 16777215
370
     9
100
AcDbVertex
100
AcDb2dVertex
 10
90.61721407705116
 20
-117.8642902483118
 30
0.0
  0
VERTEX
  5
13A
330
138
100
AcDbEntity
  8
_U+30EC_U+30A4_U+30E4_U+30FC 1
 62
     7
420
 16777215
370
     9
100
AcDbVertex
100
AcDb2dVertex
 10
98.0770527756237
 20
-117.8642902483118
 30
0.0
  0
SEQEND
  5
13B
330
138
100
AcDbEntity
  8
_U+30EC_U+30A4_U+30E4_U+30FC 1
 62
     7
420
 16777215
370
     9
  0
INSERT
  5
13D
330
1F
100
AcDbEntity
  8
_U+30EC_U+30A4_U+30E4_U+30FC 1
100
AcDbBlockReference
  2
block 8
 10
0.0
 20
0.0
 30
0.0
  0
ENDSEC
  0
SECTION
  2
OBJECTS
  0
DICTIONARY
  5
C
330
0
100
AcDbDictionary
281
     1
  3
ACAD_GROUP
350
D
  3
ACAD_LAYOUT
350
1A
  3
ACAD_MATERIAL
350
3B
  3
ACAD_MLEADERSTYLE
350
144
  3
ACAD_MLINESTYLE
350
17
  3
ACAD_PLOTSETTINGS
350
19
  3
ACAD_PLOTSTYLENAME
350
E
  3
ACAD_TABLESTYLE
350
143
  3
ACAD_VISUALSTYLE
350
2A
  0
SUN
  5
3F
330
29
100
AcDbSun
 90
        1
290
     0
 63
     7
421
 16777215
 40
1.0
291
     1
 91
  2455826
 92
 54000000
292
     0
 70
     2
 71
   256
280
     1
  0
DICTIONARY
  5
D
102
{ACAD_REACTORS
330
C
102
}
330
C
100
AcDbDictionary
281
     1
  0
DICTIONARY
  5
1A
102
{ACAD_REACTORS
330
C
102
}
330
C
100
AcDbDictionary
281
     1
  3
Layout1
350
1E
  3
Layout2
350
26
  3
Model
350
22
  0
DICTIONARY
  5
3B
102
{ACAD_REACTORS
330
C
102
}
330
C
100
AcDbDictionary
281
     1
  3
ByBlock
350
3D
  3
ByLayer
350
3C
  3
Global
350
3E
  0
DICTIONARY
  5
144
102
{ACAD_REACTORS
330
C
102
}
330
C
100
AcDbDictionary
281
     1
  0
DICTIONARY
  5
17
102
{ACAD_REACTORS
330
C
102
}
330
C
100
AcDbDictionary
281
     1
  3
Standard
350
18
  0
DICTIONARY
  5
19
102
{ACAD_REACTORS
330
C
102
}
330
C
100
AcDbDictionary
281
     1
  0
ACDBDICTIONARYWDFLT
  5
E
102
{ACAD_REACTORS
330
C
102
}
330
C
100
AcDbDictionary
281
     1
  3
Normal
350
F
100
AcDbDictionaryWithDefault
340
F
  0
DICTIONARY
  5
143
102
{ACAD_REACTORS
330
C
102
}
330
C
100
AcDbDictionary
281
     1
  0
DICTIONARY
  5
2A
102
{ACAD_REACTORS
330
C
102
}
330
C
100
AcDbDictionary
281
     1
  3
2dWireframe
350
2F
  3
3D Hidden
350
31
  3
3dWireframe
350
30
  3
Basic
350
32
  3
Brighten
350
36
  3
ColorChange
350
3A
  3
Conceptual
350
34
  3
Dim
350
35
  3
Facepattern
350
39
  3
Flat
350
2B
  3
FlatWithEdges
350
2C
  3
Gouraud
350
2D
  3
GouraudWithEdges
350
2E
  3
Linepattern
350
38
  3
Realistic
350
33
  3
Thicken
350
37
  0
LAYOUT
  5
1E
102
{ACAD_REACTORS
330
1A
102
}
330
1A
100
AcDbPlotSettings
  1

  2
none_device
  4

  6

 40
0.0
 41
0.0
 42
0.0
 43
0.0
 44
0.0
 45
0.0
 46
0.0
 47
0.0
 48
0.0
 49
0.0
140
0.0
141
0.0
142
1.0
143
1.0
 70
   688
 72
     0
 73
     0
 74
     5
  7

 75
    16
 76
     0
 77
     2
 78
   300
147
1.0
148
0.0
149
0.0
100
AcDbLayout
  1
Layout1
 70
     1
 71
     1
 10
0.0
 20
0.0
 11
12.0
 21
9.0
 12
0.0
 22
0.0
 32
0.0
 14
1.000000000000000E+20
 24
1.000000000000000E+20
 34
1.000000000000000E+20
 15
-1.000000000000000E+20
 25
-1.000000000000000E+20
 35
-1.000000000000000E+20
146
0.0
 13
0.0
 23
0.0
 33
0.0
 16
1.0
 26
0.0
 36
0.0
 17
0.0
 27
1.0
 37
0.0
 76
     0
330
1B
  0
LAYOUT
  5
26
102
{ACAD_REACTORS
330
1A
102
}
330
1A
100
AcDbPlotSettings
  1

  2
none_device
  4

  6

 40
0.0
 41
0.0
 42
0.0
 43
0.0
 44
0.0
 45
0.0
 46
0.0
 47
0.0
 48
0.0
 49
0.0
140
0.0
141
0.0
142
1.0
143
1.0
 70
   688
 72
     0
 73
     0
 74
     5
  7

 75
    16
 76
     0
 77
     2
 78
   300
147
1.0
148
0.0
149
0.0
100
AcDbLayout
  1
Layout2
 70
     1
 71
     2
 10
0.0
 20
0.0
 11
0.0
 21
0.0
 12
0.0
 22
0.0
 32
0.0
 14
0.0
 24
0.0
 34
0.0
 15
0.0
 25
0.0
 35
0.0
146
0.0
 13
0.0
 23
0.0
 33
0.0
 16
1.0
 26
0.0
 36
0.0
 17
0.0
 27
1.0
 37
0.0
 76
     0
330
23
  0
LAYOUT
  5
22
102
{ACAD_REACTORS
330
1A
102
}
330
1A
100
AcDbPlotSettings
  1

  2
none_device
  4

  6

 40
0.0
 41
0.0
 42
0.0
 43
0.0
 44
0.0
 45
0.0
 46
0.0
 47
0.0
 48
0.0
 49
0.0
140
0.0
141
0.0
142
1.0
143
1.0
 70
  1712
 72
     0
 73
     0
 74
     0
  7

 75
     0
 76
     0
 77
     2
 78
   300
147
1.0
148
0.0
149
0.0
100
AcDbLayout
  1
Model
 70
     1
 71
     0
 10
0.0
 20
0.0
 11
12.0
 21
9.0
 12
0.0
 22
0.0
 32
0.0
 14
1.000000000000000E+20
 24
1.000000000000000E+20
 34
1.000000000000000E+20
 15
-1.000000000000000E+20
 25
-1.000000000000000E+20
 35
-1.000000000000000E+20
146
0.0
 13
0.0
 23
0.0
 33
0.0
 16
1.0
 26
0.0
 36
0.0
 17
0.0
 27
1.0
 37
0.0
 76
     0
330
1F
331
29
  0
MATERIAL
  5
3D
102
{ACAD_REACTORS
330
3B
102
}
330
3B
100
AcDbMaterial
  1
ByBlock
 72
     1
 94
      127
  0
MATERIAL
  5
3C
102
{ACAD_REACTORS
330
3B
102
}
330
3B
100
AcDbMaterial
  1
ByLayer
 72
     1
 94
      127
  0
MATERIAL
  5
3E
102
{ACAD_REACTORS
330
3B
102
}
330
3B
100
AcDbMaterial
  1
Global
 72
     1
 94
      127
  0
MLINESTYLE
  5
18
102
{ACAD_REACTORS
330
17
102
}
330
17
100
AcDbMlineStyle
  2
Standard
 70
     0
  3

 62
   256
 51
90.0
 52
90.0
 71
     2
 49
0.5
 62
   256
  6
BYLAYER
 49
-0.5
 62
   256
  6
BYLAYER
  0
ACDBPLACEHOLDER
  5
F
102
{ACAD_REACTORS
330
E
102
}
330
E
  0
VISUALSTYLE
  5
2F
102
{ACAD_REACTORS
330
2A
102
}
330
2A
100
AcDbVisualStyle
  2
2dWireframe
 70
     4
177
     2
291
     0
 71
     0
176
     1
 72
     2
176
     1
 73
     0
176
     1
 90
        0
176
     1
 40
-0.6
176
     1
 41
-30.0
176
     1
 62
     5
 63
     7
421
 16777215
176
     1
 74
     1
176
     1
 91
        4
176
     1
 64
     7
176
     1
 65
   257
176
     1
 75
     1
176
     1
175
     1
176
     1
 42
1.0
176
     1
 92
        0
176
     1
 66
   257
176
     1
 43
1.0
176
     1
 76
     1
176
     1
 77
     6
176
     1
 78
     2
176
     1
 67
     7
176
     1
 79
     5
176
     1
170
     0
176
     1
171
     0
176
     1
290
     0
176
     1
 93
        1
176
     1
 44
0.0
176
     1
173
     0
176
     1
  0
VISUALSTYLE
  5
31
102
{ACAD_REACTORS
330
2A
102
}
330
2A
100
AcDbVisualStyle
  2
3D Hidden
 70
     6
177
     2
291
     0
 71
     1
176
     1
 72
     2
176
     1
 73
     2
176
     1
 90
        0
176
     1
 40
-0.6
176
     1
 41
-30.0
176
     1
 62
     5
 63
     7
421
 16777215
176
     1
 74
     2
176
     1
 91
        2
176
     1
 64
     7
176
     1
 65
   257
176
     1
 75
     2
176
     1
175
     1
176
     1
 42
40.0
176
     1
 92
        0
176
     1
 66
   257
176
     1
 43
1.0
176
     1
 76
     1
176
     1
 77
     6
176
     1
 78
     2
176
     1
 67
     7
176
     1
 79
     3
176
     1
170
     0
176
     1
171
     0
176
     1
290
     0
176
     1
 93
        1
176
     1
 44
0.0
176
     1
173
     0
176
     1
  0
VISUALSTYLE
  5
30
102
{ACAD_REACTORS
330
2A
102
}
330
2A
100
AcDbVisualStyle
  2
3dWireframe
 70
     5
177
     2
291
     0
 71
     0
176
     1
 72
     2
176
     1
 73
     0
176
     1
 90
        0
176
     1
 40
-0.6
176
     1
 41
-30.0
176
     1
 62
     5
 63
     7
421
 16777215
176
     1
 74
     1
176
     1
 91
        4
176
     1
 64
     7
176
     1
 65
   257
176
     1
 75
     1
176
     1
175
     1
176
     1
 42
1.0
176
     1
 92
        0
176
     1
 66
   257
176
     1
 43
1.0
176
     1
 76
     1
176
     1
 77
     6
176
     1
 78
     2
176
     1
 67
     7
176
     1
 79
     5
176
     1
170
     0
176
     1
171
     0
176
     1
290
     0
176
     1
 93
        1
176
     1
 44
0.0
176
     1
173
     0
176
     1
  0
VISUALSTYLE
  5
32
102
{ACAD_REACTORS
330
2A
102
}
330
2A
100
AcDbVisualStyle
  2
Basic
 70
     7
177
     2
291
     1
 71
     1
176
     1
 72
     0
176
     1
 73
     1
176
     1
 90
        0
176
     1
 40
-0.6
176
     1
 41
-30.0
176
     1
 62
     5
 63
     7
421
 16777215
176
     1
 74
     0
176
     1
 91
        4
176
     1
 64
     7
176
     1
 65
   257
176
     1
 75
     1
176
     1
175
     1
176
     1
 42
1.0
176
     1
 92
        8
176
     1
 66
     7
176
     1
 43
1.0
176
     1
 76
     1
176
     1
 77
     6
176
     1
 78
     2
176
     1
 67
     7
176
     1
 79
     5
176
     1
170
     0
176
     1
171
     0
176
     1
290
     0
176
     1
 93
        1
176
     1
 44
0.0
176
     1
173
     0
176
     1
  0
VISUALSTYLE
  5
36
102
{ACAD_REACTORS
330
2A
102
}
330
2A
100
AcDbVisualStyle
  2
Brighten
 70
    12
177
     2
291
     1
 71
     2
176
     1
 72
     2
176
     1
 73
     0
176
     1
 90
        0
176
     1
 40
-0.6
176
     1
 41
-30.0
176
     1
 62
     5
 63
     7
421
 16777215
176
     1
 74
     1
176
     1
 91
        4
176
     1
 64
     7
176
     1
 65
   257
176
     1
 75
     1
176
     1
175
     1
176
     1
 42
1.0
176
     1
 92
        8
176
     1
 66
     7
176
     1
 43
1.0
176
     1
 76
     1
176
     1
 77
     6
176
     1
 78
     2
176
     1
 67
     7
176
     1
 79
     5
176
     1
170
     0
176
     1
171
     0
176
     1
290
     0
176
     1
 93
        1
176
     1
 44
50.0
176
     1
173
     0
176
     1
  0
VISUALSTYLE
  5
3A
102
{ACAD_REACTORS
330
2A
102
}
330
2A
100
AcDbVisualStyle
  2
ColorChange
 70
    16
177
     2
291
     1
 71
     2
176
     1
 72
     2
176
     1
 73
     3
176
     1
 90
        0
176
     1
 40
-0.6
176
     1
 41
-30.0
176
     1
 62
     5
 63
     8
421
  8421504
176
     1
 74
     1
176
     1
 91
        4
176
     1
 64
     7
176
     1
 65
   257
176
     1
 75
     1
176
     1
175
     1
176
     1
 42
1.0
176
     1
 92
        8
176
     1
 66
     8
424
  8421504
176
     1
 43
1.0
176
     1
 76
     1
176
     1
 77
     6
176
     1
 78
     2
176
     1
 67
     7
176
     1
 79
     5
176
     1
170
     0
176
     1
171
     0
176
     1
290
     0
176
     1
 93
        1
176
     1
 44
0.0
176
     1
173
     0
176
     1
  0
VISUALSTYLE
  5
34
102
{ACAD_REACTORS
330
2A
102
}
330
2A
100
AcDbVisualStyle
  2
Conceptual
 70
     9
177
     2
291
     0
 71
     3
176
     1
 72
     2
176
     1
 73
     0
176
     1
 90
        0
176
     1
 40
-0.6
176
     1
 41
-30.0
176
     1
 62
     5
 63
     7
421
 16777215
176
     1
 74
     2
176
     1
 91
        2
176
     1
 64
     7
176
     1
 65
   257
176
     1
 75
     1
176
     1
175
     1
176
     1
 42
40.0
176
     1
 92
        8
176
     1
 66
     7
176
     1
 43
1.0
176
     1
 76
     1
176
     1
 77
     6
176
     1
 78
     2
176
     1
 67
     7
176
     1
 79
     3
176
     1
170
     0
176
     1
171
     0
176
     1
290
     0
176
     1
 93
        1
176
     1
 44
0.0
176
     1
173
     0
176
     1
  0
VISUALSTYLE
  5
35
102
{ACAD_REACTORS
330
2A
102
}
330
2A
100
AcDbVisualStyle
  2
Dim
 70
    11
177
     2
291
     1
 71
     2
176
     1
 72
     2
176
     1
 73
     0
176
     1
 90
        0
176
     1
 40
-0.6
176
     1
 41
-30.0
176
     1
 62
     5
 63
     7
421
 16777215
176
     1
 74
     1
176
     1
 91
        4
176
     1
 64
     7
176
     1
 65
   257
176
     1
 75
     1
176
     1
175
     1
176
     1
 42
1.0
176
     1
 92
        8
176
     1
 66
     7
176
     1
 43
1.0
176
     1
 76
     1
176
     1
 77
     6
176
     1
 78
     2
176
     1
 67
     7
176
     1
 79
     5
176
     1
170
     0
176
     1
171
     0
176
     1
290
     0
176
     1
 93
        1
176
     1
 44
-50.0
176
     1
173
     0
176
     1
  0
VISUALSTYLE
  5
39
102
{ACAD_REACTORS
330
2A
102
}
330
2A
100
AcDbVisualStyle
  2
Facepattern
 70
    15
177
     2
291
     1
 71
     2
176
     1
 72
     2
176
     1
 73
     0
176
     1
 90
        0
176
     1
 40
-0.6
176
     1
 41
-30.0
176
     1
 62
     5
 63
     7
421
 16777215
176
     1
 74
     1
176
     1
 91
        4
176
     1
 64
     7
176
     1
 65
   257
176
     1
 75
     1
176
     1
175
     1
176
     1
 42
1.0
176
     1
 92
        8
176
     1
 66
     7
176
     1
 43
1.0
176
     1
 76
     1
176
     1
 77
     6
176
     1
 78
     2
176
     1
 67
     7
176
     1
 79
     5
176
     1
170
     0
176
     1
171
     0
176
     1
290
     0
176
     1
 93
        1
176
     1
 44
0.0
176
     1
173
     0
176
     1
  0
VISUALSTYLE
  5
2B
102
{ACAD_REACTORS
330
2A
102
}
330
2A
100
AcDbVisualStyle
  2
Flat
 70
     0
177
     2
291
     1
 71
     2
176
     1
 72
     1
176
     1
 73
     1
176
     1
 90
        2
176
     1
 40
-0.6
176
     1
 41
30.0
176
     1
 62
     5
 63
     7
421
 16777215
176
     1
 74
     0
176
     1
 91
        4
176
     1
 64
     7
176
     1
 65
   257
176
     1
 75
     1
176
     1
175
     1
176
     1
 42
1.0
176
     1
 92
        8
176
     1
 66
     7
176
     1
 43
1.0
176
     1
 76
     1
176
     1
 77
     6
176
     1
 78
     2
176
     1
 67
     7
176
     1
 79
     5
176
     1
170
     0
176
     1
171
     0
176
     1
290
     0
176
     1
 93
       13
176
     1
 44
0.0
176
     1
173
     0
176
     1
  0
VISUALSTYLE
  5
2C
102
{ACAD_REACTORS
330
2A
102
}
330
2A
100
AcDbVisualStyle
  2
FlatWithEdges
 70
     1
177
     2
291
     1
 71
     2
176
     1
 72
     1
176
     1
 73
     1
176
     1
 90
        2
176
     1
 40
-0.6
176
     1
 41
30.0
176
     1
 62
     5
 63
     7
421
 16777215
176
     1
 74
     1
176
     1
 91
        4
176
     1
 64
     7
176
     1
 65
   257
176
     1
 75
     1
176
     1
175
     1
176
     1
 42
1.0
176
     1
 92
        0
176
     1
 66
   257
176
     1
 43
1.0
176
     1
 76
     1
176
     1
 77
     6
176
     1
 78
     2
176
     1
 67
     7
176
     1
 79
     5
176
     1
170
     0
176
     1
171
     0
176
     1
290
     0
176
     1
 93
       13
176
     1
 44
0.0
176
     1
173
     0
176
     1
  0
VISUALSTYLE
  5
2D
102
{ACAD_REACTORS
330
2A
102
}
330
2A
100
AcDbVisualStyle
  2
Gouraud
 70
     2
177
     2
291
     1
 71
     2
176
     1
 72
     2
176
     1
 73
     1
176
     1
 90
        2
176
     1
 40
-0.6
176
     1
 41
30.0
176
     1
 62
     5
 63
     7
421
 16777215
176
     1
 74
     0
176
     1
 91
        4
176
     1
 64
     7
176
     1
 65
   257
176
     1
 75
     1
176
     1
175
     1
176
     1
 42
1.0
176
     1
 92
        0
176
     1
 66
     7
176
     1
 43
1.0
176
     1
 76
     1
176
     1
 77
     6
176
     1
 78
     2
176
     1
 67
     7
176
     1
 79
     5
176
     1
170
     0
176
     1
171
     0
176
     1
290
     0
176
     1
 93
       13
176
     1
 44
0.0
176
     1
173
     0
176
     1
  0
VISUALSTYLE
  5
2E
102
{ACAD_REACTORS
330
2A
102
}
330
2A
100
AcDbVisualStyle
  2
GouraudWithEdges
 70
     3
177
     2
291
     1
 71
     2
176
     1
 72
     2
176
     1
 73
     1
176
     1
 90
        2
176
     1
 40
-0.6
176
     1
 41
30.0
176
     1
 62
     5
 63
     7
421
 16777215
176
     1
 74
     1
176
     1
 91
        4
176
     1
 64
     7
176
     1
 65
   257
176
     1
 75
     1
176
     1
175
     1
176
     1
 42
1.0
176
     1
 92
        0
176
     1
 66
   257
176
     1
 43
1.0
176
     1
 76
     1
176
     1
 77
     6
176
     1
 78
     2
176
     1
 67
     7
176
     1
 79
     5
176
     1
170
     0
176
     1
171
     0
176
     1
290
     0
176
     1
 93
       13
176
     1
 44
0.0
176
     1
173
     0
176
     1
  0
VISUALSTYLE
  5
38
102
{ACAD_REACTORS
330
2A
102
}
330
2A
100
AcDbVisualStyle
  2
Linepattern
 70
    14
177
     2
291
     1
 71
     2
176
     1
 72
     2
176
     1
 73
     0
176
     1
 90
        0
176
     1
 40
-0.6
176
     1
 41
-30.0
176
     1
 62
     5
 63
     7
421
 16777215
176
     1
 74
     1
176
     1
 91
        4
176
     1
 64
     7
176
     1
 65
   257
176
     1
 75
     7
176
     1
175
     7
176
     1
 42
1.0
176
     1
 92
        8
176
     1
 66
     7
176
     1
 43
1.0
176
     1
 76
     1
176
     1
 77
     6
176
     1
 78
     2
176
     1
 67
     7
176
     1
 79
     5
176
     1
170
     0
176
     1
171
     0
176
     1
290
     0
176
     1
 93
        1
176
     1
 44
0.0
176
     1
173
     0
176
     1
  0
VISUALSTYLE
  5
33
102
{ACAD_REACTORS
330
2A
102
}
330
2A
100
AcDbVisualStyle
  2
Realistic
 70
     8
177
     2
291
     0
 71
     2
176
     1
 72
     2
176
     1
 73
     0
176
     1
 90
        0
176
     1
 40
-0.6
176
     1
 41
-30.0
176
     1
 62
     5
 63
     7
421
 16777215
176
     1
 74
     1
176
     1
 91
        0
176
     1
 64
     7
176
     1
 65
   257
176
     1
 75
     1
176
     1
175
     1
176
     1
 42
1.0
176
     1
 92
        8
176
     1
 66
     8
424
  7895160
176
     1
 43
1.0
176
     1
 76
     1
176
     1
 77
     6
176
     1
 78
     2
176
     1
 67
     7
176
     1
 79
     5
176
     1
170
     0
176
     1
171
     0
176
     1
290
     0
176
     1
 93
       13
176
     1
 44
0.0
176
     1
173
     0
176
     1
  0
VISUALSTYLE
  5
37
102
{ACAD_REACTORS
330
2A
102
}
330
2A
100
AcDbVisualStyle
  2
Thicken
 70
    13
177
     2
291
     1
 71
     2
176
     1
 72
     2
176
     1
 73
     0
176
     1
 90
        0
176
     1
 40
-0.6
176
     1
 41
-30.0
176
     1
 62
     5
 63
     7
421
 16777215
176
     1
 74
     1
176
     1
 91
        4
176
     1
 64
     7
176
     1
 65
   257
176
     1
 75
     1
176
     1
175
     1
176
     1
 42
1.0
176
     1
 92
       12
176
     1
 66
     7
176
     1
 43
1.0
176
     1
 76
     1
176
     1
 77
     6
176
     1
 78
     2
176
     1
 67
     7
176
     1
 79
     5
176
     1
170
     0
176
     1
171
     0
176
     1
290
     0
176
     1
 93
        1
176
     1
 44
0.0
176
     1
173
     0
176
     1
  0
ENDSEC
  0
EOF
