  0
SECTION
  2
HEADER
  9
$ACADVER
  1
AC1024
  9
$ACADMAINTVER
 70
     6
  9
$DWGCODEPAGE
  3
UNDEFINED
  9
$INSBASE
 10
0.0
 20
0.0
 30
0.0
  9
$EXTMIN
 10
1.000000000000000E+20
 20
1.000000000000000E+20
 30
1.000000000000000E+20
  9
$EXTMAX
 10
-1.000000000000000E+20
 20
-1.000000000000000E+20
 30
-1.000000000000000E+20
  9
$LIMMIN
 10
0.0
 20
0.0
  9
$LIMMAX
 10
12.0
 20
9.0
  9
$ORTHOMODE
 70
     0
  9
$REGENMODE
 70
     1
  9
$FILLMODE
 70
     1
  9
$QTEXTMODE
 70
     0
  9
$MIRRTEXT
 70
     1
  9
$LTSCALE
 40
1.0
  9
$ATTMODE
 70
     1
  9
$TEXTSIZE
 40
0.2
  9
$TRACEWID
 40
0.05
  9
$TEXTSTYLE
  7
Standard
  9
$CLAYER
  8
0
  9
$CELTYPE
  6
ByLayer
  9
$CECOLOR
 62
   256
  9
$CELTSCALE
 40
1.0
  9
$DISPSILH
 70
     0
  9
$DIMSCALE
 40
1.0
  9
$DIMASZ
 40
0.18
  9
$DIMEXO
 40
0.0625
  9
$DIMDLI
 40
0.38
  9
$DIMRND
 40
0.0
  9
$DIMDLE
 40
0.0
  9
$DIMEXE
 40
0.18
  9
$DIMTP
 40
0.0
  9
$DIMTM
 40
0.0
  9
$DIMTXT
 40
0.18
  9
$DIMCEN
 40
0.09
  9
$DIMTSZ
 40
0.0
  9
$DIMTOL
 70
     0
  9
$DIMLIM
 70
     0
  9
$DIMTIH
 70
     1
  9
$DIMTOH
 70
     1
  9
$DIMSE1
 70
     0
  9
$DIMSE2
 70
     0
  9
$DIMTAD
 70
     0
  9
$DIMZIN
 70
     0
  9
$DIMBLK
  1

  9
$DIMASO
 70
     1
  9
$DIMSHO
 70
     1
  9
$DIMPOST
  1

  9
$DIMAPOST
  1

  9
$DIMALT
 70
     0
  9
$DIMALTD
 70
     2
  9
$DIMALTF
 40
25.4
  9
$DIMLFAC
 40
1.0
  9
$DIMTOFL
 70
     0
  9
$DIMTVP
 40
0.0
  9
$DIMTIX
 70
     0
  9
$DIMSOXD
 70
     0
  9
$DIMSAH
 70
     0
  9
$DIMBLK1
  1

  9
$DIMBLK2
  1

  9
$DIMSTYLE
  2
Standard
  9
$DIMCLRD
 70
     0
  9
$DIMCLRE
 70
     0
  9
$DIMCLRT
 70
     0
  9
$DIMTFAC
 40
1.0
  9
$DIMGAP
 40
0.09
  9
$DIMJUST
 70
     0
  9
$DIMSD1
 70
     0
  9
$DIMSD2
 70
     0
  9
$DIMTOLJ
 70
     1
  9
$DIMTZIN
 70
     0
  9
$DIMALTZ
 70
     0
  9
$DIMALTTZ
 70
     0
  9
$DIMUPT
 70
     0
  9
$DIMDEC
 70
     4
  9
$DIMTDEC
 70
     4
  9
$DIMALTU
 70
     2
  9
$DIMALTTD
 70
     2
  9
$DIMTXSTY
  7
Standard
  9
$DIMAUNIT
 70
     0
  9
$DIMADEC
 70
     0
  9
$DIMALTRND
 40
0.0
  9
$DIMAZIN
 70
     0
  9
$DIMDSEP
 70
    46
  9
$DIMATFIT
 70
     3
  9
$DIMFRAC
 70
     0
  9
$DIMLDRBLK
  1

  9
$DIMLUNIT
 70
     2
  9
$DIMLWD
 70
    -2
  9
$DIMLWE
 70
    -2
  9
$DIMTMOVE
 70
     0
  9
$DIMFXL
 40
1.0
  9
$DIMFXLON
 70
     0
  9
$DIMJOGANG
 40
0.7853981633974483
  9
$DIMTFILL
 70
     0
  9
$DIMTFILLCLR
 70
     0
  9
$DIMARCSYM
 70
     0
  9
$DIMLTYPE
  6

  9
$DIMLTEX1
  6

  9
$DIMLTEX2
  6

  9
$DIMTXTDIRECTION
 70
     0
  9
$LUNITS
 70
     2
  9
$LUPREC
 70
     4
  9
$SKETCHINC
 40
0.1
  9
$FILLETRAD
 40
0.5
  9
$AUNITS
 70
     0
  9
$AUPREC
 70
     0
  9
$MENU
  1
.
  9
$ELEVATION
 40
0.0
  9
$PELEVATION
 40
0.0
  9
$THICKNESS
 40
0.0
  9
$LIMCHECK
 70
     0
  9
$CHAMFERA
 40
0.5
  9
$CHAMFERB
 40
0.5
  9
$CHAMFERC
 40
1.0
  9
$CHAMFERD
 40
0.0
  9
$SKPOLY
 70
     0
  9
$TDCREATE
 40
2457917.599722222
  9
$TDUCREATE
 40
2457917.224722222
  9
$TDUPDATE
 40
2457917.599722222
  9
$TDUUPDATE
 40
2457917.224722222
  9
$TDINDWG
 40
0.0000000116
  9
$TDUSRTIMER
 40
0.0000000116
  9
$USRTIMER
 70
     1
  9
$ANGBASE
 50
0.0
  9
$ANGDIR
 70
     0
  9
$PDMODE
 70
     0
  9
$PDSIZE
 40
0.0
  9
$PLINEWID
 40
0.0
  9
$SPLFRAME
 70
     0
  9
$SPLINETYPE
 70
     6
  9
$SPLINESEGS
 70
     8
  9
$HANDSEED
  5
16B
  9
$SURFTAB1
 70
     6
  9
$SURFTAB2
 70
     6
  9
$SURFTYPE
 70
     6
  9
$SURFU
 70
     6
  9
$SURFV
 70
     6
  9
$UCSBASE
  2

  9
$UCSNAME
  2

  9
$UCSORG
 10
0.0
 20
0.0
 30
0.0
  9
$UCSXDIR
 10
1.0
 20
0.0
 30
0.0
  9
$UCSYDIR
 10
0.0
 20
1.0
 30
0.0
  9
$UCSORTHOREF
  2

  9
$UCSORTHOVIEW
 70
     0
  9
$UCSORGTOP
 10
0.0
 20
0.0
 30
0.0
  9
$UCSORGBOTTOM
 10
0.0
 20
0.0
 30
0.0
  9
$UCSORGLEFT
 10
0.0
 20
0.0
 30
0.0
  9
$UCSORGRIGHT
 10
0.0
 20
0.0
 30
0.0
  9
$UCSORGFRONT
 10
0.0
 20
0.0
 30
0.0
  9
$UCSORGBACK
 10
0.0
 20
0.0
 30
0.0
  9
$PUCSBASE
  2

  9
$PUCSNAME
  2

  9
$PUCSORG
 10
0.0
 20
0.0
 30
0.0
  9
$PUCSXDIR
 10
1.0
 20
0.0
 30
0.0
  9
$PUCSYDIR
 10
0.0
 20
1.0
 30
0.0
  9
$PUCSORTHOREF
  2

  9
$PUCSORTHOVIEW
 70
     0
  9
$PUCSORGTOP
 10
0.0
 20
0.0
 30
0.0
  9
$PUCSORGBOTTOM
 10
0.0
 20
0.0
 30
0.0
  9
$PUCSORGLEFT
 10
0.0
 20
0.0
 30
0.0
  9
$PUCSORGRIGHT
 10
0.0
 20
0.0
 30
0.0
  9
$PUCSORGFRONT
 10
0.0
 20
0.0
 30
0.0
  9
$PUCSORGBACK
 10
0.0
 20
0.0
 30
0.0
  9
$USERI1
 70
     0
  9
$USERI2
 70
     0
  9
$USERI3
 70
     0
  9
$USERI4
 70
     0
  9
$USERI5
 70
     0
  9
$USERR1
 40
0.0
  9
$USERR2
 40
0.0
  9
$USERR3
 40
0.0
  9
$USERR4
 40
0.0
  9
$USERR5
 40
0.0
  9
$WORLDVIEW
 70
     1
  9
$SHADEDGE
 70
     3
  9
$SHADEDIF
 70
    70
  9
$TILEMODE
 70
     1
  9
$MAXACTVP
 70
    64
  9
$PINSBASE
 10
0.0
 20
0.0
 30
0.0
  9
$PLIMCHECK
 70
     0
  9
$PEXTMIN
 10
1.000000000000000E+20
 20
1.000000000000000E+20
 30
1.000000000000000E+20
  9
$PEXTMAX
 10
-1.000000000000000E+20
 20
-1.000000000000000E+20
 30
-1.000000000000000E+20
  9
$PLIMMIN
 10
0.0
 20
0.0
  9
$PLIMMAX
 10
12.0
 20
9.0
  9
$UNITMODE
 70
     0
  9
$VISRETAIN
 70
     1
  9
$PLINEGEN
 70
     0
  9
$PSLTSCALE
 70
     1
  9
$TREEDEPTH
 70
  3020
  9
$CMLSTYLE
  2
Standard
  9
$CMLJUST
 70
     0
  9
$CMLSCALE
 40
1.0
  9
$PROXYGRAPHICS
 70
     1
  9
$MEASUREMENT
 70
     0
  9
$CELWEIGHT
370
    -1
  9
$ENDCAPS
280
     0
  9
$JOINSTYLE
280
     0
  9
$LWDISPLAY
290
     1
  9
$INSUNITS
 70
     1
  9
$HYPERLINKBASE
  1

  9
$STYLESHEET
  1

  9
$XEDIT
290
     1
  9
$CEPSNTYPE
380
     0
  9
$PSTYLEMODE
290
     1
  9
$FINGERPRINTGUID
  2
{B0212E50-AD00-C8BF-6F24-22F2113AE031}
  9
$VERSIONGUID
  2
{FAEB1C32-E019-11D5-929B-00C0DF256EC4}
  9
$EXTNAMES
290
     1
  9
$PSVPSCALE
 40
0.0
  9
$OLESTARTUP
290
     0
  9
$SORTENTS
280
   127
  9
$INDEXCTL
280
     0
  9
$HIDETEXT
280
     1
  9
$XCLIPFRAME
280
     2
  9
$HALOGAP
280
     0
  9
$OBSCOLOR
 70
   257
  9
$OBSLTYPE
280
     0
  9
$INTERSECTIONDISPLAY
280
     0
  9
$INTERSECTIONCOLOR
 70
   257
  9
$DIMASSOC
280
     2
  9
$PROJECTNAME
  1

  9
$CAMERADISPLAY
290
     0
  9
$LENSLENGTH
 40
50.0
  9
$CAMERAHEIGHT
 40
0.0
  9
$STEPSPERSEC
 40
2.0
  9
$STEPSIZE
 40
6.0
  9
$3DDWFPREC
 40
2.0
  9
$PSOLWIDTH
 40
0.25
  9
$PSOLHEIGHT
 40
4.0
  9
$LOFTANG1
 40
1.570796326794897
  9
$LOFTANG2
 40
1.570796326794897
  9
$LOFTMAG1
 40
0.0
  9
$LOFTMAG2
 40
0.0
  9
$LOFTPARAM
 70
     7
  9
$LOFTNORMALS
280
     1
  9
$LATITUDE
 40
37.795
  9
$LONGITUDE
 40
-122.394
  9
$NORTHDIRECTION
 40
0.0
  9
$TIMEZONE
 70
 -8000
  9
$LIGHTGLYPHDISPLAY
280
     1
  9
$TILEMODELIGHTSYNCH
280
     1
  9
$CMATERIAL
347
3C
  9
$SOLIDHIST
280
     1
  9
$SHOWHIST
280
     1
  9
$DWFFRAME
280
     2
  9
$DGNFRAME
280
     2
  9
$REALWORLDSCALE
290
     1
  9
$INTERFERECOLOR
 62
   256
  9
$CSHADOW
280
     0
  9
$SHADOWPLANELOCATION
 40
0.0
  0
ENDSEC
  0
SECTION
  2
CLASSES
  0
CLASS
  1
ACDBDICTIONARYWDFLT
  2
AcDbDictionaryWithDefault
  3
ObjectDBX Classes
 90
        0
 91
        4
280
     0
281
     0
  0
CLASS
  1
VISUALSTYLE
  2
AcDbVisualStyle
  3
ObjectDBX Classes
 90
     4095
 91
        4
280
     0
281
     0
  0
CLASS
  1
MATERIAL
  2
AcDbMaterial
  3
ObjectDBX Classes
 90
     1153
 91
        4
280
     0
281
     0
  0
CLASS
  1
SUN
  2
AcDbSun
  3
SCENEOE
 90
     1024
 91
        4
280
     0
281
     0
  0
ENDSEC
  0
SECTION
  2
TABLES
  0
TABLE
  2
VPORT
  5
8
330
0
100
AcDbSymbolTable
 70
     1
  0
VPORT
  5
29
330
8
100
AcDbSymbolTableRecord
100
AcDbViewportTableRecord
  2
*Active
 70
     0
 10
0.0
 20
0.0
 11
1.0
 21
1.0
 12
0.0
 22
0.0
 13
0.0
 23
0.0
 14
0.5
 24
0.5
 15
0.5
 25
0.5
 16
0.0
 26
0.0
 36
1.0
 17
91.00082462281999
 27
-128.4993055234307
 37
0.0
 40
256.9986110468615
 41
0.7081814508812795
 42
50.0
 43
0.0
 44
0.0
 50
0.0
 51
0.0
 71
     0
 72
   100
 73
     1
 74
     3
 75
     0
 76
     0
 77
     0
 78
     0
281
     0
 65
     1
110
0.0
120
0.0
130
0.0
111
1.0
121
0.0
131
0.0
112
0.0
122
1.0
132
0.0
 79
     0
146
0.0
 60
     3
 61
     5
292
     1
282
     1
141
0.0
142
0.0
 63
   250
361
3F
  0
ENDTAB
  0
TABLE
  2
LTYPE
  5
5
330
0
100
AcDbSymbolTable
 70
     2
  0
LTYPE
  5
14
330
5
100
AcDbSymbolTableRecord
100
AcDbLinetypeTableRecord
  2
ByBlock
 70
     0
  3

 72
    65
 73
     0
 40
0.0
  0
LTYPE
  5
15
330
5
100
AcDbSymbolTableRecord
100
AcDbLinetypeTableRecord
  2
ByLayer
 70
     0
  3

 72
    65
 73
     0
 40
0.0
  0
LTYPE
  5
16
330
5
100
AcDbSymbolTableRecord
100
AcDbLinetypeTableRecord
  2
Continuous
 70
     0
  3
Solid line
 72
    65
 73
     0
 40
0.0
  0
LTYPE
  5
47
330
5
100
AcDbSymbolTableRecord
100
AcDbLinetypeTableRecord
  2
AI-Linetype-1
 70
     0
  3
Adobe Illustrator Linetype No. 1
 72
    65
 73
     2
 40
1.411111110758333
 49
0.7055555553791667
 74
     0
 49
-0.7055555553791667
 74
     0
  0
ENDTAB
  0
TABLE
  2
LAYER
  5
2
330
0
100
AcDbSymbolTable
 70
     2
  0
LAYER
  5
10
330
2
100
AcDbSymbolTableRecord
100
AcDbLayerTableRecord
  2
0
 70
     0
 62
     7
  6
Continuous
370
    -3
390
F
347
3E
  0
LAYER
  5
40
330
2
100
AcDbSymbolTableRecord
100
AcDbLayerTableRecord
  2
_U+30EC_U+30A4_U+30E4_U+30FC 1
 70
     0
 62
     7
  6
Continuous
370
    -3
390
F
347
3E
  0
ENDTAB
  0
TABLE
  2
STYLE
  5
3
330
0
100
AcDbSymbolTable
 70
     1
  0
STYLE
  5
11
330
3
100
AcDbSymbolTableRecord
100
AcDbTextStyleTableRecord
  2
Standard
 70
     0
 40
0.0
 41
1.0
 50
0.0
 71
     0
 42
0.2
  3
txt
  4

  0
ENDTAB
  0
TABLE
  2
VIEW
  5
6
330
0
100
AcDbSymbolTable
 70
     0
  0
ENDTAB
  0
TABLE
  2
UCS
  5
7
330
0
100
AcDbSymbolTable
 70
     0
  0
ENDTAB
  0
TABLE
  2
APPID
  5
9
330
0
100
AcDbSymbolTable
 70
     1
  0
APPID
  5
12
330
9
100
AcDbSymbolTableRecord
100
AcDbRegAppTableRecord
  2
ACAD
 70
     0
  0
ENDTAB
  0
TABLE
  2
DIMSTYLE
  5
A
330
0
100
AcDbSymbolTable
 70
     1
100
AcDbDimStyleTable
  0
DIMSTYLE
105
27
330
A
100
AcDbSymbolTableRecord
100
AcDbDimStyleTableRecord
  2
Standard
 70
     0
178
     0
340
11
  0
ENDTAB
  0
TABLE
  2
BLOCK_RECORD
  5
1
330
0
100
AcDbSymbolTable
 70
     8
  0
BLOCK_RECORD
  5
1F
330
1
100
AcDbSymbolTableRecord
100
AcDbBlockTableRecord
  2
*Model_Space
340
22
 70
     0
280
     1
281
     0
  0
BLOCK_RECORD
  5
1B
330
1
100
AcDbSymbolTableRecord
100
AcDbBlockTableRecord
  2
*Paper_Space
340
1E
 70
     0
280
     1
281
     0
  0
BLOCK_RECORD
  5
23
330
1
100
AcDbSymbolTableRecord
100
AcDbBlockTableRecord
  2
*Paper_Space0
340
26
 70
     0
280
     1
281
     0
  0
BLOCK_RECORD
  5
4E
330
1
100
AcDbSymbolTableRecord
100
AcDbBlockTableRecord
  2
block 2
340
0
102
{BLKREFS
331
4F
102
}
 70
     0
280
     1
281
     0
  0
BLOCK_RECORD
  5
C5
330
1
100
AcDbSymbolTableRecord
100
AcDbBlockTableRecord
  2
block 3
340
0
102
{BLKREFS
331
C6
102
}
 70
     0
280
     1
281
     0
  0
BLOCK_RECORD
  5
D7
330
1
100
AcDbSymbolTableRecord
100
AcDbBlockTableRecord
  2
block 4
340
0
102
{BLKREFS
331
D8
102
}
 70
     0
280
     1
281
     0
  0
BLOCK_RECORD
  5
100
330
1
100
AcDbSymbolTableRecord
100
AcDbBlockTableRecord
  2
block 5
340
0
102
{BLKREFS
331
101
102
}
 70
     0
280
     1
281
     0
  0
BLOCK_RECORD
  5
113
330
1
100
AcDbSymbolTableRecord
100
AcDbBlockTableRecord
  2
block 6
340
0
102
{BLKREFS
331
114
102
}
 70
     0
280
     1
281
     0
  0
BLOCK_RECORD
  5
149
330
1
100
AcDbSymbolTableRecord
100
AcDbBlockTableRecord
  2
block 7
340
0
102
{BLKREFS
331
14A
102
}
 70
     0
280
     1
281
     0
  0
BLOCK_RECORD
  5
162
330
1
100
AcDbSymbolTableRecord
100
AcDbBlockTableRecord
  2
block 8
340
0
102
{BLKREFS
331
163
102
}
 70
     0
280
     1
281
     0
  0
ENDTAB
  0
ENDSEC
  0
SECTION
  2
BLOCKS
  0
BLOCK
  5
20
330
1F
100
AcDbEntity
  8
0
100
AcDbBlockBegin
  2
*Model_Space
 70
     0
 10
0.0
 20
0.0
 30
0.0
  3
*Model_Space
  1

  0
ENDBLK
  5
21
330
1F
100
AcDbEntity
  8
0
100
AcDbBlockEnd
  0
BLOCK
  5
1C
330
1B
100
AcDbEntity
 67
     1
  8
0
100
AcDbBlockBegin
  2
*Paper_Space
 70
     0
 10
0.0
 20
0.0
 30
0.0
  3
*Paper_Space
  1

  0
ENDBLK
  5
1D
330
1B
100
AcDbEntity
 67
     1
  8
0
100
AcDbBlockEnd
  0
BLOCK
  5
24
330
23
100
AcDbEntity
  8
0
100
AcDbBlockBegin
  2
*Paper_Space0
 70
     0
 10
0.0
 20
0.0
 30
0.0
  3
*Paper_Space0
  1

  0
ENDBLK
  5
25
330
23
100
AcDbEntity
  8
0
100
AcDbBlockEnd
  0
BLOCK
  5
50
330
4E
100
AcDbEntity
  8
0
100
AcDbBlockBegin
  2
block 2
 70
     0
 10
0.0
 20
0.0
 30
0.0
  3
block 2
  1

  0
SPLINE
  5
52
330
4E
100
AcDbEntity
  8
_U+30EC_U+30A4_U+30E4_U+30FC 1
370
     0
100
AcDbSpline
210
0.0
220
0.0
230
1.0
 70
    11
 71
     3
 72
    17
 73
    13
 74
     0
 42
0.0000000001
 43
0.0000000001
 12
1.0
 22
0.0
 32
0.0
 13
1.0
 23
0.0
 33
0.0
 40
0.0
 40
0.0
 40
0.0
 40
0.0
 40
1.0
 40
1.0
 40
1.0
 40
2.0
 40
2.0
 40
2.0
 40
3.0
 40
3.0
 40
3.0
 40
4.0
 40
4.0
 40
4.0
 40
4.0
 10
92.32821449514712
 20
-117.1015516200302
 30
0.0
 10
92.22245006374995
 20
-116.995787188633
 30
0.0
 10
92.1418348293951
 20
-116.9578911382953
 30
0.0
 10
92.04881725129336
 20
-116.9258517502824
 30
0.0
 10
92.04881725129336
 20
-116.9258517502824
 30
0.0
 10
92.15906030682135
 20
-116.760831676539
 30
0.0
 10
92.15906030682135
 20
-116.760831676539
 30
0.0
 10
92.2562119995054
 20
-116.8032063510075
 30
0.0
 10
92.37679034148914
 20
-116.8817545280712
 30
0.0
 10
92.42984481196198
 20
-116.9365315462867
 30
0.0
 10
92.42984481196198
 20
-116.9365315462867
 30
0.0
 10
92.32821449514712
 20
-117.1015516200302
 30
0.0
 10
92.32821449514712
 20
-117.1015516200302
 30
0.0
  0
SPLINE
  5
53
330
4E
100
AcDbEntity
  8
_U+30EC_U+30A4_U+30E4_U+30FC 1
370
     0
100
AcDbSpline
210
0.0
220
0.0
230
1.0
 70
    11
 71
     3
 72
   182
 73
   178
 74
     0
 42
0.0000000001
 43
0.0000000001
 12
1.0
 22
0.0
 32
0.0
 13
1.0
 23
0.0
 33
0.0
 40
0.0
 40
0.0
 40
0.0
 40
0.0
 40
1.0
 40
1.0
 40
1.0
 40
2.0
 40
2.0
 40
2.0
 40
3.0
 40
3.0
 40
3.0
 40
4.0
 40
4.0
 40
4.0
 40
5.0
 40
5.0
 40
5.0
 40
6.0
 40
6.0
 40
6.0
 40
7.0
 40
7.0
 40
7.0
 40
8.0
 40
8.0
 40
8.0
 40
9.0
 40
9.0
 40
9.0
 40
10.0
 40
10.0
 40
10.0
 40
11.0
 40
11.0
 40
11.0
 40
12.0
 40
12.0
 40
12.0
 40
13.0
 40
13.0
 40
13.0
 40
14.0
 40
14.0
 40
14.0
 40
15.0
 40
15.0
 40
15.0
 40
16.0
 40
16.0
 40
16.0
 40
17.0
 40
17.0
 40
17.0
 40
18.0
 40
18.0
 40
18.0
 40
19.0
 40
19.0
 40
19.0
 40
20.0
 40
20.0
 40
20.0
 40
21.0
 40
21.0
 40
21.0
 40
22.0
 40
22.0
 40
22.0
 40
23.0
 40
23.0
 40
23.0
 40
24.0
 40
24.0
 40
24.0
 40
25.0
 40
25.0
 40
25.0
 40
26.0
 40
26.0
 40
26.0
 40
27.0
 40
27.0
 40
27.0
 40
28.0
 40
28.0
 40
28.0
 40
29.0
 40
29.0
 40
29.0
 40
30.0
 40
30.0
 40
30.0
 40
31.0
 40
31.0
 40
31.0
 40
32.0
 40
32.0
 40
32.0
 40
33.0
 40
33.0
 40
33.0
 40
34.0
 40
34.0
 40
34.0
 40
35.0
 40
35.0
 40
35.0
 40
36.0
 40
36.0
 40
36.0
 40
37.0
 40
37.0
 40
37.0
 40
38.0
 40
38.0
 40
38.0
 40
39.0
 40
39.0
 40
39.0
 40
40.0
 40
40.0
 40
40.0
 40
41.0
 40
41.0
 40
41.0
 40
42.0
 40
42.0
 40
42.0
 40
43.0
 40
43.0
 40
43.0
 40
44.0
 40
44.0
 40
44.0
 40
45.0
 40
45.0
 40
45.0
 40
46.0
 40
46.0
 40
46.0
 40
47.0
 40
47.0
 40
47.0
 40
48.0
 40
48.0
 40
48.0
 40
49.0
 40
49.0
 40
49.0
 40
50.0
 40
50.0
 40
50.0
 40
51.0
 40
51.0
 40
51.0
 40
52.0
 40
52.0
 40
52.0
 40
53.0
 40
53.0
 40
53.0
 40
54.0
 40
54.0
 40
54.0
 40
55.0
 40
55.0
 40
55.0
 40
56.0
 40
56.0
 40
56.0
 40
57.0
 40
57.0
 40
57.0
 40
58.0
 40
58.0
 40
58.0
 40
59.0
 40
59.0
 40
59.0
 40
59.0
 10
93.37311195582339
 20
-118.2797742759856
 30
0.0
 10
93.37311195582339
 20
-118.2797742759856
 30
0.0
 10
92.73645831014922
 20
-118.2797742759856
 30
0.0
 10
92.73645831014922
 20
-118.2797742759856
 30
0.0
 10
92.52286239006374
 20
-118.2797742759856
 30
0.0
 10
92.3071994126871
 20
-118.2842529001164
 30
0.0
 10
92.09325898305308
 20
-118.2969997534119
 30
0.0
 10
92.09325898305308
 20
-118.2969997534119
 30
0.0
 10
92.09325898305308
 20
-118.0896050051998
 30
0.0
 10
92.09325898305308
 20
-118.0896050051998
 30
0.0
 10
92.3154676418517
 20
-118.1023518584953
 30
0.0
 10
92.63930661746518
 20
-118.1064859730776
 30
0.0
 10
92.73645831014922
 20
-118.1064859730776
 30
0.0
 10
92.73645831014922
 20
-118.1064859730776
 30
0.0
 10
92.95625540210817
 20
-118.1064859730776
 30
0.0
 10
92.95625540210817
 20
-118.1064859730776
 30
0.0
 10
92.95625540210817
 20
-118.1064859730776
 30
0.0
 10
92.95625540210817
 20
-117.9648925486338
 30
0.0
 10
92.95625540210817
 20
-117.9648925486338
 30
0.0
 10
92.95625540210817
 20
-117.9648925486338
 30
0.0
 10
92.79571395249552
 20
-117.9648925486338
 30
0.0
 10
92.79571395249552
 20
-117.9648925486338
 30
0.0
 10
92.63069387875206
 20
-117.9648925486338
 30
0.0
 10
92.46567380500859
 20
-117.9690266632161
 30
0.0
 10
92.30065373126511
 20
-117.9838405738027
 30
0.0
 10
92.30065373126511
 20
-117.9838405738027
 30
0.0
 10
92.30065373126511
 20
-117.7743787682995
 30
0.0
 10
92.30065373126511
 20
-117.7743787682995
 30
0.0
 10
92.47187497688203
 20
-117.789192678886
 30
0.0
 10
92.71957734227149
 20
-117.7933267934683
 30
0.0
 10
92.79571395249552
 20
-117.7933267934683
 30
0.0
 10
92.79571395249552
 20
-117.7933267934683
 30
0.0
 10
92.95625540210817
 20
-117.7933267934683
 30
0.0
 10
92.95625540210817
 20
-117.7933267934683
 30
0.0
 10
92.95212128752587
 20
-117.7213242978266
 30
0.0
 10
92.95212128752587
 20
-117.7151231259532
 30
0.0
 10
92.94592011565241
 20
-117.6620686554803
 30
0.0
 10
92.94592011565241
 20
-117.6620686554803
 30
0.0
 10
93.08544648280503
 20
-117.6768825660669
 30
0.0
 10
93.08544648280503
 20
-117.6768825660669
 30
0.0
 10
93.08544648280503
 20
-117.6768825660669
 30
0.0
 10
92.9858832232813
 20
-117.50566132045
 30
0.0
 10
92.9858832232813
 20
-117.50566132045
 30
0.0
 10
93.03273652188071
 20
-117.5118624923234
 30
0.0
 10
93.10646156526505
 20
-117.5204752310366
 30
0.0
 10
93.1236870426913
 20
-117.5204752310366
 30
0.0
 10
93.17432994632448
 20
-117.5204752310366
 30
0.0
 10
93.1912109142022
 20
-117.4994601485765
 30
0.0
 10
93.1912109142022
 20
-117.4422715635214
 30
0.0
 10
93.1912109142022
 20
-117.4422715635214
 30
0.0
 10
93.1912109142022
 20
-117.3048122536599
 30
0.0
 10
93.1912109142022
 20
-117.3048122536599
 30
0.0
 10
93.1912109142022
 20
-117.3048122536599
 30
0.0
 10
93.08544648280503
 20
-117.3048122536599
 30
0.0
 10
93.08544648280503
 20
-117.3048122536599
 30
0.0
 10
92.95212128752587
 20
-117.3048122536599
 30
0.0
 10
92.79571395249552
 20
-117.3048122536599
 30
0.0
 10
92.67306855322063
 20
-117.3172145974068
 30
0.0
 10
92.67306855322063
 20
-117.3172145974068
 30
0.0
 10
92.67306855322063
 20
-117.127045326621
 30
0.0
 10
92.67306855322063
 20
-117.127045326621
 30
0.0
 10
92.84015568425524
 20
-117.1439262944987
 30
0.0
 10
93.07063257221846
 20
-117.1459933517899
 30
0.0
 10
93.08544648280503
 20
-117.1459933517899
 30
0.0
 10
93.08544648280503
 20
-117.1459933517899
 30
0.0
 10
93.1912109142022
 20
-117.1459933517899
 30
0.0
 10
93.1912109142022
 20
-117.1459933517899
 30
0.0
 10
93.1912109142022
 20
-117.1459933517899
 30
0.0
 10
93.1912109142022
 20
-117.0147352138019
 30
0.0
 10
93.1912109142022
 20
-117.0147352138019
 30
0.0
 10
93.1912109142022
 20
-117.0147352138019
 30
0.0
 10
93.15331486386445
 20
-117.0147352138019
 30
0.0
 10
93.15331486386445
 20
-117.0147352138019
 30
0.0
 10
93.10852862255621
 20
-117.0147352138019
 30
0.0
 10
92.98381616599016
 20
-117.0192138379327
 30
0.0
 10
92.89493270247071
 20
-117.0274820670973
 30
0.0
 10
92.89493270247071
 20
-117.0274820670973
 30
0.0
 10
92.89493270247071
 20
-116.947211342291
 30
0.0
 10
92.89493270247071
 20
-116.947211342291
 30
0.0
 10
92.8422227415464
 20
-116.9851073926287
 30
0.0
 10
92.81707354450407
 20
-116.9999213032153
 30
0.0
 10
92.77435436048697
 20
-117.023347952515
 30
0.0
 10
92.77435436048697
 20
-117.023347952515
 30
0.0
 10
92.58625214699234
 20
-116.8941568718181
 30
0.0
 10
92.58625214699234
 20
-116.8941568718181
 30
0.0
 10
92.6644558145075
 20
-116.8603949360627
 30
0.0
 10
92.82120765908637
 20
-116.7970051791341
 30
0.0
 10
92.9776149941167
 20
-116.6530001878507
 30
0.0
 10
93.0602972857627
 20
-116.5747965203355
 30
0.0
 10
93.13815644372936
 20
-116.4900471713983
 30
0.0
 10
93.1912109142022
 20
-116.388761364132
 30
0.0
 10
93.1912109142022
 20
-116.388761364132
 30
0.0
 10
93.40273977699654
 20
-116.4500840637694
 30
0.0
 10
93.40273977699654
 20
-116.4500840637694
 30
0.0
 10
93.42203231171393
 20
-116.4562852356429
 30
0.0
 10
93.43236759816969
 20
-116.464897974356
 30
0.0
 10
93.43236759816969
 20
-116.4776448276514
 30
0.0
 10
93.43236759816969
 20
-116.4945257955292
 30
0.0
 10
93.41996525442279
 20
-116.5007269674026
 30
0.0
 10
93.39447154783194
 20
-116.513473820698
 30
0.0
 10
93.47474227263827
 20
-116.6109700229306
 30
0.0
 10
93.63769528909059
 20
-116.7081217156146
 30
0.0
 10
93.67145722484602
 20
-116.7270697407835
 30
0.0
 10
93.82166338800292
 20
-116.815953204303
 30
0.0
 10
93.93604055811322
 20
-116.843513968185
 30
0.0
 10
94.01424422562839
 20
-116.8624619933538
 30
0.0
 10
94.01424422562839
 20
-116.8624619933538
 30
0.0
 10
93.89573294093579
 20
-117.0316161816796
 30
0.0
 10
93.89573294093579
 20
-117.0316161816796
 30
0.0
 10
93.81132810154718
 20
-117.002332870055
 30
0.0
 10
93.76034068836547
 20
-116.9830403353376
 30
0.0
 10
93.64182940367289
 20
-116.9175835211178
 30
0.0
 10
93.64182940367289
 20
-116.9175835211178
 30
0.0
 10
93.64182940367289
 20
-117.0274820670973
 30
0.0
 10
93.64182940367289
 20
-117.0274820670973
 30
0.0
 10
93.55914711202688
 20
-117.0192138379327
 30
0.0
 10
93.43236759816969
 20
-117.0147352138019
 30
0.0
 10
93.37931312769685
 20
-117.0147352138019
 30
0.0
 10
93.37931312769685
 20
-117.0147352138019
 30
0.0
 10
93.37931312769685
 20
-117.1459933517899
 30
0.0
 10
93.37931312769685
 20
-117.1459933517899
 30
0.0
 10
93.37931312769685
 20
-117.1459933517899
 30
0.0
 10
93.49989146968059
 20
-117.1459933517899
 30
0.0
 10
93.49989146968059
 20
-117.1459933517899
 30
0.0
 10
93.50230303652026
 20
-117.1459933517899
 30
0.0
 10
93.73484698177462
 20
-117.1439262944987
 30
0.0
 10
93.91261390881351
 20
-117.127045326621
 30
0.0
 10
93.91261390881351
 20
-117.127045326621
 30
0.0
 10
93.91261390881351
 20
-117.3172145974068
 30
0.0
 10
93.91261390881351
 20
-117.3172145974068
 30
0.0
 10
93.78376733766517
 20
-117.3048122536599
 30
0.0
 10
93.6270154930863
 20
-117.3048122536599
 30
0.0
 10
93.49989146968059
 20
-117.3048122536599
 30
0.0
 10
93.49989146968059
 20
-117.3048122536599
 30
0.0
 10
93.37931312769685
 20
-117.3048122536599
 30
0.0
 10
93.37931312769685
 20
-117.3048122536599
 30
0.0
 10
93.37931312769685
 20
-117.3048122536599
 30
0.0
 10
93.37931312769685
 20
-117.5311550270408
 30
0.0
 10
93.37931312769685
 20
-117.5311550270408
 30
0.0
 10
93.37931312769685
 20
-117.6496663117334
 30
0.0
 10
93.35416393065452
 20
-117.68549530478
 30
0.0
 10
93.19327797149334
 20
-117.7003092153666
 30
0.0
 10
93.19741208607564
 20
-117.7192572405355
 30
0.0
 10
93.1912109142022
 20
-117.7299370365397
 30
0.0
 10
93.15331486386445
 20
-117.7530191762909
 30
0.0
 10
93.15124780657331
 20
-117.7723117110083
 30
0.0
 10
93.15124780657331
 20
-117.7785128828818
 30
0.0
 10
93.14918074928215
 20
-117.7933267934683
 30
0.0
 10
93.14918074928215
 20
-117.7933267934683
 30
0.0
 10
93.2862955495951
 20
-117.7933267934683
 30
0.0
 10
93.2862955495951
 20
-117.7933267934683
 30
0.0
 10
93.45166013288708
 20
-117.7933267934683
 30
0.0
 10
93.61840275437318
 20
-117.789192678886
 30
0.0
 10
93.78583439495632
 20
-117.7743787682995
 30
0.0
 10
93.78583439495632
 20
-117.7743787682995
 30
0.0
 10
93.78583439495632
 20
-117.9817735165115
 30
0.0
 10
93.78583439495632
 20
-117.9817735165115
 30
0.0
 10
93.57017141757969
 20
-117.9648925486338
 30
0.0
 10
93.30558808431249
 20
-117.9648925486338
 30
0.0
 10
93.2862955495951
 20
-117.9648925486338
 30
0.0
 10
93.2862955495951
 20
-117.9648925486338
 30
0.0
 10
93.14676918244248
 20
-117.9648925486338
 30
0.0
 10
93.14676918244248
 20
-117.9648925486338
 30
0.0
 10
93.14676918244248
 20
-117.9648925486338
 30
0.0
 10
93.14676918244248
 20
-118.1064859730776
 30
0.0
 10
93.14676918244248
 20
-118.1064859730776
 30
0.0
 10
93.14676918244248
 20
-118.1064859730776
 30
0.0
 10
93.37311195582339
 20
-118.1064859730776
 30
0.0
 10
93.37311195582339
 20
-118.1064859730776
 30
0.0
 10
93.58877493320003
 20
-118.1064859730776
 30
0.0
 10
93.80684947741635
 20
-118.1023518584953
 30
0.0
 10
94.02285696434151
 20
-118.0896050051998
 30
0.0
 10
94.02285696434151
 20
-118.0896050051998
 30
0.0
 10
94.02285696434151
 20
-118.2969997534119
 30
0.0
 10
94.02285696434151
 20
-118.2969997534119
 30
0.0
 10
93.74104815364808
 20
-118.2797742759856
 30
0.0
 10
93.3965386051231
 20
-118.2797742759856
 30
0.0
 10
93.37311195582339
 20
-118.2797742759856
 30
0.0
  0
SPLINE
  5
54
330
4E
100
AcDbEntity
  8
_U+30EC_U+30A4_U+30E4_U+30FC 1
370
     0
100
AcDbSpline
210
0.0
220
0.0
230
1.0
 70
    11
 71
     3
 72
    23
 73
    19
 74
     0
 42
0.0000000001
 43
0.0000000001
 12
1.0
 22
0.0
 32
0.0
 13
1.0
 23
0.0
 33
0.0
 40
0.0
 40
0.0
 40
0.0
 40
0.0
 40
1.0
 40
1.0
 40
1.0
 40
2.0
 40
2.0
 40
2.0
 40
3.0
 40
3.0
 40
3.0
 40
4.0
 40
4.0
 40
4.0
 40
5.0
 40
5.0
 40
5.0
 40
6.0
 40
6.0
 40
6.0
 40
6.0
 10
92.25414494221424
 20
-117.6517333690246
 30
0.0
 10
92.25414494221424
 20
-117.6727484514846
 30
0.0
 10
92.2562119995054
 20
-117.7109890113709
 30
0.0
 10
92.23071829291455
 20
-117.7109890113709
 30
0.0
 10
92.2203830064588
 20
-117.7109890113709
 30
0.0
 10
92.21177026774568
 20
-117.7044433299489
 30
0.0
 10
92.2010904717414
 20
-117.6875623620712
 30
0.0
 10
92.2010904717414
 20
-117.6875623620712
 30
0.0
 10
92.0977376071839
 20
-117.50566132045
 30
0.0
 10
92.0977376071839
 20
-117.50566132045
 30
0.0
 10
92.31340058456054
 20
-117.3764702397531
 30
0.0
 10
92.51011553676831
 20
-117.099484562739
 30
0.0
 10
92.55662432581919
 20
-117.0274820670973
 30
0.0
 10
92.55662432581919
 20
-117.0274820670973
 30
0.0
 10
92.6286268214609
 20
-117.2073160514273
 30
0.0
 10
92.6286268214609
 20
-117.2073160514273
 30
0.0
 10
92.49530162618173
 20
-117.4040310036351
 30
0.0
 10
92.319601756434
 20
-117.5879991025475
 30
0.0
 10
92.25414494221424
 20
-117.6517333690246
 30
0.0
  0
SPLINE
  5
55
330
4E
100
AcDbEntity
  8
_U+30EC_U+30A4_U+30E4_U+30FC 1
370
     0
100
AcDbSpline
210
0.0
220
0.0
230
1.0
 70
    11
 71
     3
 72
    17
 73
    13
 74
     0
 42
0.0000000001
 43
0.0000000001
 12
1.0
 22
0.0
 32
0.0
 13
1.0
 23
0.0
 33
0.0
 40
0.0
 40
0.0
 40
0.0
 40
0.0
 40
1.0
 40
1.0
 40
1.0
 40
2.0
 40
2.0
 40
2.0
 40
3.0
 40
3.0
 40
3.0
 40
4.0
 40
4.0
 40
4.0
 40
4.0
 10
92.50804847947715
 20
-116.7566975619567
 30
0.0
 10
92.44638127029118
 20
-116.6805609517326
 30
0.0
 10
92.31753469914284
 20
-116.6044243415086
 30
0.0
 10
92.21383732503682
 20
-116.5747965203355
 30
0.0
 10
92.21383732503682
 20
-116.5747965203355
 30
0.0
 10
92.30926646997824
 20
-116.409776446592
 30
0.0
 10
92.30926646997824
 20
-116.409776446592
 30
0.0
 10
92.41055227724459
 20
-116.4459499491871
 30
0.0
 10
92.51666121819028
 20
-116.5027940246938
 30
0.0
 10
92.6052001721612
 20
-116.5834092590486
 30
0.0
 10
92.6052001721612
 20
-116.5834092590486
 30
0.0
 10
92.50804847947715
 20
-116.7566975619567
 30
0.0
 10
92.50804847947715
 20
-116.7566975619567
 30
0.0
  0
SPLINE
  5
56
330
4E
100
AcDbEntity
  8
_U+30EC_U+30A4_U+30E4_U+30FC 1
370
     0
100
AcDbSpline
210
0.0
220
0.0
230
1.0
 70
    11
 71
     3
 72
    23
 73
    19
 74
     0
 42
0.0000000001
 43
0.0000000001
 12
1.0
 22
0.0
 32
0.0
 13
1.0
 23
0.0
 33
0.0
 40
0.0
 40
0.0
 40
0.0
 40
0.0
 40
1.0
 40
1.0
 40
1.0
 40
2.0
 40
2.0
 40
2.0
 40
3.0
 40
3.0
 40
3.0
 40
4.0
 40
4.0
 40
4.0
 40
5.0
 40
5.0
 40
5.0
 40
6.0
 40
6.0
 40
6.0
 40
6.0
 10
92.96073402623898
 20
-117.4612195886903
 30
0.0
 10
92.93971894377896
 20
-117.4846462379899
 30
0.0
 10
92.8422227415464
 20
-117.5966118412606
 30
0.0
 10
92.70269637439378
 20
-117.6768825660669
 30
0.0
 10
92.70269637439378
 20
-117.6768825660669
 30
0.0
 10
92.53526473381064
 20
-117.5563042240831
 30
0.0
 10
92.53526473381064
 20
-117.5563042240831
 30
0.0
 10
92.68547089696753
 20
-117.4801676138591
 30
0.0
 10
92.78503415649125
 20
-117.3850829784662
 30
0.0
 10
92.83361000283327
 20
-117.3320285079934
 30
0.0
 10
92.83361000283327
 20
-117.3320285079934
 30
0.0
 10
93.00724281528986
 20
-117.4147107996394
 30
0.0
 10
93.00724281528986
 20
-117.4147107996394
 30
0.0
 10
93.01551104445446
 20
-117.4188449142217
 30
0.0
 10
93.02412378316758
 20
-117.4253905956437
 30
0.0
 10
93.02412378316758
 20
-117.4357258820994
 30
0.0
 10
93.02412378316758
 20
-117.4612195886903
 30
0.0
 10
92.98795028057246
 20
-117.4612195886903
 30
0.0
 10
92.96073402623898
 20
-117.4612195886903
 30
0.0
  0
SPLINE
  5
57
330
4E
100
AcDbEntity
  8
_U+30EC_U+30A4_U+30E4_U+30FC 1
370
     0
100
AcDbSpline
210
0.0
220
0.0
230
1.0
 70
    11
 71
     3
 72
    20
 73
    16
 74
     0
 42
0.0000000001
 43
0.0000000001
 12
1.0
 22
0.0
 32
0.0
 13
1.0
 23
0.0
 33
0.0
 40
0.0
 40
0.0
 40
0.0
 40
0.0
 40
1.0
 40
1.0
 40
1.0
 40
2.0
 40
2.0
 40
2.0
 40
3.0
 40
3.0
 40
3.0
 40
4.0
 40
4.0
 40
4.0
 40
5.0
 40
5.0
 40
5.0
 40
5.0
 10
93.2587347857131
 20
-116.6192382520952
 30
0.0
 10
93.22083873537535
 20
-116.6678140984372
 30
0.0
 10
93.15951603573791
 20
-116.7463622755009
 30
0.0
 10
93.01998966858528
 20
-116.8562608214804
 30
0.0
 10
93.10026039339161
 20
-116.8603949360627
 30
0.0
 10
93.12988821456476
 20
-116.8603949360627
 30
0.0
 10
93.15331486386445
 20
-116.8603949360627
 30
0.0
 10
93.15331486386445
 20
-116.8603949360627
 30
0.0
 10
93.38172469453652
 20
-116.8603949360627
 30
0.0
 10
93.38172469453652
 20
-116.8603949360627
 30
0.0
 10
93.41341957300082
 20
-116.8603949360627
 30
0.0
 10
93.46199541934284
 20
-116.8583278787715
 30
0.0
 10
93.53606497227571
 20
-116.8562608214804
 30
0.0
 10
93.42409936900509
 20
-116.7821912685475
 30
0.0
 10
93.37517901311455
 20
-116.7356824794966
 30
0.0
 10
93.2587347857131
 20
-116.6192382520952
 30
0.0
  0
SPLINE
  5
58
330
4E
100
AcDbEntity
  8
_U+30EC_U+30A4_U+30E4_U+30FC 1
370
     0
100
AcDbSpline
210
0.0
220
0.0
230
1.0
 70
    11
 71
     3
 72
    17
 73
    13
 74
     0
 42
0.0000000001
 43
0.0000000001
 12
1.0
 22
0.0
 32
0.0
 13
1.0
 23
0.0
 33
0.0
 40
0.0
 40
0.0
 40
0.0
 40
0.0
 40
1.0
 40
1.0
 40
1.0
 40
2.0
 40
2.0
 40
2.0
 40
3.0
 40
3.0
 40
3.0
 40
4.0
 40
4.0
 40
4.0
 40
4.0
 10
93.81959633071178
 20
-117.6748155087758
 30
0.0
 10
93.68420407814145
 20
-117.5628499055051
 30
0.0
 10
93.57843964674429
 20
-117.4994601485765
 30
0.0
 10
93.45992836205168
 20
-117.4357258820994
 30
0.0
 10
93.45992836205168
 20
-117.4357258820994
 30
0.0
 10
93.58670787590889
 20
-117.3237602788288
 30
0.0
 10
93.58670787590889
 20
-117.3237602788288
 30
0.0
 10
93.7179660138969
 20
-117.3702690678797
 30
0.0
 10
93.82786455987637
 20
-117.4274576529348
 30
0.0
 10
93.95292152599094
 20
-117.5290879697497
 30
0.0
 10
93.95292152599094
 20
-117.5290879697497
 30
0.0
 10
93.81959633071178
 20
-117.6748155087758
 30
0.0
 10
93.81959633071178
 20
-117.6748155087758
 30
0.0
  0
HATCH
  5
59
330
4E
100
AcDbEntity
  8
_U+30EC_U+30A4_U+30E4_U+30FC 1
 62
   179
420
  2234388
100
AcDbHatch
 10
0.0
 20
0.0
 30
0.0
210
0.0
220
0.0
230
1.0
  2
SOLID
 70
     1
 71
     0
 91
        7
 92
        1
 93
        1
 72
     4
 94
        3
 73
     0
 74
     1
 95
       17
 96
       13
 40
0.0
 40
0.0
 40
0.0
 40
0.0
 40
1.0
 40
1.0
 40
1.0
 40
2.0
 40
2.0
 40
2.0
 40
3.0
 40
3.0
 40
3.0
 40
4.0
 40
4.0
 40
4.0
 40
4.0
 10
92.32821449514712
 20
-117.1015516200302
 10
92.22245006374995
 20
-116.995787188633
 10
92.1418348293951
 20
-116.9578911382953
 10
92.04881725129336
 20
-116.9258517502824
 10
92.04881725129336
 20
-116.9258517502824
 10
92.15906030682135
 20
-116.760831676539
 10
92.15906030682135
 20
-116.760831676539
 10
92.2562119995054
 20
-116.8032063510075
 10
92.37679034148914
 20
-116.8817545280712
 10
92.42984481196198
 20
-116.9365315462867
 10
92.42984481196198
 20
-116.9365315462867
 10
92.32821449514712
 20
-117.1015516200302
 10
92.32821449514712
 20
-117.1015516200302
 97
        0
 97
        0
 92
        1
 93
        1
 72
     4
 94
        3
 73
     0
 74
     1
 95
      182
 96
      178
 40
0.0
 40
0.0
 40
0.0
 40
0.0
 40
1.0
 40
1.0
 40
1.0
 40
2.0
 40
2.0
 40
2.0
 40
3.0
 40
3.0
 40
3.0
 40
4.0
 40
4.0
 40
4.0
 40
5.0
 40
5.0
 40
5.0
 40
6.0
 40
6.0
 40
6.0
 40
7.0
 40
7.0
 40
7.0
 40
8.0
 40
8.0
 40
8.0
 40
9.0
 40
9.0
 40
9.0
 40
10.0
 40
10.0
 40
10.0
 40
11.0
 40
11.0
 40
11.0
 40
12.0
 40
12.0
 40
12.0
 40
13.0
 40
13.0
 40
13.0
 40
14.0
 40
14.0
 40
14.0
 40
15.0
 40
15.0
 40
15.0
 40
16.0
 40
16.0
 40
16.0
 40
17.0
 40
17.0
 40
17.0
 40
18.0
 40
18.0
 40
18.0
 40
19.0
 40
19.0
 40
19.0
 40
20.0
 40
20.0
 40
20.0
 40
21.0
 40
21.0
 40
21.0
 40
22.0
 40
22.0
 40
22.0
 40
23.0
 40
23.0
 40
23.0
 40
24.0
 40
24.0
 40
24.0
 40
25.0
 40
25.0
 40
25.0
 40
26.0
 40
26.0
 40
26.0
 40
27.0
 40
27.0
 40
27.0
 40
28.0
 40
28.0
 40
28.0
 40
29.0
 40
29.0
 40
29.0
 40
30.0
 40
30.0
 40
30.0
 40
31.0
 40
31.0
 40
31.0
 40
32.0
 40
32.0
 40
32.0
 40
33.0
 40
33.0
 40
33.0
 40
34.0
 40
34.0
 40
34.0
 40
35.0
 40
35.0
 40
35.0
 40
36.0
 40
36.0
 40
36.0
 40
37.0
 40
37.0
 40
37.0
 40
38.0
 40
38.0
 40
38.0
 40
39.0
 40
39.0
 40
39.0
 40
40.0
 40
40.0
 40
40.0
 40
41.0
 40
41.0
 40
41.0
 40
42.0
 40
42.0
 40
42.0
 40
43.0
 40
43.0
 40
43.0
 40
44.0
 40
44.0
 40
44.0
 40
45.0
 40
45.0
 40
45.0
 40
46.0
 40
46.0
 40
46.0
 40
47.0
 40
47.0
 40
47.0
 40
48.0
 40
48.0
 40
48.0
 40
49.0
 40
49.0
 40
49.0
 40
50.0
 40
50.0
 40
50.0
 40
51.0
 40
51.0
 40
51.0
 40
52.0
 40
52.0
 40
52.0
 40
53.0
 40
53.0
 40
53.0
 40
54.0
 40
54.0
 40
54.0
 40
55.0
 40
55.0
 40
55.0
 40
56.0
 40
56.0
 40
56.0
 40
57.0
 40
57.0
 40
57.0
 40
58.0
 40
58.0
 40
58.0
 40
59.0
 40
59.0
 40
59.0
 40
59.0
 10
93.37311195582339
 20
-118.2797742759856
 10
93.37311195582339
 20
-118.2797742759856
 10
92.73645831014922
 20
-118.2797742759856
 10
92.73645831014922
 20
-118.2797742759856
 10
92.52286239006374
 20
-118.2797742759856
 10
92.3071994126871
 20
-118.2842529001164
 10
92.09325898305308
 20
-118.2969997534119
 10
92.09325898305308
 20
-118.2969997534119
 10
92.09325898305308
 20
-118.0896050051998
 10
92.09325898305308
 20
-118.0896050051998
 10
92.3154676418517
 20
-118.1023518584953
 10
92.63930661746518
 20
-118.1064859730776
 10
92.73645831014922
 20
-118.1064859730776
 10
92.73645831014922
 20
-118.1064859730776
 10
92.95625540210817
 20
-118.1064859730776
 10
92.95625540210817
 20
-118.1064859730776
 10
92.95625540210817
 20
-118.1064859730776
 10
92.95625540210817
 20
-117.9648925486338
 10
92.95625540210817
 20
-117.9648925486338
 10
92.95625540210817
 20
-117.9648925486338
 10
92.79571395249552
 20
-117.9648925486338
 10
92.79571395249552
 20
-117.9648925486338
 10
92.63069387875206
 20
-117.9648925486338
 10
92.46567380500859
 20
-117.9690266632161
 10
92.30065373126511
 20
-117.9838405738027
 10
92.30065373126511
 20
-117.9838405738027
 10
92.30065373126511
 20
-117.7743787682995
 10
92.30065373126511
 20
-117.7743787682995
 10
92.47187497688203
 20
-117.789192678886
 10
92.71957734227149
 20
-117.7933267934683
 10
92.79571395249552
 20
-117.7933267934683
 10
92.79571395249552
 20
-117.7933267934683
 10
92.95625540210817
 20
-117.7933267934683
 10
92.95625540210817
 20
-117.7933267934683
 10
92.95212128752587
 20
-117.7213242978266
 10
92.95212128752587
 20
-117.7151231259532
 10
92.94592011565241
 20
-117.6620686554803
 10
92.94592011565241
 20
-117.6620686554803
 10
93.08544648280503
 20
-117.6768825660669
 10
93.08544648280503
 20
-117.6768825660669
 10
93.08544648280503
 20
-117.6768825660669
 10
92.9858832232813
 20
-117.50566132045
 10
92.9858832232813
 20
-117.50566132045
 10
93.03273652188071
 20
-117.5118624923234
 10
93.10646156526505
 20
-117.5204752310366
 10
93.1236870426913
 20
-117.5204752310366
 10
93.17432994632448
 20
-117.5204752310366
 10
93.1912109142022
 20
-117.4994601485765
 10
93.1912109142022
 20
-117.4422715635214
 10
93.1912109142022
 20
-117.4422715635214
 10
93.1912109142022
 20
-117.3048122536599
 10
93.1912109142022
 20
-117.3048122536599
 10
93.1912109142022
 20
-117.3048122536599
 10
93.08544648280503
 20
-117.3048122536599
 10
93.08544648280503
 20
-117.3048122536599
 10
92.95212128752587
 20
-117.3048122536599
 10
92.79571395249552
 20
-117.3048122536599
 10
92.67306855322063
 20
-117.3172145974068
 10
92.67306855322063
 20
-117.3172145974068
 10
92.67306855322063
 20
-117.127045326621
 10
92.67306855322063
 20
-117.127045326621
 10
92.84015568425524
 20
-117.1439262944987
 10
93.07063257221846
 20
-117.1459933517899
 10
93.08544648280503
 20
-117.1459933517899
 10
93.08544648280503
 20
-117.1459933517899
 10
93.1912109142022
 20
-117.1459933517899
 10
93.1912109142022
 20
-117.1459933517899
 10
93.1912109142022
 20
-117.1459933517899
 10
93.1912109142022
 20
-117.0147352138019
 10
93.1912109142022
 20
-117.0147352138019
 10
93.1912109142022
 20
-117.0147352138019
 10
93.15331486386445
 20
-117.0147352138019
 10
93.15331486386445
 20
-117.0147352138019
 10
93.10852862255621
 20
-117.0147352138019
 10
92.98381616599016
 20
-117.0192138379327
 10
92.89493270247071
 20
-117.0274820670973
 10
92.89493270247071
 20
-117.0274820670973
 10
92.89493270247071
 20
-116.947211342291
 10
92.89493270247071
 20
-116.947211342291
 10
92.8422227415464
 20
-116.9851073926287
 10
92.81707354450407
 20
-116.9999213032153
 10
92.77435436048697
 20
-117.023347952515
 10
92.77435436048697
 20
-117.023347952515
 10
92.58625214699234
 20
-116.8941568718181
 10
92.58625214699234
 20
-116.8941568718181
 10
92.6644558145075
 20
-116.8603949360627
 10
92.82120765908637
 20
-116.7970051791341
 10
92.9776149941167
 20
-116.6530001878507
 10
93.0602972857627
 20
-116.5747965203355
 10
93.13815644372936
 20
-116.4900471713983
 10
93.1912109142022
 20
-116.388761364132
 10
93.1912109142022
 20
-116.388761364132
 10
93.40273977699654
 20
-116.4500840637694
 10
93.40273977699654
 20
-116.4500840637694
 10
93.42203231171393
 20
-116.4562852356429
 10
93.43236759816969
 20
-116.464897974356
 10
93.43236759816969
 20
-116.4776448276514
 10
93.43236759816969
 20
-116.4945257955292
 10
93.41996525442279
 20
-116.5007269674026
 10
93.39447154783194
 20
-116.513473820698
 10
93.47474227263827
 20
-116.6109700229306
 10
93.63769528909059
 20
-116.7081217156146
 10
93.67145722484602
 20
-116.7270697407835
 10
93.82166338800292
 20
-116.815953204303
 10
93.93604055811322
 20
-116.843513968185
 10
94.01424422562839
 20
-116.8624619933538
 10
94.01424422562839
 20
-116.8624619933538
 10
93.89573294093579
 20
-117.0316161816796
 10
93.89573294093579
 20
-117.0316161816796
 10
93.81132810154718
 20
-117.002332870055
 10
93.76034068836547
 20
-116.9830403353376
 10
93.64182940367289
 20
-116.9175835211178
 10
93.64182940367289
 20
-116.9175835211178
 10
93.64182940367289
 20
-117.0274820670973
 10
93.64182940367289
 20
-117.0274820670973
 10
93.55914711202688
 20
-117.0192138379327
 10
93.43236759816969
 20
-117.0147352138019
 10
93.37931312769685
 20
-117.0147352138019
 10
93.37931312769685
 20
-117.0147352138019
 10
93.37931312769685
 20
-117.1459933517899
 10
93.37931312769685
 20
-117.1459933517899
 10
93.37931312769685
 20
-117.1459933517899
 10
93.49989146968059
 20
-117.1459933517899
 10
93.49989146968059
 20
-117.1459933517899
 10
93.50230303652026
 20
-117.1459933517899
 10
93.73484698177462
 20
-117.1439262944987
 10
93.91261390881351
 20
-117.127045326621
 10
93.91261390881351
 20
-117.127045326621
 10
93.91261390881351
 20
-117.3172145974068
 10
93.91261390881351
 20
-117.3172145974068
 10
93.78376733766517
 20
-117.3048122536599
 10
93.6270154930863
 20
-117.3048122536599
 10
93.49989146968059
 20
-117.3048122536599
 10
93.49989146968059
 20
-117.3048122536599
 10
93.37931312769685
 20
-117.3048122536599
 10
93.37931312769685
 20
-117.3048122536599
 10
93.37931312769685
 20
-117.3048122536599
 10
93.37931312769685
 20
-117.5311550270408
 10
93.37931312769685
 20
-117.5311550270408
 10
93.37931312769685
 20
-117.6496663117334
 10
93.35416393065452
 20
-117.68549530478
 10
93.19327797149334
 20
-117.7003092153666
 10
93.19741208607564
 20
-117.7192572405355
 10
93.1912109142022
 20
-117.7299370365397
 10
93.15331486386445
 20
-117.7530191762909
 10
93.15124780657331
 20
-117.7723117110083
 10
93.15124780657331
 20
-117.7785128828818
 10
93.14918074928215
 20
-117.7933267934683
 10
93.14918074928215
 20
-117.7933267934683
 10
93.2862955495951
 20
-117.7933267934683
 10
93.2862955495951
 20
-117.7933267934683
 10
93.45166013288708
 20
-117.7933267934683
 10
93.61840275437318
 20
-117.789192678886
 10
93.78583439495632
 20
-117.7743787682995
 10
93.78583439495632
 20
-117.7743787682995
 10
93.78583439495632
 20
-117.9817735165115
 10
93.78583439495632
 20
-117.9817735165115
 10
93.57017141757969
 20
-117.9648925486338
 10
93.30558808431249
 20
-117.9648925486338
 10
93.2862955495951
 20
-117.9648925486338
 10
93.2862955495951
 20
-117.9648925486338
 10
93.14676918244248
 20
-117.9648925486338
 10
93.14676918244248
 20
-117.9648925486338
 10
93.14676918244248
 20
-117.9648925486338
 10
93.14676918244248
 20
-118.1064859730776
 10
93.14676918244248
 20
-118.1064859730776
 10
93.14676918244248
 20
-118.1064859730776
 10
93.37311195582339
 20
-118.1064859730776
 10
93.37311195582339
 20
-118.1064859730776
 10
93.58877493320003
 20
-118.1064859730776
 10
93.80684947741635
 20
-118.1023518584953
 10
94.02285696434151
 20
-118.0896050051998
 10
94.02285696434151
 20
-118.0896050051998
 10
94.02285696434151
 20
-118.2969997534119
 10
94.02285696434151
 20
-118.2969997534119
 10
93.74104815364808
 20
-118.2797742759856
 10
93.3965386051231
 20
-118.2797742759856
 10
93.37311195582339
 20
-118.2797742759856
 97
        0
 97
        0
 92
        1
 93
        1
 72
     4
 94
        3
 73
     0
 74
     1
 95
       23
 96
       19
 40
0.0
 40
0.0
 40
0.0
 40
0.0
 40
1.0
 40
1.0
 40
1.0
 40
2.0
 40
2.0
 40
2.0
 40
3.0
 40
3.0
 40
3.0
 40
4.0
 40
4.0
 40
4.0
 40
5.0
 40
5.0
 40
5.0
 40
6.0
 40
6.0
 40
6.0
 40
6.0
 10
92.25414494221424
 20
-117.6517333690246
 10
92.25414494221424
 20
-117.6727484514846
 10
92.2562119995054
 20
-117.7109890113709
 10
92.23071829291455
 20
-117.7109890113709
 10
92.2203830064588
 20
-117.7109890113709
 10
92.21177026774568
 20
-117.7044433299489
 10
92.2010904717414
 20
-117.6875623620712
 10
92.2010904717414
 20
-117.6875623620712
 10
92.0977376071839
 20
-117.50566132045
 10
92.0977376071839
 20
-117.50566132045
 10
92.31340058456054
 20
-117.3764702397531
 10
92.51011553676831
 20
-117.099484562739
 10
92.55662432581919
 20
-117.0274820670973
 10
92.55662432581919
 20
-117.0274820670973
 10
92.6286268214609
 20
-117.2073160514273
 10
92.6286268214609
 20
-117.2073160514273
 10
92.49530162618173
 20
-117.4040310036351
 10
92.319601756434
 20
-117.5879991025475
 10
92.25414494221424
 20
-117.6517333690246
 97
        0
 97
        0
 92
        1
 93
        1
 72
     4
 94
        3
 73
     0
 74
     1
 95
       17
 96
       13
 40
0.0
 40
0.0
 40
0.0
 40
0.0
 40
1.0
 40
1.0
 40
1.0
 40
2.0
 40
2.0
 40
2.0
 40
3.0
 40
3.0
 40
3.0
 40
4.0
 40
4.0
 40
4.0
 40
4.0
 10
92.50804847947715
 20
-116.7566975619567
 10
92.44638127029118
 20
-116.6805609517326
 10
92.31753469914284
 20
-116.6044243415086
 10
92.21383732503682
 20
-116.5747965203355
 10
92.21383732503682
 20
-116.5747965203355
 10
92.30926646997824
 20
-116.409776446592
 10
92.30926646997824
 20
-116.409776446592
 10
92.41055227724459
 20
-116.4459499491871
 10
92.51666121819028
 20
-116.5027940246938
 10
92.6052001721612
 20
-116.5834092590486
 10
92.6052001721612
 20
-116.5834092590486
 10
92.50804847947715
 20
-116.7566975619567
 10
92.50804847947715
 20
-116.7566975619567
 97
        0
 97
        0
 92
        1
 93
        1
 72
     4
 94
        3
 73
     0
 74
     1
 95
       23
 96
       19
 40
0.0
 40
0.0
 40
0.0
 40
0.0
 40
1.0
 40
1.0
 40
1.0
 40
2.0
 40
2.0
 40
2.0
 40
3.0
 40
3.0
 40
3.0
 40
4.0
 40
4.0
 40
4.0
 40
5.0
 40
5.0
 40
5.0
 40
6.0
 40
6.0
 40
6.0
 40
6.0
 10
92.96073402623898
 20
-117.4612195886903
 10
92.93971894377896
 20
-117.4846462379899
 10
92.8422227415464
 20
-117.5966118412606
 10
92.70269637439378
 20
-117.6768825660669
 10
92.70269637439378
 20
-117.6768825660669
 10
92.53526473381064
 20
-117.5563042240831
 10
92.53526473381064
 20
-117.5563042240831
 10
92.68547089696753
 20
-117.4801676138591
 10
92.78503415649125
 20
-117.3850829784662
 10
92.83361000283327
 20
-117.3320285079934
 10
92.83361000283327
 20
-117.3320285079934
 10
93.00724281528986
 20
-117.4147107996394
 10
93.00724281528986
 20
-117.4147107996394
 10
93.01551104445446
 20
-117.4188449142217
 10
93.02412378316758
 20
-117.4253905956437
 10
93.02412378316758
 20
-117.4357258820994
 10
93.02412378316758
 20
-117.4612195886903
 10
92.98795028057246
 20
-117.4612195886903
 10
92.96073402623898
 20
-117.4612195886903
 97
        0
 97
        0
 92
        1
 93
        1
 72
     4
 94
        3
 73
     0
 74
     1
 95
       20
 96
       16
 40
0.0
 40
0.0
 40
0.0
 40
0.0
 40
1.0
 40
1.0
 40
1.0
 40
2.0
 40
2.0
 40
2.0
 40
3.0
 40
3.0
 40
3.0
 40
4.0
 40
4.0
 40
4.0
 40
5.0
 40
5.0
 40
5.0
 40
5.0
 10
93.2587347857131
 20
-116.6192382520952
 10
93.22083873537535
 20
-116.6678140984372
 10
93.15951603573791
 20
-116.7463622755009
 10
93.01998966858528
 20
-116.8562608214804
 10
93.10026039339161
 20
-116.8603949360627
 10
93.12988821456476
 20
-116.8603949360627
 10
93.15331486386445
 20
-116.8603949360627
 10
93.15331486386445
 20
-116.8603949360627
 10
93.38172469453652
 20
-116.8603949360627
 10
93.38172469453652
 20
-116.8603949360627
 10
93.41341957300082
 20
-116.8603949360627
 10
93.46199541934284
 20
-116.8583278787715
 10
93.53606497227571
 20
-116.8562608214804
 10
93.42409936900509
 20
-116.7821912685475
 10
93.37517901311455
 20
-116.7356824794966
 10
93.2587347857131
 20
-116.6192382520952
 97
        0
 97
        0
 92
        1
 93
        1
 72
     4
 94
        3
 73
     0
 74
     1
 95
       17
 96
       13
 40
0.0
 40
0.0
 40
0.0
 40
0.0
 40
1.0
 40
1.0
 40
1.0
 40
2.0
 40
2.0
 40
2.0
 40
3.0
 40
3.0
 40
3.0
 40
4.0
 40
4.0
 40
4.0
 40
4.0
 10
93.81959633071178
 20
-117.6748155087758
 10
93.68420407814145
 20
-117.5628499055051
 10
93.57843964674429
 20
-117.4994601485765
 10
93.45992836205168
 20
-117.4357258820994
 10
93.45992836205168
 20
-117.4357258820994
 10
93.58670787590889
 20
-117.3237602788288
 10
93.58670787590889
 20
-117.3237602788288
 10
93.7179660138969
 20
-117.3702690678797
 10
93.82786455987637
 20
-117.4274576529348
 10
93.95292152599094
 20
-117.5290879697497
 10
93.95292152599094
 20
-117.5290879697497
 10
93.81959633071178
 20
-117.6748155087758
 10
93.81959633071178
 20
-117.6748155087758
 97
        0
 97
        0
 75
     2
 76
     1
 98
        0
  0
SPLINE
  5
5A
330
4E
100
AcDbEntity
  8
_U+30EC_U+30A4_U+30E4_U+30FC 1
370
     0
100
AcDbSpline
210
0.0
220
0.0
230
1.0
 70
    11
 71
     3
 72
   113
 73
   109
 74
     0
 42
0.0000000001
 43
0.0000000001
 12
1.0
 22
0.0
 32
0.0
 13
1.0
 23
0.0
 33
0.0
 40
0.0
 40
0.0
 40
0.0
 40
0.0
 40
1.0
 40
1.0
 40
1.0
 40
2.0
 40
2.0
 40
2.0
 40
3.0
 40
3.0
 40
3.0
 40
4.0
 40
4.0
 40
4.0
 40
5.0
 40
5.0
 40
5.0
 40
6.0
 40
6.0
 40
6.0
 40
7.0
 40
7.0
 40
7.0
 40
8.0
 40
8.0
 40
8.0
 40
9.0
 40
9.0
 40
9.0
 40
10.0
 40
10.0
 40
10.0
 40
11.0
 40
11.0
 40
11.0
 40
12.0
 40
12.0
 40
12.0
 40
13.0
 40
13.0
 40
13.0
 40
14.0
 40
14.0
 40
14.0
 40
15.0
 40
15.0
 40
15.0
 40
16.0
 40
16.0
 40
16.0
 40
17.0
 40
17.0
 40
17.0
 40
18.0
 40
18.0
 40
18.0
 40
19.0
 40
19.0
 40
19.0
 40
20.0
 40
20.0
 40
20.0
 40
21.0
 40
21.0
 40
21.0
 40
22.0
 40
22.0
 40
22.0
 40
23.0
 40
23.0
 40
23.0
 40
24.0
 40
24.0
 40
24.0
 40
25.0
 40
25.0
 40
25.0
 40
26.0
 40
26.0
 40
26.0
 40
27.0
 40
27.0
 40
27.0
 40
28.0
 40
28.0
 40
28.0
 40
29.0
 40
29.0
 40
29.0
 40
30.0
 40
30.0
 40
30.0
 40
31.0
 40
31.0
 40
31.0
 40
32.0
 40
32.0
 40
32.0
 40
33.0
 40
33.0
 40
33.0
 40
34.0
 40
34.0
 40
34.0
 40
35.0
 40
35.0
 40
35.0
 40
36.0
 40
36.0
 40
36.0
 40
36.0
 10
95.69924042746408
 20
-117.6517333690246
 30
0.0
 10
95.69924042746408
 20
-117.6517333690246
 30
0.0
 10
95.79880368698781
 20
-117.7509521189998
 30
0.0
 10
95.79880368698781
 20
-117.7509521189998
 30
0.0
 10
95.80948348299208
 20
-117.761631915004
 30
0.0
 10
95.81981876944782
 20
-117.7743787682995
 30
0.0
 10
95.81981876944782
 20
-117.789192678886
 30
0.0
 10
95.81981876944782
 20
-117.7912597361772
 30
0.0
 10
95.81981876944782
 20
-117.8208875573503
 30
0.0
 10
95.78192271911009
 20
-117.8208875573503
 30
0.0
 10
95.77330998039696
 20
-117.8208875573503
 30
0.0
 10
95.73300236321953
 20
-117.816753442768
 30
0.0
 10
95.72680119134608
 20
-117.816753442768
 30
0.0
 10
95.68683808371718
 20
-117.8484483212323
 30
0.0
 10
95.63998478511779
 20
-117.8822102569878
 30
0.0
 10
95.5407660351426
 20
-117.9393988420429
 30
0.0
 10
95.68683808371718
 20
-118.0472303307313
 30
0.0
 10
95.84531247603867
 20
-118.1044189157864
 30
0.0
 10
96.11816403847047
 20
-118.1423149661241
 30
0.0
 10
96.11816403847047
 20
-118.1423149661241
 30
0.0
 10
95.96795787531357
 20
-118.3180148358719
 30
0.0
 10
95.96795787531357
 20
-118.3180148358719
 30
0.0
 10
95.70544159933753
 20
-118.2460123402302
 30
0.0
 10
95.5490342643072
 20
-118.1571288767107
 30
0.0
 10
95.47289765408317
 20
-118.1044189157864
 30
0.0
 10
95.32269149092627
 20
-118.0027885989715
 30
0.0
 10
95.17903100919136
 20
-117.8398355825192
 30
0.0
 10
95.10254988941881
 20
-117.6748155087758
 30
0.0
 10
95.03502601790791
 20
-117.740616832544
 30
0.0
 10
94.96095646497504
 20
-117.7933267934683
 30
0.0
 10
94.88275279745987
 20
-117.8419026398104
 30
0.0
 10
94.88275279745987
 20
-117.8419026398104
 30
0.0
 10
94.88275279745987
 20
-118.0937391197821
 30
0.0
 10
94.88275279745987
 20
-118.0937391197821
 30
0.0
 10
95.04536130436367
 20
-118.0682454131913
 30
0.0
 10
95.23174097011568
 20
-118.0238036814316
 30
0.0
 10
95.29547523659281
 20
-118.008989770845
 30
0.0
 10
95.29547523659281
 20
-118.008989770845
 30
0.0
 10
95.26584741541966
 20
-118.1784884687193
 30
0.0
 10
95.26584741541966
 20
-118.1784884687193
 30
0.0
 10
95.26343584857997
 20
-118.1784884687193
 30
0.0
 10
95.2444878234111
 20
-118.1846896405927
 30
0.0
 10
95.24242076611995
 20
-118.1846896405927
 30
0.0
 10
95.04329424707251
 20
-118.222930200479
 30
0.0
 10
94.72634546242953
 20
-118.2883870146987
 30
0.0
 10
94.52928600067324
 20
-118.3242160077453
 30
0.0
 10
94.51895071421748
 20
-118.3414414851716
 30
0.0
 10
94.49552406491779
 20
-118.3731363636359
 30
0.0
 10
94.4720974156181
 20
-118.3731363636359
 30
0.0
 10
94.44488116128461
 20
-118.3731363636359
 30
0.0
 10
94.44040253715379
 20
-118.3538438289185
 30
0.0
 10
94.43833547986264
 20
-118.3348958037496
 30
0.0
 10
94.43833547986264
 20
-118.3348958037496
 30
0.0
 10
94.4128417732718
 20
-118.1616075008416
 30
0.0
 10
94.4128417732718
 20
-118.1616075008416
 30
0.0
 10
94.48725583575319
 20
-118.1529947621284
 30
0.0
 10
94.59508732444151
 20
-118.140247908833
 30
0.0
 10
94.70291881312983
 20
-118.119232826373
 30
0.0
 10
94.70291881312983
 20
-118.119232826373
 30
0.0
 10
94.70291881312983
 20
-117.9414658993341
 30
0.0
 10
94.70291881312983
 20
-117.9414658993341
 30
0.0
 10
94.55891382184639
 20
-118.0134683949758
 30
0.0
 10
94.4638291864535
 20
-118.043096216149
 30
0.0
 10
94.29880911271002
 20
-118.0727240373221
 30
0.0
 10
94.29880911271002
 20
-118.0727240373221
 30
0.0
 10
94.17823077072627
 20
-117.9032253394478
 30
0.0
 10
94.17823077072627
 20
-117.9032253394478
 30
0.0
 10
94.49552406491779
 20
-117.8760090851143
 30
0.0
 10
94.68810490254326
 20
-117.7826469974641
 30
0.0
 10
94.86587182958215
 20
-117.6496663117334
 30
0.0
 10
94.71979978100755
 20
-117.6496663117334
 30
0.0
 10
94.41938745469376
 20
-117.6538004263157
 30
0.0
 10
94.222672502486
 20
-117.6600015981892
 30
0.0
 10
94.222672502486
 20
-117.6600015981892
 30
0.0
 10
94.222672502486
 20
-117.4822346711503
 30
0.0
 10
94.222672502486
 20
-117.4822346711503
 30
0.0
 10
94.3770127802252
 20
-117.4887803525722
 30
0.0
 10
94.67329099195668
 20
-117.4949815244457
 30
0.0
 10
94.85725909086902
 20
-117.4949815244457
 30
0.0
 10
94.85725909086902
 20
-117.4949815244457
 30
0.0
 10
95.06878795366336
 20
-117.4949815244457
 30
0.0
 10
95.06878795366336
 20
-117.4949815244457
 30
0.0
 10
95.06878795366336
 20
-117.3998968890528
 30
0.0
 10
95.06672089637222
 20
-117.3492539854196
 30
0.0
 10
95.06051972449876
 20
-117.3024006868202
 30
0.0
 10
95.06051972449876
 20
-117.3024006868202
 30
0.0
 10
95.2761827018754
 20
-117.3196261642465
 30
0.0
 10
95.2761827018754
 20
-117.3196261642465
 30
0.0
 10
95.32510305776596
 20
-117.3237602788288
 30
0.0
 10
95.33337128693056
 20
-117.3385741894154
 30
0.0
 10
95.33337128693056
 20
-117.3533881000019
 30
0.0
 10
95.33337128693056
 20
-117.3788818065928
 30
0.0
 10
95.3161458095043
 20
-117.3871500357574
 30
0.0
 10
95.26584741541966
 20
-117.4126437423482
 30
0.0
 10
95.26343584857997
 20
-117.4381374489391
 30
0.0
 10
95.26343584857997
 20
-117.4443386208125
 30
0.0
 10
95.26136879128883
 20
-117.4949815244457
 30
0.0
 10
95.26136879128883
 20
-117.4949815244457
 30
0.0
 10
95.49184567925204
 20
-117.4949815244457
 30
0.0
 10
95.49184567925204
 20
-117.4949815244457
 30
0.0
 10
95.65721026254404
 20
-117.4949815244457
 30
0.0
 10
95.94900985014469
 20
-117.4887803525722
 30
0.0
 10
96.12849932492621
 20
-117.4822346711503
 30
0.0
 10
96.12849932492621
 20
-117.4822346711503
 30
0.0
 10
96.12849932492621
 20
-117.6600015981892
 30
0.0
 10
96.12849932492621
 20
-117.6600015981892
 30
0.0
 10
95.99965275377787
 20
-117.6558674836069
 30
0.0
 10
95.97622610447817
 20
-117.6558674836069
 30
0.0
 10
95.69924042746408
 20
-117.6517333690246
 30
0.0
  0
SPLINE
  5
5B
330
4E
100
AcDbEntity
  8
_U+30EC_U+30A4_U+30E4_U+30FC 1
370
     0
100
AcDbSpline
210
0.0
220
0.0
230
1.0
 70
    11
 71
     3
 72
    23
 73
    19
 74
     0
 42
0.0000000001
 43
0.0000000001
 12
1.0
 22
0.0
 32
0.0
 13
1.0
 23
0.0
 33
0.0
 40
0.0
 40
0.0
 40
0.0
 40
0.0
 40
1.0
 40
1.0
 40
1.0
 40
2.0
 40
2.0
 40
2.0
 40
3.0
 40
3.0
 40
3.0
 40
4.0
 40
4.0
 40
4.0
 40
5.0
 40
5.0
 40
5.0
 40
6.0
 40
6.0
 40
6.0
 40
6.0
 10
94.41525334011146
 20
-117.3003336295291
 30
0.0
 10
94.39837237223375
 20
-117.3406412467065
 30
0.0
 10
94.3921712003603
 20
-117.3575222145842
 30
0.0
 10
94.37081160835174
 20
-117.3575222145842
 30
0.0
 10
94.35599769776518
 20
-117.3575222145842
 30
0.0
 10
94.3453179017609
 20
-117.3406412467065
 30
0.0
 10
94.33911672988745
 20
-117.3278943934111
 30
0.0
 10
94.33911672988745
 20
-117.3278943934111
 30
0.0
 10
94.23955347036373
 20
-117.1628743196676
 30
0.0
 10
94.23955347036373
 20
-117.1628743196676
 30
0.0
 10
94.3411837871786
 20
-117.1311794412033
 30
0.0
 10
94.49138995033549
 20
-117.0760579134393
 30
0.0
 10
94.6901719598344
 20
-116.9134494065355
 30
0.0
 10
94.6901719598344
 20
-116.9134494065355
 30
0.0
 10
94.74736054488956
 20
-117.0867377094436
 30
0.0
 10
94.74736054488956
 20
-117.0867377094436
 30
0.0
 10
94.65399845723928
 20
-117.1694200010896
 30
0.0
 10
94.56545950326836
 20
-117.2262640765962
 30
0.0
 10
94.41525334011146
 20
-117.3003336295291
 30
0.0
  0
SPLINE
  5
5C
330
4E
100
AcDbEntity
  8
_U+30EC_U+30A4_U+30E4_U+30FC 1
370
     0
100
AcDbSpline
210
0.0
220
0.0
230
1.0
 70
    11
 71
     3
 72
    17
 73
    13
 74
     0
 42
0.0000000001
 43
0.0000000001
 12
1.0
 22
0.0
 32
0.0
 13
1.0
 23
0.0
 33
0.0
 40
0.0
 40
0.0
 40
0.0
 40
0.0
 40
1.0
 40
1.0
 40
1.0
 40
2.0
 40
2.0
 40
2.0
 40
3.0
 40
3.0
 40
3.0
 40
4.0
 40
4.0
 40
4.0
 40
4.0
 10
94.56752656055951
 20
-116.8349012294718
 30
0.0
 10
94.53789873938636
 20
-116.7949381218429
 30
0.0
 10
94.47003035832694
 20
-116.6974419196104
 30
0.0
 10
94.28812931670575
 20
-116.5875433736309
 30
0.0
 10
94.28812931670575
 20
-116.5875433736309
 30
0.0
 10
94.41525334011146
 20
-116.4542181783517
 30
0.0
 10
94.41525334011146
 20
-116.4542181783517
 30
0.0
 10
94.60128849631496
 20
-116.5558484951666
 30
0.0
 10
94.65847708137011
 20
-116.6447319586861
 30
0.0
 10
94.6860378452521
 20
-116.6871066331546
 30
0.0
 10
94.6860378452521
 20
-116.6871066331546
 30
0.0
 10
94.56752656055951
 20
-116.8349012294718
 30
0.0
 10
94.56752656055951
 20
-116.8349012294718
 30
0.0
  0
SPLINE
  5
5D
330
4E
100
AcDbEntity
  8
_U+30EC_U+30A4_U+30E4_U+30FC 1
370
     0
100
AcDbSpline
210
0.0
220
0.0
230
1.0
 70
    11
 71
     3
 72
    38
 73
    34
 74
     0
 42
0.0000000001
 43
0.0000000001
 12
1.0
 22
0.0
 32
0.0
 13
1.0
 23
0.0
 33
0.0
 40
0.0
 40
0.0
 40
0.0
 40
0.0
 40
1.0
 40
1.0
 40
1.0
 40
2.0
 40
2.0
 40
2.0
 40
3.0
 40
3.0
 40
3.0
 40
4.0
 40
4.0
 40
4.0
 40
5.0
 40
5.0
 40
5.0
 40
6.0
 40
6.0
 40
6.0
 40
7.0
 40
7.0
 40
7.0
 40
8.0
 40
8.0
 40
8.0
 40
9.0
 40
9.0
 40
9.0
 40
10.0
 40
10.0
 40
10.0
 40
11.0
 40
11.0
 40
11.0
 40
11.0
 10
94.93580726793272
 20
-116.5303547885757
 30
0.0
 10
94.93374021064157
 20
-116.5768635776266
 30
0.0
 10
94.93132864380189
 20
-116.6933078050281
 30
0.0
 10
94.93132864380189
 20
-116.7377495367878
 30
0.0
 10
94.93132864380189
 20
-116.7377495367878
 30
0.0
 10
94.93132864380189
 20
-117.0846706521525
 30
0.0
 10
94.93132864380189
 20
-117.0846706521525
 30
0.0
 10
94.93132864380189
 20
-117.1714870583807
 30
0.0
 10
94.93374021064157
 20
-117.3130804828245
 30
0.0
 10
94.94407549709732
 20
-117.4336588248083
 30
0.0
 10
94.94407549709732
 20
-117.4336588248083
 30
0.0
 10
94.75390622631153
 20
-117.4336588248083
 30
0.0
 10
94.75390622631153
 20
-117.4336588248083
 30
0.0
 10
94.75804034089383
 20
-117.3702690678797
 30
0.0
 10
94.76217445547613
 20
-117.3172145974068
 30
0.0
 10
94.76424151276727
 20
-117.2624375791913
 30
0.0
 10
94.76630857005843
 20
-117.1397921799164
 30
0.0
 10
94.76837562734957
 20
-117.1249782693299
 30
0.0
 10
94.76837562734957
 20
-117.0805365375702
 30
0.0
 10
94.76837562734957
 20
-117.0805365375702
 30
0.0
 10
94.76837562734957
 20
-116.7587646192478
 30
0.0
 10
94.76837562734957
 20
-116.7587646192478
 30
0.0
 10
94.76837562734957
 20
-116.7039876010323
 30
0.0
 10
94.75597328360267
 20
-116.464897974356
 30
0.0
 10
94.75390622631153
 20
-116.4139105611743
 30
0.0
 10
94.75390622631153
 20
-116.4139105611743
 30
0.0
 10
94.95441078355307
 20
-116.4414713250563
 30
0.0
 10
94.95441078355307
 20
-116.4414713250563
 30
0.0
 10
94.97577037556162
 20
-116.4435383823475
 30
0.0
 10
95.00746525402592
 20
-116.4480170064783
 30
0.0
 10
95.00746525402592
 20
-116.4731662035206
 30
0.0
 10
95.00746525402592
 20
-116.5007269674026
 30
0.0
 10
94.95682235039274
 20
-116.5220865594112
 30
0.0
 10
94.93580726793272
 20
-116.5303547885757
 30
0.0
  0
SPLINE
  5
5E
330
4E
100
AcDbEntity
  8
_U+30EC_U+30A4_U+30E4_U+30FC 1
370
     0
100
AcDbSpline
210
0.0
220
0.0
230
1.0
 70
    11
 71
     3
 72
    83
 73
    79
 74
     0
 42
0.0000000001
 43
0.0000000001
 12
1.0
 22
0.0
 32
0.0
 13
1.0
 23
0.0
 33
0.0
 40
0.0
 40
0.0
 40
0.0
 40
0.0
 40
1.0
 40
1.0
 40
1.0
 40
2.0
 40
2.0
 40
2.0
 40
3.0
 40
3.0
 40
3.0
 40
4.0
 40
4.0
 40
4.0
 40
5.0
 40
5.0
 40
5.0
 40
6.0
 40
6.0
 40
6.0
 40
7.0
 40
7.0
 40
7.0
 40
8.0
 40
8.0
 40
8.0
 40
9.0
 40
9.0
 40
9.0
 40
10.0
 40
10.0
 40
10.0
 40
11.0
 40
11.0
 40
11.0
 40
12.0
 40
12.0
 40
12.0
 40
13.0
 40
13.0
 40
13.0
 40
14.0
 40
14.0
 40
14.0
 40
15.0
 40
15.0
 40
15.0
 40
16.0
 40
16.0
 40
16.0
 40
17.0
 40
17.0
 40
17.0
 40
18.0
 40
18.0
 40
18.0
 40
19.0
 40
19.0
 40
19.0
 40
20.0
 40
20.0
 40
20.0
 40
21.0
 40
21.0
 40
21.0
 40
22.0
 40
22.0
 40
22.0
 40
23.0
 40
23.0
 40
23.0
 40
24.0
 40
24.0
 40
24.0
 40
25.0
 40
25.0
 40
25.0
 40
26.0
 40
26.0
 40
26.0
 40
26.0
 10
95.73713647780183
 20
-116.8521267068981
 30
0.0
 10
95.73713647780183
 20
-116.8521267068981
 30
0.0
 10
95.63998478511779
 20
-116.8521267068981
 30
0.0
 10
95.63998478511779
 20
-116.8521267068981
 30
0.0
 10
95.63998478511779
 20
-116.8521267068981
 30
0.0
 10
95.63998478511779
 20
-117.099484562739
 30
0.0
 10
95.63998478511779
 20
-117.099484562739
 30
0.0
 10
95.63998478511779
 20
-117.099484562739
 30
0.0
 10
95.72266707676378
 20
-117.099484562739
 30
0.0
 10
95.72266707676378
 20
-117.099484562739
 30
0.0
 10
95.78812389098353
 20
-117.099484562739
 30
0.0
 10
95.92799476768467
 20
-117.0953504481567
 30
0.0
 10
96.02721351765987
 20
-117.0867377094436
 30
0.0
 10
96.02721351765987
 20
-117.0867377094436
 30
0.0
 10
96.02721351765987
 20
-117.2665716937736
 30
0.0
 10
96.02721351765987
 20
-117.2665716937736
 30
0.0
 10
95.93419593955812
 20
-117.258303464609
 30
0.0
 10
95.78398977640123
 20
-117.2538248404782
 30
0.0
 10
95.72266707676378
 20
-117.2538248404782
 30
0.0
 10
95.72266707676378
 20
-117.2538248404782
 30
0.0
 10
95.4181206358677
 20
-117.2538248404782
 30
0.0
 10
95.4181206358677
 20
-117.2538248404782
 30
0.0
 10
95.36506616539485
 20
-117.2538248404782
 30
0.0
 10
95.21899411682026
 20
-117.258303464609
 30
0.0
 10
95.11322968542308
 20
-117.2665716937736
 30
0.0
 10
95.11322968542308
 20
-117.2665716937736
 30
0.0
 10
95.11322968542308
 20
-117.0867377094436
 30
0.0
 10
95.11322968542308
 20
-117.0867377094436
 30
0.0
 10
95.21279294494681
 20
-117.0953504481567
 30
0.0
 10
95.35231931209943
 20
-117.099484562739
 30
0.0
 10
95.4181206358677
 20
-117.099484562739
 30
0.0
 10
95.4181206358677
 20
-117.099484562739
 30
0.0
 10
95.4622178580789
 20
-117.099484562739
 30
0.0
 10
95.4622178580789
 20
-117.099484562739
 30
0.0
 10
95.4622178580789
 20
-117.099484562739
 30
0.0
 10
95.4622178580789
 20
-116.8521267068981
 30
0.0
 10
95.4622178580789
 20
-116.8521267068981
 30
0.0
 10
95.4622178580789
 20
-116.8521267068981
 30
0.0
 10
95.38849281469454
 20
-116.8521267068981
 30
0.0
 10
95.38849281469454
 20
-116.8521267068981
 30
0.0
 10
95.3271701150571
 20
-116.8521267068981
 30
0.0
 10
95.15973847447395
 20
-116.8562608214804
 30
0.0
 10
95.03916013249021
 20
-116.864529050645
 30
0.0
 10
95.03916013249021
 20
-116.864529050645
 30
0.0
 10
95.03916013249021
 20
-116.6871066331546
 30
0.0
 10
95.03916013249021
 20
-116.6871066331546
 30
0.0
 10
95.15353730260051
 20
-116.6933078050281
 30
0.0
 10
95.312011694922
 20
-116.6974419196104
 30
0.0
 10
95.38849281469454
 20
-116.6974419196104
 30
0.0
 10
95.38849281469454
 20
-116.6974419196104
 30
0.0
 10
95.46015080078774
 20
-116.6974419196104
 30
0.0
 10
95.46015080078774
 20
-116.6974419196104
 30
0.0
 10
95.45601668620544
 20
-116.5451686991623
 30
0.0
 10
95.4539496289143
 20
-116.5114067634069
 30
0.0
 10
95.44774845704084
 20
-116.4183891853051
 30
0.0
 10
95.44774845704084
 20
-116.4183891853051
 30
0.0
 10
95.65927731983518
 20
-116.4414713250563
 30
0.0
 10
95.65927731983518
 20
-116.4414713250563
 30
0.0
 10
95.68442651687751
 20
-116.4435383823475
 30
0.0
 10
95.7078531661772
 20
-116.4480170064783
 30
0.0
 10
95.7078531661772
 20
-116.4710991462294
 30
0.0
 10
95.7078531661772
 20
-116.5027940246938
 30
0.0
 10
95.66341143441748
 20
-116.5196749925715
 30
0.0
 10
95.63998478511779
 20
-116.5282877312846
 30
0.0
 10
95.63998478511779
 20
-116.5282877312846
 30
0.0
 10
95.63998478511779
 20
-116.6974419196104
 30
0.0
 10
95.63998478511779
 20
-116.6974419196104
 30
0.0
 10
95.63998478511779
 20
-116.6974419196104
 30
0.0
 10
95.73713647780183
 20
-116.6974419196104
 30
0.0
 10
95.73713647780183
 20
-116.6974419196104
 30
0.0
 10
95.81361759757438
 20
-116.6974419196104
 30
0.0
 10
95.97209198989587
 20
-116.6933078050281
 30
0.0
 10
96.08853621729732
 20
-116.6871066331546
 30
0.0
 10
96.08853621729732
 20
-116.6871066331546
 30
0.0
 10
96.08853621729732
 20
-116.864529050645
 30
0.0
 10
96.08853621729732
 20
-116.864529050645
 30
0.0
 10
95.980704728609
 20
-116.8583278787715
 30
0.0
 10
95.80741642570092
 20
-116.8521267068981
 30
0.0
 10
95.73713647780183
 20
-116.8521267068981
 30
0.0
  0
SPLINE
  5
5F
330
4E
100
AcDbEntity
  8
_U+30EC_U+30A4_U+30E4_U+30FC 1
370
     0
100
AcDbSpline
210
0.0
220
0.0
230
1.0
 70
    11
 71
     3
 72
    17
 73
    13
 74
     0
 42
0.0000000001
 43
0.0000000001
 12
1.0
 22
0.0
 32
0.0
 13
1.0
 23
0.0
 33
0.0
 40
0.0
 40
0.0
 40
0.0
 40
0.0
 40
1.0
 40
1.0
 40
1.0
 40
2.0
 40
2.0
 40
2.0
 40
3.0
 40
3.0
 40
3.0
 40
4.0
 40
4.0
 40
4.0
 40
4.0
 10
95.49184567925204
 20
-117.6496663117334
 30
0.0
 10
95.49184567925204
 20
-117.6496663117334
 30
0.0
 10
95.28892955517082
 20
-117.6496663117334
 30
0.0
 10
95.28892955517082
 20
-117.6496663117334
 30
0.0
 10
95.3161458095043
 20
-117.7089219540797
 30
0.0
 10
95.37126733726829
 20
-117.7805799401729
 30
0.0
 10
95.3988281011503
 20
-117.8102077613461
 30
0.0
 10
95.4263888650323
 20
-117.7953938507595
 30
0.0
 10
95.5407660351426
 20
-117.7320040938309
 30
0.0
 10
95.63171655595319
 20
-117.6496663117334
 30
0.0
 10
95.63171655595319
 20
-117.6496663117334
 30
0.0
 10
95.49184567925204
 20
-117.6496663117334
 30
0.0
 10
95.49184567925204
 20
-117.6496663117334
 30
0.0
  0
HATCH
  5
60
330
4E
100
AcDbEntity
  8
_U+30EC_U+30A4_U+30E4_U+30FC 1
 62
   179
420
  2234388
100
AcDbHatch
 10
0.0
 20
0.0
 30
0.0
210
0.0
220
0.0
230
1.0
  2
SOLID
 70
     1
 71
     0
 91
        6
 92
        1
 93
        1
 72
     4
 94
        3
 73
     0
 74
     1
 95
      113
 96
      109
 40
0.0
 40
0.0
 40
0.0
 40
0.0
 40
1.0
 40
1.0
 40
1.0
 40
2.0
 40
2.0
 40
2.0
 40
3.0
 40
3.0
 40
3.0
 40
4.0
 40
4.0
 40
4.0
 40
5.0
 40
5.0
 40
5.0
 40
6.0
 40
6.0
 40
6.0
 40
7.0
 40
7.0
 40
7.0
 40
8.0
 40
8.0
 40
8.0
 40
9.0
 40
9.0
 40
9.0
 40
10.0
 40
10.0
 40
10.0
 40
11.0
 40
11.0
 40
11.0
 40
12.0
 40
12.0
 40
12.0
 40
13.0
 40
13.0
 40
13.0
 40
14.0
 40
14.0
 40
14.0
 40
15.0
 40
15.0
 40
15.0
 40
16.0
 40
16.0
 40
16.0
 40
17.0
 40
17.0
 40
17.0
 40
18.0
 40
18.0
 40
18.0
 40
19.0
 40
19.0
 40
19.0
 40
20.0
 40
20.0
 40
20.0
 40
21.0
 40
21.0
 40
21.0
 40
22.0
 40
22.0
 40
22.0
 40
23.0
 40
23.0
 40
23.0
 40
24.0
 40
24.0
 40
24.0
 40
25.0
 40
25.0
 40
25.0
 40
26.0
 40
26.0
 40
26.0
 40
27.0
 40
27.0
 40
27.0
 40
28.0
 40
28.0
 40
28.0
 40
29.0
 40
29.0
 40
29.0
 40
30.0
 40
30.0
 40
30.0
 40
31.0
 40
31.0
 40
31.0
 40
32.0
 40
32.0
 40
32.0
 40
33.0
 40
33.0
 40
33.0
 40
34.0
 40
34.0
 40
34.0
 40
35.0
 40
35.0
 40
35.0
 40
36.0
 40
36.0
 40
36.0
 40
36.0
 10
95.69924042746408
 20
-117.6517333690246
 10
95.69924042746408
 20
-117.6517333690246
 10
95.79880368698781
 20
-117.7509521189998
 10
95.79880368698781
 20
-117.7509521189998
 10
95.80948348299208
 20
-117.761631915004
 10
95.81981876944782
 20
-117.7743787682995
 10
95.81981876944782
 20
-117.789192678886
 10
95.81981876944782
 20
-117.7912597361772
 10
95.81981876944782
 20
-117.8208875573503
 10
95.78192271911009
 20
-117.8208875573503
 10
95.77330998039696
 20
-117.8208875573503
 10
95.73300236321953
 20
-117.816753442768
 10
95.72680119134608
 20
-117.816753442768
 10
95.68683808371718
 20
-117.8484483212323
 10
95.63998478511779
 20
-117.8822102569878
 10
95.5407660351426
 20
-117.9393988420429
 10
95.68683808371718
 20
-118.0472303307313
 10
95.84531247603867
 20
-118.1044189157864
 10
96.11816403847047
 20
-118.1423149661241
 10
96.11816403847047
 20
-118.1423149661241
 10
95.96795787531357
 20
-118.3180148358719
 10
95.96795787531357
 20
-118.3180148358719
 10
95.70544159933753
 20
-118.2460123402302
 10
95.5490342643072
 20
-118.1571288767107
 10
95.47289765408317
 20
-118.1044189157864
 10
95.32269149092627
 20
-118.0027885989715
 10
95.17903100919136
 20
-117.8398355825192
 10
95.10254988941881
 20
-117.6748155087758
 10
95.03502601790791
 20
-117.740616832544
 10
94.96095646497504
 20
-117.7933267934683
 10
94.88275279745987
 20
-117.8419026398104
 10
94.88275279745987
 20
-117.8419026398104
 10
94.88275279745987
 20
-118.0937391197821
 10
94.88275279745987
 20
-118.0937391197821
 10
95.04536130436367
 20
-118.0682454131913
 10
95.23174097011568
 20
-118.0238036814316
 10
95.29547523659281
 20
-118.008989770845
 10
95.29547523659281
 20
-118.008989770845
 10
95.26584741541966
 20
-118.1784884687193
 10
95.26584741541966
 20
-118.1784884687193
 10
95.26343584857997
 20
-118.1784884687193
 10
95.2444878234111
 20
-118.1846896405927
 10
95.24242076611995
 20
-118.1846896405927
 10
95.04329424707251
 20
-118.222930200479
 10
94.72634546242953
 20
-118.2883870146987
 10
94.52928600067324
 20
-118.3242160077453
 10
94.51895071421748
 20
-118.3414414851716
 10
94.49552406491779
 20
-118.3731363636359
 10
94.4720974156181
 20
-118.3731363636359
 10
94.44488116128461
 20
-118.3731363636359
 10
94.44040253715379
 20
-118.3538438289185
 10
94.43833547986264
 20
-118.3348958037496
 10
94.43833547986264
 20
-118.3348958037496
 10
94.4128417732718
 20
-118.1616075008416
 10
94.4128417732718
 20
-118.1616075008416
 10
94.48725583575319
 20
-118.1529947621284
 10
94.59508732444151
 20
-118.140247908833
 10
94.70291881312983
 20
-118.119232826373
 10
94.70291881312983
 20
-118.119232826373
 10
94.70291881312983
 20
-117.9414658993341
 10
94.70291881312983
 20
-117.9414658993341
 10
94.55891382184639
 20
-118.0134683949758
 10
94.4638291864535
 20
-118.043096216149
 10
94.29880911271002
 20
-118.0727240373221
 10
94.29880911271002
 20
-118.0727240373221
 10
94.17823077072627
 20
-117.9032253394478
 10
94.17823077072627
 20
-117.9032253394478
 10
94.49552406491779
 20
-117.8760090851143
 10
94.68810490254326
 20
-117.7826469974641
 10
94.86587182958215
 20
-117.6496663117334
 10
94.71979978100755
 20
-117.6496663117334
 10
94.41938745469376
 20
-117.6538004263157
 10
94.222672502486
 20
-117.6600015981892
 10
94.222672502486
 20
-117.6600015981892
 10
94.222672502486
 20
-117.4822346711503
 10
94.222672502486
 20
-117.4822346711503
 10
94.3770127802252
 20
-117.4887803525722
 10
94.67329099195668
 20
-117.4949815244457
 10
94.85725909086902
 20
-117.4949815244457
 10
94.85725909086902
 20
-117.4949815244457
 10
95.06878795366336
 20
-117.4949815244457
 10
95.06878795366336
 20
-117.4949815244457
 10
95.06878795366336
 20
-117.3998968890528
 10
95.06672089637222
 20
-117.3492539854196
 10
95.06051972449876
 20
-117.3024006868202
 10
95.06051972449876
 20
-117.3024006868202
 10
95.2761827018754
 20
-117.3196261642465
 10
95.2761827018754
 20
-117.3196261642465
 10
95.32510305776596
 20
-117.3237602788288
 10
95.33337128693056
 20
-117.3385741894154
 10
95.33337128693056
 20
-117.3533881000019
 10
95.33337128693056
 20
-117.3788818065928
 10
95.3161458095043
 20
-117.3871500357574
 10
95.26584741541966
 20
-117.4126437423482
 10
95.26343584857997
 20
-117.4381374489391
 10
95.26343584857997
 20
-117.4443386208125
 10
95.26136879128883
 20
-117.4949815244457
 10
95.26136879128883
 20
-117.4949815244457
 10
95.49184567925204
 20
-117.4949815244457
 10
95.49184567925204
 20
-117.4949815244457
 10
95.65721026254404
 20
-117.4949815244457
 10
95.94900985014469
 20
-117.4887803525722
 10
96.12849932492621
 20
-117.4822346711503
 10
96.12849932492621
 20
-117.4822346711503
 10
96.12849932492621
 20
-117.6600015981892
 10
96.12849932492621
 20
-117.6600015981892
 10
95.99965275377787
 20
-117.6558674836069
 10
95.97622610447817
 20
-117.6558674836069
 10
95.69924042746408
 20
-117.6517333690246
 97
        0
 97
        0
 92
        1
 93
        1
 72
     4
 94
        3
 73
     0
 74
     1
 95
       23
 96
       19
 40
0.0
 40
0.0
 40
0.0
 40
0.0
 40
1.0
 40
1.0
 40
1.0
 40
2.0
 40
2.0
 40
2.0
 40
3.0
 40
3.0
 40
3.0
 40
4.0
 40
4.0
 40
4.0
 40
5.0
 40
5.0
 40
5.0
 40
6.0
 40
6.0
 40
6.0
 40
6.0
 10
94.41525334011146
 20
-117.3003336295291
 10
94.39837237223375
 20
-117.3406412467065
 10
94.3921712003603
 20
-117.3575222145842
 10
94.37081160835174
 20
-117.3575222145842
 10
94.35599769776518
 20
-117.3575222145842
 10
94.3453179017609
 20
-117.3406412467065
 10
94.33911672988745
 20
-117.3278943934111
 10
94.33911672988745
 20
-117.3278943934111
 10
94.23955347036373
 20
-117.1628743196676
 10
94.23955347036373
 20
-117.1628743196676
 10
94.3411837871786
 20
-117.1311794412033
 10
94.49138995033549
 20
-117.0760579134393
 10
94.6901719598344
 20
-116.9134494065355
 10
94.6901719598344
 20
-116.9134494065355
 10
94.74736054488956
 20
-117.0867377094436
 10
94.74736054488956
 20
-117.0867377094436
 10
94.65399845723928
 20
-117.1694200010896
 10
94.56545950326836
 20
-117.2262640765962
 10
94.41525334011146
 20
-117.3003336295291
 97
        0
 97
        0
 92
        1
 93
        1
 72
     4
 94
        3
 73
     0
 74
     1
 95
       17
 96
       13
 40
0.0
 40
0.0
 40
0.0
 40
0.0
 40
1.0
 40
1.0
 40
1.0
 40
2.0
 40
2.0
 40
2.0
 40
3.0
 40
3.0
 40
3.0
 40
4.0
 40
4.0
 40
4.0
 40
4.0
 10
94.56752656055951
 20
-116.8349012294718
 10
94.53789873938636
 20
-116.7949381218429
 10
94.47003035832694
 20
-116.6974419196104
 10
94.28812931670575
 20
-116.5875433736309
 10
94.28812931670575
 20
-116.5875433736309
 10
94.41525334011146
 20
-116.4542181783517
 10
94.41525334011146
 20
-116.4542181783517
 10
94.60128849631496
 20
-116.5558484951666
 10
94.65847708137011
 20
-116.6447319586861
 10
94.6860378452521
 20
-116.6871066331546
 10
94.6860378452521
 20
-116.6871066331546
 10
94.56752656055951
 20
-116.8349012294718
 10
94.56752656055951
 20
-116.8349012294718
 97
        0
 97
        0
 92
        1
 93
        1
 72
     4
 94
        3
 73
     0
 74
     1
 95
       38
 96
       34
 40
0.0
 40
0.0
 40
0.0
 40
0.0
 40
1.0
 40
1.0
 40
1.0
 40
2.0
 40
2.0
 40
2.0
 40
3.0
 40
3.0
 40
3.0
 40
4.0
 40
4.0
 40
4.0
 40
5.0
 40
5.0
 40
5.0
 40
6.0
 40
6.0
 40
6.0
 40
7.0
 40
7.0
 40
7.0
 40
8.0
 40
8.0
 40
8.0
 40
9.0
 40
9.0
 40
9.0
 40
10.0
 40
10.0
 40
10.0
 40
11.0
 40
11.0
 40
11.0
 40
11.0
 10
94.93580726793272
 20
-116.5303547885757
 10
94.93374021064157
 20
-116.5768635776266
 10
94.93132864380189
 20
-116.6933078050281
 10
94.93132864380189
 20
-116.7377495367878
 10
94.93132864380189
 20
-116.7377495367878
 10
94.93132864380189
 20
-117.0846706521525
 10
94.93132864380189
 20
-117.0846706521525
 10
94.93132864380189
 20
-117.1714870583807
 10
94.93374021064157
 20
-117.3130804828245
 10
94.94407549709732
 20
-117.4336588248083
 10
94.94407549709732
 20
-117.4336588248083
 10
94.75390622631153
 20
-117.4336588248083
 10
94.75390622631153
 20
-117.4336588248083
 10
94.75804034089383
 20
-117.3702690678797
 10
94.76217445547613
 20
-117.3172145974068
 10
94.76424151276727
 20
-117.2624375791913
 10
94.76630857005843
 20
-117.1397921799164
 10
94.76837562734957
 20
-117.1249782693299
 10
94.76837562734957
 20
-117.0805365375702
 10
94.76837562734957
 20
-117.0805365375702
 10
94.76837562734957
 20
-116.7587646192478
 10
94.76837562734957
 20
-116.7587646192478
 10
94.76837562734957
 20
-116.7039876010323
 10
94.75597328360267
 20
-116.464897974356
 10
94.75390622631153
 20
-116.4139105611743
 10
94.75390622631153
 20
-116.4139105611743
 10
94.95441078355307
 20
-116.4414713250563
 10
94.95441078355307
 20
-116.4414713250563
 10
94.97577037556162
 20
-116.4435383823475
 10
95.00746525402592
 20
-116.4480170064783
 10
95.00746525402592
 20
-116.4731662035206
 10
95.00746525402592
 20
-116.5007269674026
 10
94.95682235039274
 20
-116.5220865594112
 10
94.93580726793272
 20
-116.5303547885757
 97
        0
 97
        0
 92
        1
 93
        1
 72
     4
 94
        3
 73
     0
 74
     1
 95
       83
 96
       79
 40
0.0
 40
0.0
 40
0.0
 40
0.0
 40
1.0
 40
1.0
 40
1.0
 40
2.0
 40
2.0
 40
2.0
 40
3.0
 40
3.0
 40
3.0
 40
4.0
 40
4.0
 40
4.0
 40
5.0
 40
5.0
 40
5.0
 40
6.0
 40
6.0
 40
6.0
 40
7.0
 40
7.0
 40
7.0
 40
8.0
 40
8.0
 40
8.0
 40
9.0
 40
9.0
 40
9.0
 40
10.0
 40
10.0
 40
10.0
 40
11.0
 40
11.0
 40
11.0
 40
12.0
 40
12.0
 40
12.0
 40
13.0
 40
13.0
 40
13.0
 40
14.0
 40
14.0
 40
14.0
 40
15.0
 40
15.0
 40
15.0
 40
16.0
 40
16.0
 40
16.0
 40
17.0
 40
17.0
 40
17.0
 40
18.0
 40
18.0
 40
18.0
 40
19.0
 40
19.0
 40
19.0
 40
20.0
 40
20.0
 40
20.0
 40
21.0
 40
21.0
 40
21.0
 40
22.0
 40
22.0
 40
22.0
 40
23.0
 40
23.0
 40
23.0
 40
24.0
 40
24.0
 40
24.0
 40
25.0
 40
25.0
 40
25.0
 40
26.0
 40
26.0
 40
26.0
 40
26.0
 10
95.73713647780183
 20
-116.8521267068981
 10
95.73713647780183
 20
-116.8521267068981
 10
95.63998478511779
 20
-116.8521267068981
 10
95.63998478511779
 20
-116.8521267068981
 10
95.63998478511779
 20
-116.8521267068981
 10
95.63998478511779
 20
-117.099484562739
 10
95.63998478511779
 20
-117.099484562739
 10
95.63998478511779
 20
-117.099484562739
 10
95.72266707676378
 20
-117.099484562739
 10
95.72266707676378
 20
-117.099484562739
 10
95.78812389098353
 20
-117.099484562739
 10
95.92799476768467
 20
-117.0953504481567
 10
96.02721351765987
 20
-117.0867377094436
 10
96.02721351765987
 20
-117.0867377094436
 10
96.02721351765987
 20
-117.2665716937736
 10
96.02721351765987
 20
-117.2665716937736
 10
95.93419593955812
 20
-117.258303464609
 10
95.78398977640123
 20
-117.2538248404782
 10
95.72266707676378
 20
-117.2538248404782
 10
95.72266707676378
 20
-117.2538248404782
 10
95.4181206358677
 20
-117.2538248404782
 10
95.4181206358677
 20
-117.2538248404782
 10
95.36506616539485
 20
-117.2538248404782
 10
95.21899411682026
 20
-117.258303464609
 10
95.11322968542308
 20
-117.2665716937736
 10
95.11322968542308
 20
-117.2665716937736
 10
95.11322968542308
 20
-117.0867377094436
 10
95.11322968542308
 20
-117.0867377094436
 10
95.21279294494681
 20
-117.0953504481567
 10
95.35231931209943
 20
-117.099484562739
 10
95.4181206358677
 20
-117.099484562739
 10
95.4181206358677
 20
-117.099484562739
 10
95.4622178580789
 20
-117.099484562739
 10
95.4622178580789
 20
-117.099484562739
 10
95.4622178580789
 20
-117.099484562739
 10
95.4622178580789
 20
-116.8521267068981
 10
95.4622178580789
 20
-116.8521267068981
 10
95.4622178580789
 20
-116.8521267068981
 10
95.38849281469454
 20
-116.8521267068981
 10
95.38849281469454
 20
-116.8521267068981
 10
95.3271701150571
 20
-116.8521267068981
 10
95.15973847447395
 20
-116.8562608214804
 10
95.03916013249021
 20
-116.864529050645
 10
95.03916013249021
 20
-116.864529050645
 10
95.03916013249021
 20
-116.6871066331546
 10
95.03916013249021
 20
-116.6871066331546
 10
95.15353730260051
 20
-116.6933078050281
 10
95.312011694922
 20
-116.6974419196104
 10
95.38849281469454
 20
-116.6974419196104
 10
95.38849281469454
 20
-116.6974419196104
 10
95.46015080078774
 20
-116.6974419196104
 10
95.46015080078774
 20
-116.6974419196104
 10
95.45601668620544
 20
-116.5451686991623
 10
95.4539496289143
 20
-116.5114067634069
 10
95.44774845704084
 20
-116.4183891853051
 10
95.44774845704084
 20
-116.4183891853051
 10
95.65927731983518
 20
-116.4414713250563
 10
95.65927731983518
 20
-116.4414713250563
 10
95.68442651687751
 20
-116.4435383823475
 10
95.7078531661772
 20
-116.4480170064783
 10
95.7078531661772
 20
-116.4710991462294
 10
95.7078531661772
 20
-116.5027940246938
 10
95.66341143441748
 20
-116.5196749925715
 10
95.63998478511779
 20
-116.5282877312846
 10
95.63998478511779
 20
-116.5282877312846
 10
95.63998478511779
 20
-116.6974419196104
 10
95.63998478511779
 20
-116.6974419196104
 10
95.63998478511779
 20
-116.6974419196104
 10
95.73713647780183
 20
-116.6974419196104
 10
95.73713647780183
 20
-116.6974419196104
 10
95.81361759757438
 20
-116.6974419196104
 10
95.97209198989587
 20
-116.6933078050281
 10
96.08853621729732
 20
-116.6871066331546
 10
96.08853621729732
 20
-116.6871066331546
 10
96.08853621729732
 20
-116.864529050645
 10
96.08853621729732
 20
-116.864529050645
 10
95.980704728609
 20
-116.8583278787715
 10
95.80741642570092
 20
-116.8521267068981
 10
95.73713647780183
 20
-116.8521267068981
 97
        0
 97
        0
 92
        1
 93
        1
 72
     4
 94
        3
 73
     0
 74
     1
 95
       17
 96
       13
 40
0.0
 40
0.0
 40
0.0
 40
0.0
 40
1.0
 40
1.0
 40
1.0
 40
2.0
 40
2.0
 40
2.0
 40
3.0
 40
3.0
 40
3.0
 40
4.0
 40
4.0
 40
4.0
 40
4.0
 10
95.49184567925204
 20
-117.6496663117334
 10
95.49184567925204
 20
-117.6496663117334
 10
95.28892955517082
 20
-117.6496663117334
 10
95.28892955517082
 20
-117.6496663117334
 10
95.3161458095043
 20
-117.7089219540797
 10
95.37126733726829
 20
-117.7805799401729
 10
95.3988281011503
 20
-117.8102077613461
 10
95.4263888650323
 20
-117.7953938507595
 10
95.5407660351426
 20
-117.7320040938309
 10
95.63171655595319
 20
-117.6496663117334
 10
95.63171655595319
 20
-117.6496663117334
 10
95.49184567925204
 20
-117.6496663117334
 10
95.49184567925204
 20
-117.6496663117334
 97
        0
 97
        0
 75
     2
 76
     1
 98
        0
  0
SPLINE
  5
61
330
4E
100
AcDbEntity
  8
_U+30EC_U+30A4_U+30E4_U+30FC 1
370
     0
100
AcDbSpline
210
0.0
220
0.0
230
1.0
 70
    11
 71
     3
 72
    77
 73
    73
 74
     0
 42
0.0000000001
 43
0.0000000001
 12
1.0
 22
0.0
 32
0.0
 13
1.0
 23
0.0
 33
0.0
 40
0.0
 40
0.0
 40
0.0
 40
0.0
 40
1.0
 40
1.0
 40
1.0
 40
2.0
 40
2.0
 40
2.0
 40
3.0
 40
3.0
 40
3.0
 40
4.0
 40
4.0
 40
4.0
 40
5.0
 40
5.0
 40
5.0
 40
6.0
 40
6.0
 40
6.0
 40
7.0
 40
7.0
 40
7.0
 40
8.0
 40
8.0
 40
8.0
 40
9.0
 40
9.0
 40
9.0
 40
10.0
 40
10.0
 40
10.0
 40
11.0
 40
11.0
 40
11.0
 40
12.0
 40
12.0
 40
12.0
 40
13.0
 40
13.0
 40
13.0
 40
14.0
 40
14.0
 40
14.0
 40
15.0
 40
15.0
 40
15.0
 40
16.0
 40
16.0
 40
16.0
 40
17.0
 40
17.0
 40
17.0
 40
18.0
 40
18.0
 40
18.0
 40
19.0
 40
19.0
 40
19.0
 40
20.0
 40
20.0
 40
20.0
 40
21.0
 40
21.0
 40
21.0
 40
22.0
 40
22.0
 40
22.0
 40
23.0
 40
23.0
 40
23.0
 40
24.0
 40
24.0
 40
24.0
 40
24.0
 10
97.98333873418473
 20
-118.2797742759856
 30
0.0
 10
97.93648543558533
 20
-118.3052679825765
 30
0.0
 10
97.81177297901928
 20
-118.3180148358719
 30
0.0
 10
97.73356931150411
 20
-118.3180148358719
 30
0.0
 10
97.72082245820869
 20
-118.3180148358719
 30
0.0
 10
97.69532875161784
 20
-118.3180148358719
 30
0.0
 10
97.66156681586239
 20
-118.3138807212896
 30
0.0
 10
97.66156681586239
 20
-118.3138807212896
 30
0.0
 10
97.56441512317835
 20
-118.0875379479087
 30
0.0
 10
97.56441512317835
 20
-118.0875379479087
 30
0.0
 10
97.5940429443515
 20
-118.0937391197821
 30
0.0
 10
97.65123152940664
 20
-118.1023518584953
 30
0.0
 10
97.76733124725956
 20
-118.1023518584953
 30
0.0
 10
97.84553491477473
 20
-118.1023518584953
 30
0.0
 10
97.84760197206589
 20
-118.0599771840267
 30
0.0
 10
97.84760197206589
 20
-118.0027885989715
 30
0.0
 10
97.84760197206589
 20
-118.0027885989715
 30
0.0
 10
97.84760197206589
 20
-117.6538004263157
 30
0.0
 10
97.84760197206589
 20
-117.6538004263157
 30
0.0
 10
97.84760197206589
 20
-117.6538004263157
 30
0.0
 10
97.3887152534306
 20
-117.6538004263157
 30
0.0
 10
97.3887152534306
 20
-117.6538004263157
 30
0.0
 10
97.39078231072175
 20
-117.7912597361772
 30
0.0
 10
97.3928493680129
 20
-117.9900417456761
 30
0.0
 10
97.39905053988635
 20
-118.1233669409553
 30
0.0
 10
97.40146210672603
 20
-118.1509277048373
 30
0.0
 10
97.40146210672603
 20
-118.195369436597
 30
0.0
 10
97.41420896002145
 20
-118.2566921362344
 30
0.0
 10
97.41420896002145
 20
-118.2566921362344
 30
0.0
 10
97.17305227605397
 20
-118.2566921362344
 30
0.0
 10
97.17305227605397
 20
-118.2566921362344
 30
0.0
 10
97.19854598264482
 20
-118.1319796796684
 30
0.0
 10
97.19854598264482
 20
-117.7912597361772
 30
0.0
 10
97.19854598264482
 20
-117.6538004263157
 30
0.0
 10
97.19854598264482
 20
-117.6538004263157
 30
0.0
 10
96.75619572233873
 20
-117.6538004263157
 30
0.0
 10
96.75619572233873
 20
-117.6538004263157
 30
0.0
 10
96.73276907303904
 20
-117.8611951745278
 30
0.0
 10
96.6673122588193
 20
-118.1295681128287
 30
0.0
 10
96.47059730661152
 20
-118.3138807212896
 30
0.0
 10
96.47059730661152
 20
-118.3138807212896
 30
0.0
 10
96.28215058356835
 20
-118.1912353220147
 30
0.0
 10
96.28215058356835
 20
-118.1912353220147
 30
0.0
 10
96.5363986303798
 20
-117.9710937205072
 30
0.0
 10
96.56809350884409
 20
-117.6389865157291
 30
0.0
 10
96.56809350884409
 20
-117.3068793109511
 30
0.0
 10
96.56809350884409
 20
-117.3068793109511
 30
0.0
 10
96.56809350884409
 20
-116.871074732067
 30
0.0
 10
96.56809350884409
 20
-116.871074732067
 30
0.0
 10
96.56809350884409
 20
-116.8349012294718
 30
0.0
 10
96.56602645155294
 20
-116.6023572842175
 30
0.0
 10
96.55706920329129
 20
-116.5007269674026
 30
0.0
 10
96.69694007999243
 20
-116.5114067634069
 30
0.0
 10
96.93809676395992
 20
-116.5114067634069
 30
0.0
 10
97.08210175524337
 20
-116.5114067634069
 30
0.0
 10
97.08210175524337
 20
-116.5114067634069
 30
0.0
 10
97.54098847387864
 20
-116.5114067634069
 30
0.0
 10
97.54098847387864
 20
-116.5114067634069
 30
0.0
 10
97.55580238446522
 20
-116.5114067634069
 30
0.0
 10
97.90479055712103
 20
-116.5114067634069
 30
0.0
 10
98.06360945899105
 20
-116.5007269674026
 30
0.0
 10
98.06119789215137
 20
-116.5537814378754
 30
0.0
 10
98.05499672027793
 20
-116.7143228874881
 30
0.0
 10
98.05499672027793
 20
-116.7653103006698
 30
0.0
 10
98.05499672027793
 20
-116.7653103006698
 30
0.0
 10
98.05499672027793
 20
-117.3723361251708
 30
0.0
 10
98.05499672027793
 20
-117.3723361251708
 30
0.0
 10
98.05499672027793
 20
-117.3912841503397
 30
0.0
 10
98.0656765162822
 20
-117.9624809817941
 30
0.0
 10
98.0656765162822
 20
-118.0747910946132
 30
0.0
 10
98.0656765162822
 20
-118.1319796796684
 30
0.0
 10
98.0656765162822
 20
-118.2332654869347
 30
0.0
 10
97.98333873418473
 20
-118.2797742759856
 30
0.0
  0
POLYLINE
  5
62
330
4E
100
AcDbEntity
  8
_U+30EC_U+30A4_U+30E4_U+30FC 1
370
     0
100
AcDb2dPolyline
 66
     1
 10
0.0
 20
0.0
 30
0.0
  0
VERTEX
  5
63
330
62
100
AcDbEntity
  8
_U+30EC_U+30A4_U+30E4_U+30FC 1
370
     0
100
AcDbVertex
100
AcDb2dVertex
 10
97.19854598264482
 20
-116.6933078050281
 30
0.0
  0
VERTEX
  5
64
330
62
100
AcDbEntity
  8
_U+30EC_U+30A4_U+30E4_U+30FC 1
370
     0
100
AcDbVertex
100
AcDb2dVertex
 10
96.76032983692103
 20
-116.6933078050281
 30
0.0
  0
VERTEX
  5
65
330
62
100
AcDbEntity
  8
_U+30EC_U+30A4_U+30E4_U+30FC 1
370
     0
100
AcDbVertex
100
AcDb2dVertex
 10
96.76032983692103
 20
-116.9978542459242
 30
0.0
  0
VERTEX
  5
66
330
62
100
AcDbEntity
  8
_U+30EC_U+30A4_U+30E4_U+30FC 1
370
     0
100
AcDbVertex
100
AcDb2dVertex
 10
97.19854598264482
 20
-116.9978542459242
 30
0.0
  0
VERTEX
  5
67
330
62
100
AcDbEntity
  8
_U+30EC_U+30A4_U+30E4_U+30FC 1
370
     0
100
AcDbVertex
100
AcDb2dVertex
 10
97.19854598264482
 20
-116.6933078050281
 30
0.0
  0
SEQEND
  5
68
330
62
100
AcDbEntity
  8
_U+30EC_U+30A4_U+30E4_U+30FC 1
370
     0
  0
POLYLINE
  5
69
330
4E
100
AcDbEntity
  8
_U+30EC_U+30A4_U+30E4_U+30FC 1
370
     0
100
AcDb2dPolyline
 66
     1
 10
0.0
 20
0.0
 30
0.0
  0
VERTEX
  5
6A
330
69
100
AcDbEntity
  8
_U+30EC_U+30A4_U+30E4_U+30FC 1
370
     0
100
AcDbVertex
100
AcDb2dVertex
 10
97.19854598264482
 20
-117.1649413769588
 30
0.0
  0
VERTEX
  5
6B
330
69
100
AcDbEntity
  8
_U+30EC_U+30A4_U+30E4_U+30FC 1
370
     0
100
AcDbVertex
100
AcDb2dVertex
 10
96.76032983692103
 20
-117.1649413769588
 30
0.0
  0
VERTEX
  5
6C
330
69
100
AcDbEntity
  8
_U+30EC_U+30A4_U+30E4_U+30FC 1
370
     0
100
AcDbVertex
100
AcDb2dVertex
 10
96.76032983692103
 20
-117.4739664419857
 30
0.0
  0
VERTEX
  5
6D
330
69
100
AcDbEntity
  8
_U+30EC_U+30A4_U+30E4_U+30FC 1
370
     0
100
AcDbVertex
100
AcDb2dVertex
 10
97.19854598264482
 20
-117.4739664419857
 30
0.0
  0
VERTEX
  5
6E
330
69
100
AcDbEntity
  8
_U+30EC_U+30A4_U+30E4_U+30FC 1
370
     0
100
AcDbVertex
100
AcDb2dVertex
 10
97.19854598264482
 20
-117.1649413769588
 30
0.0
  0
SEQEND
  5
6F
330
69
100
AcDbEntity
  8
_U+30EC_U+30A4_U+30E4_U+30FC 1
370
     0
  0
POLYLINE
  5
70
330
4E
100
AcDbEntity
  8
_U+30EC_U+30A4_U+30E4_U+30FC 1
370
     0
100
AcDb2dPolyline
 66
     1
 10
0.0
 20
0.0
 30
0.0
  0
VERTEX
  5
71
330
70
100
AcDbEntity
  8
_U+30EC_U+30A4_U+30E4_U+30FC 1
370
     0
100
AcDbVertex
100
AcDb2dVertex
 10
97.84760197206589
 20
-116.6933078050281
 30
0.0
  0
VERTEX
  5
72
330
70
100
AcDbEntity
  8
_U+30EC_U+30A4_U+30E4_U+30FC 1
370
     0
100
AcDbVertex
100
AcDb2dVertex
 10
97.3887152534306
 20
-116.6933078050281
 30
0.0
  0
VERTEX
  5
73
330
70
100
AcDbEntity
  8
_U+30EC_U+30A4_U+30E4_U+30FC 1
370
     0
100
AcDbVertex
100
AcDb2dVertex
 10
97.3887152534306
 20
-116.9978542459242
 30
0.0
  0
VERTEX
  5
74
330
70
100
AcDbEntity
  8
_U+30EC_U+30A4_U+30E4_U+30FC 1
370
     0
100
AcDbVertex
100
AcDb2dVertex
 10
97.84760197206589
 20
-116.9978542459242
 30
0.0
  0
VERTEX
  5
75
330
70
100
AcDbEntity
  8
_U+30EC_U+30A4_U+30E4_U+30FC 1
370
     0
100
AcDbVertex
100
AcDb2dVertex
 10
97.84760197206589
 20
-116.6933078050281
 30
0.0
  0
SEQEND
  5
76
330
70
100
AcDbEntity
  8
_U+30EC_U+30A4_U+30E4_U+30FC 1
370
     0
  0
POLYLINE
  5
77
330
4E
100
AcDbEntity
  8
_U+30EC_U+30A4_U+30E4_U+30FC 1
370
     0
100
AcDb2dPolyline
 66
     1
 10
0.0
 20
0.0
 30
0.0
  0
VERTEX
  5
78
330
77
100
AcDbEntity
  8
_U+30EC_U+30A4_U+30E4_U+30FC 1
370
     0
100
AcDbVertex
100
AcDb2dVertex
 10
97.84760197206589
 20
-117.1649413769588
 30
0.0
  0
VERTEX
  5
79
330
77
100
AcDbEntity
  8
_U+30EC_U+30A4_U+30E4_U+30FC 1
370
     0
100
AcDbVertex
100
AcDb2dVertex
 10
97.3887152534306
 20
-117.1649413769588
 30
0.0
  0
VERTEX
  5
7A
330
77
100
AcDbEntity
  8
_U+30EC_U+30A4_U+30E4_U+30FC 1
370
     0
100
AcDbVertex
100
AcDb2dVertex
 10
97.3887152534306
 20
-117.4739664419857
 30
0.0
  0
VERTEX
  5
7B
330
77
100
AcDbEntity
  8
_U+30EC_U+30A4_U+30E4_U+30FC 1
370
     0
100
AcDbVertex
100
AcDb2dVertex
 10
97.84760197206589
 20
-117.4739664419857
 30
0.0
  0
VERTEX
  5
7C
330
77
100
AcDbEntity
  8
_U+30EC_U+30A4_U+30E4_U+30FC 1
370
     0
100
AcDbVertex
100
AcDb2dVertex
 10
97.84760197206589
 20
-117.1649413769588
 30
0.0
  0
SEQEND
  5
7D
330
77
100
AcDbEntity
  8
_U+30EC_U+30A4_U+30E4_U+30FC 1
370
     0
  0
HATCH
  5
7E
330
4E
100
AcDbEntity
  8
_U+30EC_U+30A4_U+30E4_U+30FC 1
 62
   179
420
  2234388
100
AcDbHatch
 10
0.0
 20
0.0
 30
0.0
210
0.0
220
0.0
230
1.0
  2
SOLID
 70
     1
 71
     0
 91
        5
 92
        1
 93
        1
 72
     4
 94
        3
 73
     0
 74
     1
 95
       77
 96
       73
 40
0.0
 40
0.0
 40
0.0
 40
0.0
 40
1.0
 40
1.0
 40
1.0
 40
2.0
 40
2.0
 40
2.0
 40
3.0
 40
3.0
 40
3.0
 40
4.0
 40
4.0
 40
4.0
 40
5.0
 40
5.0
 40
5.0
 40
6.0
 40
6.0
 40
6.0
 40
7.0
 40
7.0
 40
7.0
 40
8.0
 40
8.0
 40
8.0
 40
9.0
 40
9.0
 40
9.0
 40
10.0
 40
10.0
 40
10.0
 40
11.0
 40
11.0
 40
11.0
 40
12.0
 40
12.0
 40
12.0
 40
13.0
 40
13.0
 40
13.0
 40
14.0
 40
14.0
 40
14.0
 40
15.0
 40
15.0
 40
15.0
 40
16.0
 40
16.0
 40
16.0
 40
17.0
 40
17.0
 40
17.0
 40
18.0
 40
18.0
 40
18.0
 40
19.0
 40
19.0
 40
19.0
 40
20.0
 40
20.0
 40
20.0
 40
21.0
 40
21.0
 40
21.0
 40
22.0
 40
22.0
 40
22.0
 40
23.0
 40
23.0
 40
23.0
 40
24.0
 40
24.0
 40
24.0
 40
24.0
 10
97.98333873418473
 20
-118.2797742759856
 10
97.93648543558533
 20
-118.3052679825765
 10
97.81177297901928
 20
-118.3180148358719
 10
97.73356931150411
 20
-118.3180148358719
 10
97.72082245820869
 20
-118.3180148358719
 10
97.69532875161784
 20
-118.3180148358719
 10
97.66156681586239
 20
-118.3138807212896
 10
97.66156681586239
 20
-118.3138807212896
 10
97.56441512317835
 20
-118.0875379479087
 10
97.56441512317835
 20
-118.0875379479087
 10
97.5940429443515
 20
-118.0937391197821
 10
97.65123152940664
 20
-118.1023518584953
 10
97.76733124725956
 20
-118.1023518584953
 10
97.84553491477473
 20
-118.1023518584953
 10
97.84760197206589
 20
-118.0599771840267
 10
97.84760197206589
 20
-118.0027885989715
 10
97.84760197206589
 20
-118.0027885989715
 10
97.84760197206589
 20
-117.6538004263157
 10
97.84760197206589
 20
-117.6538004263157
 10
97.84760197206589
 20
-117.6538004263157
 10
97.3887152534306
 20
-117.6538004263157
 10
97.3887152534306
 20
-117.6538004263157
 10
97.39078231072175
 20
-117.7912597361772
 10
97.3928493680129
 20
-117.9900417456761
 10
97.39905053988635
 20
-118.1233669409553
 10
97.40146210672603
 20
-118.1509277048373
 10
97.40146210672603
 20
-118.195369436597
 10
97.41420896002145
 20
-118.2566921362344
 10
97.41420896002145
 20
-118.2566921362344
 10
97.17305227605397
 20
-118.2566921362344
 10
97.17305227605397
 20
-118.2566921362344
 10
97.19854598264482
 20
-118.1319796796684
 10
97.19854598264482
 20
-117.7912597361772
 10
97.19854598264482
 20
-117.6538004263157
 10
97.19854598264482
 20
-117.6538004263157
 10
96.75619572233873
 20
-117.6538004263157
 10
96.75619572233873
 20
-117.6538004263157
 10
96.73276907303904
 20
-117.8611951745278
 10
96.6673122588193
 20
-118.1295681128287
 10
96.47059730661152
 20
-118.3138807212896
 10
96.47059730661152
 20
-118.3138807212896
 10
96.28215058356835
 20
-118.1912353220147
 10
96.28215058356835
 20
-118.1912353220147
 10
96.5363986303798
 20
-117.9710937205072
 10
96.56809350884409
 20
-117.6389865157291
 10
96.56809350884409
 20
-117.3068793109511
 10
96.56809350884409
 20
-117.3068793109511
 10
96.56809350884409
 20
-116.871074732067
 10
96.56809350884409
 20
-116.871074732067
 10
96.56809350884409
 20
-116.8349012294718
 10
96.56602645155294
 20
-116.6023572842175
 10
96.55706920329129
 20
-116.5007269674026
 10
96.69694007999243
 20
-116.5114067634069
 10
96.93809676395992
 20
-116.5114067634069
 10
97.08210175524337
 20
-116.5114067634069
 10
97.08210175524337
 20
-116.5114067634069
 10
97.54098847387864
 20
-116.5114067634069
 10
97.54098847387864
 20
-116.5114067634069
 10
97.55580238446522
 20
-116.5114067634069
 10
97.90479055712103
 20
-116.5114067634069
 10
98.06360945899105
 20
-116.5007269674026
 10
98.06119789215137
 20
-116.5537814378754
 10
98.05499672027793
 20
-116.7143228874881
 10
98.05499672027793
 20
-116.7653103006698
 10
98.05499672027793
 20
-116.7653103006698
 10
98.05499672027793
 20
-117.3723361251708
 10
98.05499672027793
 20
-117.3723361251708
 10
98.05499672027793
 20
-117.3912841503397
 10
98.0656765162822
 20
-117.9624809817941
 10
98.0656765162822
 20
-118.0747910946132
 10
98.0656765162822
 20
-118.1319796796684
 10
98.0656765162822
 20
-118.2332654869347
 10
97.98333873418473
 20
-118.2797742759856
 97
        0
 97
        0
 92
        1
 93
        4
 72
     1
 10
97.19854598264482
 20
-116.6933078050281
 11
96.76032983692103
 21
-116.6933078050281
 72
     1
 10
96.76032983692103
 20
-116.6933078050281
 11
96.76032983692103
 21
-116.9978542459242
 72
     1
 10
96.76032983692103
 20
-116.9978542459242
 11
97.19854598264482
 21
-116.9978542459242
 72
     1
 10
97.19854598264482
 20
-116.9978542459242
 11
97.19854598264482
 21
-116.6933078050281
 97
        0
 92
        1
 93
        4
 72
     1
 10
97.19854598264482
 20
-117.1649413769588
 11
96.76032983692103
 21
-117.1649413769588
 72
     1
 10
96.76032983692103
 20
-117.1649413769588
 11
96.76032983692103
 21
-117.4739664419857
 72
     1
 10
96.76032983692103
 20
-117.4739664419857
 11
97.19854598264482
 21
-117.4739664419857
 72
     1
 10
97.19854598264482
 20
-117.4739664419857
 11
97.19854598264482
 21
-117.1649413769588
 97
        0
 92
        1
 93
        4
 72
     1
 10
97.84760197206589
 20
-116.6933078050281
 11
97.3887152534306
 21
-116.6933078050281
 72
     1
 10
97.3887152534306
 20
-116.6933078050281
 11
97.3887152534306
 21
-116.9978542459242
 72
     1
 10
97.3887152534306
 20
-116.9978542459242
 11
97.84760197206589
 21
-116.9978542459242
 72
     1
 10
97.84760197206589
 20
-116.9978542459242
 11
97.84760197206589
 21
-116.6933078050281
 97
        0
 92
        1
 93
        4
 72
     1
 10
97.84760197206589
 20
-117.1649413769588
 11
97.3887152534306
 21
-117.1649413769588
 72
     1
 10
97.3887152534306
 20
-117.1649413769588
 11
97.3887152534306
 21
-117.4739664419857
 72
     1
 10
97.3887152534306
 20
-117.4739664419857
 11
97.84760197206589
 21
-117.4739664419857
 72
     1
 10
97.84760197206589
 20
-117.4739664419857
 11
97.84760197206589
 21
-117.1649413769588
 97
        0
 75
     2
 76
     1
 98
        0
  0
SPLINE
  5
7F
330
4E
100
AcDbEntity
  8
_U+30EC_U+30A4_U+30E4_U+30FC 1
370
     0
100
AcDbSpline
210
0.0
220
0.0
230
1.0
 70
    11
 71
     3
 72
    44
 73
    40
 74
     0
 42
0.0000000001
 43
0.0000000001
 12
1.0
 22
0.0
 32
0.0
 13
1.0
 23
0.0
 33
0.0
 40
0.0
 40
0.0
 40
0.0
 40
0.0
 40
1.0
 40
1.0
 40
1.0
 40
2.0
 40
2.0
 40
2.0
 40
3.0
 40
3.0
 40
3.0
 40
4.0
 40
4.0
 40
4.0
 40
5.0
 40
5.0
 40
5.0
 40
6.0
 40
6.0
 40
6.0
 40
7.0
 40
7.0
 40
7.0
 40
8.0
 40
8.0
 40
8.0
 40
9.0
 40
9.0
 40
9.0
 40
10.0
 40
10.0
 40
10.0
 40
11.0
 40
11.0
 40
11.0
 40
12.0
 40
12.0
 40
12.0
 40
13.0
 40
13.0
 40
13.0
 40
13.0
 10
99.86091577364589
 20
-117.0295491243885
 30
0.0
 10
99.74860566082674
 20
-117.3978298317617
 30
0.0
 10
99.69761824764504
 20
-117.5563042240831
 30
0.0
 10
99.50124780498581
 20
-117.8060736467638
 30
0.0
 10
99.31727970607346
 20
-118.036550534727
 30
0.0
 10
99.08025713668827
 20
-118.222930200479
 30
0.0
 10
98.80085989283451
 20
-118.3159477785807
 30
0.0
 10
98.80085989283451
 20
-118.3159477785807
 30
0.0
 10
98.60827905520905
 20
-118.1361137942507
 30
0.0
 10
98.60827905520905
 20
-118.1361137942507
 30
0.0
 10
99.24941132501404
 20
-117.9838405738027
 30
0.0
 10
99.57910696295245
 20
-117.4274576529348
 30
0.0
 10
99.64284122942958
 20
-116.9875189594684
 30
0.0
 10
99.64284122942958
 20
-116.9875189594684
 30
0.0
 10
98.87699650305854
 20
-116.9875189594684
 30
0.0
 10
98.87699650305854
 20
-116.9875189594684
 30
0.0
 10
98.78397892495678
 20
-116.9875189594684
 30
0.0
 10
98.60001082604444
 20
-116.9916530740507
 30
0.0
 10
98.44325898146558
 20
-117.0106010992196
 30
0.0
 10
98.44325898146558
 20
-117.0106010992196
 30
0.0
 10
98.44325898146558
 20
-116.7904594977121
 30
0.0
 10
98.44325898146558
 20
-116.7904594977121
 30
0.0
 10
98.53007538769387
 20
-116.8118190897207
 30
0.0
 10
98.78191186766564
 20
-116.8118190897207
 30
0.0
 10
98.88113061764084
 20
-116.8118190897207
 30
0.0
 10
98.88113061764084
 20
-116.8118190897207
 30
0.0
 10
99.31280108194264
 20
-116.8118190897207
 30
0.0
 10
99.31280108194264
 20
-116.8118190897207
 30
0.0
 10
99.35517575641121
 20
-116.8118190897207
 30
0.0
 10
99.59013126850525
 20
-116.8097520324295
 30
0.0
 10
99.628027318843
 20
-116.8032063510075
 30
0.0
 10
99.67040199331157
 20
-116.7970051791341
 30
0.0
 10
99.67246905060271
 20
-116.7949381218429
 30
0.0
 10
99.73379175024017
 20
-116.7546305046655
 30
0.0
 10
99.73379175024017
 20
-116.7546305046655
 30
0.0
 10
99.92223847328333
 20
-116.9089707824047
 30
0.0
 10
99.92223847328333
 20
-116.9089707824047
 30
0.0
 10
99.89261065211018
 20
-116.9385986035779
 30
0.0
 10
99.87745223197508
 20
-116.9702934820422
 30
0.0
 10
99.86091577364589
 20
-117.0295491243885
 30
0.0
  0
SPLINE
  5
80
330
4E
100
AcDbEntity
  8
_U+30EC_U+30A4_U+30E4_U+30FC 1
370
     0
100
AcDbSpline
210
0.0
220
0.0
230
1.0
 70
    11
 71
     3
 72
    17
 73
    13
 74
     0
 42
0.0000000001
 43
0.0000000001
 12
1.0
 22
0.0
 32
0.0
 13
1.0
 23
0.0
 33
0.0
 40
0.0
 40
0.0
 40
0.0
 40
0.0
 40
1.0
 40
1.0
 40
1.0
 40
2.0
 40
2.0
 40
2.0
 40
3.0
 40
3.0
 40
3.0
 40
4.0
 40
4.0
 40
4.0
 40
4.0
 10
100.0703775791491
 20
-116.8307671148895
 30
0.0
 10
99.94325355574335
 20
-116.8307671148895
 30
0.0
 10
99.84162323892849
 20
-116.7291367980747
 30
0.0
 10
99.84162323892849
 20
-116.6023572842175
 30
0.0
 10
99.84162323892849
 20
-116.4755777703603
 30
0.0
 10
99.94325355574335
 20
-116.3718803962543
 30
0.0
 10
100.0703775791491
 20
-116.3718803962543
 30
0.0
 10
100.1971570930063
 20
-116.3718803962543
 30
0.0
 10
100.3008544671123
 20
-116.4755777703603
 30
0.0
 10
100.3008544671123
 20
-116.6023572842175
 30
0.0
 10
100.3008544671123
 20
-116.7291367980747
 30
0.0
 10
100.1971570930063
 20
-116.8307671148895
 30
0.0
 10
100.0703775791491
 20
-116.8307671148895
 30
0.0
  0
SPLINE
  5
81
330
4E
100
AcDbEntity
  8
_U+30EC_U+30A4_U+30E4_U+30FC 1
370
     0
100
AcDbSpline
210
0.0
220
0.0
230
1.0
 70
    11
 71
     3
 72
    17
 73
    13
 74
     0
 42
0.0000000001
 43
0.0000000001
 12
1.0
 22
0.0
 32
0.0
 13
1.0
 23
0.0
 33
0.0
 40
0.0
 40
0.0
 40
0.0
 40
0.0
 40
1.0
 40
1.0
 40
1.0
 40
2.0
 40
2.0
 40
2.0
 40
3.0
 40
3.0
 40
3.0
 40
4.0
 40
4.0
 40
4.0
 40
4.0
 10
100.0679660123094
 20
-116.5007269674026
 30
0.0
 10
100.0131889940939
 20
-116.5007269674026
 30
0.0
 10
99.96840275278568
 20
-116.5451686991623
 30
0.0
 10
99.96840275278568
 20
-116.6002902269263
 30
0.0
 10
99.96840275278568
 20
-116.6574788119815
 30
0.0
 10
100.0131889940939
 20
-116.7060546583235
 30
0.0
 10
100.0724446364402
 20
-116.7060546583235
 30
0.0
 10
100.1317002787865
 20
-116.7060546583235
 30
0.0
 10
100.1716633864154
 20
-116.6550672451418
 30
0.0
 10
100.1716633864154
 20
-116.6023572842175
 30
0.0
 10
100.1716633864154
 20
-116.5451686991623
 30
0.0
 10
100.1251545973646
 20
-116.5007269674026
 30
0.0
 10
100.0679660123094
 20
-116.5007269674026
 30
0.0
  0
HATCH
  5
82
330
4E
100
AcDbEntity
  8
_U+30EC_U+30A4_U+30E4_U+30FC 1
 62
   179
420
  2234388
100
AcDbHatch
 10
0.0
 20
0.0
 30
0.0
210
0.0
220
0.0
230
1.0
  2
SOLID
 70
     1
 71
     0
 91
        3
 92
        1
 93
        1
 72
     4
 94
        3
 73
     0
 74
     1
 95
       44
 96
       40
 40
0.0
 40
0.0
 40
0.0
 40
0.0
 40
1.0
 40
1.0
 40
1.0
 40
2.0
 40
2.0
 40
2.0
 40
3.0
 40
3.0
 40
3.0
 40
4.0
 40
4.0
 40
4.0
 40
5.0
 40
5.0
 40
5.0
 40
6.0
 40
6.0
 40
6.0
 40
7.0
 40
7.0
 40
7.0
 40
8.0
 40
8.0
 40
8.0
 40
9.0
 40
9.0
 40
9.0
 40
10.0
 40
10.0
 40
10.0
 40
11.0
 40
11.0
 40
11.0
 40
12.0
 40
12.0
 40
12.0
 40
13.0
 40
13.0
 40
13.0
 40
13.0
 10
99.86091577364589
 20
-117.0295491243885
 10
99.74860566082674
 20
-117.3978298317617
 10
99.69761824764504
 20
-117.5563042240831
 10
99.50124780498581
 20
-117.8060736467638
 10
99.31727970607346
 20
-118.036550534727
 10
99.08025713668827
 20
-118.222930200479
 10
98.80085989283451
 20
-118.3159477785807
 10
98.80085989283451
 20
-118.3159477785807
 10
98.60827905520905
 20
-118.1361137942507
 10
98.60827905520905
 20
-118.1361137942507
 10
99.24941132501404
 20
-117.9838405738027
 10
99.57910696295245
 20
-117.4274576529348
 10
99.64284122942958
 20
-116.9875189594684
 10
99.64284122942958
 20
-116.9875189594684
 10
98.87699650305854
 20
-116.9875189594684
 10
98.87699650305854
 20
-116.9875189594684
 10
98.78397892495678
 20
-116.9875189594684
 10
98.60001082604444
 20
-116.9916530740507
 10
98.44325898146558
 20
-117.0106010992196
 10
98.44325898146558
 20
-117.0106010992196
 10
98.44325898146558
 20
-116.7904594977121
 10
98.44325898146558
 20
-116.7904594977121
 10
98.53007538769387
 20
-116.8118190897207
 10
98.78191186766564
 20
-116.8118190897207
 10
98.88113061764084
 20
-116.8118190897207
 10
98.88113061764084
 20
-116.8118190897207
 10
99.31280108194264
 20
-116.8118190897207
 10
99.31280108194264
 20
-116.8118190897207
 10
99.35517575641121
 20
-116.8118190897207
 10
99.59013126850525
 20
-116.8097520324295
 10
99.628027318843
 20
-116.8032063510075
 10
99.67040199331157
 20
-116.7970051791341
 10
99.67246905060271
 20
-116.7949381218429
 10
99.73379175024017
 20
-116.7546305046655
 10
99.73379175024017
 20
-116.7546305046655
 10
99.92223847328333
 20
-116.9089707824047
 10
99.92223847328333
 20
-116.9089707824047
 10
99.89261065211018
 20
-116.9385986035779
 10
99.87745223197508
 20
-116.9702934820422
 10
99.86091577364589
 20
-117.0295491243885
 97
        0
 97
        0
 92
        1
 93
        1
 72
     4
 94
        3
 73
     0
 74
     1
 95
       17
 96
       13
 40
0.0
 40
0.0
 40
0.0
 40
0.0
 40
1.0
 40
1.0
 40
1.0
 40
2.0
 40
2.0
 40
2.0
 40
3.0
 40
3.0
 40
3.0
 40
4.0
 40
4.0
 40
4.0
 40
4.0
 10
100.0703775791491
 20
-116.8307671148895
 10
99.94325355574335
 20
-116.8307671148895
 10
99.84162323892849
 20
-116.7291367980747
 10
99.84162323892849
 20
-116.6023572842175
 10
99.84162323892849
 20
-116.4755777703603
 10
99.94325355574335
 20
-116.3718803962543
 10
100.0703775791491
 20
-116.3718803962543
 10
100.1971570930063
 20
-116.3718803962543
 10
100.3008544671123
 20
-116.4755777703603
 10
100.3008544671123
 20
-116.6023572842175
 10
100.3008544671123
 20
-116.7291367980747
 10
100.1971570930063
 20
-116.8307671148895
 10
100.0703775791491
 20
-116.8307671148895
 97
        0
 97
        0
 92
        1
 93
        1
 72
     4
 94
        3
 73
     0
 74
     1
 95
       17
 96
       13
 40
0.0
 40
0.0
 40
0.0
 40
0.0
 40
1.0
 40
1.0
 40
1.0
 40
2.0
 40
2.0
 40
2.0
 40
3.0
 40
3.0
 40
3.0
 40
4.0
 40
4.0
 40
4.0
 40
4.0
 10
100.0679660123094
 20
-116.5007269674026
 10
100.0131889940939
 20
-116.5007269674026
 10
99.96840275278568
 20
-116.5451686991623
 10
99.96840275278568
 20
-116.6002902269263
 10
99.96840275278568
 20
-116.6574788119815
 10
100.0131889940939
 20
-116.7060546583235
 10
100.0724446364402
 20
-116.7060546583235
 10
100.1317002787865
 20
-116.7060546583235
 10
100.1716633864154
 20
-116.6550672451418
 10
100.1716633864154
 20
-116.6023572842175
 10
100.1716633864154
 20
-116.5451686991623
 10
100.1251545973646
 20
-116.5007269674026
 10
100.0679660123094
 20
-116.5007269674026
 97
        0
 97
        0
 75
     2
 76
     1
 98
        0
  0
SPLINE
  5
83
330
4E
100
AcDbEntity
  8
_U+30EC_U+30A4_U+30E4_U+30FC 1
370
     0
100
AcDbSpline
210
0.0
220
0.0
230
1.0
 70
    11
 71
     3
 72
    50
 73
    46
 74
     0
 42
0.0000000001
 43
0.0000000001
 12
1.0
 22
0.0
 32
0.0
 13
1.0
 23
0.0
 33
0.0
 40
0.0
 40
0.0
 40
0.0
 40
0.0
 40
1.0
 40
1.0
 40
1.0
 40
2.0
 40
2.0
 40
2.0
 40
3.0
 40
3.0
 40
3.0
 40
4.0
 40
4.0
 40
4.0
 40
5.0
 40
5.0
 40
5.0
 40
6.0
 40
6.0
 40
6.0
 40
7.0
 40
7.0
 40
7.0
 40
8.0
 40
8.0
 40
8.0
 40
9.0
 40
9.0
 40
9.0
 40
10.0
 40
10.0
 40
10.0
 40
11.0
 40
11.0
 40
11.0
 40
12.0
 40
12.0
 40
12.0
 40
13.0
 40
13.0
 40
13.0
 40
14.0
 40
14.0
 40
14.0
 40
15.0
 40
15.0
 40
15.0
 40
15.0
 10
101.8652723269642
 20
-117.3385741894154
 30
0.0
 10
101.7867241499006
 20
-117.5163411164543
 30
0.0
 10
101.6513318973302
 20
-117.7233913551178
 30
0.0
 10
101.5138725874688
 20
-117.8632622318189
 30
0.0
 10
101.344718399143
 20
-118.0344834774358
 30
0.0
 10
101.1817653826907
 20
-118.1233669409553
 30
0.0
 10
100.862405031208
 20
-118.264960365399
 30
0.0
 10
100.862405031208
 20
-118.264960365399
 30
0.0
 10
100.6932508428823
 20
-118.0768581519044
 30
0.0
 10
100.6932508428823
 20
-118.0768581519044
 30
0.0
 10
100.8792859990857
 20
-118.0534315026047
 30
0.0
 10
101.0505072447027
 20
-117.9669596059249
 30
0.0
 10
101.2031249746992
 20
-117.8611951745278
 30
0.0
 10
101.4652967411267
 20
-117.6792941329066
 30
0.0
 10
101.655810521461
 20
-117.3661349532974
 30
0.0
 10
101.7043863678031
 20
-117.1842339116762
 30
0.0
 10
101.7043863678031
 20
-117.1842339116762
 30
0.0
 10
101.0336262768249
 20
-117.1842339116762
 30
0.0
 10
101.0336262768249
 20
-117.1842339116762
 30
0.0
 10
100.8751518845034
 20
-117.1842339116762
 30
0.0
 10
100.5830077873542
 20
-117.1925021408408
 30
0.0
 10
100.4307345669062
 20
-117.2093831087185
 30
0.0
 10
100.4307345669062
 20
-117.2093831087185
 30
0.0
 10
100.4307345669062
 20
-116.9809732780464
 30
0.0
 10
100.4307345669062
 20
-116.9809732780464
 30
0.0
 10
100.4648410122102
 20
-116.9875189594684
 30
0.0
 10
100.4899902092525
 20
-116.9937201313419
 30
0.0
 10
100.5430446797254
 20
-116.9978542459242
 30
0.0
 10
100.6443304869917
 20
-117.0043999273461
 30
0.0
 10
100.841389948748
 20
-117.0064669846373
 30
0.0
 10
100.9257947881366
 20
-117.0064669846373
 30
0.0
 10
100.9257947881366
 20
-117.0064669846373
 30
0.0
 10
101.4315348053713
 20
-117.0064669846373
 30
0.0
 10
101.4315348053713
 20
-117.0064669846373
 30
0.0
 10
101.4990586768822
 20
-117.0064669846373
 30
0.0
 10
101.6451307254568
 20
-117.002332870055
 30
0.0
 10
101.7064534250942
 20
-116.995787188633
 30
0.0
 10
101.778455920736
 20
-116.9875189594684
 30
0.0
 10
101.8060166846179
 20
-116.9727050488818
 30
0.0
 10
101.8397786203734
 20
-116.9492783995821
 30
0.0
 10
101.8397786203734
 20
-116.9492783995821
 30
0.0
 10
102.0047986941169
 20
-117.1163655306167
 30
0.0
 10
102.0047986941169
 20
-117.1163655306167
 30
0.0
 10
101.9348632557663
 20
-117.1842339116762
 30
0.0
 10
101.8883544667154
 20
-117.2879312857822
 30
0.0
 10
101.8652723269642
 20
-117.3385741894154
 30
0.0
  0
SPLINE
  5
84
330
4E
100
AcDbEntity
  8
_U+30EC_U+30A4_U+30E4_U+30FC 1
370
     0
100
AcDbSpline
210
0.0
220
0.0
230
1.0
 70
    11
 71
     3
 72
    29
 73
    25
 74
     0
 42
0.0000000001
 43
0.0000000001
 12
1.0
 22
0.0
 32
0.0
 13
1.0
 23
0.0
 33
0.0
 40
0.0
 40
0.0
 40
0.0
 40
0.0
 40
1.0
 40
1.0
 40
1.0
 40
2.0
 40
2.0
 40
2.0
 40
3.0
 40
3.0
 40
3.0
 40
4.0
 40
4.0
 40
4.0
 40
5.0
 40
5.0
 40
5.0
 40
6.0
 40
6.0
 40
6.0
 40
7.0
 40
7.0
 40
7.0
 40
8.0
 40
8.0
 40
8.0
 40
8.0
 10
101.372279163025
 20
-116.7122558301969
 30
0.0
 10
101.372279163025
 20
-116.7122558301969
 30
0.0
 10
101.0315592195338
 20
-116.7122558301969
 30
0.0
 10
101.0315592195338
 20
-116.7122558301969
 30
0.0
 10
100.917526558972
 20
-116.7122558301969
 30
0.0
 10
100.8010823315706
 20
-116.7167344543278
 30
0.0
 10
100.6867051614603
 20
-116.7315483649143
 30
0.0
 10
100.6867051614603
 20
-116.7315483649143
 30
0.0
 10
100.6867051614603
 20
-116.5220865594112
 30
0.0
 10
100.6867051614603
 20
-116.5220865594112
 30
0.0
 10
100.8052164461529
 20
-116.5369004699977
 30
0.0
 10
100.9788492586095
 20
-116.54103458458
 30
0.0
 10
101.0315592195338
 20
-116.54103458458
 30
0.0
 10
101.0315592195338
 20
-116.54103458458
 30
0.0
 10
101.372279163025
 20
-116.54103458458
 30
0.0
 10
101.372279163025
 20
-116.54103458458
 30
0.0
 10
101.4887233904264
 20
-116.54103458458
 30
0.0
 10
101.6048231082793
 20
-116.5369004699977
 30
0.0
 10
101.7212673356808
 20
-116.5220865594112
 30
0.0
 10
101.7212673356808
 20
-116.5220865594112
 30
0.0
 10
101.7212673356808
 20
-116.7315483649143
 30
0.0
 10
101.7212673356808
 20
-116.7315483649143
 30
0.0
 10
101.5710611725239
 20
-116.7122558301969
 30
0.0
 10
101.3870930736116
 20
-116.7122558301969
 30
0.0
 10
101.372279163025
 20
-116.7122558301969
 30
0.0
  0
HATCH
  5
85
330
4E
100
AcDbEntity
  8
_U+30EC_U+30A4_U+30E4_U+30FC 1
 62
   179
420
  2234388
100
AcDbHatch
 10
0.0
 20
0.0
 30
0.0
210
0.0
220
0.0
230
1.0
  2
SOLID
 70
     1
 71
     0
 91
        2
 92
        1
 93
        1
 72
     4
 94
        3
 73
     0
 74
     1
 95
       50
 96
       46
 40
0.0
 40
0.0
 40
0.0
 40
0.0
 40
1.0
 40
1.0
 40
1.0
 40
2.0
 40
2.0
 40
2.0
 40
3.0
 40
3.0
 40
3.0
 40
4.0
 40
4.0
 40
4.0
 40
5.0
 40
5.0
 40
5.0
 40
6.0
 40
6.0
 40
6.0
 40
7.0
 40
7.0
 40
7.0
 40
8.0
 40
8.0
 40
8.0
 40
9.0
 40
9.0
 40
9.0
 40
10.0
 40
10.0
 40
10.0
 40
11.0
 40
11.0
 40
11.0
 40
12.0
 40
12.0
 40
12.0
 40
13.0
 40
13.0
 40
13.0
 40
14.0
 40
14.0
 40
14.0
 40
15.0
 40
15.0
 40
15.0
 40
15.0
 10
101.8652723269642
 20
-117.3385741894154
 10
101.7867241499006
 20
-117.5163411164543
 10
101.6513318973302
 20
-117.7233913551178
 10
101.5138725874688
 20
-117.8632622318189
 10
101.344718399143
 20
-118.0344834774358
 10
101.1817653826907
 20
-118.1233669409553
 10
100.862405031208
 20
-118.264960365399
 10
100.862405031208
 20
-118.264960365399
 10
100.6932508428823
 20
-118.0768581519044
 10
100.6932508428823
 20
-118.0768581519044
 10
100.8792859990857
 20
-118.0534315026047
 10
101.0505072447027
 20
-117.9669596059249
 10
101.2031249746992
 20
-117.8611951745278
 10
101.4652967411267
 20
-117.6792941329066
 10
101.655810521461
 20
-117.3661349532974
 10
101.7043863678031
 20
-117.1842339116762
 10
101.7043863678031
 20
-117.1842339116762
 10
101.0336262768249
 20
-117.1842339116762
 10
101.0336262768249
 20
-117.1842339116762
 10
100.8751518845034
 20
-117.1842339116762
 10
100.5830077873542
 20
-117.1925021408408
 10
100.4307345669062
 20
-117.2093831087185
 10
100.4307345669062
 20
-117.2093831087185
 10
100.4307345669062
 20
-116.9809732780464
 10
100.4307345669062
 20
-116.9809732780464
 10
100.4648410122102
 20
-116.9875189594684
 10
100.4899902092525
 20
-116.9937201313419
 10
100.5430446797254
 20
-116.9978542459242
 10
100.6443304869917
 20
-117.0043999273461
 10
100.841389948748
 20
-117.0064669846373
 10
100.9257947881366
 20
-117.0064669846373
 10
100.9257947881366
 20
-117.0064669846373
 10
101.4315348053713
 20
-117.0064669846373
 10
101.4315348053713
 20
-117.0064669846373
 10
101.4990586768822
 20
-117.0064669846373
 10
101.6451307254568
 20
-117.002332870055
 10
101.7064534250942
 20
-116.995787188633
 10
101.778455920736
 20
-116.9875189594684
 10
101.8060166846179
 20
-116.9727050488818
 10
101.8397786203734
 20
-116.9492783995821
 10
101.8397786203734
 20
-116.9492783995821
 10
102.0047986941169
 20
-117.1163655306167
 10
102.0047986941169
 20
-117.1163655306167
 10
101.9348632557663
 20
-117.1842339116762
 10
101.8883544667154
 20
-117.2879312857822
 10
101.8652723269642
 20
-117.3385741894154
 97
        0
 97
        0
 92
        1
 93
        1
 72
     4
 94
        3
 73
     0
 74
     1
 95
       29
 96
       25
 40
0.0
 40
0.0
 40
0.0
 40
0.0
 40
1.0
 40
1.0
 40
1.0
 40
2.0
 40
2.0
 40
2.0
 40
3.0
 40
3.0
 40
3.0
 40
4.0
 40
4.0
 40
4.0
 40
5.0
 40
5.0
 40
5.0
 40
6.0
 40
6.0
 40
6.0
 40
7.0
 40
7.0
 40
7.0
 40
8.0
 40
8.0
 40
8.0
 40
8.0
 10
101.372279163025
 20
-116.7122558301969
 10
101.372279163025
 20
-116.7122558301969
 10
101.0315592195338
 20
-116.7122558301969
 10
101.0315592195338
 20
-116.7122558301969
 10
100.917526558972
 20
-116.7122558301969
 10
100.8010823315706
 20
-116.7167344543278
 10
100.6867051614603
 20
-116.7315483649143
 10
100.6867051614603
 20
-116.7315483649143
 10
100.6867051614603
 20
-116.5220865594112
 10
100.6867051614603
 20
-116.5220865594112
 10
100.8052164461529
 20
-116.5369004699977
 10
100.9788492586095
 20
-116.54103458458
 10
101.0315592195338
 20
-116.54103458458
 10
101.0315592195338
 20
-116.54103458458
 10
101.372279163025
 20
-116.54103458458
 10
101.372279163025
 20
-116.54103458458
 10
101.4887233904264
 20
-116.54103458458
 10
101.6048231082793
 20
-116.5369004699977
 10
101.7212673356808
 20
-116.5220865594112
 10
101.7212673356808
 20
-116.5220865594112
 10
101.7212673356808
 20
-116.7315483649143
 10
101.7212673356808
 20
-116.7315483649143
 10
101.5710611725239
 20
-116.7122558301969
 10
101.3870930736116
 20
-116.7122558301969
 10
101.372279163025
 20
-116.7122558301969
 97
        0
 97
        0
 75
     2
 76
     1
 98
        0
  0
SPLINE
  5
86
330
4E
100
AcDbEntity
  8
_U+30EC_U+30A4_U+30E4_U+30FC 1
370
     0
100
AcDbSpline
210
0.0
220
0.0
230
1.0
 70
    11
 71
     3
 72
    50
 73
    46
 74
     0
 42
0.0000000001
 43
0.0000000001
 12
1.0
 22
0.0
 32
0.0
 13
1.0
 23
0.0
 33
0.0
 40
0.0
 40
0.0
 40
0.0
 40
0.0
 40
1.0
 40
1.0
 40
1.0
 40
2.0
 40
2.0
 40
2.0
 40
3.0
 40
3.0
 40
3.0
 40
4.0
 40
4.0
 40
4.0
 40
5.0
 40
5.0
 40
5.0
 40
6.0
 40
6.0
 40
6.0
 40
7.0
 40
7.0
 40
7.0
 40
8.0
 40
8.0
 40
8.0
 40
9.0
 40
9.0
 40
9.0
 40
10.0
 40
10.0
 40
10.0
 40
11.0
 40
11.0
 40
11.0
 40
12.0
 40
12.0
 40
12.0
 40
13.0
 40
13.0
 40
13.0
 40
14.0
 40
14.0
 40
14.0
 40
15.0
 40
15.0
 40
15.0
 40
15.0
 10
103.5754177258423
 20
-116.6974419196104
 30
0.0
 10
103.3659559203391
 20
-116.9110378396959
 30
0.0
 10
103.2942979342459
 20
-116.9830403353376
 30
0.0
 10
103.1523600002536
 20
-117.1015516200302
 30
0.0
 10
103.1523600002536
 20
-117.1015516200302
 30
0.0
 10
103.1523600002536
 20
-117.6686143369023
 30
0.0
 10
103.1523600002536
 20
-117.6686143369023
 30
0.0
 10
103.1523600002536
 20
-117.8188205000592
 30
0.0
 10
103.1589056816756
 20
-117.8377685252281
 30
0.0
 10
103.1630397962579
 20
-118.015535452267
 30
0.0
 10
103.165106853549
 20
-118.146793590255
 30
0.0
 10
103.1713080254225
 20
-118.195369436597
 30
0.0
 10
103.1778537068444
 20
-118.2546250789433
 30
0.0
 10
103.1778537068444
 20
-118.2546250789433
 30
0.0
 10
102.9515109334635
 20
-118.2546250789433
 30
0.0
 10
102.9515109334635
 20
-118.2546250789433
 30
0.0
 10
102.9556450480458
 20
-118.2101833471836
 30
0.0
 10
102.9597791626281
 20
-118.1636745581327
 30
0.0
 10
102.9597791626281
 20
-118.1550618194196
 30
0.0
 10
102.9597791626281
 20
-118.0747910946132
 30
0.0
 10
102.9642577867589
 20
-117.7233913551178
 30
0.0
 10
102.9642577867589
 20
-117.6517333690246
 30
0.0
 10
102.9642577867589
 20
-117.6517333690246
 30
0.0
 10
102.9642577867589
 20
-117.2455566113136
 30
0.0
 10
102.9642577867589
 20
-117.2455566113136
 30
0.0
 10
102.7823567451377
 20
-117.3702690678797
 30
0.0
 10
102.5877088502211
 20
-117.4801676138591
 30
0.0
 10
102.3844482165914
 20
-117.5669840200874
 30
0.0
 10
102.3844482165914
 20
-117.5669840200874
 30
0.0
 10
102.1815320925102
 20
-117.4040310036351
 30
0.0
 10
102.1815320925102
 20
-117.4040310036351
 30
0.0
 10
102.3041774917851
 20
-117.3682020105885
 30
0.0
 10
102.5601480863391
 20
-117.2941324576556
 30
0.0
 10
102.9050021444126
 20
-117.0381618631016
 30
0.0
 10
103.1206651217893
 20
-116.8793429612316
 30
0.0
 10
103.3132459594147
 20
-116.6912407477369
 30
0.0
 10
103.4655191798628
 20
-116.4710991462294
 30
0.0
 10
103.4655191798628
 20
-116.4710991462294
 30
0.0
 10
103.6581000174883
 20
-116.6151041375129
 30
0.0
 10
103.6581000174883
 20
-116.6151041375129
 30
0.0
 10
103.6708468707837
 20
-116.6257839335172
 30
0.0
 10
103.6791150999483
 20
-116.6402533345552
 30
0.0
 10
103.6791150999483
 20
-116.6530001878507
 30
0.0
 10
103.6791150999483
 20
-116.6933078050281
 30
0.0
 10
103.6412190496105
 20
-116.6933078050281
 30
0.0
 10
103.5754177258423
 20
-116.6974419196104
 30
0.0
  0
HATCH
  5
87
330
4E
100
AcDbEntity
  8
_U+30EC_U+30A4_U+30E4_U+30FC 1
 62
   179
420
  2234388
100
AcDbHatch
 10
0.0
 20
0.0
 30
0.0
210
0.0
220
0.0
230
1.0
  2
SOLID
 70
     1
 71
     0
 91
        1
 92
        1
 93
        1
 72
     4
 94
        3
 73
     0
 74
     1
 95
       50
 96
       46
 40
0.0
 40
0.0
 40
0.0
 40
0.0
 40
1.0
 40
1.0
 40
1.0
 40
2.0
 40
2.0
 40
2.0
 40
3.0
 40
3.0
 40
3.0
 40
4.0
 40
4.0
 40
4.0
 40
5.0
 40
5.0
 40
5.0
 40
6.0
 40
6.0
 40
6.0
 40
7.0
 40
7.0
 40
7.0
 40
8.0
 40
8.0
 40
8.0
 40
9.0
 40
9.0
 40
9.0
 40
10.0
 40
10.0
 40
10.0
 40
11.0
 40
11.0
 40
11.0
 40
12.0
 40
12.0
 40
12.0
 40
13.0
 40
13.0
 40
13.0
 40
14.0
 40
14.0
 40
14.0
 40
15.0
 40
15.0
 40
15.0
 40
15.0
 10
103.5754177258423
 20
-116.6974419196104
 10
103.3659559203391
 20
-116.9110378396959
 10
103.2942979342459
 20
-116.9830403353376
 10
103.1523600002536
 20
-117.1015516200302
 10
103.1523600002536
 20
-117.1015516200302
 10
103.1523600002536
 20
-117.6686143369023
 10
103.1523600002536
 20
-117.6686143369023
 10
103.1523600002536
 20
-117.8188205000592
 10
103.1589056816756
 20
-117.8377685252281
 10
103.1630397962579
 20
-118.015535452267
 10
103.165106853549
 20
-118.146793590255
 10
103.1713080254225
 20
-118.195369436597
 10
103.1778537068444
 20
-118.2546250789433
 10
103.1778537068444
 20
-118.2546250789433
 10
102.9515109334635
 20
-118.2546250789433
 10
102.9515109334635
 20
-118.2546250789433
 10
102.9556450480458
 20
-118.2101833471836
 10
102.9597791626281
 20
-118.1636745581327
 10
102.9597791626281
 20
-118.1550618194196
 10
102.9597791626281
 20
-118.0747910946132
 10
102.9642577867589
 20
-117.7233913551178
 10
102.9642577867589
 20
-117.6517333690246
 10
102.9642577867589
 20
-117.6517333690246
 10
102.9642577867589
 20
-117.2455566113136
 10
102.9642577867589
 20
-117.2455566113136
 10
102.7823567451377
 20
-117.3702690678797
 10
102.5877088502211
 20
-117.4801676138591
 10
102.3844482165914
 20
-117.5669840200874
 10
102.3844482165914
 20
-117.5669840200874
 10
102.1815320925102
 20
-117.4040310036351
 10
102.1815320925102
 20
-117.4040310036351
 10
102.3041774917851
 20
-117.3682020105885
 10
102.5601480863391
 20
-117.2941324576556
 10
102.9050021444126
 20
-117.0381618631016
 10
103.1206651217893
 20
-116.8793429612316
 10
103.3132459594147
 20
-116.6912407477369
 10
103.4655191798628
 20
-116.4710991462294
 10
103.4655191798628
 20
-116.4710991462294
 10
103.6581000174883
 20
-116.6151041375129
 10
103.6581000174883
 20
-116.6151041375129
 10
103.6708468707837
 20
-116.6257839335172
 10
103.6791150999483
 20
-116.6402533345552
 10
103.6791150999483
 20
-116.6530001878507
 10
103.6791150999483
 20
-116.6933078050281
 10
103.6412190496105
 20
-116.6933078050281
 10
103.5754177258423
 20
-116.6974419196104
 97
        0
 97
        0
 75
     2
 76
     1
 98
        0
  0
SPLINE
  5
88
330
4E
100
AcDbEntity
  8
_U+30EC_U+30A4_U+30E4_U+30FC 1
370
     0
100
AcDbSpline
210
0.0
220
0.0
230
1.0
 70
    11
 71
     3
 72
    50
 73
    46
 74
     0
 42
0.0000000001
 43
0.0000000001
 12
1.0
 22
0.0
 32
0.0
 13
1.0
 23
0.0
 33
0.0
 40
0.0
 40
0.0
 40
0.0
 40
0.0
 40
1.0
 40
1.0
 40
1.0
 40
2.0
 40
2.0
 40
2.0
 40
3.0
 40
3.0
 40
3.0
 40
4.0
 40
4.0
 40
4.0
 40
5.0
 40
5.0
 40
5.0
 40
6.0
 40
6.0
 40
6.0
 40
7.0
 40
7.0
 40
7.0
 40
8.0
 40
8.0
 40
8.0
 40
9.0
 40
9.0
 40
9.0
 40
10.0
 40
10.0
 40
10.0
 40
11.0
 40
11.0
 40
11.0
 40
12.0
 40
12.0
 40
12.0
 40
13.0
 40
13.0
 40
13.0
 40
14.0
 40
14.0
 40
14.0
 40
15.0
 40
15.0
 40
15.0
 40
15.0
 10
105.2838405769777
 20
-117.2241970193051
 30
0.0
 10
105.2225178773402
 20
-117.2961995149468
 30
0.0
 10
104.9620686586553
 20
-117.6134928091383
 30
0.0
 10
104.9052245831487
 20
-117.6768825660669
 30
0.0
 10
104.9896294225373
 20
-117.7743787682995
 30
0.0
 10
105.040616835719
 20
-117.8377685252281
 30
0.0
 10
105.1060736499388
 20
-117.9287190460387
 30
0.0
 10
105.1060736499388
 20
-117.9287190460387
 30
0.0
 10
104.9221055510264
 20
-118.0661783559001
 30
0.0
 10
104.9221055510264
 20
-118.0661783559001
 30
0.0
 10
104.7867132984561
 20
-117.8546494931058
 30
0.0
 10
104.6151475432907
 20
-117.630373777016
 30
0.0
 10
104.3212808983989
 20
-117.4315917675171
 30
0.0
 10
104.3212808983989
 20
-117.4315917675171
 30
0.0
 10
104.4694200042646
 20
-117.2772514897779
 30
0.0
 10
104.4694200042646
 20
-117.2772514897779
 30
0.0
 10
104.5793185502441
 20
-117.3575222145842
 30
0.0
 10
104.6830159243501
 20
-117.4464056781037
 30
0.0
 10
104.7801676170341
 20
-117.5414903134966
 30
0.0
 10
104.8480359980936
 20
-117.4653537032726
 30
0.0
 10
105.0509521221748
 20
-117.2221299620139
 30
0.0
 10
105.1842773174539
 20
-116.9937201313419
 30
0.0
 10
105.1842773174539
 20
-116.9937201313419
 30
0.0
 10
104.5114501691846
 20
-116.9937201313419
 30
0.0
 10
104.5114501691846
 20
-116.9937201313419
 30
0.0
 10
104.3867377126186
 20
-116.9937201313419
 30
0.0
 10
104.1349012326468
 20
-117.002332870055
 30
0.0
 10
103.9254394271436
 20
-117.0126681565107
 30
0.0
 10
103.9254394271436
 20
-117.0126681565107
 30
0.0
 10
103.9254394271436
 20
-116.7928710645518
 30
0.0
 10
103.9254394271436
 20
-116.7928710645518
 30
0.0
 10
104.1097520356045
 20
-116.8118190897207
 30
0.0
 10
104.3147352169769
 20
-116.815953204303
 30
0.0
 10
104.50318194002
 20
-116.815953204303
 30
0.0
 10
104.50318194002
 20
-116.815953204303
 30
0.0
 10
105.006510390415
 20
-116.815953204303
 30
0.0
 10
105.006510390415
 20
-116.815953204303
 30
0.0
 10
105.3451632766151
 20
-116.815953204303
 30
0.0
 10
105.3896050083748
 20
-116.8011392937164
 30
0.0
 10
105.4719427904723
 20
-116.760831676539
 30
0.0
 10
105.4719427904723
 20
-116.760831676539
 30
0.0
 10
105.6390299215069
 20
-116.919650578409
 30
0.0
 10
105.6390299215069
 20
-116.919650578409
 30
0.0
 10
105.4867567010589
 20
-116.9916530740507
 30
0.0
 10
105.343096219324
 20
-117.154606090503
 30
0.0
 10
105.2838405769777
 20
-117.2241970193051
 30
0.0
  0
HATCH
  5
89
330
4E
100
AcDbEntity
  8
_U+30EC_U+30A4_U+30E4_U+30FC 1
 62
   179
420
  2234388
100
AcDbHatch
 10
0.0
 20
0.0
 30
0.0
210
0.0
220
0.0
230
1.0
  2
SOLID
 70
     1
 71
     0
 91
        1
 92
        1
 93
        1
 72
     4
 94
        3
 73
     0
 74
     1
 95
       50
 96
       46
 40
0.0
 40
0.0
 40
0.0
 40
0.0
 40
1.0
 40
1.0
 40
1.0
 40
2.0
 40
2.0
 40
2.0
 40
3.0
 40
3.0
 40
3.0
 40
4.0
 40
4.0
 40
4.0
 40
5.0
 40
5.0
 40
5.0
 40
6.0
 40
6.0
 40
6.0
 40
7.0
 40
7.0
 40
7.0
 40
8.0
 40
8.0
 40
8.0
 40
9.0
 40
9.0
 40
9.0
 40
10.0
 40
10.0
 40
10.0
 40
11.0
 40
11.0
 40
11.0
 40
12.0
 40
12.0
 40
12.0
 40
13.0
 40
13.0
 40
13.0
 40
14.0
 40
14.0
 40
14.0
 40
15.0
 40
15.0
 40
15.0
 40
15.0
 10
105.2838405769777
 20
-117.2241970193051
 10
105.2225178773402
 20
-117.2961995149468
 10
104.9620686586553
 20
-117.6134928091383
 10
104.9052245831487
 20
-117.6768825660669
 10
104.9896294225373
 20
-117.7743787682995
 10
105.040616835719
 20
-117.8377685252281
 10
105.1060736499388
 20
-117.9287190460387
 10
105.1060736499388
 20
-117.9287190460387
 10
104.9221055510264
 20
-118.0661783559001
 10
104.9221055510264
 20
-118.0661783559001
 10
104.7867132984561
 20
-117.8546494931058
 10
104.6151475432907
 20
-117.630373777016
 10
104.3212808983989
 20
-117.4315917675171
 10
104.3212808983989
 20
-117.4315917675171
 10
104.4694200042646
 20
-117.2772514897779
 10
104.4694200042646
 20
-117.2772514897779
 10
104.5793185502441
 20
-117.3575222145842
 10
104.6830159243501
 20
-117.4464056781037
 10
104.7801676170341
 20
-117.5414903134966
 10
104.8480359980936
 20
-117.4653537032726
 10
105.0509521221748
 20
-117.2221299620139
 10
105.1842773174539
 20
-116.9937201313419
 10
105.1842773174539
 20
-116.9937201313419
 10
104.5114501691846
 20
-116.9937201313419
 10
104.5114501691846
 20
-116.9937201313419
 10
104.3867377126186
 20
-116.9937201313419
 10
104.1349012326468
 20
-117.002332870055
 10
103.9254394271436
 20
-117.0126681565107
 10
103.9254394271436
 20
-117.0126681565107
 10
103.9254394271436
 20
-116.7928710645518
 10
103.9254394271436
 20
-116.7928710645518
 10
104.1097520356045
 20
-116.8118190897207
 10
104.3147352169769
 20
-116.815953204303
 10
104.50318194002
 20
-116.815953204303
 10
104.50318194002
 20
-116.815953204303
 10
105.006510390415
 20
-116.815953204303
 10
105.006510390415
 20
-116.815953204303
 10
105.3451632766151
 20
-116.815953204303
 10
105.3896050083748
 20
-116.8011392937164
 10
105.4719427904723
 20
-116.760831676539
 10
105.4719427904723
 20
-116.760831676539
 10
105.6390299215069
 20
-116.919650578409
 10
105.6390299215069
 20
-116.919650578409
 10
105.4867567010589
 20
-116.9916530740507
 10
105.343096219324
 20
-117.154606090503
 10
105.2838405769777
 20
-117.2241970193051
 97
        0
 97
        0
 75
     2
 76
     1
 98
        0
  0
SPLINE
  5
8A
330
4E
100
AcDbEntity
  8
_U+30EC_U+30A4_U+30E4_U+30FC 1
370
     0
100
AcDbSpline
210
0.0
220
0.0
230
1.0
 70
    11
 71
     3
 72
    29
 73
    25
 74
     0
 42
0.0000000001
 43
0.0000000001
 12
1.0
 22
0.0
 32
0.0
 13
1.0
 23
0.0
 33
0.0
 40
0.0
 40
0.0
 40
0.0
 40
0.0
 40
1.0
 40
1.0
 40
1.0
 40
2.0
 40
2.0
 40
2.0
 40
3.0
 40
3.0
 40
3.0
 40
4.0
 40
4.0
 40
4.0
 40
5.0
 40
5.0
 40
5.0
 40
6.0
 40
6.0
 40
6.0
 40
7.0
 40
7.0
 40
7.0
 40
8.0
 40
8.0
 40
8.0
 40
8.0
 10
106.9071695696274
 20
-117.4674207605637
 30
0.0
 10
106.9071695696274
 20
-117.4674207605637
 30
0.0
 10
106.4227891444012
 20
-117.4674207605637
 30
0.0
 10
106.4227891444012
 20
-117.4674207605637
 30
0.0
 10
106.3952283805193
 20
-117.4674207605637
 30
0.0
 10
106.0779350863277
 20
-117.4674207605637
 30
0.0
 10
105.8664062235334
 20
-117.4929144671545
 30
0.0
 10
105.8664062235334
 20
-117.4929144671545
 30
0.0
 10
105.8664062235334
 20
-117.2624375791913
 30
0.0
 10
105.8664062235334
 20
-117.2624375791913
 30
0.0
 10
106.0248806158549
 20
-117.2855197189425
 30
0.0
 10
106.2153943961892
 20
-117.2879312857822
 30
0.0
 10
106.4227891444012
 20
-117.2879312857822
 30
0.0
 10
106.4227891444012
 20
-117.2879312857822
 30
0.0
 10
106.9071695696274
 20
-117.2879312857822
 30
0.0
 10
106.9071695696274
 20
-117.2879312857822
 30
0.0
 10
107.0932047258309
 20
-117.2879312857822
 30
0.0
 10
107.2795843915829
 20
-117.2855197189425
 30
0.0
 10
107.4635524904952
 20
-117.2624375791913
 30
0.0
 10
107.4635524904952
 20
-117.2624375791913
 30
0.0
 10
107.4635524904952
 20
-117.4929144671545
 30
0.0
 10
107.4635524904952
 20
-117.4929144671545
 30
0.0
 10
107.2795843915829
 20
-117.4698323274034
 30
0.0
 10
107.0318820261934
 20
-117.4674207605637
 30
0.0
 10
106.9071695696274
 20
-117.4674207605637
 30
0.0
  0
HATCH
  5
8B
330
4E
100
AcDbEntity
  8
_U+30EC_U+30A4_U+30E4_U+30FC 1
 62
   179
420
  2234388
100
AcDbHatch
 10
0.0
 20
0.0
 30
0.0
210
0.0
220
0.0
230
1.0
  2
SOLID
 70
     1
 71
     0
 91
        1
 92
        1
 93
        1
 72
     4
 94
        3
 73
     0
 74
     1
 95
       29
 96
       25
 40
0.0
 40
0.0
 40
0.0
 40
0.0
 40
1.0
 40
1.0
 40
1.0
 40
2.0
 40
2.0
 40
2.0
 40
3.0
 40
3.0
 40
3.0
 40
4.0
 40
4.0
 40
4.0
 40
5.0
 40
5.0
 40
5.0
 40
6.0
 40
6.0
 40
6.0
 40
7.0
 40
7.0
 40
7.0
 40
8.0
 40
8.0
 40
8.0
 40
8.0
 10
106.9071695696274
 20
-117.4674207605637
 10
106.9071695696274
 20
-117.4674207605637
 10
106.4227891444012
 20
-117.4674207605637
 10
106.4227891444012
 20
-117.4674207605637
 10
106.3952283805193
 20
-117.4674207605637
 10
106.0779350863277
 20
-117.4674207605637
 10
105.8664062235334
 20
-117.4929144671545
 10
105.8664062235334
 20
-117.4929144671545
 10
105.8664062235334
 20
-117.2624375791913
 10
105.8664062235334
 20
-117.2624375791913
 10
106.0248806158549
 20
-117.2855197189425
 10
106.2153943961892
 20
-117.2879312857822
 10
106.4227891444012
 20
-117.2879312857822
 10
106.4227891444012
 20
-117.2879312857822
 10
106.9071695696274
 20
-117.2879312857822
 10
106.9071695696274
 20
-117.2879312857822
 10
107.0932047258309
 20
-117.2879312857822
 10
107.2795843915829
 20
-117.2855197189425
 10
107.4635524904952
 20
-117.2624375791913
 10
107.4635524904952
 20
-117.2624375791913
 10
107.4635524904952
 20
-117.4929144671545
 10
107.4635524904952
 20
-117.4929144671545
 10
107.2795843915829
 20
-117.4698323274034
 10
107.0318820261934
 20
-117.4674207605637
 10
106.9071695696274
 20
-117.4674207605637
 97
        0
 97
        0
 75
     2
 76
     1
 98
        0
  0
ENDBLK
  5
51
330
4E
100
AcDbEntity
  8
0
100
AcDbBlockEnd
  0
BLOCK
  5
C7
330
C5
100
AcDbEntity
  8
0
100
AcDbBlockBegin
  2
block 3
 70
     0
 10
0.0
 20
0.0
 30
0.0
  3
block 3
  1

  0
SPLINE
  5
C9
330
C5
100
AcDbEntity
  8
_U+30EC_U+30A4_U+30E4_U+30FC 1
370
     0
100
AcDbSpline
210
0.0
220
0.0
230
1.0
 70
    11
 71
     3
 72
    26
 73
    22
 74
     0
 42
0.0000000001
 43
0.0000000001
 12
1.0
 22
0.0
 32
0.0
 13
1.0
 23
0.0
 33
0.0
 40
0.0
 40
0.0
 40
0.0
 40
0.0
 40
1.0
 40
1.0
 40
1.0
 40
2.0
 40
2.0
 40
2.0
 40
3.0
 40
3.0
 40
3.0
 40
4.0
 40
4.0
 40
4.0
 40
5.0
 40
5.0
 40
5.0
 40
6.0
 40
6.0
 40
6.0
 40
7.0
 40
7.0
 40
7.0
 40
7.0
 10
84.65581459472146
 20
-124.7978949340783
 30
0.0
 10
84.65581459472146
 20
-124.7978949340783
 30
0.0
 10
84.65581459472146
 20
-123.6935695762815
 30
0.0
 10
84.65581459472146
 20
-123.6935695762815
 30
0.0
 10
84.65581459472146
 20
-123.6935695762815
 30
0.0
 10
84.30303681703188
 20
-123.6935695762815
 30
0.0
 10
84.30303681703188
 20
-123.6935695762815
 30
0.0
 10
84.30303681703188
 20
-123.6935695762815
 30
0.0
 10
84.30303681703188
 20
-123.54560272519
 30
0.0
 10
84.30303681703188
 20
-123.54560272519
 30
0.0
 10
84.65805390678688
 20
-123.5307888146034
 30
0.0
 10
84.70783553654874
 20
-123.3678357981511
 30
0.0
 10
84.73935816023878
 20
-123.2536308828151
 30
0.0
 10
84.73935816023878
 20
-123.2536308828151
 30
0.0
 10
84.89542098572059
 20
-123.2536308828151
 30
0.0
 10
84.89542098572059
 20
-123.2536308828151
 30
0.0
 10
84.89542098572059
 20
-123.2536308828151
 30
0.0
 10
84.89542098572059
 20
-124.7978949340783
 30
0.0
 10
84.89542098572059
 20
-124.7978949340783
 30
0.0
 10
84.89542098572059
 20
-124.7978949340783
 30
0.0
 10
84.65581459472146
 20
-124.7978949340783
 30
0.0
 10
84.65581459472146
 20
-124.7978949340783
 30
0.0
  0
HATCH
  5
CA
330
C5
100
AcDbEntity
  8
_U+30EC_U+30A4_U+30E4_U+30FC 1
 62
     7
420
 16777215
100
AcDbHatch
 10
0.0
 20
0.0
 30
0.0
210
0.0
220
0.0
230
1.0
  2
SOLID
 70
     1
 71
     0
 91
        1
 92
        1
 93
        1
 72
     4
 94
        3
 73
     0
 74
     1
 95
       26
 96
       22
 40
0.0
 40
0.0
 40
0.0
 40
0.0
 40
1.0
 40
1.0
 40
1.0
 40
2.0
 40
2.0
 40
2.0
 40
3.0
 40
3.0
 40
3.0
 40
4.0
 40
4.0
 40
4.0
 40
5.0
 40
5.0
 40
5.0
 40
6.0
 40
6.0
 40
6.0
 40
7.0
 40
7.0
 40
7.0
 40
7.0
 10
84.65581459472146
 20
-124.7978949340783
 10
84.65581459472146
 20
-124.7978949340783
 10
84.65581459472146
 20
-123.6935695762815
 10
84.65581459472146
 20
-123.6935695762815
 10
84.65581459472146
 20
-123.6935695762815
 10
84.30303681703188
 20
-123.6935695762815
 10
84.30303681703188
 20
-123.6935695762815
 10
84.30303681703188
 20
-123.6935695762815
 10
84.30303681703188
 20
-123.54560272519
 10
84.30303681703188
 20
-123.54560272519
 10
84.65805390678688
 20
-123.5307888146034
 10
84.70783553654874
 20
-123.3678357981511
 10
84.73935816023878
 20
-123.2536308828151
 10
84.73935816023878
 20
-123.2536308828151
 10
84.89542098572059
 20
-123.2536308828151
 10
84.89542098572059
 20
-123.2536308828151
 10
84.89542098572059
 20
-123.2536308828151
 10
84.89542098572059
 20
-124.7978949340783
 10
84.89542098572059
 20
-124.7978949340783
 10
84.89542098572059
 20
-124.7978949340783
 10
84.65581459472146
 20
-124.7978949340783
 10
84.65581459472146
 20
-124.7978949340783
 97
        0
 97
        0
 75
     2
 76
     1
 98
        0
  0
ENDBLK
  5
C8
330
C5
100
AcDbEntity
  8
0
100
AcDbBlockEnd
  0
BLOCK
  5
D9
330
D7
100
AcDbEntity
  8
0
100
AcDbBlockBegin
  2
block 4
 70
     0
 10
0.0
 20
0.0
 30
0.0
  3
block 4
  1

  0
SPLINE
  5
DB
330
D7
100
AcDbEntity
  8
_U+30EC_U+30A4_U+30E4_U+30FC 1
370
     0
100
AcDbSpline
210
0.0
220
0.0
230
1.0
 70
    11
 71
     3
 72
    26
 73
    22
 74
     0
 42
0.0000000001
 43
0.0000000001
 12
1.0
 22
0.0
 32
0.0
 13
1.0
 23
0.0
 33
0.0
 40
0.0
 40
0.0
 40
0.0
 40
0.0
 40
1.0
 40
1.0
 40
1.0
 40
2.0
 40
2.0
 40
2.0
 40
3.0
 40
3.0
 40
3.0
 40
4.0
 40
4.0
 40
4.0
 40
5.0
 40
5.0
 40
5.0
 40
6.0
 40
6.0
 40
6.0
 40
7.0
 40
7.0
 40
7.0
 40
7.0
 10
86.98383786887905
 20
-138.9165852517292
 30
0.0
 10
86.98383786887905
 20
-138.9165852517292
 30
0.0
 10
86.98383786887905
 20
-137.8124321487066
 30
0.0
 10
86.98383786887905
 20
-137.8124321487066
 30
0.0
 10
86.98383786887905
 20
-137.8124321487066
 30
0.0
 10
86.63140460073798
 20
-137.8124321487066
 30
0.0
 10
86.63140460073798
 20
-137.8124321487066
 30
0.0
 10
86.63140460073798
 20
-137.8124321487066
 30
0.0
 10
86.63140460073798
 20
-137.6642930428409
 30
0.0
 10
86.63140460073798
 20
-137.6642930428409
 30
0.0
 10
86.98624943571872
 20
-137.6494791322543
 30
0.0
 10
87.03585881070632
 20
-137.486526115802
 30
0.0
 10
87.06755368917061
 20
-137.3721489456917
 30
0.0
 10
87.06755368917061
 20
-137.3721489456917
 30
0.0
 10
87.22361651465243
 20
-137.3721489456917
 30
0.0
 10
87.22361651465243
 20
-137.3721489456917
 30
0.0
 10
87.22361651465243
 20
-137.3721489456917
 30
0.0
 10
87.22361651465243
 20
-138.9165852517292
 30
0.0
 10
87.22361651465243
 20
-138.9165852517292
 30
0.0
 10
87.22361651465243
 20
-138.9165852517292
 30
0.0
 10
86.98383786887905
 20
-138.9165852517292
 30
0.0
 10
86.98383786887905
 20
-138.9165852517292
 30
0.0
  0
HATCH
  5
DC
330
D7
100
AcDbEntity
  8
_U+30EC_U+30A4_U+30E4_U+30FC 1
 62
     7
420
 16777215
100
AcDbHatch
 10
0.0
 20
0.0
 30
0.0
210
0.0
220
0.0
230
1.0
  2
SOLID
 70
     1
 71
     0
 91
        1
 92
        1
 93
        1
 72
     4
 94
        3
 73
     0
 74
     1
 95
       26
 96
       22
 40
0.0
 40
0.0
 40
0.0
 40
0.0
 40
1.0
 40
1.0
 40
1.0
 40
2.0
 40
2.0
 40
2.0
 40
3.0
 40
3.0
 40
3.0
 40
4.0
 40
4.0
 40
4.0
 40
5.0
 40
5.0
 40
5.0
 40
6.0
 40
6.0
 40
6.0
 40
7.0
 40
7.0
 40
7.0
 40
7.0
 10
86.98383786887905
 20
-138.9165852517292
 10
86.98383786887905
 20
-138.9165852517292
 10
86.98383786887905
 20
-137.8124321487066
 10
86.98383786887905
 20
-137.8124321487066
 10
86.98383786887905
 20
-137.8124321487066
 10
86.63140460073798
 20
-137.8124321487066
 10
86.63140460073798
 20
-137.8124321487066
 10
86.63140460073798
 20
-137.8124321487066
 10
86.63140460073798
 20
-137.6642930428409
 10
86.63140460073798
 20
-137.6642930428409
 10
86.98624943571872
 20
-137.6494791322543
 10
87.03585881070632
 20
-137.486526115802
 10
87.06755368917061
 20
-137.3721489456917
 10
87.06755368917061
 20
-137.3721489456917
 10
87.22361651465243
 20
-137.3721489456917
 10
87.22361651465243
 20
-137.3721489456917
 10
87.22361651465243
 20
-137.3721489456917
 10
87.22361651465243
 20
-138.9165852517292
 10
87.22361651465243
 20
-138.9165852517292
 10
87.22361651465243
 20
-138.9165852517292
 10
86.98383786887905
 20
-138.9165852517292
 10
86.98383786887905
 20
-138.9165852517292
 97
        0
 97
        0
 75
     2
 76
     1
 98
        0
  0
POLYLINE
  5
DD
330
D7
100
AcDbEntity
  8
_U+30EC_U+30A4_U+30E4_U+30FC 1
370
     0
100
AcDb2dPolyline
 66
     1
 10
0.0
 20
0.0
 30
0.0
  0
VERTEX
  5
DE
330
DD
100
AcDbEntity
  8
_U+30EC_U+30A4_U+30E4_U+30FC 1
370
     0
100
AcDbVertex
100
AcDb2dVertex
 10
88.64885251690029
 20
-138.5696641363645
 30
0.0
  0
VERTEX
  5
DF
330
DD
100
AcDbEntity
  8
_U+30EC_U+30A4_U+30E4_U+30FC 1
370
     0
100
AcDbVertex
100
AcDb2dVertex
 10
88.64885251690029
 20
-138.9165852517292
 30
0.0
  0
VERTEX
  5
E0
330
DD
100
AcDbEntity
  8
_U+30EC_U+30A4_U+30E4_U+30FC 1
370
     0
100
AcDbVertex
100
AcDb2dVertex
 10
88.4159640620974
 20
-138.9165852517292
 30
0.0
  0
VERTEX
  5
E1
330
DD
100
AcDbEntity
  8
_U+30EC_U+30A4_U+30E4_U+30FC 1
370
     0
100
AcDbVertex
100
AcDb2dVertex
 10
88.4159640620974
 20
-138.5696641363645
 30
0.0
  0
VERTEX
  5
E2
330
DD
100
AcDbEntity
  8
_U+30EC_U+30A4_U+30E4_U+30FC 1
370
     0
100
AcDbVertex
100
AcDb2dVertex
 10
87.71488713084906
 20
-138.5696641363645
 30
0.0
  0
VERTEX
  5
E3
330
DD
100
AcDbEntity
  8
_U+30EC_U+30A4_U+30E4_U+30FC 1
370
     0
100
AcDbVertex
100
AcDb2dVertex
 10
87.71488713084906
 20
-138.3453884202748
 30
0.0
  0
VERTEX
  5
E4
330
DD
100
AcDbEntity
  8
_U+30EC_U+30A4_U+30E4_U+30FC 1
370
     0
100
AcDbVertex
100
AcDb2dVertex
 10
88.4407687495912
 20
-137.3721489456917
 30
0.0
  0
VERTEX
  5
E5
330
DD
100
AcDbEntity
  8
_U+30EC_U+30A4_U+30E4_U+30FC 1
370
     0
100
AcDbVertex
100
AcDb2dVertex
 10
88.64885251690029
 20
-137.3721489456917
 30
0.0
  0
VERTEX
  5
E6
330
DD
100
AcDbEntity
  8
_U+30EC_U+30A4_U+30E4_U+30FC 1
370
     0
100
AcDbVertex
100
AcDb2dVertex
 10
88.64885251690029
 20
-138.3708821268656
 30
0.0
  0
VERTEX
  5
E7
330
DD
100
AcDbEntity
  8
_U+30EC_U+30A4_U+30E4_U+30FC 1
370
     0
100
AcDbVertex
100
AcDb2dVertex
 10
88.87037215660186
 20
-138.3708821268656
 30
0.0
  0
VERTEX
  5
E8
330
DD
100
AcDbEntity
  8
_U+30EC_U+30A4_U+30E4_U+30FC 1
370
     0
100
AcDbVertex
100
AcDb2dVertex
 10
88.87037215660186
 20
-138.5696641363645
 30
0.0
  0
VERTEX
  5
E9
330
DD
100
AcDbEntity
  8
_U+30EC_U+30A4_U+30E4_U+30FC 1
370
     0
100
AcDbVertex
100
AcDb2dVertex
 10
88.64885251690029
 20
-138.5696641363645
 30
0.0
  0
SEQEND
  5
EA
330
DD
100
AcDbEntity
  8
_U+30EC_U+30A4_U+30E4_U+30FC 1
370
     0
  0
POLYLINE
  5
EB
330
D7
100
AcDbEntity
  8
_U+30EC_U+30A4_U+30E4_U+30FC 1
370
     0
100
AcDb2dPolyline
 66
     1
 10
0.0
 20
0.0
 30
0.0
  0
VERTEX
  5
EC
330
EB
100
AcDbEntity
  8
_U+30EC_U+30A4_U+30E4_U+30FC 1
370
     0
100
AcDbVertex
100
AcDb2dVertex
 10
88.4159640620974
 20
-137.714935946474
 30
0.0
  0
VERTEX
  5
ED
330
EB
100
AcDbEntity
  8
_U+30EC_U+30A4_U+30E4_U+30FC 1
370
     0
100
AcDbVertex
100
AcDb2dVertex
 10
87.92744952228898
 20
-138.3708821268656
 30
0.0
  0
VERTEX
  5
EE
330
EB
100
AcDbEntity
  8
_U+30EC_U+30A4_U+30E4_U+30FC 1
370
     0
100
AcDbVertex
100
AcDb2dVertex
 10
88.4159640620974
 20
-138.3708821268656
 30
0.0
  0
VERTEX
  5
EF
330
EB
100
AcDbEntity
  8
_U+30EC_U+30A4_U+30E4_U+30FC 1
370
     0
100
AcDbVertex
100
AcDb2dVertex
 10
88.4159640620974
 20
-137.714935946474
 30
0.0
  0
SEQEND
  5
F0
330
EB
100
AcDbEntity
  8
_U+30EC_U+30A4_U+30E4_U+30FC 1
370
     0
  0
HATCH
  5
F1
330
D7
100
AcDbEntity
  8
_U+30EC_U+30A4_U+30E4_U+30FC 1
 62
     7
420
 16777215
100
AcDbHatch
 10
0.0
 20
0.0
 30
0.0
210
0.0
220
0.0
230
1.0
  2
SOLID
 70
     1
 71
     0
 91
        2
 92
        1
 93
       11
 72
     1
 10
88.64885251690029
 20
-138.5696641363645
 11
88.64885251690029
 21
-138.9165852517292
 72
     1
 10
88.64885251690029
 20
-138.9165852517292
 11
88.4159640620974
 21
-138.9165852517292
 72
     1
 10
88.4159640620974
 20
-138.9165852517292
 11
88.4159640620974
 21
-138.5696641363645
 72
     1
 10
88.4159640620974
 20
-138.5696641363645
 11
87.71488713084906
 21
-138.5696641363645
 72
     1
 10
87.71488713084906
 20
-138.5696641363645
 11
87.71488713084906
 21
-138.3453884202748
 72
     1
 10
87.71488713084906
 20
-138.3453884202748
 11
88.4407687495912
 21
-137.3721489456917
 72
     1
 10
88.4407687495912
 20
-137.3721489456917
 11
88.64885251690029
 21
-137.3721489456917
 72
     1
 10
88.64885251690029
 20
-137.3721489456917
 11
88.64885251690029
 21
-138.3708821268656
 72
     1
 10
88.64885251690029
 20
-138.3708821268656
 11
88.87037215660186
 21
-138.3708821268656
 72
     1
 10
88.87037215660186
 20
-138.3708821268656
 11
88.87037215660186
 21
-138.5696641363645
 72
     1
 10
88.87037215660186
 20
-138.5696641363645
 11
88.64885251690029
 21
-138.5696641363645
 97
        0
 92
        1
 93
        3
 72
     1
 10
88.4159640620974
 20
-137.714935946474
 11
87.92744952228898
 21
-138.3708821268656
 72
     1
 10
87.92744952228898
 20
-138.3708821268656
 11
88.4159640620974
 21
-138.3708821268656
 72
     1
 10
88.4159640620974
 20
-138.3708821268656
 11
88.4159640620974
 21
-137.714935946474
 97
        0
 75
     2
 76
     1
 98
        0
  0
ENDBLK
  5
DA
330
D7
100
AcDbEntity
  8
0
100
AcDbBlockEnd
  0
BLOCK
  5
102
330
100
100
AcDbEntity
  8
0
100
AcDbBlockBegin
  2
block 5
 70
     0
 10
0.0
 20
0.0
 30
0.0
  3
block 5
  1

  0
SPLINE
  5
104
330
100
100
AcDbEntity
  8
_U+30EC_U+30A4_U+30E4_U+30FC 1
370
     0
100
AcDbSpline
210
0.0
220
0.0
230
1.0
 70
    11
 71
     3
 72
    32
 73
    28
 74
     0
 42
0.0000000001
 43
0.0000000001
 12
1.0
 22
0.0
 32
0.0
 13
1.0
 23
0.0
 33
0.0
 40
0.0
 40
0.0
 40
0.0
 40
0.0
 40
1.0
 40
1.0
 40
1.0
 40
2.0
 40
2.0
 40
2.0
 40
3.0
 40
3.0
 40
3.0
 40
4.0
 40
4.0
 40
4.0
 40
5.0
 40
5.0
 40
5.0
 40
6.0
 40
6.0
 40
6.0
 40
7.0
 40
7.0
 40
7.0
 40
8.0
 40
8.0
 40
8.0
 40
9.0
 40
9.0
 40
9.0
 40
9.0
 10
84.76933049096044
 20
-118.4472059165688
 30
0.0
 10
84.21777070377195
 20
-118.4472059165688
 30
0.0
 10
84.2088134555103
 20
-117.8932345625406
 30
0.0
 10
84.2088134555103
 20
-117.6792941329066
 30
0.0
 10
84.2088134555103
 20
-117.4488172449434
 30
0.0
 10
84.22913951887327
 20
-116.8014838032649
 30
0.0
 10
84.81032712723493
 20
-116.8014838032649
 30
0.0
 10
84.99567326434136
 20
-116.8014838032649
 30
0.0
 10
85.25784503076888
 20
-116.8714192416155
 30
0.0
 10
85.29849715749482
 20
-117.2035264463936
 30
0.0
 10
85.29849715749482
 20
-117.2035264463936
 30
0.0
 10
85.07008732682276
 20
-117.2035264463936
 30
0.0
 10
85.07008732682276
 20
-117.2035264463936
 30
0.0
 10
85.05871851172144
 20
-117.1463378613384
 30
0.0
 10
85.02495657596599
 20
-116.9981987554727
 30
0.0
 10
84.80791556039524
 20
-116.9981987554727
 30
0.0
 10
84.49578990943161
 20
-116.9981987554727
 30
0.0
 10
84.45307072541452
 20
-117.3261718456685
 30
0.0
 10
84.43929034347352
 20
-117.5311550270408
 30
0.0
 10
84.53885360299724
 20
-117.4529513595257
 30
0.0
 10
84.61120060818749
 20
-117.3936957171794
 30
0.0
 10
84.8058485031041
 20
-117.3936957171794
 30
0.0
 10
84.99774032163252
 20
-117.3936957171794
 30
0.0
 10
85.32123478769748
 20
-117.5018717154162
 30
0.0
 10
85.32123478769748
 20
-117.9080484731272
 30
0.0
 10
85.32123478769748
 20
-118.2274088246098
 30
0.0
 10
85.10867239625756
 20
-118.4472059165688
 30
0.0
 10
84.76933049096044
 20
-118.4472059165688
 30
0.0
  0
SPLINE
  5
105
330
100
100
AcDbEntity
  8
_U+30EC_U+30A4_U+30E4_U+30FC 1
370
     0
100
AcDbSpline
210
0.0
220
0.0
230
1.0
 70
    11
 71
     3
 72
    17
 73
    13
 74
     0
 42
0.0000000001
 43
0.0000000001
 12
1.0
 22
0.0
 32
0.0
 13
1.0
 23
0.0
 33
0.0
 40
0.0
 40
0.0
 40
0.0
 40
0.0
 40
1.0
 40
1.0
 40
1.0
 40
2.0
 40
2.0
 40
2.0
 40
3.0
 40
3.0
 40
3.0
 40
4.0
 40
4.0
 40
4.0
 40
4.0
 10
84.78758949703227
 20
-117.588343612096
 30
0.0
 10
84.50715872453294
 20
-117.588343612096
 30
0.0
 10
84.46650659780698
 20
-117.7998724748903
 30
0.0
 10
84.46650659780698
 20
-117.9163167022918
 30
0.0
 10
84.46650659780698
 20
-118.0920165720395
 30
0.0
 10
84.56813691462186
 20
-118.2549695884918
 30
0.0
 10
84.76485186682963
 20
-118.2549695884918
 30
0.0
 10
84.89369843797797
 20
-118.2549695884918
 30
0.0
 10
85.08145614192408
 20
-118.1957139461455
 30
0.0
 10
85.08145614192408
 20
-117.9101155304183
 30
0.0
 10
85.08145614192408
 20
-117.6858398143285
 30
0.0
 10
84.93228350741276
 20
-117.588343612096
 30
0.0
 10
84.78758949703227
 20
-117.588343612096
 30
0.0
  0
HATCH
  5
106
330
100
100
AcDbEntity
  8
_U+30EC_U+30A4_U+30E4_U+30FC 1
 62
     7
420
 16777215
100
AcDbHatch
 10
0.0
 20
0.0
 30
0.0
210
0.0
220
0.0
230
1.0
  2
SOLID
 70
     1
 71
     0
 91
        2
 92
        1
 93
        1
 72
     4
 94
        3
 73
     0
 74
     1
 95
       32
 96
       28
 40
0.0
 40
0.0
 40
0.0
 40
0.0
 40
1.0
 40
1.0
 40
1.0
 40
2.0
 40
2.0
 40
2.0
 40
3.0
 40
3.0
 40
3.0
 40
4.0
 40
4.0
 40
4.0
 40
5.0
 40
5.0
 40
5.0
 40
6.0
 40
6.0
 40
6.0
 40
7.0
 40
7.0
 40
7.0
 40
8.0
 40
8.0
 40
8.0
 40
9.0
 40
9.0
 40
9.0
 40
9.0
 10
84.76933049096044
 20
-118.4472059165688
 10
84.21777070377195
 20
-118.4472059165688
 10
84.2088134555103
 20
-117.8932345625406
 10
84.2088134555103
 20
-117.6792941329066
 10
84.2088134555103
 20
-117.4488172449434
 10
84.22913951887327
 20
-116.8014838032649
 10
84.81032712723493
 20
-116.8014838032649
 10
84.99567326434136
 20
-116.8014838032649
 10
85.25784503076888
 20
-116.8714192416155
 10
85.29849715749482
 20
-117.2035264463936
 10
85.29849715749482
 20
-117.2035264463936
 10
85.07008732682276
 20
-117.2035264463936
 10
85.07008732682276
 20
-117.2035264463936
 10
85.05871851172144
 20
-117.1463378613384
 10
85.02495657596599
 20
-116.9981987554727
 10
84.80791556039524
 20
-116.9981987554727
 10
84.49578990943161
 20
-116.9981987554727
 10
84.45307072541452
 20
-117.3261718456685
 10
84.43929034347352
 20
-117.5311550270408
 10
84.53885360299724
 20
-117.4529513595257
 10
84.61120060818749
 20
-117.3936957171794
 10
84.8058485031041
 20
-117.3936957171794
 10
84.99774032163252
 20
-117.3936957171794
 10
85.32123478769748
 20
-117.5018717154162
 10
85.32123478769748
 20
-117.9080484731272
 10
85.32123478769748
 20
-118.2274088246098
 10
85.10867239625756
 20
-118.4472059165688
 10
84.76933049096044
 20
-118.4472059165688
 97
        0
 97
        0
 92
        1
 93
        1
 72
     4
 94
        3
 73
     0
 74
     1
 95
       17
 96
       13
 40
0.0
 40
0.0
 40
0.0
 40
0.0
 40
1.0
 40
1.0
 40
1.0
 40
2.0
 40
2.0
 40
2.0
 40
3.0
 40
3.0
 40
3.0
 40
4.0
 40
4.0
 40
4.0
 40
4.0
 10
84.78758949703227
 20
-117.588343612096
 10
84.50715872453294
 20
-117.588343612096
 10
84.46650659780698
 20
-117.7998724748903
 10
84.46650659780698
 20
-117.9163167022918
 10
84.46650659780698
 20
-118.0920165720395
 10
84.56813691462186
 20
-118.2549695884918
 10
84.76485186682963
 20
-118.2549695884918
 10
84.89369843797797
 20
-118.2549695884918
 10
85.08145614192408
 20
-118.1957139461455
 10
85.08145614192408
 20
-117.9101155304183
 10
85.08145614192408
 20
-117.6858398143285
 10
84.93228350741276
 20
-117.588343612096
 10
84.78758949703227
 20
-117.588343612096
 97
        0
 97
        0
 75
     2
 76
     1
 98
        0
  0
ENDBLK
  5
103
330
100
100
AcDbEntity
  8
0
100
AcDbBlockEnd
  0
BLOCK
  5
115
330
113
100
AcDbEntity
  8
0
100
AcDbBlockBegin
  2
block 6
 70
     0
 10
0.0
 20
0.0
 30
0.0
  3
block 6
  1

  0
SPLINE
  5
117
330
113
100
AcDbEntity
  8
_U+30EC_U+30A4_U+30E4_U+30FC 1
370
     0
100
AcDbSpline
210
0.0
220
0.0
230
1.0
 70
    11
 71
     3
 72
    26
 73
    22
 74
     0
 42
0.0000000001
 43
0.0000000001
 12
1.0
 22
0.0
 32
0.0
 13
1.0
 23
0.0
 33
0.0
 40
0.0
 40
0.0
 40
0.0
 40
0.0
 40
1.0
 40
1.0
 40
1.0
 40
2.0
 40
2.0
 40
2.0
 40
3.0
 40
3.0
 40
3.0
 40
4.0
 40
4.0
 40
4.0
 40
5.0
 40
5.0
 40
5.0
 40
6.0
 40
6.0
 40
6.0
 40
7.0
 40
7.0
 40
7.0
 40
7.0
 10
76.06874184296198
 20
-129.8659749024293
 30
0.0
 10
76.06874184296198
 20
-129.8659749024293
 30
0.0
 10
74.96441648516515
 20
-129.8659749024293
 30
0.0
 10
74.96441648516515
 20
-129.8659749024293
 30
0.0
 10
74.96441648516515
 20
-129.8659749024293
 30
0.0
 10
74.96441648516515
 20
-130.2187526801189
 30
0.0
 10
74.96441648516515
 20
-130.2187526801189
 30
0.0
 10
74.96441648516515
 20
-130.2187526801189
 30
0.0
 10
74.81627737929941
 20
-130.2187526801189
 30
0.0
 10
74.81627737929941
 20
-130.2187526801189
 30
0.0
 10
74.8016357234871
 20
-129.8635633355897
 30
0.0
 10
74.63868270703477
 20
-129.8139539606021
 30
0.0
 10
74.52447779169874
 20
-129.7822590821378
 30
0.0
 10
74.52447779169874
 20
-129.7822590821378
 30
0.0
 10
74.52447779169874
 20
-129.626196256656
 30
0.0
 10
74.52447779169874
 20
-129.626196256656
 30
0.0
 10
74.52447779169874
 20
-129.626196256656
 30
0.0
 10
76.06874184296198
 20
-129.626196256656
 30
0.0
 10
76.06874184296198
 20
-129.626196256656
 30
0.0
 10
76.06874184296198
 20
-129.626196256656
 30
0.0
 10
76.06874184296198
 20
-129.8659749024293
 30
0.0
 10
76.06874184296198
 20
-129.8659749024293
 30
0.0
  0
HATCH
  5
118
330
113
100
AcDbEntity
  8
_U+30EC_U+30A4_U+30E4_U+30FC 1
 62
     7
420
 16777215
100
AcDbHatch
 10
0.0
 20
0.0
 30
0.0
210
0.0
220
0.0
230
1.0
  2
SOLID
 70
     1
 71
     0
 91
        1
 92
        1
 93
        1
 72
     4
 94
        3
 73
     0
 74
     1
 95
       26
 96
       22
 40
0.0
 40
0.0
 40
0.0
 40
0.0
 40
1.0
 40
1.0
 40
1.0
 40
2.0
 40
2.0
 40
2.0
 40
3.0
 40
3.0
 40
3.0
 40
4.0
 40
4.0
 40
4.0
 40
5.0
 40
5.0
 40
5.0
 40
6.0
 40
6.0
 40
6.0
 40
7.0
 40
7.0
 40
7.0
 40
7.0
 10
76.06874184296198
 20
-129.8659749024293
 10
76.06874184296198
 20
-129.8659749024293
 10
74.96441648516515
 20
-129.8659749024293
 10
74.96441648516515
 20
-129.8659749024293
 10
74.96441648516515
 20
-129.8659749024293
 10
74.96441648516515
 20
-130.2187526801189
 10
74.96441648516515
 20
-130.2187526801189
 10
74.96441648516515
 20
-130.2187526801189
 10
74.81627737929941
 20
-130.2187526801189
 10
74.81627737929941
 20
-130.2187526801189
 10
74.8016357234871
 20
-129.8635633355897
 10
74.63868270703477
 20
-129.8139539606021
 10
74.52447779169874
 20
-129.7822590821378
 10
74.52447779169874
 20
-129.7822590821378
 10
74.52447779169874
 20
-129.626196256656
 10
74.52447779169874
 20
-129.626196256656
 10
74.52447779169874
 20
-129.626196256656
 10
76.06874184296198
 20
-129.626196256656
 10
76.06874184296198
 20
-129.626196256656
 10
76.06874184296198
 20
-129.626196256656
 10
76.06874184296198
 20
-129.8659749024293
 10
76.06874184296198
 20
-129.8659749024293
 97
        0
 97
        0
 75
     2
 76
     1
 98
        0
  0
POLYLINE
  5
119
330
113
100
AcDbEntity
  8
_U+30EC_U+30A4_U+30E4_U+30FC 1
370
     0
100
AcDb2dPolyline
 66
     1
 10
0.0
 20
0.0
 30
0.0
  0
VERTEX
  5
11A
330
119
100
AcDbEntity
  8
_U+30EC_U+30A4_U+30E4_U+30FC 1
370
     0
100
AcDbVertex
100
AcDb2dVertex
 10
75.72182072759733
 20
-128.2013047639566
 30
0.0
  0
VERTEX
  5
11B
330
119
100
AcDbEntity
  8
_U+30EC_U+30A4_U+30E4_U+30FC 1
370
     0
100
AcDbVertex
100
AcDb2dVertex
 10
76.06874184296198
 20
-128.2013047639566
 30
0.0
  0
VERTEX
  5
11C
330
119
100
AcDbEntity
  8
_U+30EC_U+30A4_U+30E4_U+30FC 1
370
     0
100
AcDbVertex
100
AcDb2dVertex
 10
76.06874184296198
 20
-128.4341932187595
 30
0.0
  0
VERTEX
  5
11D
330
119
100
AcDbEntity
  8
_U+30EC_U+30A4_U+30E4_U+30FC 1
370
     0
100
AcDbVertex
100
AcDb2dVertex
 10
75.72182072759733
 20
-128.4341932187595
 30
0.0
  0
VERTEX
  5
11E
330
119
100
AcDbEntity
  8
_U+30EC_U+30A4_U+30E4_U+30FC 1
370
     0
100
AcDbVertex
100
AcDb2dVertex
 10
75.72182072759733
 20
-129.1349256404593
 30
0.0
  0
VERTEX
  5
11F
330
119
100
AcDbEntity
  8
_U+30EC_U+30A4_U+30E4_U+30FC 1
370
     0
100
AcDbVertex
100
AcDb2dVertex
 10
75.49754501150755
 20
-129.1349256404593
 30
0.0
  0
VERTEX
  5
120
330
119
100
AcDbEntity
  8
_U+30EC_U+30A4_U+30E4_U+30FC 1
370
     0
100
AcDbVertex
100
AcDb2dVertex
 10
74.52447779169874
 20
-128.4092162764915
 30
0.0
  0
VERTEX
  5
121
330
119
100
AcDbEntity
  8
_U+30EC_U+30A4_U+30E4_U+30FC 1
370
     0
100
AcDbVertex
100
AcDb2dVertex
 10
74.52447779169874
 20
-128.2013047639566
 30
0.0
  0
VERTEX
  5
122
330
119
100
AcDbEntity
  8
_U+30EC_U+30A4_U+30E4_U+30FC 1
370
     0
100
AcDbVertex
100
AcDb2dVertex
 10
75.52286646332415
 20
-128.2013047639566
 30
0.0
  0
VERTEX
  5
123
330
119
100
AcDbEntity
  8
_U+30EC_U+30A4_U+30E4_U+30FC 1
370
     0
100
AcDbVertex
100
AcDb2dVertex
 10
75.52286646332415
 20
-127.9796128694808
 30
0.0
  0
VERTEX
  5
124
330
119
100
AcDbEntity
  8
_U+30EC_U+30A4_U+30E4_U+30FC 1
370
     0
100
AcDbVertex
100
AcDb2dVertex
 10
75.72182072759733
 20
-127.9796128694808
 30
0.0
  0
VERTEX
  5
125
330
119
100
AcDbEntity
  8
_U+30EC_U+30A4_U+30E4_U+30FC 1
370
     0
100
AcDbVertex
100
AcDb2dVertex
 10
75.72182072759733
 20
-128.2013047639566
 30
0.0
  0
SEQEND
  5
126
330
119
100
AcDbEntity
  8
_U+30EC_U+30A4_U+30E4_U+30FC 1
370
     0
  0
POLYLINE
  5
127
330
113
100
AcDbEntity
  8
_U+30EC_U+30A4_U+30E4_U+30FC 1
370
     0
100
AcDb2dPolyline
 66
     1
 10
0.0
 20
0.0
 30
0.0
  0
VERTEX
  5
128
330
127
100
AcDbEntity
  8
_U+30EC_U+30A4_U+30E4_U+30FC 1
370
     0
100
AcDbVertex
100
AcDb2dVertex
 10
74.86709253770684
 20
-128.4341932187595
 30
0.0
  0
VERTEX
  5
129
330
127
100
AcDbEntity
  8
_U+30EC_U+30A4_U+30E4_U+30FC 1
370
     0
100
AcDbVertex
100
AcDb2dVertex
 10
75.52286646332415
 20
-128.9223632490194
 30
0.0
  0
VERTEX
  5
12A
330
127
100
AcDbEntity
  8
_U+30EC_U+30A4_U+30E4_U+30FC 1
370
     0
100
AcDbVertex
100
AcDb2dVertex
 10
75.52286646332415
 20
-128.4341932187595
 30
0.0
  0
VERTEX
  5
12B
330
127
100
AcDbEntity
  8
_U+30EC_U+30A4_U+30E4_U+30FC 1
370
     0
100
AcDbVertex
100
AcDb2dVertex
 10
74.86709253770684
 20
-128.4341932187595
 30
0.0
  0
SEQEND
  5
12C
330
127
100
AcDbEntity
  8
_U+30EC_U+30A4_U+30E4_U+30FC 1
370
     0
  0
HATCH
  5
12D
330
113
100
AcDbEntity
  8
_U+30EC_U+30A4_U+30E4_U+30FC 1
 62
     7
420
 16777215
100
AcDbHatch
 10
0.0
 20
0.0
 30
0.0
210
0.0
220
0.0
230
1.0
  2
SOLID
 70
     1
 71
     0
 91
        2
 92
        1
 93
       11
 72
     1
 10
75.72182072759733
 20
-128.2013047639566
 11
76.06874184296198
 21
-128.2013047639566
 72
     1
 10
76.06874184296198
 20
-128.2013047639566
 11
76.06874184296198
 21
-128.4341932187595
 72
     1
 10
76.06874184296198
 20
-128.4341932187595
 11
75.72182072759733
 21
-128.4341932187595
 72
     1
 10
75.72182072759733
 20
-128.4341932187595
 11
75.72182072759733
 21
-129.1349256404593
 72
     1
 10
75.72182072759733
 20
-129.1349256404593
 11
75.49754501150755
 21
-129.1349256404593
 72
     1
 10
75.49754501150755
 20
-129.1349256404593
 11
74.52447779169874
 21
-128.4092162764915
 72
     1
 10
74.52447779169874
 20
-128.4092162764915
 11
74.52447779169874
 21
-128.2013047639566
 72
     1
 10
74.52447779169874
 20
-128.2013047639566
 11
75.52286646332415
 21
-128.2013047639566
 72
     1
 10
75.52286646332415
 20
-128.2013047639566
 11
75.52286646332415
 21
-127.9796128694808
 72
     1
 10
75.52286646332415
 20
-127.9796128694808
 11
75.72182072759733
 21
-127.9796128694808
 72
     1
 10
75.72182072759733
 20
-127.9796128694808
 11
75.72182072759733
 21
-128.2013047639566
 97
        0
 92
        1
 93
        3
 72
     1
 10
74.86709253770684
 20
-128.4341932187595
 11
75.52286646332415
 21
-128.9223632490194
 72
     1
 10
75.52286646332415
 20
-128.9223632490194
 11
75.52286646332415
 21
-128.4341932187595
 72
     1
 10
75.52286646332415
 20
-128.4341932187595
 11
74.86709253770684
 21
-128.4341932187595
 97
        0
 75
     2
 76
     1
 98
        0
  0
POLYLINE
  5
12E
330
113
100
AcDbEntity
  8
_U+30EC_U+30A4_U+30E4_U+30FC 1
370
     0
100
AcDb2dPolyline
 66
     1
 10
0.0
 20
0.0
 30
0.0
  0
VERTEX
  5
12F
330
12E
100
AcDbEntity
  8
_U+30EC_U+30A4_U+30E4_U+30FC 1
370
     0
100
AcDbVertex
100
AcDb2dVertex
 10
76.06874184296198
 20
-127.7686007710092
 30
0.0
  0
VERTEX
  5
130
330
12E
100
AcDbEntity
  8
_U+30EC_U+30A4_U+30E4_U+30FC 1
370
     0
100
AcDbVertex
100
AcDb2dVertex
 10
75.81707761776448
 20
-127.7686007710092
 30
0.0
  0
VERTEX
  5
131
330
12E
100
AcDbEntity
  8
_U+30EC_U+30A4_U+30E4_U+30FC 1
370
     0
100
AcDbVertex
100
AcDb2dVertex
 10
75.81707761776448
 20
-127.4995388136112
 30
0.0
  0
VERTEX
  5
132
330
12E
100
AcDbEntity
  8
_U+30EC_U+30A4_U+30E4_U+30FC 1
370
     0
100
AcDbVertex
100
AcDb2dVertex
 10
76.06874184296198
 20
-127.4995388136112
 30
0.0
  0
VERTEX
  5
133
330
12E
100
AcDbEntity
  8
_U+30EC_U+30A4_U+30E4_U+30FC 1
370
     0
100
AcDbVertex
100
AcDb2dVertex
 10
76.06874184296198
 20
-127.7686007710092
 30
0.0
  0
SEQEND
  5
134
330
12E
100
AcDbEntity
  8
_U+30EC_U+30A4_U+30E4_U+30FC 1
370
     0
  0
HATCH
  5
135
330
113
100
AcDbEntity
  8
_U+30EC_U+30A4_U+30E4_U+30FC 1
 62
     7
420
 16777215
100
AcDbHatch
 10
0.0
 20
0.0
 30
0.0
210
0.0
220
0.0
230
1.0
  2
SOLID
 70
     1
 71
     0
 91
        1
 92
        1
 93
        4
 72
     1
 10
76.06874184296198
 20
-127.7686007710092
 11
75.81707761776448
 21
-127.7686007710092
 72
     1
 10
75.81707761776448
 20
-127.7686007710092
 11
75.81707761776448
 21
-127.4995388136112
 72
     1
 10
75.81707761776448
 20
-127.4995388136112
 11
76.06874184296198
 21
-127.4995388136112
 72
     1
 10
76.06874184296198
 20
-127.4995388136112
 11
76.06874184296198
 21
-127.7686007710092
 97
        0
 75
     2
 76
     1
 98
        0
  0
SPLINE
  5
136
330
113
100
AcDbEntity
  8
_U+30EC_U+30A4_U+30E4_U+30FC 1
370
     0
100
AcDbSpline
210
0.0
220
0.0
230
1.0
 70
    11
 71
     3
 72
    53
 73
    49
 74
     0
 42
0.0000000001
 43
0.0000000001
 12
1.0
 22
0.0
 32
0.0
 13
1.0
 23
0.0
 33
0.0
 40
0.0
 40
0.0
 40
0.0
 40
0.0
 40
1.0
 40
1.0
 40
1.0
 40
2.0
 40
2.0
 40
2.0
 40
3.0
 40
3.0
 40
3.0
 40
4.0
 40
4.0
 40
4.0
 40
5.0
 40
5.0
 40
5.0
 40
6.0
 40
6.0
 40
6.0
 40
7.0
 40
7.0
 40
7.0
 40
8.0
 40
8.0
 40
8.0
 40
9.0
 40
9.0
 40
9.0
 40
10.0
 40
10.0
 40
10.0
 40
11.0
 40
11.0
 40
11.0
 40
12.0
 40
12.0
 40
12.0
 40
13.0
 40
13.0
 40
13.0
 40
14.0
 40
14.0
 40
14.0
 40
15.0
 40
15.0
 40
15.0
 40
16.0
 40
16.0
 40
16.0
 40
16.0
 10
76.11955700136942
 20
-126.7326605585946
 30
0.0
 10
76.11955700136942
 20
-126.8163763788862
 30
0.0
 10
76.10267603349169
 20
-126.9248968866716
 30
0.0
 10
76.03911402178883
 20
-127.0334173944569
 30
0.0
 10
75.9290432210351
 20
-127.2187635315634
 30
0.0
 10
75.79795733782134
 20
-127.241501161766
 30
0.0
 10
75.69012584913303
 20
-127.261827225129
 30
0.0
 10
75.69012584913303
 20
-127.261827225129
 30
0.0
 10
75.69012584913303
 20
-127.0244601461953
 30
0.0
 10
75.69012584913303
 20
-127.0244601461953
 30
0.0
 10
75.88890785863194
 20
-126.9655490133975
 30
0.0
 10
75.91853567980509
 20
-126.8299845060529
 30
0.0
 10
75.91853567980509
 20
-126.7304212465292
 30
0.0
 10
75.91853567980509
 20
-126.5812486120179
 30
0.0
 10
75.81914467505564
 20
-126.4184678503398
 30
0.0
 10
75.586428475027
 20
-126.4184678503398
 30
0.0
 10
75.33045788047295
 20
-126.4184678503398
 30
0.0
 10
75.26069469689664
 20
-126.6107041784168
 30
0.0
 10
75.26069469689664
 20
-126.7395507495651
 30
0.0
 10
75.26069469689664
 20
-126.7734849400948
 30
0.0
 10
75.26069469689664
 20
-126.9248968866716
 30
0.0
 10
75.38971352281924
 20
-127.0198092672902
 30
0.0
 10
75.38971352281924
 20
-127.0198092672902
 30
0.0
 10
75.37059324287611
 20
-127.2075669712363
 30
0.0
 10
75.37059324287611
 20
-127.2075669712363
 30
0.0
 10
75.37059324287611
 20
-127.2075669712363
 30
0.0
 10
74.52447779169874
 20
-127.0785481453137
 30
0.0
 10
74.52447779169874
 20
-127.0785481453137
 30
0.0
 10
74.52447779169874
 20
-127.0785481453137
 30
0.0
 10
74.52447779169874
 20
-126.2465575856259
 30
0.0
 10
74.52447779169874
 20
-126.2465575856259
 30
0.0
 10
74.52447779169874
 20
-126.2465575856259
 30
0.0
 10
74.71912568661536
 20
-126.2465575856259
 30
0.0
 10
74.71912568661536
 20
-126.2465575856259
 30
0.0
 10
74.71912568661536
 20
-126.2465575856259
 30
0.0
 10
74.71912568661536
 20
-126.9045708233086
 30
0.0
 10
74.71912568661536
 20
-126.9045708233086
 30
0.0
 10
74.71912568661536
 20
-126.9045708233086
 30
0.0
 10
75.14218341220405
 20
-126.9746785164334
 30
0.0
 10
75.14218341220405
 20
-126.9746785164334
 30
0.0
 10
75.10824922167433
 20
-126.9090494474394
 30
0.0
 10
75.06811385927116
 20
-126.820855003017
 30
0.0
 10
75.06811385927116
 20
-126.6942477439341
 30
0.0
 10
75.06811385927116
 20
-126.4229464744707
 30
0.0
 10
75.25432127024892
 20
-126.1697319563048
 30
0.0
 10
75.56730819508387
 20
-126.1697319563048
 30
0.0
 10
75.88477374404964
 20
-126.1697319563048
 30
0.0
 10
76.11955700136942
 20
-126.4095106020782
 30
0.0
 10
76.11955700136942
 20
-126.7326605585946
 30
0.0
  0
HATCH
  5
137
330
113
100
AcDbEntity
  8
_U+30EC_U+30A4_U+30E4_U+30FC 1
 62
     7
420
 16777215
100
AcDbHatch
 10
0.0
 20
0.0
 30
0.0
210
0.0
220
0.0
230
1.0
  2
SOLID
 70
     1
 71
     0
 91
        1
 92
        1
 93
        1
 72
     4
 94
        3
 73
     0
 74
     1
 95
       53
 96
       49
 40
0.0
 40
0.0
 40
0.0
 40
0.0
 40
1.0
 40
1.0
 40
1.0
 40
2.0
 40
2.0
 40
2.0
 40
3.0
 40
3.0
 40
3.0
 40
4.0
 40
4.0
 40
4.0
 40
5.0
 40
5.0
 40
5.0
 40
6.0
 40
6.0
 40
6.0
 40
7.0
 40
7.0
 40
7.0
 40
8.0
 40
8.0
 40
8.0
 40
9.0
 40
9.0
 40
9.0
 40
10.0
 40
10.0
 40
10.0
 40
11.0
 40
11.0
 40
11.0
 40
12.0
 40
12.0
 40
12.0
 40
13.0
 40
13.0
 40
13.0
 40
14.0
 40
14.0
 40
14.0
 40
15.0
 40
15.0
 40
15.0
 40
16.0
 40
16.0
 40
16.0
 40
16.0
 10
76.11955700136942
 20
-126.7326605585946
 10
76.11955700136942
 20
-126.8163763788862
 10
76.10267603349169
 20
-126.9248968866716
 10
76.03911402178883
 20
-127.0334173944569
 10
75.9290432210351
 20
-127.2187635315634
 10
75.79795733782134
 20
-127.241501161766
 10
75.69012584913303
 20
-127.261827225129
 10
75.69012584913303
 20
-127.261827225129
 10
75.69012584913303
 20
-127.0244601461953
 10
75.69012584913303
 20
-127.0244601461953
 10
75.88890785863194
 20
-126.9655490133975
 10
75.91853567980509
 20
-126.8299845060529
 10
75.91853567980509
 20
-126.7304212465292
 10
75.91853567980509
 20
-126.5812486120179
 10
75.81914467505564
 20
-126.4184678503398
 10
75.586428475027
 20
-126.4184678503398
 10
75.33045788047295
 20
-126.4184678503398
 10
75.26069469689664
 20
-126.6107041784168
 10
75.26069469689664
 20
-126.7395507495651
 10
75.26069469689664
 20
-126.7734849400948
 10
75.26069469689664
 20
-126.9248968866716
 10
75.38971352281924
 20
-127.0198092672902
 10
75.38971352281924
 20
-127.0198092672902
 10
75.37059324287611
 20
-127.2075669712363
 10
75.37059324287611
 20
-127.2075669712363
 10
75.37059324287611
 20
-127.2075669712363
 10
74.52447779169874
 20
-127.0785481453137
 10
74.52447779169874
 20
-127.0785481453137
 10
74.52447779169874
 20
-127.0785481453137
 10
74.52447779169874
 20
-126.2465575856259
 10
74.52447779169874
 20
-126.2465575856259
 10
74.52447779169874
 20
-126.2465575856259
 10
74.71912568661536
 20
-126.2465575856259
 10
74.71912568661536
 20
-126.2465575856259
 10
74.71912568661536
 20
-126.2465575856259
 10
74.71912568661536
 20
-126.9045708233086
 10
74.71912568661536
 20
-126.9045708233086
 10
74.71912568661536
 20
-126.9045708233086
 10
75.14218341220405
 20
-126.9746785164334
 10
75.14218341220405
 20
-126.9746785164334
 10
75.10824922167433
 20
-126.9090494474394
 10
75.06811385927116
 20
-126.820855003017
 10
75.06811385927116
 20
-126.6942477439341
 10
75.06811385927116
 20
-126.4229464744707
 10
75.25432127024892
 20
-126.1697319563048
 10
75.56730819508387
 20
-126.1697319563048
 10
75.88477374404964
 20
-126.1697319563048
 10
76.11955700136942
 20
-126.4095106020782
 10
76.11955700136942
 20
-126.7326605585946
 97
        0
 97
        0
 75
     2
 76
     1
 98
        0
  0
ENDBLK
  5
116
330
113
100
AcDbEntity
  8
0
100
AcDbBlockEnd
  0
BLOCK
  5
14B
330
149
100
AcDbEntity
  8
0
100
AcDbBlockBegin
  2
block 7
 70
     0
 10
0.0
 20
0.0
 30
0.0
  3
block 7
  1

  0
SPLINE
  5
14D
330
149
100
AcDbEntity
  8
_U+30EC_U+30A4_U+30E4_U+30FC 1
370
     0
100
AcDbSpline
210
0.0
220
0.0
230
1.0
 70
    11
 71
     3
 72
    32
 73
    28
 74
     0
 42
0.0000000001
 43
0.0000000001
 12
1.0
 22
0.0
 32
0.0
 13
1.0
 23
0.0
 33
0.0
 40
0.0
 40
0.0
 40
0.0
 40
0.0
 40
1.0
 40
1.0
 40
1.0
 40
2.0
 40
2.0
 40
2.0
 40
3.0
 40
3.0
 40
3.0
 40
4.0
 40
4.0
 40
4.0
 40
5.0
 40
5.0
 40
5.0
 40
6.0
 40
6.0
 40
6.0
 40
7.0
 40
7.0
 40
7.0
 40
8.0
 40
8.0
 40
8.0
 40
9.0
 40
9.0
 40
9.0
 40
9.0
 10
96.5322645157975
 20
-132.0329399626515
 30
0.0
 10
96.5322645157975
 20
-132.5848442593885
 30
0.0
 10
95.97829316176932
 20
-132.5938015076502
 30
0.0
 10
95.76400822258678
 20
-132.5938015076502
 30
0.0
 10
95.53387584417209
 20
-132.5938015076502
 30
0.0
 10
94.88619789294512
 20
-132.5734754442872
 30
0.0
 10
94.88619789294512
 20
-131.9922878359255
 30
0.0
 10
94.88619789294512
 20
-131.8069416988191
 30
0.0
 10
94.95647784084422
 20
-131.5447699323916
 30
0.0
 10
95.2885850456223
 20
-131.5041178056656
 30
0.0
 10
95.2885850456223
 20
-131.5041178056656
 30
0.0
 10
95.2885850456223
 20
-131.7325276363377
 30
0.0
 10
95.2885850456223
 20
-131.7325276363377
 30
0.0
 10
95.23139646056715
 20
-131.7435519418905
 30
0.0
 10
95.08325735470142
 20
-131.7776583871945
 30
0.0
 10
95.08325735470142
 20
-131.9946994027652
 30
0.0
 10
95.08325735470142
 20
-132.3068250537289
 30
0.0
 10
95.4112304448972
 20
-132.349544237746
 30
0.0
 10
95.61586911672104
 20
-132.3633246196869
 30
0.0
 10
95.53800995875439
 20
-132.2637613601632
 30
0.0
 10
95.4787543164081
 20
-132.191414354973
 30
0.0
 10
95.4787543164081
 20
-131.9971109696049
 30
0.0
 10
95.4787543164081
 20
-131.804874641528
 30
0.0
 10
95.58693031464495
 20
-131.481380175463
 30
0.0
 10
95.99276256280737
 20
-131.481380175463
 30
0.0
 10
96.31246742383856
 20
-131.481380175463
 30
0.0
 10
96.5322645157975
 20
-131.6939425669029
 30
0.0
 10
96.5322645157975
 20
-132.0329399626515
 30
0.0
  0
SPLINE
  5
14E
330
149
100
AcDbEntity
  8
_U+30EC_U+30A4_U+30E4_U+30FC 1
370
     0
100
AcDbSpline
210
0.0
220
0.0
230
1.0
 70
    11
 71
     3
 72
    17
 73
    13
 74
     0
 42
0.0000000001
 43
0.0000000001
 12
1.0
 22
0.0
 32
0.0
 13
1.0
 23
0.0
 33
0.0
 40
0.0
 40
0.0
 40
0.0
 40
0.0
 40
1.0
 40
1.0
 40
1.0
 40
2.0
 40
2.0
 40
2.0
 40
3.0
 40
3.0
 40
3.0
 40
4.0
 40
4.0
 40
4.0
 40
4.0
 10
95.67305770177619
 20
-132.0150254661282
 30
0.0
 10
95.67305770177619
 20
-132.2954562386275
 30
0.0
 10
95.88458656457053
 20
-132.3361083653535
 30
0.0
 10
96.00103079197197
 20
-132.3361083653535
 30
0.0
 10
96.17673066171972
 20
-132.3361083653535
 30
0.0
 10
96.34002818772055
 20
-132.2344780485386
 30
0.0
 10
96.34002818772055
 20
-132.0377630963308
 30
0.0
 10
96.34002818772055
 20
-131.9089165251825
 30
0.0
 10
96.28077254537426
 20
-131.7211588212364
 30
0.0
 10
95.99482962009851
 20
-131.7211588212364
 30
0.0
 10
95.77089841355728
 20
-131.7211588212364
 30
0.0
 10
95.67305770177619
 20
-131.8703314557477
 30
0.0
 10
95.67305770177619
 20
-132.0150254661282
 30
0.0
  0
HATCH
  5
14F
330
149
100
AcDbEntity
  8
_U+30EC_U+30A4_U+30E4_U+30FC 1
 62
     7
420
 16777215
100
AcDbHatch
 10
0.0
 20
0.0
 30
0.0
210
0.0
220
0.0
230
1.0
  2
SOLID
 70
     1
 71
     0
 91
        2
 92
        1
 93
        1
 72
     4
 94
        3
 73
     0
 74
     1
 95
       32
 96
       28
 40
0.0
 40
0.0
 40
0.0
 40
0.0
 40
1.0
 40
1.0
 40
1.0
 40
2.0
 40
2.0
 40
2.0
 40
3.0
 40
3.0
 40
3.0
 40
4.0
 40
4.0
 40
4.0
 40
5.0
 40
5.0
 40
5.0
 40
6.0
 40
6.0
 40
6.0
 40
7.0
 40
7.0
 40
7.0
 40
8.0
 40
8.0
 40
8.0
 40
9.0
 40
9.0
 40
9.0
 40
9.0
 10
96.5322645157975
 20
-132.0329399626515
 10
96.5322645157975
 20
-132.5848442593885
 10
95.97829316176932
 20
-132.5938015076502
 10
95.76400822258678
 20
-132.5938015076502
 10
95.53387584417209
 20
-132.5938015076502
 10
94.88619789294512
 20
-132.5734754442872
 10
94.88619789294512
 20
-131.9922878359255
 10
94.88619789294512
 20
-131.8069416988191
 10
94.95647784084422
 20
-131.5447699323916
 10
95.2885850456223
 20
-131.5041178056656
 10
95.2885850456223
 20
-131.5041178056656
 10
95.2885850456223
 20
-131.7325276363377
 10
95.2885850456223
 20
-131.7325276363377
 10
95.23139646056715
 20
-131.7435519418905
 10
95.08325735470142
 20
-131.7776583871945
 10
95.08325735470142
 20
-131.9946994027652
 10
95.08325735470142
 20
-132.3068250537289
 10
95.4112304448972
 20
-132.349544237746
 10
95.61586911672104
 20
-132.3633246196869
 10
95.53800995875439
 20
-132.2637613601632
 10
95.4787543164081
 20
-132.191414354973
 10
95.4787543164081
 20
-131.9971109696049
 10
95.4787543164081
 20
-131.804874641528
 10
95.58693031464495
 20
-131.481380175463
 10
95.99276256280737
 20
-131.481380175463
 10
96.31246742383856
 20
-131.481380175463
 10
96.5322645157975
 20
-131.6939425669029
 10
96.5322645157975
 20
-132.0329399626515
 97
        0
 97
        0
 92
        1
 93
        1
 72
     4
 94
        3
 73
     0
 74
     1
 95
       17
 96
       13
 40
0.0
 40
0.0
 40
0.0
 40
0.0
 40
1.0
 40
1.0
 40
1.0
 40
2.0
 40
2.0
 40
2.0
 40
3.0
 40
3.0
 40
3.0
 40
4.0
 40
4.0
 40
4.0
 40
4.0
 10
95.67305770177619
 20
-132.0150254661282
 10
95.67305770177619
 20
-132.2954562386275
 10
95.88458656457053
 20
-132.3361083653535
 10
96.00103079197197
 20
-132.3361083653535
 10
96.17673066171972
 20
-132.3361083653535
 10
96.34002818772055
 20
-132.2344780485386
 10
96.34002818772055
 20
-132.0377630963308
 10
96.34002818772055
 20
-131.9089165251825
 10
96.28077254537426
 20
-131.7211588212364
 10
95.99482962009851
 20
-131.7211588212364
 10
95.77089841355728
 20
-131.7211588212364
 10
95.67305770177619
 20
-131.8703314557477
 10
95.67305770177619
 20
-132.0150254661282
 97
        0
 97
        0
 75
     2
 76
     1
 98
        0
  0
POLYLINE
  5
150
330
149
100
AcDbEntity
  8
_U+30EC_U+30A4_U+30E4_U+30FC 1
370
     0
100
AcDb2dPolyline
 66
     1
 10
0.0
 20
0.0
 30
0.0
  0
VERTEX
  5
151
330
150
100
AcDbEntity
  8
_U+30EC_U+30A4_U+30E4_U+30FC 1
370
     0
100
AcDbVertex
100
AcDb2dVertex
 10
96.48127710261579
 20
-131.2502142684027
 30
0.0
  0
VERTEX
  5
152
330
150
100
AcDbEntity
  8
_U+30EC_U+30A4_U+30E4_U+30FC 1
370
     0
100
AcDbVertex
100
AcDb2dVertex
 10
96.22978513219256
 20
-131.2502142684027
 30
0.0
  0
VERTEX
  5
153
330
150
100
AcDbEntity
  8
_U+30EC_U+30A4_U+30E4_U+30FC 1
370
     0
100
AcDbVertex
100
AcDb2dVertex
 10
96.22978513219256
 20
-130.9811523110047
 30
0.0
  0
VERTEX
  5
154
330
150
100
AcDbEntity
  8
_U+30EC_U+30A4_U+30E4_U+30FC 1
370
     0
100
AcDbVertex
100
AcDb2dVertex
 10
96.48127710261579
 20
-130.9811523110047
 30
0.0
  0
VERTEX
  5
155
330
150
100
AcDbEntity
  8
_U+30EC_U+30A4_U+30E4_U+30FC 1
370
     0
100
AcDbVertex
100
AcDb2dVertex
 10
96.48127710261579
 20
-131.2502142684027
 30
0.0
  0
SEQEND
  5
156
330
150
100
AcDbEntity
  8
_U+30EC_U+30A4_U+30E4_U+30FC 1
370
     0
  0
HATCH
  5
157
330
149
100
AcDbEntity
  8
_U+30EC_U+30A4_U+30E4_U+30FC 1
 62
     7
420
 16777215
100
AcDbHatch
 10
0.0
 20
0.0
 30
0.0
210
0.0
220
0.0
230
1.0
  2
SOLID
 70
     1
 71
     0
 91
        1
 92
        1
 93
        4
 72
     1
 10
96.48127710261579
 20
-131.2502142684027
 11
96.22978513219256
 21
-131.2502142684027
 72
     1
 10
96.22978513219256
 20
-131.2502142684027
 11
96.22978513219256
 21
-130.9811523110047
 72
     1
 10
96.22978513219256
 20
-130.9811523110047
 11
96.48127710261579
 21
-130.9811523110047
 72
     1
 10
96.48127710261579
 20
-130.9811523110047
 11
96.48127710261579
 21
-131.2502142684027
 97
        0
 75
     2
 76
     1
 98
        0
  0
SPLINE
  5
158
330
149
100
AcDbEntity
  8
_U+30EC_U+30A4_U+30E4_U+30FC 1
370
     0
100
AcDbSpline
210
0.0
220
0.0
230
1.0
 70
    11
 71
     3
 72
    53
 73
    49
 74
     0
 42
0.0000000001
 43
0.0000000001
 12
1.0
 22
0.0
 32
0.0
 13
1.0
 23
0.0
 33
0.0
 40
0.0
 40
0.0
 40
0.0
 40
0.0
 40
1.0
 40
1.0
 40
1.0
 40
2.0
 40
2.0
 40
2.0
 40
3.0
 40
3.0
 40
3.0
 40
4.0
 40
4.0
 40
4.0
 40
5.0
 40
5.0
 40
5.0
 40
6.0
 40
6.0
 40
6.0
 40
7.0
 40
7.0
 40
7.0
 40
8.0
 40
8.0
 40
8.0
 40
9.0
 40
9.0
 40
9.0
 40
10.0
 40
10.0
 40
10.0
 40
11.0
 40
11.0
 40
11.0
 40
12.0
 40
12.0
 40
12.0
 40
13.0
 40
13.0
 40
13.0
 40
14.0
 40
14.0
 40
14.0
 40
15.0
 40
15.0
 40
15.0
 40
16.0
 40
16.0
 40
16.0
 40
16.0
 10
96.5322645157975
 20
-130.2142740559881
 30
0.0
 10
96.5322645157975
 20
-130.2979898762797
 30
0.0
 10
96.51503903837124
 20
-130.4061658745165
 30
0.0
 10
96.45164928144264
 20
-130.5150308918504
 30
0.0
 10
96.3420952450117
 20
-130.7003770289569
 30
0.0
 10
96.21049259747515
 20
-130.722770149611
 30
0.0
 10
96.10300561833536
 20
-130.743096212974
 30
0.0
 10
96.10300561833536
 20
-130.743096212974
 30
0.0
 10
96.10300561833536
 20
-130.5057291340403
 30
0.0
 10
96.10300561833536
 20
-130.5057291340403
 30
0.0
 10
96.30144311828576
 20
-130.447162510791
 30
0.0
 10
96.3310709394589
 20
-130.3114257486721
 30
0.0
 10
96.3310709394589
 20
-130.2118624891484
 30
0.0
 10
96.3310709394589
 20
-130.0626898546371
 30
0.0
 10
96.2318521894837
 20
-129.8997368381848
 30
0.0
 10
95.99896373468081
 20
-129.8997368381848
 30
0.0
 10
95.74333764967528
 20
-129.8997368381848
 30
0.0
 10
95.67305770177619
 20
-130.0919731662617
 30
0.0
 10
95.67305770177619
 20
-130.2208197374101
 30
0.0
 10
95.67305770177619
 20
-130.2549261827141
 30
0.0
 10
95.67305770177619
 20
-130.4061658745165
 30
0.0
 10
95.80259329202158
 20
-130.5012505099094
 30
0.0
 10
95.80259329202158
 20
-130.5012505099094
 30
0.0
 10
95.78330075730418
 20
-130.6890082138555
 30
0.0
 10
95.78330075730418
 20
-130.6890082138555
 30
0.0
 10
95.78330075730418
 20
-130.6890082138555
 30
0.0
 10
94.93718530612682
 20
-130.5601616427072
 30
0.0
 10
94.93718530612682
 20
-130.5601616427072
 30
0.0
 10
94.93718530612682
 20
-130.5601616427072
 30
0.0
 10
94.93718530612682
 20
-129.7281710830194
 30
0.0
 10
94.93718530612682
 20
-129.7281710830194
 30
0.0
 10
94.93718530612682
 20
-129.7281710830194
 30
0.0
 10
95.13148869149491
 20
-129.7281710830194
 30
0.0
 10
95.13148869149491
 20
-129.7281710830194
 30
0.0
 10
95.13148869149491
 20
-129.7281710830194
 30
0.0
 10
95.13148869149491
 20
-130.3858398111535
 30
0.0
 10
95.13148869149491
 20
-130.3858398111535
 30
0.0
 10
95.13148869149491
 20
-130.3858398111535
 30
0.0
 10
95.55454641708359
 20
-130.4561197590527
 30
0.0
 10
95.55454641708359
 20
-130.4561197590527
 30
0.0
 10
95.52078448132814
 20
-130.3906629448329
 30
0.0
 10
95.48082137369924
 20
-130.3024685004105
 30
0.0
 10
95.48082137369924
 20
-130.1756889865533
 30
0.0
 10
95.48082137369924
 20
-129.9042154623156
 30
0.0
 10
95.66685652990273
 20
-129.6510009441498
 30
0.0
 10
95.98036021906047
 20
-129.6510009441498
 30
0.0
 10
96.29730900370346
 20
-129.6510009441498
 30
0.0
 10
96.5322645157975
 20
-129.8907795899231
 30
0.0
 10
96.5322645157975
 20
-130.2142740559881
 30
0.0
  0
HATCH
  5
159
330
149
100
AcDbEntity
  8
_U+30EC_U+30A4_U+30E4_U+30FC 1
 62
     7
420
 16777215
100
AcDbHatch
 10
0.0
 20
0.0
 30
0.0
210
0.0
220
0.0
230
1.0
  2
SOLID
 70
     1
 71
     0
 91
        1
 92
        1
 93
        1
 72
     4
 94
        3
 73
     0
 74
     1
 95
       53
 96
       49
 40
0.0
 40
0.0
 40
0.0
 40
0.0
 40
1.0
 40
1.0
 40
1.0
 40
2.0
 40
2.0
 40
2.0
 40
3.0
 40
3.0
 40
3.0
 40
4.0
 40
4.0
 40
4.0
 40
5.0
 40
5.0
 40
5.0
 40
6.0
 40
6.0
 40
6.0
 40
7.0
 40
7.0
 40
7.0
 40
8.0
 40
8.0
 40
8.0
 40
9.0
 40
9.0
 40
9.0
 40
10.0
 40
10.0
 40
10.0
 40
11.0
 40
11.0
 40
11.0
 40
12.0
 40
12.0
 40
12.0
 40
13.0
 40
13.0
 40
13.0
 40
14.0
 40
14.0
 40
14.0
 40
15.0
 40
15.0
 40
15.0
 40
16.0
 40
16.0
 40
16.0
 40
16.0
 10
96.5322645157975
 20
-130.2142740559881
 10
96.5322645157975
 20
-130.2979898762797
 10
96.51503903837124
 20
-130.4061658745165
 10
96.45164928144264
 20
-130.5150308918504
 10
96.3420952450117
 20
-130.7003770289569
 10
96.21049259747515
 20
-130.722770149611
 10
96.10300561833536
 20
-130.743096212974
 10
96.10300561833536
 20
-130.743096212974
 10
96.10300561833536
 20
-130.5057291340403
 10
96.10300561833536
 20
-130.5057291340403
 10
96.30144311828576
 20
-130.447162510791
 10
96.3310709394589
 20
-130.3114257486721
 10
96.3310709394589
 20
-130.2118624891484
 10
96.3310709394589
 20
-130.0626898546371
 10
96.2318521894837
 20
-129.8997368381848
 10
95.99896373468081
 20
-129.8997368381848
 10
95.74333764967528
 20
-129.8997368381848
 10
95.67305770177619
 20
-130.0919731662617
 10
95.67305770177619
 20
-130.2208197374101
 10
95.67305770177619
 20
-130.2549261827141
 10
95.67305770177619
 20
-130.4061658745165
 10
95.80259329202158
 20
-130.5012505099094
 10
95.80259329202158
 20
-130.5012505099094
 10
95.78330075730418
 20
-130.6890082138555
 10
95.78330075730418
 20
-130.6890082138555
 10
95.78330075730418
 20
-130.6890082138555
 10
94.93718530612682
 20
-130.5601616427072
 10
94.93718530612682
 20
-130.5601616427072
 10
94.93718530612682
 20
-130.5601616427072
 10
94.93718530612682
 20
-129.7281710830194
 10
94.93718530612682
 20
-129.7281710830194
 10
94.93718530612682
 20
-129.7281710830194
 10
95.13148869149491
 20
-129.7281710830194
 10
95.13148869149491
 20
-129.7281710830194
 10
95.13148869149491
 20
-129.7281710830194
 10
95.13148869149491
 20
-130.3858398111535
 10
95.13148869149491
 20
-130.3858398111535
 10
95.13148869149491
 20
-130.3858398111535
 10
95.55454641708359
 20
-130.4561197590527
 10
95.55454641708359
 20
-130.4561197590527
 10
95.52078448132814
 20
-130.3906629448329
 10
95.48082137369924
 20
-130.3024685004105
 10
95.48082137369924
 20
-130.1756889865533
 10
95.48082137369924
 20
-129.9042154623156
 10
95.66685652990273
 20
-129.6510009441498
 10
95.98036021906047
 20
-129.6510009441498
 10
96.29730900370346
 20
-129.6510009441498
 10
96.5322645157975
 20
-129.8907795899231
 10
96.5322645157975
 20
-130.2142740559881
 97
        0
 97
        0
 75
     2
 76
     1
 98
        0
  0
ENDBLK
  5
14C
330
149
100
AcDbEntity
  8
0
100
AcDbBlockEnd
  0
BLOCK
  5
164
330
162
100
AcDbEntity
  8
0
100
AcDbBlockBegin
  2
block 8
 70
     0
 10
0.0
 20
0.0
 30
0.0
  3
block 8
  1

  0
SPLINE
  5
166
330
162
100
AcDbEntity
  8
_U+30EC_U+30A4_U+30E4_U+30FC 1
370
     0
100
AcDbSpline
210
0.0
220
0.0
230
1.0
 70
    11
 71
     3
 72
    32
 73
    28
 74
     0
 42
0.0000000001
 43
0.0000000001
 12
1.0
 22
0.0
 32
0.0
 13
1.0
 23
0.0
 33
0.0
 40
0.0
 40
0.0
 40
0.0
 40
0.0
 40
1.0
 40
1.0
 40
1.0
 40
2.0
 40
2.0
 40
2.0
 40
3.0
 40
3.0
 40
3.0
 40
4.0
 40
4.0
 40
4.0
 40
5.0
 40
5.0
 40
5.0
 40
6.0
 40
6.0
 40
6.0
 40
7.0
 40
7.0
 40
7.0
 40
8.0
 40
8.0
 40
8.0
 40
9.0
 40
9.0
 40
9.0
 40
9.0
 10
96.5322645157975
 20
-124.0677069459796
 30
0.0
 10
96.5322645157975
 20
-124.6194389879424
 30
0.0
 10
95.97829316176932
 20
-124.628396236204
 30
0.0
 10
95.76435273213531
 20
-124.628396236204
 30
0.0
 10
95.53387584417209
 20
-124.628396236204
 30
0.0
 10
94.88654240249365
 20
-124.608070172841
 30
0.0
 10
94.88654240249365
 20
-124.0270548192537
 30
0.0
 10
94.88654240249365
 20
-123.841536427373
 30
0.0
 10
94.95647784084422
 20
-123.5793646609454
 30
0.0
 10
95.2885850456223
 20
-123.5387125342195
 30
0.0
 10
95.2885850456223
 20
-123.5387125342195
 30
0.0
 10
95.2885850456223
 20
-123.7669501101173
 30
0.0
 10
95.2885850456223
 20
-123.7669501101173
 30
0.0
 10
95.23139646056715
 20
-123.7783189252186
 30
0.0
 10
95.08325735470142
 20
-123.8122531157483
 30
0.0
 10
95.08325735470142
 20
-124.0292941313191
 30
0.0
 10
95.08325735470142
 20
-124.3412475275084
 30
0.0
 10
95.4112304448972
 20
-124.3841389662998
 30
0.0
 10
95.61621362626956
 20
-124.3977470934665
 30
0.0
 10
95.53800995875439
 20
-124.2983560887171
 30
0.0
 10
95.4787543164081
 20
-124.2260090835268
 30
0.0
 10
95.4787543164081
 20
-124.0315334433845
 30
0.0
 10
95.4787543164081
 20
-123.8392971153075
 30
0.0
 10
95.58693031464495
 20
-123.5159749040168
 30
0.0
 10
95.9931070723559
 20
-123.5159749040168
 30
0.0
 10
96.31246742383856
 20
-123.5159749040168
 30
0.0
 10
96.5322645157975
 20
-123.7285372954568
 30
0.0
 10
96.5322645157975
 20
-124.0677069459796
 30
0.0
  0
SPLINE
  5
167
330
162
100
AcDbEntity
  8
_U+30EC_U+30A4_U+30E4_U+30FC 1
370
     0
100
AcDbSpline
210
0.0
220
0.0
230
1.0
 70
    11
 71
     3
 72
    17
 73
    13
 74
     0
 42
0.0000000001
 43
0.0000000001
 12
1.0
 22
0.0
 32
0.0
 13
1.0
 23
0.0
 33
0.0
 40
0.0
 40
0.0
 40
0.0
 40
0.0
 40
1.0
 40
1.0
 40
1.0
 40
2.0
 40
2.0
 40
2.0
 40
3.0
 40
3.0
 40
3.0
 40
4.0
 40
4.0
 40
4.0
 40
4.0
 10
95.67340221132471
 20
-124.049620194682
 30
0.0
 10
95.67340221132471
 20
-124.3300509671814
 30
0.0
 10
95.88493107411905
 20
-124.3707030939073
 30
0.0
 10
96.0013753015205
 20
-124.3707030939073
 30
0.0
 10
96.17707517126824
 20
-124.3707030939073
 30
0.0
 10
96.34002818772055
 20
-124.2689005223182
 30
0.0
 10
96.34002818772055
 20
-124.0721855701104
 30
0.0
 10
96.34002818772055
 20
-123.9433389989621
 30
0.0
 10
96.28077254537426
 20
-123.7557535497902
 30
0.0
 10
95.99517412964704
 20
-123.7557535497902
 30
0.0
 10
95.77089841355728
 20
-123.7557535497902
 30
0.0
 10
95.67340221132471
 20
-123.9049261843016
 30
0.0
 10
95.67340221132471
 20
-124.049620194682
 30
0.0
  0
HATCH
  5
168
330
162
100
AcDbEntity
  8
_U+30EC_U+30A4_U+30E4_U+30FC 1
 62
     7
420
 16777215
100
AcDbHatch
 10
0.0
 20
0.0
 30
0.0
210
0.0
220
0.0
230
1.0
  2
SOLID
 70
     1
 71
     0
 91
        2
 92
        1
 93
        1
 72
     4
 94
        3
 73
     0
 74
     1
 95
       32
 96
       28
 40
0.0
 40
0.0
 40
0.0
 40
0.0
 40
1.0
 40
1.0
 40
1.0
 40
2.0
 40
2.0
 40
2.0
 40
3.0
 40
3.0
 40
3.0
 40
4.0
 40
4.0
 40
4.0
 40
5.0
 40
5.0
 40
5.0
 40
6.0
 40
6.0
 40
6.0
 40
7.0
 40
7.0
 40
7.0
 40
8.0
 40
8.0
 40
8.0
 40
9.0
 40
9.0
 40
9.0
 40
9.0
 10
96.5322645157975
 20
-124.0677069459796
 10
96.5322645157975
 20
-124.6194389879424
 10
95.97829316176932
 20
-124.628396236204
 10
95.76435273213531
 20
-124.628396236204
 10
95.53387584417209
 20
-124.628396236204
 10
94.88654240249365
 20
-124.608070172841
 10
94.88654240249365
 20
-124.0270548192537
 10
94.88654240249365
 20
-123.841536427373
 10
94.95647784084422
 20
-123.5793646609454
 10
95.2885850456223
 20
-123.5387125342195
 10
95.2885850456223
 20
-123.5387125342195
 10
95.2885850456223
 20
-123.7669501101173
 10
95.2885850456223
 20
-123.7669501101173
 10
95.23139646056715
 20
-123.7783189252186
 10
95.08325735470142
 20
-123.8122531157483
 10
95.08325735470142
 20
-124.0292941313191
 10
95.08325735470142
 20
-124.3412475275084
 10
95.4112304448972
 20
-124.3841389662998
 10
95.61621362626956
 20
-124.3977470934665
 10
95.53800995875439
 20
-124.2983560887171
 10
95.4787543164081
 20
-124.2260090835268
 10
95.4787543164081
 20
-124.0315334433845
 10
95.4787543164081
 20
-123.8392971153075
 10
95.58693031464495
 20
-123.5159749040168
 10
95.9931070723559
 20
-123.5159749040168
 10
96.31246742383856
 20
-123.5159749040168
 10
96.5322645157975
 20
-123.7285372954568
 10
96.5322645157975
 20
-124.0677069459796
 97
        0
 97
        0
 92
        1
 93
        1
 72
     4
 94
        3
 73
     0
 74
     1
 95
       17
 96
       13
 40
0.0
 40
0.0
 40
0.0
 40
0.0
 40
1.0
 40
1.0
 40
1.0
 40
2.0
 40
2.0
 40
2.0
 40
3.0
 40
3.0
 40
3.0
 40
4.0
 40
4.0
 40
4.0
 40
4.0
 10
95.67340221132471
 20
-124.049620194682
 10
95.67340221132471
 20
-124.3300509671814
 10
95.88493107411905
 20
-124.3707030939073
 10
96.0013753015205
 20
-124.3707030939073
 10
96.17707517126824
 20
-124.3707030939073
 10
96.34002818772055
 20
-124.2689005223182
 10
96.34002818772055
 20
-124.0721855701104
 10
96.34002818772055
 20
-123.9433389989621
 10
96.28077254537426
 20
-123.7557535497902
 10
95.99517412964704
 20
-123.7557535497902
 10
95.77089841355728
 20
-123.7557535497902
 10
95.67340221132471
 20
-123.9049261843016
 10
95.67340221132471
 20
-124.049620194682
 97
        0
 97
        0
 75
     2
 76
     1
 98
        0
  0
ENDBLK
  5
165
330
162
100
AcDbEntity
  8
0
100
AcDbBlockEnd
  0
ENDSEC
  0
SECTION
  2
ENTITIES
  0
POLYLINE
  5
41
330
1F
100
AcDbEntity
  8
_U+30EC_U+30A4_U+30E4_U+30FC 1
  6
AI-Linetype-1
 62
   154
420
    23468
370
    25
100
AcDb2dPolyline
 66
     1
 10
0.0
 20
0.0
 30
0.0
  0
VERTEX
  5
42
330
41
100
AcDbEntity
  8
_U+30EC_U+30A4_U+30E4_U+30FC 1
  6
AI-Linetype-1
 62
   154
420
    23468
370
    25
100
AcDbVertex
100
AcDb2dVertex
 10
80.63607266502463
 20
-120.4157202476739
 30
0.0
  0
VERTEX
  5
43
330
41
100
AcDbEntity
  8
_U+30EC_U+30A4_U+30E4_U+30FC 1
  6
AI-Linetype-1
 62
   154
420
    23468
370
    25
100
AcDbVertex
100
AcDb2dVertex
 10
82.26558845678555
 20
-120.4157202476739
 30
0.0
  0
VERTEX
  5
44
330
41
100
AcDbEntity
  8
_U+30EC_U+30A4_U+30E4_U+30FC 1
  6
AI-Linetype-1
 62
   154
420
    23468
370
    25
100
AcDbVertex
100
AcDb2dVertex
 10
82.26558845678555
 20
-126.4126249683969
 30
0.0
  0
VERTEX
  5
45
330
41
100
AcDbEntity
  8
_U+30EC_U+30A4_U+30E4_U+30FC 1
  6
AI-Linetype-1
 62
   154
420
    23468
370
    25
100
AcDbVertex
100
AcDb2dVertex
 10
88.27110080357215
 20
-126.4126249683969
 30
0.0
  0
VERTEX
  5
46
330
41
100
AcDbEntity
  8
_U+30EC_U+30A4_U+30E4_U+30FC 1
  6
AI-Linetype-1
 62
   154
420
    23468
370
    25
100
AcDbVertex
100
AcDb2dVertex
 10
88.27110080357215
 20
-127.8995127458028
 30
0.0
  0
SEQEND
  5
48
330
41
100
AcDbEntity
  8
_U+30EC_U+30A4_U+30E4_U+30FC 1
  6
AI-Linetype-1
 62
   154
420
    23468
370
    25
  0
POLYLINE
  5
49
330
1F
100
AcDbEntity
  8
_U+30EC_U+30A4_U+30E4_U+30FC 1
 62
   179
420
  2234388
370
     9
100
AcDb2dPolyline
 66
     1
 10
0.0
 20
0.0
 30
0.0
  0
VERTEX
  5
4A
330
49
100
AcDbEntity
  8
_U+30EC_U+30A4_U+30E4_U+30FC 1
 62
   179
420
  2234388
370
     9
100
AcDbVertex
100
AcDb2dVertex
 10
86.19267530104166
 20
-126.2820266350961
 30
0.0
  0
VERTEX
  5
4B
330
49
100
AcDbEntity
  8
_U+30EC_U+30A4_U+30E4_U+30FC 1
 62
   179
420
  2234388
370
     9
100
AcDbVertex
100
AcDb2dVertex
 10
91.58717655230535
 20
-118.6390960814513
 30
0.0
  0
VERTEX
  5
4C
330
49
100
AcDbEntity
  8
_U+30EC_U+30A4_U+30E4_U+30FC 1
 62
   179
420
  2234388
370
     9
100
AcDbVertex
100
AcDb2dVertex
 10
107.9472455793697
 20
-118.6390960814513
 30
0.0
  0
SEQEND
  5
4D
330
49
100
AcDbEntity
  8
_U+30EC_U+30A4_U+30E4_U+30FC 1
 62
   179
420
  2234388
370
     9
  0
INSERT
  5
4F
330
1F
100
AcDbEntity
  8
_U+30EC_U+30A4_U+30E4_U+30FC 1
100
AcDbBlockReference
  2
block 2
 10
0.0
 20
0.0
 30
0.0
  0
POLYLINE
  5
8C
330
1F
100
AcDbEntity
  8
_U+30EC_U+30A4_U+30E4_U+30FC 1
 62
     7
420
 16777215
370
    25
100
AcDb2dPolyline
 66
     1
 10
0.0
 20
0.0
 30
0.0
  0
VERTEX
  5
8D
330
8C
100
AcDbEntity
  8
_U+30EC_U+30A4_U+30E4_U+30FC 1
 62
     7
420
 16777215
370
    25
100
AcDbVertex
100
AcDb2dVertex
 10
81.66547819431786
 20
-134.5127202441493
 30
0.0
  0
VERTEX
  5
8E
330
8C
100
AcDbEntity
  8
_U+30EC_U+30A4_U+30E4_U+30FC 1
 62
     7
420
 16777215
370
    25
100
AcDbVertex
100
AcDb2dVertex
 10
87.66545193013467
 20
-134.5127202441493
 30
0.0
  0
SEQEND
  5
8F
330
8C
100
AcDbEntity
  8
_U+30EC_U+30A4_U+30E4_U+30FC 1
 62
     7
420
 16777215
370
    25
  0
POLYLINE
  5
90
330
1F
100
AcDbEntity
  8
_U+30EC_U+30A4_U+30E4_U+30FC 1
 62
     7
420
 16777215
370
    25
100
AcDb2dPolyline
 66
     1
 10
0.0
 20
0.0
 30
0.0
  0
VERTEX
  5
91
330
90
100
AcDbEntity
  8
_U+30EC_U+30A4_U+30E4_U+30FC 1
 62
     7
420
 16777215
370
    25
100
AcDbVertex
100
AcDb2dVertex
 10
81.66547819431786
 20
-128.0128602457747
 30
0.0
  0
VERTEX
  5
92
330
90
100
AcDbEntity
  8
_U+30EC_U+30A4_U+30E4_U+30FC 1
 62
     7
420
 16777215
370
    25
100
AcDbVertex
100
AcDb2dVertex
 10
87.66545193013467
 20
-128.0128602457747
 30
0.0
  0
SEQEND
  5
93
330
90
100
AcDbEntity
  8
_U+30EC_U+30A4_U+30E4_U+30FC 1
 62
     7
420
 16777215
370
    25
  0
POLYLINE
  5
94
330
1F
100
AcDbEntity
  8
_U+30EC_U+30A4_U+30E4_U+30FC 1
 62
     7
420
 16777215
370
    25
100
AcDb2dPolyline
 66
     1
 10
0.0
 20
0.0
 30
0.0
  0
VERTEX
  5
95
330
94
100
AcDbEntity
  8
_U+30EC_U+30A4_U+30E4_U+30FC 1
 62
     7
420
 16777215
370
    25
100
AcDbVertex
100
AcDb2dVertex
 10
81.66547819431786
 20
-135.5128452438996
 30
0.0
  0
VERTEX
  5
96
330
94
100
AcDbEntity
  8
_U+30EC_U+30A4_U+30E4_U+30FC 1
 62
     7
420
 16777215
370
    25
100
AcDbVertex
100
AcDb2dVertex
 10
94.66502147378299
 20
-135.5128452438996
 30
0.0
  0
SEQEND
  5
97
330
94
100
AcDbEntity
  8
_U+30EC_U+30A4_U+30E4_U+30FC 1
 62
     7
420
 16777215
370
    25
  0
POLYLINE
  5
98
330
1F
100
AcDbEntity
  8
_U+30EC_U+30A4_U+30E4_U+30FC 1
 62
     7
420
 16777215
370
    25
100
AcDb2dPolyline
 66
     1
 10
0.0
 20
0.0
 30
0.0
  0
VERTEX
  5
99
330
98
100
AcDbEntity
  8
_U+30EC_U+30A4_U+30E4_U+30FC 1
 62
     7
420
 16777215
370
    25
100
AcDbVertex
100
AcDb2dVertex
 10
80.6650004420644
 20
-121.0127613586357
 30
0.0
  0
VERTEX
  5
9A
330
98
100
AcDbEntity
  8
_U+30EC_U+30A4_U+30E4_U+30FC 1
 62
     7
420
 16777215
370
    25
100
AcDbVertex
100
AcDb2dVertex
 10
80.6650004420644
 20
-134.5127202441493
 30
0.0
  0
SEQEND
  5
9B
330
98
100
AcDbEntity
  8
_U+30EC_U+30A4_U+30E4_U+30FC 1
 62
     7
420
 16777215
370
    25
  0
POLYLINE
  5
9C
330
1F
100
AcDbEntity
  8
_U+30EC_U+30A4_U+30E4_U+30FC 1
 62
     7
420
 16777215
370
    25
100
AcDb2dPolyline
 66
     1
 10
0.0
 20
0.0
 30
0.0
  0
VERTEX
  5
9D
330
9C
100
AcDbEntity
  8
_U+30EC_U+30A4_U+30E4_U+30FC 1
 62
     7
420
 16777215
370
    25
100
AcDbVertex
100
AcDb2dVertex
 10
81.66547819431786
 20
-122.0128863583857
 30
0.0
  0
VERTEX
  5
9E
330
9C
100
AcDbEntity
  8
_U+30EC_U+30A4_U+30E4_U+30FC 1
 62
     7
420
 16777215
370
    25
100
AcDbVertex
100
AcDb2dVertex
 10
81.66547819431786
 20
-127.0127352460247
 30
0.0
  0
SEQEND
  5
9F
330
9C
100
AcDbEntity
  8
_U+30EC_U+30A4_U+30E4_U+30FC 1
 62
     7
420
 16777215
370
    25
  0
POLYLINE
  5
A0
330
1F
100
AcDbEntity
  8
_U+30EC_U+30A4_U+30E4_U+30FC 1
 62
     7
420
 16777215
370
    25
100
AcDb2dPolyline
 66
     1
 10
0.0
 20
0.0
 30
0.0
  0
VERTEX
  5
A1
330
A0
100
AcDbEntity
  8
_U+30EC_U+30A4_U+30E4_U+30FC 1
 62
     7
420
 16777215
370
    25
100
AcDbVertex
100
AcDb2dVertex
 10
81.66547819431786
 20
-127.0127352460247
 30
0.0
  0
VERTEX
  5
A2
330
A0
100
AcDbEntity
  8
_U+30EC_U+30A4_U+30E4_U+30FC 1
 62
     7
420
 16777215
370
    25
100
AcDbVertex
100
AcDb2dVertex
 10
86.66500945565808
 20
-127.0127352460247
 30
0.0
  0
SEQEND
  5
A3
330
A0
100
AcDbEntity
  8
_U+30EC_U+30A4_U+30E4_U+30FC 1
 62
     7
420
 16777215
370
    25
  0
POLYLINE
  5
A4
330
1F
100
AcDbEntity
  8
_U+30EC_U+30A4_U+30E4_U+30FC 1
 62
     7
420
 16777215
370
    25
100
AcDb2dPolyline
 66
     1
 10
0.0
 20
0.0
 30
0.0
  0
VERTEX
  5
A5
330
A4
100
AcDbEntity
  8
_U+30EC_U+30A4_U+30E4_U+30FC 1
 62
     7
420
 16777215
370
    25
100
AcDbVertex
100
AcDb2dVertex
 10
81.66547819431786
 20
-128.0128602457747
 30
0.0
  0
VERTEX
  5
A6
330
A4
100
AcDbEntity
  8
_U+30EC_U+30A4_U+30E4_U+30FC 1
 62
     7
420
 16777215
370
    25
100
AcDbVertex
100
AcDb2dVertex
 10
81.66547819431786
 20
-134.5127202441493
 30
0.0
  0
SEQEND
  5
A7
330
A4
100
AcDbEntity
  8
_U+30EC_U+30A4_U+30E4_U+30FC 1
 62
     7
420
 16777215
370
    25
  0
POLYLINE
  5
A8
330
1F
100
AcDbEntity
  8
_U+30EC_U+30A4_U+30E4_U+30FC 1
 62
     7
420
 16777215
370
    25
100
AcDb2dPolyline
 66
     1
 10
0.0
 20
0.0
 30
0.0
  0
VERTEX
  5
A9
330
A8
100
AcDbEntity
  8
_U+30EC_U+30A4_U+30E4_U+30FC 1
 62
     7
420
 16777215
370
    25
100
AcDbVertex
100
AcDb2dVertex
 10
88.02373303210526
 20
-134.712886355211
 30
0.0
  0
VERTEX
  5
AA
330
A8
100
AcDbEntity
  8
_U+30EC_U+30A4_U+30E4_U+30FC 1
 62
     7
420
 16777215
370
    25
100
AcDbVertex
100
AcDb2dVertex
 10
93.86506260530275
 20
-134.712886355211
 30
0.0
  0
SEQEND
  5
AB
330
A8
100
AcDbEntity
  8
_U+30EC_U+30A4_U+30E4_U+30FC 1
 62
     7
420
 16777215
370
    25
  0
POLYLINE
  5
AC
330
1F
100
AcDbEntity
  8
_U+30EC_U+30A4_U+30E4_U+30FC 1
 62
     7
420
 16777215
370
    25
100
AcDb2dPolyline
 66
     1
 10
0.0
 20
0.0
 30
0.0
  0
VERTEX
  5
AD
330
AC
100
AcDbEntity
  8
_U+30EC_U+30A4_U+30E4_U+30FC 1
 62
     7
420
 16777215
370
    25
100
AcDbVertex
100
AcDb2dVertex
 10
87.66545193013467
 20
-134.5127202441493
 30
0.0
  0
VERTEX
  5
AE
330
AC
100
AcDbEntity
  8
_U+30EC_U+30A4_U+30E4_U+30FC 1
 62
     7
420
 16777215
370
    25
100
AcDbVertex
100
AcDb2dVertex
 10
88.01135275577487
 20
-134.712886355211
 30
0.0
  0
SEQEND
  5
AF
330
AC
100
AcDbEntity
  8
_U+30EC_U+30A4_U+30E4_U+30FC 1
 62
     7
420
 16777215
370
    25
  0
SPLINE
  5
B0
330
1F
100
AcDbEntity
  8
_U+30EC_U+30A4_U+30E4_U+30FC 1
 62
     7
420
 16777215
370
    25
100
AcDbSpline
210
0.0
220
0.0
230
1.0
 70
     8
 71
     3
 72
     8
 73
     4
 74
     0
 42
0.0000000001
 43
0.0000000001
 12
1.0
 22
0.0
 32
0.0
 13
1.0
 23
0.0
 33
0.0
 40
0.0
 40
0.0
 40
0.0
 40
0.0
 40
1.0
 40
1.0
 40
1.0
 40
1.0
 10
80.6650004420644
 20
-134.5127202441493
 30
0.0
 10
80.6650004420644
 20
-135.0653113551228
 30
0.0
 10
81.11288709730452
 20
-135.5128452438996
 30
0.0
 10
81.66547819431786
 20
-135.5128452438996
 30
0.0
  0
SPLINE
  5
B1
330
1F
100
AcDbEntity
  8
_U+30EC_U+30A4_U+30E4_U+30FC 1
 62
     7
420
 16777215
370
     9
100
AcDbSpline
210
0.0
220
0.0
230
1.0
 70
    11
 71
     3
 72
    17
 73
    13
 74
     0
 42
0.0000000001
 43
0.0000000001
 12
1.0
 22
0.0
 32
0.0
 13
1.0
 23
0.0
 33
0.0
 40
0.0
 40
0.0
 40
0.0
 40
0.0
 40
1.0
 40
1.0
 40
1.0
 40
2.0
 40
2.0
 40
2.0
 40
3.0
 40
3.0
 40
3.0
 40
4.0
 40
4.0
 40
4.0
 40
4.0
 10
80.76490710618222
 20
-125.2471530242436
 30
0.0
 10
80.76490710618222
 20
-125.1920138575909
 30
0.0
 10
80.72014164648667
 20
-125.1472110798242
 30
0.0
 10
80.6650004420644
 20
-125.1472110798242
 30
0.0
 10
80.60989655458133
 20
-125.1472110798242
 30
0.0
 10
80.56509377794656
 20
-125.1920138575909
 30
0.0
 10
80.56509377794656
 20
-125.2471530242436
 30
0.0
 10
80.56509377794656
 20
-125.3022569131189
 30
0.0
 10
80.60989655458133
 20
-125.3470596908856
 30
0.0
 10
80.6650004420644
 20
-125.3470596908856
 30
0.0
 10
80.72014164648667
 20
-125.3470596908856
 30
0.0
 10
80.76490710618222
 20
-125.3022569131189
 30
0.0
 10
80.76490710618222
 20
-125.2471530242436
 30
0.0
  0
SPLINE
  5
B2
330
1F
100
AcDbEntity
  8
_U+30EC_U+30A4_U+30E4_U+30FC 1
 62
     7
420
 16777215
370
     9
100
AcDbSpline
210
0.0
220
0.0
230
1.0
 70
    11
 71
     3
 72
    17
 73
    13
 74
     0
 42
0.0000000001
 43
0.0000000001
 12
1.0
 22
0.0
 32
0.0
 13
1.0
 23
0.0
 33
0.0
 40
0.0
 40
0.0
 40
0.0
 40
0.0
 40
1.0
 40
1.0
 40
1.0
 40
2.0
 40
2.0
 40
2.0
 40
3.0
 40
3.0
 40
3.0
 40
4.0
 40
4.0
 40
4.0
 40
4.0
 10
81.7653848584357
 20
-125.2471530242436
 30
0.0
 10
81.7653848584357
 20
-125.1920138575909
 30
0.0
 10
81.72058208180093
 20
-125.1472110798242
 30
0.0
 10
81.66547819431786
 20
-125.1472110798242
 30
0.0
 10
81.60966875129722
 20
-125.1472110798242
 30
0.0
 10
81.56486597466247
 20
-125.1920138575909
 30
0.0
 10
81.56486597466247
 20
-125.2471530242436
 30
0.0
 10
81.56486597466247
 20
-125.3022569131189
 30
0.0
 10
81.60966875129722
 20
-125.3470596908856
 30
0.0
 10
81.66547819431786
 20
-125.3470596908856
 30
0.0
 10
81.72058208180093
 20
-125.3470596908856
 30
0.0
 10
81.7653848584357
 20
-125.3022569131189
 30
0.0
 10
81.7653848584357
 20
-125.2471530242436
 30
0.0
  0
SPLINE
  5
B3
330
1F
100
AcDbEntity
  8
_U+30EC_U+30A4_U+30E4_U+30FC 1
 62
     7
420
 16777215
370
     9
100
AcDbSpline
210
0.0
220
0.0
230
1.0
 70
    11
 71
     3
 72
    17
 73
    13
 74
     0
 42
0.0000000001
 43
0.0000000001
 12
1.0
 22
0.0
 32
0.0
 13
1.0
 23
0.0
 33
0.0
 40
0.0
 40
0.0
 40
0.0
 40
0.0
 40
1.0
 40
1.0
 40
1.0
 40
2.0
 40
2.0
 40
2.0
 40
3.0
 40
3.0
 40
3.0
 40
4.0
 40
4.0
 40
4.0
 40
4.0
 10
94.66502147378299
 20
-139.5129219095661
 30
0.0
 10
94.66502147378299
 20
-139.4578180206912
 30
0.0
 10
94.62021869714822
 20
-139.4130152429244
 30
0.0
 10
94.56511480966515
 20
-139.4130152429244
 30
0.0
 10
94.5099756444052
 20
-139.4130152429244
 30
0.0
 10
94.46520814554732
 20
-139.4578180206912
 30
0.0
 10
94.46520814554732
 20
-139.5129219095661
 30
0.0
 10
94.46520814554732
 20
-139.5680610762192
 30
0.0
 10
94.5099756444052
 20
-139.6128285762077
 30
0.0
 10
94.56511480966515
 20
-139.6128285762077
 30
0.0
 10
94.62021869714822
 20
-139.6128285762077
 30
0.0
 10
94.66502147378299
 20
-139.5680610762192
 30
0.0
 10
94.66502147378299
 20
-139.5129219095661
 30
0.0
  0
SPLINE
  5
B4
330
1F
100
AcDbEntity
  8
_U+30EC_U+30A4_U+30E4_U+30FC 1
 62
     7
420
 16777215
370
     9
100
AcDbSpline
210
0.0
220
0.0
230
1.0
 70
    11
 71
     3
 72
    17
 73
    13
 74
     0
 42
0.0000000001
 43
0.0000000001
 12
1.0
 22
0.0
 32
0.0
 13
1.0
 23
0.0
 33
0.0
 40
0.0
 40
0.0
 40
0.0
 40
0.0
 40
1.0
 40
1.0
 40
1.0
 40
2.0
 40
2.0
 40
2.0
 40
3.0
 40
3.0
 40
3.0
 40
4.0
 40
4.0
 40
4.0
 40
4.0
 10
80.76490710618222
 20
-139.5129219095661
 30
0.0
 10
80.76490710618222
 20
-139.4578180206912
 30
0.0
 10
80.72014164648667
 20
-139.4130152429244
 30
0.0
 10
80.6650004420644
 20
-139.4130152429244
 30
0.0
 10
80.60989655458133
 20
-139.4130152429244
 30
0.0
 10
80.56509377794656
 20
-139.4578180206912
 30
0.0
 10
80.56509377794656
 20
-139.5129219095661
 30
0.0
 10
80.56509377794656
 20
-139.5680610762192
 30
0.0
 10
80.60989655458133
 20
-139.6128285762077
 30
0.0
 10
80.6650004420644
 20
-139.6128285762077
 30
0.0
 10
80.72014164648667
 20
-139.6128285762077
 30
0.0
 10
80.76490710618222
 20
-139.5680610762192
 30
0.0
 10
80.76490710618222
 20
-139.5129219095661
 30
0.0
  0
SPLINE
  5
B5
330
1F
100
AcDbEntity
  8
_U+30EC_U+30A4_U+30E4_U+30FC 1
 62
     7
420
 16777215
370
    25
100
AcDbSpline
210
0.0
220
0.0
230
1.0
 70
     8
 71
     3
 72
     8
 73
     4
 74
     0
 42
0.0000000001
 43
0.0000000001
 12
1.0
 22
0.0
 32
0.0
 13
1.0
 23
0.0
 33
0.0
 40
0.0
 40
0.0
 40
0.0
 40
0.0
 40
1.0
 40
1.0
 40
1.0
 40
1.0
 10
81.66547819431786
 20
-122.0125335806079
 30
0.0
 10
81.66547819431786
 20
-121.4606480251903
 30
0.0
 10
81.21759153907773
 20
-121.0127613586357
 30
0.0
 10
80.6650004420644
 20
-121.0127613586357
 30
0.0
  0
SPLINE
  5
B6
330
1F
100
AcDbEntity
  8
_U+30EC_U+30A4_U+30E4_U+30FC 1
 62
     7
420
 16777215
370
    25
100
AcDbSpline
210
0.0
220
0.0
230
1.0
 70
     8
 71
     3
 72
     8
 73
     4
 74
     0
 42
0.0000000001
 43
0.0000000001
 12
1.0
 22
0.0
 32
0.0
 13
1.0
 23
0.0
 33
0.0
 40
0.0
 40
0.0
 40
0.0
 40
0.0
 40
1.0
 40
1.0
 40
1.0
 40
1.0
 10
87.66545193013467
 20
-128.0128602457747
 30
0.0
 10
87.66545193013467
 20
-127.4606219125793
 30
0.0
 10
87.2176027559733
 20
-127.0127352460247
 30
0.0
 10
86.66500945565808
 20
-127.0127352460247
 30
0.0
  0
SPLINE
  5
B7
330
1F
100
AcDbEntity
  8
_U+30EC_U+30A4_U+30E4_U+30FC 1
 62
     7
420
 16777215
370
    25
100
AcDbSpline
210
0.0
220
0.0
230
1.0
 70
     8
 71
     3
 72
     8
 73
     4
 74
     0
 42
0.0000000001
 43
0.0000000001
 12
1.0
 22
0.0
 32
0.0
 13
1.0
 23
0.0
 33
0.0
 40
0.0
 40
0.0
 40
0.0
 40
0.0
 40
1.0
 40
1.0
 40
1.0
 40
1.0
 10
94.66502147378299
 20
-135.5128452438996
 30
0.0
 10
94.66502147378299
 20
-135.0711674662321
 30
0.0
 10
94.30674037181238
 20
-134.712886355211
 30
0.0
 10
93.86506260530275
 20
-134.712886355211
 30
0.0
  0
SPLINE
  5
B8
330
1F
100
AcDbEntity
  8
_U+30EC_U+30A4_U+30E4_U+30FC 1
 62
     7
420
 16777215
370
     9
100
AcDbSpline
210
0.0
220
0.0
230
1.0
 70
    11
 71
     3
 72
    17
 73
    13
 74
     0
 42
0.0000000001
 43
0.0000000001
 12
1.0
 22
0.0
 32
0.0
 13
1.0
 23
0.0
 33
0.0
 40
0.0
 40
0.0
 40
0.0
 40
0.0
 40
1.0
 40
1.0
 40
1.0
 40
2.0
 40
2.0
 40
2.0
 40
3.0
 40
3.0
 40
3.0
 40
4.0
 40
4.0
 40
4.0
 40
4.0
 10
76.7651833193348
 20
-121.0127613586357
 30
0.0
 10
76.7651833193348
 20
-120.9576574697604
 30
0.0
 10
76.72038054270003
 20
-120.912854691994
 30
0.0
 10
76.66524137744008
 20
-120.912854691994
 30
0.0
 10
76.61013748995701
 20
-120.912854691994
 30
0.0
 10
76.56533471332224
 20
-120.9576574697604
 30
0.0
 10
76.56533471332224
 20
-121.0127613586357
 30
0.0
 10
76.56533471332224
 20
-121.0679005252884
 30
0.0
 10
76.61013748995701
 20
-121.1126680252773
 30
0.0
 10
76.66524137744008
 20
-121.1126680252773
 30
0.0
 10
76.72038054270003
 20
-121.1126680252773
 30
0.0
 10
76.7651833193348
 20
-121.0679005252884
 30
0.0
 10
76.7651833193348
 20
-121.0127613586357
 30
0.0
  0
SPLINE
  5
B9
330
1F
100
AcDbEntity
  8
_U+30EC_U+30A4_U+30E4_U+30FC 1
 62
     7
420
 16777215
370
     9
100
AcDbSpline
210
0.0
220
0.0
230
1.0
 70
    11
 71
     3
 72
    17
 73
    13
 74
     0
 42
0.0000000001
 43
0.0000000001
 12
1.0
 22
0.0
 32
0.0
 13
1.0
 23
0.0
 33
0.0
 40
0.0
 40
0.0
 40
0.0
 40
0.0
 40
1.0
 40
1.0
 40
1.0
 40
2.0
 40
2.0
 40
2.0
 40
3.0
 40
3.0
 40
3.0
 40
4.0
 40
4.0
 40
4.0
 40
4.0
 10
76.7651833193348
 20
-135.5128452438996
 30
0.0
 10
76.7651833193348
 20
-135.4577060772465
 30
0.0
 10
76.72038054270003
 20
-135.412938577258
 30
0.0
 10
76.66524137744008
 20
-135.412938577258
 30
0.0
 10
76.61013748995701
 20
-135.412938577258
 30
0.0
 10
76.56533471332224
 20
-135.4577060772465
 30
0.0
 10
76.56533471332224
 20
-135.5128452438996
 30
0.0
 10
76.56533471332224
 20
-135.5683019105523
 30
0.0
 10
76.61013748995701
 20
-135.6130694105415
 30
0.0
 10
76.66524137744008
 20
-135.6130694105415
 30
0.0
 10
76.72038054270003
 20
-135.6130694105415
 30
0.0
 10
76.7651833193348
 20
-135.5683019105523
 30
0.0
 10
76.7651833193348
 20
-135.5128452438996
 30
0.0
  0
SPLINE
  5
BA
330
1F
100
AcDbEntity
  8
_U+30EC_U+30A4_U+30E4_U+30FC 1
 62
     7
420
 16777215
370
     9
100
AcDbSpline
210
0.0
220
0.0
230
1.0
 70
    11
 71
     3
 72
    17
 73
    13
 74
     0
 42
0.0000000001
 43
0.0000000001
 12
1.0
 22
0.0
 32
0.0
 13
1.0
 23
0.0
 33
0.0
 40
0.0
 40
0.0
 40
0.0
 40
0.0
 40
1.0
 40
1.0
 40
1.0
 40
2.0
 40
2.0
 40
2.0
 40
3.0
 40
3.0
 40
3.0
 40
4.0
 40
4.0
 40
4.0
 40
4.0
 10
97.17754002079441
 20
-134.5127202441493
 30
0.0
 10
97.17754002079441
 20
-134.4575810774969
 30
0.0
 10
97.13273724415964
 20
-134.4128135775077
 30
0.0
 10
97.07763335667657
 20
-134.4128135775077
 30
0.0
 10
97.02249419141663
 20
-134.4128135775077
 30
0.0
 10
96.97772669255873
 20
-134.4575810774969
 30
0.0
 10
96.97772669255873
 20
-134.5127202441493
 30
0.0
 10
96.97772669255873
 20
-134.5681769108026
 30
0.0
 10
97.02249419141663
 20
-134.6129796885687
 30
0.0
 10
97.07763335667657
 20
-134.6129796885687
 30
0.0
 10
97.13273724415964
 20
-134.6129796885687
 30
0.0
 10
97.17754002079441
 20
-134.5681769108026
 30
0.0
 10
97.17754002079441
 20
-134.5127202441493
 30
0.0
  0
SPLINE
  5
BB
330
1F
100
AcDbEntity
  8
_U+30EC_U+30A4_U+30E4_U+30FC 1
 62
     7
420
 16777215
370
     9
100
AcDbSpline
210
0.0
220
0.0
230
1.0
 70
    11
 71
     3
 72
    17
 73
    13
 74
     0
 42
0.0000000001
 43
0.0000000001
 12
1.0
 22
0.0
 32
0.0
 13
1.0
 23
0.0
 33
0.0
 40
0.0
 40
0.0
 40
0.0
 40
0.0
 40
1.0
 40
1.0
 40
1.0
 40
2.0
 40
2.0
 40
2.0
 40
3.0
 40
3.0
 40
3.0
 40
4.0
 40
4.0
 40
4.0
 40
4.0
 10
97.17754002079441
 20
-128.0128602457747
 30
0.0
 10
97.17754002079441
 20
-127.9577210791216
 30
0.0
 10
97.13273724415964
 20
-127.912953579133
 30
0.0
 10
97.07763335667657
 20
-127.912953579133
 30
0.0
 10
97.02249419141663
 20
-127.912953579133
 30
0.0
 10
96.97772669255873
 20
-127.9577210791216
 30
0.0
 10
96.97772669255873
 20
-128.0128602457747
 30
0.0
 10
96.97772669255873
 20
-128.0683169124273
 30
0.0
 10
97.02249419141663
 20
-128.1131196901941
 30
0.0
 10
97.07763335667657
 20
-128.1131196901941
 30
0.0
 10
97.13273724415964
 20
-128.1131196901941
 30
0.0
 10
97.17754002079441
 20
-128.0683169124273
 30
0.0
 10
97.17754002079441
 20
-128.0128602457747
 30
0.0
  0
SPLINE
  5
BC
330
1F
100
AcDbEntity
  8
_U+30EC_U+30A4_U+30E4_U+30FC 1
 62
     7
420
 16777215
370
     9
100
AcDbSpline
210
0.0
220
0.0
230
1.0
 70
    11
 71
     3
 72
    17
 73
    13
 74
     0
 42
0.0000000001
 43
0.0000000001
 12
1.0
 22
0.0
 32
0.0
 13
1.0
 23
0.0
 33
0.0
 40
0.0
 40
0.0
 40
0.0
 40
0.0
 40
1.0
 40
1.0
 40
1.0
 40
2.0
 40
2.0
 40
2.0
 40
3.0
 40
3.0
 40
3.0
 40
4.0
 40
4.0
 40
4.0
 40
4.0
 10
97.17754002079441
 20
-121.0127613586357
 30
0.0
 10
97.17754002079441
 20
-120.9576574697604
 30
0.0
 10
97.13273724415964
 20
-120.912854691994
 30
0.0
 10
97.07763335667657
 20
-120.912854691994
 30
0.0
 10
97.02249419141663
 20
-120.912854691994
 30
0.0
 10
96.97772669255873
 20
-120.9576574697604
 30
0.0
 10
96.97772669255873
 20
-121.0127613586357
 30
0.0
 10
96.97772669255873
 20
-121.0679005252884
 30
0.0
 10
97.02249419141663
 20
-121.1126680252773
 30
0.0
 10
97.07763335667657
 20
-121.1126680252773
 30
0.0
 10
97.13273724415964
 20
-121.1126680252773
 30
0.0
 10
97.17754002079441
 20
-121.0679005252884
 30
0.0
 10
97.17754002079441
 20
-121.0127613586357
 30
0.0
  0
POLYLINE
  5
BD
330
1F
100
AcDbEntity
  8
_U+30EC_U+30A4_U+30E4_U+30FC 1
 62
     7
420
 16777215
370
     9
100
AcDb2dPolyline
 66
     1
 10
0.0
 20
0.0
 30
0.0
  0
VERTEX
  5
BE
330
BD
100
AcDbEntity
  8
_U+30EC_U+30A4_U+30E4_U+30FC 1
 62
     7
420
 16777215
370
     9
100
AcDbVertex
100
AcDb2dVertex
 10
81.66547819431786
 20
-125.2471530242436
 30
0.0
  0
VERTEX
  5
BF
330
BD
100
AcDbEntity
  8
_U+30EC_U+30A4_U+30E4_U+30FC 1
 62
     7
420
 16777215
370
     9
100
AcDbVertex
100
AcDb2dVertex
 10
85.43579059812917
 20
-125.2471530242436
 30
0.0
  0
SEQEND
  5
C0
330
BD
100
AcDbEntity
  8
_U+30EC_U+30A4_U+30E4_U+30FC 1
 62
     7
420
 16777215
370
     9
  0
POLYLINE
  5
C1
330
1F
100
AcDbEntity
  8
_U+30EC_U+30A4_U+30E4_U+30FC 1
 62
     7
420
 16777215
370
     9
100
AcDb2dPolyline
 66
     1
 10
0.0
 20
0.0
 30
0.0
  0
VERTEX
  5
C2
330
C1
100
AcDbEntity
  8
_U+30EC_U+30A4_U+30E4_U+30FC 1
 62
     7
420
 16777215
370
     9
100
AcDbVertex
100
AcDb2dVertex
 10
79.66526352312536
 20
-125.2471530242436
 30
0.0
  0
VERTEX
  5
C3
330
C1
100
AcDbEntity
  8
_U+30EC_U+30A4_U+30E4_U+30FC 1
 62
     7
420
 16777215
370
     9
100
AcDbVertex
100
AcDb2dVertex
 10
81.66547819431786
 20
-125.2471530242436
 30
0.0
  0
SEQEND
  5
C4
330
C1
100
AcDbEntity
  8
_U+30EC_U+30A4_U+30E4_U+30FC 1
 62
     7
420
 16777215
370
     9
  0
INSERT
  5
C6
330
1F
100
AcDbEntity
  8
_U+30EC_U+30A4_U+30E4_U+30FC 1
100
AcDbBlockReference
  2
block 3
 10
0.0
 20
0.0
 30
0.0
  0
POLYLINE
  5
CB
330
1F
100
AcDbEntity
  8
_U+30EC_U+30A4_U+30E4_U+30FC 1
 62
     7
420
 16777215
370
     9
100
AcDb2dPolyline
 66
     1
 10
0.0
 20
0.0
 30
0.0
  0
VERTEX
  5
CC
330
CB
100
AcDbEntity
  8
_U+30EC_U+30A4_U+30E4_U+30FC 1
 62
     7
420
 16777215
370
     9
100
AcDbVertex
100
AcDb2dVertex
 10
80.6650004420644
 20
-139.5129219095661
 30
0.0
  0
VERTEX
  5
CD
330
CB
100
AcDbEntity
  8
_U+30EC_U+30A4_U+30E4_U+30FC 1
 62
     7
420
 16777215
370
     9
100
AcDbVertex
100
AcDb2dVertex
 10
94.66502147378299
 20
-139.5129219095661
 30
0.0
  0
SEQEND
  5
CE
330
CB
100
AcDbEntity
  8
_U+30EC_U+30A4_U+30E4_U+30FC 1
 62
     7
420
 16777215
370
     9
  0
POLYLINE
  5
CF
330
1F
100
AcDbEntity
  8
_U+30EC_U+30A4_U+30E4_U+30FC 1
 62
     7
420
 16777215
370
     9
100
AcDb2dPolyline
 66
     1
 10
0.0
 20
0.0
 30
0.0
  0
VERTEX
  5
D0
330
CF
100
AcDbEntity
  8
_U+30EC_U+30A4_U+30E4_U+30FC 1
 62
     7
420
 16777215
370
     9
100
AcDbVertex
100
AcDb2dVertex
 10
80.6650004420644
 20
-137.0527907990702
 30
0.0
  0
VERTEX
  5
D1
330
CF
100
AcDbEntity
  8
_U+30EC_U+30A4_U+30E4_U+30FC 1
 62
     7
420
 16777215
370
     9
100
AcDbVertex
100
AcDb2dVertex
 10
80.6650004420644
 20
-140.5130469093164
 30
0.0
  0
SEQEND
  5
D2
330
CF
100
AcDbEntity
  8
_U+30EC_U+30A4_U+30E4_U+30FC 1
 62
     7
420
 16777215
370
     9
  0
POLYLINE
  5
D3
330
1F
100
AcDbEntity
  8
_U+30EC_U+30A4_U+30E4_U+30FC 1
 62
     7
420
 16777215
370
     9
100
AcDb2dPolyline
 66
     1
 10
0.0
 20
0.0
 30
0.0
  0
VERTEX
  5
D4
330
D3
100
AcDbEntity
  8
_U+30EC_U+30A4_U+30E4_U+30FC 1
 62
     7
420
 16777215
370
     9
100
AcDbVertex
100
AcDb2dVertex
 10
94.56511480966515
 20
-137.0527907990702
 30
0.0
  0
VERTEX
  5
D5
330
D3
100
AcDbEntity
  8
_U+30EC_U+30A4_U+30E4_U+30FC 1
 62
     7
420
 16777215
370
     9
100
AcDbVertex
100
AcDb2dVertex
 10
94.56511480966515
 20
-140.5130469093164
 30
0.0
  0
SEQEND
  5
D6
330
D3
100
AcDbEntity
  8
_U+30EC_U+30A4_U+30E4_U+30FC 1
 62
     7
420
 16777215
370
     9
  0
INSERT
  5
D8
330
1F
100
AcDbEntity
  8
_U+30EC_U+30A4_U+30E4_U+30FC 1
100
AcDbBlockReference
  2
block 4
 10
0.0
 20
0.0
 30
0.0
  0
SPLINE
  5
F2
330
1F
100
AcDbEntity
  8
_U+30EC_U+30A4_U+30E4_U+30FC 1
 62
     7
420
 16777215
370
     9
100
AcDbSpline
210
0.0
220
0.0
230
1.0
 70
    11
 71
     3
 72
    17
 73
    13
 74
     0
 42
0.0000000001
 43
0.0000000001
 12
1.0
 22
0.0
 32
0.0
 13
1.0
 23
0.0
 33
0.0
 40
0.0
 40
0.0
 40
0.0
 40
0.0
 40
1.0
 40
1.0
 40
1.0
 40
2.0
 40
2.0
 40
2.0
 40
3.0
 40
3.0
 40
3.0
 40
4.0
 40
4.0
 40
4.0
 40
4.0
 10
87.86526525837033
 20
-118.9928969146963
 30
0.0
 10
87.86526525837033
 20
-118.9377930258211
 30
0.0
 10
87.82046248173556
 20
-118.8929902480547
 30
0.0
 10
87.76535859425249
 20
-118.8929902480547
 30
0.0
 10
87.71021942899254
 20
-118.8929902480547
 30
0.0
 10
87.66545193013467
 20
-118.9377930258211
 30
0.0
 10
87.66545193013467
 20
-118.9928969146963
 30
0.0
 10
87.66545193013467
 20
-119.0480360813491
 30
0.0
 10
87.71021942899254
 20
-119.0928035813379
 30
0.0
 10
87.76535859425249
 20
-119.0928035813379
 30
0.0
 10
87.82046248173556
 20
-119.0928035813379
 30
0.0
 10
87.86526525837033
 20
-119.0480360813491
 30
0.0
 10
87.86526525837033
 20
-118.9928969146963
 30
0.0
  0
SPLINE
  5
F3
330
1F
100
AcDbEntity
  8
_U+30EC_U+30A4_U+30E4_U+30FC 1
 62
     7
420
 16777215
370
     9
100
AcDbSpline
210
0.0
220
0.0
230
1.0
 70
    11
 71
     3
 72
    17
 73
    13
 74
     0
 42
0.0000000001
 43
0.0000000001
 12
1.0
 22
0.0
 32
0.0
 13
1.0
 23
0.0
 33
0.0
 40
0.0
 40
0.0
 40
0.0
 40
0.0
 40
1.0
 40
1.0
 40
1.0
 40
2.0
 40
2.0
 40
2.0
 40
3.0
 40
3.0
 40
3.0
 40
4.0
 40
4.0
 40
4.0
 40
4.0
 10
81.86529152255352
 20
-118.9928969146963
 30
0.0
 10
81.86529152255352
 20
-118.9377930258211
 30
0.0
 10
81.82048874591877
 20
-118.8929902480547
 30
0.0
 10
81.7653848584357
 20
-118.8929902480547
 30
0.0
 10
81.71024569317574
 20
-118.8929902480547
 30
0.0
 10
81.66547819431786
 20
-118.9377930258211
 30
0.0
 10
81.66547819431786
 20
-118.9928969146963
 30
0.0
 10
81.66547819431786
 20
-119.0480360813491
 30
0.0
 10
81.71024569317574
 20
-119.0928035813379
 30
0.0
 10
81.7653848584357
 20
-119.0928035813379
 30
0.0
 10
81.82048874591877
 20
-119.0928035813379
 30
0.0
 10
81.86529152255352
 20
-119.0480360813491
 30
0.0
 10
81.86529152255352
 20
-118.9928969146963
 30
0.0
  0
POLYLINE
  5
F4
330
1F
100
AcDbEntity
  8
_U+30EC_U+30A4_U+30E4_U+30FC 1
 62
     7
420
 16777215
370
     9
100
AcDb2dPolyline
 66
     1
 10
0.0
 20
0.0
 30
0.0
  0
VERTEX
  5
F5
330
F4
100
AcDbEntity
  8
_U+30EC_U+30A4_U+30E4_U+30FC 1
 62
     7
420
 16777215
370
     9
100
AcDbVertex
100
AcDb2dVertex
 10
81.7653848584357
 20
-118.9928969146963
 30
0.0
  0
VERTEX
  5
F6
330
F4
100
AcDbEntity
  8
_U+30EC_U+30A4_U+30E4_U+30FC 1
 62
     7
420
 16777215
370
     9
100
AcDbVertex
100
AcDb2dVertex
 10
87.76535859425249
 20
-118.9928969146963
 30
0.0
  0
SEQEND
  5
F7
330
F4
100
AcDbEntity
  8
_U+30EC_U+30A4_U+30E4_U+30FC 1
 62
     7
420
 16777215
370
     9
  0
POLYLINE
  5
F8
330
1F
100
AcDbEntity
  8
_U+30EC_U+30A4_U+30E4_U+30FC 1
 62
     7
420
 16777215
370
     9
100
AcDb2dPolyline
 66
     1
 10
0.0
 20
0.0
 30
0.0
  0
VERTEX
  5
F9
330
F8
100
AcDbEntity
  8
_U+30EC_U+30A4_U+30E4_U+30FC 1
 62
     7
420
 16777215
370
     9
100
AcDbVertex
100
AcDb2dVertex
 10
81.7653848584357
 20
-117.5328908039501
 30
0.0
  0
VERTEX
  5
FA
330
F8
100
AcDbEntity
  8
_U+30EC_U+30A4_U+30E4_U+30FC 1
 62
     7
420
 16777215
370
     9
100
AcDbVertex
100
AcDb2dVertex
 10
81.7653848584357
 20
-119.9930219144463
 30
0.0
  0
SEQEND
  5
FB
330
F8
100
AcDbEntity
  8
_U+30EC_U+30A4_U+30E4_U+30FC 1
 62
     7
420
 16777215
370
     9
  0
POLYLINE
  5
FC
330
1F
100
AcDbEntity
  8
_U+30EC_U+30A4_U+30E4_U+30FC 1
 62
     7
420
 16777215
370
     9
100
AcDb2dPolyline
 66
     1
 10
0.0
 20
0.0
 30
0.0
  0
VERTEX
  5
FD
330
FC
100
AcDbEntity
  8
_U+30EC_U+30A4_U+30E4_U+30FC 1
 62
     7
420
 16777215
370
     9
100
AcDbVertex
100
AcDb2dVertex
 10
87.76535859425249
 20
-117.5328908039501
 30
0.0
  0
VERTEX
  5
FE
330
FC
100
AcDbEntity
  8
_U+30EC_U+30A4_U+30E4_U+30FC 1
 62
     7
420
 16777215
370
     9
100
AcDbVertex
100
AcDb2dVertex
 10
87.76535859425249
 20
-119.9930219144463
 30
0.0
  0
SEQEND
  5
FF
330
FC
100
AcDbEntity
  8
_U+30EC_U+30A4_U+30E4_U+30FC 1
 62
     7
420
 16777215
370
     9
  0
INSERT
  5
101
330
1F
100
AcDbEntity
  8
_U+30EC_U+30A4_U+30E4_U+30FC 1
100
AcDbBlockReference
  2
block 5
 10
0.0
 20
0.0
 30
0.0
  0
POLYLINE
  5
107
330
1F
100
AcDbEntity
  8
_U+30EC_U+30A4_U+30E4_U+30FC 1
 62
     7
420
 16777215
370
     9
100
AcDb2dPolyline
 66
     1
 10
0.0
 20
0.0
 30
0.0
  0
VERTEX
  5
108
330
107
100
AcDbEntity
  8
_U+30EC_U+30A4_U+30E4_U+30FC 1
 62
     7
420
 16777215
370
     9
100
AcDbVertex
100
AcDb2dVertex
 10
76.66524137744008
 20
-135.5128452438996
 30
0.0
  0
VERTEX
  5
109
330
107
100
AcDbEntity
  8
_U+30EC_U+30A4_U+30E4_U+30FC 1
 62
     7
420
 16777215
370
     9
100
AcDbVertex
100
AcDb2dVertex
 10
76.66524137744008
 20
-121.0127613586357
 30
0.0
  0
SEQEND
  5
10A
330
107
100
AcDbEntity
  8
_U+30EC_U+30A4_U+30E4_U+30FC 1
 62
     7
420
 16777215
370
     9
  0
POLYLINE
  5
10B
330
1F
100
AcDbEntity
  8
_U+30EC_U+30A4_U+30E4_U+30FC 1
 62
     7
420
 16777215
370
     9
100
AcDb2dPolyline
 66
     1
 10
0.0
 20
0.0
 30
0.0
  0
VERTEX
  5
10C
330
10B
100
AcDbEntity
  8
_U+30EC_U+30A4_U+30E4_U+30FC 1
 62
     7
420
 16777215
370
     9
100
AcDbVertex
100
AcDb2dVertex
 10
79.12505492579612
 20
-135.5128452438996
 30
0.0
  0
VERTEX
  5
10D
330
10B
100
AcDbEntity
  8
_U+30EC_U+30A4_U+30E4_U+30FC 1
 62
     7
420
 16777215
370
     9
100
AcDbVertex
100
AcDb2dVertex
 10
75.66550445850105
 20
-135.5128452438996
 30
0.0
  0
SEQEND
  5
10E
330
10B
100
AcDbEntity
  8
_U+30EC_U+30A4_U+30E4_U+30FC 1
 62
     7
420
 16777215
370
     9
  0
POLYLINE
  5
10F
330
1F
100
AcDbEntity
  8
_U+30EC_U+30A4_U+30E4_U+30FC 1
 62
     7
420
 16777215
370
     9
100
AcDb2dPolyline
 66
     1
 10
0.0
 20
0.0
 30
0.0
  0
VERTEX
  5
110
330
10F
100
AcDbEntity
  8
_U+30EC_U+30A4_U+30E4_U+30FC 1
 62
     7
420
 16777215
370
     9
100
AcDbVertex
100
AcDb2dVertex
 10
78.12528272908021
 20
-121.0127613586357
 30
0.0
  0
VERTEX
  5
111
330
10F
100
AcDbEntity
  8
_U+30EC_U+30A4_U+30E4_U+30FC 1
 62
     7
420
 16777215
370
     9
100
AcDbVertex
100
AcDb2dVertex
 10
75.66550445850105
 20
-121.0127613586357
 30
0.0
  0
SEQEND
  5
112
330
10F
100
AcDbEntity
  8
_U+30EC_U+30A4_U+30E4_U+30FC 1
 62
     7
420
 16777215
370
     9
  0
INSERT
  5
114
330
1F
100
AcDbEntity
  8
_U+30EC_U+30A4_U+30E4_U+30FC 1
100
AcDbBlockReference
  2
block 6
 10
0.0
 20
0.0
 30
0.0
  0
POLYLINE
  5
138
330
1F
100
AcDbEntity
  8
_U+30EC_U+30A4_U+30E4_U+30FC 1
 62
     7
420
 16777215
370
     9
100
AcDb2dPolyline
 66
     1
 10
0.0
 20
0.0
 30
0.0
  0
VERTEX
  5
139
330
138
100
AcDbEntity
  8
_U+30EC_U+30A4_U+30E4_U+30FC 1
 62
     7
420
 16777215
370
     9
100
AcDbVertex
100
AcDb2dVertex
 10
97.07763335667657
 20
-134.5127202441493
 30
0.0
  0
VERTEX
  5
13A
330
138
100
AcDbEntity
  8
_U+30EC_U+30A4_U+30E4_U+30FC 1
 62
     7
420
 16777215
370
     9
100
AcDbVertex
100
AcDb2dVertex
 10
97.07763335667657
 20
-128.0128602457747
 30
0.0
  0
SEQEND
  5
13B
330
138
100
AcDbEntity
  8
_U+30EC_U+30A4_U+30E4_U+30FC 1
 62
     7
420
 16777215
370
     9
  0
POLYLINE
  5
13C
330
1F
100
AcDbEntity
  8
_U+30EC_U+30A4_U+30E4_U+30FC 1
 62
     7
420
 16777215
370
     9
100
AcDb2dPolyline
 66
     1
 10
0.0
 20
0.0
 30
0.0
  0
VERTEX
  5
13D
330
13C
100
AcDbEntity
  8
_U+30EC_U+30A4_U+30E4_U+30FC 1
 62
     7
420
 16777215
370
     9
100
AcDbVertex
100
AcDb2dVertex
 10
90.61721407705116
 20
-134.5127202441493
 30
0.0
  0
VERTEX
  5
13E
330
13C
100
AcDbEntity
  8
_U+30EC_U+30A4_U+30E4_U+30FC 1
 62
     7
420
 16777215
370
     9
100
AcDbVertex
100
AcDb2dVertex
 10
98.0770527756237
 20
-134.5127202441493
 30
0.0
  0
SEQEND
  5
13F
330
13C
100
AcDbEntity
  8
_U+30EC_U+30A4_U+30E4_U+30FC 1
 62
     7
420
 16777215
370
     9
  0
POLYLINE
  5
140
330
1F
100
AcDbEntity
  8
_U+30EC_U+30A4_U+30E4_U+30FC 1
 62
     7
420
 16777215
370
     9
100
AcDb2dPolyline
 66
     1
 10
0.0
 20
0.0
 30
0.0
  0
VERTEX
  5
141
330
140
100
AcDbEntity
  8
_U+30EC_U+30A4_U+30E4_U+30FC 1
 62
     7
420
 16777215
370
     9
100
AcDbVertex
100
AcDb2dVertex
 10
90.61721407705116
 20
-128.0128602457747
 30
0.0
  0
VERTEX
  5
142
330
140
100
AcDbEntity
  8
_U+30EC_U+30A4_U+30E4_U+30FC 1
 62
     7
420
 16777215
370
     9
100
AcDbVertex
100
AcDb2dVertex
 10
98.0770527756237
 20
-128.0128602457747
 30
0.0
  0
SEQEND
  5
143
330
140
100
AcDbEntity
  8
_U+30EC_U+30A4_U+30E4_U+30FC 1
 62
     7
420
 16777215
370
     9
  0
SPLINE
  5
144
330
1F
100
AcDbEntity
  8
_U+30EC_U+30A4_U+30E4_U+30FC 1
 62
     7
420
 16777215
370
     9
100
AcDbSpline
210
0.0
220
0.0
230
1.0
 70
    11
 71
     3
 72
    17
 73
    13
 74
     0
 42
0.0000000001
 43
0.0000000001
 12
1.0
 22
0.0
 32
0.0
 13
1.0
 23
0.0
 33
0.0
 40
0.0
 40
0.0
 40
0.0
 40
0.0
 40
1.0
 40
1.0
 40
1.0
 40
2.0
 40
2.0
 40
2.0
 40
3.0
 40
3.0
 40
3.0
 40
4.0
 40
4.0
 40
4.0
 40
4.0
 10
97.17754002079441
 20
-126.9125110793831
 30
0.0
 10
97.17754002079441
 20
-126.8573719127301
 30
0.0
 10
97.13273724415964
 20
-126.8126044127412
 30
0.0
 10
97.07763335667657
 20
-126.8126044127412
 30
0.0
 10
97.02249419141663
 20
-126.8126044127412
 30
0.0
 10
96.97772669255873
 20
-126.8573719127301
 30
0.0
 10
96.97772669255873
 20
-126.9125110793831
 30
0.0
 10
96.97772669255873
 20
-126.9679677460358
 30
0.0
 10
97.02249419141663
 20
-127.0127352460247
 30
0.0
 10
97.07763335667657
 20
-127.0127352460247
 30
0.0
 10
97.13273724415964
 20
-127.0127352460247
 30
0.0
 10
97.17754002079441
 20
-126.9679677460358
 30
0.0
 10
97.17754002079441
 20
-126.9125110793831
 30
0.0
  0
POLYLINE
  5
145
330
1F
100
AcDbEntity
  8
_U+30EC_U+30A4_U+30E4_U+30FC 1
 62
     7
420
 16777215
370
     9
100
AcDb2dPolyline
 66
     1
 10
0.0
 20
0.0
 30
0.0
  0
VERTEX
  5
146
330
145
100
AcDbEntity
  8
_U+30EC_U+30A4_U+30E4_U+30FC 1
 62
     7
420
 16777215
370
     9
100
AcDbVertex
100
AcDb2dVertex
 10
90.61721407705116
 20
-126.9125110793831
 30
0.0
  0
VERTEX
  5
147
330
145
100
AcDbEntity
  8
_U+30EC_U+30A4_U+30E4_U+30FC 1
 62
     7
420
 16777215
370
     9
100
AcDbVertex
100
AcDb2dVertex
 10
98.0770527756237
 20
-126.9125110793831
 30
0.0
  0
SEQEND
  5
148
330
145
100
AcDbEntity
  8
_U+30EC_U+30A4_U+30E4_U+30FC 1
 62
     7
420
 16777215
370
     9
  0
INSERT
  5
14A
330
1F
100
AcDbEntity
  8
_U+30EC_U+30A4_U+30E4_U+30FC 1
100
AcDbBlockReference
  2
block 7
 10
0.0
 20
0.0
 30
0.0
  0
POLYLINE
  5
15A
330
1F
100
AcDbEntity
  8
_U+30EC_U+30A4_U+30E4_U+30FC 1
 62
     7
420
 16777215
370
     9
100
AcDb2dPolyline
 66
     1
 10
0.0
 20
0.0
 30
0.0
  0
VERTEX
  5
15B
330
15A
100
AcDbEntity
  8
_U+30EC_U+30A4_U+30E4_U+30FC 1
 62
     7
420
 16777215
370
     9
100
AcDbVertex
100
AcDb2dVertex
 10
97.07763335667657
 20
-128.0128602457747
 30
0.0
  0
VERTEX
  5
15C
330
15A
100
AcDbEntity
  8
_U+30EC_U+30A4_U+30E4_U+30FC 1
 62
     7
420
 16777215
370
     9
100
AcDbVertex
100
AcDb2dVertex
 10
97.07763335667657
 20
-121.0127613586357
 30
0.0
  0
SEQEND
  5
15D
330
15A
100
AcDbEntity
  8
_U+30EC_U+30A4_U+30E4_U+30FC 1
 62
     7
420
 16777215
370
     9
  0
POLYLINE
  5
15E
330
1F
100
AcDbEntity
  8
_U+30EC_U+30A4_U+30E4_U+30FC 1
 62
     7
420
 16777215
370
     9
100
AcDb2dPolyline
 66
     1
 10
0.0
 20
0.0
 30
0.0
  0
VERTEX
  5
15F
330
15E
100
AcDbEntity
  8
_U+30EC_U+30A4_U+30E4_U+30FC 1
 62
     7
420
 16777215
370
     9
100
AcDbVertex
100
AcDb2dVertex
 10
90.61721407705116
 20
-121.0127613586357
 30
0.0
  0
VERTEX
  5
160
330
15E
100
AcDbEntity
  8
_U+30EC_U+30A4_U+30E4_U+30FC 1
 62
     7
420
 16777215
370
     9
100
AcDbVertex
100
AcDb2dVertex
 10
98.0770527756237
 20
-121.0127613586357
 30
0.0
  0
SEQEND
  5
161
330
15E
100
AcDbEntity
  8
_U+30EC_U+30A4_U+30E4_U+30FC 1
 62
     7
420
 16777215
370
     9
  0
INSERT
  5
163
330
1F
100
AcDbEntity
  8
_U+30EC_U+30A4_U+30E4_U+30FC 1
100
AcDbBlockReference
  2
block 8
 10
0.0
 20
0.0
 30
0.0
  0
ENDSEC
  0
SECTION
  2
OBJECTS
  0
DICTIONARY
  5
C
330
0
100
AcDbDictionary
281
     1
  3
ACAD_GROUP
350
D
  3
ACAD_LAYOUT
350
1A
  3
ACAD_MATERIAL
350
3B
  3
ACAD_MLEADERSTYLE
350
16A
  3
ACAD_MLINESTYLE
350
17
  3
ACAD_PLOTSETTINGS
350
19
  3
ACAD_PLOTSTYLENAME
350
E
  3
ACAD_TABLESTYLE
350
169
  3
ACAD_VISUALSTYLE
350
2A
  0
SUN
  5
3F
330
29
100
AcDbSun
 90
        1
290
     0
 63
     7
421
 16777215
 40
1.0
291
     1
 91
  2455826
 92
 54000000
292
     0
 70
     2
 71
   256
280
     1
  0
DICTIONARY
  5
D
102
{ACAD_REACTORS
330
C
102
}
330
C
100
AcDbDictionary
281
     1
  0
DICTIONARY
  5
1A
102
{ACAD_REACTORS
330
C
102
}
330
C
100
AcDbDictionary
281
     1
  3
Layout1
350
1E
  3
Layout2
350
26
  3
Model
350
22
  0
DICTIONARY
  5
3B
102
{ACAD_REACTORS
330
C
102
}
330
C
100
AcDbDictionary
281
     1
  3
ByBlock
350
3D
  3
ByLayer
350
3C
  3
Global
350
3E
  0
DICTIONARY
  5
16A
102
{ACAD_REACTORS
330
C
102
}
330
C
100
AcDbDictionary
281
     1
  0
DICTIONARY
  5
17
102
{ACAD_REACTORS
330
C
102
}
330
C
100
AcDbDictionary
281
     1
  3
Standard
350
18
  0
DICTIONARY
  5
19
102
{ACAD_REACTORS
330
C
102
}
330
C
100
AcDbDictionary
281
     1
  0
ACDBDICTIONARYWDFLT
  5
E
102
{ACAD_REACTORS
330
C
102
}
330
C
100
AcDbDictionary
281
     1
  3
Normal
350
F
100
AcDbDictionaryWithDefault
340
F
  0
DICTIONARY
  5
169
102
{ACAD_REACTORS
330
C
102
}
330
C
100
AcDbDictionary
281
     1
  0
DICTIONARY
  5
2A
102
{ACAD_REACTORS
330
C
102
}
330
C
100
AcDbDictionary
281
     1
  3
2dWireframe
350
2F
  3
3D Hidden
350
31
  3
3dWireframe
350
30
  3
Basic
350
32
  3
Brighten
350
36
  3
ColorChange
350
3A
  3
Conceptual
350
34
  3
Dim
350
35
  3
Facepattern
350
39
  3
Flat
350
2B
  3
FlatWithEdges
350
2C
  3
Gouraud
350
2D
  3
GouraudWithEdges
350
2E
  3
Linepattern
350
38
  3
Realistic
350
33
  3
Thicken
350
37
  0
LAYOUT
  5
1E
102
{ACAD_REACTORS
330
1A
102
}
330
1A
100
AcDbPlotSettings
  1

  2
none_device
  4

  6

 40
0.0
 41
0.0
 42
0.0
 43
0.0
 44
0.0
 45
0.0
 46
0.0
 47
0.0
 48
0.0
 49
0.0
140
0.0
141
0.0
142
1.0
143
1.0
 70
   688
 72
     0
 73
     0
 74
     5
  7

 75
    16
 76
     0
 77
     2
 78
   300
147
1.0
148
0.0
149
0.0
100
AcDbLayout
  1
Layout1
 70
     1
 71
     1
 10
0.0
 20
0.0
 11
12.0
 21
9.0
 12
0.0
 22
0.0
 32
0.0
 14
1.000000000000000E+20
 24
1.000000000000000E+20
 34
1.000000000000000E+20
 15
-1.000000000000000E+20
 25
-1.000000000000000E+20
 35
-1.000000000000000E+20
146
0.0
 13
0.0
 23
0.0
 33
0.0
 16
1.0
 26
0.0
 36
0.0
 17
0.0
 27
1.0
 37
0.0
 76
     0
330
1B
  0
LAYOUT
  5
26
102
{ACAD_REACTORS
330
1A
102
}
330
1A
100
AcDbPlotSettings
  1

  2
none_device
  4

  6

 40
0.0
 41
0.0
 42
0.0
 43
0.0
 44
0.0
 45
0.0
 46
0.0
 47
0.0
 48
0.0
 49
0.0
140
0.0
141
0.0
142
1.0
143
1.0
 70
   688
 72
     0
 73
     0
 74
     5
  7

 75
    16
 76
     0
 77
     2
 78
   300
147
1.0
148
0.0
149
0.0
100
AcDbLayout
  1
Layout2
 70
     1
 71
     2
 10
0.0
 20
0.0
 11
0.0
 21
0.0
 12
0.0
 22
0.0
 32
0.0
 14
0.0
 24
0.0
 34
0.0
 15
0.0
 25
0.0
 35
0.0
146
0.0
 13
0.0
 23
0.0
 33
0.0
 16
1.0
 26
0.0
 36
0.0
 17
0.0
 27
1.0
 37
0.0
 76
     0
330
23
  0
LAYOUT
  5
22
102
{ACAD_REACTORS
330
1A
102
}
330
1A
100
AcDbPlotSettings
  1

  2
none_device
  4

  6

 40
0.0
 41
0.0
 42
0.0
 43
0.0
 44
0.0
 45
0.0
 46
0.0
 47
0.0
 48
0.0
 49
0.0
140
0.0
141
0.0
142
1.0
143
1.0
 70
  1712
 72
     0
 73
     0
 74
     0
  7

 75
     0
 76
     0
 77
     2
 78
   300
147
1.0
148
0.0
149
0.0
100
AcDbLayout
  1
Model
 70
     1
 71
     0
 10
0.0
 20
0.0
 11
12.0
 21
9.0
 12
0.0
 22
0.0
 32
0.0
 14
1.000000000000000E+20
 24
1.000000000000000E+20
 34
1.000000000000000E+20
 15
-1.000000000000000E+20
 25
-1.000000000000000E+20
 35
-1.000000000000000E+20
146
0.0
 13
0.0
 23
0.0
 33
0.0
 16
1.0
 26
0.0
 36
0.0
 17
0.0
 27
1.0
 37
0.0
 76
     0
330
1F
331
29
  0
MATERIAL
  5
3D
102
{ACAD_REACTORS
330
3B
102
}
330
3B
100
AcDbMaterial
  1
ByBlock
 72
     1
 94
      127
  0
MATERIAL
  5
3C
102
{ACAD_REACTORS
330
3B
102
}
330
3B
100
AcDbMaterial
  1
ByLayer
 72
     1
 94
      127
  0
MATERIAL
  5
3E
102
{ACAD_REACTORS
330
3B
102
}
330
3B
100
AcDbMaterial
  1
Global
 72
     1
 94
      127
  0
MLINESTYLE
  5
18
102
{ACAD_REACTORS
330
17
102
}
330
17
100
AcDbMlineStyle
  2
Standard
 70
     0
  3

 62
   256
 51
90.0
 52
90.0
 71
     2
 49
0.5
 62
   256
  6
BYLAYER
 49
-0.5
 62
   256
  6
BYLAYER
  0
ACDBPLACEHOLDER
  5
F
102
{ACAD_REACTORS
330
E
102
}
330
E
  0
VISUALSTYLE
  5
2F
102
{ACAD_REACTORS
330
2A
102
}
330
2A
100
AcDbVisualStyle
  2
2dWireframe
 70
     4
177
     2
291
     0
 71
     0
176
     1
 72
     2
176
     1
 73
     0
176
     1
 90
        0
176
     1
 40
-0.6
176
     1
 41
-30.0
176
     1
 62
     5
 63
     7
421
 16777215
176
     1
 74
     1
176
     1
 91
        4
176
     1
 64
     7
176
     1
 65
   257
176
     1
 75
     1
176
     1
175
     1
176
     1
 42
1.0
176
     1
 92
        0
176
     1
 66
   257
176
     1
 43
1.0
176
     1
 76
     1
176
     1
 77
     6
176
     1
 78
     2
176
     1
 67
     7
176
     1
 79
     5
176
     1
170
     0
176
     1
171
     0
176
     1
290
     0
176
     1
 93
        1
176
     1
 44
0.0
176
     1
173
     0
176
     1
  0
VISUALSTYLE
  5
31
102
{ACAD_REACTORS
330
2A
102
}
330
2A
100
AcDbVisualStyle
  2
3D Hidden
 70
     6
177
     2
291
     0
 71
     1
176
     1
 72
     2
176
     1
 73
     2
176
     1
 90
        0
176
     1
 40
-0.6
176
     1
 41
-30.0
176
     1
 62
     5
 63
     7
421
 16777215
176
     1
 74
     2
176
     1
 91
        2
176
     1
 64
     7
176
     1
 65
   257
176
     1
 75
     2
176
     1
175
     1
176
     1
 42
40.0
176
     1
 92
        0
176
     1
 66
   257
176
     1
 43
1.0
176
     1
 76
     1
176
     1
 77
     6
176
     1
 78
     2
176
     1
 67
     7
176
     1
 79
     3
176
     1
170
     0
176
     1
171
     0
176
     1
290
     0
176
     1
 93
        1
176
     1
 44
0.0
176
     1
173
     0
176
     1
  0
VISUALSTYLE
  5
30
102
{ACAD_REACTORS
330
2A
102
}
330
2A
100
AcDbVisualStyle
  2
3dWireframe
 70
     5
177
     2
291
     0
 71
     0
176
     1
 72
     2
176
     1
 73
     0
176
     1
 90
        0
176
     1
 40
-0.6
176
     1
 41
-30.0
176
     1
 62
     5
 63
     7
421
 16777215
176
     1
 74
     1
176
     1
 91
        4
176
     1
 64
     7
176
     1
 65
   257
176
     1
 75
     1
176
     1
175
     1
176
     1
 42
1.0
176
     1
 92
        0
176
     1
 66
   257
176
     1
 43
1.0
176
     1
 76
     1
176
     1
 77
     6
176
     1
 78
     2
176
     1
 67
     7
176
     1
 79
     5
176
     1
170
     0
176
     1
171
     0
176
     1
290
     0
176
     1
 93
        1
176
     1
 44
0.0
176
     1
173
     0
176
     1
  0
VISUALSTYLE
  5
32
102
{ACAD_REACTORS
330
2A
102
}
330
2A
100
AcDbVisualStyle
  2
Basic
 70
     7
177
     2
291
     1
 71
     1
176
     1
 72
     0
176
     1
 73
     1
176
     1
 90
        0
176
     1
 40
-0.6
176
     1
 41
-30.0
176
     1
 62
     5
 63
     7
421
 16777215
176
     1
 74
     0
176
     1
 91
        4
176
     1
 64
     7
176
     1
 65
   257
176
     1
 75
     1
176
     1
175
     1
176
     1
 42
1.0
176
     1
 92
        8
176
     1
 66
     7
176
     1
 43
1.0
176
     1
 76
     1
176
     1
 77
     6
176
     1
 78
     2
176
     1
 67
     7
176
     1
 79
     5
176
     1
170
     0
176
     1
171
     0
176
     1
290
     0
176
     1
 93
        1
176
     1
 44
0.0
176
     1
173
     0
176
     1
  0
VISUALSTYLE
  5
36
102
{ACAD_REACTORS
330
2A
102
}
330
2A
100
AcDbVisualStyle
  2
Brighten
 70
    12
177
     2
291
     1
 71
     2
176
     1
 72
     2
176
     1
 73
     0
176
     1
 90
        0
176
     1
 40
-0.6
176
     1
 41
-30.0
176
     1
 62
     5
 63
     7
421
 16777215
176
     1
 74
     1
176
     1
 91
        4
176
     1
 64
     7
176
     1
 65
   257
176
     1
 75
     1
176
     1
175
     1
176
     1
 42
1.0
176
     1
 92
        8
176
     1
 66
     7
176
     1
 43
1.0
176
     1
 76
     1
176
     1
 77
     6
176
     1
 78
     2
176
     1
 67
     7
176
     1
 79
     5
176
     1
170
     0
176
     1
171
     0
176
     1
290
     0
176
     1
 93
        1
176
     1
 44
50.0
176
     1
173
     0
176
     1
  0
VISUALSTYLE
  5
3A
102
{ACAD_REACTORS
330
2A
102
}
330
2A
100
AcDbVisualStyle
  2
ColorChange
 70
    16
177
     2
291
     1
 71
     2
176
     1
 72
     2
176
     1
 73
     3
176
     1
 90
        0
176
     1
 40
-0.6
176
     1
 41
-30.0
176
     1
 62
     5
 63
     8
421
  8421504
176
     1
 74
     1
176
     1
 91
        4
176
     1
 64
     7
176
     1
 65
   257
176
     1
 75
     1
176
     1
175
     1
176
     1
 42
1.0
176
     1
 92
        8
176
     1
 66
     8
424
  8421504
176
     1
 43
1.0
176
     1
 76
     1
176
     1
 77
     6
176
     1
 78
     2
176
     1
 67
     7
176
     1
 79
     5
176
     1
170
     0
176
     1
171
     0
176
     1
290
     0
176
     1
 93
        1
176
     1
 44
0.0
176
     1
173
     0
176
     1
  0
VISUALSTYLE
  5
34
102
{ACAD_REACTORS
330
2A
102
}
330
2A
100
AcDbVisualStyle
  2
Conceptual
 70
     9
177
     2
291
     0
 71
     3
176
     1
 72
     2
176
     1
 73
     0
176
     1
 90
        0
176
     1
 40
-0.6
176
     1
 41
-30.0
176
     1
 62
     5
 63
     7
421
 16777215
176
     1
 74
     2
176
     1
 91
        2
176
     1
 64
     7
176
     1
 65
   257
176
     1
 75
     1
176
     1
175
     1
176
     1
 42
40.0
176
     1
 92
        8
176
     1
 66
     7
176
     1
 43
1.0
176
     1
 76
     1
176
     1
 77
     6
176
     1
 78
     2
176
     1
 67
     7
176
     1
 79
     3
176
     1
170
     0
176
     1
171
     0
176
     1
290
     0
176
     1
 93
        1
176
     1
 44
0.0
176
     1
173
     0
176
     1
  0
VISUALSTYLE
  5
35
102
{ACAD_REACTORS
330
2A
102
}
330
2A
100
AcDbVisualStyle
  2
Dim
 70
    11
177
     2
291
     1
 71
     2
176
     1
 72
     2
176
     1
 73
     0
176
     1
 90
        0
176
     1
 40
-0.6
176
     1
 41
-30.0
176
     1
 62
     5
 63
     7
421
 16777215
176
     1
 74
     1
176
     1
 91
        4
176
     1
 64
     7
176
     1
 65
   257
176
     1
 75
     1
176
     1
175
     1
176
     1
 42
1.0
176
     1
 92
        8
176
     1
 66
     7
176
     1
 43
1.0
176
     1
 76
     1
176
     1
 77
     6
176
     1
 78
     2
176
     1
 67
     7
176
     1
 79
     5
176
     1
170
     0
176
     1
171
     0
176
     1
290
     0
176
     1
 93
        1
176
     1
 44
-50.0
176
     1
173
     0
176
     1
  0
VISUALSTYLE
  5
39
102
{ACAD_REACTORS
330
2A
102
}
330
2A
100
AcDbVisualStyle
  2
Facepattern
 70
    15
177
     2
291
     1
 71
     2
176
     1
 72
     2
176
     1
 73
     0
176
     1
 90
        0
176
     1
 40
-0.6
176
     1
 41
-30.0
176
     1
 62
     5
 63
     7
421
 16777215
176
     1
 74
     1
176
     1
 91
        4
176
     1
 64
     7
176
     1
 65
   257
176
     1
 75
     1
176
     1
175
     1
176
     1
 42
1.0
176
     1
 92
        8
176
     1
 66
     7
176
     1
 43
1.0
176
     1
 76
     1
176
     1
 77
     6
176
     1
 78
     2
176
     1
 67
     7
176
     1
 79
     5
176
     1
170
     0
176
     1
171
     0
176
     1
290
     0
176
     1
 93
        1
176
     1
 44
0.0
176
     1
173
     0
176
     1
  0
VISUALSTYLE
  5
2B
102
{ACAD_REACTORS
330
2A
102
}
330
2A
100
AcDbVisualStyle
  2
Flat
 70
     0
177
     2
291
     1
 71
     2
176
     1
 72
     1
176
     1
 73
     1
176
     1
 90
        2
176
     1
 40
-0.6
176
     1
 41
30.0
176
     1
 62
     5
 63
     7
421
 16777215
176
     1
 74
     0
176
     1
 91
        4
176
     1
 64
     7
176
     1
 65
   257
176
     1
 75
     1
176
     1
175
     1
176
     1
 42
1.0
176
     1
 92
        8
176
     1
 66
     7
176
     1
 43
1.0
176
     1
 76
     1
176
     1
 77
     6
176
     1
 78
     2
176
     1
 67
     7
176
     1
 79
     5
176
     1
170
     0
176
     1
171
     0
176
     1
290
     0
176
     1
 93
       13
176
     1
 44
0.0
176
     1
173
     0
176
     1
  0
VISUALSTYLE
  5
2C
102
{ACAD_REACTORS
330
2A
102
}
330
2A
100
AcDbVisualStyle
  2
FlatWithEdges
 70
     1
177
     2
291
     1
 71
     2
176
     1
 72
     1
176
     1
 73
     1
176
     1
 90
        2
176
     1
 40
-0.6
176
     1
 41
30.0
176
     1
 62
     5
 63
     7
421
 16777215
176
     1
 74
     1
176
     1
 91
        4
176
     1
 64
     7
176
     1
 65
   257
176
     1
 75
     1
176
     1
175
     1
176
     1
 42
1.0
176
     1
 92
        0
176
     1
 66
   257
176
     1
 43
1.0
176
     1
 76
     1
176
     1
 77
     6
176
     1
 78
     2
176
     1
 67
     7
176
     1
 79
     5
176
     1
170
     0
176
     1
171
     0
176
     1
290
     0
176
     1
 93
       13
176
     1
 44
0.0
176
     1
173
     0
176
     1
  0
VISUALSTYLE
  5
2D
102
{ACAD_REACTORS
330
2A
102
}
330
2A
100
AcDbVisualStyle
  2
Gouraud
 70
     2
177
     2
291
     1
 71
     2
176
     1
 72
     2
176
     1
 73
     1
176
     1
 90
        2
176
     1
 40
-0.6
176
     1
 41
30.0
176
     1
 62
     5
 63
     7
421
 16777215
176
     1
 74
     0
176
     1
 91
        4
176
     1
 64
     7
176
     1
 65
   257
176
     1
 75
     1
176
     1
175
     1
176
     1
 42
1.0
176
     1
 92
        0
176
     1
 66
     7
176
     1
 43
1.0
176
     1
 76
     1
176
     1
 77
     6
176
     1
 78
     2
176
     1
 67
     7
176
     1
 79
     5
176
     1
170
     0
176
     1
171
     0
176
     1
290
     0
176
     1
 93
       13
176
     1
 44
0.0
176
     1
173
     0
176
     1
  0
VISUALSTYLE
  5
2E
102
{ACAD_REACTORS
330
2A
102
}
330
2A
100
AcDbVisualStyle
  2
GouraudWithEdges
 70
     3
177
     2
291
     1
 71
     2
176
     1
 72
     2
176
     1
 73
     1
176
     1
 90
        2
176
     1
 40
-0.6
176
     1
 41
30.0
176
     1
 62
     5
 63
     7
421
 16777215
176
     1
 74
     1
176
     1
 91
        4
176
     1
 64
     7
176
     1
 65
   257
176
     1
 75
     1
176
     1
175
     1
176
     1
 42
1.0
176
     1
 92
        0
176
     1
 66
   257
176
     1
 43
1.0
176
     1
 76
     1
176
     1
 77
     6
176
     1
 78
     2
176
     1
 67
     7
176
     1
 79
     5
176
     1
170
     0
176
     1
171
     0
176
     1
290
     0
176
     1
 93
       13
176
     1
 44
0.0
176
     1
173
     0
176
     1
  0
VISUALSTYLE
  5
38
102
{ACAD_REACTORS
330
2A
102
}
330
2A
100
AcDbVisualStyle
  2
Linepattern
 70
    14
177
     2
291
     1
 71
     2
176
     1
 72
     2
176
     1
 73
     0
176
     1
 90
        0
176
     1
 40
-0.6
176
     1
 41
-30.0
176
     1
 62
     5
 63
     7
421
 16777215
176
     1
 74
     1
176
     1
 91
        4
176
     1
 64
     7
176
     1
 65
   257
176
     1
 75
     7
176
     1
175
     7
176
     1
 42
1.0
176
     1
 92
        8
176
     1
 66
     7
176
     1
 43
1.0
176
     1
 76
     1
176
     1
 77
     6
176
     1
 78
     2
176
     1
 67
     7
176
     1
 79
     5
176
     1
170
     0
176
     1
171
     0
176
     1
290
     0
176
     1
 93
        1
176
     1
 44
0.0
176
     1
173
     0
176
     1
  0
VISUALSTYLE
  5
33
102
{ACAD_REACTORS
330
2A
102
}
330
2A
100
AcDbVisualStyle
  2
Realistic
 70
     8
177
     2
291
     0
 71
     2
176
     1
 72
     2
176
     1
 73
     0
176
     1
 90
        0
176
     1
 40
-0.6
176
     1
 41
-30.0
176
     1
 62
     5
 63
     7
421
 16777215
176
     1
 74
     1
176
     1
 91
        0
176
     1
 64
     7
176
     1
 65
   257
176
     1
 75
     1
176
     1
175
     1
176
     1
 42
1.0
176
     1
 92
        8
176
     1
 66
     8
424
  7895160
176
     1
 43
1.0
176
     1
 76
     1
176
     1
 77
     6
176
     1
 78
     2
176
     1
 67
     7
176
     1
 79
     5
176
     1
170
     0
176
     1
171
     0
176
     1
290
     0
176
     1
 93
       13
176
     1
 44
0.0
176
     1
173
     0
176
     1
  0
VISUALSTYLE
  5
37
102
{ACAD_REACTORS
330
2A
102
}
330
2A
100
AcDbVisualStyle
  2
Thicken
 70
    13
177
     2
291
     1
 71
     2
176
     1
 72
     2
176
     1
 73
     0
176
     1
 90
        0
176
     1
 40
-0.6
176
     1
 41
-30.0
176
     1
 62
     5
 63
     7
421
 16777215
176
     1
 74
     1
176
     1
 91
        4
176
     1
 64
     7
176
     1
 65
   257
176
     1
 75
     1
176
     1
175
     1
176
     1
 42
1.0
176
     1
 92
       12
176
     1
 66
     7
176
     1
 43
1.0
176
     1
 76
     1
176
     1
 77
     6
176
     1
 78
     2
176
     1
 67
     7
176
     1
 79
     5
176
     1
170
     0
176
     1
171
     0
176
     1
290
     0
176
     1
 93
        1
176
     1
 44
0.0
176
     1
173
     0
176
     1
  0
ENDSEC
  0
EOF
