  0
SECTION
  2
HEADER
  9
$ACADVER
  1
AC1024
  9
$ACADMAINTVER
 70
     6
  9
$DWGCODEPAGE
  3
UNDEFINED
  9
$INSBASE
 10
0.0
 20
0.0
 30
0.0
  9
$EXTMIN
 10
1.000000000000000E+20
 20
1.000000000000000E+20
 30
1.000000000000000E+20
  9
$EXTMAX
 10
-1.000000000000000E+20
 20
-1.000000000000000E+20
 30
-1.000000000000000E+20
  9
$LIMMIN
 10
0.0
 20
0.0
  9
$LIMMAX
 10
12.0
 20
9.0
  9
$ORTHOMODE
 70
     0
  9
$REGENMODE
 70
     1
  9
$FILLMODE
 70
     1
  9
$QTEXTMODE
 70
     0
  9
$MIRRTEXT
 70
     1
  9
$LTSCALE
 40
1.0
  9
$ATTMODE
 70
     1
  9
$TEXTSIZE
 40
0.2
  9
$TRACEWID
 40
0.05
  9
$TEXTSTYLE
  7
Standard
  9
$CLAYER
  8
0
  9
$CELTYPE
  6
ByLayer
  9
$CECOLOR
 62
   256
  9
$CELTSCALE
 40
1.0
  9
$DISPSILH
 70
     0
  9
$DIMSCALE
 40
1.0
  9
$DIMASZ
 40
0.18
  9
$DIMEXO
 40
0.0625
  9
$DIMDLI
 40
0.38
  9
$DIMRND
 40
0.0
  9
$DIMDLE
 40
0.0
  9
$DIMEXE
 40
0.18
  9
$DIMTP
 40
0.0
  9
$DIMTM
 40
0.0
  9
$DIMTXT
 40
0.18
  9
$DIMCEN
 40
0.09
  9
$DIMTSZ
 40
0.0
  9
$DIMTOL
 70
     0
  9
$DIMLIM
 70
     0
  9
$DIMTIH
 70
     1
  9
$DIMTOH
 70
     1
  9
$DIMSE1
 70
     0
  9
$DIMSE2
 70
     0
  9
$DIMTAD
 70
     0
  9
$DIMZIN
 70
     0
  9
$DIMBLK
  1

  9
$DIMASO
 70
     1
  9
$DIMSHO
 70
     1
  9
$DIMPOST
  1

  9
$DIMAPOST
  1

  9
$DIMALT
 70
     0
  9
$DIMALTD
 70
     2
  9
$DIMALTF
 40
25.4
  9
$DIMLFAC
 40
1.0
  9
$DIMTOFL
 70
     0
  9
$DIMTVP
 40
0.0
  9
$DIMTIX
 70
     0
  9
$DIMSOXD
 70
     0
  9
$DIMSAH
 70
     0
  9
$DIMBLK1
  1

  9
$DIMBLK2
  1

  9
$DIMSTYLE
  2
Standard
  9
$DIMCLRD
 70
     0
  9
$DIMCLRE
 70
     0
  9
$DIMCLRT
 70
     0
  9
$DIMTFAC
 40
1.0
  9
$DIMGAP
 40
0.09
  9
$DIMJUST
 70
     0
  9
$DIMSD1
 70
     0
  9
$DIMSD2
 70
     0
  9
$DIMTOLJ
 70
     1
  9
$DIMTZIN
 70
     0
  9
$DIMALTZ
 70
     0
  9
$DIMALTTZ
 70
     0
  9
$DIMUPT
 70
     0
  9
$DIMDEC
 70
     4
  9
$DIMTDEC
 70
     4
  9
$DIMALTU
 70
     2
  9
$DIMALTTD
 70
     2
  9
$DIMTXSTY
  7
Standard
  9
$DIMAUNIT
 70
     0
  9
$DIMADEC
 70
     0
  9
$DIMALTRND
 40
0.0
  9
$DIMAZIN
 70
     0
  9
$DIMDSEP
 70
    46
  9
$DIMATFIT
 70
     3
  9
$DIMFRAC
 70
     0
  9
$DIMLDRBLK
  1

  9
$DIMLUNIT
 70
     2
  9
$DIMLWD
 70
    -2
  9
$DIMLWE
 70
    -2
  9
$DIMTMOVE
 70
     0
  9
$DIMFXL
 40
1.0
  9
$DIMFXLON
 70
     0
  9
$DIMJOGANG
 40
0.7853981633974483
  9
$DIMTFILL
 70
     0
  9
$DIMTFILLCLR
 70
     0
  9
$DIMARCSYM
 70
     0
  9
$DIMLTYPE
  6

  9
$DIMLTEX1
  6

  9
$DIMLTEX2
  6

  9
$DIMTXTDIRECTION
 70
     0
  9
$LUNITS
 70
     2
  9
$LUPREC
 70
     4
  9
$SKETCHINC
 40
0.1
  9
$FILLETRAD
 40
0.5
  9
$AUNITS
 70
     0
  9
$AUPREC
 70
     0
  9
$MENU
  1
.
  9
$ELEVATION
 40
0.0
  9
$PELEVATION
 40
0.0
  9
$THICKNESS
 40
0.0
  9
$LIMCHECK
 70
     0
  9
$CHAMFERA
 40
0.5
  9
$CHAMFERB
 40
0.5
  9
$CHAMFERC
 40
1.0
  9
$CHAMFERD
 40
0.0
  9
$SKPOLY
 70
     0
  9
$TDCREATE
 40
2457917.599560185
  9
$TDUCREATE
 40
2457917.224560185
  9
$TDUPDATE
 40
2457917.599560185
  9
$TDUUPDATE
 40
2457917.224560185
  9
$TDINDWG
 40
0.0000000116
  9
$TDUSRTIMER
 40
0.0000000116
  9
$USRTIMER
 70
     1
  9
$ANGBASE
 50
0.0
  9
$ANGDIR
 70
     0
  9
$PDMODE
 70
     0
  9
$PDSIZE
 40
0.0
  9
$PLINEWID
 40
0.0
  9
$SPLFRAME
 70
     0
  9
$SPLINETYPE
 70
     6
  9
$SPLINESEGS
 70
     8
  9
$HANDSEED
  5
123
  9
$SURFTAB1
 70
     6
  9
$SURFTAB2
 70
     6
  9
$SURFTYPE
 70
     6
  9
$SURFU
 70
     6
  9
$SURFV
 70
     6
  9
$UCSBASE
  2

  9
$UCSNAME
  2

  9
$UCSORG
 10
0.0
 20
0.0
 30
0.0
  9
$UCSXDIR
 10
1.0
 20
0.0
 30
0.0
  9
$UCSYDIR
 10
0.0
 20
1.0
 30
0.0
  9
$UCSORTHOREF
  2

  9
$UCSORTHOVIEW
 70
     0
  9
$UCSORGTOP
 10
0.0
 20
0.0
 30
0.0
  9
$UCSORGBOTTOM
 10
0.0
 20
0.0
 30
0.0
  9
$UCSORGLEFT
 10
0.0
 20
0.0
 30
0.0
  9
$UCSORGRIGHT
 10
0.0
 20
0.0
 30
0.0
  9
$UCSORGFRONT
 10
0.0
 20
0.0
 30
0.0
  9
$UCSORGBACK
 10
0.0
 20
0.0
 30
0.0
  9
$PUCSBASE
  2

  9
$PUCSNAME
  2

  9
$PUCSORG
 10
0.0
 20
0.0
 30
0.0
  9
$PUCSXDIR
 10
1.0
 20
0.0
 30
0.0
  9
$PUCSYDIR
 10
0.0
 20
1.0
 30
0.0
  9
$PUCSORTHOREF
  2

  9
$PUCSORTHOVIEW
 70
     0
  9
$PUCSORGTOP
 10
0.0
 20
0.0
 30
0.0
  9
$PUCSORGBOTTOM
 10
0.0
 20
0.0
 30
0.0
  9
$PUCSORGLEFT
 10
0.0
 20
0.0
 30
0.0
  9
$PUCSORGRIGHT
 10
0.0
 20
0.0
 30
0.0
  9
$PUCSORGFRONT
 10
0.0
 20
0.0
 30
0.0
  9
$PUCSORGBACK
 10
0.0
 20
0.0
 30
0.0
  9
$USERI1
 70
     0
  9
$USERI2
 70
     0
  9
$USERI3
 70
     0
  9
$USERI4
 70
     0
  9
$USERI5
 70
     0
  9
$USERR1
 40
0.0
  9
$USERR2
 40
0.0
  9
$USERR3
 40
0.0
  9
$USERR4
 40
0.0
  9
$USERR5
 40
0.0
  9
$WORLDVIEW
 70
     1
  9
$SHADEDGE
 70
     3
  9
$SHADEDIF
 70
    70
  9
$TILEMODE
 70
     1
  9
$MAXACTVP
 70
    64
  9
$PINSBASE
 10
0.0
 20
0.0
 30
0.0
  9
$PLIMCHECK
 70
     0
  9
$PEXTMIN
 10
1.000000000000000E+20
 20
1.000000000000000E+20
 30
1.000000000000000E+20
  9
$PEXTMAX
 10
-1.000000000000000E+20
 20
-1.000000000000000E+20
 30
-1.000000000000000E+20
  9
$PLIMMIN
 10
0.0
 20
0.0
  9
$PLIMMAX
 10
12.0
 20
9.0
  9
$UNITMODE
 70
     0
  9
$VISRETAIN
 70
     1
  9
$PLINEGEN
 70
     0
  9
$PSLTSCALE
 70
     1
  9
$TREEDEPTH
 70
  3020
  9
$CMLSTYLE
  2
Standard
  9
$CMLJUST
 70
     0
  9
$CMLSCALE
 40
1.0
  9
$PROXYGRAPHICS
 70
     1
  9
$MEASUREMENT
 70
     0
  9
$CELWEIGHT
370
    -1
  9
$ENDCAPS
280
     0
  9
$JOINSTYLE
280
     0
  9
$LWDISPLAY
290
     1
  9
$INSUNITS
 70
     1
  9
$HYPERLINKBASE
  1

  9
$STYLESHEET
  1

  9
$XEDIT
290
     1
  9
$CEPSNTYPE
380
     0
  9
$PSTYLEMODE
290
     1
  9
$FINGERPRINTGUID
  2
{EF27A2AB-D0FC-A1FF-FC59-419AF285B04D}
  9
$VERSIONGUID
  2
{FAEB1C32-E019-11D5-929B-00C0DF256EC4}
  9
$EXTNAMES
290
     1
  9
$PSVPSCALE
 40
0.0
  9
$OLESTARTUP
290
     0
  9
$SORTENTS
280
   127
  9
$INDEXCTL
280
     0
  9
$HIDETEXT
280
     1
  9
$XCLIPFRAME
280
     2
  9
$HALOGAP
280
     0
  9
$OBSCOLOR
 70
   257
  9
$OBSLTYPE
280
     0
  9
$INTERSECTIONDISPLAY
280
     0
  9
$INTERSECTIONCOLOR
 70
   257
  9
$DIMASSOC
280
     2
  9
$PROJECTNAME
  1

  9
$CAMERADISPLAY
290
     0
  9
$LENSLENGTH
 40
50.0
  9
$CAMERAHEIGHT
 40
0.0
  9
$STEPSPERSEC
 40
2.0
  9
$STEPSIZE
 40
6.0
  9
$3DDWFPREC
 40
2.0
  9
$PSOLWIDTH
 40
0.25
  9
$PSOLHEIGHT
 40
4.0
  9
$LOFTANG1
 40
1.570796326794897
  9
$LOFTANG2
 40
1.570796326794897
  9
$LOFTMAG1
 40
0.0
  9
$LOFTMAG2
 40
0.0
  9
$LOFTPARAM
 70
     7
  9
$LOFTNORMALS
280
     1
  9
$LATITUDE
 40
37.795
  9
$LONGITUDE
 40
-122.394
  9
$NORTHDIRECTION
 40
0.0
  9
$TIMEZONE
 70
 -8000
  9
$LIGHTGLYPHDISPLAY
280
     1
  9
$TILEMODELIGHTSYNCH
280
     1
  9
$CMATERIAL
347
3C
  9
$SOLIDHIST
280
     1
  9
$SHOWHIST
280
     1
  9
$DWFFRAME
280
     2
  9
$DGNFRAME
280
     2
  9
$REALWORLDSCALE
290
     1
  9
$INTERFERECOLOR
 62
   256
  9
$CSHADOW
280
     0
  9
$SHADOWPLANELOCATION
 40
0.0
  0
ENDSEC
  0
SECTION
  2
CLASSES
  0
CLASS
  1
ACDBDICTIONARYWDFLT
  2
AcDbDictionaryWithDefault
  3
ObjectDBX Classes
 90
        0
 91
        4
280
     0
281
     0
  0
CLASS
  1
VISUALSTYLE
  2
AcDbVisualStyle
  3
ObjectDBX Classes
 90
     4095
 91
        4
280
     0
281
     0
  0
CLASS
  1
MATERIAL
  2
AcDbMaterial
  3
ObjectDBX Classes
 90
     1153
 91
        4
280
     0
281
     0
  0
CLASS
  1
SUN
  2
AcDbSun
  3
SCENEOE
 90
     1024
 91
        4
280
     0
281
     0
  0
ENDSEC
  0
SECTION
  2
TABLES
  0
TABLE
  2
VPORT
  5
8
330
0
100
AcDbSymbolTable
 70
     1
  0
VPORT
  5
29
330
8
100
AcDbSymbolTableRecord
100
AcDbViewportTableRecord
  2
*Active
 70
     0
 10
0.0
 20
0.0
 11
1.0
 21
1.0
 12
0.0
 22
0.0
 13
0.0
 23
0.0
 14
0.5
 24
0.5
 15
0.5
 25
0.5
 16
0.0
 26
0.0
 36
1.0
 17
91.00082462281999
 27
-128.4993055234307
 37
0.0
 40
256.9986110468615
 41
0.7081814508812795
 42
50.0
 43
0.0
 44
0.0
 50
0.0
 51
0.0
 71
     0
 72
   100
 73
     1
 74
     3
 75
     0
 76
     0
 77
     0
 78
     0
281
     0
 65
     1
110
0.0
120
0.0
130
0.0
111
1.0
121
0.0
131
0.0
112
0.0
122
1.0
132
0.0
 79
     0
146
0.0
 60
     3
 61
     5
292
     1
282
     1
141
0.0
142
0.0
 63
   250
361
3F
  0
ENDTAB
  0
TABLE
  2
LTYPE
  5
5
330
0
100
AcDbSymbolTable
 70
     1
  0
LTYPE
  5
14
330
5
100
AcDbSymbolTableRecord
100
AcDbLinetypeTableRecord
  2
ByBlock
 70
     0
  3

 72
    65
 73
     0
 40
0.0
  0
LTYPE
  5
15
330
5
100
AcDbSymbolTableRecord
100
AcDbLinetypeTableRecord
  2
ByLayer
 70
     0
  3

 72
    65
 73
     0
 40
0.0
  0
LTYPE
  5
16
330
5
100
AcDbSymbolTableRecord
100
AcDbLinetypeTableRecord
  2
Continuous
 70
     0
  3
Solid line
 72
    65
 73
     0
 40
0.0
  0
ENDTAB
  0
TABLE
  2
LAYER
  5
2
330
0
100
AcDbSymbolTable
 70
     2
  0
LAYER
  5
10
330
2
100
AcDbSymbolTableRecord
100
AcDbLayerTableRecord
  2
0
 70
     0
 62
     7
  6
Continuous
370
    -3
390
F
347
3E
  0
LAYER
  5
40
330
2
100
AcDbSymbolTableRecord
100
AcDbLayerTableRecord
  2
_U+30EC_U+30A4_U+30E4_U+30FC 1
 70
     0
 62
     7
  6
Continuous
370
    -3
390
F
347
3E
  0
ENDTAB
  0
TABLE
  2
STYLE
  5
3
330
0
100
AcDbSymbolTable
 70
     1
  0
STYLE
  5
11
330
3
100
AcDbSymbolTableRecord
100
AcDbTextStyleTableRecord
  2
Standard
 70
     0
 40
0.0
 41
1.0
 50
0.0
 71
     0
 42
0.2
  3
txt
  4

  0
ENDTAB
  0
TABLE
  2
VIEW
  5
6
330
0
100
AcDbSymbolTable
 70
     0
  0
ENDTAB
  0
TABLE
  2
UCS
  5
7
330
0
100
AcDbSymbolTable
 70
     0
  0
ENDTAB
  0
TABLE
  2
APPID
  5
9
330
0
100
AcDbSymbolTable
 70
     1
  0
APPID
  5
12
330
9
100
AcDbSymbolTableRecord
100
AcDbRegAppTableRecord
  2
ACAD
 70
     0
  0
ENDTAB
  0
TABLE
  2
DIMSTYLE
  5
A
330
0
100
AcDbSymbolTable
 70
     1
100
AcDbDimStyleTable
  0
DIMSTYLE
105
27
330
A
100
AcDbSymbolTableRecord
100
AcDbDimStyleTableRecord
  2
Standard
 70
     0
178
     0
340
11
  0
ENDTAB
  0
TABLE
  2
BLOCK_RECORD
  5
1
330
0
100
AcDbSymbolTable
 70
     9
  0
BLOCK_RECORD
  5
1F
330
1
100
AcDbSymbolTableRecord
100
AcDbBlockTableRecord
  2
*Model_Space
340
22
 70
     0
280
     1
281
     0
  0
BLOCK_RECORD
  5
1B
330
1
100
AcDbSymbolTableRecord
100
AcDbBlockTableRecord
  2
*Paper_Space
340
1E
 70
     0
280
     1
281
     0
  0
BLOCK_RECORD
  5
23
330
1
100
AcDbSymbolTableRecord
100
AcDbBlockTableRecord
  2
*Paper_Space0
340
26
 70
     0
280
     1
281
     0
  0
BLOCK_RECORD
  5
5C
330
1
100
AcDbSymbolTableRecord
100
AcDbBlockTableRecord
  2
block 2
340
0
102
{BLKREFS
331
5D
102
}
 70
     0
280
     1
281
     0
  0
BLOCK_RECORD
  5
7C
330
1
100
AcDbSymbolTableRecord
100
AcDbBlockTableRecord
  2
block 3
340
0
102
{BLKREFS
331
7D
102
}
 70
     0
280
     1
281
     0
  0
BLOCK_RECORD
  5
A0
330
1
100
AcDbSymbolTableRecord
100
AcDbBlockTableRecord
  2
block 4
340
0
102
{BLKREFS
331
A1
102
}
 70
     0
280
     1
281
     0
  0
BLOCK_RECORD
  5
B4
330
1
100
AcDbSymbolTableRecord
100
AcDbBlockTableRecord
  2
block 5
340
0
102
{BLKREFS
331
B5
102
}
 70
     0
280
     1
281
     0
  0
BLOCK_RECORD
  5
C8
330
1
100
AcDbSymbolTableRecord
100
AcDbBlockTableRecord
  2
block 6
340
0
102
{BLKREFS
331
C9
102
}
 70
     0
280
     1
281
     0
  0
BLOCK_RECORD
  5
EC
330
1
100
AcDbSymbolTableRecord
100
AcDbBlockTableRecord
  2
block 7
340
0
102
{BLKREFS
331
ED
102
}
 70
     0
280
     1
281
     0
  0
BLOCK_RECORD
  5
100
330
1
100
AcDbSymbolTableRecord
100
AcDbBlockTableRecord
  2
block 8
340
0
102
{BLKREFS
331
101
102
}
 70
     0
280
     1
281
     0
  0
BLOCK_RECORD
  5
118
330
1
100
AcDbSymbolTableRecord
100
AcDbBlockTableRecord
  2
block 9
340
0
102
{BLKREFS
331
119
102
}
 70
     0
280
     1
281
     0
  0
ENDTAB
  0
ENDSEC
  0
SECTION
  2
BLOCKS
  0
BLOCK
  5
20
330
1F
100
AcDbEntity
  8
0
100
AcDbBlockBegin
  2
*Model_Space
 70
     0
 10
0.0
 20
0.0
 30
0.0
  3
*Model_Space
  1

  0
ENDBLK
  5
21
330
1F
100
AcDbEntity
  8
0
100
AcDbBlockEnd
  0
BLOCK
  5
1C
330
1B
100
AcDbEntity
 67
     1
  8
0
100
AcDbBlockBegin
  2
*Paper_Space
 70
     0
 10
0.0
 20
0.0
 30
0.0
  3
*Paper_Space
  1

  0
ENDBLK
  5
1D
330
1B
100
AcDbEntity
 67
     1
  8
0
100
AcDbBlockEnd
  0
BLOCK
  5
24
330
23
100
AcDbEntity
  8
0
100
AcDbBlockBegin
  2
*Paper_Space0
 70
     0
 10
0.0
 20
0.0
 30
0.0
  3
*Paper_Space0
  1

  0
ENDBLK
  5
25
330
23
100
AcDbEntity
  8
0
100
AcDbBlockEnd
  0
BLOCK
  5
5E
330
5C
100
AcDbEntity
  8
0
100
AcDbBlockBegin
  2
block 2
 70
     0
 10
0.0
 20
0.0
 30
0.0
  3
block 2
  1

  0
SPLINE
  5
60
330
5C
100
AcDbEntity
  8
_U+30EC_U+30A4_U+30E4_U+30FC 1
370
     0
100
AcDbSpline
210
0.0
220
0.0
230
1.0
 70
    11
 71
     3
 72
    44
 73
    40
 74
     0
 42
0.0000000001
 43
0.0000000001
 12
1.0
 22
0.0
 32
0.0
 13
1.0
 23
0.0
 33
0.0
 40
0.0
 40
0.0
 40
0.0
 40
0.0
 40
1.0
 40
1.0
 40
1.0
 40
2.0
 40
2.0
 40
2.0
 40
3.0
 40
3.0
 40
3.0
 40
4.0
 40
4.0
 40
4.0
 40
5.0
 40
5.0
 40
5.0
 40
6.0
 40
6.0
 40
6.0
 40
7.0
 40
7.0
 40
7.0
 40
8.0
 40
8.0
 40
8.0
 40
9.0
 40
9.0
 40
9.0
 40
10.0
 40
10.0
 40
10.0
 40
11.0
 40
11.0
 40
11.0
 40
12.0
 40
12.0
 40
12.0
 40
13.0
 40
13.0
 40
13.0
 40
13.0
 10
70.90902233470331
 20
-150.8941487252973
 30
0.0
 10
70.8855956854036
 20
-150.8497069935376
 30
0.0
 10
70.86458060294358
 20
-150.7969970326133
 30
0.0
 10
70.86234129087816
 20
-150.5661756351015
 30
0.0
 10
70.85820717629586
 20
-150.3229518938429
 30
0.0
 10
70.79895153394958
 20
-150.2530164554923
 30
0.0
 10
70.62118460691067
 20
-150.2530164554923
 30
0.0
 10
70.62118460691067
 20
-150.2530164554923
 30
0.0
 10
70.21294079190858
 20
-150.2530164554923
 30
0.0
 10
70.21294079190858
 20
-150.2530164554923
 30
0.0
 10
70.21294079190858
 20
-150.2530164554923
 30
0.0
 10
70.21294079190858
 20
-150.8941487252973
 30
0.0
 10
70.21294079190858
 20
-150.8941487252973
 30
0.0
 10
70.21294079190858
 20
-150.8941487252973
 30
0.0
 10
69.9781575345888
 20
-150.8941487252973
 30
0.0
 10
69.9781575345888
 20
-150.8941487252973
 30
0.0
 10
69.9781575345888
 20
-150.8941487252973
 30
0.0
 10
69.9781575345888
 20
-149.3497124192598
 30
0.0
 10
69.9781575345888
 20
-149.3497124192598
 30
0.0
 10
69.9781575345888
 20
-149.3497124192598
 30
0.0
 10
70.65287948537498
 20
-149.3497124192598
 30
0.0
 10
70.65287948537498
 20
-149.3497124192598
 30
0.0
 10
70.95966523833647
 20
-149.3497124192598
 30
0.0
 10
71.12692462414536
 20
-149.5212781744252
 30
0.0
 10
71.12692462414536
 20
-149.7772487689793
 30
0.0
 10
71.12692462414536
 20
-149.8278916726125
 30
0.0
 10
71.11831188543223
 20
-149.9105739642585
 30
0.0
 10
71.0738701536725
 20
-149.9908446890648
 30
0.0
 10
71.01478676610047
 20
-150.0945420631708
 30
0.0
 10
70.94915769710646
 20
-150.1134900883397
 30
0.0
 10
70.88783499746901
 20
-150.1303710562174
 30
0.0
 10
71.02529430733048
 20
-150.172745730686
 30
0.0
 10
71.09299043361564
 20
-150.221321577028
 30
0.0
 10
71.09729680297221
 20
-150.5365478139284
 30
0.0
 10
71.10143091755451
 20
-150.807332319069
 30
0.0
 10
71.13743216537537
 20
-150.8390271975333
 30
0.0
 10
71.20512829166053
 20
-150.8941487252973
 30
0.0
 10
71.20512829166053
 20
-150.8941487252973
 30
0.0
 10
70.90902233470331
 20
-150.8941487252973
 30
0.0
 10
70.90902233470331
 20
-150.8941487252973
 30
0.0
  0
SPLINE
  5
61
330
5C
100
AcDbEntity
  8
_U+30EC_U+30A4_U+30E4_U+30FC 1
370
     0
100
AcDbSpline
210
0.0
220
0.0
230
1.0
 70
    11
 71
     3
 72
    20
 73
    16
 74
     0
 42
0.0000000001
 43
0.0000000001
 12
1.0
 22
0.0
 32
0.0
 13
1.0
 23
0.0
 33
0.0
 40
0.0
 40
0.0
 40
0.0
 40
0.0
 40
1.0
 40
1.0
 40
1.0
 40
2.0
 40
2.0
 40
2.0
 40
3.0
 40
3.0
 40
3.0
 40
4.0
 40
4.0
 40
4.0
 40
5.0
 40
5.0
 40
5.0
 40
5.0
 10
70.65718585473154
 20
-149.5612412820541
 30
0.0
 10
70.65718585473154
 20
-149.5612412820541
 30
0.0
 10
70.21294079190858
 20
-149.5612412820541
 30
0.0
 10
70.21294079190858
 20
-149.5612412820541
 30
0.0
 10
70.21294079190858
 20
-149.5612412820541
 30
0.0
 10
70.21294079190858
 20
-150.041487592698
 30
0.0
 10
70.21294079190858
 20
-150.041487592698
 30
0.0
 10
70.21294079190858
 20
-150.041487592698
 30
0.0
 10
70.6551187974404
 20
-150.041487592698
 30
0.0
 10
70.6551187974404
 20
-150.041487592698
 30
0.0
 10
70.75450980218984
 20
-150.041487592698
 30
0.0
 10
70.88990205476017
 20
-149.965350982474
 30
0.0
 10
70.88990205476017
 20
-149.794129736857
 30
0.0
 10
70.88990205476017
 20
-149.7159260693419
 30
0.0
 10
70.85614011900472
 20
-149.5612412820541
 30
0.0
 10
70.65718585473154
 20
-149.5612412820541
 30
0.0
  0
HATCH
  5
62
330
5C
100
AcDbEntity
  8
_U+30EC_U+30A4_U+30E4_U+30FC 1
 62
   179
420
  2234388
100
AcDbHatch
 10
0.0
 20
0.0
 30
0.0
210
0.0
220
0.0
230
1.0
  2
SOLID
 70
     1
 71
     0
 91
        2
 92
        1
 93
        1
 72
     4
 94
        3
 73
     0
 74
     1
 95
       44
 96
       40
 40
0.0
 40
0.0
 40
0.0
 40
0.0
 40
1.0
 40
1.0
 40
1.0
 40
2.0
 40
2.0
 40
2.0
 40
3.0
 40
3.0
 40
3.0
 40
4.0
 40
4.0
 40
4.0
 40
5.0
 40
5.0
 40
5.0
 40
6.0
 40
6.0
 40
6.0
 40
7.0
 40
7.0
 40
7.0
 40
8.0
 40
8.0
 40
8.0
 40
9.0
 40
9.0
 40
9.0
 40
10.0
 40
10.0
 40
10.0
 40
11.0
 40
11.0
 40
11.0
 40
12.0
 40
12.0
 40
12.0
 40
13.0
 40
13.0
 40
13.0
 40
13.0
 10
70.90902233470331
 20
-150.8941487252973
 10
70.8855956854036
 20
-150.8497069935376
 10
70.86458060294358
 20
-150.7969970326133
 10
70.86234129087816
 20
-150.5661756351015
 10
70.85820717629586
 20
-150.3229518938429
 10
70.79895153394958
 20
-150.2530164554923
 10
70.62118460691067
 20
-150.2530164554923
 10
70.62118460691067
 20
-150.2530164554923
 10
70.21294079190858
 20
-150.2530164554923
 10
70.21294079190858
 20
-150.2530164554923
 10
70.21294079190858
 20
-150.2530164554923
 10
70.21294079190858
 20
-150.8941487252973
 10
70.21294079190858
 20
-150.8941487252973
 10
70.21294079190858
 20
-150.8941487252973
 10
69.9781575345888
 20
-150.8941487252973
 10
69.9781575345888
 20
-150.8941487252973
 10
69.9781575345888
 20
-150.8941487252973
 10
69.9781575345888
 20
-149.3497124192598
 10
69.9781575345888
 20
-149.3497124192598
 10
69.9781575345888
 20
-149.3497124192598
 10
70.65287948537498
 20
-149.3497124192598
 10
70.65287948537498
 20
-149.3497124192598
 10
70.95966523833647
 20
-149.3497124192598
 10
71.12692462414536
 20
-149.5212781744252
 10
71.12692462414536
 20
-149.7772487689793
 10
71.12692462414536
 20
-149.8278916726125
 10
71.11831188543223
 20
-149.9105739642585
 10
71.0738701536725
 20
-149.9908446890648
 10
71.01478676610047
 20
-150.0945420631708
 10
70.94915769710646
 20
-150.1134900883397
 10
70.88783499746901
 20
-150.1303710562174
 10
71.02529430733048
 20
-150.172745730686
 10
71.09299043361564
 20
-150.221321577028
 10
71.09729680297221
 20
-150.5365478139284
 10
71.10143091755451
 20
-150.807332319069
 10
71.13743216537537
 20
-150.8390271975333
 10
71.20512829166053
 20
-150.8941487252973
 10
71.20512829166053
 20
-150.8941487252973
 10
70.90902233470331
 20
-150.8941487252973
 10
70.90902233470331
 20
-150.8941487252973
 97
        0
 97
        0
 92
        1
 93
        1
 72
     4
 94
        3
 73
     0
 74
     1
 95
       20
 96
       16
 40
0.0
 40
0.0
 40
0.0
 40
0.0
 40
1.0
 40
1.0
 40
1.0
 40
2.0
 40
2.0
 40
2.0
 40
3.0
 40
3.0
 40
3.0
 40
4.0
 40
4.0
 40
4.0
 40
5.0
 40
5.0
 40
5.0
 40
5.0
 10
70.65718585473154
 20
-149.5612412820541
 10
70.65718585473154
 20
-149.5612412820541
 10
70.21294079190858
 20
-149.5612412820541
 10
70.21294079190858
 20
-149.5612412820541
 10
70.21294079190858
 20
-149.5612412820541
 10
70.21294079190858
 20
-150.041487592698
 10
70.21294079190858
 20
-150.041487592698
 10
70.21294079190858
 20
-150.041487592698
 10
70.6551187974404
 20
-150.041487592698
 10
70.6551187974404
 20
-150.041487592698
 10
70.75450980218984
 20
-150.041487592698
 10
70.88990205476017
 20
-149.965350982474
 10
70.88990205476017
 20
-149.794129736857
 10
70.88990205476017
 20
-149.7159260693419
 10
70.85614011900472
 20
-149.5612412820541
 10
70.65718585473154
 20
-149.5612412820541
 97
        0
 97
        0
 75
     2
 76
     1
 98
        0
  0
SPLINE
  5
63
330
5C
100
AcDbEntity
  8
_U+30EC_U+30A4_U+30E4_U+30FC 1
370
     0
100
AcDbSpline
210
0.0
220
0.0
230
1.0
 70
    11
 71
     3
 72
    29
 73
    25
 74
     0
 42
0.0000000001
 43
0.0000000001
 12
1.0
 22
0.0
 32
0.0
 13
1.0
 23
0.0
 33
0.0
 40
0.0
 40
0.0
 40
0.0
 40
0.0
 40
1.0
 40
1.0
 40
1.0
 40
2.0
 40
2.0
 40
2.0
 40
3.0
 40
3.0
 40
3.0
 40
4.0
 40
4.0
 40
4.0
 40
5.0
 40
5.0
 40
5.0
 40
6.0
 40
6.0
 40
6.0
 40
7.0
 40
7.0
 40
7.0
 40
8.0
 40
8.0
 40
8.0
 40
8.0
 10
72.24244654226925
 20
-150.7163817982584
 30
0.0
 10
72.13461505358093
 20
-150.9258436037616
 30
0.0
 10
71.9611544958986
 20
-150.9447916289305
 30
0.0
 10
71.84471026849715
 20
-150.9447916289305
 30
0.0
 10
71.68399656411026
 20
-150.9447916289305
 30
0.0
 10
71.54223088489222
 20
-150.8982828398796
 30
0.0
 10
71.44697399472507
 20
-150.7163817982584
 30
0.0
 10
71.3434488753933
 20
-150.5217339033418
 30
0.0
 10
71.32432859545017
 20
-150.2850558435051
 30
0.0
 10
71.32432859545017
 20
-150.1221028270528
 30
0.0
 10
71.32432859545017
 20
-149.9780978357694
 30
0.0
 10
71.3412095633279
 20
-149.7262613557976
 30
0.0
 10
71.44697399472507
 20
-149.5274793462987
 30
0.0
 10
71.55497773818765
 20
-149.3245632222175
 30
0.0
 10
71.71569144257455
 20
-149.3011365729178
 30
0.0
 10
71.84471026849715
 20
-149.3011365729178
 30
0.0
 10
72.00335691559292
 20
-149.3011365729178
 30
0.0
 10
72.1471896521021
 20
-149.3455783046775
 30
0.0
 10
72.24244654226925
 20
-149.5274793462987
 30
0.0
 10
72.34183754701871
 20
-149.7200601839241
 30
0.0
 10
72.36509194154415
 20
-149.9484700145962
 30
0.0
 10
72.36509194154415
 20
-150.1221028270528
 30
0.0
 10
72.36509194154415
 20
-150.2933240726697
 30
0.0
 10
72.34407685908413
 20
-150.5238009606329
 30
0.0
 10
72.24244654226925
 20
-150.7163817982584
 30
0.0
  0
SPLINE
  5
64
330
5C
100
AcDbEntity
  8
_U+30EC_U+30A4_U+30E4_U+30FC 1
370
     0
100
AcDbSpline
210
0.0
220
0.0
230
1.0
 70
    11
 71
     3
 72
    17
 73
    13
 74
     0
 42
0.0000000001
 43
0.0000000001
 12
1.0
 22
0.0
 32
0.0
 13
1.0
 23
0.0
 33
0.0
 40
0.0
 40
0.0
 40
0.0
 40
0.0
 40
1.0
 40
1.0
 40
1.0
 40
2.0
 40
2.0
 40
2.0
 40
3.0
 40
3.0
 40
3.0
 40
4.0
 40
4.0
 40
4.0
 40
4.0
 10
71.84471026849715
 20
-149.4937174105432
 30
0.0
 10
71.59511310059081
 20
-149.4937174105432
 30
0.0
 10
71.54860431153993
 20
-149.7772487689793
 30
0.0
 10
71.54860431153993
 20
-150.1221028270528
 30
0.0
 10
71.54860431153993
 20
-150.4414631785355
 30
0.0
 10
71.5846055593608
 20
-150.7501437340138
 30
0.0
 10
71.84471026849715
 20
-150.7501437340138
 30
0.0
 10
72.09224037911235
 20
-150.7501437340138
 30
0.0
 10
72.14098848022864
 20
-150.4690239424175
 30
0.0
 10
72.14098848022864
 20
-150.1221028270528
 30
0.0
 10
72.14098848022864
 20
-149.8023979660216
 30
0.0
 10
72.10292017511664
 20
-149.4937174105432
 30
0.0
 10
71.84471026849715
 20
-149.4937174105432
 30
0.0
  0
HATCH
  5
65
330
5C
100
AcDbEntity
  8
_U+30EC_U+30A4_U+30E4_U+30FC 1
 62
   179
420
  2234388
100
AcDbHatch
 10
0.0
 20
0.0
 30
0.0
210
0.0
220
0.0
230
1.0
  2
SOLID
 70
     1
 71
     0
 91
        2
 92
        1
 93
        1
 72
     4
 94
        3
 73
     0
 74
     1
 95
       29
 96
       25
 40
0.0
 40
0.0
 40
0.0
 40
0.0
 40
1.0
 40
1.0
 40
1.0
 40
2.0
 40
2.0
 40
2.0
 40
3.0
 40
3.0
 40
3.0
 40
4.0
 40
4.0
 40
4.0
 40
5.0
 40
5.0
 40
5.0
 40
6.0
 40
6.0
 40
6.0
 40
7.0
 40
7.0
 40
7.0
 40
8.0
 40
8.0
 40
8.0
 40
8.0
 10
72.24244654226925
 20
-150.7163817982584
 10
72.13461505358093
 20
-150.9258436037616
 10
71.9611544958986
 20
-150.9447916289305
 10
71.84471026849715
 20
-150.9447916289305
 10
71.68399656411026
 20
-150.9447916289305
 10
71.54223088489222
 20
-150.8982828398796
 10
71.44697399472507
 20
-150.7163817982584
 10
71.3434488753933
 20
-150.5217339033418
 10
71.32432859545017
 20
-150.2850558435051
 10
71.32432859545017
 20
-150.1221028270528
 10
71.32432859545017
 20
-149.9780978357694
 10
71.3412095633279
 20
-149.7262613557976
 10
71.44697399472507
 20
-149.5274793462987
 10
71.55497773818765
 20
-149.3245632222175
 10
71.71569144257455
 20
-149.3011365729178
 10
71.84471026849715
 20
-149.3011365729178
 10
72.00335691559292
 20
-149.3011365729178
 10
72.1471896521021
 20
-149.3455783046775
 10
72.24244654226925
 20
-149.5274793462987
 10
72.34183754701871
 20
-149.7200601839241
 10
72.36509194154415
 20
-149.9484700145962
 10
72.36509194154415
 20
-150.1221028270528
 10
72.36509194154415
 20
-150.2933240726697
 10
72.34407685908413
 20
-150.5238009606329
 10
72.24244654226925
 20
-150.7163817982584
 97
        0
 97
        0
 92
        1
 93
        1
 72
     4
 94
        3
 73
     0
 74
     1
 95
       17
 96
       13
 40
0.0
 40
0.0
 40
0.0
 40
0.0
 40
1.0
 40
1.0
 40
1.0
 40
2.0
 40
2.0
 40
2.0
 40
3.0
 40
3.0
 40
3.0
 40
4.0
 40
4.0
 40
4.0
 40
4.0
 10
71.84471026849715
 20
-149.4937174105432
 10
71.59511310059081
 20
-149.4937174105432
 10
71.54860431153993
 20
-149.7772487689793
 10
71.54860431153993
 20
-150.1221028270528
 10
71.54860431153993
 20
-150.4414631785355
 10
71.5846055593608
 20
-150.7501437340138
 10
71.84471026849715
 20
-150.7501437340138
 10
72.09224037911235
 20
-150.7501437340138
 10
72.14098848022864
 20
-150.4690239424175
 10
72.14098848022864
 20
-150.1221028270528
 10
72.14098848022864
 20
-149.8023979660216
 10
72.10292017511664
 20
-149.4937174105432
 10
71.84471026849715
 20
-149.4937174105432
 97
        0
 97
        0
 75
     2
 76
     1
 98
        0
  0
POLYLINE
  5
66
330
5C
100
AcDbEntity
  8
_U+30EC_U+30A4_U+30E4_U+30FC 1
370
     0
100
AcDb2dPolyline
 66
     1
 10
0.0
 20
0.0
 30
0.0
  0
VERTEX
  5
67
330
66
100
AcDbEntity
  8
_U+30EC_U+30A4_U+30E4_U+30FC 1
370
     0
100
AcDbVertex
100
AcDb2dVertex
 10
72.5816161927921
 20
-150.8941487252973
 30
0.0
  0
VERTEX
  5
68
330
66
100
AcDbEntity
  8
_U+30EC_U+30A4_U+30E4_U+30FC 1
370
     0
100
AcDbVertex
100
AcDb2dVertex
 10
72.5816161927921
 20
-150.6423122453255
 30
0.0
  0
VERTEX
  5
69
330
66
100
AcDbEntity
  8
_U+30EC_U+30A4_U+30E4_U+30FC 1
370
     0
100
AcDbVertex
100
AcDb2dVertex
 10
72.8332804179896
 20
-150.6423122453255
 30
0.0
  0
VERTEX
  5
6A
330
66
100
AcDbEntity
  8
_U+30EC_U+30A4_U+30E4_U+30FC 1
370
     0
100
AcDbVertex
100
AcDb2dVertex
 10
72.8332804179896
 20
-150.8941487252973
 30
0.0
  0
VERTEX
  5
6B
330
66
100
AcDbEntity
  8
_U+30EC_U+30A4_U+30E4_U+30FC 1
370
     0
100
AcDbVertex
100
AcDb2dVertex
 10
72.5816161927921
 20
-150.8941487252973
 30
0.0
  0
SEQEND
  5
6C
330
66
100
AcDbEntity
  8
_U+30EC_U+30A4_U+30E4_U+30FC 1
370
     0
  0
HATCH
  5
6D
330
5C
100
AcDbEntity
  8
_U+30EC_U+30A4_U+30E4_U+30FC 1
 62
   179
420
  2234388
100
AcDbHatch
 10
0.0
 20
0.0
 30
0.0
210
0.0
220
0.0
230
1.0
  2
SOLID
 70
     1
 71
     0
 91
        1
 92
        1
 93
        4
 72
     1
 10
72.5816161927921
 20
-150.8941487252973
 11
72.5816161927921
 21
-150.6423122453255
 72
     1
 10
72.5816161927921
 20
-150.6423122453255
 11
72.8332804179896
 21
-150.6423122453255
 72
     1
 10
72.8332804179896
 20
-150.6423122453255
 11
72.8332804179896
 21
-150.8941487252973
 72
     1
 10
72.8332804179896
 20
-150.8941487252973
 11
72.5816161927921
 21
-150.8941487252973
 97
        0
 75
     2
 76
     1
 98
        0
  0
SPLINE
  5
6E
330
5C
100
AcDbEntity
  8
_U+30EC_U+30A4_U+30E4_U+30FC 1
370
     0
100
AcDbSpline
210
0.0
220
0.0
230
1.0
 70
    11
 71
     3
 72
    53
 73
    49
 74
     0
 42
0.0000000001
 43
0.0000000001
 12
1.0
 22
0.0
 32
0.0
 13
1.0
 23
0.0
 33
0.0
 40
0.0
 40
0.0
 40
0.0
 40
0.0
 40
1.0
 40
1.0
 40
1.0
 40
2.0
 40
2.0
 40
2.0
 40
3.0
 40
3.0
 40
3.0
 40
4.0
 40
4.0
 40
4.0
 40
5.0
 40
5.0
 40
5.0
 40
6.0
 40
6.0
 40
6.0
 40
7.0
 40
7.0
 40
7.0
 40
8.0
 40
8.0
 40
8.0
 40
9.0
 40
9.0
 40
9.0
 40
10.0
 40
10.0
 40
10.0
 40
11.0
 40
11.0
 40
11.0
 40
12.0
 40
12.0
 40
12.0
 40
13.0
 40
13.0
 40
13.0
 40
14.0
 40
14.0
 40
14.0
 40
15.0
 40
15.0
 40
15.0
 40
16.0
 40
16.0
 40
16.0
 40
16.0
 10
73.55072155279288
 20
-150.9447916289305
 30
0.0
 10
73.47234563050344
 20
-150.9447916289305
 30
0.0
 10
73.37088756846283
 20
-150.9279106610527
 30
0.0
 10
73.26925725164797
 20
-150.8645209041242
 30
0.0
 10
73.09579669396564
 20
-150.7546223581447
 30
0.0
 10
73.07460935673136
 20
-150.6233642201567
 30
0.0
 10
73.05566133156248
 20
-150.5155327314683
 30
0.0
 10
73.05566133156248
 20
-150.5155327314683
 30
0.0
 10
73.27769773558683
 20
-150.5155327314683
 30
0.0
 10
73.27769773558683
 20
-150.5155327314683
 30
0.0
 10
73.33281926335083
 20
-150.7143147409673
 30
0.0
 10
73.45977103198229
 20
-150.7439425621404
 30
0.0
 10
73.55278861008402
 20
-150.7439425621404
 30
0.0
 10
73.6924872320109
 20
-150.7439425621404
 30
0.0
 10
73.84476045245896
 20
-150.6443793026167
 30
0.0
 10
73.84476045245896
 20
-150.4118353573623
 30
0.0
 10
73.84476045245896
 20
-150.1558647628082
 30
0.0
 10
73.66492646812891
 20
-150.0859293244577
 30
0.0
 10
73.54434812614517
 20
-150.0859293244577
 30
0.0
 10
73.51265324768087
 20
-150.0859293244577
 30
0.0
 10
73.37088756846283
 20
-150.0859293244577
 30
0.0
 10
73.2820041049434
 20
-150.2151204051546
 30
0.0
 10
73.2820041049434
 20
-150.2151204051546
 30
0.0
 10
73.10647648996991
 20
-150.1961723799857
 30
0.0
 10
73.10647648996991
 20
-150.1961723799857
 30
0.0
 10
73.10647648996991
 20
-150.1961723799857
 30
0.0
 10
73.22705483195365
 20
-149.3497124192598
 30
0.0
 10
73.22705483195365
 20
-149.3497124192598
 30
0.0
 10
73.22705483195365
 20
-149.3497124192598
 30
0.0
 10
74.00547415684586
 20
-149.3497124192598
 30
0.0
 10
74.00547415684586
 20
-149.3497124192598
 30
0.0
 10
74.00547415684586
 20
-149.3497124192598
 30
0.0
 10
74.00547415684586
 20
-149.5443603141764
 30
0.0
 10
74.00547415684586
 20
-149.5443603141764
 30
0.0
 10
74.00547415684586
 20
-149.5443603141764
 30
0.0
 10
73.38983559363172
 20
-149.5443603141764
 30
0.0
 10
73.38983559363172
 20
-149.5443603141764
 30
0.0
 10
73.38983559363172
 20
-149.5443603141764
 30
0.0
 10
73.32437877941196
 20
-149.9674180397651
 30
0.0
 10
73.32437877941196
 20
-149.9674180397651
 30
0.0
 10
73.38570147904942
 20
-149.9336561040097
 30
0.0
 10
73.46821151592114
 20
-149.8933484868322
 30
0.0
 10
73.58655054583947
 20
-149.8933484868322
 30
0.0
 10
73.84045408310239
 20
-149.8933484868322
 30
0.0
 10
74.07747665248758
 20
-150.0797281525842
 30
0.0
 10
74.07747665248758
 20
-150.3928873321935
 30
0.0
 10
74.07747665248758
 20
-150.710180626385
 30
0.0
 10
73.85320093639781
 20
-150.9447916289305
 30
0.0
 10
73.55072155279288
 20
-150.9447916289305
 30
0.0
  0
HATCH
  5
6F
330
5C
100
AcDbEntity
  8
_U+30EC_U+30A4_U+30E4_U+30FC 1
 62
   179
420
  2234388
100
AcDbHatch
 10
0.0
 20
0.0
 30
0.0
210
0.0
220
0.0
230
1.0
  2
SOLID
 70
     1
 71
     0
 91
        1
 92
        1
 93
        1
 72
     4
 94
        3
 73
     0
 74
     1
 95
       53
 96
       49
 40
0.0
 40
0.0
 40
0.0
 40
0.0
 40
1.0
 40
1.0
 40
1.0
 40
2.0
 40
2.0
 40
2.0
 40
3.0
 40
3.0
 40
3.0
 40
4.0
 40
4.0
 40
4.0
 40
5.0
 40
5.0
 40
5.0
 40
6.0
 40
6.0
 40
6.0
 40
7.0
 40
7.0
 40
7.0
 40
8.0
 40
8.0
 40
8.0
 40
9.0
 40
9.0
 40
9.0
 40
10.0
 40
10.0
 40
10.0
 40
11.0
 40
11.0
 40
11.0
 40
12.0
 40
12.0
 40
12.0
 40
13.0
 40
13.0
 40
13.0
 40
14.0
 40
14.0
 40
14.0
 40
15.0
 40
15.0
 40
15.0
 40
16.0
 40
16.0
 40
16.0
 40
16.0
 10
73.55072155279288
 20
-150.9447916289305
 10
73.47234563050344
 20
-150.9447916289305
 10
73.37088756846283
 20
-150.9279106610527
 10
73.26925725164797
 20
-150.8645209041242
 10
73.09579669396564
 20
-150.7546223581447
 10
73.07460935673136
 20
-150.6233642201567
 10
73.05566133156248
 20
-150.5155327314683
 10
73.05566133156248
 20
-150.5155327314683
 10
73.27769773558683
 20
-150.5155327314683
 10
73.27769773558683
 20
-150.5155327314683
 10
73.33281926335083
 20
-150.7143147409673
 10
73.45977103198229
 20
-150.7439425621404
 10
73.55278861008402
 20
-150.7439425621404
 10
73.6924872320109
 20
-150.7439425621404
 10
73.84476045245896
 20
-150.6443793026167
 10
73.84476045245896
 20
-150.4118353573623
 10
73.84476045245896
 20
-150.1558647628082
 10
73.66492646812891
 20
-150.0859293244577
 10
73.54434812614517
 20
-150.0859293244577
 10
73.51265324768087
 20
-150.0859293244577
 10
73.37088756846283
 20
-150.0859293244577
 10
73.2820041049434
 20
-150.2151204051546
 10
73.2820041049434
 20
-150.2151204051546
 10
73.10647648996991
 20
-150.1961723799857
 10
73.10647648996991
 20
-150.1961723799857
 10
73.10647648996991
 20
-150.1961723799857
 10
73.22705483195365
 20
-149.3497124192598
 10
73.22705483195365
 20
-149.3497124192598
 10
73.22705483195365
 20
-149.3497124192598
 10
74.00547415684586
 20
-149.3497124192598
 10
74.00547415684586
 20
-149.3497124192598
 10
74.00547415684586
 20
-149.3497124192598
 10
74.00547415684586
 20
-149.5443603141764
 10
74.00547415684586
 20
-149.5443603141764
 10
74.00547415684586
 20
-149.5443603141764
 10
73.38983559363172
 20
-149.5443603141764
 10
73.38983559363172
 20
-149.5443603141764
 10
73.38983559363172
 20
-149.5443603141764
 10
73.32437877941196
 20
-149.9674180397651
 10
73.32437877941196
 20
-149.9674180397651
 10
73.38570147904942
 20
-149.9336561040097
 10
73.46821151592114
 20
-149.8933484868322
 10
73.58655054583947
 20
-149.8933484868322
 10
73.84045408310239
 20
-149.8933484868322
 10
74.07747665248758
 20
-150.0797281525842
 10
74.07747665248758
 20
-150.3928873321935
 10
74.07747665248758
 20
-150.710180626385
 10
73.85320093639781
 20
-150.9447916289305
 10
73.55072155279288
 20
-150.9447916289305
 97
        0
 97
        0
 75
     2
 76
     1
 98
        0
  0
ENDBLK
  5
5F
330
5C
100
AcDbEntity
  8
0
100
AcDbBlockEnd
  0
BLOCK
  5
7E
330
7C
100
AcDbEntity
  8
0
100
AcDbBlockBegin
  2
block 3
 70
     0
 10
0.0
 20
0.0
 30
0.0
  3
block 3
  1

  0
POLYLINE
  5
80
330
7C
100
AcDbEntity
  8
_U+30EC_U+30A4_U+30E4_U+30FC 1
370
     0
100
AcDb2dPolyline
 66
     1
 10
0.0
 20
0.0
 30
0.0
  0
VERTEX
  5
81
330
80
100
AcDbEntity
  8
_U+30EC_U+30A4_U+30E4_U+30FC 1
370
     0
100
AcDbVertex
100
AcDb2dVertex
 10
84.63462725748718
 20
-160.1848822299191
 30
0.0
  0
VERTEX
  5
82
330
80
100
AcDbEntity
  8
_U+30EC_U+30A4_U+30E4_U+30FC 1
370
     0
100
AcDbVertex
100
AcDb2dVertex
 10
84.63462725748718
 20
-160.5318033452837
 30
0.0
  0
VERTEX
  5
83
330
80
100
AcDbEntity
  8
_U+30EC_U+30A4_U+30E4_U+30FC 1
370
     0
100
AcDbVertex
100
AcDb2dVertex
 10
84.41672496804513
 20
-160.5318033452837
 30
0.0
  0
VERTEX
  5
84
330
80
100
AcDbEntity
  8
_U+30EC_U+30A4_U+30E4_U+30FC 1
370
     0
100
AcDbVertex
100
AcDb2dVertex
 10
84.41672496804513
 20
-160.1848822299191
 30
0.0
  0
VERTEX
  5
85
330
80
100
AcDbEntity
  8
_U+30EC_U+30A4_U+30E4_U+30FC 1
370
     0
100
AcDbVertex
100
AcDb2dVertex
 10
83.76095104242782
 20
-160.1848822299191
 30
0.0
  0
VERTEX
  5
86
330
80
100
AcDbEntity
  8
_U+30EC_U+30A4_U+30E4_U+30FC 1
370
     0
100
AcDbVertex
100
AcDb2dVertex
 10
83.76095104242782
 20
-159.9606065138293
 30
0.0
  0
VERTEX
  5
87
330
80
100
AcDbEntity
  8
_U+30EC_U+30A4_U+30E4_U+30FC 1
370
     0
100
AcDbVertex
100
AcDb2dVertex
 10
84.43997936257057
 20
-158.9873670392462
 30
0.0
  0
VERTEX
  5
88
330
80
100
AcDbEntity
  8
_U+30EC_U+30A4_U+30E4_U+30FC 1
370
     0
100
AcDbVertex
100
AcDb2dVertex
 10
84.63462725748718
 20
-158.9873670392462
 30
0.0
  0
VERTEX
  5
89
330
80
100
AcDbEntity
  8
_U+30EC_U+30A4_U+30E4_U+30FC 1
370
     0
100
AcDbVertex
100
AcDb2dVertex
 10
84.63462725748718
 20
-159.9861002204202
 30
0.0
  0
VERTEX
  5
8A
330
80
100
AcDbEntity
  8
_U+30EC_U+30A4_U+30E4_U+30FC 1
370
     0
100
AcDbVertex
100
AcDb2dVertex
 10
84.84202200569922
 20
-159.9861002204202
 30
0.0
  0
VERTEX
  5
8B
330
80
100
AcDbEntity
  8
_U+30EC_U+30A4_U+30E4_U+30FC 1
370
     0
100
AcDbVertex
100
AcDb2dVertex
 10
84.84202200569922
 20
-160.1848822299191
 30
0.0
  0
VERTEX
  5
8C
330
80
100
AcDbEntity
  8
_U+30EC_U+30A4_U+30E4_U+30FC 1
370
     0
100
AcDbVertex
100
AcDb2dVertex
 10
84.63462725748718
 20
-160.1848822299191
 30
0.0
  0
SEQEND
  5
8D
330
80
100
AcDbEntity
  8
_U+30EC_U+30A4_U+30E4_U+30FC 1
370
     0
  0
POLYLINE
  5
8E
330
7C
100
AcDbEntity
  8
_U+30EC_U+30A4_U+30E4_U+30FC 1
370
     0
100
AcDb2dPolyline
 66
     1
 10
0.0
 20
0.0
 30
0.0
  0
VERTEX
  5
8F
330
8E
100
AcDbEntity
  8
_U+30EC_U+30A4_U+30E4_U+30FC 1
370
     0
100
AcDbVertex
100
AcDb2dVertex
 10
84.41672496804513
 20
-159.3301540400286
 30
0.0
  0
VERTEX
  5
90
330
8E
100
AcDbEntity
  8
_U+30EC_U+30A4_U+30E4_U+30FC 1
370
     0
100
AcDbVertex
100
AcDb2dVertex
 10
83.959905306701
 20
-159.9861002204202
 30
0.0
  0
VERTEX
  5
91
330
8E
100
AcDbEntity
  8
_U+30EC_U+30A4_U+30E4_U+30FC 1
370
     0
100
AcDbVertex
100
AcDb2dVertex
 10
84.41672496804513
 20
-159.9861002204202
 30
0.0
  0
VERTEX
  5
92
330
8E
100
AcDbEntity
  8
_U+30EC_U+30A4_U+30E4_U+30FC 1
370
     0
100
AcDbVertex
100
AcDb2dVertex
 10
84.41672496804513
 20
-159.3301540400286
 30
0.0
  0
SEQEND
  5
93
330
8E
100
AcDbEntity
  8
_U+30EC_U+30A4_U+30E4_U+30FC 1
370
     0
  0
HATCH
  5
94
330
7C
100
AcDbEntity
  8
_U+30EC_U+30A4_U+30E4_U+30FC 1
 62
   179
420
  2234388
100
AcDbHatch
 10
0.0
 20
0.0
 30
0.0
210
0.0
220
0.0
230
1.0
  2
SOLID
 70
     1
 71
     0
 91
        2
 92
        1
 93
       11
 72
     1
 10
84.63462725748718
 20
-160.1848822299191
 11
84.63462725748718
 21
-160.5318033452837
 72
     1
 10
84.63462725748718
 20
-160.5318033452837
 11
84.41672496804513
 21
-160.5318033452837
 72
     1
 10
84.41672496804513
 20
-160.5318033452837
 11
84.41672496804513
 21
-160.1848822299191
 72
     1
 10
84.41672496804513
 20
-160.1848822299191
 11
83.76095104242782
 21
-160.1848822299191
 72
     1
 10
83.76095104242782
 20
-160.1848822299191
 11
83.76095104242782
 21
-159.9606065138293
 72
     1
 10
83.76095104242782
 20
-159.9606065138293
 11
84.43997936257057
 21
-158.9873670392462
 72
     1
 10
84.43997936257057
 20
-158.9873670392462
 11
84.63462725748718
 21
-158.9873670392462
 72
     1
 10
84.63462725748718
 20
-158.9873670392462
 11
84.63462725748718
 21
-159.9861002204202
 72
     1
 10
84.63462725748718
 20
-159.9861002204202
 11
84.84202200569922
 21
-159.9861002204202
 72
     1
 10
84.84202200569922
 20
-159.9861002204202
 11
84.84202200569922
 21
-160.1848822299191
 72
     1
 10
84.84202200569922
 20
-160.1848822299191
 11
84.63462725748718
 21
-160.1848822299191
 97
        0
 92
        1
 93
        3
 72
     1
 10
84.41672496804513
 20
-159.3301540400286
 11
83.959905306701
 21
-159.9861002204202
 72
     1
 10
83.959905306701
 20
-159.9861002204202
 11
84.41672496804513
 21
-159.9861002204202
 72
     1
 10
84.41672496804513
 20
-159.9861002204202
 11
84.41672496804513
 21
-159.3301540400286
 97
        0
 75
     2
 76
     1
 98
        0
  0
SPLINE
  5
95
330
7C
100
AcDbEntity
  8
_U+30EC_U+30A4_U+30E4_U+30FC 1
370
     0
100
AcDbSpline
210
0.0
220
0.0
230
1.0
 70
    11
 71
     3
 72
    29
 73
    25
 74
     0
 42
0.0000000001
 43
0.0000000001
 12
1.0
 22
0.0
 32
0.0
 13
1.0
 23
0.0
 33
0.0
 40
0.0
 40
0.0
 40
0.0
 40
0.0
 40
1.0
 40
1.0
 40
1.0
 40
2.0
 40
2.0
 40
2.0
 40
3.0
 40
3.0
 40
3.0
 40
4.0
 40
4.0
 40
4.0
 40
5.0
 40
5.0
 40
5.0
 40
6.0
 40
6.0
 40
6.0
 40
7.0
 40
7.0
 40
7.0
 40
8.0
 40
8.0
 40
8.0
 40
8.0
 10
85.87710094424253
 20
-160.3540364182448
 30
0.0
 10
85.76926945555421
 20
-160.563498223748
 30
0.0
 10
85.59580889787189
 20
-160.5824462489169
 30
0.0
 10
85.47936467047045
 20
-160.5824462489169
 30
0.0
 10
85.31865096608354
 20
-160.5824462489169
 30
0.0
 10
85.1768852868655
 20
-160.535937459866
 30
0.0
 10
85.08162839669835
 20
-160.3540364182448
 30
0.0
 10
84.97810327736659
 20
-160.1593885233282
 30
0.0
 10
84.95898299742345
 20
-159.922365953943
 30
0.0
 10
84.95898299742345
 20
-159.7597574470392
 30
0.0
 10
84.95898299742345
 20
-159.6157524557558
 30
0.0
 10
84.97586396530117
 20
-159.363915975784
 30
0.0
 10
85.08162839669835
 20
-159.1651339662851
 30
0.0
 10
85.18963214016092
 20
-158.9622178422039
 30
0.0
 10
85.35034584454783
 20
-158.9387911929042
 30
0.0
 10
85.47936467047045
 20
-158.9387911929042
 30
0.0
 10
85.6380113175662
 20
-158.9387911929042
 30
0.0
 10
85.78184405407538
 20
-158.9832329246639
 30
0.0
 10
85.87710094424253
 20
-159.1651339662851
 30
0.0
 10
85.97649194899199
 20
-159.3577148039106
 30
0.0
 10
85.99974634351743
 20
-159.5861246345826
 30
0.0
 10
85.99974634351743
 20
-159.7597574470392
 30
0.0
 10
85.99974634351743
 20
-159.9309786926561
 30
0.0
 10
85.9787312610574
 20
-160.1614555806194
 30
0.0
 10
85.87710094424253
 20
-160.3540364182448
 30
0.0
  0
SPLINE
  5
96
330
7C
100
AcDbEntity
  8
_U+30EC_U+30A4_U+30E4_U+30FC 1
370
     0
100
AcDbSpline
210
0.0
220
0.0
230
1.0
 70
    11
 71
     3
 72
    17
 73
    13
 74
     0
 42
0.0000000001
 43
0.0000000001
 12
1.0
 22
0.0
 32
0.0
 13
1.0
 23
0.0
 33
0.0
 40
0.0
 40
0.0
 40
0.0
 40
0.0
 40
1.0
 40
1.0
 40
1.0
 40
2.0
 40
2.0
 40
2.0
 40
3.0
 40
3.0
 40
3.0
 40
4.0
 40
4.0
 40
4.0
 40
4.0
 10
85.47936467047045
 20
-159.1313720305297
 30
0.0
 10
85.22976750256409
 20
-159.1313720305297
 30
0.0
 10
85.18325871351321
 20
-159.4149033889657
 30
0.0
 10
85.18325871351321
 20
-159.7597574470392
 30
0.0
 10
85.18325871351321
 20
-160.0791177985219
 30
0.0
 10
85.21925996133407
 20
-160.3877983540003
 30
0.0
 10
85.47936467047045
 20
-160.3877983540003
 30
0.0
 10
85.72689478108565
 20
-160.3877983540003
 30
0.0
 10
85.77564288220192
 20
-160.1066785624039
 30
0.0
 10
85.77564288220192
 20
-159.7597574470392
 30
0.0
 10
85.77564288220192
 20
-159.4400525860081
 30
0.0
 10
85.73757457708992
 20
-159.1313720305297
 30
0.0
 10
85.47936467047045
 20
-159.1313720305297
 30
0.0
  0
HATCH
  5
97
330
7C
100
AcDbEntity
  8
_U+30EC_U+30A4_U+30E4_U+30FC 1
 62
   179
420
  2234388
100
AcDbHatch
 10
0.0
 20
0.0
 30
0.0
210
0.0
220
0.0
230
1.0
  2
SOLID
 70
     1
 71
     0
 91
        2
 92
        1
 93
        1
 72
     4
 94
        3
 73
     0
 74
     1
 95
       29
 96
       25
 40
0.0
 40
0.0
 40
0.0
 40
0.0
 40
1.0
 40
1.0
 40
1.0
 40
2.0
 40
2.0
 40
2.0
 40
3.0
 40
3.0
 40
3.0
 40
4.0
 40
4.0
 40
4.0
 40
5.0
 40
5.0
 40
5.0
 40
6.0
 40
6.0
 40
6.0
 40
7.0
 40
7.0
 40
7.0
 40
8.0
 40
8.0
 40
8.0
 40
8.0
 10
85.87710094424253
 20
-160.3540364182448
 10
85.76926945555421
 20
-160.563498223748
 10
85.59580889787189
 20
-160.5824462489169
 10
85.47936467047045
 20
-160.5824462489169
 10
85.31865096608354
 20
-160.5824462489169
 10
85.1768852868655
 20
-160.535937459866
 10
85.08162839669835
 20
-160.3540364182448
 10
84.97810327736659
 20
-160.1593885233282
 10
84.95898299742345
 20
-159.922365953943
 10
84.95898299742345
 20
-159.7597574470392
 10
84.95898299742345
 20
-159.6157524557558
 10
84.97586396530117
 20
-159.363915975784
 10
85.08162839669835
 20
-159.1651339662851
 10
85.18963214016092
 20
-158.9622178422039
 10
85.35034584454783
 20
-158.9387911929042
 10
85.47936467047045
 20
-158.9387911929042
 10
85.6380113175662
 20
-158.9387911929042
 10
85.78184405407538
 20
-158.9832329246639
 10
85.87710094424253
 20
-159.1651339662851
 10
85.97649194899199
 20
-159.3577148039106
 10
85.99974634351743
 20
-159.5861246345826
 10
85.99974634351743
 20
-159.7597574470392
 10
85.99974634351743
 20
-159.9309786926561
 10
85.9787312610574
 20
-160.1614555806194
 10
85.87710094424253
 20
-160.3540364182448
 97
        0
 97
        0
 92
        1
 93
        1
 72
     4
 94
        3
 73
     0
 74
     1
 95
       17
 96
       13
 40
0.0
 40
0.0
 40
0.0
 40
0.0
 40
1.0
 40
1.0
 40
1.0
 40
2.0
 40
2.0
 40
2.0
 40
3.0
 40
3.0
 40
3.0
 40
4.0
 40
4.0
 40
4.0
 40
4.0
 10
85.47936467047045
 20
-159.1313720305297
 10
85.22976750256409
 20
-159.1313720305297
 10
85.18325871351321
 20
-159.4149033889657
 10
85.18325871351321
 20
-159.7597574470392
 10
85.18325871351321
 20
-160.0791177985219
 10
85.21925996133407
 20
-160.3877983540003
 10
85.47936467047045
 20
-160.3877983540003
 10
85.72689478108565
 20
-160.3877983540003
 10
85.77564288220192
 20
-160.1066785624039
 10
85.77564288220192
 20
-159.7597574470392
 10
85.77564288220192
 20
-159.4400525860081
 10
85.73757457708992
 20
-159.1313720305297
 10
85.47936467047045
 20
-159.1313720305297
 97
        0
 97
        0
 75
     2
 76
     1
 98
        0
  0
ENDBLK
  5
7F
330
7C
100
AcDbEntity
  8
0
100
AcDbBlockEnd
  0
BLOCK
  5
A2
330
A0
100
AcDbEntity
  8
0
100
AcDbBlockBegin
  2
block 4
 70
     0
 10
0.0
 20
0.0
 30
0.0
  3
block 4
  1

  0
SPLINE
  5
A4
330
A0
100
AcDbEntity
  8
_U+30EC_U+30A4_U+30E4_U+30FC 1
370
     0
100
AcDbSpline
210
0.0
220
0.0
230
1.0
 70
    11
 71
     3
 72
    26
 73
    22
 74
     0
 42
0.0000000001
 43
0.0000000001
 12
1.0
 22
0.0
 32
0.0
 13
1.0
 23
0.0
 33
0.0
 40
0.0
 40
0.0
 40
0.0
 40
0.0
 40
1.0
 40
1.0
 40
1.0
 40
2.0
 40
2.0
 40
2.0
 40
3.0
 40
3.0
 40
3.0
 40
4.0
 40
4.0
 40
4.0
 40
5.0
 40
5.0
 40
5.0
 40
6.0
 40
6.0
 40
6.0
 40
7.0
 40
7.0
 40
7.0
 40
7.0
 10
111.7537298982768
 20
-160.5318033452837
 30
0.0
 10
111.7537298982768
 20
-160.5318033452837
 30
0.0
 10
111.7537298982768
 20
-159.4276502422611
 30
0.0
 10
111.7537298982768
 20
-159.4276502422611
 30
0.0
 10
111.7537298982768
 20
-159.4276502422611
 30
0.0
 10
111.4236897507899
 20
-159.4276502422611
 30
0.0
 10
111.4236897507899
 20
-159.4276502422611
 30
0.0
 10
111.4236897507899
 20
-159.4276502422611
 30
0.0
 10
111.4236897507899
 20
-159.2795111363954
 30
0.0
 10
111.4236897507899
 20
-159.2795111363954
 30
0.0
 10
111.755796955568
 20
-159.2646972258088
 30
0.0
 10
111.8023057446189
 20
-159.1017442093565
 30
0.0
 10
111.831933565792
 20
-158.9873670392462
 30
0.0
 10
111.831933565792
 20
-158.9873670392462
 30
0.0
 10
111.9780056143666
 20
-158.9873670392462
 30
0.0
 10
111.9780056143666
 20
-158.9873670392462
 30
0.0
 10
111.9780056143666
 20
-158.9873670392462
 30
0.0
 10
111.9780056143666
 20
-160.5318033452837
 30
0.0
 10
111.9780056143666
 20
-160.5318033452837
 30
0.0
 10
111.9780056143666
 20
-160.5318033452837
 30
0.0
 10
111.7537298982768
 20
-160.5318033452837
 30
0.0
 10
111.7537298982768
 20
-160.5318033452837
 30
0.0
  0
HATCH
  5
A5
330
A0
100
AcDbEntity
  8
_U+30EC_U+30A4_U+30E4_U+30FC 1
 62
   179
420
  2234388
100
AcDbHatch
 10
0.0
 20
0.0
 30
0.0
210
0.0
220
0.0
230
1.0
  2
SOLID
 70
     1
 71
     0
 91
        1
 92
        1
 93
        1
 72
     4
 94
        3
 73
     0
 74
     1
 95
       26
 96
       22
 40
0.0
 40
0.0
 40
0.0
 40
0.0
 40
1.0
 40
1.0
 40
1.0
 40
2.0
 40
2.0
 40
2.0
 40
3.0
 40
3.0
 40
3.0
 40
4.0
 40
4.0
 40
4.0
 40
5.0
 40
5.0
 40
5.0
 40
6.0
 40
6.0
 40
6.0
 40
7.0
 40
7.0
 40
7.0
 40
7.0
 10
111.7537298982768
 20
-160.5318033452837
 10
111.7537298982768
 20
-160.5318033452837
 10
111.7537298982768
 20
-159.4276502422611
 10
111.7537298982768
 20
-159.4276502422611
 10
111.7537298982768
 20
-159.4276502422611
 10
111.4236897507899
 20
-159.4276502422611
 10
111.4236897507899
 20
-159.4276502422611
 10
111.4236897507899
 20
-159.4276502422611
 10
111.4236897507899
 20
-159.2795111363954
 10
111.4236897507899
 20
-159.2795111363954
 10
111.755796955568
 20
-159.2646972258088
 10
111.8023057446189
 20
-159.1017442093565
 10
111.831933565792
 20
-158.9873670392462
 10
111.831933565792
 20
-158.9873670392462
 10
111.9780056143666
 20
-158.9873670392462
 10
111.9780056143666
 20
-158.9873670392462
 10
111.9780056143666
 20
-158.9873670392462
 10
111.9780056143666
 20
-160.5318033452837
 10
111.9780056143666
 20
-160.5318033452837
 10
111.9780056143666
 20
-160.5318033452837
 10
111.7537298982768
 20
-160.5318033452837
 10
111.7537298982768
 20
-160.5318033452837
 97
        0
 97
        0
 75
     2
 76
     1
 98
        0
  0
SPLINE
  5
A6
330
A0
100
AcDbEntity
  8
_U+30EC_U+30A4_U+30E4_U+30FC 1
370
     0
100
AcDbSpline
210
0.0
220
0.0
230
1.0
 70
    11
 71
     3
 72
    53
 73
    49
 74
     0
 42
0.0000000001
 43
0.0000000001
 12
1.0
 22
0.0
 32
0.0
 13
1.0
 23
0.0
 33
0.0
 40
0.0
 40
0.0
 40
0.0
 40
0.0
 40
1.0
 40
1.0
 40
1.0
 40
2.0
 40
2.0
 40
2.0
 40
3.0
 40
3.0
 40
3.0
 40
4.0
 40
4.0
 40
4.0
 40
5.0
 40
5.0
 40
5.0
 40
6.0
 40
6.0
 40
6.0
 40
7.0
 40
7.0
 40
7.0
 40
8.0
 40
8.0
 40
8.0
 40
9.0
 40
9.0
 40
9.0
 40
10.0
 40
10.0
 40
10.0
 40
11.0
 40
11.0
 40
11.0
 40
12.0
 40
12.0
 40
12.0
 40
13.0
 40
13.0
 40
13.0
 40
14.0
 40
14.0
 40
14.0
 40
15.0
 40
15.0
 40
15.0
 40
16.0
 40
16.0
 40
16.0
 40
16.0
 10
112.9602023372113
 20
-160.5824462489169
 30
0.0
 10
112.8819986696962
 20
-160.5824462489169
 30
0.0
 10
112.7803683528813
 20
-160.5655652810392
 30
0.0
 10
112.6787380360664
 20
-160.5021755241106
 30
0.0
 10
112.5054497331584
 20
-160.3922769781311
 30
0.0
 10
112.4840901411498
 20
-160.2610188401431
 30
0.0
 10
112.4651421159809
 20
-160.1531873514548
 30
0.0
 10
112.4651421159809
 20
-160.1531873514548
 30
0.0
 10
112.6873507747796
 20
-160.1531873514548
 30
0.0
 10
112.6873507747796
 20
-160.1531873514548
 30
0.0
 10
112.7424723025435
 20
-160.3519693609537
 30
0.0
 10
112.8692518164007
 20
-160.3815971821268
 30
0.0
 10
112.9622693945025
 20
-160.3815971821268
 30
0.0
 10
113.1017957616551
 20
-160.3815971821268
 30
0.0
 10
113.2544134916517
 20
-160.2820339226031
 30
0.0
 10
113.2544134916517
 20
-160.0494899773487
 30
0.0
 10
113.2544134916517
 20
-159.7935193827947
 30
0.0
 10
113.0745795073216
 20
-159.7235839444441
 30
0.0
 10
112.9540011653379
 20
-159.7235839444441
 30
0.0
 10
112.9223062868736
 20
-159.7235839444441
 30
0.0
 10
112.7803683528813
 20
-159.7235839444441
 30
0.0
 10
112.6914848893619
 20
-159.852775025141
 30
0.0
 10
112.6914848893619
 20
-159.852775025141
 30
0.0
 10
112.5161295291626
 20
-159.8338269999721
 30
0.0
 10
112.5161295291626
 20
-159.8338269999721
 30
0.0
 10
112.5161295291626
 20
-159.8338269999721
 30
0.0
 10
112.6367078711464
 20
-158.9873670392462
 30
0.0
 10
112.6367078711464
 20
-158.9873670392462
 30
0.0
 10
112.6367078711464
 20
-158.9873670392462
 30
0.0
 10
113.4149549412643
 20
-158.9873670392462
 30
0.0
 10
113.4149549412643
 20
-158.9873670392462
 30
0.0
 10
113.4149549412643
 20
-158.9873670392462
 30
0.0
 10
113.4149549412643
 20
-159.1820149341629
 30
0.0
 10
113.4149549412643
 20
-159.1820149341629
 30
0.0
 10
113.4149549412643
 20
-159.1820149341629
 30
0.0
 10
112.7993163780502
 20
-159.1820149341629
 30
0.0
 10
112.7993163780502
 20
-159.1820149341629
 30
0.0
 10
112.7993163780502
 20
-159.1820149341629
 30
0.0
 10
112.7338595638304
 20
-159.6050726597515
 30
0.0
 10
112.7338595638304
 20
-159.6050726597515
 30
0.0
 10
112.7951822634679
 20
-159.5713107239961
 30
0.0
 10
112.8778645551139
 20
-159.5310031068186
 30
0.0
 10
112.9960313302579
 20
-159.5310031068186
 30
0.0
 10
113.2499348675208
 20
-159.5310031068186
 30
0.0
 10
113.486957436906
 20
-159.7173827725707
 30
0.0
 10
113.486957436906
 20
-160.0305419521799
 30
0.0
 10
113.486957436906
 20
-160.3478352463714
 30
0.0
 10
113.2626817208163
 20
-160.5824462489169
 30
0.0
 10
112.9602023372113
 20
-160.5824462489169
 30
0.0
  0
HATCH
  5
A7
330
A0
100
AcDbEntity
  8
_U+30EC_U+30A4_U+30E4_U+30FC 1
 62
   179
420
  2234388
100
AcDbHatch
 10
0.0
 20
0.0
 30
0.0
210
0.0
220
0.0
230
1.0
  2
SOLID
 70
     1
 71
     0
 91
        1
 92
        1
 93
        1
 72
     4
 94
        3
 73
     0
 74
     1
 95
       53
 96
       49
 40
0.0
 40
0.0
 40
0.0
 40
0.0
 40
1.0
 40
1.0
 40
1.0
 40
2.0
 40
2.0
 40
2.0
 40
3.0
 40
3.0
 40
3.0
 40
4.0
 40
4.0
 40
4.0
 40
5.0
 40
5.0
 40
5.0
 40
6.0
 40
6.0
 40
6.0
 40
7.0
 40
7.0
 40
7.0
 40
8.0
 40
8.0
 40
8.0
 40
9.0
 40
9.0
 40
9.0
 40
10.0
 40
10.0
 40
10.0
 40
11.0
 40
11.0
 40
11.0
 40
12.0
 40
12.0
 40
12.0
 40
13.0
 40
13.0
 40
13.0
 40
14.0
 40
14.0
 40
14.0
 40
15.0
 40
15.0
 40
15.0
 40
16.0
 40
16.0
 40
16.0
 40
16.0
 10
112.9602023372113
 20
-160.5824462489169
 10
112.8819986696962
 20
-160.5824462489169
 10
112.7803683528813
 20
-160.5655652810392
 10
112.6787380360664
 20
-160.5021755241106
 10
112.5054497331584
 20
-160.3922769781311
 10
112.4840901411498
 20
-160.2610188401431
 10
112.4651421159809
 20
-160.1531873514548
 10
112.4651421159809
 20
-160.1531873514548
 10
112.6873507747796
 20
-160.1531873514548
 10
112.6873507747796
 20
-160.1531873514548
 10
112.7424723025435
 20
-160.3519693609537
 10
112.8692518164007
 20
-160.3815971821268
 10
112.9622693945025
 20
-160.3815971821268
 10
113.1017957616551
 20
-160.3815971821268
 10
113.2544134916517
 20
-160.2820339226031
 10
113.2544134916517
 20
-160.0494899773487
 10
113.2544134916517
 20
-159.7935193827947
 10
113.0745795073216
 20
-159.7235839444441
 10
112.9540011653379
 20
-159.7235839444441
 10
112.9223062868736
 20
-159.7235839444441
 10
112.7803683528813
 20
-159.7235839444441
 10
112.6914848893619
 20
-159.852775025141
 10
112.6914848893619
 20
-159.852775025141
 10
112.5161295291626
 20
-159.8338269999721
 10
112.5161295291626
 20
-159.8338269999721
 10
112.5161295291626
 20
-159.8338269999721
 10
112.6367078711464
 20
-158.9873670392462
 10
112.6367078711464
 20
-158.9873670392462
 10
112.6367078711464
 20
-158.9873670392462
 10
113.4149549412643
 20
-158.9873670392462
 10
113.4149549412643
 20
-158.9873670392462
 10
113.4149549412643
 20
-158.9873670392462
 10
113.4149549412643
 20
-159.1820149341629
 10
113.4149549412643
 20
-159.1820149341629
 10
113.4149549412643
 20
-159.1820149341629
 10
112.7993163780502
 20
-159.1820149341629
 10
112.7993163780502
 20
-159.1820149341629
 10
112.7993163780502
 20
-159.1820149341629
 10
112.7338595638304
 20
-159.6050726597515
 10
112.7338595638304
 20
-159.6050726597515
 10
112.7951822634679
 20
-159.5713107239961
 10
112.8778645551139
 20
-159.5310031068186
 10
112.9960313302579
 20
-159.5310031068186
 10
113.2499348675208
 20
-159.5310031068186
 10
113.486957436906
 20
-159.7173827725707
 10
113.486957436906
 20
-160.0305419521799
 10
113.486957436906
 20
-160.3478352463714
 10
113.2626817208163
 20
-160.5824462489169
 10
112.9602023372113
 20
-160.5824462489169
 97
        0
 97
        0
 75
     2
 76
     1
 98
        0
  0
ENDBLK
  5
A3
330
A0
100
AcDbEntity
  8
0
100
AcDbBlockEnd
  0
BLOCK
  5
B6
330
B4
100
AcDbEntity
  8
0
100
AcDbBlockBegin
  2
block 5
 70
     0
 10
0.0
 20
0.0
 30
0.0
  3
block 5
  1

  0
SPLINE
  5
B8
330
B4
100
AcDbEntity
  8
_U+30EC_U+30A4_U+30E4_U+30FC 1
370
     0
100
AcDbSpline
210
0.0
220
0.0
230
1.0
 70
    11
 71
     3
 72
    44
 73
    40
 74
     0
 42
0.0000000001
 43
0.0000000001
 12
1.0
 22
0.0
 32
0.0
 13
1.0
 23
0.0
 33
0.0
 40
0.0
 40
0.0
 40
0.0
 40
0.0
 40
1.0
 40
1.0
 40
1.0
 40
2.0
 40
2.0
 40
2.0
 40
3.0
 40
3.0
 40
3.0
 40
4.0
 40
4.0
 40
4.0
 40
5.0
 40
5.0
 40
5.0
 40
6.0
 40
6.0
 40
6.0
 40
7.0
 40
7.0
 40
7.0
 40
8.0
 40
8.0
 40
8.0
 40
9.0
 40
9.0
 40
9.0
 40
10.0
 40
10.0
 40
10.0
 40
11.0
 40
11.0
 40
11.0
 40
12.0
 40
12.0
 40
12.0
 40
13.0
 40
13.0
 40
13.0
 40
13.0
 10
78.09583602648298
 20
-96.94998234338404
 30
0.0
 10
77.87793373704093
 20
-97.10862899047979
 30
0.0
 10
77.78474390416493
 20
-97.18269854341267
 30
0.0
 10
77.73616805782291
 20
-97.32653127992184
 30
0.0
 10
77.73616805782291
 20
-97.32653127992184
 30
0.0
 10
78.5145873827151
 20
-97.32653127992184
 30
0.0
 10
78.5145873827151
 20
-97.32653127992184
 30
0.0
 10
78.5145873827151
 20
-97.32653127992184
 30
0.0
 10
78.5145873827151
 20
-97.53168671606848
 30
0.0
 10
78.5145873827151
 20
-97.53168671606848
 30
0.0
 10
78.5145873827151
 20
-97.53168671606848
 30
0.0
 10
77.48657088991655
 20
-97.53168671606848
 30
0.0
 10
77.48657088991655
 20
-97.53168671606848
 30
0.0
 10
77.51826576838086
 20
-97.17408580469954
 30
0.0
 10
77.5837225826006
 20
-97.09588213718436
 30
0.0
 10
77.96888425785153
 20
-96.79753686816173
 30
0.0
 10
78.2248548524056
 20
-96.59875485866282
 30
0.0
 10
78.29031166662534
 20
-96.53105873237766
 30
0.0
 10
78.29031166662534
 20
-96.39359942251619
 30
0.0
 10
78.29031166662534
 20
-96.27508813782359
 30
0.0
 10
78.21848142575789
 20
-96.14400225460983
 30
0.0
 10
78.02176647355012
 20
-96.14400225460983
 30
0.0
 10
77.76148950963949
 20
-96.14400225460983
 30
0.0
 10
77.75304902570063
 20
-96.37447914257305
 30
0.0
 10
77.74874265634406
 20
-96.4909233699745
 30
0.0
 10
77.74874265634406
 20
-96.4909233699745
 30
0.0
 10
77.52463919502857
 20
-96.4909233699745
 30
0.0
 10
77.52463919502857
 20
-96.4909233699745
 30
0.0
 10
77.53307967896743
 20
-96.36397160134304
 30
0.0
 10
77.54358722019744
 20
-96.25183374329816
 30
0.0
 10
77.62403019977802
 20
-96.13332245860556
 30
0.0
 10
77.7339287457575
 20
-95.97260875421865
 30
0.0
 10
77.92013615673525
 20
-95.93867456368895
 30
0.0
 10
78.0365803841367
 20
-95.93867456368895
 30
0.0
 10
78.31373831592504
 20
-95.93867456368895
 30
0.0
 10
78.52096080936282
 20
-96.12281491737555
 30
0.0
 10
78.52096080936282
 20
-96.39566647980733
 30
0.0
 10
78.52096080936282
 20
-96.6240763104794
 30
0.0
 10
78.40468883673563
 20
-96.72363957000312
 30
0.0
 10
78.09583602648298
 20
-96.94998234338404
 30
0.0
  0
HATCH
  5
B9
330
B4
100
AcDbEntity
  8
_U+30EC_U+30A4_U+30E4_U+30FC 1
 62
   179
420
  2234388
100
AcDbHatch
 10
0.0
 20
0.0
 30
0.0
210
0.0
220
0.0
230
1.0
  2
SOLID
 70
     1
 71
     0
 91
        1
 92
        1
 93
        1
 72
     4
 94
        3
 73
     0
 74
     1
 95
       44
 96
       40
 40
0.0
 40
0.0
 40
0.0
 40
0.0
 40
1.0
 40
1.0
 40
1.0
 40
2.0
 40
2.0
 40
2.0
 40
3.0
 40
3.0
 40
3.0
 40
4.0
 40
4.0
 40
4.0
 40
5.0
 40
5.0
 40
5.0
 40
6.0
 40
6.0
 40
6.0
 40
7.0
 40
7.0
 40
7.0
 40
8.0
 40
8.0
 40
8.0
 40
9.0
 40
9.0
 40
9.0
 40
10.0
 40
10.0
 40
10.0
 40
11.0
 40
11.0
 40
11.0
 40
12.0
 40
12.0
 40
12.0
 40
13.0
 40
13.0
 40
13.0
 40
13.0
 10
78.09583602648298
 20
-96.94998234338404
 10
77.87793373704093
 20
-97.10862899047979
 10
77.78474390416493
 20
-97.18269854341267
 10
77.73616805782291
 20
-97.32653127992184
 10
77.73616805782291
 20
-97.32653127992184
 10
78.5145873827151
 20
-97.32653127992184
 10
78.5145873827151
 20
-97.32653127992184
 10
78.5145873827151
 20
-97.32653127992184
 10
78.5145873827151
 20
-97.53168671606848
 10
78.5145873827151
 20
-97.53168671606848
 10
78.5145873827151
 20
-97.53168671606848
 10
77.48657088991655
 20
-97.53168671606848
 10
77.48657088991655
 20
-97.53168671606848
 10
77.51826576838086
 20
-97.17408580469954
 10
77.5837225826006
 20
-97.09588213718436
 10
77.96888425785153
 20
-96.79753686816173
 10
78.2248548524056
 20
-96.59875485866282
 10
78.29031166662534
 20
-96.53105873237766
 10
78.29031166662534
 20
-96.39359942251619
 10
78.29031166662534
 20
-96.27508813782359
 10
78.21848142575789
 20
-96.14400225460983
 10
78.02176647355012
 20
-96.14400225460983
 10
77.76148950963949
 20
-96.14400225460983
 10
77.75304902570063
 20
-96.37447914257305
 10
77.74874265634406
 20
-96.4909233699745
 10
77.74874265634406
 20
-96.4909233699745
 10
77.52463919502857
 20
-96.4909233699745
 10
77.52463919502857
 20
-96.4909233699745
 10
77.53307967896743
 20
-96.36397160134304
 10
77.54358722019744
 20
-96.25183374329816
 10
77.62403019977802
 20
-96.13332245860556
 10
77.7339287457575
 20
-95.97260875421865
 10
77.92013615673525
 20
-95.93867456368895
 10
78.0365803841367
 20
-95.93867456368895
 10
78.31373831592504
 20
-95.93867456368895
 10
78.52096080936282
 20
-96.12281491737555
 10
78.52096080936282
 20
-96.39566647980733
 10
78.52096080936282
 20
-96.6240763104794
 10
78.40468883673563
 20
-96.72363957000312
 10
78.09583602648298
 20
-96.94998234338404
 97
        0
 97
        0
 75
     2
 76
     1
 98
        0
  0
SPLINE
  5
BA
330
B4
100
AcDbEntity
  8
_U+30EC_U+30A4_U+30E4_U+30FC 1
370
     0
100
AcDbSpline
210
0.0
220
0.0
230
1.0
 70
    11
 71
     3
 72
    53
 73
    49
 74
     0
 42
0.0000000001
 43
0.0000000001
 12
1.0
 22
0.0
 32
0.0
 13
1.0
 23
0.0
 33
0.0
 40
0.0
 40
0.0
 40
0.0
 40
0.0
 40
1.0
 40
1.0
 40
1.0
 40
2.0
 40
2.0
 40
2.0
 40
3.0
 40
3.0
 40
3.0
 40
4.0
 40
4.0
 40
4.0
 40
5.0
 40
5.0
 40
5.0
 40
6.0
 40
6.0
 40
6.0
 40
7.0
 40
7.0
 40
7.0
 40
8.0
 40
8.0
 40
8.0
 40
9.0
 40
9.0
 40
9.0
 40
10.0
 40
10.0
 40
10.0
 40
11.0
 40
11.0
 40
11.0
 40
12.0
 40
12.0
 40
12.0
 40
13.0
 40
13.0
 40
13.0
 40
14.0
 40
14.0
 40
14.0
 40
15.0
 40
15.0
 40
15.0
 40
16.0
 40
16.0
 40
16.0
 40
16.0
 10
79.16054278619946
 20
-97.58250187447591
 30
0.0
 10
79.08216686391002
 20
-97.58250187447591
 30
0.0
 10
78.98070880186941
 20
-97.56544865182391
 30
0.0
 10
78.87907848505454
 20
-97.50205889489533
 30
0.0
 10
78.70561792737222
 20
-97.3919880941416
 30
0.0
 10
78.68443059013792
 20
-97.26090221092784
 30
0.0
 10
78.66548256496905
 20
-97.15307072223952
 30
0.0
 10
78.66548256496905
 20
-97.15307072223952
 30
0.0
 10
78.8875189689934
 20
-97.15307072223952
 30
0.0
 10
78.8875189689934
 20
-97.15307072223952
 30
0.0
 10
78.9426404967574
 20
-97.35185273173843
 30
0.0
 10
79.06959226538885
 20
-97.38148055291158
 30
0.0
 10
79.1626098434906
 20
-97.38148055291158
 30
0.0
 10
79.30213621064323
 20
-97.38148055291158
 30
0.0
 10
79.45458168586552
 20
-97.28208954816212
 30
0.0
 10
79.45458168586552
 20
-97.0493733481335
 30
0.0
 10
79.45458168586552
 20
-96.79340275357943
 30
0.0
 10
79.27474770153549
 20
-96.72363957000312
 30
0.0
 10
79.15416935955174
 20
-96.72363957000312
 30
0.0
 10
79.12247448108744
 20
-96.72363957000312
 30
0.0
 10
78.98070880186941
 20
-96.72363957000312
 30
0.0
 10
78.89182533834996
 20
-96.85265839592573
 30
0.0
 10
78.89182533834996
 20
-96.85265839592573
 30
0.0
 10
78.71629772337648
 20
-96.83353811598259
 30
0.0
 10
78.71629772337648
 20
-96.83353811598259
 30
0.0
 10
78.71629772337648
 20
-96.83353811598259
 30
0.0
 10
78.83687606536023
 20
-95.98742266480524
 30
0.0
 10
78.83687606536023
 20
-95.98742266480524
 30
0.0
 10
78.83687606536023
 20
-95.98742266480524
 30
0.0
 10
79.61529539025243
 20
-95.98742266480524
 30
0.0
 10
79.61529539025243
 20
-95.98742266480524
 30
0.0
 10
79.61529539025243
 20
-95.98742266480524
 30
0.0
 10
79.61529539025243
 20
-96.18207055972185
 30
0.0
 10
79.61529539025243
 20
-96.18207055972185
 30
0.0
 10
79.61529539025243
 20
-96.18207055972185
 30
0.0
 10
78.99965682703828
 20
-96.18207055972185
 30
0.0
 10
78.99965682703828
 20
-96.18207055972185
 30
0.0
 10
78.99965682703828
 20
-96.18207055972185
 30
0.0
 10
78.93420001281854
 20
-96.60512828531053
 30
0.0
 10
78.93420001281854
 20
-96.60512828531053
 30
0.0
 10
78.99552271245598
 20
-96.57119409478082
 30
0.0
 10
79.07803274932772
 20
-96.53105873237766
 30
0.0
 10
79.19637177924605
 20
-96.53105873237766
 30
0.0
 10
79.45027531650896
 20
-96.53105873237766
 30
0.0
 10
79.68729788589415
 20
-96.71726614335542
 30
0.0
 10
79.68729788589415
 20
-97.03025306819036
 30
0.0
 10
79.68729788589415
 20
-97.34771861715613
 30
0.0
 10
79.46302216980439
 20
-97.58250187447591
 30
0.0
 10
79.16054278619946
 20
-97.58250187447591
 30
0.0
  0
HATCH
  5
BB
330
B4
100
AcDbEntity
  8
_U+30EC_U+30A4_U+30E4_U+30FC 1
 62
   179
420
  2234388
100
AcDbHatch
 10
0.0
 20
0.0
 30
0.0
210
0.0
220
0.0
230
1.0
  2
SOLID
 70
     1
 71
     0
 91
        1
 92
        1
 93
        1
 72
     4
 94
        3
 73
     0
 74
     1
 95
       53
 96
       49
 40
0.0
 40
0.0
 40
0.0
 40
0.0
 40
1.0
 40
1.0
 40
1.0
 40
2.0
 40
2.0
 40
2.0
 40
3.0
 40
3.0
 40
3.0
 40
4.0
 40
4.0
 40
4.0
 40
5.0
 40
5.0
 40
5.0
 40
6.0
 40
6.0
 40
6.0
 40
7.0
 40
7.0
 40
7.0
 40
8.0
 40
8.0
 40
8.0
 40
9.0
 40
9.0
 40
9.0
 40
10.0
 40
10.0
 40
10.0
 40
11.0
 40
11.0
 40
11.0
 40
12.0
 40
12.0
 40
12.0
 40
13.0
 40
13.0
 40
13.0
 40
14.0
 40
14.0
 40
14.0
 40
15.0
 40
15.0
 40
15.0
 40
16.0
 40
16.0
 40
16.0
 40
16.0
 10
79.16054278619946
 20
-97.58250187447591
 10
79.08216686391002
 20
-97.58250187447591
 10
78.98070880186941
 20
-97.56544865182391
 10
78.87907848505454
 20
-97.50205889489533
 10
78.70561792737222
 20
-97.3919880941416
 10
78.68443059013792
 20
-97.26090221092784
 10
78.66548256496905
 20
-97.15307072223952
 10
78.66548256496905
 20
-97.15307072223952
 10
78.8875189689934
 20
-97.15307072223952
 10
78.8875189689934
 20
-97.15307072223952
 10
78.9426404967574
 20
-97.35185273173843
 10
79.06959226538885
 20
-97.38148055291158
 10
79.1626098434906
 20
-97.38148055291158
 10
79.30213621064323
 20
-97.38148055291158
 10
79.45458168586552
 20
-97.28208954816212
 10
79.45458168586552
 20
-97.0493733481335
 10
79.45458168586552
 20
-96.79340275357943
 10
79.27474770153549
 20
-96.72363957000312
 10
79.15416935955174
 20
-96.72363957000312
 10
79.12247448108744
 20
-96.72363957000312
 10
78.98070880186941
 20
-96.72363957000312
 10
78.89182533834996
 20
-96.85265839592573
 10
78.89182533834996
 20
-96.85265839592573
 10
78.71629772337648
 20
-96.83353811598259
 10
78.71629772337648
 20
-96.83353811598259
 10
78.71629772337648
 20
-96.83353811598259
 10
78.83687606536023
 20
-95.98742266480524
 10
78.83687606536023
 20
-95.98742266480524
 10
78.83687606536023
 20
-95.98742266480524
 10
79.61529539025243
 20
-95.98742266480524
 10
79.61529539025243
 20
-95.98742266480524
 10
79.61529539025243
 20
-95.98742266480524
 10
79.61529539025243
 20
-96.18207055972185
 10
79.61529539025243
 20
-96.18207055972185
 10
79.61529539025243
 20
-96.18207055972185
 10
78.99965682703828
 20
-96.18207055972185
 10
78.99965682703828
 20
-96.18207055972185
 10
78.99965682703828
 20
-96.18207055972185
 10
78.93420001281854
 20
-96.60512828531053
 10
78.93420001281854
 20
-96.60512828531053
 10
78.99552271245598
 20
-96.57119409478082
 10
79.07803274932772
 20
-96.53105873237766
 10
79.19637177924605
 20
-96.53105873237766
 10
79.45027531650896
 20
-96.53105873237766
 10
79.68729788589415
 20
-96.71726614335542
 10
79.68729788589415
 20
-97.03025306819036
 10
79.68729788589415
 20
-97.34771861715613
 10
79.46302216980439
 20
-97.58250187447591
 10
79.16054278619946
 20
-97.58250187447591
 97
        0
 97
        0
 75
     2
 76
     1
 98
        0
  0
ENDBLK
  5
B7
330
B4
100
AcDbEntity
  8
0
100
AcDbBlockEnd
  0
BLOCK
  5
CA
330
C8
100
AcDbEntity
  8
0
100
AcDbBlockBegin
  2
block 6
 70
     0
 10
0.0
 20
0.0
 30
0.0
  3
block 6
  1

  0
POLYLINE
  5
CC
330
C8
100
AcDbEntity
  8
_U+30EC_U+30A4_U+30E4_U+30FC 1
370
     0
100
AcDb2dPolyline
 66
     1
 10
0.0
 20
0.0
 30
0.0
  0
VERTEX
  5
CD
330
CC
100
AcDbEntity
  8
_U+30EC_U+30A4_U+30E4_U+30FC 1
370
     0
100
AcDbVertex
100
AcDb2dVertex
 10
59.8981526542963
 20
-137.4348496835232
 30
0.0
  0
VERTEX
  5
CE
330
CC
100
AcDbEntity
  8
_U+30EC_U+30A4_U+30E4_U+30FC 1
370
     0
100
AcDbVertex
100
AcDb2dVertex
 10
60.24507376966096
 20
-137.4348496835232
 30
0.0
  0
VERTEX
  5
CF
330
CC
100
AcDbEntity
  8
_U+30EC_U+30A4_U+30E4_U+30FC 1
370
     0
100
AcDbVertex
100
AcDb2dVertex
 10
60.24507376966096
 20
-137.652579718191
 30
0.0
  0
VERTEX
  5
D0
330
CC
100
AcDbEntity
  8
_U+30EC_U+30A4_U+30E4_U+30FC 1
370
     0
100
AcDbVertex
100
AcDb2dVertex
 10
59.8981526542963
 20
-137.652579718191
 30
0.0
  0
VERTEX
  5
D1
330
CC
100
AcDbEntity
  8
_U+30EC_U+30A4_U+30E4_U+30FC 1
370
     0
100
AcDbVertex
100
AcDb2dVertex
 10
59.8981526542963
 20
-138.3085258985826
 30
0.0
  0
VERTEX
  5
D2
330
CC
100
AcDbEntity
  8
_U+30EC_U+30A4_U+30E4_U+30FC 1
370
     0
100
AcDbVertex
100
AcDb2dVertex
 10
59.67387693820653
 20
-138.3085258985826
 30
0.0
  0
VERTEX
  5
D3
330
CC
100
AcDbEntity
  8
_U+30EC_U+30A4_U+30E4_U+30FC 1
370
     0
100
AcDbVertex
100
AcDb2dVertex
 10
58.70063746362345
 20
-137.6294975784399
 30
0.0
  0
VERTEX
  5
D4
330
CC
100
AcDbEntity
  8
_U+30EC_U+30A4_U+30E4_U+30FC 1
370
     0
100
AcDbVertex
100
AcDb2dVertex
 10
58.70063746362345
 20
-137.4348496835232
 30
0.0
  0
VERTEX
  5
D5
330
CC
100
AcDbEntity
  8
_U+30EC_U+30A4_U+30E4_U+30FC 1
370
     0
100
AcDbVertex
100
AcDb2dVertex
 10
59.69937064479738
 20
-137.4348496835232
 30
0.0
  0
VERTEX
  5
D6
330
CC
100
AcDbEntity
  8
_U+30EC_U+30A4_U+30E4_U+30FC 1
370
     0
100
AcDbVertex
100
AcDb2dVertex
 10
59.69937064479738
 20
-137.2274549353112
 30
0.0
  0
VERTEX
  5
D7
330
CC
100
AcDbEntity
  8
_U+30EC_U+30A4_U+30E4_U+30FC 1
370
     0
100
AcDbVertex
100
AcDb2dVertex
 10
59.8981526542963
 20
-137.2274549353112
 30
0.0
  0
VERTEX
  5
D8
330
CC
100
AcDbEntity
  8
_U+30EC_U+30A4_U+30E4_U+30FC 1
370
     0
100
AcDbVertex
100
AcDb2dVertex
 10
59.8981526542963
 20
-137.4348496835232
 30
0.0
  0
SEQEND
  5
D9
330
CC
100
AcDbEntity
  8
_U+30EC_U+30A4_U+30E4_U+30FC 1
370
     0
  0
POLYLINE
  5
DA
330
C8
100
AcDbEntity
  8
_U+30EC_U+30A4_U+30E4_U+30FC 1
370
     0
100
AcDb2dPolyline
 66
     1
 10
0.0
 20
0.0
 30
0.0
  0
VERTEX
  5
DB
330
DA
100
AcDbEntity
  8
_U+30EC_U+30A4_U+30E4_U+30FC 1
370
     0
100
AcDbVertex
100
AcDb2dVertex
 10
59.04342446440581
 20
-137.652579718191
 30
0.0
  0
VERTEX
  5
DC
330
DA
100
AcDbEntity
  8
_U+30EC_U+30A4_U+30E4_U+30FC 1
370
     0
100
AcDbVertex
100
AcDb2dVertex
 10
59.69937064479738
 20
-138.1097438890837
 30
0.0
  0
VERTEX
  5
DD
330
DA
100
AcDbEntity
  8
_U+30EC_U+30A4_U+30E4_U+30FC 1
370
     0
100
AcDbVertex
100
AcDb2dVertex
 10
59.69937064479738
 20
-137.652579718191
 30
0.0
  0
VERTEX
  5
DE
330
DA
100
AcDbEntity
  8
_U+30EC_U+30A4_U+30E4_U+30FC 1
370
     0
100
AcDbVertex
100
AcDb2dVertex
 10
59.04342446440581
 20
-137.652579718191
 30
0.0
  0
SEQEND
  5
DF
330
DA
100
AcDbEntity
  8
_U+30EC_U+30A4_U+30E4_U+30FC 1
370
     0
  0
HATCH
  5
E0
330
C8
100
AcDbEntity
  8
_U+30EC_U+30A4_U+30E4_U+30FC 1
 62
   179
420
  2234388
100
AcDbHatch
 10
0.0
 20
0.0
 30
0.0
210
0.0
220
0.0
230
1.0
  2
SOLID
 70
     1
 71
     0
 91
        2
 92
        1
 93
       11
 72
     1
 10
59.8981526542963
 20
-137.4348496835232
 11
60.24507376966096
 21
-137.4348496835232
 72
     1
 10
60.24507376966096
 20
-137.4348496835232
 11
60.24507376966096
 21
-137.652579718191
 72
     1
 10
60.24507376966096
 20
-137.652579718191
 11
59.8981526542963
 21
-137.652579718191
 72
     1
 10
59.8981526542963
 20
-137.652579718191
 11
59.8981526542963
 21
-138.3085258985826
 72
     1
 10
59.8981526542963
 20
-138.3085258985826
 11
59.67387693820653
 21
-138.3085258985826
 72
     1
 10
59.67387693820653
 20
-138.3085258985826
 11
58.70063746362345
 21
-137.6294975784399
 72
     1
 10
58.70063746362345
 20
-137.6294975784399
 11
58.70063746362345
 21
-137.4348496835232
 72
     1
 10
58.70063746362345
 20
-137.4348496835232
 11
59.69937064479738
 21
-137.4348496835232
 72
     1
 10
59.69937064479738
 20
-137.4348496835232
 11
59.69937064479738
 21
-137.2274549353112
 72
     1
 10
59.69937064479738
 20
-137.2274549353112
 11
59.8981526542963
 21
-137.2274549353112
 72
     1
 10
59.8981526542963
 20
-137.2274549353112
 11
59.8981526542963
 21
-137.4348496835232
 97
        0
 92
        1
 93
        3
 72
     1
 10
59.04342446440581
 20
-137.652579718191
 11
59.69937064479738
 21
-138.1097438890837
 72
     1
 10
59.69937064479738
 20
-138.1097438890837
 11
59.69937064479738
 21
-137.652579718191
 72
     1
 10
59.69937064479738
 20
-137.652579718191
 11
59.04342446440581
 21
-137.652579718191
 97
        0
 75
     2
 76
     1
 98
        0
  0
SPLINE
  5
E1
330
C8
100
AcDbEntity
  8
_U+30EC_U+30A4_U+30E4_U+30FC 1
370
     0
100
AcDbSpline
210
0.0
220
0.0
230
1.0
 70
    11
 71
     3
 72
    29
 73
    25
 74
     0
 42
0.0000000001
 43
0.0000000001
 12
1.0
 22
0.0
 32
0.0
 13
1.0
 23
0.0
 33
0.0
 40
0.0
 40
0.0
 40
0.0
 40
0.0
 40
1.0
 40
1.0
 40
1.0
 40
2.0
 40
2.0
 40
2.0
 40
3.0
 40
3.0
 40
3.0
 40
4.0
 40
4.0
 40
4.0
 40
5.0
 40
5.0
 40
5.0
 40
6.0
 40
6.0
 40
6.0
 40
7.0
 40
7.0
 40
7.0
 40
8.0
 40
8.0
 40
8.0
 40
8.0
 10
60.06730684262207
 20
-136.1922037419936
 30
0.0
 10
60.27676864812526
 20
-136.3003797402305
 30
0.0
 10
60.29571667329413
 20
-136.4736680431385
 30
0.0
 10
60.29571667329413
 20
-136.59011227054
 30
0.0
 10
60.29571667329413
 20
-136.7509982297011
 30
0.0
 10
60.24920788424325
 20
-136.8925916541449
 30
0.0
 10
60.06730684262207
 20
-136.9876762895378
 30
0.0
 10
59.87265894770545
 20
-137.0913736636438
 30
0.0
 10
59.63563637832026
 20
-137.1106661983612
 30
0.0
 10
59.47302787141647
 20
-137.1106661983612
 30
0.0
 10
59.32902288013302
 20
-137.1106661983612
 30
0.0
 10
59.07718640016126
 20
-137.093440720935
 30
0.0
 10
58.87840439066235
 20
-136.9876762895378
 30
0.0
 10
58.67548826658113
 20
-136.8798448008495
 30
0.0
 10
58.65206161728143
 20
-136.7189588416883
 30
0.0
 10
58.65206161728143
 20
-136.59011227054
 30
0.0
 10
58.65206161728143
 20
-136.43129336867
 30
0.0
 10
58.69650334904115
 20
-136.287632886935
 30
0.0
 10
58.87840439066235
 20
-136.1922037419936
 30
0.0
 10
59.07098522828781
 20
-136.0929849920184
 30
0.0
 10
59.29939505895987
 20
-136.0695583427187
 30
0.0
 10
59.47302787141647
 20
-136.0695583427187
 30
0.0
 10
59.64424911703338
 20
-136.0695583427187
 30
0.0
 10
59.8747260049966
 20
-136.0909179347273
 30
0.0
 10
60.06730684262207
 20
-136.1922037419936
 30
0.0
  0
SPLINE
  5
E2
330
C8
100
AcDbEntity
  8
_U+30EC_U+30A4_U+30E4_U+30FC 1
370
     0
100
AcDbSpline
210
0.0
220
0.0
230
1.0
 70
    11
 71
     3
 72
    17
 73
    13
 74
     0
 42
0.0000000001
 43
0.0000000001
 12
1.0
 22
0.0
 32
0.0
 13
1.0
 23
0.0
 33
0.0
 40
0.0
 40
0.0
 40
0.0
 40
0.0
 40
1.0
 40
1.0
 40
1.0
 40
2.0
 40
2.0
 40
2.0
 40
3.0
 40
3.0
 40
3.0
 40
4.0
 40
4.0
 40
4.0
 40
4.0
 10
58.8446424549069
 20
-136.59011227054
 30
0.0
 10
58.8446424549069
 20
-136.8398816932206
 30
0.0
 10
59.12817381334296
 20
-136.8863904822715
 30
0.0
 10
59.47302787141647
 20
-136.8863904822715
 30
0.0
 10
59.79238822289913
 20
-136.8863904822715
 30
0.0
 10
60.10106877837752
 20
-136.8502169796763
 30
0.0
 10
60.10106877837752
 20
-136.59011227054
 30
0.0
 10
60.10106877837752
 20
-136.3424099051505
 30
0.0
 10
59.81994898678113
 20
-136.2938340588085
 30
0.0
 10
59.47302787141647
 20
-136.2938340588085
 30
0.0
 10
59.15332301038529
 20
-136.2938340588085
 30
0.0
 10
58.8446424549069
 20
-136.3320746186948
 30
0.0
 10
58.8446424549069
 20
-136.59011227054
 30
0.0
  0
HATCH
  5
E3
330
C8
100
AcDbEntity
  8
_U+30EC_U+30A4_U+30E4_U+30FC 1
 62
   179
420
  2234388
100
AcDbHatch
 10
0.0
 20
0.0
 30
0.0
210
0.0
220
0.0
230
1.0
  2
SOLID
 70
     1
 71
     0
 91
        2
 92
        1
 93
        1
 72
     4
 94
        3
 73
     0
 74
     1
 95
       29
 96
       25
 40
0.0
 40
0.0
 40
0.0
 40
0.0
 40
1.0
 40
1.0
 40
1.0
 40
2.0
 40
2.0
 40
2.0
 40
3.0
 40
3.0
 40
3.0
 40
4.0
 40
4.0
 40
4.0
 40
5.0
 40
5.0
 40
5.0
 40
6.0
 40
6.0
 40
6.0
 40
7.0
 40
7.0
 40
7.0
 40
8.0
 40
8.0
 40
8.0
 40
8.0
 10
60.06730684262207
 20
-136.1922037419936
 10
60.27676864812526
 20
-136.3003797402305
 10
60.29571667329413
 20
-136.4736680431385
 10
60.29571667329413
 20
-136.59011227054
 10
60.29571667329413
 20
-136.7509982297011
 10
60.24920788424325
 20
-136.8925916541449
 10
60.06730684262207
 20
-136.9876762895378
 10
59.87265894770545
 20
-137.0913736636438
 10
59.63563637832026
 20
-137.1106661983612
 10
59.47302787141647
 20
-137.1106661983612
 10
59.32902288013302
 20
-137.1106661983612
 10
59.07718640016126
 20
-137.093440720935
 10
58.87840439066235
 20
-136.9876762895378
 10
58.67548826658113
 20
-136.8798448008495
 10
58.65206161728143
 20
-136.7189588416883
 10
58.65206161728143
 20
-136.59011227054
 10
58.65206161728143
 20
-136.43129336867
 10
58.69650334904115
 20
-136.287632886935
 10
58.87840439066235
 20
-136.1922037419936
 10
59.07098522828781
 20
-136.0929849920184
 10
59.29939505895987
 20
-136.0695583427187
 10
59.47302787141647
 20
-136.0695583427187
 10
59.64424911703338
 20
-136.0695583427187
 10
59.8747260049966
 20
-136.0909179347273
 10
60.06730684262207
 20
-136.1922037419936
 97
        0
 97
        0
 92
        1
 93
        1
 72
     4
 94
        3
 73
     0
 74
     1
 95
       17
 96
       13
 40
0.0
 40
0.0
 40
0.0
 40
0.0
 40
1.0
 40
1.0
 40
1.0
 40
2.0
 40
2.0
 40
2.0
 40
3.0
 40
3.0
 40
3.0
 40
4.0
 40
4.0
 40
4.0
 40
4.0
 10
58.8446424549069
 20
-136.59011227054
 10
58.8446424549069
 20
-136.8398816932206
 10
59.12817381334296
 20
-136.8863904822715
 10
59.47302787141647
 20
-136.8863904822715
 10
59.79238822289913
 20
-136.8863904822715
 10
60.10106877837752
 20
-136.8502169796763
 10
60.10106877837752
 20
-136.59011227054
 10
60.10106877837752
 20
-136.3424099051505
 10
59.81994898678113
 20
-136.2938340588085
 10
59.47302787141647
 20
-136.2938340588085
 10
59.15332301038529
 20
-136.2938340588085
 10
58.8446424549069
 20
-136.3320746186948
 10
58.8446424549069
 20
-136.59011227054
 97
        0
 97
        0
 75
     2
 76
     1
 98
        0
  0
ENDBLK
  5
CB
330
C8
100
AcDbEntity
  8
0
100
AcDbBlockEnd
  0
BLOCK
  5
EE
330
EC
100
AcDbEntity
  8
0
100
AcDbBlockBegin
  2
block 7
 70
     0
 10
0.0
 20
0.0
 30
0.0
  3
block 7
  1

  0
SPLINE
  5
F0
330
EC
100
AcDbEntity
  8
_U+30EC_U+30A4_U+30E4_U+30FC 1
370
     0
100
AcDbSpline
210
0.0
220
0.0
230
1.0
 70
    11
 71
     3
 72
    26
 73
    22
 74
     0
 42
0.0000000001
 43
0.0000000001
 12
1.0
 22
0.0
 32
0.0
 13
1.0
 23
0.0
 33
0.0
 40
0.0
 40
0.0
 40
0.0
 40
0.0
 40
1.0
 40
1.0
 40
1.0
 40
2.0
 40
2.0
 40
2.0
 40
3.0
 40
3.0
 40
3.0
 40
4.0
 40
4.0
 40
4.0
 40
5.0
 40
5.0
 40
5.0
 40
6.0
 40
6.0
 40
6.0
 40
7.0
 40
7.0
 40
7.0
 40
7.0
 10
60.24472926011243
 20
-110.315402533185
 30
0.0
 10
60.24472926011243
 20
-110.315402533185
 30
0.0
 10
59.14057615708986
 20
-110.315402533185
 30
0.0
 10
59.14057615708986
 20
-110.315402533185
 30
0.0
 10
59.14057615708986
 20
-110.315402533185
 30
0.0
 10
59.14057615708986
 20
-110.645442680672
 30
0.0
 10
59.14057615708986
 20
-110.645442680672
 30
0.0
 10
59.14057615708986
 20
-110.645442680672
 30
0.0
 10
58.99243705122412
 20
-110.645442680672
 30
0.0
 10
58.99243705122412
 20
-110.645442680672
 30
0.0
 10
58.97762314063754
 20
-110.3133354758939
 30
0.0
 10
58.81467012418523
 20
-110.266826686843
 30
0.0
 10
58.70029295407493
 20
-110.2371988656699
 30
0.0
 10
58.70029295407493
 20
-110.2371988656699
 30
0.0
 10
58.70029295407493
 20
-110.0911268170953
 30
0.0
 10
58.70029295407493
 20
-110.0911268170953
 30
0.0
 10
58.70029295407493
 20
-110.0911268170953
 30
0.0
 10
60.24472926011243
 20
-110.0911268170953
 30
0.0
 10
60.24472926011243
 20
-110.0911268170953
 30
0.0
 10
60.24472926011243
 20
-110.0911268170953
 30
0.0
 10
60.24472926011243
 20
-110.315402533185
 30
0.0
 10
60.24472926011243
 20
-110.315402533185
 30
0.0
  0
HATCH
  5
F1
330
EC
100
AcDbEntity
  8
_U+30EC_U+30A4_U+30E4_U+30FC 1
 62
   179
420
  2234388
100
AcDbHatch
 10
0.0
 20
0.0
 30
0.0
210
0.0
220
0.0
230
1.0
  2
SOLID
 70
     1
 71
     0
 91
        1
 92
        1
 93
        1
 72
     4
 94
        3
 73
     0
 74
     1
 95
       26
 96
       22
 40
0.0
 40
0.0
 40
0.0
 40
0.0
 40
1.0
 40
1.0
 40
1.0
 40
2.0
 40
2.0
 40
2.0
 40
3.0
 40
3.0
 40
3.0
 40
4.0
 40
4.0
 40
4.0
 40
5.0
 40
5.0
 40
5.0
 40
6.0
 40
6.0
 40
6.0
 40
7.0
 40
7.0
 40
7.0
 40
7.0
 10
60.24472926011243
 20
-110.315402533185
 10
60.24472926011243
 20
-110.315402533185
 10
59.14057615708986
 20
-110.315402533185
 10
59.14057615708986
 20
-110.315402533185
 10
59.14057615708986
 20
-110.315402533185
 10
59.14057615708986
 20
-110.645442680672
 10
59.14057615708986
 20
-110.645442680672
 10
59.14057615708986
 20
-110.645442680672
 10
58.99243705122412
 20
-110.645442680672
 10
58.99243705122412
 20
-110.645442680672
 10
58.97762314063754
 20
-110.3133354758939
 10
58.81467012418523
 20
-110.266826686843
 10
58.70029295407493
 20
-110.2371988656699
 10
58.70029295407493
 20
-110.2371988656699
 10
58.70029295407493
 20
-110.0911268170953
 10
58.70029295407493
 20
-110.0911268170953
 10
58.70029295407493
 20
-110.0911268170953
 10
60.24472926011243
 20
-110.0911268170953
 10
60.24472926011243
 20
-110.0911268170953
 10
60.24472926011243
 20
-110.0911268170953
 10
60.24472926011243
 20
-110.315402533185
 10
60.24472926011243
 20
-110.315402533185
 97
        0
 97
        0
 75
     2
 76
     1
 98
        0
  0
SPLINE
  5
F2
330
EC
100
AcDbEntity
  8
_U+30EC_U+30A4_U+30E4_U+30FC 1
370
     0
100
AcDbSpline
210
0.0
220
0.0
230
1.0
 70
    11
 71
     3
 72
    53
 73
    49
 74
     0
 42
0.0000000001
 43
0.0000000001
 12
1.0
 22
0.0
 32
0.0
 13
1.0
 23
0.0
 33
0.0
 40
0.0
 40
0.0
 40
0.0
 40
0.0
 40
1.0
 40
1.0
 40
1.0
 40
2.0
 40
2.0
 40
2.0
 40
3.0
 40
3.0
 40
3.0
 40
4.0
 40
4.0
 40
4.0
 40
5.0
 40
5.0
 40
5.0
 40
6.0
 40
6.0
 40
6.0
 40
7.0
 40
7.0
 40
7.0
 40
8.0
 40
8.0
 40
8.0
 40
9.0
 40
9.0
 40
9.0
 40
10.0
 40
10.0
 40
10.0
 40
11.0
 40
11.0
 40
11.0
 40
12.0
 40
12.0
 40
12.0
 40
13.0
 40
13.0
 40
13.0
 40
14.0
 40
14.0
 40
14.0
 40
15.0
 40
15.0
 40
15.0
 40
16.0
 40
16.0
 40
16.0
 40
16.0
 10
60.2953721637456
 20
-109.1089300942506
 30
0.0
 10
60.2953721637456
 20
-109.1871337617657
 30
0.0
 10
60.27849119586788
 20
-109.2887640785806
 30
0.0
 10
60.21510143893929
 20
-109.3903943953955
 30
0.0
 10
60.10520289295982
 20
-109.5636826983035
 30
0.0
 10
59.9739447549718
 20
-109.5850422903121
 30
0.0
 10
59.86611326628348
 20
-109.603990315481
 30
0.0
 10
59.86611326628348
 20
-109.603990315481
 30
0.0
 10
59.86611326628348
 20
-109.3817816566823
 30
0.0
 10
59.86611326628348
 20
-109.3817816566823
 30
0.0
 10
60.06489527578239
 20
-109.3270046384669
 30
0.0
 10
60.09452309695554
 20
-109.1998806150611
 30
0.0
 10
60.09452309695554
 20
-109.1068630369594
 30
0.0
 10
60.09452309695554
 20
-108.9673366698068
 30
0.0
 10
59.99495983743182
 20
-108.8150634493587
 30
0.0
 10
59.76241589217745
 20
-108.8150634493587
 30
0.0
 10
59.50644529762339
 20
-108.8150634493587
 30
0.0
 10
59.43650985927282
 20
-108.9948974336888
 30
0.0
 10
59.43650985927282
 20
-109.1154757756725
 30
0.0
 10
59.43650985927282
 20
-109.1471706541368
 30
0.0
 10
59.43650985927282
 20
-109.2887640785806
 30
0.0
 10
59.56570093996969
 20
-109.3776475421
 30
0.0
 10
59.56570093996969
 20
-109.3776475421
 30
0.0
 10
59.54675291480081
 20
-109.5533474118478
 30
0.0
 10
59.54675291480081
 20
-109.5533474118478
 30
0.0
 10
59.54675291480081
 20
-109.5533474118478
 30
0.0
 10
58.70029295407493
 20
-109.432769069864
 30
0.0
 10
58.70029295407493
 20
-109.432769069864
 30
0.0
 10
58.70029295407493
 20
-109.432769069864
 30
0.0
 10
58.70029295407493
 20
-108.6541774901976
 30
0.0
 10
58.70029295407493
 20
-108.6541774901976
 30
0.0
 10
58.70029295407493
 20
-108.6541774901976
 30
0.0
 10
58.89494084899155
 20
-108.6541774901976
 30
0.0
 10
58.89494084899155
 20
-108.6541774901976
 30
0.0
 10
58.89494084899155
 20
-108.6541774901976
 30
0.0
 10
58.89494084899155
 20
-109.2698160534117
 30
0.0
 10
58.89494084899155
 20
-109.2698160534117
 30
0.0
 10
58.89494084899155
 20
-109.2698160534117
 30
0.0
 10
59.31799857458022
 20
-109.3352728676315
 30
0.0
 10
59.31799857458022
 20
-109.3352728676315
 30
0.0
 10
59.28423663882478
 20
-109.273950167994
 30
0.0
 10
59.24392902164735
 20
-109.1916123858965
 30
0.0
 10
59.24392902164735
 20
-109.0731011012039
 30
0.0
 10
59.24392902164735
 20
-108.819197563941
 30
0.0
 10
59.43030868739937
 20
-108.5821749945559
 30
0.0
 10
59.74346786700858
 20
-108.5821749945559
 30
0.0
 10
60.06076116120009
 20
-108.5821749945559
 30
0.0
 10
60.2953721637456
 20
-108.8064507106456
 30
0.0
 10
60.2953721637456
 20
-109.1089300942506
 30
0.0
  0
HATCH
  5
F3
330
EC
100
AcDbEntity
  8
_U+30EC_U+30A4_U+30E4_U+30FC 1
 62
   179
420
  2234388
100
AcDbHatch
 10
0.0
 20
0.0
 30
0.0
210
0.0
220
0.0
230
1.0
  2
SOLID
 70
     1
 71
     0
 91
        1
 92
        1
 93
        1
 72
     4
 94
        3
 73
     0
 74
     1
 95
       53
 96
       49
 40
0.0
 40
0.0
 40
0.0
 40
0.0
 40
1.0
 40
1.0
 40
1.0
 40
2.0
 40
2.0
 40
2.0
 40
3.0
 40
3.0
 40
3.0
 40
4.0
 40
4.0
 40
4.0
 40
5.0
 40
5.0
 40
5.0
 40
6.0
 40
6.0
 40
6.0
 40
7.0
 40
7.0
 40
7.0
 40
8.0
 40
8.0
 40
8.0
 40
9.0
 40
9.0
 40
9.0
 40
10.0
 40
10.0
 40
10.0
 40
11.0
 40
11.0
 40
11.0
 40
12.0
 40
12.0
 40
12.0
 40
13.0
 40
13.0
 40
13.0
 40
14.0
 40
14.0
 40
14.0
 40
15.0
 40
15.0
 40
15.0
 40
16.0
 40
16.0
 40
16.0
 40
16.0
 10
60.2953721637456
 20
-109.1089300942506
 10
60.2953721637456
 20
-109.1871337617657
 10
60.27849119586788
 20
-109.2887640785806
 10
60.21510143893929
 20
-109.3903943953955
 10
60.10520289295982
 20
-109.5636826983035
 10
59.9739447549718
 20
-109.5850422903121
 10
59.86611326628348
 20
-109.603990315481
 10
59.86611326628348
 20
-109.603990315481
 10
59.86611326628348
 20
-109.3817816566823
 10
59.86611326628348
 20
-109.3817816566823
 10
60.06489527578239
 20
-109.3270046384669
 10
60.09452309695554
 20
-109.1998806150611
 10
60.09452309695554
 20
-109.1068630369594
 10
60.09452309695554
 20
-108.9673366698068
 10
59.99495983743182
 20
-108.8150634493587
 10
59.76241589217745
 20
-108.8150634493587
 10
59.50644529762339
 20
-108.8150634493587
 10
59.43650985927282
 20
-108.9948974336888
 10
59.43650985927282
 20
-109.1154757756725
 10
59.43650985927282
 20
-109.1471706541368
 10
59.43650985927282
 20
-109.2887640785806
 10
59.56570093996969
 20
-109.3776475421
 10
59.56570093996969
 20
-109.3776475421
 10
59.54675291480081
 20
-109.5533474118478
 10
59.54675291480081
 20
-109.5533474118478
 10
59.54675291480081
 20
-109.5533474118478
 10
58.70029295407493
 20
-109.432769069864
 10
58.70029295407493
 20
-109.432769069864
 10
58.70029295407493
 20
-109.432769069864
 10
58.70029295407493
 20
-108.6541774901976
 10
58.70029295407493
 20
-108.6541774901976
 10
58.70029295407493
 20
-108.6541774901976
 10
58.89494084899155
 20
-108.6541774901976
 10
58.89494084899155
 20
-108.6541774901976
 10
58.89494084899155
 20
-108.6541774901976
 10
58.89494084899155
 20
-109.2698160534117
 10
58.89494084899155
 20
-109.2698160534117
 10
58.89494084899155
 20
-109.2698160534117
 10
59.31799857458022
 20
-109.3352728676315
 10
59.31799857458022
 20
-109.3352728676315
 10
59.28423663882478
 20
-109.273950167994
 10
59.24392902164735
 20
-109.1916123858965
 10
59.24392902164735
 20
-109.0731011012039
 10
59.24392902164735
 20
-108.819197563941
 10
59.43030868739937
 20
-108.5821749945559
 10
59.74346786700858
 20
-108.5821749945559
 10
60.06076116120009
 20
-108.5821749945559
 10
60.2953721637456
 20
-108.8064507106456
 10
60.2953721637456
 20
-109.1089300942506
 97
        0
 97
        0
 75
     2
 76
     1
 98
        0
  0
ENDBLK
  5
EF
330
EC
100
AcDbEntity
  8
0
100
AcDbBlockEnd
  0
BLOCK
  5
102
330
100
100
AcDbEntity
  8
0
100
AcDbBlockBegin
  2
block 8
 70
     0
 10
0.0
 20
0.0
 30
0.0
  3
block 8
  1

  0
SPLINE
  5
104
330
100
100
AcDbEntity
  8
_U+30EC_U+30A4_U+30E4_U+30FC 1
370
     0
100
AcDbSpline
210
0.0
220
0.0
230
1.0
 70
    11
 71
     3
 72
    26
 73
    22
 74
     0
 42
0.0000000001
 43
0.0000000001
 12
1.0
 22
0.0
 32
0.0
 13
1.0
 23
0.0
 33
0.0
 40
0.0
 40
0.0
 40
0.0
 40
0.0
 40
1.0
 40
1.0
 40
1.0
 40
2.0
 40
2.0
 40
2.0
 40
3.0
 40
3.0
 40
3.0
 40
4.0
 40
4.0
 40
4.0
 40
5.0
 40
5.0
 40
5.0
 40
6.0
 40
6.0
 40
6.0
 40
7.0
 40
7.0
 40
7.0
 40
7.0
 10
122.0686902906634
 20
-131.571297167628
 30
0.0
 10
122.0686902906634
 20
-131.571297167628
 30
0.0
 10
120.9645371876408
 20
-131.571297167628
 30
0.0
 10
120.9645371876408
 20
-131.571297167628
 30
0.0
 10
120.9645371876408
 20
-131.571297167628
 30
0.0
 10
120.9645371876408
 20
-131.9013373151149
 30
0.0
 10
120.9645371876408
 20
-131.9013373151149
 30
0.0
 10
120.9645371876408
 20
-131.9013373151149
 30
0.0
 10
120.8163980817751
 20
-131.9013373151149
 30
0.0
 10
120.8163980817751
 20
-131.9013373151149
 30
0.0
 10
120.8015841711885
 20
-131.5692301103369
 30
0.0
 10
120.6386311547362
 20
-131.522721321286
 30
0.0
 10
120.5242539846259
 20
-131.4930935001128
 30
0.0
 10
120.5242539846259
 20
-131.4930935001128
 30
0.0
 10
120.5242539846259
 20
-131.3470214515382
 30
0.0
 10
120.5242539846259
 20
-131.3470214515382
 30
0.0
 10
120.5242539846259
 20
-131.3470214515382
 30
0.0
 10
122.0686902906634
 20
-131.3470214515382
 30
0.0
 10
122.0686902906634
 20
-131.3470214515382
 30
0.0
 10
122.0686902906634
 20
-131.3470214515382
 30
0.0
 10
122.0686902906634
 20
-131.571297167628
 30
0.0
 10
122.0686902906634
 20
-131.571297167628
 30
0.0
  0
HATCH
  5
105
330
100
100
AcDbEntity
  8
_U+30EC_U+30A4_U+30E4_U+30FC 1
 62
   179
420
  2234388
100
AcDbHatch
 10
0.0
 20
0.0
 30
0.0
210
0.0
220
0.0
230
1.0
  2
SOLID
 70
     1
 71
     0
 91
        1
 92
        1
 93
        1
 72
     4
 94
        3
 73
     0
 74
     1
 95
       26
 96
       22
 40
0.0
 40
0.0
 40
0.0
 40
0.0
 40
1.0
 40
1.0
 40
1.0
 40
2.0
 40
2.0
 40
2.0
 40
3.0
 40
3.0
 40
3.0
 40
4.0
 40
4.0
 40
4.0
 40
5.0
 40
5.0
 40
5.0
 40
6.0
 40
6.0
 40
6.0
 40
7.0
 40
7.0
 40
7.0
 40
7.0
 10
122.0686902906634
 20
-131.571297167628
 10
122.0686902906634
 20
-131.571297167628
 10
120.9645371876408
 20
-131.571297167628
 10
120.9645371876408
 20
-131.571297167628
 10
120.9645371876408
 20
-131.571297167628
 10
120.9645371876408
 20
-131.9013373151149
 10
120.9645371876408
 20
-131.9013373151149
 10
120.9645371876408
 20
-131.9013373151149
 10
120.8163980817751
 20
-131.9013373151149
 10
120.8163980817751
 20
-131.9013373151149
 10
120.8015841711885
 20
-131.5692301103369
 10
120.6386311547362
 20
-131.522721321286
 10
120.5242539846259
 20
-131.4930935001128
 10
120.5242539846259
 20
-131.4930935001128
 10
120.5242539846259
 20
-131.3470214515382
 10
120.5242539846259
 20
-131.3470214515382
 10
120.5242539846259
 20
-131.3470214515382
 10
122.0686902906634
 20
-131.3470214515382
 10
122.0686902906634
 20
-131.3470214515382
 10
122.0686902906634
 20
-131.3470214515382
 10
122.0686902906634
 20
-131.571297167628
 10
122.0686902906634
 20
-131.571297167628
 97
        0
 97
        0
 75
     2
 76
     1
 98
        0
  0
POLYLINE
  5
106
330
100
100
AcDbEntity
  8
_U+30EC_U+30A4_U+30E4_U+30FC 1
370
     0
100
AcDb2dPolyline
 66
     1
 10
0.0
 20
0.0
 30
0.0
  0
VERTEX
  5
107
330
106
100
AcDbEntity
  8
_U+30EC_U+30A4_U+30E4_U+30FC 1
370
     0
100
AcDbVertex
100
AcDb2dVertex
 10
122.0686902906634
 20
-130.785815396991
 30
0.0
  0
VERTEX
  5
108
330
106
100
AcDbEntity
  8
_U+30EC_U+30A4_U+30E4_U+30FC 1
370
     0
100
AcDbVertex
100
AcDb2dVertex
 10
121.8168538106916
 20
-130.785815396991
 30
0.0
  0
VERTEX
  5
109
330
106
100
AcDbEntity
  8
_U+30EC_U+30A4_U+30E4_U+30FC 1
370
     0
100
AcDbVertex
100
AcDb2dVertex
 10
121.8168538106916
 20
-130.5339789170193
 30
0.0
  0
VERTEX
  5
10A
330
106
100
AcDbEntity
  8
_U+30EC_U+30A4_U+30E4_U+30FC 1
370
     0
100
AcDbVertex
100
AcDb2dVertex
 10
122.0686902906634
 20
-130.5339789170193
 30
0.0
  0
VERTEX
  5
10B
330
106
100
AcDbEntity
  8
_U+30EC_U+30A4_U+30E4_U+30FC 1
370
     0
100
AcDbVertex
100
AcDb2dVertex
 10
122.0686902906634
 20
-130.785815396991
 30
0.0
  0
SEQEND
  5
10C
330
106
100
AcDbEntity
  8
_U+30EC_U+30A4_U+30E4_U+30FC 1
370
     0
  0
HATCH
  5
10D
330
100
100
AcDbEntity
  8
_U+30EC_U+30A4_U+30E4_U+30FC 1
 62
   179
420
  2234388
100
AcDbHatch
 10
0.0
 20
0.0
 30
0.0
210
0.0
220
0.0
230
1.0
  2
SOLID
 70
     1
 71
     0
 91
        1
 92
        1
 93
        4
 72
     1
 10
122.0686902906634
 20
-130.785815396991
 11
121.8168538106916
 21
-130.785815396991
 72
     1
 10
121.8168538106916
 20
-130.785815396991
 11
121.8168538106916
 21
-130.5339789170193
 72
     1
 10
121.8168538106916
 20
-130.5339789170193
 11
122.0686902906634
 21
-130.5339789170193
 72
     1
 10
122.0686902906634
 20
-130.5339789170193
 11
122.0686902906634
 21
-130.785815396991
 97
        0
 75
     2
 76
     1
 98
        0
  0
SPLINE
  5
10E
330
100
100
AcDbEntity
  8
_U+30EC_U+30A4_U+30E4_U+30FC 1
370
     0
100
AcDbSpline
210
0.0
220
0.0
230
1.0
 70
    11
 71
     3
 72
    44
 73
    40
 74
     0
 42
0.0000000001
 43
0.0000000001
 12
1.0
 22
0.0
 32
0.0
 13
1.0
 23
0.0
 33
0.0
 40
0.0
 40
0.0
 40
0.0
 40
0.0
 40
1.0
 40
1.0
 40
1.0
 40
2.0
 40
2.0
 40
2.0
 40
3.0
 40
3.0
 40
3.0
 40
4.0
 40
4.0
 40
4.0
 40
5.0
 40
5.0
 40
5.0
 40
6.0
 40
6.0
 40
6.0
 40
7.0
 40
7.0
 40
7.0
 40
8.0
 40
8.0
 40
8.0
 40
9.0
 40
9.0
 40
9.0
 40
10.0
 40
10.0
 40
10.0
 40
11.0
 40
11.0
 40
11.0
 40
12.0
 40
12.0
 40
12.0
 40
13.0
 40
13.0
 40
13.0
 40
13.0
 10
121.4868136632047
 20
-129.7047444337196
 30
0.0
 10
121.6456325650747
 20
-129.9224744683874
 30
0.0
 10
121.7197021180076
 20
-130.0154920464892
 30
0.0
 10
121.8633625997425
 20
-130.0644124023797
 30
0.0
 10
121.8633625997425
 20
-130.0644124023797
 30
0.0
 10
121.8633625997425
 20
-129.2858208227133
 30
0.0
 10
121.8633625997425
 20
-129.2858208227133
 30
0.0
 10
121.8633625997425
 20
-129.2858208227133
 30
0.0
 10
122.0686902906634
 20
-129.2858208227133
 30
0.0
 10
122.0686902906634
 20
-129.2858208227133
 30
0.0
 10
122.0686902906634
 20
-129.2858208227133
 30
0.0
 10
122.0686902906634
 20
-130.3138373155118
 30
0.0
 10
122.0686902906634
 20
-130.3138373155118
 30
0.0
 10
121.7110893792944
 20
-130.2821424370475
 30
0.0
 10
121.6328857117793
 20
-130.2166856228278
 30
0.0
 10
121.3345404427566
 20
-129.8315239475768
 30
0.0
 10
121.1357584332577
 20
-129.5755533530228
 30
0.0
 10
121.0678900521983
 20
-129.510096538803
 30
0.0
 10
120.9304307423368
 20
-129.510096538803
 30
0.0
 10
120.8119194576443
 20
-129.510096538803
 30
0.0
 10
120.6810058292048
 20
-129.5820990344448
 30
0.0
 10
120.6810058292048
 20
-129.7788139866525
 30
0.0
 10
120.6810058292048
 20
-130.0389186957889
 30
0.0
 10
120.911482717168
 20
-130.047531434502
 30
0.0
 10
121.0279269445694
 20
-130.0516655490843
 30
0.0
 10
121.0279269445694
 20
-130.0516655490843
 30
0.0
 10
121.0279269445694
 20
-130.2759412651741
 30
0.0
 10
121.0279269445694
 20
-130.2759412651741
 30
0.0
 10
120.9008029211637
 20
-130.2673285264609
 30
0.0
 10
120.7888373178931
 20
-130.2566487304567
 30
0.0
 10
120.6703260332005
 20
-130.1763780056503
 30
0.0
 10
120.5094400740393
 20
-130.0664794596709
 30
0.0
 10
120.4756781382839
 20
-129.8800997939189
 30
0.0
 10
120.4756781382839
 20
-129.7640000760659
 30
0.0
 10
120.4756781382839
 20
-129.4866698895033
 30
0.0
 10
120.6596462371962
 20
-129.2792751412913
 30
0.0
 10
120.932497799628
 20
-129.2792751412913
 30
0.0
 10
121.1612521398486
 20
-129.2792751412913
 30
0.0
 10
121.2604708898238
 20
-129.3957193686927
 30
0.0
 10
121.4868136632047
 20
-129.7047444337196
 30
0.0
  0
HATCH
  5
10F
330
100
100
AcDbEntity
  8
_U+30EC_U+30A4_U+30E4_U+30FC 1
 62
   179
420
  2234388
100
AcDbHatch
 10
0.0
 20
0.0
 30
0.0
210
0.0
220
0.0
230
1.0
  2
SOLID
 70
     1
 71
     0
 91
        1
 92
        1
 93
        1
 72
     4
 94
        3
 73
     0
 74
     1
 95
       44
 96
       40
 40
0.0
 40
0.0
 40
0.0
 40
0.0
 40
1.0
 40
1.0
 40
1.0
 40
2.0
 40
2.0
 40
2.0
 40
3.0
 40
3.0
 40
3.0
 40
4.0
 40
4.0
 40
4.0
 40
5.0
 40
5.0
 40
5.0
 40
6.0
 40
6.0
 40
6.0
 40
7.0
 40
7.0
 40
7.0
 40
8.0
 40
8.0
 40
8.0
 40
9.0
 40
9.0
 40
9.0
 40
10.0
 40
10.0
 40
10.0
 40
11.0
 40
11.0
 40
11.0
 40
12.0
 40
12.0
 40
12.0
 40
13.0
 40
13.0
 40
13.0
 40
13.0
 10
121.4868136632047
 20
-129.7047444337196
 10
121.6456325650747
 20
-129.9224744683874
 10
121.7197021180076
 20
-130.0154920464892
 10
121.8633625997425
 20
-130.0644124023797
 10
121.8633625997425
 20
-130.0644124023797
 10
121.8633625997425
 20
-129.2858208227133
 10
121.8633625997425
 20
-129.2858208227133
 10
121.8633625997425
 20
-129.2858208227133
 10
122.0686902906634
 20
-129.2858208227133
 10
122.0686902906634
 20
-129.2858208227133
 10
122.0686902906634
 20
-129.2858208227133
 10
122.0686902906634
 20
-130.3138373155118
 10
122.0686902906634
 20
-130.3138373155118
 10
121.7110893792944
 20
-130.2821424370475
 10
121.6328857117793
 20
-130.2166856228278
 10
121.3345404427566
 20
-129.8315239475768
 10
121.1357584332577
 20
-129.5755533530228
 10
121.0678900521983
 20
-129.510096538803
 10
120.9304307423368
 20
-129.510096538803
 10
120.8119194576443
 20
-129.510096538803
 10
120.6810058292048
 20
-129.5820990344448
 10
120.6810058292048
 20
-129.7788139866525
 10
120.6810058292048
 20
-130.0389186957889
 10
120.911482717168
 20
-130.047531434502
 10
121.0279269445694
 20
-130.0516655490843
 10
121.0279269445694
 20
-130.0516655490843
 10
121.0279269445694
 20
-130.2759412651741
 10
121.0279269445694
 20
-130.2759412651741
 10
120.9008029211637
 20
-130.2673285264609
 10
120.7888373178931
 20
-130.2566487304567
 10
120.6703260332005
 20
-130.1763780056503
 10
120.5094400740393
 20
-130.0664794596709
 10
120.4756781382839
 20
-129.8800997939189
 10
120.4756781382839
 20
-129.7640000760659
 10
120.4756781382839
 20
-129.4866698895033
 10
120.6596462371962
 20
-129.2792751412913
 10
120.932497799628
 20
-129.2792751412913
 10
121.1612521398486
 20
-129.2792751412913
 10
121.2604708898238
 20
-129.3957193686927
 10
121.4868136632047
 20
-129.7047444337196
 97
        0
 97
        0
 75
     2
 76
     1
 98
        0
  0
ENDBLK
  5
103
330
100
100
AcDbEntity
  8
0
100
AcDbBlockEnd
  0
BLOCK
  5
11A
330
118
100
AcDbEntity
  8
0
100
AcDbBlockBegin
  2
block 9
 70
     0
 10
0.0
 20
0.0
 30
0.0
  3
block 9
  1

  0
SPLINE
  5
11C
330
118
100
AcDbEntity
  8
_U+30EC_U+30A4_U+30E4_U+30FC 1
370
     0
100
AcDbSpline
210
0.0
220
0.0
230
1.0
 70
    11
 71
     3
 72
    44
 73
    40
 74
     0
 42
0.0000000001
 43
0.0000000001
 12
1.0
 22
0.0
 32
0.0
 13
1.0
 23
0.0
 33
0.0
 40
0.0
 40
0.0
 40
0.0
 40
0.0
 40
1.0
 40
1.0
 40
1.0
 40
2.0
 40
2.0
 40
2.0
 40
3.0
 40
3.0
 40
3.0
 40
4.0
 40
4.0
 40
4.0
 40
5.0
 40
5.0
 40
5.0
 40
6.0
 40
6.0
 40
6.0
 40
7.0
 40
7.0
 40
7.0
 40
8.0
 40
8.0
 40
8.0
 40
9.0
 40
9.0
 40
9.0
 40
10.0
 40
10.0
 40
10.0
 40
11.0
 40
11.0
 40
11.0
 40
12.0
 40
12.0
 40
12.0
 40
13.0
 40
13.0
 40
13.0
 40
13.0
 10
122.6633137714175
 20
-143.9739854240759
 30
0.0
 10
122.8221326732875
 20
-144.1917154587437
 30
0.0
 10
122.8962022262204
 20
-144.2847330368455
 30
0.0
 10
123.0398627079553
 20
-144.333653392736
 30
0.0
 10
123.0398627079553
 20
-144.333653392736
 30
0.0
 10
123.0398627079553
 20
-143.5550618130696
 30
0.0
 10
123.0398627079553
 20
-143.5550618130696
 30
0.0
 10
123.0398627079553
 20
-143.5550618130696
 30
0.0
 10
123.2451903988762
 20
-143.5550618130696
 30
0.0
 10
123.2451903988762
 20
-143.5550618130696
 30
0.0
 10
123.2451903988762
 20
-143.5550618130696
 30
0.0
 10
123.2451903988762
 20
-144.5830783058681
 30
0.0
 10
123.2451903988762
 20
-144.5830783058681
 30
0.0
 10
122.8875894875073
 20
-144.5513834274038
 30
0.0
 10
122.8093858199921
 20
-144.4859266131841
 30
0.0
 10
122.5110405509695
 20
-144.1007649379331
 30
0.0
 10
122.3122585414706
 20
-143.8447943433791
 30
0.0
 10
122.2443901604111
 20
-143.7793375291593
 30
0.0
 10
122.1069308505497
 20
-143.7793375291593
 30
0.0
 10
121.9884195658571
 20
-143.7793375291593
 30
0.0
 10
121.8575059374176
 20
-143.8513400248011
 30
0.0
 10
121.8575059374176
 20
-144.0480549770088
 30
0.0
 10
121.8575059374176
 20
-144.3081596861452
 30
0.0
 10
122.0879828253808
 20
-144.3164279153098
 30
0.0
 10
122.2044270527822
 20
-144.3209065394406
 30
0.0
 10
122.2044270527822
 20
-144.3209065394406
 30
0.0
 10
122.2044270527822
 20
-144.5451822555304
 30
0.0
 10
122.2044270527822
 20
-144.5451822555304
 30
0.0
 10
122.0773030293765
 20
-144.5365695168173
 30
0.0
 10
121.9653374261059
 20
-144.525889720813
 30
0.0
 10
121.8468261414133
 20
-144.4456189960067
 30
0.0
 10
121.6859401822521
 20
-144.3357204500272
 30
0.0
 10
121.6521782464967
 20
-144.1493407842752
 30
0.0
 10
121.6521782464967
 20
-144.0332410664222
 30
0.0
 10
121.6521782464967
 20
-143.7559108798596
 30
0.0
 10
121.836146345409
 20
-143.5485161316476
 30
0.0
 10
122.1089979078408
 20
-143.5485161316476
 30
0.0
 10
122.3377522480614
 20
-143.5485161316476
 30
0.0
 10
122.4369709980366
 20
-143.664960359049
 30
0.0
 10
122.6633137714175
 20
-143.9739854240759
 30
0.0
  0
HATCH
  5
11D
330
118
100
AcDbEntity
  8
_U+30EC_U+30A4_U+30E4_U+30FC 1
 62
   179
420
  2234388
100
AcDbHatch
 10
0.0
 20
0.0
 30
0.0
210
0.0
220
0.0
230
1.0
  2
SOLID
 70
     1
 71
     0
 91
        1
 92
        1
 93
        1
 72
     4
 94
        3
 73
     0
 74
     1
 95
       44
 96
       40
 40
0.0
 40
0.0
 40
0.0
 40
0.0
 40
1.0
 40
1.0
 40
1.0
 40
2.0
 40
2.0
 40
2.0
 40
3.0
 40
3.0
 40
3.0
 40
4.0
 40
4.0
 40
4.0
 40
5.0
 40
5.0
 40
5.0
 40
6.0
 40
6.0
 40
6.0
 40
7.0
 40
7.0
 40
7.0
 40
8.0
 40
8.0
 40
8.0
 40
9.0
 40
9.0
 40
9.0
 40
10.0
 40
10.0
 40
10.0
 40
11.0
 40
11.0
 40
11.0
 40
12.0
 40
12.0
 40
12.0
 40
13.0
 40
13.0
 40
13.0
 40
13.0
 10
122.6633137714175
 20
-143.9739854240759
 10
122.8221326732875
 20
-144.1917154587437
 10
122.8962022262204
 20
-144.2847330368455
 10
123.0398627079553
 20
-144.333653392736
 10
123.0398627079553
 20
-144.333653392736
 10
123.0398627079553
 20
-143.5550618130696
 10
123.0398627079553
 20
-143.5550618130696
 10
123.0398627079553
 20
-143.5550618130696
 10
123.2451903988762
 20
-143.5550618130696
 10
123.2451903988762
 20
-143.5550618130696
 10
123.2451903988762
 20
-143.5550618130696
 10
123.2451903988762
 20
-144.5830783058681
 10
123.2451903988762
 20
-144.5830783058681
 10
122.8875894875073
 20
-144.5513834274038
 10
122.8093858199921
 20
-144.4859266131841
 10
122.5110405509695
 20
-144.1007649379331
 10
122.3122585414706
 20
-143.8447943433791
 10
122.2443901604111
 20
-143.7793375291593
 10
122.1069308505497
 20
-143.7793375291593
 10
121.9884195658571
 20
-143.7793375291593
 10
121.8575059374176
 20
-143.8513400248011
 10
121.8575059374176
 20
-144.0480549770088
 10
121.8575059374176
 20
-144.3081596861452
 10
122.0879828253808
 20
-144.3164279153098
 10
122.2044270527822
 20
-144.3209065394406
 10
122.2044270527822
 20
-144.3209065394406
 10
122.2044270527822
 20
-144.5451822555304
 10
122.2044270527822
 20
-144.5451822555304
 10
122.0773030293765
 20
-144.5365695168173
 10
121.9653374261059
 20
-144.525889720813
 10
121.8468261414133
 20
-144.4456189960067
 10
121.6859401822521
 20
-144.3357204500272
 10
121.6521782464967
 20
-144.1493407842752
 10
121.6521782464967
 20
-144.0332410664222
 10
121.6521782464967
 20
-143.7559108798596
 10
121.836146345409
 20
-143.5485161316476
 10
122.1089979078408
 20
-143.5485161316476
 10
122.3377522480614
 20
-143.5485161316476
 10
122.4369709980366
 20
-143.664960359049
 10
122.6633137714175
 20
-143.9739854240759
 97
        0
 97
        0
 75
     2
 76
     1
 98
        0
  0
SPLINE
  5
11E
330
118
100
AcDbEntity
  8
_U+30EC_U+30A4_U+30E4_U+30FC 1
370
     0
100
AcDbSpline
210
0.0
220
0.0
230
1.0
 70
    11
 71
     3
 72
    53
 73
    49
 74
     0
 42
0.0000000001
 43
0.0000000001
 12
1.0
 22
0.0
 32
0.0
 13
1.0
 23
0.0
 33
0.0
 40
0.0
 40
0.0
 40
0.0
 40
0.0
 40
1.0
 40
1.0
 40
1.0
 40
2.0
 40
2.0
 40
2.0
 40
3.0
 40
3.0
 40
3.0
 40
4.0
 40
4.0
 40
4.0
 40
5.0
 40
5.0
 40
5.0
 40
6.0
 40
6.0
 40
6.0
 40
7.0
 40
7.0
 40
7.0
 40
8.0
 40
8.0
 40
8.0
 40
9.0
 40
9.0
 40
9.0
 40
10.0
 40
10.0
 40
10.0
 40
11.0
 40
11.0
 40
11.0
 40
12.0
 40
12.0
 40
12.0
 40
13.0
 40
13.0
 40
13.0
 40
14.0
 40
14.0
 40
14.0
 40
15.0
 40
15.0
 40
15.0
 40
16.0
 40
16.0
 40
16.0
 40
16.0
 10
123.2958333025094
 20
-142.9091064095852
 30
0.0
 10
123.2958333025094
 20
-142.9873100771004
 30
0.0
 10
123.2789523346317
 20
-143.0889403939153
 30
0.0
 10
123.2155625777031
 20
-143.1905707107301
 30
0.0
 10
123.1056640317236
 20
-143.3638590136382
 30
0.0
 10
122.9744058937356
 20
-143.3852186056468
 30
0.0
 10
122.8665744050472
 20
-143.4041666308156
 30
0.0
 10
122.8665744050472
 20
-143.4041666308156
 30
0.0
 10
122.8665744050472
 20
-143.181957972017
 30
0.0
 10
122.8665744050472
 20
-143.181957972017
 30
0.0
 10
123.0653564145462
 20
-143.1271809538015
 30
0.0
 10
123.0949842357193
 20
-143.0000569303958
 30
0.0
 10
123.0949842357193
 20
-142.9070393522941
 30
0.0
 10
123.0949842357193
 20
-142.7675129851415
 30
0.0
 10
122.9954209761956
 20
-142.6152397646934
 30
0.0
 10
122.7628770309412
 20
-142.6152397646934
 30
0.0
 10
122.5069064363872
 20
-142.6152397646934
 30
0.0
 10
122.4369709980366
 20
-142.7950737490235
 30
0.0
 10
122.4369709980366
 20
-142.9156520910072
 30
0.0
 10
122.4369709980366
 20
-142.9473469694715
 30
0.0
 10
122.4369709980366
 20
-143.0889403939153
 30
0.0
 10
122.5661620787335
 20
-143.1778238574347
 30
0.0
 10
122.5661620787335
 20
-143.1778238574347
 30
0.0
 10
122.5472140535646
 20
-143.3535237271824
 30
0.0
 10
122.5472140535646
 20
-143.3535237271824
 30
0.0
 10
122.5472140535646
 20
-143.3535237271824
 30
0.0
 10
121.7007540928387
 20
-143.2329453851987
 30
0.0
 10
121.7007540928387
 20
-143.2329453851987
 30
0.0
 10
121.7007540928387
 20
-143.2329453851987
 30
0.0
 10
121.7007540928387
 20
-142.4543538055323
 30
0.0
 10
121.7007540928387
 20
-142.4543538055323
 30
0.0
 10
121.7007540928387
 20
-142.4543538055323
 30
0.0
 10
121.8954019877553
 20
-142.4543538055323
 30
0.0
 10
121.8954019877553
 20
-142.4543538055323
 30
0.0
 10
121.8954019877553
 20
-142.4543538055323
 30
0.0
 10
121.8954019877553
 20
-143.0699923687464
 30
0.0
 10
121.8954019877553
 20
-143.0699923687464
 30
0.0
 10
121.8954019877553
 20
-143.0699923687464
 30
0.0
 10
122.318459713344
 20
-143.1354491829661
 30
0.0
 10
122.318459713344
 20
-143.1354491829661
 30
0.0
 10
122.2846977775885
 20
-143.0741264833287
 30
0.0
 10
122.2443901604111
 20
-142.9917887012312
 30
0.0
 10
122.2443901604111
 20
-142.8732774165386
 30
0.0
 10
122.2443901604111
 20
-142.6193738792757
 30
0.0
 10
122.4307698261631
 20
-142.3823513098905
 30
0.0
 10
122.7439290057724
 20
-142.3823513098905
 30
0.0
 10
123.0612222999639
 20
-142.3823513098905
 30
0.0
 10
123.2958333025094
 20
-142.6066270259803
 30
0.0
 10
123.2958333025094
 20
-142.9091064095852
 30
0.0
  0
HATCH
  5
11F
330
118
100
AcDbEntity
  8
_U+30EC_U+30A4_U+30E4_U+30FC 1
 62
   179
420
  2234388
100
AcDbHatch
 10
0.0
 20
0.0
 30
0.0
210
0.0
220
0.0
230
1.0
  2
SOLID
 70
     1
 71
     0
 91
        1
 92
        1
 93
        1
 72
     4
 94
        3
 73
     0
 74
     1
 95
       53
 96
       49
 40
0.0
 40
0.0
 40
0.0
 40
0.0
 40
1.0
 40
1.0
 40
1.0
 40
2.0
 40
2.0
 40
2.0
 40
3.0
 40
3.0
 40
3.0
 40
4.0
 40
4.0
 40
4.0
 40
5.0
 40
5.0
 40
5.0
 40
6.0
 40
6.0
 40
6.0
 40
7.0
 40
7.0
 40
7.0
 40
8.0
 40
8.0
 40
8.0
 40
9.0
 40
9.0
 40
9.0
 40
10.0
 40
10.0
 40
10.0
 40
11.0
 40
11.0
 40
11.0
 40
12.0
 40
12.0
 40
12.0
 40
13.0
 40
13.0
 40
13.0
 40
14.0
 40
14.0
 40
14.0
 40
15.0
 40
15.0
 40
15.0
 40
16.0
 40
16.0
 40
16.0
 40
16.0
 10
123.2958333025094
 20
-142.9091064095852
 10
123.2958333025094
 20
-142.9873100771004
 10
123.2789523346317
 20
-143.0889403939153
 10
123.2155625777031
 20
-143.1905707107301
 10
123.1056640317236
 20
-143.3638590136382
 10
122.9744058937356
 20
-143.3852186056468
 10
122.8665744050472
 20
-143.4041666308156
 10
122.8665744050472
 20
-143.4041666308156
 10
122.8665744050472
 20
-143.181957972017
 10
122.8665744050472
 20
-143.181957972017
 10
123.0653564145462
 20
-143.1271809538015
 10
123.0949842357193
 20
-143.0000569303958
 10
123.0949842357193
 20
-142.9070393522941
 10
123.0949842357193
 20
-142.7675129851415
 10
122.9954209761956
 20
-142.6152397646934
 10
122.7628770309412
 20
-142.6152397646934
 10
122.5069064363872
 20
-142.6152397646934
 10
122.4369709980366
 20
-142.7950737490235
 10
122.4369709980366
 20
-142.9156520910072
 10
122.4369709980366
 20
-142.9473469694715
 10
122.4369709980366
 20
-143.0889403939153
 10
122.5661620787335
 20
-143.1778238574347
 10
122.5661620787335
 20
-143.1778238574347
 10
122.5472140535646
 20
-143.3535237271824
 10
122.5472140535646
 20
-143.3535237271824
 10
122.5472140535646
 20
-143.3535237271824
 10
121.7007540928387
 20
-143.2329453851987
 10
121.7007540928387
 20
-143.2329453851987
 10
121.7007540928387
 20
-143.2329453851987
 10
121.7007540928387
 20
-142.4543538055323
 10
121.7007540928387
 20
-142.4543538055323
 10
121.7007540928387
 20
-142.4543538055323
 10
121.8954019877553
 20
-142.4543538055323
 10
121.8954019877553
 20
-142.4543538055323
 10
121.8954019877553
 20
-142.4543538055323
 10
121.8954019877553
 20
-143.0699923687464
 10
121.8954019877553
 20
-143.0699923687464
 10
121.8954019877553
 20
-143.0699923687464
 10
122.318459713344
 20
-143.1354491829661
 10
122.318459713344
 20
-143.1354491829661
 10
122.2846977775885
 20
-143.0741264833287
 10
122.2443901604111
 20
-142.9917887012312
 10
122.2443901604111
 20
-142.8732774165386
 10
122.2443901604111
 20
-142.6193738792757
 10
122.4307698261631
 20
-142.3823513098905
 10
122.7439290057724
 20
-142.3823513098905
 10
123.0612222999639
 20
-142.3823513098905
 10
123.2958333025094
 20
-142.6066270259803
 10
123.2958333025094
 20
-142.9091064095852
 97
        0
 97
        0
 75
     2
 76
     1
 98
        0
  0
ENDBLK
  5
11B
330
118
100
AcDbEntity
  8
0
100
AcDbBlockEnd
  0
ENDSEC
  0
SECTION
  2
ENTITIES
  0
POLYLINE
  5
41
330
1F
100
AcDbEntity
  8
_U+30EC_U+30A4_U+30E4_U+30FC 1
 62
   179
420
  2234388
370
     9
100
AcDb2dPolyline
 66
     1
 10
0.0
 20
0.0
 30
0.0
  0
VERTEX
  5
42
330
41
100
AcDbEntity
  8
_U+30EC_U+30A4_U+30E4_U+30FC 1
 62
   179
420
  2234388
370
     9
100
AcDbVertex
100
AcDb2dVertex
 10
65.25563222407901
 20
-156.8131794052411
 30
0.0
  0
VERTEX
  5
43
330
41
100
AcDbEntity
  8
_U+30EC_U+30A4_U+30E4_U+30FC 1
 62
   179
420
  2234388
370
     9
100
AcDbVertex
100
AcDb2dVertex
 10
66.12170164642819
 20
-156.3129405164774
 30
0.0
  0
SEQEND
  5
44
330
41
100
AcDbEntity
  8
_U+30EC_U+30A4_U+30E4_U+30FC 1
 62
   179
420
  2234388
370
     9
  0
POLYLINE
  5
45
330
1F
100
AcDbEntity
  8
_U+30EC_U+30A4_U+30E4_U+30FC 1
 62
   179
420
  2234388
370
     9
100
AcDb2dPolyline
 66
     1
 10
0.0
 20
0.0
 30
0.0
  0
VERTEX
  5
46
330
45
100
AcDbEntity
  8
_U+30EC_U+30A4_U+30E4_U+30FC 1
 62
   179
420
  2234388
370
     9
100
AcDbVertex
100
AcDb2dVertex
 10
65.25563222407901
 20
-156.8131794052411
 30
0.0
  0
VERTEX
  5
47
330
45
100
AcDbEntity
  8
_U+30EC_U+30A4_U+30E4_U+30FC 1
 62
   179
420
  2234388
370
     9
100
AcDbVertex
100
AcDb2dVertex
 10
65.75566109467228
 20
-155.9470746832357
 30
0.0
  0
SEQEND
  5
48
330
45
100
AcDbEntity
  8
_U+30EC_U+30A4_U+30E4_U+30FC 1
 62
   179
420
  2234388
370
     9
  0
SPLINE
  5
49
330
1F
100
AcDbEntity
  8
_U+30EC_U+30A4_U+30E4_U+30FC 1
 62
   179
420
  2234388
370
     9
100
AcDbSpline
210
0.0
220
0.0
230
1.0
 70
    11
 71
     3
 72
    17
 73
    13
 74
     0
 42
0.0000000001
 43
0.0000000001
 12
1.0
 22
0.0
 32
0.0
 13
1.0
 23
0.0
 33
0.0
 40
0.0
 40
0.0
 40
0.0
 40
0.0
 40
1.0
 40
1.0
 40
1.0
 40
2.0
 40
2.0
 40
2.0
 40
3.0
 40
3.0
 40
3.0
 40
4.0
 40
4.0
 40
4.0
 40
4.0
 10
60.99093705510268
 20
-157.1776694051499
 30
0.0
 10
60.99093705510268
 20
-157.1225302384968
 30
0.0
 10
60.94613427846791
 20
-157.0777627385083
 30
0.0
 10
60.89085554033294
 20
-157.0777627385083
 30
0.0
 10
60.83557372573299
 20
-157.0777627385083
 30
0.0
 10
60.79094733798262
 20
-157.1225302384968
 30
0.0
 10
60.79094733798262
 20
-157.1776694051499
 30
0.0
 10
60.79094733798262
 20
-157.2334788495804
 30
0.0
 10
60.83557372573299
 20
-157.2782463495696
 30
0.0
 10
60.89085554033294
 20
-157.2782463495696
 30
0.0
 10
60.94613427846791
 20
-157.2782463495696
 30
0.0
 10
60.99093705510268
 20
-157.2334788495804
 30
0.0
 10
60.99093705510268
 20
-157.1776694051499
 30
0.0
  0
SPLINE
  5
4A
330
1F
100
AcDbEntity
  8
_U+30EC_U+30A4_U+30E4_U+30FC 1
 62
   179
420
  2234388
370
     9
100
AcDbSpline
210
0.0
220
0.0
230
1.0
 70
    11
 71
     3
 72
    17
 73
    13
 74
     0
 42
0.0000000001
 43
0.0000000001
 12
1.0
 22
0.0
 32
0.0
 13
1.0
 23
0.0
 33
0.0
 40
0.0
 40
0.0
 40
0.0
 40
0.0
 40
1.0
 40
1.0
 40
1.0
 40
2.0
 40
2.0
 40
2.0
 40
3.0
 40
3.0
 40
3.0
 40
4.0
 40
4.0
 40
4.0
 40
4.0
 10
64.99087250861137
 20
-161.1780988485942
 30
0.0
 10
64.99087250861137
 20
-161.1229949597193
 30
0.0
 10
64.9460697319766
 20
-161.0781921819525
 30
0.0
 10
64.89078945560915
 20
-161.0781921819525
 30
0.0
 10
64.83565029034921
 20
-161.0781921819525
 30
0.0
 10
64.79088279149131
 20
-161.1229949597193
 30
0.0
 10
64.79088279149131
 20
-161.1780988485942
 30
0.0
 10
64.79088279149131
 20
-161.2332380152473
 30
0.0
 10
64.83565029034921
 20
-161.2780055152358
 30
0.0
 10
64.89078945560915
 20
-161.2780055152358
 30
0.0
 10
64.9460697319766
 20
-161.2780055152358
 30
0.0
 10
64.99087250861137
 20
-161.2332380152473
 30
0.0
 10
64.99087250861137
 20
-161.1780988485942
 30
0.0
  0
SPLINE
  5
4B
330
1F
100
AcDbEntity
  8
_U+30EC_U+30A4_U+30E4_U+30FC 1
 62
   179
420
  2234388
370
     9
100
AcDbSpline
210
0.0
220
0.0
230
1.0
 70
    11
 71
     3
 72
    17
 73
    13
 74
     0
 42
0.0000000001
 43
0.0000000001
 12
1.0
 22
0.0
 32
0.0
 13
1.0
 23
0.0
 33
0.0
 40
0.0
 40
0.0
 40
0.0
 40
0.0
 40
1.0
 40
1.0
 40
1.0
 40
2.0
 40
2.0
 40
2.0
 40
3.0
 40
3.0
 40
3.0
 40
4.0
 40
4.0
 40
4.0
 40
4.0
 10
123.9903790589641
 20
-155.9780838498941
 30
0.0
 10
123.9903790589641
 20
-155.9229446832417
 30
0.0
 10
123.9462818378669
 20
-155.8781771832525
 30
0.0
 10
123.8904371170694
 20
-155.8781771832525
 30
0.0
 10
123.8353332295863
 20
-155.8781771832525
 30
0.0
 10
123.7905304529516
 20
-155.9229446832417
 30
0.0
 10
123.7905304529516
 20
-155.9780838498941
 30
0.0
 10
123.7905304529516
 20
-156.0331877387697
 30
0.0
 10
123.8353332295863
 20
-156.0779905165364
 30
0.0
 10
123.8904371170694
 20
-156.0779905165364
 30
0.0
 10
123.9462818378669
 20
-156.0779905165364
 30
0.0
 10
123.9903790589641
 20
-156.0331877387697
 30
0.0
 10
123.9903790589641
 20
-155.9780838498941
 30
0.0
  0
SPLINE
  5
4C
330
1F
100
AcDbEntity
  8
_U+30EC_U+30A4_U+30E4_U+30FC 1
 62
   179
420
  2234388
370
     9
100
AcDbSpline
210
0.0
220
0.0
230
1.0
 70
    11
 71
     3
 72
    17
 73
    13
 74
     0
 42
0.0000000001
 43
0.0000000001
 12
1.0
 22
0.0
 32
0.0
 13
1.0
 23
0.0
 33
0.0
 40
0.0
 40
0.0
 40
0.0
 40
0.0
 40
1.0
 40
1.0
 40
1.0
 40
2.0
 40
2.0
 40
2.0
 40
3.0
 40
3.0
 40
3.0
 40
4.0
 40
4.0
 40
4.0
 40
4.0
 10
123.9903790589641
 20
-130.9777105228113
 30
0.0
 10
123.9903790589641
 20
-130.9225713561582
 30
0.0
 10
123.9462818378669
 20
-130.8778038561697
 30
0.0
 10
123.8904371170694
 20
-130.8778038561697
 30
0.0
 10
123.8353332295863
 20
-130.8778038561697
 30
0.0
 10
123.7905304529516
 20
-130.9225713561582
 30
0.0
 10
123.7905304529516
 20
-130.9777105228113
 30
0.0
 10
123.7905304529516
 20
-131.0328144116862
 30
0.0
 10
123.8353332295863
 20
-131.0776171894529
 30
0.0
 10
123.8904371170694
 20
-131.0776171894529
 30
0.0
 10
123.9462818378669
 20
-131.0776171894529
 30
0.0
 10
123.9903790589641
 20
-131.0328144116862
 30
0.0
 10
123.9903790589641
 20
-130.9777105228113
 30
0.0
  0
SPLINE
  5
4D
330
1F
100
AcDbEntity
  8
_U+30EC_U+30A4_U+30E4_U+30FC 1
 62
   179
420
  2234388
370
     9
100
AcDbSpline
210
0.0
220
0.0
230
1.0
 70
    11
 71
     3
 72
    17
 73
    13
 74
     0
 42
0.0000000001
 43
0.0000000001
 12
1.0
 22
0.0
 32
0.0
 13
1.0
 23
0.0
 33
0.0
 40
0.0
 40
0.0
 40
0.0
 40
0.0
 40
1.0
 40
1.0
 40
1.0
 40
2.0
 40
2.0
 40
2.0
 40
3.0
 40
3.0
 40
3.0
 40
4.0
 40
4.0
 40
4.0
 40
4.0
 10
123.9903790589641
 20
-129.7781249675555
 30
0.0
 10
123.9903790589641
 20
-129.7230210786805
 30
0.0
 10
123.9462818378669
 20
-129.6782183009138
 30
0.0
 10
123.8904371170694
 20
-129.6782183009138
 30
0.0
 10
123.8353332295863
 20
-129.6782183009138
 30
0.0
 10
123.7905304529516
 20
-129.7230210786805
 30
0.0
 10
123.7905304529516
 20
-129.7781249675555
 30
0.0
 10
123.7905304529516
 20
-129.8332641342085
 30
0.0
 10
123.8353332295863
 20
-129.8780316341971
 30
0.0
 10
123.8904371170694
 20
-129.8780316341971
 30
0.0
 10
123.9462818378669
 20
-129.8780316341971
 30
0.0
 10
123.9903790589641
 20
-129.8332641342085
 30
0.0
 10
123.9903790589641
 20
-129.7781249675555
 30
0.0
  0
SPLINE
  5
4E
330
1F
100
AcDbEntity
  8
_U+30EC_U+30A4_U+30E4_U+30FC 1
 62
   179
420
  2234388
370
     9
100
AcDbSpline
210
0.0
220
0.0
230
1.0
 70
    11
 71
     3
 72
    17
 73
    13
 74
     0
 42
0.0000000001
 43
0.0000000001
 12
1.0
 22
0.0
 32
0.0
 13
1.0
 23
0.0
 33
0.0
 40
0.0
 40
0.0
 40
0.0
 40
0.0
 40
1.0
 40
1.0
 40
1.0
 40
2.0
 40
2.0
 40
2.0
 40
3.0
 40
3.0
 40
3.0
 40
4.0
 40
4.0
 40
4.0
 40
4.0
 10
119.9906199943398
 20
-161.1780988485942
 30
0.0
 10
119.9906199943398
 20
-161.1229949597193
 30
0.0
 10
119.945817217705
 20
-161.0781921819525
 30
0.0
 10
119.890713330222
 20
-161.0781921819525
 30
0.0
 10
119.835574164962
 20
-161.0781921819525
 30
0.0
 10
119.7908066661041
 20
-161.1229949597193
 30
0.0
 10
119.7908066661041
 20
-161.1780988485942
 30
0.0
 10
119.7908066661041
 20
-161.2332380152473
 30
0.0
 10
119.835574164962
 20
-161.2780055152358
 30
0.0
 10
119.890713330222
 20
-161.2780055152358
 30
0.0
 10
119.945817217705
 20
-161.2780055152358
 30
0.0
 10
119.9906199943398
 20
-161.2332380152473
 30
0.0
 10
119.9906199943398
 20
-161.1780988485942
 30
0.0
  0
SPLINE
  5
4F
330
1F
100
AcDbEntity
  8
_U+30EC_U+30A4_U+30E4_U+30FC 1
 62
   179
420
  2234388
370
     9
100
AcDbSpline
210
0.0
220
0.0
230
1.0
 70
    11
 71
     3
 72
    17
 73
    13
 74
     0
 42
0.0000000001
 43
0.0000000001
 12
1.0
 22
0.0
 32
0.0
 13
1.0
 23
0.0
 33
0.0
 40
0.0
 40
0.0
 40
0.0
 40
0.0
 40
1.0
 40
1.0
 40
1.0
 40
2.0
 40
2.0
 40
2.0
 40
3.0
 40
3.0
 40
3.0
 40
4.0
 40
4.0
 40
4.0
 40
4.0
 10
104.9906503770209
 20
-161.1780988485942
 30
0.0
 10
104.9906503770209
 20
-161.1229949597193
 30
0.0
 10
104.945882878163
 20
-161.0781921819525
 30
0.0
 10
104.8907437129031
 20
-161.0781921819525
 30
0.0
 10
104.83563982542
 20
-161.0781921819525
 30
0.0
 10
104.7908370487852
 20
-161.1229949597193
 30
0.0
 10
104.7908370487852
 20
-161.1780988485942
 30
0.0
 10
104.7908370487852
 20
-161.2332380152473
 30
0.0
 10
104.83563982542
 20
-161.2780055152358
 30
0.0
 10
104.8907437129031
 20
-161.2780055152358
 30
0.0
 10
104.945882878163
 20
-161.2780055152358
 30
0.0
 10
104.9906503770209
 20
-161.2332380152473
 30
0.0
 10
104.9906503770209
 20
-161.1780988485942
 30
0.0
  0
SPLINE
  5
50
330
1F
100
AcDbEntity
  8
_U+30EC_U+30A4_U+30E4_U+30FC 1
 62
   179
420
  2234388
370
     9
100
AcDbSpline
210
0.0
220
0.0
230
1.0
 70
    11
 71
     3
 72
    17
 73
    13
 74
     0
 42
0.0000000001
 43
0.0000000001
 12
1.0
 22
0.0
 32
0.0
 13
1.0
 23
0.0
 33
0.0
 40
0.0
 40
0.0
 40
0.0
 40
0.0
 40
1.0
 40
1.0
 40
1.0
 40
2.0
 40
2.0
 40
2.0
 40
3.0
 40
3.0
 40
3.0
 40
4.0
 40
4.0
 40
4.0
 40
4.0
 10
60.99093705510268
 20
-102.1780969189001
 30
0.0
 10
60.99093705510268
 20
-102.122957752247
 30
0.0
 10
60.94613427846791
 20
-102.0781902522581
 30
0.0
 10
60.89085554033294
 20
-102.0781902522581
 30
0.0
 10
60.83557372573299
 20
-102.0781902522581
 30
0.0
 10
60.79094733798262
 20
-102.122957752247
 30
0.0
 10
60.79094733798262
 20
-102.1780969189001
 30
0.0
 10
60.79094733798262
 20
-102.233200807775
 30
0.0
 10
60.83557372573299
 20
-102.2780035855417
 30
0.0
 10
60.89085554033294
 20
-102.2780035855417
 30
0.0
 10
60.94613427846791
 20
-102.2780035855417
 30
0.0
 10
60.99093705510268
 20
-102.233200807775
 30
0.0
 10
60.99093705510268
 20
-102.1780969189001
 30
0.0
  0
SPLINE
  5
51
330
1F
100
AcDbEntity
  8
_U+30EC_U+30A4_U+30E4_U+30FC 1
 62
   179
420
  2234388
370
     9
100
AcDbSpline
210
0.0
220
0.0
230
1.0
 70
    11
 71
     3
 72
    17
 73
    13
 74
     0
 42
0.0000000001
 43
0.0000000001
 12
1.0
 22
0.0
 32
0.0
 13
1.0
 23
0.0
 33
0.0
 40
0.0
 40
0.0
 40
0.0
 40
0.0
 40
1.0
 40
1.0
 40
1.0
 40
2.0
 40
2.0
 40
2.0
 40
3.0
 40
3.0
 40
3.0
 40
4.0
 40
4.0
 40
4.0
 40
4.0
 10
60.99093705510268
 20
-117.1780316373721
 30
0.0
 10
60.99093705510268
 20
-117.1229277484972
 30
0.0
 10
60.94613427846791
 20
-117.0781249707305
 30
0.0
 10
60.89085554033294
 20
-117.0781249707305
 30
0.0
 10
60.83557372573299
 20
-117.0781249707305
 30
0.0
 10
60.79094733798262
 20
-117.1229277484972
 30
0.0
 10
60.79094733798262
 20
-117.1780316373721
 30
0.0
 10
60.79094733798262
 20
-117.2331708040252
 30
0.0
 10
60.83557372573299
 20
-117.2779383040137
 30
0.0
 10
60.89085554033294
 20
-117.2779383040137
 30
0.0
 10
60.94613427846791
 20
-117.2779383040137
 30
0.0
 10
60.99093705510268
 20
-117.2331708040252
 30
0.0
 10
60.99093705510268
 20
-117.1780316373721
 30
0.0
  0
SPLINE
  5
52
330
1F
100
AcDbEntity
  8
_U+30EC_U+30A4_U+30E4_U+30FC 1
 62
   179
420
  2234388
370
     9
100
AcDbSpline
210
0.0
220
0.0
230
1.0
 70
    11
 71
     3
 72
    17
 73
    13
 74
     0
 42
0.0000000001
 43
0.0000000001
 12
1.0
 22
0.0
 32
0.0
 13
1.0
 23
0.0
 33
0.0
 40
0.0
 40
0.0
 40
0.0
 40
0.0
 40
1.0
 40
1.0
 40
1.0
 40
2.0
 40
2.0
 40
2.0
 40
3.0
 40
3.0
 40
3.0
 40
4.0
 40
4.0
 40
4.0
 40
4.0
 10
66.19077553355486
 20
-98.17798497545543
 30
0.0
 10
66.19077553355486
 20
-98.12252830880276
 30
0.0
 10
66.14618609457465
 20
-98.07772553103604
 30
0.0
 10
66.09086886943702
 20
-98.07772553103604
 30
0.0
 10
66.03558859306956
 20
-98.07772553103604
 30
0.0
 10
65.9907858164348
 20
-98.12252830880276
 30
0.0
 10
65.9907858164348
 20
-98.17798497545543
 30
0.0
 10
65.9907858164348
 20
-98.23312414210851
 30
0.0
 10
66.03558859306956
 20
-98.27789164209706
 30
0.0
 10
66.09086886943702
 20
-98.27789164209706
 30
0.0
 10
66.14618609457465
 20
-98.27789164209706
 30
0.0
 10
66.19077553355486
 20
-98.23312414210851
 30
0.0
 10
66.19077553355486
 20
-98.17798497545543
 30
0.0
  0
SPLINE
  5
53
330
1F
100
AcDbEntity
  8
_U+30EC_U+30A4_U+30E4_U+30FC 1
 62
   179
420
  2234388
370
     9
100
AcDbSpline
210
0.0
220
0.0
230
1.0
 70
    11
 71
     3
 72
    17
 73
    13
 74
     0
 42
0.0000000001
 43
0.0000000001
 12
1.0
 22
0.0
 32
0.0
 13
1.0
 23
0.0
 33
0.0
 40
0.0
 40
0.0
 40
0.0
 40
0.0
 40
1.0
 40
1.0
 40
1.0
 40
2.0
 40
2.0
 40
2.0
 40
3.0
 40
3.0
 40
3.0
 40
4.0
 40
4.0
 40
4.0
 40
4.0
 10
91.19114822907554
 20
-98.17798497545543
 30
0.0
 10
91.19114822907554
 20
-98.12252830880276
 30
0.0
 10
91.14638073021766
 20
-98.07772553103604
 30
0.0
 10
91.09124156495771
 20
-98.07772553103604
 30
0.0
 10
91.03543212193708
 20
-98.07772553103604
 30
0.0
 10
90.9906646230792
 20
-98.12252830880276
 30
0.0
 10
90.9906646230792
 20
-98.17798497545543
 30
0.0
 10
90.9906646230792
 20
-98.23312414210851
 30
0.0
 10
91.03543212193708
 20
-98.27789164209706
 30
0.0
 10
91.09124156495771
 20
-98.27789164209706
 30
0.0
 10
91.14638073021766
 20
-98.27789164209706
 30
0.0
 10
91.19114822907554
 20
-98.23312414210851
 30
0.0
 10
91.19114822907554
 20
-98.17798497545543
 30
0.0
  0
POLYLINE
  5
54
330
1F
100
AcDbEntity
  8
_U+30EC_U+30A4_U+30E4_U+30FC 1
 62
   179
420
  2234388
370
     9
100
AcDb2dPolyline
 66
     1
 10
0.0
 20
0.0
 30
0.0
  0
VERTEX
  5
55
330
54
100
AcDbEntity
  8
_U+30EC_U+30A4_U+30E4_U+30FC 1
 62
   179
420
  2234388
370
     9
100
AcDbVertex
100
AcDb2dVertex
 10
65.25563222407901
 20
-156.8131794052411
 30
0.0
  0
VERTEX
  5
56
330
54
100
AcDbEntity
  8
_U+30EC_U+30A4_U+30E4_U+30FC 1
 62
   179
420
  2234388
370
     9
100
AcDbVertex
100
AcDb2dVertex
 10
70.52849570066817
 20
-151.5401041287816
 30
0.0
  0
SEQEND
  5
57
330
54
100
AcDbEntity
  8
_U+30EC_U+30A4_U+30E4_U+30FC 1
 62
   179
420
  2234388
370
     9
  0
POLYLINE
  5
58
330
1F
100
AcDbEntity
  8
_U+30EC_U+30A4_U+30E4_U+30FC 1
 62
   179
420
  2234388
370
     9
100
AcDb2dPolyline
 66
     1
 10
0.0
 20
0.0
 30
0.0
  0
VERTEX
  5
59
330
58
100
AcDbEntity
  8
_U+30EC_U+30A4_U+30E4_U+30FC 1
 62
   179
420
  2234388
370
     9
100
AcDbVertex
100
AcDb2dVertex
 10
70.52849570066817
 20
-151.5401041287816
 30
0.0
  0
VERTEX
  5
5A
330
58
100
AcDbEntity
  8
_U+30EC_U+30A4_U+30E4_U+30FC 1
 62
   179
420
  2234388
370
     9
100
AcDbVertex
100
AcDb2dVertex
 10
73.49627395828718
 20
-151.5401041287816
 30
0.0
  0
SEQEND
  5
5B
330
58
100
AcDbEntity
  8
_U+30EC_U+30A4_U+30E4_U+30FC 1
 62
   179
420
  2234388
370
     9
  0
INSERT
  5
5D
330
1F
100
AcDbEntity
  8
_U+30EC_U+30A4_U+30E4_U+30FC 1
100
AcDbBlockReference
  2
block 2
 10
0.0
 20
0.0
 30
0.0
  0
POLYLINE
  5
70
330
1F
100
AcDbEntity
  8
_U+30EC_U+30A4_U+30E4_U+30FC 1
 62
   179
420
  2234388
370
     9
100
AcDb2dPolyline
 66
     1
 10
0.0
 20
0.0
 30
0.0
  0
VERTEX
  5
71
330
70
100
AcDbEntity
  8
_U+30EC_U+30A4_U+30E4_U+30FC 1
 62
   179
420
  2234388
370
     9
100
AcDbVertex
100
AcDb2dVertex
 10
64.89078945560915
 20
-161.1780988485942
 30
0.0
  0
VERTEX
  5
72
330
70
100
AcDbEntity
  8
_U+30EC_U+30A4_U+30E4_U+30FC 1
 62
   179
420
  2234388
370
     9
100
AcDbVertex
100
AcDb2dVertex
 10
104.8907437129031
 20
-161.1780988485942
 30
0.0
  0
SEQEND
  5
73
330
70
100
AcDbEntity
  8
_U+30EC_U+30A4_U+30E4_U+30FC 1
 62
   179
420
  2234388
370
     9
  0
POLYLINE
  5
74
330
1F
100
AcDbEntity
  8
_U+30EC_U+30A4_U+30E4_U+30FC 1
 62
   179
420
  2234388
370
     9
100
AcDb2dPolyline
 66
     1
 10
0.0
 20
0.0
 30
0.0
  0
VERTEX
  5
75
330
74
100
AcDbEntity
  8
_U+30EC_U+30A4_U+30E4_U+30FC 1
 62
   179
420
  2234388
370
     9
100
AcDbVertex
100
AcDb2dVertex
 10
64.89078945560915
 20
-157.5180294050647
 30
0.0
  0
VERTEX
  5
76
330
74
100
AcDbEntity
  8
_U+30EC_U+30A4_U+30E4_U+30FC 1
 62
   179
420
  2234388
370
     9
100
AcDbVertex
100
AcDb2dVertex
 10
64.89078945560915
 20
-162.1778710705667
 30
0.0
  0
SEQEND
  5
77
330
74
100
AcDbEntity
  8
_U+30EC_U+30A4_U+30E4_U+30FC 1
 62
   179
420
  2234388
370
     9
  0
POLYLINE
  5
78
330
1F
100
AcDbEntity
  8
_U+30EC_U+30A4_U+30E4_U+30FC 1
 62
   179
420
  2234388
370
     9
100
AcDb2dPolyline
 66
     1
 10
0.0
 20
0.0
 30
0.0
  0
VERTEX
  5
79
330
78
100
AcDbEntity
  8
_U+30EC_U+30A4_U+30E4_U+30FC 1
 62
   179
420
  2234388
370
     9
100
AcDbVertex
100
AcDb2dVertex
 10
104.8907437129031
 20
-159.7180574600704
 30
0.0
  0
VERTEX
  5
7A
330
78
100
AcDbEntity
  8
_U+30EC_U+30A4_U+30E4_U+30FC 1
 62
   179
420
  2234388
370
     9
100
AcDbVertex
100
AcDb2dVertex
 10
104.8907437129031
 20
-162.1778710705667
 30
0.0
  0
SEQEND
  5
7B
330
78
100
AcDbEntity
  8
_U+30EC_U+30A4_U+30E4_U+30FC 1
 62
   179
420
  2234388
370
     9
  0
INSERT
  5
7D
330
1F
100
AcDbEntity
  8
_U+30EC_U+30A4_U+30E4_U+30FC 1
100
AcDbBlockReference
  2
block 3
 10
0.0
 20
0.0
 30
0.0
  0
POLYLINE
  5
98
330
1F
100
AcDbEntity
  8
_U+30EC_U+30A4_U+30E4_U+30FC 1
 62
   179
420
  2234388
370
     9
100
AcDb2dPolyline
 66
     1
 10
0.0
 20
0.0
 30
0.0
  0
VERTEX
  5
99
330
98
100
AcDbEntity
  8
_U+30EC_U+30A4_U+30E4_U+30FC 1
 62
   179
420
  2234388
370
     9
100
AcDbVertex
100
AcDb2dVertex
 10
104.8907437129031
 20
-161.1780988485942
 30
0.0
  0
VERTEX
  5
9A
330
98
100
AcDbEntity
  8
_U+30EC_U+30A4_U+30E4_U+30FC 1
 62
   179
420
  2234388
370
     9
100
AcDbVertex
100
AcDb2dVertex
 10
119.890713330222
 20
-161.1780988485942
 30
0.0
  0
SEQEND
  5
9B
330
98
100
AcDbEntity
  8
_U+30EC_U+30A4_U+30E4_U+30FC 1
 62
   179
420
  2234388
370
     9
  0
POLYLINE
  5
9C
330
1F
100
AcDbEntity
  8
_U+30EC_U+30A4_U+30E4_U+30FC 1
 62
   179
420
  2234388
370
     9
100
AcDb2dPolyline
 66
     1
 10
0.0
 20
0.0
 30
0.0
  0
VERTEX
  5
9D
330
9C
100
AcDbEntity
  8
_U+30EC_U+30A4_U+30E4_U+30FC 1
 62
   179
420
  2234388
370
     9
100
AcDbVertex
100
AcDb2dVertex
 10
119.890713330222
 20
-133.5181338555093
 30
0.0
  0
VERTEX
  5
9E
330
9C
100
AcDbEntity
  8
_U+30EC_U+30A4_U+30E4_U+30FC 1
 62
   179
420
  2234388
370
     9
100
AcDbVertex
100
AcDb2dVertex
 10
119.890713330222
 20
-162.1778710705667
 30
0.0
  0
SEQEND
  5
9F
330
9C
100
AcDbEntity
  8
_U+30EC_U+30A4_U+30E4_U+30FC 1
 62
   179
420
  2234388
370
     9
  0
INSERT
  5
A1
330
1F
100
AcDbEntity
  8
_U+30EC_U+30A4_U+30E4_U+30FC 1
100
AcDbBlockReference
  2
block 4
 10
0.0
 20
0.0
 30
0.0
  0
POLYLINE
  5
A8
330
1F
100
AcDbEntity
  8
_U+30EC_U+30A4_U+30E4_U+30FC 1
 62
   179
420
  2234388
370
     9
100
AcDb2dPolyline
 66
     1
 10
0.0
 20
0.0
 30
0.0
  0
VERTEX
  5
A9
330
A8
100
AcDbEntity
  8
_U+30EC_U+30A4_U+30E4_U+30FC 1
 62
   179
420
  2234388
370
     9
100
AcDbVertex
100
AcDb2dVertex
 10
66.09086886943702
 20
-98.17798497545543
 30
0.0
  0
VERTEX
  5
AA
330
A8
100
AcDbEntity
  8
_U+30EC_U+30A4_U+30E4_U+30FC 1
 62
   179
420
  2234388
370
     9
100
AcDbVertex
100
AcDb2dVertex
 10
91.09124156495771
 20
-98.17798497545543
 30
0.0
  0
SEQEND
  5
AB
330
A8
100
AcDbEntity
  8
_U+30EC_U+30A4_U+30E4_U+30FC 1
 62
   179
420
  2234388
370
     9
  0
POLYLINE
  5
AC
330
1F
100
AcDbEntity
  8
_U+30EC_U+30A4_U+30E4_U+30FC 1
 62
   179
420
  2234388
370
     9
100
AcDb2dPolyline
 66
     1
 10
0.0
 20
0.0
 30
0.0
  0
VERTEX
  5
AD
330
AC
100
AcDbEntity
  8
_U+30EC_U+30A4_U+30E4_U+30FC 1
 62
   179
420
  2234388
370
     9
100
AcDbVertex
100
AcDb2dVertex
 10
66.09086886943702
 20
-114.6376083046741
 30
0.0
  0
VERTEX
  5
AE
330
AC
100
AcDbEntity
  8
_U+30EC_U+30A4_U+30E4_U+30FC 1
 62
   179
420
  2234388
370
     9
100
AcDbVertex
100
AcDb2dVertex
 10
66.09086886943702
 20
-97.17785997570545
 30
0.0
  0
SEQEND
  5
AF
330
AC
100
AcDbEntity
  8
_U+30EC_U+30A4_U+30E4_U+30FC 1
 62
   179
420
  2234388
370
     9
  0
POLYLINE
  5
B0
330
1F
100
AcDbEntity
  8
_U+30EC_U+30A4_U+30E4_U+30FC 1
 62
   179
420
  2234388
370
     9
100
AcDb2dPolyline
 66
     1
 10
0.0
 20
0.0
 30
0.0
  0
VERTEX
  5
B1
330
B0
100
AcDbEntity
  8
_U+30EC_U+30A4_U+30E4_U+30FC 1
 62
   179
420
  2234388
370
     9
100
AcDbVertex
100
AcDb2dVertex
 10
91.09124156495771
 20
-99.6376735862017
 30
0.0
  0
VERTEX
  5
B2
330
B0
100
AcDbEntity
  8
_U+30EC_U+30A4_U+30E4_U+30FC 1
 62
   179
420
  2234388
370
     9
100
AcDbVertex
100
AcDb2dVertex
 10
91.09124156495771
 20
-97.17785997570545
 30
0.0
  0
SEQEND
  5
B3
330
B0
100
AcDbEntity
  8
_U+30EC_U+30A4_U+30E4_U+30FC 1
 62
   179
420
  2234388
370
     9
  0
INSERT
  5
B5
330
1F
100
AcDbEntity
  8
_U+30EC_U+30A4_U+30E4_U+30FC 1
100
AcDbBlockReference
  2
block 5
 10
0.0
 20
0.0
 30
0.0
  0
POLYLINE
  5
BC
330
1F
100
AcDbEntity
  8
_U+30EC_U+30A4_U+30E4_U+30FC 1
 62
   179
420
  2234388
370
     9
100
AcDb2dPolyline
 66
     1
 10
0.0
 20
0.0
 30
0.0
  0
VERTEX
  5
BD
330
BC
100
AcDbEntity
  8
_U+30EC_U+30A4_U+30E4_U+30FC 1
 62
   179
420
  2234388
370
     9
100
AcDbVertex
100
AcDb2dVertex
 10
60.89085554033294
 20
-157.1776694051499
 30
0.0
  0
VERTEX
  5
BE
330
BC
100
AcDbEntity
  8
_U+30EC_U+30A4_U+30E4_U+30FC 1
 62
   179
420
  2234388
370
     9
100
AcDbVertex
100
AcDb2dVertex
 10
60.89085554033294
 20
-117.1780316373721
 30
0.0
  0
SEQEND
  5
BF
330
BC
100
AcDbEntity
  8
_U+30EC_U+30A4_U+30E4_U+30FC 1
 62
   179
420
  2234388
370
     9
  0
POLYLINE
  5
C0
330
1F
100
AcDbEntity
  8
_U+30EC_U+30A4_U+30E4_U+30FC 1
 62
   179
420
  2234388
370
     9
100
AcDb2dPolyline
 66
     1
 10
0.0
 20
0.0
 30
0.0
  0
VERTEX
  5
C1
330
C0
100
AcDbEntity
  8
_U+30EC_U+30A4_U+30E4_U+30FC 1
 62
   179
420
  2234388
370
     9
100
AcDbVertex
100
AcDb2dVertex
 10
64.55092498386237
 20
-157.1776694051499
 30
0.0
  0
VERTEX
  5
C2
330
C0
100
AcDbEntity
  8
_U+30EC_U+30A4_U+30E4_U+30FC 1
 62
   179
420
  2234388
370
     9
100
AcDbVertex
100
AcDb2dVertex
 10
59.89090541650015
 20
-157.1776694051499
 30
0.0
  0
SEQEND
  5
C3
330
C0
100
AcDbEntity
  8
_U+30EC_U+30A4_U+30E4_U+30FC 1
 62
   179
420
  2234388
370
     9
  0
POLYLINE
  5
C4
330
1F
100
AcDbEntity
  8
_U+30EC_U+30A4_U+30E4_U+30FC 1
 62
   179
420
  2234388
370
     9
100
AcDb2dPolyline
 66
     1
 10
0.0
 20
0.0
 30
0.0
  0
VERTEX
  5
C5
330
C4
100
AcDbEntity
  8
_U+30EC_U+30A4_U+30E4_U+30FC 1
 62
   179
420
  2234388
370
     9
100
AcDbVertex
100
AcDb2dVertex
 10
62.35089535374058
 20
-117.1780316373721
 30
0.0
  0
VERTEX
  5
C6
330
C4
100
AcDbEntity
  8
_U+30EC_U+30A4_U+30E4_U+30FC 1
 62
   179
420
  2234388
370
     9
100
AcDbVertex
100
AcDb2dVertex
 10
59.89090541650015
 20
-117.1780316373721
 30
0.0
  0
SEQEND
  5
C7
330
C4
100
AcDbEntity
  8
_U+30EC_U+30A4_U+30E4_U+30FC 1
 62
   179
420
  2234388
370
     9
  0
INSERT
  5
C9
330
1F
100
AcDbEntity
  8
_U+30EC_U+30A4_U+30E4_U+30FC 1
100
AcDbBlockReference
  2
block 6
 10
0.0
 20
0.0
 30
0.0
  0
POLYLINE
  5
E4
330
1F
100
AcDbEntity
  8
_U+30EC_U+30A4_U+30E4_U+30FC 1
 62
   179
420
  2234388
370
     9
100
AcDb2dPolyline
 66
     1
 10
0.0
 20
0.0
 30
0.0
  0
VERTEX
  5
E5
330
E4
100
AcDbEntity
  8
_U+30EC_U+30A4_U+30E4_U+30FC 1
 62
   179
420
  2234388
370
     9
100
AcDbVertex
100
AcDb2dVertex
 10
60.89085554033294
 20
-117.1780316373721
 30
0.0
  0
VERTEX
  5
E6
330
E4
100
AcDbEntity
  8
_U+30EC_U+30A4_U+30E4_U+30FC 1
 62
   179
420
  2234388
370
     9
100
AcDbVertex
100
AcDb2dVertex
 10
60.89085554033294
 20
-102.1780969189001
 30
0.0
  0
SEQEND
  5
E7
330
E4
100
AcDbEntity
  8
_U+30EC_U+30A4_U+30E4_U+30FC 1
 62
   179
420
  2234388
370
     9
  0
POLYLINE
  5
E8
330
1F
100
AcDbEntity
  8
_U+30EC_U+30A4_U+30E4_U+30FC 1
 62
   179
420
  2234388
370
     9
100
AcDb2dPolyline
 66
     1
 10
0.0
 20
0.0
 30
0.0
  0
VERTEX
  5
E9
330
E8
100
AcDbEntity
  8
_U+30EC_U+30A4_U+30E4_U+30FC 1
 62
   179
420
  2234388
370
     9
100
AcDbVertex
100
AcDb2dVertex
 10
88.55085357421285
 20
-102.1780969189001
 30
0.0
  0
VERTEX
  5
EA
330
E8
100
AcDbEntity
  8
_U+30EC_U+30A4_U+30E4_U+30FC 1
 62
   179
420
  2234388
370
     9
100
AcDbVertex
100
AcDb2dVertex
 10
59.89090541650015
 20
-102.1780969189001
 30
0.0
  0
SEQEND
  5
EB
330
E8
100
AcDbEntity
  8
_U+30EC_U+30A4_U+30E4_U+30FC 1
 62
   179
420
  2234388
370
     9
  0
INSERT
  5
ED
330
1F
100
AcDbEntity
  8
_U+30EC_U+30A4_U+30E4_U+30FC 1
100
AcDbBlockReference
  2
block 7
 10
0.0
 20
0.0
 30
0.0
  0
POLYLINE
  5
F4
330
1F
100
AcDbEntity
  8
_U+30EC_U+30A4_U+30E4_U+30FC 1
 62
   179
420
  2234388
370
     9
100
AcDb2dPolyline
 66
     1
 10
0.0
 20
0.0
 30
0.0
  0
VERTEX
  5
F5
330
F4
100
AcDbEntity
  8
_U+30EC_U+30A4_U+30E4_U+30FC 1
 62
   179
420
  2234388
370
     9
100
AcDbVertex
100
AcDb2dVertex
 10
123.8904371170694
 20
-129.7781249675555
 30
0.0
  0
VERTEX
  5
F6
330
F4
100
AcDbEntity
  8
_U+30EC_U+30A4_U+30E4_U+30FC 1
 62
   179
420
  2234388
370
     9
100
AcDbVertex
100
AcDb2dVertex
 10
123.8904371170694
 20
-130.9777105228113
 30
0.0
  0
SEQEND
  5
F7
330
F4
100
AcDbEntity
  8
_U+30EC_U+30A4_U+30E4_U+30FC 1
 62
   179
420
  2234388
370
     9
  0
POLYLINE
  5
F8
330
1F
100
AcDbEntity
  8
_U+30EC_U+30A4_U+30E4_U+30FC 1
 62
   179
420
  2234388
370
     9
100
AcDb2dPolyline
 66
     1
 10
0.0
 20
0.0
 30
0.0
  0
VERTEX
  5
F9
330
F8
100
AcDbEntity
  8
_U+30EC_U+30A4_U+30E4_U+30FC 1
 62
   179
420
  2234388
370
     9
100
AcDbVertex
100
AcDb2dVertex
 10
122.4304310432062
 20
-129.7781249675555
 30
0.0
  0
VERTEX
  5
FA
330
F8
100
AcDbEntity
  8
_U+30EC_U+30A4_U+30E4_U+30FC 1
 62
   179
420
  2234388
370
     9
100
AcDbVertex
100
AcDb2dVertex
 10
124.8909148693229
 20
-129.7781249675555
 30
0.0
  0
SEQEND
  5
FB
330
F8
100
AcDbEntity
  8
_U+30EC_U+30A4_U+30E4_U+30FC 1
 62
   179
420
  2234388
370
     9
  0
POLYLINE
  5
FC
330
1F
100
AcDbEntity
  8
_U+30EC_U+30A4_U+30E4_U+30FC 1
 62
   179
420
  2234388
370
     9
100
AcDb2dPolyline
 66
     1
 10
0.0
 20
0.0
 30
0.0
  0
VERTEX
  5
FD
330
FC
100
AcDbEntity
  8
_U+30EC_U+30A4_U+30E4_U+30FC 1
 62
   179
420
  2234388
370
     9
100
AcDbVertex
100
AcDb2dVertex
 10
122.4304310432062
 20
-130.9777105228113
 30
0.0
  0
VERTEX
  5
FE
330
FC
100
AcDbEntity
  8
_U+30EC_U+30A4_U+30E4_U+30FC 1
 62
   179
420
  2234388
370
     9
100
AcDbVertex
100
AcDb2dVertex
 10
124.8909148693229
 20
-130.9777105228113
 30
0.0
  0
SEQEND
  5
FF
330
FC
100
AcDbEntity
  8
_U+30EC_U+30A4_U+30E4_U+30FC 1
 62
   179
420
  2234388
370
     9
  0
INSERT
  5
101
330
1F
100
AcDbEntity
  8
_U+30EC_U+30A4_U+30E4_U+30FC 1
100
AcDbBlockReference
  2
block 8
 10
0.0
 20
0.0
 30
0.0
  0
POLYLINE
  5
110
330
1F
100
AcDbEntity
  8
_U+30EC_U+30A4_U+30E4_U+30FC 1
 62
   179
420
  2234388
370
     9
100
AcDb2dPolyline
 66
     1
 10
0.0
 20
0.0
 30
0.0
  0
VERTEX
  5
111
330
110
100
AcDbEntity
  8
_U+30EC_U+30A4_U+30E4_U+30FC 1
 62
   179
420
  2234388
370
     9
100
AcDbVertex
100
AcDb2dVertex
 10
123.8904371170694
 20
-130.9777105228113
 30
0.0
  0
VERTEX
  5
112
330
110
100
AcDbEntity
  8
_U+30EC_U+30A4_U+30E4_U+30FC 1
 62
   179
420
  2234388
370
     9
100
AcDbVertex
100
AcDb2dVertex
 10
123.8904371170694
 20
-155.9780838498941
 30
0.0
  0
SEQEND
  5
113
330
110
100
AcDbEntity
  8
_U+30EC_U+30A4_U+30E4_U+30FC 1
 62
   179
420
  2234388
370
     9
  0
POLYLINE
  5
114
330
1F
100
AcDbEntity
  8
_U+30EC_U+30A4_U+30E4_U+30FC 1
 62
   179
420
  2234388
370
     9
100
AcDb2dPolyline
 66
     1
 10
0.0
 20
0.0
 30
0.0
  0
VERTEX
  5
115
330
114
100
AcDbEntity
  8
_U+30EC_U+30A4_U+30E4_U+30FC 1
 62
   179
420
  2234388
370
     9
100
AcDbVertex
100
AcDb2dVertex
 10
107.4304614258873
 20
-155.9780838498941
 30
0.0
  0
VERTEX
  5
116
330
114
100
AcDbEntity
  8
_U+30EC_U+30A4_U+30E4_U+30FC 1
 62
   179
420
  2234388
370
     9
100
AcDbVertex
100
AcDb2dVertex
 10
124.8909148693229
 20
-155.9780838498941
 30
0.0
  0
SEQEND
  5
117
330
114
100
AcDbEntity
  8
_U+30EC_U+30A4_U+30E4_U+30FC 1
 62
   179
420
  2234388
370
     9
  0
INSERT
  5
119
330
1F
100
AcDbEntity
  8
_U+30EC_U+30A4_U+30E4_U+30FC 1
100
AcDbBlockReference
  2
block 9
 10
0.0
 20
0.0
 30
0.0
  0
SPLINE
  5
120
330
1F
100
AcDbEntity
  8
_U+30EC_U+30A4_U+30E4_U+30FC 1
 62
   179
420
  2234388
370
    25
100
AcDbSpline
210
0.0
220
0.0
230
1.0
 70
    11
 71
     3
 72
    65
 73
    61
 74
     0
 42
0.0000000001
 43
0.0000000001
 12
1.0
 22
0.0
 32
0.0
 13
1.0
 23
0.0
 33
0.0
 40
0.0
 40
0.0
 40
0.0
 40
0.0
 40
1.0
 40
1.0
 40
1.0
 40
2.0
 40
2.0
 40
2.0
 40
3.0
 40
3.0
 40
3.0
 40
4.0
 40
4.0
 40
4.0
 40
5.0
 40
5.0
 40
5.0
 40
6.0
 40
6.0
 40
6.0
 40
7.0
 40
7.0
 40
7.0
 40
8.0
 40
8.0
 40
8.0
 40
9.0
 40
9.0
 40
9.0
 40
10.0
 40
10.0
 40
10.0
 40
11.0
 40
11.0
 40
11.0
 40
12.0
 40
12.0
 40
12.0
 40
13.0
 40
13.0
 40
13.0
 40
14.0
 40
14.0
 40
14.0
 40
15.0
 40
15.0
 40
15.0
 40
16.0
 40
16.0
 40
16.0
 40
17.0
 40
17.0
 40
17.0
 40
18.0
 40
18.0
 40
18.0
 40
19.0
 40
19.0
 40
19.0
 40
20.0
 40
20.0
 40
20.0
 40
20.0
 10
66.09605470263806
 20
-131.4775966337972
 30
0.0
 10
66.09605470263806
 20
-131.2013010783108
 30
0.0
 10
66.31999803025812
 20
-130.9777105228113
 30
0.0
 10
66.59611718988039
 20
-130.9777105228113
 30
0.0
 10
66.59611718988039
 20
-130.9777105228113
 30
0.0
 10
119.890713330222
 20
-130.9777105228113
 30
0.0
 10
119.890713330222
 20
-130.9777105228113
 30
0.0
 10
119.890713330222
 20
-130.9777105228113
 30
0.0
 10
119.890713330222
 20
-129.7777721897777
 30
0.0
 10
119.890713330222
 20
-129.7777721897777
 30
0.0
 10
119.890713330222
 20
-129.7777721897777
 30
0.0
 10
92.79088957715163
 20
-129.7777721897777
 30
0.0
 10
92.79088957715163
 20
-129.7777721897777
 30
0.0
 10
92.51459402864496
 20
-129.7777721897777
 30
0.0
 10
92.2906507010249
 20
-129.5538641342779
 30
0.0
 10
92.2906507010249
 20
-129.2778860787918
 30
0.0
 10
92.2906507010249
 20
-129.2778860787918
 30
0.0
 10
92.29135625656245
 20
-102.1780969189001
 30
0.0
 10
92.29135625656245
 20
-102.1780969189001
 30
0.0
 10
92.29135625656245
 20
-102.1780969189001
 30
0.0
 10
91.08573823176478
 20
-102.1780969189001
 30
0.0
 10
91.08573823176478
 20
-102.1780969189001
 30
0.0
 10
91.08573823176478
 20
-102.1780969189001
 30
0.0
 10
91.08626739841795
 20
-129.2778860787918
 30
0.0
 10
91.08626739841795
 20
-129.2778860787918
 30
0.0
 10
91.08626739841795
 20
-129.5538641342779
 30
0.0
 10
90.86232407079788
 20
-129.7777721897777
 30
0.0
 10
90.5862049111756
 20
-129.7777721897777
 30
0.0
 10
90.5862049111756
 20
-129.7777721897777
 30
0.0
 10
66.59611718988039
 20
-129.7777721897777
 30
0.0
 10
66.59611718988039
 20
-129.7777721897777
 30
0.0
 10
66.31999803025812
 20
-129.7777721897777
 30
0.0
 10
66.09605470263806
 20
-129.5538641342779
 30
0.0
 10
66.09605470263806
 20
-129.2778860787918
 30
0.0
 10
66.09605470263806
 20
-129.2778860787918
 30
0.0
 10
66.0912216472058
 20
-117.1780316373721
 30
0.0
 10
66.0912216472058
 20
-117.1780316373721
 30
0.0
 10
66.0912216472058
 20
-117.1780316373721
 30
0.0
 10
64.89078945560915
 20
-117.1780316373721
 30
0.0
 10
64.89078945560915
 20
-117.1780316373721
 30
0.0
 10
64.89078945560915
 20
-117.1780316373721
 30
0.0
 10
64.89078945560915
 20
-156.1758157942896
 30
0.0
 10
64.89078945560915
 20
-156.1758157942896
 30
0.0
 10
64.89078945560915
 20
-156.7284069052625
 30
0.0
 10
65.338464444188
 20
-157.1759407940393
 30
0.0
 10
65.89073804120945
 20
-157.1759407940393
 30
0.0
 10
65.89073804120945
 20
-157.1759407940393
 30
0.0
 10
104.8907437129031
 20
-157.1797155162608
 30
0.0
 10
104.8907437129031
 20
-157.1797155162608
 30
0.0
 10
104.8907437129031
 20
-157.1797155162608
 30
0.0
 10
104.8907437129031
 20
-155.9798124610047
 30
0.0
 10
104.8907437129031
 20
-155.9798124610047
 30
0.0
 10
104.8907437129031
 20
-155.9798124610047
 30
0.0
 10
66.59075496779498
 20
-155.9798124610047
 30
0.0
 10
66.59075496779498
 20
-155.9798124610047
 30
0.0
 10
66.3146358081727
 20
-155.9798124610047
 30
0.0
 10
66.0907277583295
 20
-155.7562219055052
 30
0.0
 10
66.0907277583295
 20
-155.4799263500188
 30
0.0
 10
66.0907277583295
 20
-155.4799263500188
 30
0.0
 10
66.09605470263806
 20
-131.4775966337972
 30
0.0
 10
66.09605470263806
 20
-131.4775966337972
 30
0.0
  0
ENDSEC
  0
SECTION
  2
OBJECTS
  0
DICTIONARY
  5
C
330
0
100
AcDbDictionary
281
     1
  3
ACAD_GROUP
350
D
  3
ACAD_LAYOUT
350
1A
  3
ACAD_MATERIAL
350
3B
  3
ACAD_MLEADERSTYLE
350
122
  3
ACAD_MLINESTYLE
350
17
  3
ACAD_PLOTSETTINGS
350
19
  3
ACAD_PLOTSTYLENAME
350
E
  3
ACAD_TABLESTYLE
350
121
  3
ACAD_VISUALSTYLE
350
2A
  0
SUN
  5
3F
330
29
100
AcDbSun
 90
        1
290
     0
 63
     7
421
 16777215
 40
1.0
291
     1
 91
  2455826
 92
 54000000
292
     0
 70
     2
 71
   256
280
     1
  0
DICTIONARY
  5
D
102
{ACAD_REACTORS
330
C
102
}
330
C
100
AcDbDictionary
281
     1
  0
DICTIONARY
  5
1A
102
{ACAD_REACTORS
330
C
102
}
330
C
100
AcDbDictionary
281
     1
  3
Layout1
350
1E
  3
Layout2
350
26
  3
Model
350
22
  0
DICTIONARY
  5
3B
102
{ACAD_REACTORS
330
C
102
}
330
C
100
AcDbDictionary
281
     1
  3
ByBlock
350
3D
  3
ByLayer
350
3C
  3
Global
350
3E
  0
DICTIONARY
  5
122
102
{ACAD_REACTORS
330
C
102
}
330
C
100
AcDbDictionary
281
     1
  0
DICTIONARY
  5
17
102
{ACAD_REACTORS
330
C
102
}
330
C
100
AcDbDictionary
281
     1
  3
Standard
350
18
  0
DICTIONARY
  5
19
102
{ACAD_REACTORS
330
C
102
}
330
C
100
AcDbDictionary
281
     1
  0
ACDBDICTIONARYWDFLT
  5
E
102
{ACAD_REACTORS
330
C
102
}
330
C
100
AcDbDictionary
281
     1
  3
Normal
350
F
100
AcDbDictionaryWithDefault
340
F
  0
DICTIONARY
  5
121
102
{ACAD_REACTORS
330
C
102
}
330
C
100
AcDbDictionary
281
     1
  0
DICTIONARY
  5
2A
102
{ACAD_REACTORS
330
C
102
}
330
C
100
AcDbDictionary
281
     1
  3
2dWireframe
350
2F
  3
3D Hidden
350
31
  3
3dWireframe
350
30
  3
Basic
350
32
  3
Brighten
350
36
  3
ColorChange
350
3A
  3
Conceptual
350
34
  3
Dim
350
35
  3
Facepattern
350
39
  3
Flat
350
2B
  3
FlatWithEdges
350
2C
  3
Gouraud
350
2D
  3
GouraudWithEdges
350
2E
  3
Linepattern
350
38
  3
Realistic
350
33
  3
Thicken
350
37
  0
LAYOUT
  5
1E
102
{ACAD_REACTORS
330
1A
102
}
330
1A
100
AcDbPlotSettings
  1

  2
none_device
  4

  6

 40
0.0
 41
0.0
 42
0.0
 43
0.0
 44
0.0
 45
0.0
 46
0.0
 47
0.0
 48
0.0
 49
0.0
140
0.0
141
0.0
142
1.0
143
1.0
 70
   688
 72
     0
 73
     0
 74
     5
  7

 75
    16
 76
     0
 77
     2
 78
   300
147
1.0
148
0.0
149
0.0
100
AcDbLayout
  1
Layout1
 70
     1
 71
     1
 10
0.0
 20
0.0
 11
12.0
 21
9.0
 12
0.0
 22
0.0
 32
0.0
 14
1.000000000000000E+20
 24
1.000000000000000E+20
 34
1.000000000000000E+20
 15
-1.000000000000000E+20
 25
-1.000000000000000E+20
 35
-1.000000000000000E+20
146
0.0
 13
0.0
 23
0.0
 33
0.0
 16
1.0
 26
0.0
 36
0.0
 17
0.0
 27
1.0
 37
0.0
 76
     0
330
1B
  0
LAYOUT
  5
26
102
{ACAD_REACTORS
330
1A
102
}
330
1A
100
AcDbPlotSettings
  1

  2
none_device
  4

  6

 40
0.0
 41
0.0
 42
0.0
 43
0.0
 44
0.0
 45
0.0
 46
0.0
 47
0.0
 48
0.0
 49
0.0
140
0.0
141
0.0
142
1.0
143
1.0
 70
   688
 72
     0
 73
     0
 74
     5
  7

 75
    16
 76
     0
 77
     2
 78
   300
147
1.0
148
0.0
149
0.0
100
AcDbLayout
  1
Layout2
 70
     1
 71
     2
 10
0.0
 20
0.0
 11
0.0
 21
0.0
 12
0.0
 22
0.0
 32
0.0
 14
0.0
 24
0.0
 34
0.0
 15
0.0
 25
0.0
 35
0.0
146
0.0
 13
0.0
 23
0.0
 33
0.0
 16
1.0
 26
0.0
 36
0.0
 17
0.0
 27
1.0
 37
0.0
 76
     0
330
23
  0
LAYOUT
  5
22
102
{ACAD_REACTORS
330
1A
102
}
330
1A
100
AcDbPlotSettings
  1

  2
none_device
  4

  6

 40
0.0
 41
0.0
 42
0.0
 43
0.0
 44
0.0
 45
0.0
 46
0.0
 47
0.0
 48
0.0
 49
0.0
140
0.0
141
0.0
142
1.0
143
1.0
 70
  1712
 72
     0
 73
     0
 74
     0
  7

 75
     0
 76
     0
 77
     2
 78
   300
147
1.0
148
0.0
149
0.0
100
AcDbLayout
  1
Model
 70
     1
 71
     0
 10
0.0
 20
0.0
 11
12.0
 21
9.0
 12
0.0
 22
0.0
 32
0.0
 14
1.000000000000000E+20
 24
1.000000000000000E+20
 34
1.000000000000000E+20
 15
-1.000000000000000E+20
 25
-1.000000000000000E+20
 35
-1.000000000000000E+20
146
0.0
 13
0.0
 23
0.0
 33
0.0
 16
1.0
 26
0.0
 36
0.0
 17
0.0
 27
1.0
 37
0.0
 76
     0
330
1F
331
29
  0
MATERIAL
  5
3D
102
{ACAD_REACTORS
330
3B
102
}
330
3B
100
AcDbMaterial
  1
ByBlock
 72
     1
 94
      127
  0
MATERIAL
  5
3C
102
{ACAD_REACTORS
330
3B
102
}
330
3B
100
AcDbMaterial
  1
ByLayer
 72
     1
 94
      127
  0
MATERIAL
  5
3E
102
{ACAD_REACTORS
330
3B
102
}
330
3B
100
AcDbMaterial
  1
Global
 72
     1
 94
      127
  0
MLINESTYLE
  5
18
102
{ACAD_REACTORS
330
17
102
}
330
17
100
AcDbMlineStyle
  2
Standard
 70
     0
  3

 62
   256
 51
90.0
 52
90.0
 71
     2
 49
0.5
 62
   256
  6
BYLAYER
 49
-0.5
 62
   256
  6
BYLAYER
  0
ACDBPLACEHOLDER
  5
F
102
{ACAD_REACTORS
330
E
102
}
330
E
  0
VISUALSTYLE
  5
2F
102
{ACAD_REACTORS
330
2A
102
}
330
2A
100
AcDbVisualStyle
  2
2dWireframe
 70
     4
177
     2
291
     0
 71
     0
176
     1
 72
     2
176
     1
 73
     0
176
     1
 90
        0
176
     1
 40
-0.6
176
     1
 41
-30.0
176
     1
 62
     5
 63
     7
421
 16777215
176
     1
 74
     1
176
     1
 91
        4
176
     1
 64
     7
176
     1
 65
   257
176
     1
 75
     1
176
     1
175
     1
176
     1
 42
1.0
176
     1
 92
        0
176
     1
 66
   257
176
     1
 43
1.0
176
     1
 76
     1
176
     1
 77
     6
176
     1
 78
     2
176
     1
 67
     7
176
     1
 79
     5
176
     1
170
     0
176
     1
171
     0
176
     1
290
     0
176
     1
 93
        1
176
     1
 44
0.0
176
     1
173
     0
176
     1
  0
VISUALSTYLE
  5
31
102
{ACAD_REACTORS
330
2A
102
}
330
2A
100
AcDbVisualStyle
  2
3D Hidden
 70
     6
177
     2
291
     0
 71
     1
176
     1
 72
     2
176
     1
 73
     2
176
     1
 90
        0
176
     1
 40
-0.6
176
     1
 41
-30.0
176
     1
 62
     5
 63
     7
421
 16777215
176
     1
 74
     2
176
     1
 91
        2
176
     1
 64
     7
176
     1
 65
   257
176
     1
 75
     2
176
     1
175
     1
176
     1
 42
40.0
176
     1
 92
        0
176
     1
 66
   257
176
     1
 43
1.0
176
     1
 76
     1
176
     1
 77
     6
176
     1
 78
     2
176
     1
 67
     7
176
     1
 79
     3
176
     1
170
     0
176
     1
171
     0
176
     1
290
     0
176
     1
 93
        1
176
     1
 44
0.0
176
     1
173
     0
176
     1
  0
VISUALSTYLE
  5
30
102
{ACAD_REACTORS
330
2A
102
}
330
2A
100
AcDbVisualStyle
  2
3dWireframe
 70
     5
177
     2
291
     0
 71
     0
176
     1
 72
     2
176
     1
 73
     0
176
     1
 90
        0
176
     1
 40
-0.6
176
     1
 41
-30.0
176
     1
 62
     5
 63
     7
421
 16777215
176
     1
 74
     1
176
     1
 91
        4
176
     1
 64
     7
176
     1
 65
   257
176
     1
 75
     1
176
     1
175
     1
176
     1
 42
1.0
176
     1
 92
        0
176
     1
 66
   257
176
     1
 43
1.0
176
     1
 76
     1
176
     1
 77
     6
176
     1
 78
     2
176
     1
 67
     7
176
     1
 79
     5
176
     1
170
     0
176
     1
171
     0
176
     1
290
     0
176
     1
 93
        1
176
     1
 44
0.0
176
     1
173
     0
176
     1
  0
VISUALSTYLE
  5
32
102
{ACAD_REACTORS
330
2A
102
}
330
2A
100
AcDbVisualStyle
  2
Basic
 70
     7
177
     2
291
     1
 71
     1
176
     1
 72
     0
176
     1
 73
     1
176
     1
 90
        0
176
     1
 40
-0.6
176
     1
 41
-30.0
176
     1
 62
     5
 63
     7
421
 16777215
176
     1
 74
     0
176
     1
 91
        4
176
     1
 64
     7
176
     1
 65
   257
176
     1
 75
     1
176
     1
175
     1
176
     1
 42
1.0
176
     1
 92
        8
176
     1
 66
     7
176
     1
 43
1.0
176
     1
 76
     1
176
     1
 77
     6
176
     1
 78
     2
176
     1
 67
     7
176
     1
 79
     5
176
     1
170
     0
176
     1
171
     0
176
     1
290
     0
176
     1
 93
        1
176
     1
 44
0.0
176
     1
173
     0
176
     1
  0
VISUALSTYLE
  5
36
102
{ACAD_REACTORS
330
2A
102
}
330
2A
100
AcDbVisualStyle
  2
Brighten
 70
    12
177
     2
291
     1
 71
     2
176
     1
 72
     2
176
     1
 73
     0
176
     1
 90
        0
176
     1
 40
-0.6
176
     1
 41
-30.0
176
     1
 62
     5
 63
     7
421
 16777215
176
     1
 74
     1
176
     1
 91
        4
176
     1
 64
     7
176
     1
 65
   257
176
     1
 75
     1
176
     1
175
     1
176
     1
 42
1.0
176
     1
 92
        8
176
     1
 66
     7
176
     1
 43
1.0
176
     1
 76
     1
176
     1
 77
     6
176
     1
 78
     2
176
     1
 67
     7
176
     1
 79
     5
176
     1
170
     0
176
     1
171
     0
176
     1
290
     0
176
     1
 93
        1
176
     1
 44
50.0
176
     1
173
     0
176
     1
  0
VISUALSTYLE
  5
3A
102
{ACAD_REACTORS
330
2A
102
}
330
2A
100
AcDbVisualStyle
  2
ColorChange
 70
    16
177
     2
291
     1
 71
     2
176
     1
 72
     2
176
     1
 73
     3
176
     1
 90
        0
176
     1
 40
-0.6
176
     1
 41
-30.0
176
     1
 62
     5
 63
     8
421
  8421504
176
     1
 74
     1
176
     1
 91
        4
176
     1
 64
     7
176
     1
 65
   257
176
     1
 75
     1
176
     1
175
     1
176
     1
 42
1.0
176
     1
 92
        8
176
     1
 66
     8
424
  8421504
176
     1
 43
1.0
176
     1
 76
     1
176
     1
 77
     6
176
     1
 78
     2
176
     1
 67
     7
176
     1
 79
     5
176
     1
170
     0
176
     1
171
     0
176
     1
290
     0
176
     1
 93
        1
176
     1
 44
0.0
176
     1
173
     0
176
     1
  0
VISUALSTYLE
  5
34
102
{ACAD_REACTORS
330
2A
102
}
330
2A
100
AcDbVisualStyle
  2
Conceptual
 70
     9
177
     2
291
     0
 71
     3
176
     1
 72
     2
176
     1
 73
     0
176
     1
 90
        0
176
     1
 40
-0.6
176
     1
 41
-30.0
176
     1
 62
     5
 63
     7
421
 16777215
176
     1
 74
     2
176
     1
 91
        2
176
     1
 64
     7
176
     1
 65
   257
176
     1
 75
     1
176
     1
175
     1
176
     1
 42
40.0
176
     1
 92
        8
176
     1
 66
     7
176
     1
 43
1.0
176
     1
 76
     1
176
     1
 77
     6
176
     1
 78
     2
176
     1
 67
     7
176
     1
 79
     3
176
     1
170
     0
176
     1
171
     0
176
     1
290
     0
176
     1
 93
        1
176
     1
 44
0.0
176
     1
173
     0
176
     1
  0
VISUALSTYLE
  5
35
102
{ACAD_REACTORS
330
2A
102
}
330
2A
100
AcDbVisualStyle
  2
Dim
 70
    11
177
     2
291
     1
 71
     2
176
     1
 72
     2
176
     1
 73
     0
176
     1
 90
        0
176
     1
 40
-0.6
176
     1
 41
-30.0
176
     1
 62
     5
 63
     7
421
 16777215
176
     1
 74
     1
176
     1
 91
        4
176
     1
 64
     7
176
     1
 65
   257
176
     1
 75
     1
176
     1
175
     1
176
     1
 42
1.0
176
     1
 92
        8
176
     1
 66
     7
176
     1
 43
1.0
176
     1
 76
     1
176
     1
 77
     6
176
     1
 78
     2
176
     1
 67
     7
176
     1
 79
     5
176
     1
170
     0
176
     1
171
     0
176
     1
290
     0
176
     1
 93
        1
176
     1
 44
-50.0
176
     1
173
     0
176
     1
  0
VISUALSTYLE
  5
39
102
{ACAD_REACTORS
330
2A
102
}
330
2A
100
AcDbVisualStyle
  2
Facepattern
 70
    15
177
     2
291
     1
 71
     2
176
     1
 72
     2
176
     1
 73
     0
176
     1
 90
        0
176
     1
 40
-0.6
176
     1
 41
-30.0
176
     1
 62
     5
 63
     7
421
 16777215
176
     1
 74
     1
176
     1
 91
        4
176
     1
 64
     7
176
     1
 65
   257
176
     1
 75
     1
176
     1
175
     1
176
     1
 42
1.0
176
     1
 92
        8
176
     1
 66
     7
176
     1
 43
1.0
176
     1
 76
     1
176
     1
 77
     6
176
     1
 78
     2
176
     1
 67
     7
176
     1
 79
     5
176
     1
170
     0
176
     1
171
     0
176
     1
290
     0
176
     1
 93
        1
176
     1
 44
0.0
176
     1
173
     0
176
     1
  0
VISUALSTYLE
  5
2B
102
{ACAD_REACTORS
330
2A
102
}
330
2A
100
AcDbVisualStyle
  2
Flat
 70
     0
177
     2
291
     1
 71
     2
176
     1
 72
     1
176
     1
 73
     1
176
     1
 90
        2
176
     1
 40
-0.6
176
     1
 41
30.0
176
     1
 62
     5
 63
     7
421
 16777215
176
     1
 74
     0
176
     1
 91
        4
176
     1
 64
     7
176
     1
 65
   257
176
     1
 75
     1
176
     1
175
     1
176
     1
 42
1.0
176
     1
 92
        8
176
     1
 66
     7
176
     1
 43
1.0
176
     1
 76
     1
176
     1
 77
     6
176
     1
 78
     2
176
     1
 67
     7
176
     1
 79
     5
176
     1
170
     0
176
     1
171
     0
176
     1
290
     0
176
     1
 93
       13
176
     1
 44
0.0
176
     1
173
     0
176
     1
  0
VISUALSTYLE
  5
2C
102
{ACAD_REACTORS
330
2A
102
}
330
2A
100
AcDbVisualStyle
  2
FlatWithEdges
 70
     1
177
     2
291
     1
 71
     2
176
     1
 72
     1
176
     1
 73
     1
176
     1
 90
        2
176
     1
 40
-0.6
176
     1
 41
30.0
176
     1
 62
     5
 63
     7
421
 16777215
176
     1
 74
     1
176
     1
 91
        4
176
     1
 64
     7
176
     1
 65
   257
176
     1
 75
     1
176
     1
175
     1
176
     1
 42
1.0
176
     1
 92
        0
176
     1
 66
   257
176
     1
 43
1.0
176
     1
 76
     1
176
     1
 77
     6
176
     1
 78
     2
176
     1
 67
     7
176
     1
 79
     5
176
     1
170
     0
176
     1
171
     0
176
     1
290
     0
176
     1
 93
       13
176
     1
 44
0.0
176
     1
173
     0
176
     1
  0
VISUALSTYLE
  5
2D
102
{ACAD_REACTORS
330
2A
102
}
330
2A
100
AcDbVisualStyle
  2
Gouraud
 70
     2
177
     2
291
     1
 71
     2
176
     1
 72
     2
176
     1
 73
     1
176
     1
 90
        2
176
     1
 40
-0.6
176
     1
 41
30.0
176
     1
 62
     5
 63
     7
421
 16777215
176
     1
 74
     0
176
     1
 91
        4
176
     1
 64
     7
176
     1
 65
   257
176
     1
 75
     1
176
     1
175
     1
176
     1
 42
1.0
176
     1
 92
        0
176
     1
 66
     7
176
     1
 43
1.0
176
     1
 76
     1
176
     1
 77
     6
176
     1
 78
     2
176
     1
 67
     7
176
     1
 79
     5
176
     1
170
     0
176
     1
171
     0
176
     1
290
     0
176
     1
 93
       13
176
     1
 44
0.0
176
     1
173
     0
176
     1
  0
VISUALSTYLE
  5
2E
102
{ACAD_REACTORS
330
2A
102
}
330
2A
100
AcDbVisualStyle
  2
GouraudWithEdges
 70
     3
177
     2
291
     1
 71
     2
176
     1
 72
     2
176
     1
 73
     1
176
     1
 90
        2
176
     1
 40
-0.6
176
     1
 41
30.0
176
     1
 62
     5
 63
     7
421
 16777215
176
     1
 74
     1
176
     1
 91
        4
176
     1
 64
     7
176
     1
 65
   257
176
     1
 75
     1
176
     1
175
     1
176
     1
 42
1.0
176
     1
 92
        0
176
     1
 66
   257
176
     1
 43
1.0
176
     1
 76
     1
176
     1
 77
     6
176
     1
 78
     2
176
     1
 67
     7
176
     1
 79
     5
176
     1
170
     0
176
     1
171
     0
176
     1
290
     0
176
     1
 93
       13
176
     1
 44
0.0
176
     1
173
     0
176
     1
  0
VISUALSTYLE
  5
38
102
{ACAD_REACTORS
330
2A
102
}
330
2A
100
AcDbVisualStyle
  2
Linepattern
 70
    14
177
     2
291
     1
 71
     2
176
     1
 72
     2
176
     1
 73
     0
176
     1
 90
        0
176
     1
 40
-0.6
176
     1
 41
-30.0
176
     1
 62
     5
 63
     7
421
 16777215
176
     1
 74
     1
176
     1
 91
        4
176
     1
 64
     7
176
     1
 65
   257
176
     1
 75
     7
176
     1
175
     7
176
     1
 42
1.0
176
     1
 92
        8
176
     1
 66
     7
176
     1
 43
1.0
176
     1
 76
     1
176
     1
 77
     6
176
     1
 78
     2
176
     1
 67
     7
176
     1
 79
     5
176
     1
170
     0
176
     1
171
     0
176
     1
290
     0
176
     1
 93
        1
176
     1
 44
0.0
176
     1
173
     0
176
     1
  0
VISUALSTYLE
  5
33
102
{ACAD_REACTORS
330
2A
102
}
330
2A
100
AcDbVisualStyle
  2
Realistic
 70
     8
177
     2
291
     0
 71
     2
176
     1
 72
     2
176
     1
 73
     0
176
     1
 90
        0
176
     1
 40
-0.6
176
     1
 41
-30.0
176
     1
 62
     5
 63
     7
421
 16777215
176
     1
 74
     1
176
     1
 91
        0
176
     1
 64
     7
176
     1
 65
   257
176
     1
 75
     1
176
     1
175
     1
176
     1
 42
1.0
176
     1
 92
        8
176
     1
 66
     8
424
  7895160
176
     1
 43
1.0
176
     1
 76
     1
176
     1
 77
     6
176
     1
 78
     2
176
     1
 67
     7
176
     1
 79
     5
176
     1
170
     0
176
     1
171
     0
176
     1
290
     0
176
     1
 93
       13
176
     1
 44
0.0
176
     1
173
     0
176
     1
  0
VISUALSTYLE
  5
37
102
{ACAD_REACTORS
330
2A
102
}
330
2A
100
AcDbVisualStyle
  2
Thicken
 70
    13
177
     2
291
     1
 71
     2
176
     1
 72
     2
176
     1
 73
     0
176
     1
 90
        0
176
     1
 40
-0.6
176
     1
 41
-30.0
176
     1
 62
     5
 63
     7
421
 16777215
176
     1
 74
     1
176
     1
 91
        4
176
     1
 64
     7
176
     1
 65
   257
176
     1
 75
     1
176
     1
175
     1
176
     1
 42
1.0
176
     1
 92
       12
176
     1
 66
     7
176
     1
 43
1.0
176
     1
 76
     1
176
     1
 77
     6
176
     1
 78
     2
176
     1
 67
     7
176
     1
 79
     5
176
     1
170
     0
176
     1
171
     0
176
     1
290
     0
176
     1
 93
        1
176
     1
 44
0.0
176
     1
173
     0
176
     1
  0
ENDSEC
  0
EOF
