  0
SECTION
  2
HEADER
  9
$ACADVER
  1
AC1024
  9
$ACADMAINTVER
 70
     6
  9
$DWGCODEPAGE
  3
UNDEFINED
  9
$INSBASE
 10
0.0
 20
0.0
 30
0.0
  9
$EXTMIN
 10
1.000000000000000E+20
 20
1.000000000000000E+20
 30
1.000000000000000E+20
  9
$EXTMAX
 10
-1.000000000000000E+20
 20
-1.000000000000000E+20
 30
-1.000000000000000E+20
  9
$LIMMIN
 10
0.0
 20
0.0
  9
$LIMMAX
 10
12.0
 20
9.0
  9
$ORTHOMODE
 70
     0
  9
$REGENMODE
 70
     1
  9
$FILLMODE
 70
     1
  9
$QTEXTMODE
 70
     0
  9
$MIRRTEXT
 70
     1
  9
$LTSCALE
 40
1.0
  9
$ATTMODE
 70
     1
  9
$TEXTSIZE
 40
0.2
  9
$TRACEWID
 40
0.05
  9
$TEXTSTYLE
  7
Standard
  9
$CLAYER
  8
0
  9
$CELTYPE
  6
ByLayer
  9
$CECOLOR
 62
   256
  9
$CELTSCALE
 40
1.0
  9
$DISPSILH
 70
     0
  9
$DIMSCALE
 40
1.0
  9
$DIMASZ
 40
0.18
  9
$DIMEXO
 40
0.0625
  9
$DIMDLI
 40
0.38
  9
$DIMRND
 40
0.0
  9
$DIMDLE
 40
0.0
  9
$DIMEXE
 40
0.18
  9
$DIMTP
 40
0.0
  9
$DIMTM
 40
0.0
  9
$DIMTXT
 40
0.18
  9
$DIMCEN
 40
0.09
  9
$DIMTSZ
 40
0.0
  9
$DIMTOL
 70
     0
  9
$DIMLIM
 70
     0
  9
$DIMTIH
 70
     1
  9
$DIMTOH
 70
     1
  9
$DIMSE1
 70
     0
  9
$DIMSE2
 70
     0
  9
$DIMTAD
 70
     0
  9
$DIMZIN
 70
     0
  9
$DIMBLK
  1

  9
$DIMASO
 70
     1
  9
$DIMSHO
 70
     1
  9
$DIMPOST
  1

  9
$DIMAPOST
  1

  9
$DIMALT
 70
     0
  9
$DIMALTD
 70
     2
  9
$DIMALTF
 40
25.4
  9
$DIMLFAC
 40
1.0
  9
$DIMTOFL
 70
     0
  9
$DIMTVP
 40
0.0
  9
$DIMTIX
 70
     0
  9
$DIMSOXD
 70
     0
  9
$DIMSAH
 70
     0
  9
$DIMBLK1
  1

  9
$DIMBLK2
  1

  9
$DIMSTYLE
  2
Standard
  9
$DIMCLRD
 70
     0
  9
$DIMCLRE
 70
     0
  9
$DIMCLRT
 70
     0
  9
$DIMTFAC
 40
1.0
  9
$DIMGAP
 40
0.09
  9
$DIMJUST
 70
     0
  9
$DIMSD1
 70
     0
  9
$DIMSD2
 70
     0
  9
$DIMTOLJ
 70
     1
  9
$DIMTZIN
 70
     0
  9
$DIMALTZ
 70
     0
  9
$DIMALTTZ
 70
     0
  9
$DIMUPT
 70
     0
  9
$DIMDEC
 70
     4
  9
$DIMTDEC
 70
     4
  9
$DIMALTU
 70
     2
  9
$DIMALTTD
 70
     2
  9
$DIMTXSTY
  7
Standard
  9
$DIMAUNIT
 70
     0
  9
$DIMADEC
 70
     0
  9
$DIMALTRND
 40
0.0
  9
$DIMAZIN
 70
     0
  9
$DIMDSEP
 70
    46
  9
$DIMATFIT
 70
     3
  9
$DIMFRAC
 70
     0
  9
$DIMLDRBLK
  1

  9
$DIMLUNIT
 70
     2
  9
$DIMLWD
 70
    -2
  9
$DIMLWE
 70
    -2
  9
$DIMTMOVE
 70
     0
  9
$DIMFXL
 40
1.0
  9
$DIMFXLON
 70
     0
  9
$DIMJOGANG
 40
0.7853981633974483
  9
$DIMTFILL
 70
     0
  9
$DIMTFILLCLR
 70
     0
  9
$DIMARCSYM
 70
     0
  9
$DIMLTYPE
  6

  9
$DIMLTEX1
  6

  9
$DIMLTEX2
  6

  9
$DIMTXTDIRECTION
 70
     0
  9
$LUNITS
 70
     2
  9
$LUPREC
 70
     4
  9
$SKETCHINC
 40
0.1
  9
$FILLETRAD
 40
0.5
  9
$AUNITS
 70
     0
  9
$AUPREC
 70
     0
  9
$MENU
  1
.
  9
$ELEVATION
 40
0.0
  9
$PELEVATION
 40
0.0
  9
$THICKNESS
 40
0.0
  9
$LIMCHECK
 70
     0
  9
$CHAMFERA
 40
0.5
  9
$CHAMFERB
 40
0.5
  9
$CHAMFERC
 40
1.0
  9
$CHAMFERD
 40
0.0
  9
$SKPOLY
 70
     0
  9
$TDCREATE
 40
2457917.599537026
  9
$TDUCREATE
 40
2457917.224537037
  9
$TDUPDATE
 40
2457917.599537026
  9
$TDUUPDATE
 40
2457917.224537037
  9
$TDINDWG
 40
0.0000000116
  9
$TDUSRTIMER
 40
0.0000000116
  9
$USRTIMER
 70
     1
  9
$ANGBASE
 50
0.0
  9
$ANGDIR
 70
     0
  9
$PDMODE
 70
     0
  9
$PDSIZE
 40
0.0
  9
$PLINEWID
 40
0.0
  9
$SPLFRAME
 70
     0
  9
$SPLINETYPE
 70
     6
  9
$SPLINESEGS
 70
     8
  9
$HANDSEED
  5
182
  9
$SURFTAB1
 70
     6
  9
$SURFTAB2
 70
     6
  9
$SURFTYPE
 70
     6
  9
$SURFU
 70
     6
  9
$SURFV
 70
     6
  9
$UCSBASE
  2

  9
$UCSNAME
  2

  9
$UCSORG
 10
0.0
 20
0.0
 30
0.0
  9
$UCSXDIR
 10
1.0
 20
0.0
 30
0.0
  9
$UCSYDIR
 10
0.0
 20
1.0
 30
0.0
  9
$UCSORTHOREF
  2

  9
$UCSORTHOVIEW
 70
     0
  9
$UCSORGTOP
 10
0.0
 20
0.0
 30
0.0
  9
$UCSORGBOTTOM
 10
0.0
 20
0.0
 30
0.0
  9
$UCSORGLEFT
 10
0.0
 20
0.0
 30
0.0
  9
$UCSORGRIGHT
 10
0.0
 20
0.0
 30
0.0
  9
$UCSORGFRONT
 10
0.0
 20
0.0
 30
0.0
  9
$UCSORGBACK
 10
0.0
 20
0.0
 30
0.0
  9
$PUCSBASE
  2

  9
$PUCSNAME
  2

  9
$PUCSORG
 10
0.0
 20
0.0
 30
0.0
  9
$PUCSXDIR
 10
1.0
 20
0.0
 30
0.0
  9
$PUCSYDIR
 10
0.0
 20
1.0
 30
0.0
  9
$PUCSORTHOREF
  2

  9
$PUCSORTHOVIEW
 70
     0
  9
$PUCSORGTOP
 10
0.0
 20
0.0
 30
0.0
  9
$PUCSORGBOTTOM
 10
0.0
 20
0.0
 30
0.0
  9
$PUCSORGLEFT
 10
0.0
 20
0.0
 30
0.0
  9
$PUCSORGRIGHT
 10
0.0
 20
0.0
 30
0.0
  9
$PUCSORGFRONT
 10
0.0
 20
0.0
 30
0.0
  9
$PUCSORGBACK
 10
0.0
 20
0.0
 30
0.0
  9
$USERI1
 70
     0
  9
$USERI2
 70
     0
  9
$USERI3
 70
     0
  9
$USERI4
 70
     0
  9
$USERI5
 70
     0
  9
$USERR1
 40
0.0
  9
$USERR2
 40
0.0
  9
$USERR3
 40
0.0
  9
$USERR4
 40
0.0
  9
$USERR5
 40
0.0
  9
$WORLDVIEW
 70
     1
  9
$SHADEDGE
 70
     3
  9
$SHADEDIF
 70
    70
  9
$TILEMODE
 70
     1
  9
$MAXACTVP
 70
    64
  9
$PINSBASE
 10
0.0
 20
0.0
 30
0.0
  9
$PLIMCHECK
 70
     0
  9
$PEXTMIN
 10
1.000000000000000E+20
 20
1.000000000000000E+20
 30
1.000000000000000E+20
  9
$PEXTMAX
 10
-1.000000000000000E+20
 20
-1.000000000000000E+20
 30
-1.000000000000000E+20
  9
$PLIMMIN
 10
0.0
 20
0.0
  9
$PLIMMAX
 10
12.0
 20
9.0
  9
$UNITMODE
 70
     0
  9
$VISRETAIN
 70
     1
  9
$PLINEGEN
 70
     0
  9
$PSLTSCALE
 70
     1
  9
$TREEDEPTH
 70
  3020
  9
$CMLSTYLE
  2
Standard
  9
$CMLJUST
 70
     0
  9
$CMLSCALE
 40
1.0
  9
$PROXYGRAPHICS
 70
     1
  9
$MEASUREMENT
 70
     0
  9
$CELWEIGHT
370
    -1
  9
$ENDCAPS
280
     0
  9
$JOINSTYLE
280
     0
  9
$LWDISPLAY
290
     1
  9
$INSUNITS
 70
     1
  9
$HYPERLINKBASE
  1

  9
$STYLESHEET
  1

  9
$XEDIT
290
     1
  9
$CEPSNTYPE
380
     0
  9
$PSTYLEMODE
290
     1
  9
$FINGERPRINTGUID
  2
{8478DF9F-7737-1D44-AB2C-58FA4DDA3088}
  9
$VERSIONGUID
  2
{FAEB1C32-E019-11D5-929B-00C0DF256EC4}
  9
$EXTNAMES
290
     1
  9
$PSVPSCALE
 40
0.0
  9
$OLESTARTUP
290
     0
  9
$SORTENTS
280
   127
  9
$INDEXCTL
280
     0
  9
$HIDETEXT
280
     1
  9
$XCLIPFRAME
280
     2
  9
$HALOGAP
280
     0
  9
$OBSCOLOR
 70
   257
  9
$OBSLTYPE
280
     0
  9
$INTERSECTIONDISPLAY
280
     0
  9
$INTERSECTIONCOLOR
 70
   257
  9
$DIMASSOC
280
     2
  9
$PROJECTNAME
  1

  9
$CAMERADISPLAY
290
     0
  9
$LENSLENGTH
 40
50.0
  9
$CAMERAHEIGHT
 40
0.0
  9
$STEPSPERSEC
 40
2.0
  9
$STEPSIZE
 40
6.0
  9
$3DDWFPREC
 40
2.0
  9
$PSOLWIDTH
 40
0.25
  9
$PSOLHEIGHT
 40
4.0
  9
$LOFTANG1
 40
1.570796326794897
  9
$LOFTANG2
 40
1.570796326794897
  9
$LOFTMAG1
 40
0.0
  9
$LOFTMAG2
 40
0.0
  9
$LOFTPARAM
 70
     7
  9
$LOFTNORMALS
280
     1
  9
$LATITUDE
 40
37.795
  9
$LONGITUDE
 40
-122.394
  9
$NORTHDIRECTION
 40
0.0
  9
$TIMEZONE
 70
 -8000
  9
$LIGHTGLYPHDISPLAY
280
     1
  9
$TILEMODELIGHTSYNCH
280
     1
  9
$CMATERIAL
347
3C
  9
$SOLIDHIST
280
     1
  9
$SHOWHIST
280
     1
  9
$DWFFRAME
280
     2
  9
$DGNFRAME
280
     2
  9
$REALWORLDSCALE
290
     1
  9
$INTERFERECOLOR
 62
   256
  9
$CSHADOW
280
     0
  9
$SHADOWPLANELOCATION
 40
0.0
  0
ENDSEC
  0
SECTION
  2
CLASSES
  0
CLASS
  1
ACDBDICTIONARYWDFLT
  2
AcDbDictionaryWithDefault
  3
ObjectDBX Classes
 90
        0
 91
        4
280
     0
281
     0
  0
CLASS
  1
VISUALSTYLE
  2
AcDbVisualStyle
  3
ObjectDBX Classes
 90
     4095
 91
        4
280
     0
281
     0
  0
CLASS
  1
MATERIAL
  2
AcDbMaterial
  3
ObjectDBX Classes
 90
     1153
 91
        4
280
     0
281
     0
  0
CLASS
  1
SUN
  2
AcDbSun
  3
SCENEOE
 90
     1024
 91
        4
280
     0
281
     0
  0
ENDSEC
  0
SECTION
  2
TABLES
  0
TABLE
  2
VPORT
  5
8
330
0
100
AcDbSymbolTable
 70
     1
  0
VPORT
  5
29
330
8
100
AcDbSymbolTableRecord
100
AcDbViewportTableRecord
  2
*Active
 70
     0
 10
0.0
 20
0.0
 11
1.0
 21
1.0
 12
0.0
 22
0.0
 13
0.0
 23
0.0
 14
0.5
 24
0.5
 15
0.5
 25
0.5
 16
0.0
 26
0.0
 36
1.0
 17
91.00082462281999
 27
-128.4993055234307
 37
0.0
 40
256.9986110468615
 41
0.7081814508812795
 42
50.0
 43
0.0
 44
0.0
 50
0.0
 51
0.0
 71
     0
 72
   100
 73
     1
 74
     3
 75
     0
 76
     0
 77
     0
 78
     0
281
     0
 65
     1
110
0.0
120
0.0
130
0.0
111
1.0
121
0.0
131
0.0
112
0.0
122
1.0
132
0.0
 79
     0
146
0.0
 60
     3
 61
     5
292
     1
282
     1
141
0.0
142
0.0
 63
   250
361
3F
  0
ENDTAB
  0
TABLE
  2
LTYPE
  5
5
330
0
100
AcDbSymbolTable
 70
     2
  0
LTYPE
  5
14
330
5
100
AcDbSymbolTableRecord
100
AcDbLinetypeTableRecord
  2
ByBlock
 70
     0
  3

 72
    65
 73
     0
 40
0.0
  0
LTYPE
  5
15
330
5
100
AcDbSymbolTableRecord
100
AcDbLinetypeTableRecord
  2
ByLayer
 70
     0
  3

 72
    65
 73
     0
 40
0.0
  0
LTYPE
  5
16
330
5
100
AcDbSymbolTableRecord
100
AcDbLinetypeTableRecord
  2
Continuous
 70
     0
  3
Solid line
 72
    65
 73
     0
 40
0.0
  0
LTYPE
  5
B8
330
5
100
AcDbSymbolTableRecord
100
AcDbLinetypeTableRecord
  2
AI-Linetype-1
 70
     0
  3
Adobe Illustrator Linetype No. 1
 72
    65
 73
     2
 40
1.411111110758333
 49
0.7055555553791667
 74
     0
 49
-0.7055555553791667
 74
     0
  0
ENDTAB
  0
TABLE
  2
LAYER
  5
2
330
0
100
AcDbSymbolTable
 70
     2
  0
LAYER
  5
10
330
2
100
AcDbSymbolTableRecord
100
AcDbLayerTableRecord
  2
0
 70
     0
 62
     7
  6
Continuous
370
    -3
390
F
347
3E
  0
LAYER
  5
40
330
2
100
AcDbSymbolTableRecord
100
AcDbLayerTableRecord
  2
_U+30EC_U+30A4_U+30E4_U+30FC 1
 70
     0
 62
     7
  6
Continuous
370
    -3
390
F
347
3E
  0
ENDTAB
  0
TABLE
  2
STYLE
  5
3
330
0
100
AcDbSymbolTable
 70
     1
  0
STYLE
  5
11
330
3
100
AcDbSymbolTableRecord
100
AcDbTextStyleTableRecord
  2
Standard
 70
     0
 40
0.0
 41
1.0
 50
0.0
 71
     0
 42
0.2
  3
txt
  4

  0
ENDTAB
  0
TABLE
  2
VIEW
  5
6
330
0
100
AcDbSymbolTable
 70
     0
  0
ENDTAB
  0
TABLE
  2
UCS
  5
7
330
0
100
AcDbSymbolTable
 70
     0
  0
ENDTAB
  0
TABLE
  2
APPID
  5
9
330
0
100
AcDbSymbolTable
 70
     1
  0
APPID
  5
12
330
9
100
AcDbSymbolTableRecord
100
AcDbRegAppTableRecord
  2
ACAD
 70
     0
  0
ENDTAB
  0
TABLE
  2
DIMSTYLE
  5
A
330
0
100
AcDbSymbolTable
 70
     1
100
AcDbDimStyleTable
  0
DIMSTYLE
105
27
330
A
100
AcDbSymbolTableRecord
100
AcDbDimStyleTableRecord
  2
Standard
 70
     0
178
     0
340
11
  0
ENDTAB
  0
TABLE
  2
BLOCK_RECORD
  5
1
330
0
100
AcDbSymbolTable
 70
     7
  0
BLOCK_RECORD
  5
1F
330
1
100
AcDbSymbolTableRecord
100
AcDbBlockTableRecord
  2
*Model_Space
340
22
 70
     0
280
     1
281
     0
  0
BLOCK_RECORD
  5
1B
330
1
100
AcDbSymbolTableRecord
100
AcDbBlockTableRecord
  2
*Paper_Space
340
1E
 70
     0
280
     1
281
     0
  0
BLOCK_RECORD
  5
23
330
1
100
AcDbSymbolTableRecord
100
AcDbBlockTableRecord
  2
*Paper_Space0
340
26
 70
     0
280
     1
281
     0
  0
BLOCK_RECORD
  5
D0
330
1
100
AcDbSymbolTableRecord
100
AcDbBlockTableRecord
  2
block 2
340
0
102
{BLKREFS
331
D1
102
}
 70
     0
280
     1
281
     0
  0
BLOCK_RECORD
  5
115
330
1
100
AcDbSymbolTableRecord
100
AcDbBlockTableRecord
  2
block 3
340
0
102
{BLKREFS
331
116
102
}
 70
     0
280
     1
281
     0
  0
BLOCK_RECORD
  5
131
330
1
100
AcDbSymbolTableRecord
100
AcDbBlockTableRecord
  2
block 4
340
0
102
{BLKREFS
331
132
102
}
 70
     0
280
     1
281
     0
  0
BLOCK_RECORD
  5
146
330
1
100
AcDbSymbolTableRecord
100
AcDbBlockTableRecord
  2
block 5
340
0
102
{BLKREFS
331
147
102
}
 70
     0
280
     1
281
     0
  0
BLOCK_RECORD
  5
162
330
1
100
AcDbSymbolTableRecord
100
AcDbBlockTableRecord
  2
block 6
340
0
102
{BLKREFS
331
163
102
}
 70
     0
280
     1
281
     0
  0
BLOCK_RECORD
  5
177
330
1
100
AcDbSymbolTableRecord
100
AcDbBlockTableRecord
  2
block 7
340
0
102
{BLKREFS
331
178
102
}
 70
     0
280
     1
281
     0
  0
ENDTAB
  0
ENDSEC
  0
SECTION
  2
BLOCKS
  0
BLOCK
  5
20
330
1F
100
AcDbEntity
  8
0
100
AcDbBlockBegin
  2
*Model_Space
 70
     0
 10
0.0
 20
0.0
 30
0.0
  3
*Model_Space
  1

  0
ENDBLK
  5
21
330
1F
100
AcDbEntity
  8
0
100
AcDbBlockEnd
  0
BLOCK
  5
1C
330
1B
100
AcDbEntity
 67
     1
  8
0
100
AcDbBlockBegin
  2
*Paper_Space
 70
     0
 10
0.0
 20
0.0
 30
0.0
  3
*Paper_Space
  1

  0
ENDBLK
  5
1D
330
1B
100
AcDbEntity
 67
     1
  8
0
100
AcDbBlockEnd
  0
BLOCK
  5
24
330
23
100
AcDbEntity
  8
0
100
AcDbBlockBegin
  2
*Paper_Space0
 70
     0
 10
0.0
 20
0.0
 30
0.0
  3
*Paper_Space0
  1

  0
ENDBLK
  5
25
330
23
100
AcDbEntity
  8
0
100
AcDbBlockEnd
  0
BLOCK
  5
D2
330
D0
100
AcDbEntity
  8
0
100
AcDbBlockBegin
  2
block 2
 70
     0
 10
0.0
 20
0.0
 30
0.0
  3
block 2
  1

  0
SPLINE
  5
D4
330
D0
100
AcDbEntity
  8
_U+30EC_U+30A4_U+30E4_U+30FC 1
370
     0
100
AcDbSpline
210
0.0
220
0.0
230
1.0
 70
    11
 71
     3
 72
    95
 73
    91
 74
     0
 42
0.0000000001
 43
0.0000000001
 12
1.0
 22
0.0
 32
0.0
 13
1.0
 23
0.0
 33
0.0
 40
0.0
 40
0.0
 40
0.0
 40
0.0
 40
1.0
 40
1.0
 40
1.0
 40
2.0
 40
2.0
 40
2.0
 40
3.0
 40
3.0
 40
3.0
 40
4.0
 40
4.0
 40
4.0
 40
5.0
 40
5.0
 40
5.0
 40
6.0
 40
6.0
 40
6.0
 40
7.0
 40
7.0
 40
7.0
 40
8.0
 40
8.0
 40
8.0
 40
9.0
 40
9.0
 40
9.0
 40
10.0
 40
10.0
 40
10.0
 40
11.0
 40
11.0
 40
11.0
 40
12.0
 40
12.0
 40
12.0
 40
13.0
 40
13.0
 40
13.0
 40
14.0
 40
14.0
 40
14.0
 40
15.0
 40
15.0
 40
15.0
 40
16.0
 40
16.0
 40
16.0
 40
17.0
 40
17.0
 40
17.0
 40
18.0
 40
18.0
 40
18.0
 40
19.0
 40
19.0
 40
19.0
 40
20.0
 40
20.0
 40
20.0
 40
21.0
 40
21.0
 40
21.0
 40
22.0
 40
22.0
 40
22.0
 40
23.0
 40
23.0
 40
23.0
 40
24.0
 40
24.0
 40
24.0
 40
25.0
 40
25.0
 40
25.0
 40
26.0
 40
26.0
 40
26.0
 40
27.0
 40
27.0
 40
27.0
 40
28.0
 40
28.0
 40
28.0
 40
29.0
 40
29.0
 40
29.0
 40
30.0
 40
30.0
 40
30.0
 40
30.0
 10
80.9385565661369
 20
-138.0150037632393
 30
0.0
 10
80.9385565661369
 20
-138.0150037632393
 30
0.0
 10
80.9385565661369
 20
-138.4911159593008
 30
0.0
 10
80.9385565661369
 20
-138.4911159593008
 30
0.0
 10
80.9385565661369
 20
-138.548304544356
 30
0.0
 10
80.94475773801034
 20
-138.8018635720704
 30
0.0
 10
80.94475773801034
 20
-138.8528509852521
 30
0.0
 10
80.94475773801034
 20
-139.0261392881602
 30
0.0
 10
80.91512991683719
 20
-139.1319037195573
 30
0.0
 10
80.66777206099626
 20
-139.1319037195573
 30
0.0
 10
80.66777206099626
 20
-139.1319037195573
 30
0.0
 10
80.54926077630365
 20
-139.1319037195573
 30
0.0
 10
80.54926077630365
 20
-139.1319037195573
 30
0.0
 10
80.54926077630365
 20
-139.1319037195573
 30
0.0
 10
80.44349634490649
 20
-138.9014268315941
 30
0.0
 10
80.44349634490649
 20
-138.9014268315941
 30
0.0
 10
80.51549884054822
 20
-138.9162407421807
 30
0.0
 10
80.5747544828945
 20
-138.920374856763
 30
0.0
 10
80.61919621465424
 20
-138.920374856763
 30
0.0
 10
80.70807967817368
 20
-138.920374856763
 30
0.0
 10
80.73116181792486
 20
-138.9100395703072
 30
0.0
 10
80.73116181792486
 20
-138.8339029600832
 30
0.0
 10
80.73116181792486
 20
-138.8339029600832
 30
0.0
 10
80.73116181792486
 20
-138.5100639844697
 30
0.0
 10
80.73116181792486
 20
-138.5100639844697
 30
0.0
 10
80.73116181792486
 20
-138.5100639844697
 30
0.0
 10
80.59576956535453
 20
-138.6540689757531
 30
0.0
 10
80.59576956535453
 20
-138.6540689757531
 30
0.0
 10
80.33979897080047
 20
-138.5186767231828
 30
0.0
 10
80.17477889705701
 20
-138.2330783074556
 30
0.0
 10
80.10070934412413
 20
-138.087006258881
 30
0.0
 10
80.00562470873123
 20
-138.334364114722
 30
0.0
 10
79.83647052040547
 20
-138.5162651563432
 30
0.0
 10
79.616328918898
 20
-138.6516574089135
 30
0.0
 10
79.616328918898
 20
-138.6516574089135
 30
0.0
 10
79.45992158386767
 20
-138.5290120096386
 30
0.0
 10
79.45992158386767
 20
-138.5290120096386
 30
0.0
 10
79.45992158386767
 20
-138.5290120096386
 30
0.0
 10
79.45992158386767
 20
-138.5586398308117
 30
0.0
 10
79.45992158386767
 20
-138.5586398308117
 30
0.0
 10
79.45992158386767
 20
-138.728138528686
 30
0.0
 10
79.46198864115881
 20
-138.8907470355898
 30
0.0
 10
79.46818981303227
 20
-139.1319037195573
 30
0.0
 10
79.46818981303227
 20
-139.1319037195573
 30
0.0
 10
79.24184703965135
 20
-139.1319037195573
 30
0.0
 10
79.24184703965135
 20
-139.1319037195573
 30
0.0
 10
79.2439140969425
 20
-139.0409531987467
 30
0.0
 10
79.26527368895104
 20
-138.6413221224577
 30
0.0
 10
79.26527368895104
 20
-138.5607068881029
 30
0.0
 10
79.26527368895104
 20
-138.5607068881029
 30
0.0
 10
79.26527368895104
 20
-138.0339517884082
 30
0.0
 10
79.26527368895104
 20
-138.0339517884082
 30
0.0
 10
79.26527368895104
 20
-137.9495469490196
 30
0.0
 10
79.26286212211137
 20
-137.6026258336549
 30
0.0
 10
79.25666095023792
 20
-137.5495713631821
 30
0.0
 10
79.34141029917507
 20
-137.556117044604
 30
0.0
 10
79.48507078091
 20
-137.5643852737686
 30
0.0
 10
79.59083521230716
 20
-137.5643852737686
 30
0.0
 10
79.8299248389835
 20
-137.5664523310598
 30
0.0
 10
79.8574856028655
 20
-137.5685193883509
 30
0.0
 10
79.91054007333834
 20
-137.5685193883509
 30
0.0
 10
79.91054007333834
 20
-137.5685193883509
 30
0.0
 10
79.98874374085351
 20
-137.5685193883509
 30
0.0
 10
79.98874374085351
 20
-137.5685193883509
 30
0.0
 10
79.99494491272696
 20
-137.3910969708606
 30
0.0
 10
79.98874374085351
 20
-137.2746527434591
 30
0.0
 10
79.98667668356237
 20
-137.2047173051085
 30
0.0
 10
79.98667668356237
 20
-137.2047173051085
 30
0.0
 10
80.22783336752985
 20
-137.224009839826
 30
0.0
 10
80.22783336752985
 20
-137.224009839826
 30
0.0
 10
80.2381686539856
 20
-137.224009839826
 30
0.0
 10
80.27640921387187
 20
-137.2302110116994
 30
0.0
 10
80.27640921387187
 20
-137.2577717755814
 30
0.0
 10
80.27640921387187
 20
-137.2746527434591
 30
0.0
 10
80.2698635324499
 20
-137.2787868580414
 30
0.0
 10
80.21508651423443
 20
-137.3149603606365
 30
0.0
 10
80.202339660939
 20
-137.3804171748563
 30
0.0
 10
80.1982055463567
 20
-137.4586208423715
 30
0.0
 10
80.20027260364785
 20
-137.5685193883509
 30
0.0
 10
80.20027260364785
 20
-137.5685193883509
 30
0.0
 10
80.29949135362305
 20
-137.5685193883509
 30
0.0
 10
80.29949135362305
 20
-137.5685193883509
 30
0.0
 10
80.35047876680474
 20
-137.5685193883509
 30
0.0
 10
80.37803953068675
 20
-137.5685193883509
 30
0.0
 10
80.62126327194538
 20
-137.5623182164775
 30
0.0
 10
80.88550209566405
 20
-137.5540499873129
 30
0.0
 10
80.91512991683719
 20
-137.5516384204732
 30
0.0
 10
80.9468247953015
 20
-137.5495713631821
 30
0.0
 10
80.9426906807192
 20
-137.6005587763638
 30
0.0
 10
80.9385565661369
 20
-137.9598822354753
 30
0.0
 10
80.9385565661369
 20
-138.0150037632393
 30
0.0
  0
SPLINE
  5
D5
330
D0
100
AcDbEntity
  8
_U+30EC_U+30A4_U+30E4_U+30FC 1
370
     0
100
AcDbSpline
210
0.0
220
0.0
230
1.0
 70
    11
 71
     3
 72
    14
 73
    10
 74
     0
 42
0.0000000001
 43
0.0000000001
 12
1.0
 22
0.0
 32
0.0
 13
1.0
 23
0.0
 33
0.0
 40
0.0
 40
0.0
 40
0.0
 40
0.0
 40
1.0
 40
1.0
 40
1.0
 40
2.0
 40
2.0
 40
2.0
 40
3.0
 40
3.0
 40
3.0
 40
3.0
 10
79.45992158386767
 20
-137.7528319968118
 30
0.0
 10
79.45992158386767
 20
-137.7528319968118
 30
0.0
 10
79.45992158386767
 20
-138.4952500738831
 30
0.0
 10
79.45992158386767
 20
-138.4952500738831
 30
0.0
 10
79.88297930945635
 20
-138.2602945617891
 30
0.0
 10
79.95050318096725
 20
-138.0170708205304
 30
0.0
 10
79.97806394484924
 20
-137.7528319968118
 30
0.0
 10
79.97806394484924
 20
-137.7528319968118
 30
0.0
 10
79.45992158386767
 20
-137.7528319968118
 30
0.0
 10
79.45992158386767
 20
-137.7528319968118
 30
0.0
  0
SPLINE
  5
D6
330
D0
100
AcDbEntity
  8
_U+30EC_U+30A4_U+30E4_U+30FC 1
370
     0
100
AcDbSpline
210
0.0
220
0.0
230
1.0
 70
    11
 71
     3
 72
    14
 73
    10
 74
     0
 42
0.0000000001
 43
0.0000000001
 12
1.0
 22
0.0
 32
0.0
 13
1.0
 23
0.0
 33
0.0
 40
0.0
 40
0.0
 40
0.0
 40
0.0
 40
1.0
 40
1.0
 40
1.0
 40
2.0
 40
2.0
 40
2.0
 40
3.0
 40
3.0
 40
3.0
 40
3.0
 10
80.73116181792486
 20
-137.7528319968118
 30
0.0
 10
80.73116181792486
 20
-137.7528319968118
 30
0.0
 10
80.21301945694327
 20
-137.7528319968118
 30
0.0
 10
80.21301945694327
 20
-137.7528319968118
 30
0.0
 10
80.2615953032853
 20
-138.1545301303919
 30
0.0
 10
80.56200762959908
 20
-138.3956868143594
 30
0.0
 10
80.73116181792486
 20
-138.4783691060054
 30
0.0
 10
80.73116181792486
 20
-138.4783691060054
 30
0.0
 10
80.73116181792486
 20
-137.7528319968118
 30
0.0
 10
80.73116181792486
 20
-137.7528319968118
 30
0.0
  0
HATCH
  5
D7
330
D0
100
AcDbEntity
  8
_U+30EC_U+30A4_U+30E4_U+30FC 1
 62
   179
420
  2234388
100
AcDbHatch
 10
0.0
 20
0.0
 30
0.0
210
0.0
220
0.0
230
1.0
  2
SOLID
 70
     1
 71
     0
 91
        3
 92
        1
 93
        1
 72
     4
 94
        3
 73
     0
 74
     1
 95
       95
 96
       91
 40
0.0
 40
0.0
 40
0.0
 40
0.0
 40
1.0
 40
1.0
 40
1.0
 40
2.0
 40
2.0
 40
2.0
 40
3.0
 40
3.0
 40
3.0
 40
4.0
 40
4.0
 40
4.0
 40
5.0
 40
5.0
 40
5.0
 40
6.0
 40
6.0
 40
6.0
 40
7.0
 40
7.0
 40
7.0
 40
8.0
 40
8.0
 40
8.0
 40
9.0
 40
9.0
 40
9.0
 40
10.0
 40
10.0
 40
10.0
 40
11.0
 40
11.0
 40
11.0
 40
12.0
 40
12.0
 40
12.0
 40
13.0
 40
13.0
 40
13.0
 40
14.0
 40
14.0
 40
14.0
 40
15.0
 40
15.0
 40
15.0
 40
16.0
 40
16.0
 40
16.0
 40
17.0
 40
17.0
 40
17.0
 40
18.0
 40
18.0
 40
18.0
 40
19.0
 40
19.0
 40
19.0
 40
20.0
 40
20.0
 40
20.0
 40
21.0
 40
21.0
 40
21.0
 40
22.0
 40
22.0
 40
22.0
 40
23.0
 40
23.0
 40
23.0
 40
24.0
 40
24.0
 40
24.0
 40
25.0
 40
25.0
 40
25.0
 40
26.0
 40
26.0
 40
26.0
 40
27.0
 40
27.0
 40
27.0
 40
28.0
 40
28.0
 40
28.0
 40
29.0
 40
29.0
 40
29.0
 40
30.0
 40
30.0
 40
30.0
 40
30.0
 10
80.9385565661369
 20
-138.0150037632393
 10
80.9385565661369
 20
-138.0150037632393
 10
80.9385565661369
 20
-138.4911159593008
 10
80.9385565661369
 20
-138.4911159593008
 10
80.9385565661369
 20
-138.548304544356
 10
80.94475773801034
 20
-138.8018635720704
 10
80.94475773801034
 20
-138.8528509852521
 10
80.94475773801034
 20
-139.0261392881602
 10
80.91512991683719
 20
-139.1319037195573
 10
80.66777206099626
 20
-139.1319037195573
 10
80.66777206099626
 20
-139.1319037195573
 10
80.54926077630365
 20
-139.1319037195573
 10
80.54926077630365
 20
-139.1319037195573
 10
80.54926077630365
 20
-139.1319037195573
 10
80.44349634490649
 20
-138.9014268315941
 10
80.44349634490649
 20
-138.9014268315941
 10
80.51549884054822
 20
-138.9162407421807
 10
80.5747544828945
 20
-138.920374856763
 10
80.61919621465424
 20
-138.920374856763
 10
80.70807967817368
 20
-138.920374856763
 10
80.73116181792486
 20
-138.9100395703072
 10
80.73116181792486
 20
-138.8339029600832
 10
80.73116181792486
 20
-138.8339029600832
 10
80.73116181792486
 20
-138.5100639844697
 10
80.73116181792486
 20
-138.5100639844697
 10
80.73116181792486
 20
-138.5100639844697
 10
80.59576956535453
 20
-138.6540689757531
 10
80.59576956535453
 20
-138.6540689757531
 10
80.33979897080047
 20
-138.5186767231828
 10
80.17477889705701
 20
-138.2330783074556
 10
80.10070934412413
 20
-138.087006258881
 10
80.00562470873123
 20
-138.334364114722
 10
79.83647052040547
 20
-138.5162651563432
 10
79.616328918898
 20
-138.6516574089135
 10
79.616328918898
 20
-138.6516574089135
 10
79.45992158386767
 20
-138.5290120096386
 10
79.45992158386767
 20
-138.5290120096386
 10
79.45992158386767
 20
-138.5290120096386
 10
79.45992158386767
 20
-138.5586398308117
 10
79.45992158386767
 20
-138.5586398308117
 10
79.45992158386767
 20
-138.728138528686
 10
79.46198864115881
 20
-138.8907470355898
 10
79.46818981303227
 20
-139.1319037195573
 10
79.46818981303227
 20
-139.1319037195573
 10
79.24184703965135
 20
-139.1319037195573
 10
79.24184703965135
 20
-139.1319037195573
 10
79.2439140969425
 20
-139.0409531987467
 10
79.26527368895104
 20
-138.6413221224577
 10
79.26527368895104
 20
-138.5607068881029
 10
79.26527368895104
 20
-138.5607068881029
 10
79.26527368895104
 20
-138.0339517884082
 10
79.26527368895104
 20
-138.0339517884082
 10
79.26527368895104
 20
-137.9495469490196
 10
79.26286212211137
 20
-137.6026258336549
 10
79.25666095023792
 20
-137.5495713631821
 10
79.34141029917507
 20
-137.556117044604
 10
79.48507078091
 20
-137.5643852737686
 10
79.59083521230716
 20
-137.5643852737686
 10
79.8299248389835
 20
-137.5664523310598
 10
79.8574856028655
 20
-137.5685193883509
 10
79.91054007333834
 20
-137.5685193883509
 10
79.91054007333834
 20
-137.5685193883509
 10
79.98874374085351
 20
-137.5685193883509
 10
79.98874374085351
 20
-137.5685193883509
 10
79.99494491272696
 20
-137.3910969708606
 10
79.98874374085351
 20
-137.2746527434591
 10
79.98667668356237
 20
-137.2047173051085
 10
79.98667668356237
 20
-137.2047173051085
 10
80.22783336752985
 20
-137.224009839826
 10
80.22783336752985
 20
-137.224009839826
 10
80.2381686539856
 20
-137.224009839826
 10
80.27640921387187
 20
-137.2302110116994
 10
80.27640921387187
 20
-137.2577717755814
 10
80.27640921387187
 20
-137.2746527434591
 10
80.2698635324499
 20
-137.2787868580414
 10
80.21508651423443
 20
-137.3149603606365
 10
80.202339660939
 20
-137.3804171748563
 10
80.1982055463567
 20
-137.4586208423715
 10
80.20027260364785
 20
-137.5685193883509
 10
80.20027260364785
 20
-137.5685193883509
 10
80.29949135362305
 20
-137.5685193883509
 10
80.29949135362305
 20
-137.5685193883509
 10
80.35047876680474
 20
-137.5685193883509
 10
80.37803953068675
 20
-137.5685193883509
 10
80.62126327194538
 20
-137.5623182164775
 10
80.88550209566405
 20
-137.5540499873129
 10
80.91512991683719
 20
-137.5516384204732
 10
80.9468247953015
 20
-137.5495713631821
 10
80.9426906807192
 20
-137.6005587763638
 10
80.9385565661369
 20
-137.9598822354753
 10
80.9385565661369
 20
-138.0150037632393
 97
        0
 97
        0
 92
        1
 93
        1
 72
     4
 94
        3
 73
     0
 74
     1
 95
       14
 96
       10
 40
0.0
 40
0.0
 40
0.0
 40
0.0
 40
1.0
 40
1.0
 40
1.0
 40
2.0
 40
2.0
 40
2.0
 40
3.0
 40
3.0
 40
3.0
 40
3.0
 10
79.45992158386767
 20
-137.7528319968118
 10
79.45992158386767
 20
-137.7528319968118
 10
79.45992158386767
 20
-138.4952500738831
 10
79.45992158386767
 20
-138.4952500738831
 10
79.88297930945635
 20
-138.2602945617891
 10
79.95050318096725
 20
-138.0170708205304
 10
79.97806394484924
 20
-137.7528319968118
 10
79.97806394484924
 20
-137.7528319968118
 10
79.45992158386767
 20
-137.7528319968118
 10
79.45992158386767
 20
-137.7528319968118
 97
        0
 97
        0
 92
        1
 93
        1
 72
     4
 94
        3
 73
     0
 74
     1
 95
       14
 96
       10
 40
0.0
 40
0.0
 40
0.0
 40
0.0
 40
1.0
 40
1.0
 40
1.0
 40
2.0
 40
2.0
 40
2.0
 40
3.0
 40
3.0
 40
3.0
 40
3.0
 10
80.73116181792486
 20
-137.7528319968118
 10
80.73116181792486
 20
-137.7528319968118
 10
80.21301945694327
 20
-137.7528319968118
 10
80.21301945694327
 20
-137.7528319968118
 10
80.2615953032853
 20
-138.1545301303919
 10
80.56200762959908
 20
-138.3956868143594
 10
80.73116181792486
 20
-138.4783691060054
 10
80.73116181792486
 20
-138.4783691060054
 10
80.73116181792486
 20
-137.7528319968118
 10
80.73116181792486
 20
-137.7528319968118
 97
        0
 97
        0
 75
     2
 76
     1
 98
        0
  0
SPLINE
  5
D8
330
D0
100
AcDbEntity
  8
_U+30EC_U+30A4_U+30E4_U+30FC 1
370
     0
100
AcDbSpline
210
0.0
220
0.0
230
1.0
 70
    11
 71
     3
 72
    89
 73
    85
 74
     0
 42
0.0000000001
 43
0.0000000001
 12
1.0
 22
0.0
 32
0.0
 13
1.0
 23
0.0
 33
0.0
 40
0.0
 40
0.0
 40
0.0
 40
0.0
 40
1.0
 40
1.0
 40
1.0
 40
2.0
 40
2.0
 40
2.0
 40
3.0
 40
3.0
 40
3.0
 40
4.0
 40
4.0
 40
4.0
 40
5.0
 40
5.0
 40
5.0
 40
6.0
 40
6.0
 40
6.0
 40
7.0
 40
7.0
 40
7.0
 40
8.0
 40
8.0
 40
8.0
 40
9.0
 40
9.0
 40
9.0
 40
10.0
 40
10.0
 40
10.0
 40
11.0
 40
11.0
 40
11.0
 40
12.0
 40
12.0
 40
12.0
 40
13.0
 40
13.0
 40
13.0
 40
14.0
 40
14.0
 40
14.0
 40
15.0
 40
15.0
 40
15.0
 40
16.0
 40
16.0
 40
16.0
 40
17.0
 40
17.0
 40
17.0
 40
18.0
 40
18.0
 40
18.0
 40
19.0
 40
19.0
 40
19.0
 40
20.0
 40
20.0
 40
20.0
 40
21.0
 40
21.0
 40
21.0
 40
22.0
 40
22.0
 40
22.0
 40
23.0
 40
23.0
 40
23.0
 40
24.0
 40
24.0
 40
24.0
 40
25.0
 40
25.0
 40
25.0
 40
26.0
 40
26.0
 40
26.0
 40
27.0
 40
27.0
 40
27.0
 40
28.0
 40
28.0
 40
28.0
 40
28.0
 10
82.46921249023339
 20
-139.079193758633
 30
0.0
 10
82.33175318037193
 20
-138.9989230338267
 30
0.0
 10
82.2321899208482
 20
-138.8611192144167
 30
0.0
 10
82.17293427850191
 20
-138.7491536111461
 30
0.0
 10
82.17293427850191
 20
-138.7491536111461
 30
0.0
 10
82.31487221249421
 20
-138.6582030903355
 30
0.0
 10
82.31487221249421
 20
-138.6582030903355
 30
0.0
 10
82.31487221249421
 20
-138.6582030903355
 30
0.0
 10
82.26181774202135
 20
-138.6582030903355
 30
0.0
 10
82.26181774202135
 20
-138.6582030903355
 30
0.0
 10
82.26181774202135
 20
-138.6582030903355
 30
0.0
 10
82.03340791134929
 20
-138.6582030903355
 30
0.0
 10
82.03340791134929
 20
-138.6582030903355
 30
0.0
 10
82.00791420475844
 20
-138.6582030903355
 30
0.0
 10
81.99964597559384
 20
-138.6582030903355
 30
0.0
 10
81.93177759453442
 20
-138.6602701476266
 30
0.0
 10
81.93177759453442
 20
-138.6602701476266
 30
0.0
 10
82.09266355369559
 20
-138.7450194965637
 30
0.0
 10
82.09266355369559
 20
-138.7450194965637
 30
0.0
 10
82.10541040699101
 20
-138.7512206684372
 30
0.0
 10
82.11367863615561
 20
-138.7577663498592
 30
0.0
 10
82.11367863615561
 20
-138.7722357508972
 30
0.0
 10
82.11367863615561
 20
-138.80427513891
 30
0.0
 10
82.0651027898136
 20
-138.8084092534924
 30
0.0
 10
82.05028887922701
 20
-138.8104763107835
 30
0.0
 10
81.99103323688072
 20
-138.920374856763
 30
0.0
 10
81.92109779853014
 20
-139.024072230869
 30
0.0
 10
81.82187904855495
 20
-139.100208841093
 30
0.0
 10
81.82187904855495
 20
-139.100208841093
 30
0.0
 10
81.64824623609836
 20
-138.9989230338267
 30
0.0
 10
81.64824623609836
 20
-138.9989230338267
 30
0.0
 10
81.6503132933895
 20
-139.0261392881602
 30
0.0
 10
81.6503132933895
 20
-139.0368190841644
 30
0.0
 10
81.65479191752033
 20
-139.1170898089707
 30
0.0
 10
81.65479191752033
 20
-139.1170898089707
 30
0.0
 10
81.44739716930829
 20
-139.1170898089707
 30
0.0
 10
81.44739716930829
 20
-139.1170898089707
 30
0.0
 10
81.45153128389059
 20
-139.0537000520421
 30
0.0
 10
81.45807696531257
 20
-138.9775634418181
 30
0.0
 10
81.46014402260371
 20
-138.8569850998344
 30
0.0
 10
81.46221107989487
 20
-138.6602701476266
 30
0.0
 10
81.46427813718601
 20
-138.6371880078754
 30
0.0
 10
81.46427813718601
 20
-138.5948133334068
 30
0.0
 10
81.46427813718601
 20
-138.5948133334068
 30
0.0
 10
81.46427813718601
 20
-138.0511772658344
 30
0.0
 10
81.46427813718601
 20
-138.0511772658344
 30
0.0
 10
81.45153128389059
 20
-138.0701252910033
 30
0.0
 10
81.40088838025743
 20
-138.1503960158096
 30
0.0
 10
81.36505938721082
 20
-138.1969048048605
 30
0.0
 10
81.36505938721082
 20
-138.1969048048605
 30
0.0
 10
81.1786797214588
 20
-138.0890733161722
 30
0.0
 10
81.1786797214588
 20
-138.0890733161722
 30
0.0
 10
81.41363523355284
 20
-137.8606634855001
 30
0.0
 10
81.55109454341431
 20
-137.4713676956669
 30
0.0
 10
81.61035018576061
 20
-137.1964490759439
 30
0.0
 10
81.61035018576061
 20
-137.1964490759439
 30
0.0
 10
81.84082707372383
 20
-137.2832654821723
 30
0.0
 10
81.84082707372383
 20
-137.2832654821723
 30
0.0
 10
81.87252195218812
 20
-137.2832654821723
 30
0.0
 10
82.00378009017614
 20
-137.2915337113369
 30
0.0
 10
82.03134085405814
 20
-137.2915337113369
 30
0.0
 10
82.03134085405814
 20
-137.2915337113369
 30
0.0
 10
82.23425697813936
 20
-137.2915337113369
 30
0.0
 10
82.23425697813936
 20
-137.2915337113369
 30
0.0
 10
82.27043048073448
 20
-137.2915337113369
 30
0.0
 10
82.42890487305597
 20
-137.2853325394634
 30
0.0
 10
82.46059975152028
 20
-137.2832654821723
 30
0.0
 10
82.45233152235568
 20
-137.4141791106117
 30
0.0
 10
82.45233152235568
 20
-137.5940130949418
 30
0.0
 10
82.45233152235568
 20
-137.7294053475121
 30
0.0
 10
82.45233152235568
 20
-137.7294053475121
 30
0.0
 10
82.45233152235568
 20
-138.230666740616
 30
0.0
 10
82.45233152235568
 20
-138.230666740616
 30
0.0
 10
82.45233152235568
 20
-138.3195502041354
 30
0.0
 10
82.45233152235568
 20
-138.590334709276
 30
0.0
 10
82.45853269422912
 20
-138.6644042622089
 30
0.0
 10
82.43958466906025
 20
-138.6623372049177
 30
0.0
 10
82.36551511612737
 20
-138.6602701476266
 30
0.0
 10
82.31900632707651
 20
-138.6582030903355
 30
0.0
 10
82.45439857964682
 20
-138.8611192144167
 30
0.0
 10
82.53466930445315
 20
-138.9100395703072
 30
0.0
 10
82.61080591467716
 20
-138.9458685633538
 30
0.0
 10
82.61080591467716
 20
-138.9458685633538
 30
0.0
 10
82.46921249023339
 20
-139.079193758633
 30
0.0
 10
82.46921249023339
 20
-139.079193758633
 30
0.0
  0
SPLINE
  5
D9
330
D0
100
AcDbEntity
  8
_U+30EC_U+30A4_U+30E4_U+30FC 1
370
     0
100
AcDbSpline
210
0.0
220
0.0
230
1.0
 70
    11
 71
     3
 72
    47
 73
    43
 74
     0
 42
0.0000000001
 43
0.0000000001
 12
1.0
 22
0.0
 32
0.0
 13
1.0
 23
0.0
 33
0.0
 40
0.0
 40
0.0
 40
0.0
 40
0.0
 40
1.0
 40
1.0
 40
1.0
 40
2.0
 40
2.0
 40
2.0
 40
3.0
 40
3.0
 40
3.0
 40
4.0
 40
4.0
 40
4.0
 40
5.0
 40
5.0
 40
5.0
 40
6.0
 40
6.0
 40
6.0
 40
7.0
 40
7.0
 40
7.0
 40
8.0
 40
8.0
 40
8.0
 40
9.0
 40
9.0
 40
9.0
 40
10.0
 40
10.0
 40
10.0
 40
11.0
 40
11.0
 40
11.0
 40
12.0
 40
12.0
 40
12.0
 40
13.0
 40
13.0
 40
13.0
 40
14.0
 40
14.0
 40
14.0
 40
14.0
 10
81.80499808067722
 20
-138.6644042622089
 30
0.0
 10
81.80913219525952
 20
-138.5989474479892
 30
0.0
 10
81.81326630984182
 20
-138.4277262023722
 30
0.0
 10
81.81326630984182
 20
-138.2161973395779
 30
0.0
 10
81.81326630984182
 20
-138.2161973395779
 30
0.0
 10
81.81326630984182
 20
-137.7421522008075
 30
0.0
 10
81.81326630984182
 20
-137.7421522008075
 30
0.0
 10
81.81326630984182
 20
-137.7421522008075
 30
0.0
 10
81.81326630984182
 20
-137.6890977303347
 30
0.0
 10
81.81326630984182
 20
-137.6890977303347
 30
0.0
 10
81.81326630984182
 20
-137.6890977303347
 30
0.0
 10
81.81326630984182
 20
-137.5306233380132
 30
0.0
 10
81.81326630984182
 20
-137.5306233380132
 30
0.0
 10
81.81326630984182
 20
-137.5116753128443
 30
0.0
 10
81.81326630984182
 20
-137.34217661497
 30
0.0
 10
81.81119925255068
 20
-137.3339083858054
 30
0.0
 10
81.81119925255068
 20
-137.3339083858054
 30
0.0
 10
81.78157143137753
 20
-137.3339083858054
 30
0.0
 10
81.78157143137753
 20
-137.3339083858054
 30
0.0
 10
81.72679441316205
 20
-137.5178764847178
 30
0.0
 10
81.71611461715779
 20
-137.5495713631821
 30
0.0
 10
81.66306014668493
 20
-137.6618814760012
 30
0.0
 10
81.67373994268921
 20
-137.6701497051658
 30
0.0
 10
81.69268796785808
 20
-137.6890977303347
 30
0.0
 10
81.69268796785808
 20
-137.7039116409213
 30
0.0
 10
81.69268796785808
 20
-137.7166584942167
 30
0.0
 10
81.68648679598464
 20
-137.7187255515078
 30
0.0
 10
81.6461791788072
 20
-137.7421522008075
 30
0.0
 10
81.6461791788072
 20
-137.7865939325673
 30
0.0
 10
81.64411212151606
 20
-138.0022569099439
 30
0.0
 10
81.64411212151606
 20
-138.0532443231256
 30
0.0
 10
81.64411212151606
 20
-138.0532443231256
 30
0.0
 10
81.64411212151606
 20
-138.5713866841072
 30
0.0
 10
81.64411212151606
 20
-138.5713866841072
 30
0.0
 10
81.64411212151606
 20
-138.6623372049177
 30
0.0
 10
81.6461791788072
 20
-138.9079725130161
 30
0.0
 10
81.64824623609836
 20
-138.9882432378224
 30
0.0
 10
81.79018417009065
 20
-138.9014268315941
 30
0.0
 10
81.86218666573238
 20
-138.7701686936061
 30
0.0
 10
81.92109779853014
 20
-138.6602701476266
 30
0.0
 10
81.88320174819239
 20
-138.6623372049177
 30
0.0
 10
81.81326630984182
 20
-138.6644042622089
 30
0.0
 10
81.80499808067722
 20
-138.6644042622089
 30
0.0
  0
POLYLINE
  5
DA
330
D0
100
AcDbEntity
  8
_U+30EC_U+30A4_U+30E4_U+30FC 1
370
     0
100
AcDb2dPolyline
 66
     1
 10
0.0
 20
0.0
 30
0.0
  0
VERTEX
  5
DB
330
DA
100
AcDbEntity
  8
_U+30EC_U+30A4_U+30E4_U+30FC 1
370
     0
100
AcDbVertex
100
AcDb2dVertex
 10
82.27249753802563
 20
-137.4355387026203
 30
0.0
  0
VERTEX
  5
DC
330
DA
100
AcDbEntity
  8
_U+30EC_U+30A4_U+30E4_U+30FC 1
370
     0
100
AcDbVertex
100
AcDb2dVertex
 10
81.99516735146302
 20
-137.4355387026203
 30
0.0
  0
VERTEX
  5
DD
330
DA
100
AcDbEntity
  8
_U+30EC_U+30A4_U+30E4_U+30FC 1
370
     0
100
AcDbVertex
100
AcDb2dVertex
 10
81.99516735146302
 20
-137.6890977303347
 30
0.0
  0
VERTEX
  5
DE
330
DA
100
AcDbEntity
  8
_U+30EC_U+30A4_U+30E4_U+30FC 1
370
     0
100
AcDbVertex
100
AcDb2dVertex
 10
82.27249753802563
 20
-137.6890977303347
 30
0.0
  0
VERTEX
  5
DF
330
DA
100
AcDbEntity
  8
_U+30EC_U+30A4_U+30E4_U+30FC 1
370
     0
100
AcDbVertex
100
AcDb2dVertex
 10
82.27249753802563
 20
-137.4355387026203
 30
0.0
  0
SEQEND
  5
E0
330
DA
100
AcDbEntity
  8
_U+30EC_U+30A4_U+30E4_U+30FC 1
370
     0
  0
POLYLINE
  5
E1
330
D0
100
AcDbEntity
  8
_U+30EC_U+30A4_U+30E4_U+30FC 1
370
     0
100
AcDb2dPolyline
 66
     1
 10
0.0
 20
0.0
 30
0.0
  0
VERTEX
  5
E2
330
E1
100
AcDbEntity
  8
_U+30EC_U+30A4_U+30E4_U+30FC 1
370
     0
100
AcDbVertex
100
AcDb2dVertex
 10
82.27249753802563
 20
-137.8372368362004
 30
0.0
  0
VERTEX
  5
E3
330
E1
100
AcDbEntity
  8
_U+30EC_U+30A4_U+30E4_U+30FC 1
370
     0
100
AcDbVertex
100
AcDb2dVertex
 10
81.99516735146302
 20
-137.8372368362004
 30
0.0
  0
VERTEX
  5
E4
330
E1
100
AcDbEntity
  8
_U+30EC_U+30A4_U+30E4_U+30FC 1
370
     0
100
AcDbVertex
100
AcDb2dVertex
 10
81.99516735146302
 20
-138.0911403734633
 30
0.0
  0
VERTEX
  5
E5
330
E1
100
AcDbEntity
  8
_U+30EC_U+30A4_U+30E4_U+30FC 1
370
     0
100
AcDbVertex
100
AcDb2dVertex
 10
82.27249753802563
 20
-138.0911403734633
 30
0.0
  0
VERTEX
  5
E6
330
E1
100
AcDbEntity
  8
_U+30EC_U+30A4_U+30E4_U+30FC 1
370
     0
100
AcDbVertex
100
AcDb2dVertex
 10
82.27249753802563
 20
-137.8372368362004
 30
0.0
  0
SEQEND
  5
E7
330
E1
100
AcDbEntity
  8
_U+30EC_U+30A4_U+30E4_U+30FC 1
370
     0
  0
POLYLINE
  5
E8
330
D0
100
AcDbEntity
  8
_U+30EC_U+30A4_U+30E4_U+30FC 1
370
     0
100
AcDb2dPolyline
 66
     1
 10
0.0
 20
0.0
 30
0.0
  0
VERTEX
  5
E9
330
E8
100
AcDbEntity
  8
_U+30EC_U+30A4_U+30E4_U+30FC 1
370
     0
100
AcDbVertex
100
AcDb2dVertex
 10
82.27249753802563
 20
-138.2413465366202
 30
0.0
  0
VERTEX
  5
EA
330
E8
100
AcDbEntity
  8
_U+30EC_U+30A4_U+30E4_U+30FC 1
370
     0
100
AcDbVertex
100
AcDb2dVertex
 10
81.99516735146302
 20
-138.2413465366202
 30
0.0
  0
VERTEX
  5
EB
330
E8
100
AcDbEntity
  8
_U+30EC_U+30A4_U+30E4_U+30FC 1
370
     0
100
AcDbVertex
100
AcDb2dVertex
 10
81.99516735146302
 20
-138.4993841884654
 30
0.0
  0
VERTEX
  5
EC
330
E8
100
AcDbEntity
  8
_U+30EC_U+30A4_U+30E4_U+30FC 1
370
     0
100
AcDbVertex
100
AcDb2dVertex
 10
82.27249753802563
 20
-138.4993841884654
 30
0.0
  0
VERTEX
  5
ED
330
E8
100
AcDbEntity
  8
_U+30EC_U+30A4_U+30E4_U+30FC 1
370
     0
100
AcDbVertex
100
AcDb2dVertex
 10
82.27249753802563
 20
-138.2413465366202
 30
0.0
  0
SEQEND
  5
EE
330
E8
100
AcDbEntity
  8
_U+30EC_U+30A4_U+30E4_U+30FC 1
370
     0
  0
SPLINE
  5
EF
330
D0
100
AcDbEntity
  8
_U+30EC_U+30A4_U+30E4_U+30FC 1
370
     0
100
AcDbSpline
210
0.0
220
0.0
230
1.0
 70
    11
 71
     3
 72
    35
 73
    31
 74
     0
 42
0.0000000001
 43
0.0000000001
 12
1.0
 22
0.0
 32
0.0
 13
1.0
 23
0.0
 33
0.0
 40
0.0
 40
0.0
 40
0.0
 40
0.0
 40
1.0
 40
1.0
 40
1.0
 40
2.0
 40
2.0
 40
2.0
 40
3.0
 40
3.0
 40
3.0
 40
4.0
 40
4.0
 40
4.0
 40
5.0
 40
5.0
 40
5.0
 40
6.0
 40
6.0
 40
6.0
 40
7.0
 40
7.0
 40
7.0
 40
8.0
 40
8.0
 40
8.0
 40
9.0
 40
9.0
 40
9.0
 40
10.0
 40
10.0
 40
10.0
 40
10.0
 10
82.75894502054291
 20
-137.4989284595489
 30
0.0
 10
82.75894502054291
 20
-137.5051296314223
 30
0.0
 10
82.75274384866945
 20
-137.727338290221
 30
0.0
 10
82.75274384866945
 20
-137.7569661113941
 30
0.0
 10
82.75274384866945
 20
-137.7569661113941
 30
0.0
 10
82.75274384866945
 20
-138.1293809333496
 30
0.0
 10
82.75274384866945
 20
-138.1293809333496
 30
0.0
 10
82.75274384866945
 20
-138.2055175435736
 30
0.0
 10
82.75687796325175
 20
-138.4277262023722
 30
0.0
 10
82.76101207783405
 20
-138.4952500738831
 30
0.0
 10
82.76101207783405
 20
-138.4952500738831
 30
0.0
 10
82.55155027233087
 20
-138.4952500738831
 30
0.0
 10
82.55155027233087
 20
-138.4952500738831
 30
0.0
 10
82.5560288964617
 20
-138.4149793490768
 30
0.0
 10
82.56223006833514
 20
-138.2137857727382
 30
0.0
 10
82.56223006833514
 20
-138.1293809333496
 30
0.0
 10
82.56223006833514
 20
-138.1293809333496
 30
0.0
 10
82.56223006833514
 20
-137.7590331686852
 30
0.0
 10
82.56223006833514
 20
-137.7590331686852
 30
0.0
 10
82.56223006833514
 20
-137.6977104690478
 30
0.0
 10
82.55809595375284
 20
-137.4544867277892
 30
0.0
 10
82.55155027233087
 20
-137.3952310854429
 30
0.0
 10
82.55155027233087
 20
-137.3952310854429
 30
0.0
 10
82.75274384866945
 20
-137.4207247920337
 30
0.0
 10
82.75274384866945
 20
-137.4207247920337
 30
0.0
 10
82.79511852313803
 20
-137.4269259639072
 30
0.0
 10
82.81199949101575
 20
-137.4289930211983
 30
0.0
 10
82.81199949101575
 20
-137.452419670498
 30
0.0
 10
82.81199949101575
 20
-137.4713676956669
 30
0.0
 10
82.80131969501149
 20
-137.4755018102492
 30
0.0
 10
82.75894502054291
 20
-137.4989284595489
 30
0.0
  0
SPLINE
  5
F0
330
D0
100
AcDbEntity
  8
_U+30EC_U+30A4_U+30E4_U+30FC 1
370
     0
100
AcDbSpline
210
0.0
220
0.0
230
1.0
 70
    11
 71
     3
 72
    50
 73
    46
 74
     0
 42
0.0000000001
 43
0.0000000001
 12
1.0
 22
0.0
 32
0.0
 13
1.0
 23
0.0
 33
0.0
 40
0.0
 40
0.0
 40
0.0
 40
0.0
 40
1.0
 40
1.0
 40
1.0
 40
2.0
 40
2.0
 40
2.0
 40
3.0
 40
3.0
 40
3.0
 40
4.0
 40
4.0
 40
4.0
 40
5.0
 40
5.0
 40
5.0
 40
6.0
 40
6.0
 40
6.0
 40
7.0
 40
7.0
 40
7.0
 40
8.0
 40
8.0
 40
8.0
 40
9.0
 40
9.0
 40
9.0
 40
10.0
 40
10.0
 40
10.0
 40
11.0
 40
11.0
 40
11.0
 40
12.0
 40
12.0
 40
12.0
 40
13.0
 40
13.0
 40
13.0
 40
14.0
 40
14.0
 40
14.0
 40
15.0
 40
15.0
 40
15.0
 40
15.0
 10
83.08485105344754
 20
-137.3401095576789
 30
0.0
 10
83.08485105344754
 20
-137.4121120533206
 30
0.0
 10
83.0827839961564
 20
-137.727338290221
 30
0.0
 10
83.0827839961564
 20
-137.7927951044407
 30
0.0
 10
83.0827839961564
 20
-137.7927951044407
 30
0.0
 10
83.0827839961564
 20
-138.5565727735206
 30
0.0
 10
83.0827839961564
 20
-138.5565727735206
 30
0.0
 10
83.0827839961564
 20
-138.6010145052803
 30
0.0
 10
83.08485105344754
 20
-138.7915282856146
 30
0.0
 10
83.08485105344754
 20
-138.8294243359524
 30
0.0
 10
83.08485105344754
 20
-139.0326849695821
 30
0.0
 10
83.07210420015211
 20
-139.1384494009793
 30
0.0
 10
82.73345131395206
 20
-139.1170898089707
 30
0.0
 10
82.73345131395206
 20
-139.1170898089707
 30
0.0
 10
82.64250079314147
 20
-138.8804117491341
 30
0.0
 10
82.64250079314147
 20
-138.8804117491341
 30
0.0
 10
82.68074135302774
 20
-138.8907470355898
 30
0.0
 10
82.76755775925604
 20
-138.9121066275984
 30
0.0
 10
82.81199949101575
 20
-138.9121066275984
 30
0.0
 10
82.88606904394862
 20
-138.9121066275984
 30
0.0
 10
82.88606904394862
 20
-138.8717990104209
 30
0.0
 10
82.88606904394862
 20
-138.7681016363149
 30
0.0
 10
82.88606904394862
 20
-138.7343397005595
 30
0.0
 10
82.88813610123978
 20
-138.5779323655291
 30
0.0
 10
82.88813610123978
 20
-138.5458929775163
 30
0.0
 10
82.88813610123978
 20
-138.5458929775163
 30
0.0
 10
82.88813610123978
 20
-137.7972737285715
 30
0.0
 10
82.88813610123978
 20
-137.7972737285715
 30
0.0
 10
82.88813610123978
 20
-137.7972737285715
 30
0.0
 10
82.88813610123978
 20
-137.7631672832675
 30
0.0
 10
82.88813610123978
 20
-137.7631672832675
 30
0.0
 10
82.88813610123978
 20
-137.7631672832675
 30
0.0
 10
82.88606904394862
 20
-137.5433701913086
 30
0.0
 10
82.88606904394862
 20
-137.5433701913086
 30
0.0
 10
82.88606904394862
 20
-137.4651665237934
 30
0.0
 10
82.88606904394862
 20
-137.3063476219234
 30
0.0
 10
82.87538924794436
 20
-137.2388237504125
 30
0.0
 10
82.87538924794436
 20
-137.2388237504125
 30
0.0
 10
83.09966496403412
 20
-137.2557047182902
 30
0.0
 10
83.09966496403412
 20
-137.2557047182902
 30
0.0
 10
83.11654593191184
 20
-137.2577717755814
 30
0.0
 10
83.1420396385027
 20
-137.2639729474548
 30
0.0
 10
83.1420396385027
 20
-137.2894666540457
 30
0.0
 10
83.1420396385027
 20
-137.3149603606365
 30
0.0
 10
83.10793319319872
 20
-137.3297742712231
 30
0.0
 10
83.08485105344754
 20
-137.3401095576789
 30
0.0
  0
HATCH
  5
F1
330
D0
100
AcDbEntity
  8
_U+30EC_U+30A4_U+30E4_U+30FC 1
 62
   179
420
  2234388
100
AcDbHatch
 10
0.0
 20
0.0
 30
0.0
210
0.0
220
0.0
230
1.0
  2
SOLID
 70
     1
 71
     0
 91
        7
 92
        1
 93
        1
 72
     4
 94
        3
 73
     0
 74
     1
 95
       89
 96
       85
 40
0.0
 40
0.0
 40
0.0
 40
0.0
 40
1.0
 40
1.0
 40
1.0
 40
2.0
 40
2.0
 40
2.0
 40
3.0
 40
3.0
 40
3.0
 40
4.0
 40
4.0
 40
4.0
 40
5.0
 40
5.0
 40
5.0
 40
6.0
 40
6.0
 40
6.0
 40
7.0
 40
7.0
 40
7.0
 40
8.0
 40
8.0
 40
8.0
 40
9.0
 40
9.0
 40
9.0
 40
10.0
 40
10.0
 40
10.0
 40
11.0
 40
11.0
 40
11.0
 40
12.0
 40
12.0
 40
12.0
 40
13.0
 40
13.0
 40
13.0
 40
14.0
 40
14.0
 40
14.0
 40
15.0
 40
15.0
 40
15.0
 40
16.0
 40
16.0
 40
16.0
 40
17.0
 40
17.0
 40
17.0
 40
18.0
 40
18.0
 40
18.0
 40
19.0
 40
19.0
 40
19.0
 40
20.0
 40
20.0
 40
20.0
 40
21.0
 40
21.0
 40
21.0
 40
22.0
 40
22.0
 40
22.0
 40
23.0
 40
23.0
 40
23.0
 40
24.0
 40
24.0
 40
24.0
 40
25.0
 40
25.0
 40
25.0
 40
26.0
 40
26.0
 40
26.0
 40
27.0
 40
27.0
 40
27.0
 40
28.0
 40
28.0
 40
28.0
 40
28.0
 10
82.46921249023339
 20
-139.079193758633
 10
82.33175318037193
 20
-138.9989230338267
 10
82.2321899208482
 20
-138.8611192144167
 10
82.17293427850191
 20
-138.7491536111461
 10
82.17293427850191
 20
-138.7491536111461
 10
82.31487221249421
 20
-138.6582030903355
 10
82.31487221249421
 20
-138.6582030903355
 10
82.31487221249421
 20
-138.6582030903355
 10
82.26181774202135
 20
-138.6582030903355
 10
82.26181774202135
 20
-138.6582030903355
 10
82.26181774202135
 20
-138.6582030903355
 10
82.03340791134929
 20
-138.6582030903355
 10
82.03340791134929
 20
-138.6582030903355
 10
82.00791420475844
 20
-138.6582030903355
 10
81.99964597559384
 20
-138.6582030903355
 10
81.93177759453442
 20
-138.6602701476266
 10
81.93177759453442
 20
-138.6602701476266
 10
82.09266355369559
 20
-138.7450194965637
 10
82.09266355369559
 20
-138.7450194965637
 10
82.10541040699101
 20
-138.7512206684372
 10
82.11367863615561
 20
-138.7577663498592
 10
82.11367863615561
 20
-138.7722357508972
 10
82.11367863615561
 20
-138.80427513891
 10
82.0651027898136
 20
-138.8084092534924
 10
82.05028887922701
 20
-138.8104763107835
 10
81.99103323688072
 20
-138.920374856763
 10
81.92109779853014
 20
-139.024072230869
 10
81.82187904855495
 20
-139.100208841093
 10
81.82187904855495
 20
-139.100208841093
 10
81.64824623609836
 20
-138.9989230338267
 10
81.64824623609836
 20
-138.9989230338267
 10
81.6503132933895
 20
-139.0261392881602
 10
81.6503132933895
 20
-139.0368190841644
 10
81.65479191752033
 20
-139.1170898089707
 10
81.65479191752033
 20
-139.1170898089707
 10
81.44739716930829
 20
-139.1170898089707
 10
81.44739716930829
 20
-139.1170898089707
 10
81.45153128389059
 20
-139.0537000520421
 10
81.45807696531257
 20
-138.9775634418181
 10
81.46014402260371
 20
-138.8569850998344
 10
81.46221107989487
 20
-138.6602701476266
 10
81.46427813718601
 20
-138.6371880078754
 10
81.46427813718601
 20
-138.5948133334068
 10
81.46427813718601
 20
-138.5948133334068
 10
81.46427813718601
 20
-138.0511772658344
 10
81.46427813718601
 20
-138.0511772658344
 10
81.45153128389059
 20
-138.0701252910033
 10
81.40088838025743
 20
-138.1503960158096
 10
81.36505938721082
 20
-138.1969048048605
 10
81.36505938721082
 20
-138.1969048048605
 10
81.1786797214588
 20
-138.0890733161722
 10
81.1786797214588
 20
-138.0890733161722
 10
81.41363523355284
 20
-137.8606634855001
 10
81.55109454341431
 20
-137.4713676956669
 10
81.61035018576061
 20
-137.1964490759439
 10
81.61035018576061
 20
-137.1964490759439
 10
81.84082707372383
 20
-137.2832654821723
 10
81.84082707372383
 20
-137.2832654821723
 10
81.87252195218812
 20
-137.2832654821723
 10
82.00378009017614
 20
-137.2915337113369
 10
82.03134085405814
 20
-137.2915337113369
 10
82.03134085405814
 20
-137.2915337113369
 10
82.23425697813936
 20
-137.2915337113369
 10
82.23425697813936
 20
-137.2915337113369
 10
82.27043048073448
 20
-137.2915337113369
 10
82.42890487305597
 20
-137.2853325394634
 10
82.46059975152028
 20
-137.2832654821723
 10
82.45233152235568
 20
-137.4141791106117
 10
82.45233152235568
 20
-137.5940130949418
 10
82.45233152235568
 20
-137.7294053475121
 10
82.45233152235568
 20
-137.7294053475121
 10
82.45233152235568
 20
-138.230666740616
 10
82.45233152235568
 20
-138.230666740616
 10
82.45233152235568
 20
-138.3195502041354
 10
82.45233152235568
 20
-138.590334709276
 10
82.45853269422912
 20
-138.6644042622089
 10
82.43958466906025
 20
-138.6623372049177
 10
82.36551511612737
 20
-138.6602701476266
 10
82.31900632707651
 20
-138.6582030903355
 10
82.45439857964682
 20
-138.8611192144167
 10
82.53466930445315
 20
-138.9100395703072
 10
82.61080591467716
 20
-138.9458685633538
 10
82.61080591467716
 20
-138.9458685633538
 10
82.46921249023339
 20
-139.079193758633
 10
82.46921249023339
 20
-139.079193758633
 97
        0
 97
        0
 92
        1
 93
        1
 72
     4
 94
        3
 73
     0
 74
     1
 95
       47
 96
       43
 40
0.0
 40
0.0
 40
0.0
 40
0.0
 40
1.0
 40
1.0
 40
1.0
 40
2.0
 40
2.0
 40
2.0
 40
3.0
 40
3.0
 40
3.0
 40
4.0
 40
4.0
 40
4.0
 40
5.0
 40
5.0
 40
5.0
 40
6.0
 40
6.0
 40
6.0
 40
7.0
 40
7.0
 40
7.0
 40
8.0
 40
8.0
 40
8.0
 40
9.0
 40
9.0
 40
9.0
 40
10.0
 40
10.0
 40
10.0
 40
11.0
 40
11.0
 40
11.0
 40
12.0
 40
12.0
 40
12.0
 40
13.0
 40
13.0
 40
13.0
 40
14.0
 40
14.0
 40
14.0
 40
14.0
 10
81.80499808067722
 20
-138.6644042622089
 10
81.80913219525952
 20
-138.5989474479892
 10
81.81326630984182
 20
-138.4277262023722
 10
81.81326630984182
 20
-138.2161973395779
 10
81.81326630984182
 20
-138.2161973395779
 10
81.81326630984182
 20
-137.7421522008075
 10
81.81326630984182
 20
-137.7421522008075
 10
81.81326630984182
 20
-137.7421522008075
 10
81.81326630984182
 20
-137.6890977303347
 10
81.81326630984182
 20
-137.6890977303347
 10
81.81326630984182
 20
-137.6890977303347
 10
81.81326630984182
 20
-137.5306233380132
 10
81.81326630984182
 20
-137.5306233380132
 10
81.81326630984182
 20
-137.5116753128443
 10
81.81326630984182
 20
-137.34217661497
 10
81.81119925255068
 20
-137.3339083858054
 10
81.81119925255068
 20
-137.3339083858054
 10
81.78157143137753
 20
-137.3339083858054
 10
81.78157143137753
 20
-137.3339083858054
 10
81.72679441316205
 20
-137.5178764847178
 10
81.71611461715779
 20
-137.5495713631821
 10
81.66306014668493
 20
-137.6618814760012
 10
81.67373994268921
 20
-137.6701497051658
 10
81.69268796785808
 20
-137.6890977303347
 10
81.69268796785808
 20
-137.7039116409213
 10
81.69268796785808
 20
-137.7166584942167
 10
81.68648679598464
 20
-137.7187255515078
 10
81.6461791788072
 20
-137.7421522008075
 10
81.6461791788072
 20
-137.7865939325673
 10
81.64411212151606
 20
-138.0022569099439
 10
81.64411212151606
 20
-138.0532443231256
 10
81.64411212151606
 20
-138.0532443231256
 10
81.64411212151606
 20
-138.5713866841072
 10
81.64411212151606
 20
-138.5713866841072
 10
81.64411212151606
 20
-138.6623372049177
 10
81.6461791788072
 20
-138.9079725130161
 10
81.64824623609836
 20
-138.9882432378224
 10
81.79018417009065
 20
-138.9014268315941
 10
81.86218666573238
 20
-138.7701686936061
 10
81.92109779853014
 20
-138.6602701476266
 10
81.88320174819239
 20
-138.6623372049177
 10
81.81326630984182
 20
-138.6644042622089
 10
81.80499808067722
 20
-138.6644042622089
 97
        0
 97
        0
 92
        1
 93
        4
 72
     1
 10
82.27249753802563
 20
-137.4355387026203
 11
81.99516735146302
 21
-137.4355387026203
 72
     1
 10
81.99516735146302
 20
-137.4355387026203
 11
81.99516735146302
 21
-137.6890977303347
 72
     1
 10
81.99516735146302
 20
-137.6890977303347
 11
82.27249753802563
 21
-137.6890977303347
 72
     1
 10
82.27249753802563
 20
-137.6890977303347
 11
82.27249753802563
 21
-137.4355387026203
 97
        0
 92
        1
 93
        4
 72
     1
 10
82.27249753802563
 20
-137.8372368362004
 11
81.99516735146302
 21
-137.8372368362004
 72
     1
 10
81.99516735146302
 20
-137.8372368362004
 11
81.99516735146302
 21
-138.0911403734633
 72
     1
 10
81.99516735146302
 20
-138.0911403734633
 11
82.27249753802563
 21
-138.0911403734633
 72
     1
 10
82.27249753802563
 20
-138.0911403734633
 11
82.27249753802563
 21
-137.8372368362004
 97
        0
 92
        1
 93
        4
 72
     1
 10
82.27249753802563
 20
-138.2413465366202
 11
81.99516735146302
 21
-138.2413465366202
 72
     1
 10
81.99516735146302
 20
-138.2413465366202
 11
81.99516735146302
 21
-138.4993841884654
 72
     1
 10
81.99516735146302
 20
-138.4993841884654
 11
82.27249753802563
 21
-138.4993841884654
 72
     1
 10
82.27249753802563
 20
-138.4993841884654
 11
82.27249753802563
 21
-138.2413465366202
 97
        0
 92
        1
 93
        1
 72
     4
 94
        3
 73
     0
 74
     1
 95
       35
 96
       31
 40
0.0
 40
0.0
 40
0.0
 40
0.0
 40
1.0
 40
1.0
 40
1.0
 40
2.0
 40
2.0
 40
2.0
 40
3.0
 40
3.0
 40
3.0
 40
4.0
 40
4.0
 40
4.0
 40
5.0
 40
5.0
 40
5.0
 40
6.0
 40
6.0
 40
6.0
 40
7.0
 40
7.0
 40
7.0
 40
8.0
 40
8.0
 40
8.0
 40
9.0
 40
9.0
 40
9.0
 40
10.0
 40
10.0
 40
10.0
 40
10.0
 10
82.75894502054291
 20
-137.4989284595489
 10
82.75894502054291
 20
-137.5051296314223
 10
82.75274384866945
 20
-137.727338290221
 10
82.75274384866945
 20
-137.7569661113941
 10
82.75274384866945
 20
-137.7569661113941
 10
82.75274384866945
 20
-138.1293809333496
 10
82.75274384866945
 20
-138.1293809333496
 10
82.75274384866945
 20
-138.2055175435736
 10
82.75687796325175
 20
-138.4277262023722
 10
82.76101207783405
 20
-138.4952500738831
 10
82.76101207783405
 20
-138.4952500738831
 10
82.55155027233087
 20
-138.4952500738831
 10
82.55155027233087
 20
-138.4952500738831
 10
82.5560288964617
 20
-138.4149793490768
 10
82.56223006833514
 20
-138.2137857727382
 10
82.56223006833514
 20
-138.1293809333496
 10
82.56223006833514
 20
-138.1293809333496
 10
82.56223006833514
 20
-137.7590331686852
 10
82.56223006833514
 20
-137.7590331686852
 10
82.56223006833514
 20
-137.6977104690478
 10
82.55809595375284
 20
-137.4544867277892
 10
82.55155027233087
 20
-137.3952310854429
 10
82.55155027233087
 20
-137.3952310854429
 10
82.75274384866945
 20
-137.4207247920337
 10
82.75274384866945
 20
-137.4207247920337
 10
82.79511852313803
 20
-137.4269259639072
 10
82.81199949101575
 20
-137.4289930211983
 10
82.81199949101575
 20
-137.452419670498
 10
82.81199949101575
 20
-137.4713676956669
 10
82.80131969501149
 20
-137.4755018102492
 10
82.75894502054291
 20
-137.4989284595489
 97
        0
 97
        0
 92
        1
 93
        1
 72
     4
 94
        3
 73
     0
 74
     1
 95
       50
 96
       46
 40
0.0
 40
0.0
 40
0.0
 40
0.0
 40
1.0
 40
1.0
 40
1.0
 40
2.0
 40
2.0
 40
2.0
 40
3.0
 40
3.0
 40
3.0
 40
4.0
 40
4.0
 40
4.0
 40
5.0
 40
5.0
 40
5.0
 40
6.0
 40
6.0
 40
6.0
 40
7.0
 40
7.0
 40
7.0
 40
8.0
 40
8.0
 40
8.0
 40
9.0
 40
9.0
 40
9.0
 40
10.0
 40
10.0
 40
10.0
 40
11.0
 40
11.0
 40
11.0
 40
12.0
 40
12.0
 40
12.0
 40
13.0
 40
13.0
 40
13.0
 40
14.0
 40
14.0
 40
14.0
 40
15.0
 40
15.0
 40
15.0
 40
15.0
 10
83.08485105344754
 20
-137.3401095576789
 10
83.08485105344754
 20
-137.4121120533206
 10
83.0827839961564
 20
-137.727338290221
 10
83.0827839961564
 20
-137.7927951044407
 10
83.0827839961564
 20
-137.7927951044407
 10
83.0827839961564
 20
-138.5565727735206
 10
83.0827839961564
 20
-138.5565727735206
 10
83.0827839961564
 20
-138.6010145052803
 10
83.08485105344754
 20
-138.7915282856146
 10
83.08485105344754
 20
-138.8294243359524
 10
83.08485105344754
 20
-139.0326849695821
 10
83.07210420015211
 20
-139.1384494009793
 10
82.73345131395206
 20
-139.1170898089707
 10
82.73345131395206
 20
-139.1170898089707
 10
82.64250079314147
 20
-138.8804117491341
 10
82.64250079314147
 20
-138.8804117491341
 10
82.68074135302774
 20
-138.8907470355898
 10
82.76755775925604
 20
-138.9121066275984
 10
82.81199949101575
 20
-138.9121066275984
 10
82.88606904394862
 20
-138.9121066275984
 10
82.88606904394862
 20
-138.8717990104209
 10
82.88606904394862
 20
-138.7681016363149
 10
82.88606904394862
 20
-138.7343397005595
 10
82.88813610123978
 20
-138.5779323655291
 10
82.88813610123978
 20
-138.5458929775163
 10
82.88813610123978
 20
-138.5458929775163
 10
82.88813610123978
 20
-137.7972737285715
 10
82.88813610123978
 20
-137.7972737285715
 10
82.88813610123978
 20
-137.7972737285715
 10
82.88813610123978
 20
-137.7631672832675
 10
82.88813610123978
 20
-137.7631672832675
 10
82.88813610123978
 20
-137.7631672832675
 10
82.88606904394862
 20
-137.5433701913086
 10
82.88606904394862
 20
-137.5433701913086
 10
82.88606904394862
 20
-137.4651665237934
 10
82.88606904394862
 20
-137.3063476219234
 10
82.87538924794436
 20
-137.2388237504125
 10
82.87538924794436
 20
-137.2388237504125
 10
83.09966496403412
 20
-137.2557047182902
 10
83.09966496403412
 20
-137.2557047182902
 10
83.11654593191184
 20
-137.2577717755814
 10
83.1420396385027
 20
-137.2639729474548
 10
83.1420396385027
 20
-137.2894666540457
 10
83.1420396385027
 20
-137.3149603606365
 10
83.10793319319872
 20
-137.3297742712231
 10
83.08485105344754
 20
-137.3401095576789
 97
        0
 97
        0
 75
     2
 76
     1
 98
        0
  0
SPLINE
  5
F2
330
D0
100
AcDbEntity
  8
_U+30EC_U+30A4_U+30E4_U+30FC 1
370
     0
100
AcDbSpline
210
0.0
220
0.0
230
1.0
 70
    11
 71
     3
 72
    56
 73
    52
 74
     0
 42
0.0000000001
 43
0.0000000001
 12
1.0
 22
0.0
 32
0.0
 13
1.0
 23
0.0
 33
0.0
 40
0.0
 40
0.0
 40
0.0
 40
0.0
 40
1.0
 40
1.0
 40
1.0
 40
2.0
 40
2.0
 40
2.0
 40
3.0
 40
3.0
 40
3.0
 40
4.0
 40
4.0
 40
4.0
 40
5.0
 40
5.0
 40
5.0
 40
6.0
 40
6.0
 40
6.0
 40
7.0
 40
7.0
 40
7.0
 40
8.0
 40
8.0
 40
8.0
 40
9.0
 40
9.0
 40
9.0
 40
10.0
 40
10.0
 40
10.0
 40
11.0
 40
11.0
 40
11.0
 40
12.0
 40
12.0
 40
12.0
 40
13.0
 40
13.0
 40
13.0
 40
14.0
 40
14.0
 40
14.0
 40
15.0
 40
15.0
 40
15.0
 40
16.0
 40
16.0
 40
16.0
 40
17.0
 40
17.0
 40
17.0
 40
17.0
 10
86.96919621306674
 20
-138.9351887673495
 30
0.0
 10
86.77661537544127
 20
-138.6265082118712
 30
0.0
 10
86.51857772359605
 20
-138.4211805209503
 30
0.0
 10
86.42762720278546
 20
-138.3557237067305
 30
0.0
 10
86.13341604834513
 20
-138.694032083382
 30
0.0
 10
85.8436835180356
 20
-138.8463053038301
 30
0.0
 10
85.64490150853669
 20
-138.9396673914804
 30
0.0
 10
85.64490150853669
 20
-138.9396673914804
 30
0.0
 10
85.48608260666668
 20
-138.7512206684372
 30
0.0
 10
85.48608260666668
 20
-138.7512206684372
 30
0.0
 10
85.5897799807727
 20
-138.7153916753906
 30
0.0
 10
85.80337590085819
 20
-138.6392550651666
 30
0.0
 10
86.03626435566107
 20
-138.4528753994146
 30
0.0
 10
86.30050317937975
 20
-138.2413465366202
 30
0.0
 10
86.48688284513176
 20
-137.9536810636019
 30
0.0
 10
86.60952824440665
 20
-137.6405218839926
 30
0.0
 10
86.60952824440665
 20
-137.6405218839926
 30
0.0
 10
86.23297930786885
 20
-137.6405218839926
 30
0.0
 10
86.23297930786885
 20
-137.6405218839926
 30
0.0
 10
86.0807060874208
 20
-137.6405218839926
 30
0.0
 10
85.87124428191761
 20
-137.6450005081235
 30
0.0
 10
85.72103811876072
 20
-137.6639485332923
 30
0.0
 10
85.72103811876072
 20
-137.6639485332923
 30
0.0
 10
85.72103811876072
 20
-137.452419670498
 30
0.0
 10
85.72103811876072
 20
-137.452419670498
 30
0.0
 10
85.78856199027162
 20
-137.4586208423715
 30
0.0
 10
86.0490112089565
 20
-137.4693006383757
 30
0.0
 10
86.13548310563627
 20
-137.4693006383757
 30
0.0
 10
86.13548310563627
 20
-137.4693006383757
 30
0.0
 10
86.44657522795433
 20
-137.4693006383757
 30
0.0
 10
86.44657522795433
 20
-137.4693006383757
 30
0.0
 10
86.65396997616637
 20
-137.4693006383757
 30
0.0
 10
86.67705211591755
 20
-137.4627549569538
 30
0.0
 10
86.70047876521724
 20
-137.4586208423715
 30
0.0
 10
86.74492049697697
 20
-137.452419670498
 30
0.0
 10
86.78281654731471
 20
-137.4269259639072
 30
0.0
 10
86.80417613932326
 20
-137.4100449960294
 30
0.0
 10
86.80417613932326
 20
-137.4100449960294
 30
0.0
 10
86.96058347435361
 20
-137.5833332989375
 30
0.0
 10
86.96058347435361
 20
-137.5833332989375
 30
0.0
 10
86.9206203667247
 20
-137.6108940628195
 30
0.0
 10
86.90787351342928
 20
-137.6215738588238
 30
0.0
 10
86.85895315753874
 20
-137.6574028518704
 30
0.0
 10
86.73010658639039
 20
-137.9051052172598
 30
0.0
 10
86.64983586158407
 20
-138.0553113804167
 30
0.0
 10
86.54613848747805
 20
-138.2013834289913
 30
0.0
 10
86.85895315753874
 20
-138.4191134636591
 30
0.0
 10
87.08770749775933
 20
-138.7047118793863
 30
0.0
 10
87.14041745868364
 20
-138.7829155469015
 30
0.0
 10
87.14041745868364
 20
-138.7829155469015
 30
0.0
 10
86.96919621306674
 20
-138.9351887673495
 30
0.0
 10
86.96919621306674
 20
-138.9351887673495
 30
0.0
  0
HATCH
  5
F3
330
D0
100
AcDbEntity
  8
_U+30EC_U+30A4_U+30E4_U+30FC 1
 62
   179
420
  2234388
100
AcDbHatch
 10
0.0
 20
0.0
 30
0.0
210
0.0
220
0.0
230
1.0
  2
SOLID
 70
     1
 71
     0
 91
        1
 92
        1
 93
        1
 72
     4
 94
        3
 73
     0
 74
     1
 95
       56
 96
       52
 40
0.0
 40
0.0
 40
0.0
 40
0.0
 40
1.0
 40
1.0
 40
1.0
 40
2.0
 40
2.0
 40
2.0
 40
3.0
 40
3.0
 40
3.0
 40
4.0
 40
4.0
 40
4.0
 40
5.0
 40
5.0
 40
5.0
 40
6.0
 40
6.0
 40
6.0
 40
7.0
 40
7.0
 40
7.0
 40
8.0
 40
8.0
 40
8.0
 40
9.0
 40
9.0
 40
9.0
 40
10.0
 40
10.0
 40
10.0
 40
11.0
 40
11.0
 40
11.0
 40
12.0
 40
12.0
 40
12.0
 40
13.0
 40
13.0
 40
13.0
 40
14.0
 40
14.0
 40
14.0
 40
15.0
 40
15.0
 40
15.0
 40
16.0
 40
16.0
 40
16.0
 40
17.0
 40
17.0
 40
17.0
 40
17.0
 10
86.96919621306674
 20
-138.9351887673495
 10
86.77661537544127
 20
-138.6265082118712
 10
86.51857772359605
 20
-138.4211805209503
 10
86.42762720278546
 20
-138.3557237067305
 10
86.13341604834513
 20
-138.694032083382
 10
85.8436835180356
 20
-138.8463053038301
 10
85.64490150853669
 20
-138.9396673914804
 10
85.64490150853669
 20
-138.9396673914804
 10
85.48608260666668
 20
-138.7512206684372
 10
85.48608260666668
 20
-138.7512206684372
 10
85.5897799807727
 20
-138.7153916753906
 10
85.80337590085819
 20
-138.6392550651666
 10
86.03626435566107
 20
-138.4528753994146
 10
86.30050317937975
 20
-138.2413465366202
 10
86.48688284513176
 20
-137.9536810636019
 10
86.60952824440665
 20
-137.6405218839926
 10
86.60952824440665
 20
-137.6405218839926
 10
86.23297930786885
 20
-137.6405218839926
 10
86.23297930786885
 20
-137.6405218839926
 10
86.0807060874208
 20
-137.6405218839926
 10
85.87124428191761
 20
-137.6450005081235
 10
85.72103811876072
 20
-137.6639485332923
 10
85.72103811876072
 20
-137.6639485332923
 10
85.72103811876072
 20
-137.452419670498
 10
85.72103811876072
 20
-137.452419670498
 10
85.78856199027162
 20
-137.4586208423715
 10
86.0490112089565
 20
-137.4693006383757
 10
86.13548310563627
 20
-137.4693006383757
 10
86.13548310563627
 20
-137.4693006383757
 10
86.44657522795433
 20
-137.4693006383757
 10
86.44657522795433
 20
-137.4693006383757
 10
86.65396997616637
 20
-137.4693006383757
 10
86.67705211591755
 20
-137.4627549569538
 10
86.70047876521724
 20
-137.4586208423715
 10
86.74492049697697
 20
-137.452419670498
 10
86.78281654731471
 20
-137.4269259639072
 10
86.80417613932326
 20
-137.4100449960294
 10
86.80417613932326
 20
-137.4100449960294
 10
86.96058347435361
 20
-137.5833332989375
 10
86.96058347435361
 20
-137.5833332989375
 10
86.9206203667247
 20
-137.6108940628195
 10
86.90787351342928
 20
-137.6215738588238
 10
86.85895315753874
 20
-137.6574028518704
 10
86.73010658639039
 20
-137.9051052172598
 10
86.64983586158407
 20
-138.0553113804167
 10
86.54613848747805
 20
-138.2013834289913
 10
86.85895315753874
 20
-138.4191134636591
 10
87.08770749775933
 20
-138.7047118793863
 10
87.14041745868364
 20
-138.7829155469015
 10
87.14041745868364
 20
-138.7829155469015
 10
86.96919621306674
 20
-138.9351887673495
 10
86.96919621306674
 20
-138.9351887673495
 97
        0
 97
        0
 75
     2
 76
     1
 98
        0
  0
SPLINE
  5
F4
330
D0
100
AcDbEntity
  8
_U+30EC_U+30A4_U+30E4_U+30FC 1
370
     0
100
AcDbSpline
210
0.0
220
0.0
230
1.0
 70
    11
 71
     3
 72
    56
 73
    52
 74
     0
 42
0.0000000001
 43
0.0000000001
 12
1.0
 22
0.0
 32
0.0
 13
1.0
 23
0.0
 33
0.0
 40
0.0
 40
0.0
 40
0.0
 40
0.0
 40
1.0
 40
1.0
 40
1.0
 40
2.0
 40
2.0
 40
2.0
 40
3.0
 40
3.0
 40
3.0
 40
4.0
 40
4.0
 40
4.0
 40
5.0
 40
5.0
 40
5.0
 40
6.0
 40
6.0
 40
6.0
 40
7.0
 40
7.0
 40
7.0
 40
8.0
 40
8.0
 40
8.0
 40
9.0
 40
9.0
 40
9.0
 40
10.0
 40
10.0
 40
10.0
 40
11.0
 40
11.0
 40
11.0
 40
12.0
 40
12.0
 40
12.0
 40
13.0
 40
13.0
 40
13.0
 40
14.0
 40
14.0
 40
14.0
 40
15.0
 40
15.0
 40
15.0
 40
16.0
 40
16.0
 40
16.0
 40
17.0
 40
17.0
 40
17.0
 40
17.0
 10
88.2814330833984
 20
-138.514198099052
 30
0.0
 10
88.16740042283662
 20
-138.4001654384902
 30
0.0
 10
87.97688664250231
 20
-138.2096516581559
 30
0.0
 10
87.65545923372851
 20
-138.0763264628768
 30
0.0
 10
87.65545923372851
 20
-138.0763264628768
 30
0.0
 10
87.65545923372851
 20
-138.4277262023722
 30
0.0
 10
87.65545923372851
 20
-138.4277262023722
 30
0.0
 10
87.65545923372851
 20
-138.5524386589383
 30
0.0
 10
87.6637274628931
 20
-138.9224419140541
 30
0.0
 10
87.67854137347967
 20
-139.0306179122909
 30
0.0
 10
87.67854137347967
 20
-139.0306179122909
 30
0.0
 10
87.42257077892562
 20
-139.0306179122909
 30
0.0
 10
87.42257077892562
 20
-139.0306179122909
 30
0.0
 10
87.43738468951219
 20
-138.9248534808938
 30
0.0
 10
87.43945174680333
 20
-138.7639675217326
 30
0.0
 10
87.43945174680333
 20
-138.7195257899729
 30
0.0
 10
87.44151880409449
 20
-138.6709499436309
 30
0.0
 10
87.44806448551645
 20
-138.4573540235454
 30
0.0
 10
87.44806448551645
 20
-138.4129122917857
 30
0.0
 10
87.44806448551645
 20
-138.4129122917857
 30
0.0
 10
87.44806448551645
 20
-137.8606634855001
 30
0.0
 10
87.44806448551645
 20
-137.8606634855001
 30
0.0
 10
87.44806448551645
 20
-137.7779811938541
 30
0.0
 10
87.44151880409449
 20
-137.5516384204732
 30
0.0
 10
87.43531763222103
 20
-137.473434752958
 30
0.0
 10
87.43118351763873
 20
-137.418313225194
 30
0.0
 10
87.42463783621676
 20
-137.3804171748563
 30
0.0
 10
87.41430254976102
 20
-137.3339083858054
 30
0.0
 10
87.41430254976102
 20
-137.3339083858054
 30
0.0
 10
87.6954223413574
 20
-137.3528564109743
 30
0.0
 10
87.6954223413574
 20
-137.3528564109743
 30
0.0
 10
87.70816919465283
 20
-137.3528564109743
 30
0.0
 10
87.73572995853482
 20
-137.3569905255566
 30
0.0
 10
87.73572995853482
 20
-137.3845512894386
 30
0.0
 10
87.73572995853482
 20
-137.4059108814471
 30
0.0
 10
87.71230330923512
 20
-137.4207247920337
 30
0.0
 10
87.66579452018425
 20
-137.4479410463672
 30
0.0
 10
87.65752629101965
 20
-137.5791991843552
 30
0.0
 10
87.65545923372851
 20
-137.7104573223432
 30
0.0
 10
87.65545923372851
 20
-137.8393038934916
 30
0.0
 10
87.65545923372851
 20
-137.8393038934916
 30
0.0
 10
87.65545923372851
 20
-138.0742594055856
 30
0.0
 10
87.65545923372851
 20
-138.0742594055856
 30
0.0
 10
87.65545923372851
 20
-138.0742594055856
 30
0.0
 10
87.7546779837037
 20
-137.886157192091
 30
0.0
 10
87.7546779837037
 20
-137.886157192091
 30
0.0
 10
88.04682208085288
 20
-138.0191378778216
 30
0.0
 10
88.33035343928894
 20
-138.2330783074556
 30
0.0
 10
88.42130396009954
 20
-138.3471109680174
 30
0.0
 10
88.42130396009954
 20
-138.3471109680174
 30
0.0
 10
88.2814330833984
 20
-138.514198099052
 30
0.0
 10
88.2814330833984
 20
-138.514198099052
 30
0.0
  0
HATCH
  5
F5
330
D0
100
AcDbEntity
  8
_U+30EC_U+30A4_U+30E4_U+30FC 1
 62
   179
420
  2234388
100
AcDbHatch
 10
0.0
 20
0.0
 30
0.0
210
0.0
220
0.0
230
1.0
  2
SOLID
 70
     1
 71
     0
 91
        1
 92
        1
 93
        1
 72
     4
 94
        3
 73
     0
 74
     1
 95
       56
 96
       52
 40
0.0
 40
0.0
 40
0.0
 40
0.0
 40
1.0
 40
1.0
 40
1.0
 40
2.0
 40
2.0
 40
2.0
 40
3.0
 40
3.0
 40
3.0
 40
4.0
 40
4.0
 40
4.0
 40
5.0
 40
5.0
 40
5.0
 40
6.0
 40
6.0
 40
6.0
 40
7.0
 40
7.0
 40
7.0
 40
8.0
 40
8.0
 40
8.0
 40
9.0
 40
9.0
 40
9.0
 40
10.0
 40
10.0
 40
10.0
 40
11.0
 40
11.0
 40
11.0
 40
12.0
 40
12.0
 40
12.0
 40
13.0
 40
13.0
 40
13.0
 40
14.0
 40
14.0
 40
14.0
 40
15.0
 40
15.0
 40
15.0
 40
16.0
 40
16.0
 40
16.0
 40
17.0
 40
17.0
 40
17.0
 40
17.0
 10
88.2814330833984
 20
-138.514198099052
 10
88.16740042283662
 20
-138.4001654384902
 10
87.97688664250231
 20
-138.2096516581559
 10
87.65545923372851
 20
-138.0763264628768
 10
87.65545923372851
 20
-138.0763264628768
 10
87.65545923372851
 20
-138.4277262023722
 10
87.65545923372851
 20
-138.4277262023722
 10
87.65545923372851
 20
-138.5524386589383
 10
87.6637274628931
 20
-138.9224419140541
 10
87.67854137347967
 20
-139.0306179122909
 10
87.67854137347967
 20
-139.0306179122909
 10
87.42257077892562
 20
-139.0306179122909
 10
87.42257077892562
 20
-139.0306179122909
 10
87.43738468951219
 20
-138.9248534808938
 10
87.43945174680333
 20
-138.7639675217326
 10
87.43945174680333
 20
-138.7195257899729
 10
87.44151880409449
 20
-138.6709499436309
 10
87.44806448551645
 20
-138.4573540235454
 10
87.44806448551645
 20
-138.4129122917857
 10
87.44806448551645
 20
-138.4129122917857
 10
87.44806448551645
 20
-137.8606634855001
 10
87.44806448551645
 20
-137.8606634855001
 10
87.44806448551645
 20
-137.7779811938541
 10
87.44151880409449
 20
-137.5516384204732
 10
87.43531763222103
 20
-137.473434752958
 10
87.43118351763873
 20
-137.418313225194
 10
87.42463783621676
 20
-137.3804171748563
 10
87.41430254976102
 20
-137.3339083858054
 10
87.41430254976102
 20
-137.3339083858054
 10
87.6954223413574
 20
-137.3528564109743
 10
87.6954223413574
 20
-137.3528564109743
 10
87.70816919465283
 20
-137.3528564109743
 10
87.73572995853482
 20
-137.3569905255566
 10
87.73572995853482
 20
-137.3845512894386
 10
87.73572995853482
 20
-137.4059108814471
 10
87.71230330923512
 20
-137.4207247920337
 10
87.66579452018425
 20
-137.4479410463672
 10
87.65752629101965
 20
-137.5791991843552
 10
87.65545923372851
 20
-137.7104573223432
 10
87.65545923372851
 20
-137.8393038934916
 10
87.65545923372851
 20
-137.8393038934916
 10
87.65545923372851
 20
-138.0742594055856
 10
87.65545923372851
 20
-138.0742594055856
 10
87.65545923372851
 20
-138.0742594055856
 10
87.7546779837037
 20
-137.886157192091
 10
87.7546779837037
 20
-137.886157192091
 10
88.04682208085288
 20
-138.0191378778216
 10
88.33035343928894
 20
-138.2330783074556
 10
88.42130396009954
 20
-138.3471109680174
 10
88.42130396009954
 20
-138.3471109680174
 10
88.2814330833984
 20
-138.514198099052
 10
88.2814330833984
 20
-138.514198099052
 97
        0
 97
        0
 75
     2
 76
     1
 98
        0
  0
SPLINE
  5
F6
330
D0
100
AcDbEntity
  8
_U+30EC_U+30A4_U+30E4_U+30FC 1
370
     0
100
AcDbSpline
210
0.0
220
0.0
230
1.0
 70
    11
 71
     3
 72
    50
 73
    46
 74
     0
 42
0.0000000001
 43
0.0000000001
 12
1.0
 22
0.0
 32
0.0
 13
1.0
 23
0.0
 33
0.0
 40
0.0
 40
0.0
 40
0.0
 40
0.0
 40
1.0
 40
1.0
 40
1.0
 40
2.0
 40
2.0
 40
2.0
 40
3.0
 40
3.0
 40
3.0
 40
4.0
 40
4.0
 40
4.0
 40
5.0
 40
5.0
 40
5.0
 40
6.0
 40
6.0
 40
6.0
 40
7.0
 40
7.0
 40
7.0
 40
8.0
 40
8.0
 40
8.0
 40
9.0
 40
9.0
 40
9.0
 40
10.0
 40
10.0
 40
10.0
 40
11.0
 40
11.0
 40
11.0
 40
12.0
 40
12.0
 40
12.0
 40
13.0
 40
13.0
 40
13.0
 40
14.0
 40
14.0
 40
14.0
 40
15.0
 40
15.0
 40
15.0
 40
15.0
 10
90.0783948885047
 20
-138.1314479906408
 30
0.0
 10
89.99984671144101
 20
-138.3092149176796
 30
0.0
 10
89.8644544588707
 20
-138.5162651563432
 30
0.0
 10
89.72699514900923
 20
-138.6561360330443
 30
0.0
 10
89.55784096068346
 20
-138.8273572786612
 30
0.0
 10
89.39488794423114
 20
-138.9162407421807
 30
0.0
 10
89.07552759274849
 20
-139.0578341666244
 30
0.0
 10
89.07552759274849
 20
-139.0578341666244
 30
0.0
 10
88.90637340442272
 20
-138.8697319531298
 30
0.0
 10
88.90637340442272
 20
-138.8697319531298
 30
0.0
 10
89.09240856062621
 20
-138.8463053038301
 30
0.0
 10
89.26362980624313
 20
-138.7598334071503
 30
0.0
 10
89.4162475362397
 20
-138.6540689757531
 30
0.0
 10
89.67841930266721
 20
-138.472167934132
 30
0.0
 10
89.86893308300152
 20
-138.1590087545227
 30
0.0
 10
89.91750892934354
 20
-137.9771077129016
 30
0.0
 10
89.91750892934354
 20
-137.9771077129016
 30
0.0
 10
89.2467488383654
 20
-137.9771077129016
 30
0.0
 10
89.2467488383654
 20
-137.9771077129016
 30
0.0
 10
89.08827444604391
 20
-137.9771077129016
 30
0.0
 10
88.79613034889472
 20
-137.9853759420662
 30
0.0
 10
88.64385712844668
 20
-138.0022569099439
 30
0.0
 10
88.64385712844668
 20
-138.0022569099439
 30
0.0
 10
88.64385712844668
 20
-137.7738470792718
 30
0.0
 10
88.64385712844668
 20
-137.7738470792718
 30
0.0
 10
88.67796357375065
 20
-137.7803927606938
 30
0.0
 10
88.70311277079297
 20
-137.7865939325673
 30
0.0
 10
88.75616724126583
 20
-137.7907280471495
 30
0.0
 10
88.85745304853216
 20
-137.7972737285715
 30
0.0
 10
89.05451251028846
 20
-137.7993407858627
 30
0.0
 10
89.13891734967709
 20
-137.7993407858627
 30
0.0
 10
89.13891734967709
 20
-137.7993407858627
 30
0.0
 10
89.64465736691176
 20
-137.7993407858627
 30
0.0
 10
89.64465736691176
 20
-137.7993407858627
 30
0.0
 10
89.71218123842266
 20
-137.7993407858627
 30
0.0
 10
89.85825328699724
 20
-137.7952066712804
 30
0.0
 10
89.9195759866347
 20
-137.7886609898584
 30
0.0
 10
89.99157848227641
 20
-137.7803927606938
 30
0.0
 10
90.01913924615842
 20
-137.7655788501072
 30
0.0
 10
90.05290118191387
 20
-137.7421522008075
 30
0.0
 10
90.05290118191387
 20
-137.7421522008075
 30
0.0
 10
90.21792125565733
 20
-137.9092393318421
 30
0.0
 10
90.21792125565733
 20
-137.9092393318421
 30
0.0
 10
90.14798581730676
 20
-137.9771077129016
 30
0.0
 10
90.10147702825589
 20
-138.0808050870076
 30
0.0
 10
90.0783948885047
 20
-138.1314479906408
 30
0.0
  0
SPLINE
  5
F7
330
D0
100
AcDbEntity
  8
_U+30EC_U+30A4_U+30E4_U+30FC 1
370
     0
100
AcDbSpline
210
0.0
220
0.0
230
1.0
 70
    11
 71
     3
 72
    29
 73
    25
 74
     0
 42
0.0000000001
 43
0.0000000001
 12
1.0
 22
0.0
 32
0.0
 13
1.0
 23
0.0
 33
0.0
 40
0.0
 40
0.0
 40
0.0
 40
0.0
 40
1.0
 40
1.0
 40
1.0
 40
2.0
 40
2.0
 40
2.0
 40
3.0
 40
3.0
 40
3.0
 40
4.0
 40
4.0
 40
4.0
 40
5.0
 40
5.0
 40
5.0
 40
6.0
 40
6.0
 40
6.0
 40
7.0
 40
7.0
 40
7.0
 40
8.0
 40
8.0
 40
8.0
 40
8.0
 10
89.58540172456546
 20
-137.5051296314223
 30
0.0
 10
89.58540172456546
 20
-137.5051296314223
 30
0.0
 10
89.24468178107425
 20
-137.5051296314223
 30
0.0
 10
89.24468178107425
 20
-137.5051296314223
 30
0.0
 10
89.13064912051249
 20
-137.5051296314223
 30
0.0
 10
89.01420489311104
 20
-137.5096082555532
 30
0.0
 10
88.89982772300074
 20
-137.5244221661397
 30
0.0
 10
88.89982772300074
 20
-137.5244221661397
 30
0.0
 10
88.89982772300074
 20
-137.3149603606365
 30
0.0
 10
88.89982772300074
 20
-137.3149603606365
 30
0.0
 10
89.01833900769334
 20
-137.3297742712231
 30
0.0
 10
89.19197182014993
 20
-137.3339083858054
 30
0.0
 10
89.24468178107425
 20
-137.3339083858054
 30
0.0
 10
89.24468178107425
 20
-137.3339083858054
 30
0.0
 10
89.58540172456546
 20
-137.3339083858054
 30
0.0
 10
89.58540172456546
 20
-137.3339083858054
 30
0.0
 10
89.7018459519669
 20
-137.3339083858054
 30
0.0
 10
89.81794566981982
 20
-137.3297742712231
 30
0.0
 10
89.93438989722127
 20
-137.3149603606365
 30
0.0
 10
89.93438989722127
 20
-137.3149603606365
 30
0.0
 10
89.93438989722127
 20
-137.5244221661397
 30
0.0
 10
89.93438989722127
 20
-137.5244221661397
 30
0.0
 10
89.78418373406437
 20
-137.5051296314223
 30
0.0
 10
89.60021563515204
 20
-137.5051296314223
 30
0.0
 10
89.58540172456546
 20
-137.5051296314223
 30
0.0
  0
HATCH
  5
F8
330
D0
100
AcDbEntity
  8
_U+30EC_U+30A4_U+30E4_U+30FC 1
 62
   179
420
  2234388
100
AcDbHatch
 10
0.0
 20
0.0
 30
0.0
210
0.0
220
0.0
230
1.0
  2
SOLID
 70
     1
 71
     0
 91
        2
 92
        1
 93
        1
 72
     4
 94
        3
 73
     0
 74
     1
 95
       50
 96
       46
 40
0.0
 40
0.0
 40
0.0
 40
0.0
 40
1.0
 40
1.0
 40
1.0
 40
2.0
 40
2.0
 40
2.0
 40
3.0
 40
3.0
 40
3.0
 40
4.0
 40
4.0
 40
4.0
 40
5.0
 40
5.0
 40
5.0
 40
6.0
 40
6.0
 40
6.0
 40
7.0
 40
7.0
 40
7.0
 40
8.0
 40
8.0
 40
8.0
 40
9.0
 40
9.0
 40
9.0
 40
10.0
 40
10.0
 40
10.0
 40
11.0
 40
11.0
 40
11.0
 40
12.0
 40
12.0
 40
12.0
 40
13.0
 40
13.0
 40
13.0
 40
14.0
 40
14.0
 40
14.0
 40
15.0
 40
15.0
 40
15.0
 40
15.0
 10
90.0783948885047
 20
-138.1314479906408
 10
89.99984671144101
 20
-138.3092149176796
 10
89.8644544588707
 20
-138.5162651563432
 10
89.72699514900923
 20
-138.6561360330443
 10
89.55784096068346
 20
-138.8273572786612
 10
89.39488794423114
 20
-138.9162407421807
 10
89.07552759274849
 20
-139.0578341666244
 10
89.07552759274849
 20
-139.0578341666244
 10
88.90637340442272
 20
-138.8697319531298
 10
88.90637340442272
 20
-138.8697319531298
 10
89.09240856062621
 20
-138.8463053038301
 10
89.26362980624313
 20
-138.7598334071503
 10
89.4162475362397
 20
-138.6540689757531
 10
89.67841930266721
 20
-138.472167934132
 10
89.86893308300152
 20
-138.1590087545227
 10
89.91750892934354
 20
-137.9771077129016
 10
89.91750892934354
 20
-137.9771077129016
 10
89.2467488383654
 20
-137.9771077129016
 10
89.2467488383654
 20
-137.9771077129016
 10
89.08827444604391
 20
-137.9771077129016
 10
88.79613034889472
 20
-137.9853759420662
 10
88.64385712844668
 20
-138.0022569099439
 10
88.64385712844668
 20
-138.0022569099439
 10
88.64385712844668
 20
-137.7738470792718
 10
88.64385712844668
 20
-137.7738470792718
 10
88.67796357375065
 20
-137.7803927606938
 10
88.70311277079297
 20
-137.7865939325673
 10
88.75616724126583
 20
-137.7907280471495
 10
88.85745304853216
 20
-137.7972737285715
 10
89.05451251028846
 20
-137.7993407858627
 10
89.13891734967709
 20
-137.7993407858627
 10
89.13891734967709
 20
-137.7993407858627
 10
89.64465736691176
 20
-137.7993407858627
 10
89.64465736691176
 20
-137.7993407858627
 10
89.71218123842266
 20
-137.7993407858627
 10
89.85825328699724
 20
-137.7952066712804
 10
89.9195759866347
 20
-137.7886609898584
 10
89.99157848227641
 20
-137.7803927606938
 10
90.01913924615842
 20
-137.7655788501072
 10
90.05290118191387
 20
-137.7421522008075
 10
90.05290118191387
 20
-137.7421522008075
 10
90.21792125565733
 20
-137.9092393318421
 10
90.21792125565733
 20
-137.9092393318421
 10
90.14798581730676
 20
-137.9771077129016
 10
90.10147702825589
 20
-138.0808050870076
 10
90.0783948885047
 20
-138.1314479906408
 97
        0
 97
        0
 92
        1
 93
        1
 72
     4
 94
        3
 73
     0
 74
     1
 95
       29
 96
       25
 40
0.0
 40
0.0
 40
0.0
 40
0.0
 40
1.0
 40
1.0
 40
1.0
 40
2.0
 40
2.0
 40
2.0
 40
3.0
 40
3.0
 40
3.0
 40
4.0
 40
4.0
 40
4.0
 40
5.0
 40
5.0
 40
5.0
 40
6.0
 40
6.0
 40
6.0
 40
7.0
 40
7.0
 40
7.0
 40
8.0
 40
8.0
 40
8.0
 40
8.0
 10
89.58540172456546
 20
-137.5051296314223
 10
89.58540172456546
 20
-137.5051296314223
 10
89.24468178107425
 20
-137.5051296314223
 10
89.24468178107425
 20
-137.5051296314223
 10
89.13064912051249
 20
-137.5051296314223
 10
89.01420489311104
 20
-137.5096082555532
 10
88.89982772300074
 20
-137.5244221661397
 10
88.89982772300074
 20
-137.5244221661397
 10
88.89982772300074
 20
-137.3149603606365
 10
88.89982772300074
 20
-137.3149603606365
 10
89.01833900769334
 20
-137.3297742712231
 10
89.19197182014993
 20
-137.3339083858054
 10
89.24468178107425
 20
-137.3339083858054
 10
89.24468178107425
 20
-137.3339083858054
 10
89.58540172456546
 20
-137.3339083858054
 10
89.58540172456546
 20
-137.3339083858054
 10
89.7018459519669
 20
-137.3339083858054
 10
89.81794566981982
 20
-137.3297742712231
 10
89.93438989722127
 20
-137.3149603606365
 10
89.93438989722127
 20
-137.3149603606365
 10
89.93438989722127
 20
-137.5244221661397
 10
89.93438989722127
 20
-137.5244221661397
 10
89.78418373406437
 20
-137.5051296314223
 10
89.60021563515204
 20
-137.5051296314223
 10
89.58540172456546
 20
-137.5051296314223
 97
        0
 97
        0
 75
     2
 76
     1
 98
        0
  0
SPLINE
  5
F9
330
D0
100
AcDbEntity
  8
_U+30EC_U+30A4_U+30E4_U+30FC 1
370
     0
100
AcDbSpline
210
0.0
220
0.0
230
1.0
 70
    11
 71
     3
 72
    50
 73
    46
 74
     0
 42
0.0000000001
 43
0.0000000001
 12
1.0
 22
0.0
 32
0.0
 13
1.0
 23
0.0
 33
0.0
 40
0.0
 40
0.0
 40
0.0
 40
0.0
 40
1.0
 40
1.0
 40
1.0
 40
2.0
 40
2.0
 40
2.0
 40
3.0
 40
3.0
 40
3.0
 40
4.0
 40
4.0
 40
4.0
 40
5.0
 40
5.0
 40
5.0
 40
6.0
 40
6.0
 40
6.0
 40
7.0
 40
7.0
 40
7.0
 40
8.0
 40
8.0
 40
8.0
 40
9.0
 40
9.0
 40
9.0
 40
10.0
 40
10.0
 40
10.0
 40
11.0
 40
11.0
 40
11.0
 40
12.0
 40
12.0
 40
12.0
 40
13.0
 40
13.0
 40
13.0
 40
14.0
 40
14.0
 40
14.0
 40
15.0
 40
15.0
 40
15.0
 40
15.0
 10
91.78836803260847
 20
-137.4903157208358
 30
0.0
 10
91.57890622710528
 20
-137.7039116409213
 30
0.0
 10
91.50724824101208
 20
-137.775914136563
 30
0.0
 10
91.36548256179405
 20
-137.8944254212556
 30
0.0
 10
91.36548256179405
 20
-137.8944254212556
 30
0.0
 10
91.36548256179405
 20
-138.4614881381277
 30
0.0
 10
91.36548256179405
 20
-138.4614881381277
 30
0.0
 10
91.36548256179405
 20
-138.6116943012846
 30
0.0
 10
91.37220049799029
 20
-138.6306423264535
 30
0.0
 10
91.37633461257259
 20
-138.8084092534924
 30
0.0
 10
91.37840166986373
 20
-138.9396673914804
 30
0.0
 10
91.38460284173719
 20
-138.9882432378224
 30
0.0
 10
91.39080401361063
 20
-139.0474988801687
 30
0.0
 10
91.39080401361063
 20
-139.0474988801687
 30
0.0
 10
91.16463349500398
 20
-139.0474988801687
 30
0.0
 10
91.16463349500398
 20
-139.0474988801687
 30
0.0
 10
91.16876760958628
 20
-139.003057148409
 30
0.0
 10
91.17290172416858
 20
-138.9565483593581
 30
0.0
 10
91.17290172416858
 20
-138.947935620645
 30
0.0
 10
91.17290172416858
 20
-138.8676648958387
 30
0.0
 10
91.17738034829941
 20
-138.5162651563432
 30
0.0
 10
91.17738034829941
 20
-138.44460717025
 30
0.0
 10
91.17738034829941
 20
-138.44460717025
 30
0.0
 10
91.17738034829941
 20
-138.038430412539
 30
0.0
 10
91.17738034829941
 20
-138.038430412539
 30
0.0
 10
90.99547930667822
 20
-138.1631428691051
 30
0.0
 10
90.8008314117616
 20
-138.2730414150845
 30
0.0
 10
90.59757077813187
 20
-138.3598578213128
 30
0.0
 10
90.59757077813187
 20
-138.3598578213128
 30
0.0
 10
90.39465465405064
 20
-138.1969048048605
 30
0.0
 10
90.39465465405064
 20
-138.1969048048605
 30
0.0
 10
90.51730005332554
 20
-138.1610758118139
 30
0.0
 10
90.7732706478796
 20
-138.087006258881
 30
0.0
 10
91.11812470595311
 20
-137.831035664327
 30
0.0
 10
91.33378768332975
 20
-137.6722167624569
 30
0.0
 10
91.52654077572949
 20
-137.4841145489623
 30
0.0
 10
91.67881399617752
 20
-137.2639729474548
 30
0.0
 10
91.67881399617752
 20
-137.2639729474548
 30
0.0
 10
91.87105032425447
 20
-137.4079779387383
 30
0.0
 10
91.87105032425447
 20
-137.4079779387383
 30
0.0
 10
91.8841416870984
 20
-137.418313225194
 30
0.0
 10
91.89240991626302
 20
-137.4331271357806
 30
0.0
 10
91.89240991626302
 20
-137.445873989076
 30
0.0
 10
91.89240991626302
 20
-137.4861816062535
 30
0.0
 10
91.85451386592527
 20
-137.4861816062535
 30
0.0
 10
91.78836803260847
 20
-137.4903157208358
 30
0.0
  0
HATCH
  5
FA
330
D0
100
AcDbEntity
  8
_U+30EC_U+30A4_U+30E4_U+30FC 1
 62
   179
420
  2234388
100
AcDbHatch
 10
0.0
 20
0.0
 30
0.0
210
0.0
220
0.0
230
1.0
  2
SOLID
 70
     1
 71
     0
 91
        1
 92
        1
 93
        1
 72
     4
 94
        3
 73
     0
 74
     1
 95
       50
 96
       46
 40
0.0
 40
0.0
 40
0.0
 40
0.0
 40
1.0
 40
1.0
 40
1.0
 40
2.0
 40
2.0
 40
2.0
 40
3.0
 40
3.0
 40
3.0
 40
4.0
 40
4.0
 40
4.0
 40
5.0
 40
5.0
 40
5.0
 40
6.0
 40
6.0
 40
6.0
 40
7.0
 40
7.0
 40
7.0
 40
8.0
 40
8.0
 40
8.0
 40
9.0
 40
9.0
 40
9.0
 40
10.0
 40
10.0
 40
10.0
 40
11.0
 40
11.0
 40
11.0
 40
12.0
 40
12.0
 40
12.0
 40
13.0
 40
13.0
 40
13.0
 40
14.0
 40
14.0
 40
14.0
 40
15.0
 40
15.0
 40
15.0
 40
15.0
 10
91.78836803260847
 20
-137.4903157208358
 10
91.57890622710528
 20
-137.7039116409213
 10
91.50724824101208
 20
-137.775914136563
 10
91.36548256179405
 20
-137.8944254212556
 10
91.36548256179405
 20
-137.8944254212556
 10
91.36548256179405
 20
-138.4614881381277
 10
91.36548256179405
 20
-138.4614881381277
 10
91.36548256179405
 20
-138.6116943012846
 10
91.37220049799029
 20
-138.6306423264535
 10
91.37633461257259
 20
-138.8084092534924
 10
91.37840166986373
 20
-138.9396673914804
 10
91.38460284173719
 20
-138.9882432378224
 10
91.39080401361063
 20
-139.0474988801687
 10
91.39080401361063
 20
-139.0474988801687
 10
91.16463349500398
 20
-139.0474988801687
 10
91.16463349500398
 20
-139.0474988801687
 10
91.16876760958628
 20
-139.003057148409
 10
91.17290172416858
 20
-138.9565483593581
 10
91.17290172416858
 20
-138.947935620645
 10
91.17290172416858
 20
-138.8676648958387
 10
91.17738034829941
 20
-138.5162651563432
 10
91.17738034829941
 20
-138.44460717025
 10
91.17738034829941
 20
-138.44460717025
 10
91.17738034829941
 20
-138.038430412539
 10
91.17738034829941
 20
-138.038430412539
 10
90.99547930667822
 20
-138.1631428691051
 10
90.8008314117616
 20
-138.2730414150845
 10
90.59757077813187
 20
-138.3598578213128
 10
90.59757077813187
 20
-138.3598578213128
 10
90.39465465405064
 20
-138.1969048048605
 10
90.39465465405064
 20
-138.1969048048605
 10
90.51730005332554
 20
-138.1610758118139
 10
90.7732706478796
 20
-138.087006258881
 10
91.11812470595311
 20
-137.831035664327
 10
91.33378768332975
 20
-137.6722167624569
 10
91.52654077572949
 20
-137.4841145489623
 10
91.67881399617752
 20
-137.2639729474548
 10
91.67881399617752
 20
-137.2639729474548
 10
91.87105032425447
 20
-137.4079779387383
 10
91.87105032425447
 20
-137.4079779387383
 10
91.8841416870984
 20
-137.418313225194
 10
91.89240991626302
 20
-137.4331271357806
 10
91.89240991626302
 20
-137.445873989076
 10
91.89240991626302
 20
-137.4861816062535
 10
91.85451386592527
 20
-137.4861816062535
 10
91.78836803260847
 20
-137.4903157208358
 97
        0
 97
        0
 75
     2
 76
     1
 98
        0
  0
SPLINE
  5
FB
330
D0
100
AcDbEntity
  8
_U+30EC_U+30A4_U+30E4_U+30FC 1
370
     0
100
AcDbSpline
210
0.0
220
0.0
230
1.0
 70
    11
 71
     3
 72
    44
 73
    40
 74
     0
 42
0.0000000001
 43
0.0000000001
 12
1.0
 22
0.0
 32
0.0
 13
1.0
 23
0.0
 33
0.0
 40
0.0
 40
0.0
 40
0.0
 40
0.0
 40
1.0
 40
1.0
 40
1.0
 40
2.0
 40
2.0
 40
2.0
 40
3.0
 40
3.0
 40
3.0
 40
4.0
 40
4.0
 40
4.0
 40
5.0
 40
5.0
 40
5.0
 40
6.0
 40
6.0
 40
6.0
 40
7.0
 40
7.0
 40
7.0
 40
8.0
 40
8.0
 40
8.0
 40
9.0
 40
9.0
 40
9.0
 40
10.0
 40
10.0
 40
10.0
 40
11.0
 40
11.0
 40
11.0
 40
12.0
 40
12.0
 40
12.0
 40
13.0
 40
13.0
 40
13.0
 40
13.0
 10
93.53020830995078
 20
-137.8224229256138
 30
0.0
 10
93.41858721622869
 20
-138.1907036329871
 30
0.0
 10
93.367599803047
 20
-138.3491780253085
 30
0.0
 10
93.17122936038776
 20
-138.5989474479892
 30
0.0
 10
92.98657224237836
 20
-138.8294243359524
 30
0.0
 10
92.75023869209022
 20
-139.0158040017044
 30
0.0
 10
92.47049693868793
 20
-139.1088215798061
 30
0.0
 10
92.47049693868793
 20
-139.1088215798061
 30
0.0
 10
92.278260610611
 20
-138.9289875954761
 30
0.0
 10
92.278260610611
 20
-138.9289875954761
 30
0.0
 10
92.91904837086746
 20
-138.7767143750281
 30
0.0
 10
93.2490885183544
 20
-138.2203314541602
 30
0.0
 10
93.312478275283
 20
-137.7803927606938
 30
0.0
 10
93.312478275283
 20
-137.7803927606938
 30
0.0
 10
92.54697805846048
 20
-137.7803927606938
 30
0.0
 10
92.54697805846048
 20
-137.7803927606938
 30
0.0
 10
92.45396048035873
 20
-137.7803927606938
 30
0.0
 10
92.2699923814464
 20
-137.7845268752761
 30
0.0
 10
92.112896027319
 20
-137.803474900445
 30
0.0
 10
92.112896027319
 20
-137.803474900445
 30
0.0
 10
92.112896027319
 20
-137.5833332989375
 30
0.0
 10
92.112896027319
 20
-137.5833332989375
 30
0.0
 10
92.1997124335473
 20
-137.6046928909461
 30
0.0
 10
92.45189342306759
 20
-137.6046928909461
 30
0.0
 10
92.55111217304278
 20
-137.6046928909461
 30
0.0
 10
92.55111217304278
 20
-137.6046928909461
 30
0.0
 10
92.98243812779606
 20
-137.6046928909461
 30
0.0
 10
92.98243812779606
 20
-137.6046928909461
 30
0.0
 10
93.02515731181316
 20
-137.6046928909461
 30
0.0
 10
93.25942380481015
 20
-137.6026258336549
 30
0.0
 10
93.29800887424494
 20
-137.5960801522329
 30
0.0
 10
93.34003903916499
 20
-137.5898789803595
 30
0.0
 10
93.34210609645615
 20
-137.5878119230683
 30
0.0
 10
93.40342879609359
 20
-137.5475043058909
 30
0.0
 10
93.40342879609359
 20
-137.5475043058909
 30
0.0
 10
93.59153100958824
 20
-137.7018445836301
 30
0.0
 10
93.59153100958824
 20
-137.7018445836301
 30
0.0
 10
93.56259220751214
 20
-137.7314724048032
 30
0.0
 10
93.54743378737703
 20
-137.7631672832675
 30
0.0
 10
93.53020830995078
 20
-137.8224229256138
 30
0.0
  0
SPLINE
  5
FC
330
D0
100
AcDbEntity
  8
_U+30EC_U+30A4_U+30E4_U+30FC 1
370
     0
100
AcDbSpline
210
0.0
220
0.0
230
1.0
 70
    11
 71
     3
 72
    17
 73
    13
 74
     0
 42
0.0000000001
 43
0.0000000001
 12
1.0
 22
0.0
 32
0.0
 13
1.0
 23
0.0
 33
0.0
 40
0.0
 40
0.0
 40
0.0
 40
0.0
 40
1.0
 40
1.0
 40
1.0
 40
2.0
 40
2.0
 40
2.0
 40
3.0
 40
3.0
 40
3.0
 40
4.0
 40
4.0
 40
4.0
 40
4.0
 10
93.73967011545398
 20
-137.6236409161149
 30
0.0
 10
93.61289060159679
 20
-137.6236409161149
 30
0.0
 10
93.51160479433044
 20
-137.5220105993
 30
0.0
 10
93.51160479433044
 20
-137.3952310854429
 30
0.0
 10
93.51160479433044
 20
-137.2684515715857
 30
0.0
 10
93.61289060159679
 20
-137.1647541974797
 30
0.0
 10
93.73967011545398
 20
-137.1647541974797
 30
0.0
 10
93.86713864840821
 20
-137.1647541974797
 30
0.0
 10
93.97049151296571
 20
-137.2684515715857
 30
0.0
 10
93.97049151296571
 20
-137.3952310854429
 30
0.0
 10
93.97049151296571
 20
-137.5220105993
 30
0.0
 10
93.86713864840821
 20
-137.6236409161149
 30
0.0
 10
93.73967011545398
 20
-137.6236409161149
 30
0.0
  0
SPLINE
  5
FD
330
D0
100
AcDbEntity
  8
_U+30EC_U+30A4_U+30E4_U+30FC 1
370
     0
100
AcDbSpline
210
0.0
220
0.0
230
1.0
 70
    11
 71
     3
 72
    17
 73
    13
 74
     0
 42
0.0000000001
 43
0.0000000001
 12
1.0
 22
0.0
 32
0.0
 13
1.0
 23
0.0
 33
0.0
 40
0.0
 40
0.0
 40
0.0
 40
0.0
 40
1.0
 40
1.0
 40
1.0
 40
2.0
 40
2.0
 40
2.0
 40
3.0
 40
3.0
 40
3.0
 40
4.0
 40
4.0
 40
4.0
 40
4.0
 10
93.73760305816283
 20
-137.293600768628
 30
0.0
 10
93.68317054949588
 20
-137.293600768628
 30
0.0
 10
93.63838430818763
 20
-137.3380425003877
 30
0.0
 10
93.63838430818763
 20
-137.3931640281517
 30
0.0
 10
93.63838430818763
 20
-137.4503526132069
 30
0.0
 10
93.68317054949588
 20
-137.4989284595489
 30
0.0
 10
93.74173717274513
 20
-137.4989284595489
 30
0.0
 10
93.80099281509142
 20
-137.4989284595489
 30
0.0
 10
93.84164494181736
 20
-137.4479410463672
 30
0.0
 10
93.84164494181736
 20
-137.3952310854429
 30
0.0
 10
93.84164494181736
 20
-137.3380425003877
 30
0.0
 10
93.79479164321798
 20
-137.293600768628
 30
0.0
 10
93.73760305816283
 20
-137.293600768628
 30
0.0
  0
HATCH
  5
FE
330
D0
100
AcDbEntity
  8
_U+30EC_U+30A4_U+30E4_U+30FC 1
 62
   179
420
  2234388
100
AcDbHatch
 10
0.0
 20
0.0
 30
0.0
210
0.0
220
0.0
230
1.0
  2
SOLID
 70
     1
 71
     0
 91
        3
 92
        1
 93
        1
 72
     4
 94
        3
 73
     0
 74
     1
 95
       44
 96
       40
 40
0.0
 40
0.0
 40
0.0
 40
0.0
 40
1.0
 40
1.0
 40
1.0
 40
2.0
 40
2.0
 40
2.0
 40
3.0
 40
3.0
 40
3.0
 40
4.0
 40
4.0
 40
4.0
 40
5.0
 40
5.0
 40
5.0
 40
6.0
 40
6.0
 40
6.0
 40
7.0
 40
7.0
 40
7.0
 40
8.0
 40
8.0
 40
8.0
 40
9.0
 40
9.0
 40
9.0
 40
10.0
 40
10.0
 40
10.0
 40
11.0
 40
11.0
 40
11.0
 40
12.0
 40
12.0
 40
12.0
 40
13.0
 40
13.0
 40
13.0
 40
13.0
 10
93.53020830995078
 20
-137.8224229256138
 10
93.41858721622869
 20
-138.1907036329871
 10
93.367599803047
 20
-138.3491780253085
 10
93.17122936038776
 20
-138.5989474479892
 10
92.98657224237836
 20
-138.8294243359524
 10
92.75023869209022
 20
-139.0158040017044
 10
92.47049693868793
 20
-139.1088215798061
 10
92.47049693868793
 20
-139.1088215798061
 10
92.278260610611
 20
-138.9289875954761
 10
92.278260610611
 20
-138.9289875954761
 10
92.91904837086746
 20
-138.7767143750281
 10
93.2490885183544
 20
-138.2203314541602
 10
93.312478275283
 20
-137.7803927606938
 10
93.312478275283
 20
-137.7803927606938
 10
92.54697805846048
 20
-137.7803927606938
 10
92.54697805846048
 20
-137.7803927606938
 10
92.45396048035873
 20
-137.7803927606938
 10
92.2699923814464
 20
-137.7845268752761
 10
92.112896027319
 20
-137.803474900445
 10
92.112896027319
 20
-137.803474900445
 10
92.112896027319
 20
-137.5833332989375
 10
92.112896027319
 20
-137.5833332989375
 10
92.1997124335473
 20
-137.6046928909461
 10
92.45189342306759
 20
-137.6046928909461
 10
92.55111217304278
 20
-137.6046928909461
 10
92.55111217304278
 20
-137.6046928909461
 10
92.98243812779606
 20
-137.6046928909461
 10
92.98243812779606
 20
-137.6046928909461
 10
93.02515731181316
 20
-137.6046928909461
 10
93.25942380481015
 20
-137.6026258336549
 10
93.29800887424494
 20
-137.5960801522329
 10
93.34003903916499
 20
-137.5898789803595
 10
93.34210609645615
 20
-137.5878119230683
 10
93.40342879609359
 20
-137.5475043058909
 10
93.40342879609359
 20
-137.5475043058909
 10
93.59153100958824
 20
-137.7018445836301
 10
93.59153100958824
 20
-137.7018445836301
 10
93.56259220751214
 20
-137.7314724048032
 10
93.54743378737703
 20
-137.7631672832675
 10
93.53020830995078
 20
-137.8224229256138
 97
        0
 97
        0
 92
        1
 93
        1
 72
     4
 94
        3
 73
     0
 74
     1
 95
       17
 96
       13
 40
0.0
 40
0.0
 40
0.0
 40
0.0
 40
1.0
 40
1.0
 40
1.0
 40
2.0
 40
2.0
 40
2.0
 40
3.0
 40
3.0
 40
3.0
 40
4.0
 40
4.0
 40
4.0
 40
4.0
 10
93.73967011545398
 20
-137.6236409161149
 10
93.61289060159679
 20
-137.6236409161149
 10
93.51160479433044
 20
-137.5220105993
 10
93.51160479433044
 20
-137.3952310854429
 10
93.51160479433044
 20
-137.2684515715857
 10
93.61289060159679
 20
-137.1647541974797
 10
93.73967011545398
 20
-137.1647541974797
 10
93.86713864840821
 20
-137.1647541974797
 10
93.97049151296571
 20
-137.2684515715857
 10
93.97049151296571
 20
-137.3952310854429
 10
93.97049151296571
 20
-137.5220105993
 10
93.86713864840821
 20
-137.6236409161149
 10
93.73967011545398
 20
-137.6236409161149
 97
        0
 97
        0
 92
        1
 93
        1
 72
     4
 94
        3
 73
     0
 74
     1
 95
       17
 96
       13
 40
0.0
 40
0.0
 40
0.0
 40
0.0
 40
1.0
 40
1.0
 40
1.0
 40
2.0
 40
2.0
 40
2.0
 40
3.0
 40
3.0
 40
3.0
 40
4.0
 40
4.0
 40
4.0
 40
4.0
 10
93.73760305816283
 20
-137.293600768628
 10
93.68317054949588
 20
-137.293600768628
 10
93.63838430818763
 20
-137.3380425003877
 10
93.63838430818763
 20
-137.3931640281517
 10
93.63838430818763
 20
-137.4503526132069
 10
93.68317054949588
 20
-137.4989284595489
 10
93.74173717274513
 20
-137.4989284595489
 10
93.80099281509142
 20
-137.4989284595489
 10
93.84164494181736
 20
-137.4479410463672
 10
93.84164494181736
 20
-137.3952310854429
 10
93.84164494181736
 20
-137.3380425003877
 10
93.79479164321798
 20
-137.293600768628
 10
93.73760305816283
 20
-137.293600768628
 97
        0
 97
        0
 75
     2
 76
     1
 98
        0
  0
SPLINE
  5
FF
330
D0
100
AcDbEntity
  8
_U+30EC_U+30A4_U+30E4_U+30FC 1
370
     0
100
AcDbSpline
210
0.0
220
0.0
230
1.0
 70
    11
 71
     3
 72
    53
 73
    49
 74
     0
 42
0.0000000001
 43
0.0000000001
 12
1.0
 22
0.0
 32
0.0
 13
1.0
 23
0.0
 33
0.0
 40
0.0
 40
0.0
 40
0.0
 40
0.0
 40
1.0
 40
1.0
 40
1.0
 40
2.0
 40
2.0
 40
2.0
 40
3.0
 40
3.0
 40
3.0
 40
4.0
 40
4.0
 40
4.0
 40
5.0
 40
5.0
 40
5.0
 40
6.0
 40
6.0
 40
6.0
 40
7.0
 40
7.0
 40
7.0
 40
8.0
 40
8.0
 40
8.0
 40
9.0
 40
9.0
 40
9.0
 40
10.0
 40
10.0
 40
10.0
 40
11.0
 40
11.0
 40
11.0
 40
12.0
 40
12.0
 40
12.0
 40
13.0
 40
13.0
 40
13.0
 40
14.0
 40
14.0
 40
14.0
 40
15.0
 40
15.0
 40
15.0
 40
16.0
 40
16.0
 40
16.0
 40
16.0
 10
94.70567488951804
 20
-137.3866183467297
 30
0.0
 10
94.63815101800714
 20
-137.5392360767263
 30
0.0
 10
94.59612085308709
 20
-137.6174397442415
 30
0.0
 10
94.55753578365228
 20
-137.6849636157524
 30
0.0
 10
94.60025496766939
 20
-137.7063232077609
 30
0.0
 10
94.60438908225169
 20
-137.7083902650521
 30
0.0
 10
94.60438908225169
 20
-137.7232041756386
 30
0.0
 10
94.60438908225169
 20
-137.7359510289341
 30
0.0
 10
94.57062714649624
 20
-137.7697129646895
 30
0.0
 10
94.55960284094344
 20
-137.7779811938541
 30
0.0
 10
94.55753578365228
 20
-137.9746961460619
 30
0.0
 10
94.55753578365228
 20
-137.9960557380704
 30
0.0
 10
94.55753578365228
 20
-138.1293809333496
 30
0.0
 10
94.55546872636114
 20
-138.142127786645
 30
0.0
 10
94.55546872636114
 20
-138.1569416972316
 30
0.0
 10
94.55546872636114
 20
-138.1717556078182
 30
0.0
 10
94.55546872636114
 20
-138.1717556078182
 30
0.0
 10
94.55546872636114
 20
-138.7067789366775
 30
0.0
 10
94.55546872636114
 20
-138.7067789366775
 30
0.0
 10
94.55546872636114
 20
-138.7787814323192
 30
0.0
 10
94.55960284094344
 20
-139.0137369444132
 30
0.0
 10
94.56856008920509
 20
-139.1236354903927
 30
0.0
 10
94.56856008920509
 20
-139.1236354903927
 30
0.0
 10
94.32533634794645
 20
-139.1236354903927
 30
0.0
 10
94.32533634794645
 20
-139.1236354903927
 30
0.0
 10
94.3480739781491
 20
-138.9648165885227
 30
0.0
 10
94.3549641691196
 20
-138.7236599045552
 30
0.0
 10
94.3549641691196
 20
-138.7026448220952
 30
0.0
 10
94.3549641691196
 20
-138.7026448220952
 30
0.0
 10
94.3549641691196
 20
-137.9853759420662
 30
0.0
 10
94.3549641691196
 20
-137.9853759420662
 30
0.0
 10
94.264013648309
 20
-138.0997531121764
 30
0.0
 10
94.20269094867156
 20
-138.1590087545227
 30
0.0
 10
94.15997176465446
 20
-138.2013834289913
 30
0.0
 10
94.15997176465446
 20
-138.2013834289913
 30
0.0
 10
93.96980249386867
 20
-138.0635796095813
 30
0.0
 10
93.96980249386867
 20
-138.0635796095813
 30
0.0
 10
94.25092228546505
 20
-137.8479166322047
 30
0.0
 10
94.44384763263905
 20
-137.5392360767263
 30
0.0
 10
94.55546872636114
 20
-137.2026502478174
 30
0.0
 10
94.55546872636114
 20
-137.2026502478174
 30
0.0
 10
94.77595483741713
 20
-137.3170274179277
 30
0.0
 10
94.77595483741713
 20
-137.3170274179277
 30
0.0
 10
94.78835718116403
 20
-137.3232285898011
 30
0.0
 10
94.79662541032863
 20
-137.3273627043834
 30
0.0
 10
94.79662541032863
 20
-137.34217661497
 30
0.0
 10
94.79662541032863
 20
-137.3676703215609
 30
0.0
 10
94.78008895199943
 20
-137.3718044361432
 30
0.0
 10
94.70567488951804
 20
-137.3866183467297
 30
0.0
  0
SPLINE
  5
100
330
D0
100
AcDbEntity
  8
_U+30EC_U+30A4_U+30E4_U+30FC 1
370
     0
100
AcDbSpline
210
0.0
220
0.0
230
1.0
 70
    11
 71
     3
 72
    77
 73
    73
 74
     0
 42
0.0000000001
 43
0.0000000001
 12
1.0
 22
0.0
 32
0.0
 13
1.0
 23
0.0
 33
0.0
 40
0.0
 40
0.0
 40
0.0
 40
0.0
 40
1.0
 40
1.0
 40
1.0
 40
2.0
 40
2.0
 40
2.0
 40
3.0
 40
3.0
 40
3.0
 40
4.0
 40
4.0
 40
4.0
 40
5.0
 40
5.0
 40
5.0
 40
6.0
 40
6.0
 40
6.0
 40
7.0
 40
7.0
 40
7.0
 40
8.0
 40
8.0
 40
8.0
 40
9.0
 40
9.0
 40
9.0
 40
10.0
 40
10.0
 40
10.0
 40
11.0
 40
11.0
 40
11.0
 40
12.0
 40
12.0
 40
12.0
 40
13.0
 40
13.0
 40
13.0
 40
14.0
 40
14.0
 40
14.0
 40
15.0
 40
15.0
 40
15.0
 40
16.0
 40
16.0
 40
16.0
 40
17.0
 40
17.0
 40
17.0
 40
18.0
 40
18.0
 40
18.0
 40
19.0
 40
19.0
 40
19.0
 40
20.0
 40
20.0
 40
20.0
 40
21.0
 40
21.0
 40
21.0
 40
22.0
 40
22.0
 40
22.0
 40
23.0
 40
23.0
 40
23.0
 40
24.0
 40
24.0
 40
24.0
 40
24.0
 10
95.85702580068853
 20
-137.886157192091
 30
0.0
 10
95.78674585278942
 20
-137.8816785679601
 30
0.0
 10
95.71922198127854
 20
-137.8816785679601
 30
0.0
 10
95.65169810976764
 20
-137.8816785679601
 30
0.0
 10
95.65169810976764
 20
-137.8816785679601
 30
0.0
 10
95.65169810976764
 20
-138.6561360330443
 30
0.0
 10
95.65169810976764
 20
-138.6561360330443
 30
0.0
 10
95.65169810976764
 20
-138.920374856763
 30
0.0
 10
95.64963105247648
 20
-138.9500026779361
 30
0.0
 10
95.64274086150598
 20
-138.9796304991093
 30
0.0
 10
95.60897892575053
 20
-139.1129556943884
 30
0.0
 10
95.5076931184842
 20
-139.1215684331016
 30
0.0
 10
95.33199324873645
 20
-139.1215684331016
 30
0.0
 10
95.29203014110755
 20
-139.1215684331016
 30
0.0
 10
95.27480466368131
 20
-139.1215684331016
 30
0.0
 10
95.2348415560524
 20
-139.1170898089707
 30
0.0
 10
95.2348415560524
 20
-139.1170898089707
 30
0.0
 10
95.11012909948636
 20
-138.8759331250033
 30
0.0
 10
95.11012909948636
 20
-138.8759331250033
 30
0.0
 10
95.2265733268878
 20
-138.9079725130161
 30
0.0
 10
95.30856659943674
 20
-138.9079725130161
 30
0.0
 10
95.33199324873645
 20
-138.9079725130161
 30
0.0
 10
95.4015841775385
 20
-138.9079725130161
 30
0.0
 10
95.436035132391
 20
-138.8907470355898
 30
0.0
 10
95.4401692469733
 20
-138.8339029600832
 30
0.0
 10
95.4401692469733
 20
-138.8211561067878
 30
0.0
 10
95.44223630426444
 20
-138.7236599045552
 30
0.0
 10
95.44223630426444
 20
-138.6664713195001
 30
0.0
 10
95.44223630426444
 20
-138.6664713195001
 30
0.0
 10
95.44223630426444
 20
-137.879611510669
 30
0.0
 10
95.44223630426444
 20
-137.879611510669
 30
0.0
 10
95.44223630426444
 20
-137.879611510669
 30
0.0
 10
95.14802514982411
 20
-137.879611510669
 30
0.0
 10
95.14802514982411
 20
-137.879611510669
 30
0.0
 10
95.00195310124951
 20
-137.879611510669
 30
0.0
 10
94.85588105267492
 20
-137.886157192091
 30
0.0
 10
94.71187606139148
 20
-137.8985595358379
 30
0.0
 10
94.71187606139148
 20
-137.8985595358379
 30
0.0
 10
94.71187606139148
 20
-137.6915092971743
 30
0.0
 10
94.71187606139148
 20
-137.6915092971743
 30
0.0
 10
94.86208222454837
 20
-137.7039116409213
 30
0.0
 10
95.0805012783132
 20
-137.7083902650521
 30
0.0
 10
95.14802514982411
 20
-137.7083902650521
 30
0.0
 10
95.14802514982411
 20
-137.7083902650521
 30
0.0
 10
95.44223630426444
 20
-137.7083902650521
 30
0.0
 10
95.44223630426444
 20
-137.7083902650521
 30
0.0
 10
95.4401692469733
 20
-137.4396728172026
 30
0.0
 10
95.4401692469733
 20
-137.3635362069786
 30
0.0
 10
95.43121199871165
 20
-137.2153971011128
 30
0.0
 10
95.43121199871165
 20
-137.2153971011128
 30
0.0
 10
95.68959416010539
 20
-137.2536376609991
 30
0.0
 10
95.68959416010539
 20
-137.2536376609991
 30
0.0
 10
95.70406356114343
 20
-137.2557047182902
 30
0.0
 10
95.71922198127854
 20
-137.2619058901637
 30
0.0
 10
95.71922198127854
 20
-137.2832654821723
 30
0.0
 10
95.71922198127854
 20
-137.3022135073411
 30
0.0
 10
95.71302080940508
 20
-137.3042805646323
 30
0.0
 10
95.65583222434994
 20
-137.3380425003877
 30
0.0
 10
95.65169810976764
 20
-137.4162461679029
 30
0.0
 10
95.65169810976764
 20
-137.4310600784895
 30
0.0
 10
95.65169810976764
 20
-137.7083902650521
 30
0.0
 10
95.82946503680652
 20
-137.7039116409213
 30
0.0
 10
95.84806855242688
 20
-137.7039116409213
 30
0.0
 10
95.88183048818233
 20
-137.6997775263389
 30
0.0
 10
95.93281790136402
 20
-137.6956434117567
 30
0.0
 10
95.93695201594632
 20
-137.6935763544655
 30
0.0
 10
95.98173825725458
 20
-137.6915092971743
 30
0.0
 10
95.98173825725458
 20
-137.6915092971743
 30
0.0
 10
95.98173825725458
 20
-137.8985595358379
 30
0.0
 10
95.98173825725458
 20
-137.8985595358379
 30
0.0
 10
95.95211043608143
 20
-137.8964924785467
 30
0.0
 10
95.89698890831743
 20
-137.8882242493821
 30
0.0
 10
95.85702580068853
 20
-137.886157192091
 30
0.0
  0
SPLINE
  5
101
330
D0
100
AcDbEntity
  8
_U+30EC_U+30A4_U+30E4_U+30FC 1
370
     0
100
AcDbSpline
210
0.0
220
0.0
230
1.0
 70
    11
 71
     3
 72
    20
 73
    16
 74
     0
 42
0.0000000001
 43
0.0000000001
 12
1.0
 22
0.0
 32
0.0
 13
1.0
 23
0.0
 33
0.0
 40
0.0
 40
0.0
 40
0.0
 40
0.0
 40
1.0
 40
1.0
 40
1.0
 40
2.0
 40
2.0
 40
2.0
 40
3.0
 40
3.0
 40
3.0
 40
4.0
 40
4.0
 40
4.0
 40
5.0
 40
5.0
 40
5.0
 40
5.0
 10
95.08670245018666
 20
-138.6116943012846
 30
0.0
 10
95.03984915158726
 20
-138.4339273742457
 30
0.0
 10
94.94269745890323
 20
-138.2923339498019
 30
0.0
 10
94.80351560129913
 20
-138.1820908942739
 30
0.0
 10
94.80351560129913
 20
-138.1820908942739
 30
0.0
 10
94.96405705091176
 20
-138.0680582337122
 30
0.0
 10
94.96405705091176
 20
-138.0680582337122
 30
0.0
 10
95.02537975054922
 20
-138.1100883986322
 30
0.0
 10
95.06534285817811
 20
-138.1441948439362
 30
0.0
 10
95.14182397795066
 20
-138.2520263326245
 30
0.0
 10
95.22175019320845
 20
-138.3684705600259
 30
0.0
 10
95.243109785217
 20
-138.4211805209503
 30
0.0
 10
95.26860349180785
 20
-138.4869818447185
 30
0.0
 10
95.26860349180785
 20
-138.4869818447185
 30
0.0
 10
95.08670245018666
 20
-138.6116943012846
 30
0.0
 10
95.08670245018666
 20
-138.6116943012846
 30
0.0
  0
HATCH
  5
102
330
D0
100
AcDbEntity
  8
_U+30EC_U+30A4_U+30E4_U+30FC 1
 62
   179
420
  2234388
100
AcDbHatch
 10
0.0
 20
0.0
 30
0.0
210
0.0
220
0.0
230
1.0
  2
SOLID
 70
     1
 71
     0
 91
        3
 92
        1
 93
        1
 72
     4
 94
        3
 73
     0
 74
     1
 95
       53
 96
       49
 40
0.0
 40
0.0
 40
0.0
 40
0.0
 40
1.0
 40
1.0
 40
1.0
 40
2.0
 40
2.0
 40
2.0
 40
3.0
 40
3.0
 40
3.0
 40
4.0
 40
4.0
 40
4.0
 40
5.0
 40
5.0
 40
5.0
 40
6.0
 40
6.0
 40
6.0
 40
7.0
 40
7.0
 40
7.0
 40
8.0
 40
8.0
 40
8.0
 40
9.0
 40
9.0
 40
9.0
 40
10.0
 40
10.0
 40
10.0
 40
11.0
 40
11.0
 40
11.0
 40
12.0
 40
12.0
 40
12.0
 40
13.0
 40
13.0
 40
13.0
 40
14.0
 40
14.0
 40
14.0
 40
15.0
 40
15.0
 40
15.0
 40
16.0
 40
16.0
 40
16.0
 40
16.0
 10
94.70567488951804
 20
-137.3866183467297
 10
94.63815101800714
 20
-137.5392360767263
 10
94.59612085308709
 20
-137.6174397442415
 10
94.55753578365228
 20
-137.6849636157524
 10
94.60025496766939
 20
-137.7063232077609
 10
94.60438908225169
 20
-137.7083902650521
 10
94.60438908225169
 20
-137.7232041756386
 10
94.60438908225169
 20
-137.7359510289341
 10
94.57062714649624
 20
-137.7697129646895
 10
94.55960284094344
 20
-137.7779811938541
 10
94.55753578365228
 20
-137.9746961460619
 10
94.55753578365228
 20
-137.9960557380704
 10
94.55753578365228
 20
-138.1293809333496
 10
94.55546872636114
 20
-138.142127786645
 10
94.55546872636114
 20
-138.1569416972316
 10
94.55546872636114
 20
-138.1717556078182
 10
94.55546872636114
 20
-138.1717556078182
 10
94.55546872636114
 20
-138.7067789366775
 10
94.55546872636114
 20
-138.7067789366775
 10
94.55546872636114
 20
-138.7787814323192
 10
94.55960284094344
 20
-139.0137369444132
 10
94.56856008920509
 20
-139.1236354903927
 10
94.56856008920509
 20
-139.1236354903927
 10
94.32533634794645
 20
-139.1236354903927
 10
94.32533634794645
 20
-139.1236354903927
 10
94.3480739781491
 20
-138.9648165885227
 10
94.3549641691196
 20
-138.7236599045552
 10
94.3549641691196
 20
-138.7026448220952
 10
94.3549641691196
 20
-138.7026448220952
 10
94.3549641691196
 20
-137.9853759420662
 10
94.3549641691196
 20
-137.9853759420662
 10
94.264013648309
 20
-138.0997531121764
 10
94.20269094867156
 20
-138.1590087545227
 10
94.15997176465446
 20
-138.2013834289913
 10
94.15997176465446
 20
-138.2013834289913
 10
93.96980249386867
 20
-138.0635796095813
 10
93.96980249386867
 20
-138.0635796095813
 10
94.25092228546505
 20
-137.8479166322047
 10
94.44384763263905
 20
-137.5392360767263
 10
94.55546872636114
 20
-137.2026502478174
 10
94.55546872636114
 20
-137.2026502478174
 10
94.77595483741713
 20
-137.3170274179277
 10
94.77595483741713
 20
-137.3170274179277
 10
94.78835718116403
 20
-137.3232285898011
 10
94.79662541032863
 20
-137.3273627043834
 10
94.79662541032863
 20
-137.34217661497
 10
94.79662541032863
 20
-137.3676703215609
 10
94.78008895199943
 20
-137.3718044361432
 10
94.70567488951804
 20
-137.3866183467297
 97
        0
 97
        0
 92
        1
 93
        1
 72
     4
 94
        3
 73
     0
 74
     1
 95
       77
 96
       73
 40
0.0
 40
0.0
 40
0.0
 40
0.0
 40
1.0
 40
1.0
 40
1.0
 40
2.0
 40
2.0
 40
2.0
 40
3.0
 40
3.0
 40
3.0
 40
4.0
 40
4.0
 40
4.0
 40
5.0
 40
5.0
 40
5.0
 40
6.0
 40
6.0
 40
6.0
 40
7.0
 40
7.0
 40
7.0
 40
8.0
 40
8.0
 40
8.0
 40
9.0
 40
9.0
 40
9.0
 40
10.0
 40
10.0
 40
10.0
 40
11.0
 40
11.0
 40
11.0
 40
12.0
 40
12.0
 40
12.0
 40
13.0
 40
13.0
 40
13.0
 40
14.0
 40
14.0
 40
14.0
 40
15.0
 40
15.0
 40
15.0
 40
16.0
 40
16.0
 40
16.0
 40
17.0
 40
17.0
 40
17.0
 40
18.0
 40
18.0
 40
18.0
 40
19.0
 40
19.0
 40
19.0
 40
20.0
 40
20.0
 40
20.0
 40
21.0
 40
21.0
 40
21.0
 40
22.0
 40
22.0
 40
22.0
 40
23.0
 40
23.0
 40
23.0
 40
24.0
 40
24.0
 40
24.0
 40
24.0
 10
95.85702580068853
 20
-137.886157192091
 10
95.78674585278942
 20
-137.8816785679601
 10
95.71922198127854
 20
-137.8816785679601
 10
95.65169810976764
 20
-137.8816785679601
 10
95.65169810976764
 20
-137.8816785679601
 10
95.65169810976764
 20
-138.6561360330443
 10
95.65169810976764
 20
-138.6561360330443
 10
95.65169810976764
 20
-138.920374856763
 10
95.64963105247648
 20
-138.9500026779361
 10
95.64274086150598
 20
-138.9796304991093
 10
95.60897892575053
 20
-139.1129556943884
 10
95.5076931184842
 20
-139.1215684331016
 10
95.33199324873645
 20
-139.1215684331016
 10
95.29203014110755
 20
-139.1215684331016
 10
95.27480466368131
 20
-139.1215684331016
 10
95.2348415560524
 20
-139.1170898089707
 10
95.2348415560524
 20
-139.1170898089707
 10
95.11012909948636
 20
-138.8759331250033
 10
95.11012909948636
 20
-138.8759331250033
 10
95.2265733268878
 20
-138.9079725130161
 10
95.30856659943674
 20
-138.9079725130161
 10
95.33199324873645
 20
-138.9079725130161
 10
95.4015841775385
 20
-138.9079725130161
 10
95.436035132391
 20
-138.8907470355898
 10
95.4401692469733
 20
-138.8339029600832
 10
95.4401692469733
 20
-138.8211561067878
 10
95.44223630426444
 20
-138.7236599045552
 10
95.44223630426444
 20
-138.6664713195001
 10
95.44223630426444
 20
-138.6664713195001
 10
95.44223630426444
 20
-137.879611510669
 10
95.44223630426444
 20
-137.879611510669
 10
95.44223630426444
 20
-137.879611510669
 10
95.14802514982411
 20
-137.879611510669
 10
95.14802514982411
 20
-137.879611510669
 10
95.00195310124951
 20
-137.879611510669
 10
94.85588105267492
 20
-137.886157192091
 10
94.71187606139148
 20
-137.8985595358379
 10
94.71187606139148
 20
-137.8985595358379
 10
94.71187606139148
 20
-137.6915092971743
 10
94.71187606139148
 20
-137.6915092971743
 10
94.86208222454837
 20
-137.7039116409213
 10
95.0805012783132
 20
-137.7083902650521
 10
95.14802514982411
 20
-137.7083902650521
 10
95.14802514982411
 20
-137.7083902650521
 10
95.44223630426444
 20
-137.7083902650521
 10
95.44223630426444
 20
-137.7083902650521
 10
95.4401692469733
 20
-137.4396728172026
 10
95.4401692469733
 20
-137.3635362069786
 10
95.43121199871165
 20
-137.2153971011128
 10
95.43121199871165
 20
-137.2153971011128
 10
95.68959416010539
 20
-137.2536376609991
 10
95.68959416010539
 20
-137.2536376609991
 10
95.70406356114343
 20
-137.2557047182902
 10
95.71922198127854
 20
-137.2619058901637
 10
95.71922198127854
 20
-137.2832654821723
 10
95.71922198127854
 20
-137.3022135073411
 10
95.71302080940508
 20
-137.3042805646323
 10
95.65583222434994
 20
-137.3380425003877
 10
95.65169810976764
 20
-137.4162461679029
 10
95.65169810976764
 20
-137.4310600784895
 10
95.65169810976764
 20
-137.7083902650521
 10
95.82946503680652
 20
-137.7039116409213
 10
95.84806855242688
 20
-137.7039116409213
 10
95.88183048818233
 20
-137.6997775263389
 10
95.93281790136402
 20
-137.6956434117567
 10
95.93695201594632
 20
-137.6935763544655
 10
95.98173825725458
 20
-137.6915092971743
 10
95.98173825725458
 20
-137.6915092971743
 10
95.98173825725458
 20
-137.8985595358379
 10
95.98173825725458
 20
-137.8985595358379
 10
95.95211043608143
 20
-137.8964924785467
 10
95.89698890831743
 20
-137.8882242493821
 10
95.85702580068853
 20
-137.886157192091
 97
        0
 97
        0
 92
        1
 93
        1
 72
     4
 94
        3
 73
     0
 74
     1
 95
       20
 96
       16
 40
0.0
 40
0.0
 40
0.0
 40
0.0
 40
1.0
 40
1.0
 40
1.0
 40
2.0
 40
2.0
 40
2.0
 40
3.0
 40
3.0
 40
3.0
 40
4.0
 40
4.0
 40
4.0
 40
5.0
 40
5.0
 40
5.0
 40
5.0
 10
95.08670245018666
 20
-138.6116943012846
 10
95.03984915158726
 20
-138.4339273742457
 10
94.94269745890323
 20
-138.2923339498019
 10
94.80351560129913
 20
-138.1820908942739
 10
94.80351560129913
 20
-138.1820908942739
 10
94.96405705091176
 20
-138.0680582337122
 10
94.96405705091176
 20
-138.0680582337122
 10
95.02537975054922
 20
-138.1100883986322
 10
95.06534285817811
 20
-138.1441948439362
 10
95.14182397795066
 20
-138.2520263326245
 10
95.22175019320845
 20
-138.3684705600259
 10
95.243109785217
 20
-138.4211805209503
 10
95.26860349180785
 20
-138.4869818447185
 10
95.26860349180785
 20
-138.4869818447185
 10
95.08670245018666
 20
-138.6116943012846
 10
95.08670245018666
 20
-138.6116943012846
 97
        0
 97
        0
 75
     2
 76
     1
 98
        0
  0
SPLINE
  5
103
330
D0
100
AcDbEntity
  8
_U+30EC_U+30A4_U+30E4_U+30FC 1
370
     0
100
AcDbSpline
210
0.0
220
0.0
230
1.0
 70
    11
 71
     3
 72
   119
 73
   115
 74
     0
 42
0.0000000001
 43
0.0000000001
 12
1.0
 22
0.0
 32
0.0
 13
1.0
 23
0.0
 33
0.0
 40
0.0
 40
0.0
 40
0.0
 40
0.0
 40
1.0
 40
1.0
 40
1.0
 40
2.0
 40
2.0
 40
2.0
 40
3.0
 40
3.0
 40
3.0
 40
4.0
 40
4.0
 40
4.0
 40
5.0
 40
5.0
 40
5.0
 40
6.0
 40
6.0
 40
6.0
 40
7.0
 40
7.0
 40
7.0
 40
8.0
 40
8.0
 40
8.0
 40
9.0
 40
9.0
 40
9.0
 40
10.0
 40
10.0
 40
10.0
 40
11.0
 40
11.0
 40
11.0
 40
12.0
 40
12.0
 40
12.0
 40
13.0
 40
13.0
 40
13.0
 40
14.0
 40
14.0
 40
14.0
 40
15.0
 40
15.0
 40
15.0
 40
16.0
 40
16.0
 40
16.0
 40
17.0
 40
17.0
 40
17.0
 40
18.0
 40
18.0
 40
18.0
 40
19.0
 40
19.0
 40
19.0
 40
20.0
 40
20.0
 40
20.0
 40
21.0
 40
21.0
 40
21.0
 40
22.0
 40
22.0
 40
22.0
 40
23.0
 40
23.0
 40
23.0
 40
24.0
 40
24.0
 40
24.0
 40
25.0
 40
25.0
 40
25.0
 40
26.0
 40
26.0
 40
26.0
 40
27.0
 40
27.0
 40
27.0
 40
28.0
 40
28.0
 40
28.0
 40
29.0
 40
29.0
 40
29.0
 40
30.0
 40
30.0
 40
30.0
 40
31.0
 40
31.0
 40
31.0
 40
32.0
 40
32.0
 40
32.0
 40
33.0
 40
33.0
 40
33.0
 40
34.0
 40
34.0
 40
34.0
 40
35.0
 40
35.0
 40
35.0
 40
36.0
 40
36.0
 40
36.0
 40
37.0
 40
37.0
 40
37.0
 40
38.0
 40
38.0
 40
38.0
 40
38.0
 10
97.20336911632417
 20
-138.0298176738259
 30
0.0
 10
97.26055770137931
 20
-138.1273138760585
 30
0.0
 10
97.3790689860719
 20
-138.3174831468442
 30
0.0
 10
97.53134220651995
 20
-138.4825032205877
 30
0.0
 10
97.53134220651995
 20
-138.4825032205877
 30
0.0
 10
97.4231662082831
 20
-138.6285752691623
 30
0.0
 10
97.4231662082831
 20
-138.6285752691623
 30
0.0
 10
97.25642358679701
 20
-138.5524386589383
 30
0.0
 10
97.07383352607877
 20
-138.493183016592
 30
0.0
 10
96.88986542716643
 20
-138.493183016592
 30
0.0
 10
96.74172632130069
 20
-138.493183016592
 30
0.0
 10
96.55362410780604
 20
-138.5672525695249
 30
0.0
 10
96.55362410780604
 20
-138.7047118793863
 30
0.0
 10
96.55362410780604
 20
-138.8824788064252
 30
0.0
 10
96.76722002789154
 20
-138.8931586024295
 30
0.0
 10
96.85817054870213
 20
-138.8931586024295
 30
0.0
 10
96.89399954174873
 20
-138.8931586024295
 30
0.0
 10
97.12895505384276
 20
-138.8931586024295
 30
0.0
 10
97.3721787951014
 20
-138.8273572786612
 30
0.0
 10
97.3721787951014
 20
-138.8273572786612
 30
0.0
 10
97.3721787951014
 20
-139.0430202560379
 30
0.0
 10
97.3721787951014
 20
-139.0430202560379
 30
0.0
 10
97.30258786629936
 20
-139.0474988801687
 30
0.0
 10
96.99390731082097
 20
-139.0685139626287
 30
0.0
 10
96.93051755389237
 20
-139.0685139626287
 30
0.0
 10
96.82647567023783
 20
-139.0685139626287
 30
0.0
 10
96.61494680744349
 20
-139.0578341666244
 30
0.0
 10
96.50952688559485
 20
-138.9861761805312
 30
0.0
 10
96.40341794464915
 20
-138.9121066275984
 30
0.0
 10
96.3572536651468
 20
-138.7997965147792
 30
0.0
 10
96.3572536651468
 20
-138.700577764804
 30
0.0
 10
96.3572536651468
 20
-138.6030815625714
 30
0.0
 10
96.40341794464915
 20
-138.5079969271786
 30
0.0
 10
96.456472415122
 20
-138.4614881381277
 30
0.0
 10
96.54328882135029
 20
-138.3832844706125
 30
0.0
 10
96.72312280568033
 20
-138.3260958855574
 30
0.0
 10
96.90088973271922
 20
-138.3260958855574
 30
0.0
 10
97.02146807470297
 20
-138.3260958855574
 30
0.0
 10
97.11035153822242
 20
-138.3491780253085
 30
0.0
 10
97.21163734548877
 20
-138.3767387891905
 30
0.0
 10
97.15031464585131
 20
-138.2816541537977
 30
0.0
 10
97.06556529691417
 20
-138.1503960158096
 30
0.0
 10
97.02973630386757
 20
-138.0890733161722
 30
0.0
 10
96.73139103484493
 20
-138.1800238369828
 30
0.0
 10
96.54535587864144
 20
-138.2244655687425
 30
0.0
 10
96.26423608704506
 20
-138.2285996833248
 30
0.0
 10
96.26423608704506
 20
-138.2285996833248
 30
0.0
 10
96.19188908185481
 20
-138.0425645271213
 30
0.0
 10
96.19188908185481
 20
-138.0425645271213
 30
0.0
 10
96.23667532316306
 20
-138.0466986417036
 30
0.0
 10
96.26148001065685
 20
-138.0487656989948
 30
0.0
 10
96.31660153842085
 20
-138.0487656989948
 30
0.0
 10
96.39928383006685
 20
-138.0487656989948
 30
0.0
 10
96.56189233697064
 20
-138.0404974698302
 30
0.0
 10
96.76101885601808
 20
-137.9939886807793
 30
0.0
 10
96.84163409037293
 20
-137.9746961460619
 30
0.0
 10
96.89193248445757
 20
-137.955748120893
 30
0.0
 10
96.94085284034813
 20
-137.9368000957242
 30
0.0
 10
96.92362736292188
 20
-137.9051052172598
 30
0.0
 10
96.85196937682868
 20
-137.7590331686852
 30
0.0
 10
96.83749997579064
 20
-137.7314724048032
 30
0.0
 10
96.70176321367178
 20
-137.7697129646895
 30
0.0
 10
96.54742293593259
 20
-137.8120876391581
 30
0.0
 10
96.2704372589185
 20
-137.8351697789093
 30
0.0
 10
96.2704372589185
 20
-137.8351697789093
 30
0.0
 10
96.18982202456365
 20
-137.6639485332923
 30
0.0
 10
96.18982202456365
 20
-137.6639485332923
 30
0.0
 10
96.22978513219256
 20
-137.6680826478747
 30
0.0
 10
96.24287649503651
 20
-137.6680826478747
 30
0.0
 10
96.27663843079196
 20
-137.6680826478747
 30
0.0
 10
96.43097870853114
 20
-137.6680826478747
 30
0.0
 10
96.62597111299628
 20
-137.6405218839926
 30
0.0
 10
96.76928708518268
 20
-137.5857448657772
 30
0.0
 10
96.72105574838919
 20
-137.4861816062535
 30
0.0
 10
96.67213539249863
 20
-137.3866183467297
 30
0.0
 10
96.62597111299628
 20
-137.2873995967545
 30
0.0
 10
96.62597111299628
 20
-137.2873995967545
 30
0.0
 10
96.83267684211128
 20
-137.2639729474548
 30
0.0
 10
96.83267684211128
 20
-137.2639729474548
 30
0.0
 10
96.86712779696377
 20
-137.2598388328726
 30
0.0
 10
96.87126191154607
 20
-137.2577717755814
 30
0.0
 10
96.87746308341953
 20
-137.2577717755814
 30
0.0
 10
96.91122501917498
 20
-137.2577717755814
 30
0.0
 10
96.91742619104842
 20
-137.2705186288768
 30
0.0
 10
96.91742619104842
 20
-137.2915337113369
 30
0.0
 10
96.91742619104842
 20
-137.3063476219234
 30
0.0
 10
96.91329207646612
 20
-137.3125487937969
 30
0.0
 10
96.90915796188382
 20
-137.3170274179277
 30
0.0
 10
96.90502384730152
 20
-137.32116153251
 30
0.0
 10
96.88366425529297
 20
-137.3445881818097
 30
0.0
 10
96.87953014071067
 20
-137.348722296392
 30
0.0
 10
96.90709090459268
 20
-137.4376057599114
 30
0.0
 10
96.92156030563072
 20
-137.473434752958
 30
0.0
 10
96.94705401222157
 20
-137.5306233380132
 30
0.0
 10
97.05316295316727
 20
-137.4947943449666
 30
0.0
 10
97.21370440277991
 20
-137.4376057599114
 30
0.0
 10
97.3556423367722
 20
-137.3297742712231
 30
0.0
 10
97.3556423367722
 20
-137.3297742712231
 30
0.0
 10
97.41283092182735
 20
-137.5071966887135
 30
0.0
 10
97.41283092182735
 20
-137.5071966887135
 30
0.0
 10
97.2495333958265
 20
-137.5919460376506
 30
0.0
 10
97.08485783163157
 20
-137.6470675654146
 30
0.0
 10
97.00424259727671
 20
-137.6746283292966
 30
0.0
 10
97.02146807470297
 20
-137.7063232077609
 30
0.0
 10
97.09312606079617
 20
-137.852050746787
 30
0.0
 10
97.10828448093126
 20
-137.879611510669
 30
0.0
 10
97.228862822915
 20
-137.8372368362004
 30
0.0
 10
97.4273003228654
 20
-137.7528319968118
 30
0.0
 10
97.57337237144
 20
-137.6532687372881
 30
0.0
 10
97.57337237144
 20
-137.6532687372881
 30
0.0
 10
97.62022567003939
 20
-137.8479166322047
 30
0.0
 10
97.62022567003939
 20
-137.8479166322047
 30
0.0
 10
97.45692814403856
 20
-137.928187357011
 30
0.0
 10
97.3639105659368
 20
-137.9705620314796
 30
0.0
 10
97.20336911632417
 20
-138.0298176738259
 30
0.0
  0
HATCH
  5
104
330
D0
100
AcDbEntity
  8
_U+30EC_U+30A4_U+30E4_U+30FC 1
 62
   179
420
  2234388
100
AcDbHatch
 10
0.0
 20
0.0
 30
0.0
210
0.0
220
0.0
230
1.0
  2
SOLID
 70
     1
 71
     0
 91
        1
 92
        1
 93
        1
 72
     4
 94
        3
 73
     0
 74
     1
 95
      119
 96
      115
 40
0.0
 40
0.0
 40
0.0
 40
0.0
 40
1.0
 40
1.0
 40
1.0
 40
2.0
 40
2.0
 40
2.0
 40
3.0
 40
3.0
 40
3.0
 40
4.0
 40
4.0
 40
4.0
 40
5.0
 40
5.0
 40
5.0
 40
6.0
 40
6.0
 40
6.0
 40
7.0
 40
7.0
 40
7.0
 40
8.0
 40
8.0
 40
8.0
 40
9.0
 40
9.0
 40
9.0
 40
10.0
 40
10.0
 40
10.0
 40
11.0
 40
11.0
 40
11.0
 40
12.0
 40
12.0
 40
12.0
 40
13.0
 40
13.0
 40
13.0
 40
14.0
 40
14.0
 40
14.0
 40
15.0
 40
15.0
 40
15.0
 40
16.0
 40
16.0
 40
16.0
 40
17.0
 40
17.0
 40
17.0
 40
18.0
 40
18.0
 40
18.0
 40
19.0
 40
19.0
 40
19.0
 40
20.0
 40
20.0
 40
20.0
 40
21.0
 40
21.0
 40
21.0
 40
22.0
 40
22.0
 40
22.0
 40
23.0
 40
23.0
 40
23.0
 40
24.0
 40
24.0
 40
24.0
 40
25.0
 40
25.0
 40
25.0
 40
26.0
 40
26.0
 40
26.0
 40
27.0
 40
27.0
 40
27.0
 40
28.0
 40
28.0
 40
28.0
 40
29.0
 40
29.0
 40
29.0
 40
30.0
 40
30.0
 40
30.0
 40
31.0
 40
31.0
 40
31.0
 40
32.0
 40
32.0
 40
32.0
 40
33.0
 40
33.0
 40
33.0
 40
34.0
 40
34.0
 40
34.0
 40
35.0
 40
35.0
 40
35.0
 40
36.0
 40
36.0
 40
36.0
 40
37.0
 40
37.0
 40
37.0
 40
38.0
 40
38.0
 40
38.0
 40
38.0
 10
97.20336911632417
 20
-138.0298176738259
 10
97.26055770137931
 20
-138.1273138760585
 10
97.3790689860719
 20
-138.3174831468442
 10
97.53134220651995
 20
-138.4825032205877
 10
97.53134220651995
 20
-138.4825032205877
 10
97.4231662082831
 20
-138.6285752691623
 10
97.4231662082831
 20
-138.6285752691623
 10
97.25642358679701
 20
-138.5524386589383
 10
97.07383352607877
 20
-138.493183016592
 10
96.88986542716643
 20
-138.493183016592
 10
96.74172632130069
 20
-138.493183016592
 10
96.55362410780604
 20
-138.5672525695249
 10
96.55362410780604
 20
-138.7047118793863
 10
96.55362410780604
 20
-138.8824788064252
 10
96.76722002789154
 20
-138.8931586024295
 10
96.85817054870213
 20
-138.8931586024295
 10
96.89399954174873
 20
-138.8931586024295
 10
97.12895505384276
 20
-138.8931586024295
 10
97.3721787951014
 20
-138.8273572786612
 10
97.3721787951014
 20
-138.8273572786612
 10
97.3721787951014
 20
-139.0430202560379
 10
97.3721787951014
 20
-139.0430202560379
 10
97.30258786629936
 20
-139.0474988801687
 10
96.99390731082097
 20
-139.0685139626287
 10
96.93051755389237
 20
-139.0685139626287
 10
96.82647567023783
 20
-139.0685139626287
 10
96.61494680744349
 20
-139.0578341666244
 10
96.50952688559485
 20
-138.9861761805312
 10
96.40341794464915
 20
-138.9121066275984
 10
96.3572536651468
 20
-138.7997965147792
 10
96.3572536651468
 20
-138.700577764804
 10
96.3572536651468
 20
-138.6030815625714
 10
96.40341794464915
 20
-138.5079969271786
 10
96.456472415122
 20
-138.4614881381277
 10
96.54328882135029
 20
-138.3832844706125
 10
96.72312280568033
 20
-138.3260958855574
 10
96.90088973271922
 20
-138.3260958855574
 10
97.02146807470297
 20
-138.3260958855574
 10
97.11035153822242
 20
-138.3491780253085
 10
97.21163734548877
 20
-138.3767387891905
 10
97.15031464585131
 20
-138.2816541537977
 10
97.06556529691417
 20
-138.1503960158096
 10
97.02973630386757
 20
-138.0890733161722
 10
96.73139103484493
 20
-138.1800238369828
 10
96.54535587864144
 20
-138.2244655687425
 10
96.26423608704506
 20
-138.2285996833248
 10
96.26423608704506
 20
-138.2285996833248
 10
96.19188908185481
 20
-138.0425645271213
 10
96.19188908185481
 20
-138.0425645271213
 10
96.23667532316306
 20
-138.0466986417036
 10
96.26148001065685
 20
-138.0487656989948
 10
96.31660153842085
 20
-138.0487656989948
 10
96.39928383006685
 20
-138.0487656989948
 10
96.56189233697064
 20
-138.0404974698302
 10
96.76101885601808
 20
-137.9939886807793
 10
96.84163409037293
 20
-137.9746961460619
 10
96.89193248445757
 20
-137.955748120893
 10
96.94085284034813
 20
-137.9368000957242
 10
96.92362736292188
 20
-137.9051052172598
 10
96.85196937682868
 20
-137.7590331686852
 10
96.83749997579064
 20
-137.7314724048032
 10
96.70176321367178
 20
-137.7697129646895
 10
96.54742293593259
 20
-137.8120876391581
 10
96.2704372589185
 20
-137.8351697789093
 10
96.2704372589185
 20
-137.8351697789093
 10
96.18982202456365
 20
-137.6639485332923
 10
96.18982202456365
 20
-137.6639485332923
 10
96.22978513219256
 20
-137.6680826478747
 10
96.24287649503651
 20
-137.6680826478747
 10
96.27663843079196
 20
-137.6680826478747
 10
96.43097870853114
 20
-137.6680826478747
 10
96.62597111299628
 20
-137.6405218839926
 10
96.76928708518268
 20
-137.5857448657772
 10
96.72105574838919
 20
-137.4861816062535
 10
96.67213539249863
 20
-137.3866183467297
 10
96.62597111299628
 20
-137.2873995967545
 10
96.62597111299628
 20
-137.2873995967545
 10
96.83267684211128
 20
-137.2639729474548
 10
96.83267684211128
 20
-137.2639729474548
 10
96.86712779696377
 20
-137.2598388328726
 10
96.87126191154607
 20
-137.2577717755814
 10
96.87746308341953
 20
-137.2577717755814
 10
96.91122501917498
 20
-137.2577717755814
 10
96.91742619104842
 20
-137.2705186288768
 10
96.91742619104842
 20
-137.2915337113369
 10
96.91742619104842
 20
-137.3063476219234
 10
96.91329207646612
 20
-137.3125487937969
 10
96.90915796188382
 20
-137.3170274179277
 10
96.90502384730152
 20
-137.32116153251
 10
96.88366425529297
 20
-137.3445881818097
 10
96.87953014071067
 20
-137.348722296392
 10
96.90709090459268
 20
-137.4376057599114
 10
96.92156030563072
 20
-137.473434752958
 10
96.94705401222157
 20
-137.5306233380132
 10
97.05316295316727
 20
-137.4947943449666
 10
97.21370440277991
 20
-137.4376057599114
 10
97.3556423367722
 20
-137.3297742712231
 10
97.3556423367722
 20
-137.3297742712231
 10
97.41283092182735
 20
-137.5071966887135
 10
97.41283092182735
 20
-137.5071966887135
 10
97.2495333958265
 20
-137.5919460376506
 10
97.08485783163157
 20
-137.6470675654146
 10
97.00424259727671
 20
-137.6746283292966
 10
97.02146807470297
 20
-137.7063232077609
 10
97.09312606079617
 20
-137.852050746787
 10
97.10828448093126
 20
-137.879611510669
 10
97.228862822915
 20
-137.8372368362004
 10
97.4273003228654
 20
-137.7528319968118
 10
97.57337237144
 20
-137.6532687372881
 10
97.57337237144
 20
-137.6532687372881
 10
97.62022567003939
 20
-137.8479166322047
 10
97.62022567003939
 20
-137.8479166322047
 10
97.45692814403856
 20
-137.928187357011
 10
97.3639105659368
 20
-137.9705620314796
 10
97.20336911632417
 20
-138.0298176738259
 97
        0
 97
        0
 75
     2
 76
     1
 98
        0
  0
ENDBLK
  5
D3
330
D0
100
AcDbEntity
  8
0
100
AcDbBlockEnd
  0
BLOCK
  5
117
330
115
100
AcDbEntity
  8
0
100
AcDbBlockBegin
  2
block 3
 70
     0
 10
0.0
 20
0.0
 30
0.0
  3
block 3
  1

  0
SPLINE
  5
119
330
115
100
AcDbEntity
  8
_U+30EC_U+30A4_U+30E4_U+30FC 1
370
     0
100
AcDbSpline
210
0.0
220
0.0
230
1.0
 70
    11
 71
     3
 72
    26
 73
    22
 74
     0
 42
0.0000000001
 43
0.0000000001
 12
1.0
 22
0.0
 32
0.0
 13
1.0
 23
0.0
 33
0.0
 40
0.0
 40
0.0
 40
0.0
 40
0.0
 40
1.0
 40
1.0
 40
1.0
 40
2.0
 40
2.0
 40
2.0
 40
3.0
 40
3.0
 40
3.0
 40
4.0
 40
4.0
 40
4.0
 40
5.0
 40
5.0
 40
5.0
 40
6.0
 40
6.0
 40
6.0
 40
7.0
 40
7.0
 40
7.0
 40
7.0
 10
106.447593831895
 20
-153.8221353782111
 30
0.0
 10
106.447593831895
 20
-153.8221353782111
 30
0.0
 10
105.3434407288725
 20
-153.8221353782111
 30
0.0
 10
105.3434407288725
 20
-153.8221353782111
 30
0.0
 10
105.3434407288725
 20
-153.8221353782111
 30
0.0
 10
105.3434407288725
 20
-154.1521755256981
 30
0.0
 10
105.3434407288725
 20
-154.1521755256981
 30
0.0
 10
105.3434407288725
 20
-154.1521755256981
 30
0.0
 10
105.1953016230067
 20
-154.1521755256981
 30
0.0
 10
105.1953016230067
 20
-154.1521755256981
 30
0.0
 10
105.1804877124202
 20
-153.82006832092
 30
0.0
 10
105.0175346959678
 20
-153.7732150223206
 30
0.0
 10
104.9031575258576
 20
-153.7435872011474
 30
0.0
 10
104.9031575258576
 20
-153.7435872011474
 30
0.0
 10
104.9031575258576
 20
-153.5975151525728
 30
0.0
 10
104.9031575258576
 20
-153.5975151525728
 30
0.0
 10
104.9031575258576
 20
-153.5975151525728
 30
0.0
 10
106.447593831895
 20
-153.5975151525728
 30
0.0
 10
106.447593831895
 20
-153.5975151525728
 30
0.0
 10
106.447593831895
 20
-153.5975151525728
 30
0.0
 10
106.447593831895
 20
-153.8221353782111
 30
0.0
 10
106.447593831895
 20
-153.8221353782111
 30
0.0
  0
HATCH
  5
11A
330
115
100
AcDbEntity
  8
_U+30EC_U+30A4_U+30E4_U+30FC 1
 62
   179
420
  2234388
100
AcDbHatch
 10
0.0
 20
0.0
 30
0.0
210
0.0
220
0.0
230
1.0
  2
SOLID
 70
     1
 71
     0
 91
        1
 92
        1
 93
        1
 72
     4
 94
        3
 73
     0
 74
     1
 95
       26
 96
       22
 40
0.0
 40
0.0
 40
0.0
 40
0.0
 40
1.0
 40
1.0
 40
1.0
 40
2.0
 40
2.0
 40
2.0
 40
3.0
 40
3.0
 40
3.0
 40
4.0
 40
4.0
 40
4.0
 40
5.0
 40
5.0
 40
5.0
 40
6.0
 40
6.0
 40
6.0
 40
7.0
 40
7.0
 40
7.0
 40
7.0
 10
106.447593831895
 20
-153.8221353782111
 10
106.447593831895
 20
-153.8221353782111
 10
105.3434407288725
 20
-153.8221353782111
 10
105.3434407288725
 20
-153.8221353782111
 10
105.3434407288725
 20
-153.8221353782111
 10
105.3434407288725
 20
-154.1521755256981
 10
105.3434407288725
 20
-154.1521755256981
 10
105.3434407288725
 20
-154.1521755256981
 10
105.1953016230067
 20
-154.1521755256981
 10
105.1953016230067
 20
-154.1521755256981
 10
105.1804877124202
 20
-153.82006832092
 10
105.0175346959678
 20
-153.7732150223206
 10
104.9031575258576
 20
-153.7435872011474
 10
104.9031575258576
 20
-153.7435872011474
 10
104.9031575258576
 20
-153.5975151525728
 10
104.9031575258576
 20
-153.5975151525728
 10
104.9031575258576
 20
-153.5975151525728
 10
106.447593831895
 20
-153.5975151525728
 10
106.447593831895
 20
-153.5975151525728
 10
106.447593831895
 20
-153.5975151525728
 10
106.447593831895
 20
-153.8221353782111
 10
106.447593831895
 20
-153.8221353782111
 97
        0
 97
        0
 75
     2
 76
     1
 98
        0
  0
POLYLINE
  5
11B
330
115
100
AcDbEntity
  8
_U+30EC_U+30A4_U+30E4_U+30FC 1
370
     0
100
AcDb2dPolyline
 66
     1
 10
0.0
 20
0.0
 30
0.0
  0
VERTEX
  5
11C
330
11B
100
AcDbEntity
  8
_U+30EC_U+30A4_U+30E4_U+30FC 1
370
     0
100
AcDbVertex
100
AcDb2dVertex
 10
106.447593831895
 20
-153.0366536075742
 30
0.0
  0
VERTEX
  5
11D
330
11B
100
AcDbEntity
  8
_U+30EC_U+30A4_U+30E4_U+30FC 1
370
     0
100
AcDbVertex
100
AcDb2dVertex
 10
106.1957573519233
 20
-153.0366536075742
 30
0.0
  0
VERTEX
  5
11E
330
11B
100
AcDbEntity
  8
_U+30EC_U+30A4_U+30E4_U+30FC 1
370
     0
100
AcDbVertex
100
AcDb2dVertex
 10
106.1957573519233
 20
-152.7848171276024
 30
0.0
  0
VERTEX
  5
11F
330
11B
100
AcDbEntity
  8
_U+30EC_U+30A4_U+30E4_U+30FC 1
370
     0
100
AcDbVertex
100
AcDb2dVertex
 10
106.447593831895
 20
-152.7848171276024
 30
0.0
  0
VERTEX
  5
120
330
11B
100
AcDbEntity
  8
_U+30EC_U+30A4_U+30E4_U+30FC 1
370
     0
100
AcDbVertex
100
AcDb2dVertex
 10
106.447593831895
 20
-153.0366536075742
 30
0.0
  0
SEQEND
  5
121
330
11B
100
AcDbEntity
  8
_U+30EC_U+30A4_U+30E4_U+30FC 1
370
     0
  0
HATCH
  5
122
330
115
100
AcDbEntity
  8
_U+30EC_U+30A4_U+30E4_U+30FC 1
 62
   179
420
  2234388
100
AcDbHatch
 10
0.0
 20
0.0
 30
0.0
210
0.0
220
0.0
230
1.0
  2
SOLID
 70
     1
 71
     0
 91
        1
 92
        1
 93
        4
 72
     1
 10
106.447593831895
 20
-153.0366536075742
 11
106.1957573519233
 21
-153.0366536075742
 72
     1
 10
106.1957573519233
 20
-153.0366536075742
 11
106.1957573519233
 21
-152.7848171276024
 72
     1
 10
106.1957573519233
 20
-152.7848171276024
 11
106.447593831895
 21
-152.7848171276024
 72
     1
 10
106.447593831895
 20
-152.7848171276024
 11
106.447593831895
 21
-153.0366536075742
 97
        0
 75
     2
 76
     1
 98
        0
  0
SPLINE
  5
123
330
115
100
AcDbEntity
  8
_U+30EC_U+30A4_U+30E4_U+30FC 1
370
     0
100
AcDbSpline
210
0.0
220
0.0
230
1.0
 70
    11
 71
     3
 72
    44
 73
    40
 74
     0
 42
0.0000000001
 43
0.0000000001
 12
1.0
 22
0.0
 32
0.0
 13
1.0
 23
0.0
 33
0.0
 40
0.0
 40
0.0
 40
0.0
 40
0.0
 40
1.0
 40
1.0
 40
1.0
 40
2.0
 40
2.0
 40
2.0
 40
3.0
 40
3.0
 40
3.0
 40
4.0
 40
4.0
 40
4.0
 40
5.0
 40
5.0
 40
5.0
 40
6.0
 40
6.0
 40
6.0
 40
7.0
 40
7.0
 40
7.0
 40
8.0
 40
8.0
 40
8.0
 40
9.0
 40
9.0
 40
9.0
 40
10.0
 40
10.0
 40
10.0
 40
11.0
 40
11.0
 40
11.0
 40
12.0
 40
12.0
 40
12.0
 40
13.0
 40
13.0
 40
13.0
 40
13.0
 10
105.8657172044364
 20
-151.9552381347542
 30
0.0
 10
106.0245361063064
 20
-152.1733126789706
 30
0.0
 10
106.0986056592392
 20
-152.2663302570723
 30
0.0
 10
106.2422661409742
 20
-152.3149061034143
 30
0.0
 10
106.2422661409742
 20
-152.3149061034143
 30
0.0
 10
106.2422661409742
 20
-151.5366590332964
 30
0.0
 10
106.2422661409742
 20
-151.5366590332964
 30
0.0
 10
106.2422661409742
 20
-151.5366590332964
 30
0.0
 10
106.447593831895
 20
-151.5366590332964
 30
0.0
 10
106.447593831895
 20
-151.5366590332964
 30
0.0
 10
106.447593831895
 20
-151.5366590332964
 30
0.0
 10
106.447593831895
 20
-152.564675526095
 30
0.0
 10
106.447593831895
 20
-152.564675526095
 30
0.0
 10
106.0899929205261
 20
-152.5329806476306
 30
0.0
 10
106.0117892530109
 20
-152.4671793238624
 30
0.0
 10
105.7134439839883
 20
-152.08236215816
 30
0.0
 10
105.5146619744894
 20
-151.8260470540574
 30
0.0
 10
105.44679359343
 20
-151.7605902398376
 30
0.0
 10
105.3093342835685
 20
-151.7605902398376
 30
0.0
 10
105.1908229988759
 20
-151.7605902398376
 30
0.0
 10
105.0599093704364
 20
-151.8325927354794
 30
0.0
 10
105.0599093704364
 20
-152.0293076876871
 30
0.0
 10
105.0599093704364
 20
-152.289756906372
 30
0.0
 10
105.2903862583996
 20
-152.2980251355366
 30
0.0
 10
105.4068304858011
 20
-152.3021592501189
 30
0.0
 10
105.4068304858011
 20
-152.3021592501189
 30
0.0
 10
105.4068304858011
 20
-152.5264349662087
 30
0.0
 10
105.4068304858011
 20
-152.5264349662087
 30
0.0
 10
105.2797064623954
 20
-152.5178222274955
 30
0.0
 10
105.1677408591247
 20
-152.5074869410398
 30
0.0
 10
105.0492295744321
 20
-152.4268717066849
 30
0.0
 10
104.888343615271
 20
-152.317317670254
 30
0.0
 10
104.8545816795155
 20
-152.130938004502
 30
0.0
 10
104.8545816795155
 20
-152.0144937771005
 30
0.0
 10
104.8545816795155
 20
-151.7371635905379
 30
0.0
 10
105.0385497784279
 20
-151.5301133518744
 30
0.0
 10
105.3114013408597
 20
-151.5301133518744
 30
0.0
 10
105.5401556810803
 20
-151.5301133518744
 30
0.0
 10
105.6393744310554
 20
-151.6462130697273
 30
0.0
 10
105.8657172044364
 20
-151.9552381347542
 30
0.0
  0
HATCH
  5
124
330
115
100
AcDbEntity
  8
_U+30EC_U+30A4_U+30E4_U+30FC 1
 62
   179
420
  2234388
100
AcDbHatch
 10
0.0
 20
0.0
 30
0.0
210
0.0
220
0.0
230
1.0
  2
SOLID
 70
     1
 71
     0
 91
        1
 92
        1
 93
        1
 72
     4
 94
        3
 73
     0
 74
     1
 95
       44
 96
       40
 40
0.0
 40
0.0
 40
0.0
 40
0.0
 40
1.0
 40
1.0
 40
1.0
 40
2.0
 40
2.0
 40
2.0
 40
3.0
 40
3.0
 40
3.0
 40
4.0
 40
4.0
 40
4.0
 40
5.0
 40
5.0
 40
5.0
 40
6.0
 40
6.0
 40
6.0
 40
7.0
 40
7.0
 40
7.0
 40
8.0
 40
8.0
 40
8.0
 40
9.0
 40
9.0
 40
9.0
 40
10.0
 40
10.0
 40
10.0
 40
11.0
 40
11.0
 40
11.0
 40
12.0
 40
12.0
 40
12.0
 40
13.0
 40
13.0
 40
13.0
 40
13.0
 10
105.8657172044364
 20
-151.9552381347542
 10
106.0245361063064
 20
-152.1733126789706
 10
106.0986056592392
 20
-152.2663302570723
 10
106.2422661409742
 20
-152.3149061034143
 10
106.2422661409742
 20
-152.3149061034143
 10
106.2422661409742
 20
-151.5366590332964
 10
106.2422661409742
 20
-151.5366590332964
 10
106.2422661409742
 20
-151.5366590332964
 10
106.447593831895
 20
-151.5366590332964
 10
106.447593831895
 20
-151.5366590332964
 10
106.447593831895
 20
-151.5366590332964
 10
106.447593831895
 20
-152.564675526095
 10
106.447593831895
 20
-152.564675526095
 10
106.0899929205261
 20
-152.5329806476306
 10
106.0117892530109
 20
-152.4671793238624
 10
105.7134439839883
 20
-152.08236215816
 10
105.5146619744894
 20
-151.8260470540574
 10
105.44679359343
 20
-151.7605902398376
 10
105.3093342835685
 20
-151.7605902398376
 10
105.1908229988759
 20
-151.7605902398376
 10
105.0599093704364
 20
-151.8325927354794
 10
105.0599093704364
 20
-152.0293076876871
 10
105.0599093704364
 20
-152.289756906372
 10
105.2903862583996
 20
-152.2980251355366
 10
105.4068304858011
 20
-152.3021592501189
 10
105.4068304858011
 20
-152.3021592501189
 10
105.4068304858011
 20
-152.5264349662087
 10
105.4068304858011
 20
-152.5264349662087
 10
105.2797064623954
 20
-152.5178222274955
 10
105.1677408591247
 20
-152.5074869410398
 10
105.0492295744321
 20
-152.4268717066849
 10
104.888343615271
 20
-152.317317670254
 10
104.8545816795155
 20
-152.130938004502
 10
104.8545816795155
 20
-152.0144937771005
 10
104.8545816795155
 20
-151.7371635905379
 10
105.0385497784279
 20
-151.5301133518744
 10
105.3114013408597
 20
-151.5301133518744
 10
105.5401556810803
 20
-151.5301133518744
 10
105.6393744310554
 20
-151.6462130697273
 10
105.8657172044364
 20
-151.9552381347542
 97
        0
 97
        0
 75
     2
 76
     1
 98
        0
  0
ENDBLK
  5
118
330
115
100
AcDbEntity
  8
0
100
AcDbBlockEnd
  0
BLOCK
  5
133
330
131
100
AcDbEntity
  8
0
100
AcDbBlockBegin
  2
block 4
 70
     0
 10
0.0
 20
0.0
 30
0.0
  3
block 4
  1

  0
SPLINE
  5
135
330
131
100
AcDbEntity
  8
_U+30EC_U+30A4_U+30E4_U+30FC 1
370
     0
100
AcDbSpline
210
0.0
220
0.0
230
1.0
 70
    11
 71
     3
 72
    62
 73
    58
 74
     0
 42
0.0000000001
 43
0.0000000001
 12
1.0
 22
0.0
 32
0.0
 13
1.0
 23
0.0
 33
0.0
 40
0.0
 40
0.0
 40
0.0
 40
0.0
 40
1.0
 40
1.0
 40
1.0
 40
2.0
 40
2.0
 40
2.0
 40
3.0
 40
3.0
 40
3.0
 40
4.0
 40
4.0
 40
4.0
 40
5.0
 40
5.0
 40
5.0
 40
6.0
 40
6.0
 40
6.0
 40
7.0
 40
7.0
 40
7.0
 40
8.0
 40
8.0
 40
8.0
 40
9.0
 40
9.0
 40
9.0
 40
10.0
 40
10.0
 40
10.0
 40
11.0
 40
11.0
 40
11.0
 40
12.0
 40
12.0
 40
12.0
 40
13.0
 40
13.0
 40
13.0
 40
14.0
 40
14.0
 40
14.0
 40
15.0
 40
15.0
 40
15.0
 40
16.0
 40
16.0
 40
16.0
 40
17.0
 40
17.0
 40
17.0
 40
18.0
 40
18.0
 40
18.0
 40
19.0
 40
19.0
 40
19.0
 40
19.0
 10
87.49698484140701
 20
-153.3153618323309
 30
0.0
 10
87.40155569646559
 20
-153.3153618323309
 30
0.0
 10
87.1838256617978
 20
-153.2943467498709
 30
0.0
 10
87.05876869568323
 20
-153.1083115936674
 30
0.0
 10
86.98469914275036
 20
-152.9960014808482
 30
0.0
 10
86.98056502816806
 20
-152.896782730873
 30
0.0
 10
86.97643091358576
 20
-152.8120333819359
 30
0.0
 10
86.97643091358576
 20
-152.8120333819359
 30
0.0
 10
87.19657251509322
 20
-152.8120333819359
 30
0.0
 10
87.19657251509322
 20
-152.8120333819359
 30
0.0
 10
87.19863957238437
 20
-152.8861029348687
 30
0.0
 10
87.20897485884012
 20
-153.1207139374143
 30
0.0
 10
87.49250621727619
 20
-153.1207139374143
 30
0.0
 10
87.62996552713766
 20
-153.1207139374143
 30
0.0
 10
87.78258325713422
 20
-153.0511230086122
 30
0.0
 10
87.78258325713422
 20
-152.8227131779402
 30
0.0
 10
87.78258325713422
 20
-152.7062689505387
 30
0.0
 10
87.74434269724794
 20
-152.6576931041967
 30
0.0
 10
87.71264781878365
 20
-152.6259982257324
 30
0.0
 10
87.63857826585078
 20
-152.5519286727995
 30
0.0
 10
87.52213403844934
 20
-152.5391818195041
 30
0.0
 10
87.46735702023386
 20
-152.5391818195041
 30
0.0
 10
87.44806448551645
 20
-152.5391818195041
 30
0.0
 10
87.41223549246986
 20
-152.5412488767952
 30
0.0
 10
87.38467472858787
 20
-152.5453829913776
 30
0.0
 10
87.38467472858787
 20
-152.5453829913776
 30
0.0
 10
87.38467472858787
 20
-152.3507350964609
 30
0.0
 10
87.38467472858787
 20
-152.3507350964609
 30
0.0
 10
87.42291528847413
 20
-152.3572807778829
 30
0.0
 10
87.46494545339418
 20
-152.359347835174
 30
0.0
 10
87.47149113481616
 20
-152.359347835174
 30
0.0
 10
87.5369479490359
 20
-152.359347835174
 30
0.0
 10
87.73572995853482
 20
-152.3379882431655
 30
0.0
 10
87.73572995853482
 20
-152.1013101833288
 30
0.0
 10
87.73572995853482
 20
-151.9235432562899
 30
0.0
 10
87.60481633009533
 20
-151.868421728526
 30
0.0
 10
87.49457327456733
 20
-151.868421728526
 30
0.0
 10
87.23033445084867
 20
-151.868421728526
 30
0.0
 10
87.22172171213555
 20
-152.1013101833288
 30
0.0
 10
87.21758759755325
 20
-152.172968169422
 30
0.0
 10
87.21758759755325
 20
-152.172968169422
 30
0.0
 10
87.01432696392351
 20
-152.172968169422
 30
0.0
 10
87.01432696392351
 20
-152.172968169422
 30
0.0
 10
87.02293970263663
 20
-152.048255712856
 30
0.0
 10
87.05050046651863
 20
-151.6717067763182
 30
0.0
 10
87.50732012786276
 20
-151.6717067763182
 30
0.0
 10
87.73159584395252
 20
-151.6717067763182
 30
0.0
 10
87.97275252792001
 20
-151.7988307997239
 30
0.0
 10
87.97275252792001
 20
-152.0947645019069
 30
0.0
 10
87.97275252792001
 20
-152.2811441676589
 30
0.0
 10
87.87766789252711
 20
-152.3634819497564
 30
0.0
 10
87.7781046330034
 20
-152.4248046493938
 30
0.0
 10
87.83942733264084
 20
-152.4523654132758
 30
0.0
 10
88.02132837426203
 20
-152.5326361380821
 30
0.0
 10
88.02132837426203
 20
-152.8099663246447
 30
0.0
 10
88.02132837426203
 20
-153.1482747012963
 30
0.0
 10
87.7739705184211
 20
-153.3153618323309
 30
0.0
 10
87.49698484140701
 20
-153.3153618323309
 30
0.0
  0
HATCH
  5
136
330
131
100
AcDbEntity
  8
_U+30EC_U+30A4_U+30E4_U+30FC 1
 62
   179
420
  2234388
100
AcDbHatch
 10
0.0
 20
0.0
 30
0.0
210
0.0
220
0.0
230
1.0
  2
SOLID
 70
     1
 71
     0
 91
        1
 92
        1
 93
        1
 72
     4
 94
        3
 73
     0
 74
     1
 95
       62
 96
       58
 40
0.0
 40
0.0
 40
0.0
 40
0.0
 40
1.0
 40
1.0
 40
1.0
 40
2.0
 40
2.0
 40
2.0
 40
3.0
 40
3.0
 40
3.0
 40
4.0
 40
4.0
 40
4.0
 40
5.0
 40
5.0
 40
5.0
 40
6.0
 40
6.0
 40
6.0
 40
7.0
 40
7.0
 40
7.0
 40
8.0
 40
8.0
 40
8.0
 40
9.0
 40
9.0
 40
9.0
 40
10.0
 40
10.0
 40
10.0
 40
11.0
 40
11.0
 40
11.0
 40
12.0
 40
12.0
 40
12.0
 40
13.0
 40
13.0
 40
13.0
 40
14.0
 40
14.0
 40
14.0
 40
15.0
 40
15.0
 40
15.0
 40
16.0
 40
16.0
 40
16.0
 40
17.0
 40
17.0
 40
17.0
 40
18.0
 40
18.0
 40
18.0
 40
19.0
 40
19.0
 40
19.0
 40
19.0
 10
87.49698484140701
 20
-153.3153618323309
 10
87.40155569646559
 20
-153.3153618323309
 10
87.1838256617978
 20
-153.2943467498709
 10
87.05876869568323
 20
-153.1083115936674
 10
86.98469914275036
 20
-152.9960014808482
 10
86.98056502816806
 20
-152.896782730873
 10
86.97643091358576
 20
-152.8120333819359
 10
86.97643091358576
 20
-152.8120333819359
 10
87.19657251509322
 20
-152.8120333819359
 10
87.19657251509322
 20
-152.8120333819359
 10
87.19863957238437
 20
-152.8861029348687
 10
87.20897485884012
 20
-153.1207139374143
 10
87.49250621727619
 20
-153.1207139374143
 10
87.62996552713766
 20
-153.1207139374143
 10
87.78258325713422
 20
-153.0511230086122
 10
87.78258325713422
 20
-152.8227131779402
 10
87.78258325713422
 20
-152.7062689505387
 10
87.74434269724794
 20
-152.6576931041967
 10
87.71264781878365
 20
-152.6259982257324
 10
87.63857826585078
 20
-152.5519286727995
 10
87.52213403844934
 20
-152.5391818195041
 10
87.46735702023386
 20
-152.5391818195041
 10
87.44806448551645
 20
-152.5391818195041
 10
87.41223549246986
 20
-152.5412488767952
 10
87.38467472858787
 20
-152.5453829913776
 10
87.38467472858787
 20
-152.5453829913776
 10
87.38467472858787
 20
-152.3507350964609
 10
87.38467472858787
 20
-152.3507350964609
 10
87.42291528847413
 20
-152.3572807778829
 10
87.46494545339418
 20
-152.359347835174
 10
87.47149113481616
 20
-152.359347835174
 10
87.5369479490359
 20
-152.359347835174
 10
87.73572995853482
 20
-152.3379882431655
 10
87.73572995853482
 20
-152.1013101833288
 10
87.73572995853482
 20
-151.9235432562899
 10
87.60481633009533
 20
-151.868421728526
 10
87.49457327456733
 20
-151.868421728526
 10
87.23033445084867
 20
-151.868421728526
 10
87.22172171213555
 20
-152.1013101833288
 10
87.21758759755325
 20
-152.172968169422
 10
87.21758759755325
 20
-152.172968169422
 10
87.01432696392351
 20
-152.172968169422
 10
87.01432696392351
 20
-152.172968169422
 10
87.02293970263663
 20
-152.048255712856
 10
87.05050046651863
 20
-151.6717067763182
 10
87.50732012786276
 20
-151.6717067763182
 10
87.73159584395252
 20
-151.6717067763182
 10
87.97275252792001
 20
-151.7988307997239
 10
87.97275252792001
 20
-152.0947645019069
 10
87.97275252792001
 20
-152.2811441676589
 10
87.87766789252711
 20
-152.3634819497564
 10
87.7781046330034
 20
-152.4248046493938
 10
87.83942733264084
 20
-152.4523654132758
 10
88.02132837426203
 20
-152.5326361380821
 10
88.02132837426203
 20
-152.8099663246447
 10
88.02132837426203
 20
-153.1482747012963
 10
87.7739705184211
 20
-153.3153618323309
 10
87.49698484140701
 20
-153.3153618323309
 97
        0
 97
        0
 75
     2
 76
     1
 98
        0
  0
SPLINE
  5
137
330
131
100
AcDbEntity
  8
_U+30EC_U+30A4_U+30E4_U+30FC 1
370
     0
100
AcDbSpline
210
0.0
220
0.0
230
1.0
 70
    11
 71
     3
 72
    29
 73
    25
 74
     0
 42
0.0000000001
 43
0.0000000001
 12
1.0
 22
0.0
 32
0.0
 13
1.0
 23
0.0
 33
0.0
 40
0.0
 40
0.0
 40
0.0
 40
0.0
 40
1.0
 40
1.0
 40
1.0
 40
2.0
 40
2.0
 40
2.0
 40
3.0
 40
3.0
 40
3.0
 40
4.0
 40
4.0
 40
4.0
 40
5.0
 40
5.0
 40
5.0
 40
6.0
 40
6.0
 40
6.0
 40
7.0
 40
7.0
 40
7.0
 40
8.0
 40
8.0
 40
8.0
 40
8.0
 10
89.08000621687931
 20
-153.0869520016588
 30
0.0
 10
88.97183021864247
 20
-153.296413807162
 30
0.0
 10
88.79854191573439
 20
-153.3153618323309
 30
0.0
 10
88.68209768833295
 20
-153.3153618323309
 30
0.0
 10
88.52121172917178
 20
-153.3153618323309
 30
0.0
 10
88.37961830472801
 20
-153.26885304328
 30
0.0
 10
88.28453366933512
 20
-153.0869520016588
 30
0.0
 10
88.1808362952291
 20
-152.8923041067422
 30
0.0
 10
88.1615437605117
 20
-152.655281537357
 30
0.0
 10
88.1615437605117
 20
-152.4926730304532
 30
0.0
 10
88.1615437605117
 20
-152.3486680391698
 30
0.0
 10
88.17876923793796
 20
-152.096831559198
 30
0.0
 10
88.28453366933512
 20
-151.8980495496991
 30
0.0
 10
88.39236515802344
 20
-151.6951334256179
 30
0.0
 10
88.5532511171846
 20
-151.6717067763182
 30
0.0
 10
88.68209768833295
 20
-151.6717067763182
 30
0.0
 10
88.84091659020297
 20
-151.6717067763182
 30
0.0
 10
88.98457707193789
 20
-151.7161485080779
 30
0.0
 10
89.08000621687931
 20
-151.8980495496991
 30
0.0
 10
89.1792249668545
 20
-152.0906303873246
 30
0.0
 10
89.2026516161542
 20
-152.3190402179966
 30
0.0
 10
89.2026516161542
 20
-152.4926730304532
 30
0.0
 10
89.2026516161542
 20
-152.6638942760702
 30
0.0
 10
89.18129202414565
 20
-152.8943711640333
 30
0.0
 10
89.08000621687931
 20
-153.0869520016588
 30
0.0
  0
SPLINE
  5
138
330
131
100
AcDbEntity
  8
_U+30EC_U+30A4_U+30E4_U+30FC 1
370
     0
100
AcDbSpline
210
0.0
220
0.0
230
1.0
 70
    11
 71
     3
 72
    17
 73
    13
 74
     0
 42
0.0000000001
 43
0.0000000001
 12
1.0
 22
0.0
 32
0.0
 13
1.0
 23
0.0
 33
0.0
 40
0.0
 40
0.0
 40
0.0
 40
0.0
 40
1.0
 40
1.0
 40
1.0
 40
2.0
 40
2.0
 40
2.0
 40
3.0
 40
3.0
 40
3.0
 40
4.0
 40
4.0
 40
4.0
 40
4.0
 10
88.68209768833295
 20
-151.8642876139436
 30
0.0
 10
88.43232826565234
 20
-151.8642876139436
 30
0.0
 10
88.38581947660147
 20
-152.1478189723797
 30
0.0
 10
88.38581947660147
 20
-152.4926730304532
 30
0.0
 10
88.38581947660147
 20
-152.8120333819359
 30
0.0
 10
88.42199297919659
 20
-153.1207139374143
 30
0.0
 10
88.68209768833295
 20
-153.1207139374143
 30
0.0
 10
88.92980005372242
 20
-153.1207139374143
 30
0.0
 10
88.97837590006444
 20
-152.8395941458179
 30
0.0
 10
88.97837590006444
 20
-152.4926730304532
 30
0.0
 10
88.97837590006444
 20
-152.172968169422
 30
0.0
 10
88.94013534017816
 20
-151.8642876139436
 30
0.0
 10
88.68209768833295
 20
-151.8642876139436
 30
0.0
  0
HATCH
  5
139
330
131
100
AcDbEntity
  8
_U+30EC_U+30A4_U+30E4_U+30FC 1
 62
   179
420
  2234388
100
AcDbHatch
 10
0.0
 20
0.0
 30
0.0
210
0.0
220
0.0
230
1.0
  2
SOLID
 70
     1
 71
     0
 91
        2
 92
        1
 93
        1
 72
     4
 94
        3
 73
     0
 74
     1
 95
       29
 96
       25
 40
0.0
 40
0.0
 40
0.0
 40
0.0
 40
1.0
 40
1.0
 40
1.0
 40
2.0
 40
2.0
 40
2.0
 40
3.0
 40
3.0
 40
3.0
 40
4.0
 40
4.0
 40
4.0
 40
5.0
 40
5.0
 40
5.0
 40
6.0
 40
6.0
 40
6.0
 40
7.0
 40
7.0
 40
7.0
 40
8.0
 40
8.0
 40
8.0
 40
8.0
 10
89.08000621687931
 20
-153.0869520016588
 10
88.97183021864247
 20
-153.296413807162
 10
88.79854191573439
 20
-153.3153618323309
 10
88.68209768833295
 20
-153.3153618323309
 10
88.52121172917178
 20
-153.3153618323309
 10
88.37961830472801
 20
-153.26885304328
 10
88.28453366933512
 20
-153.0869520016588
 10
88.1808362952291
 20
-152.8923041067422
 10
88.1615437605117
 20
-152.655281537357
 10
88.1615437605117
 20
-152.4926730304532
 10
88.1615437605117
 20
-152.3486680391698
 10
88.17876923793796
 20
-152.096831559198
 10
88.28453366933512
 20
-151.8980495496991
 10
88.39236515802344
 20
-151.6951334256179
 10
88.5532511171846
 20
-151.6717067763182
 10
88.68209768833295
 20
-151.6717067763182
 10
88.84091659020297
 20
-151.6717067763182
 10
88.98457707193789
 20
-151.7161485080779
 10
89.08000621687931
 20
-151.8980495496991
 10
89.1792249668545
 20
-152.0906303873246
 10
89.2026516161542
 20
-152.3190402179966
 10
89.2026516161542
 20
-152.4926730304532
 10
89.2026516161542
 20
-152.6638942760702
 10
89.18129202414565
 20
-152.8943711640333
 10
89.08000621687931
 20
-153.0869520016588
 97
        0
 97
        0
 92
        1
 93
        1
 72
     4
 94
        3
 73
     0
 74
     1
 95
       17
 96
       13
 40
0.0
 40
0.0
 40
0.0
 40
0.0
 40
1.0
 40
1.0
 40
1.0
 40
2.0
 40
2.0
 40
2.0
 40
3.0
 40
3.0
 40
3.0
 40
4.0
 40
4.0
 40
4.0
 40
4.0
 10
88.68209768833295
 20
-151.8642876139436
 10
88.43232826565234
 20
-151.8642876139436
 10
88.38581947660147
 20
-152.1478189723797
 10
88.38581947660147
 20
-152.4926730304532
 10
88.38581947660147
 20
-152.8120333819359
 10
88.42199297919659
 20
-153.1207139374143
 10
88.68209768833295
 20
-153.1207139374143
 10
88.92980005372242
 20
-153.1207139374143
 10
88.97837590006444
 20
-152.8395941458179
 10
88.97837590006444
 20
-152.4926730304532
 10
88.97837590006444
 20
-152.172968169422
 10
88.94013534017816
 20
-151.8642876139436
 10
88.68209768833295
 20
-151.8642876139436
 97
        0
 97
        0
 75
     2
 76
     1
 98
        0
  0
ENDBLK
  5
134
330
131
100
AcDbEntity
  8
0
100
AcDbBlockEnd
  0
BLOCK
  5
148
330
146
100
AcDbEntity
  8
0
100
AcDbBlockBegin
  2
block 5
 70
     0
 10
0.0
 20
0.0
 30
0.0
  3
block 5
  1

  0
SPLINE
  5
14A
330
146
100
AcDbEntity
  8
_U+30EC_U+30A4_U+30E4_U+30FC 1
370
     0
100
AcDbSpline
210
0.0
220
0.0
230
1.0
 70
    11
 71
     3
 72
    26
 73
    22
 74
     0
 42
0.0000000001
 43
0.0000000001
 12
1.0
 22
0.0
 32
0.0
 13
1.0
 23
0.0
 33
0.0
 40
0.0
 40
0.0
 40
0.0
 40
0.0
 40
1.0
 40
1.0
 40
1.0
 40
2.0
 40
2.0
 40
2.0
 40
3.0
 40
3.0
 40
3.0
 40
4.0
 40
4.0
 40
4.0
 40
5.0
 40
5.0
 40
5.0
 40
6.0
 40
6.0
 40
6.0
 40
7.0
 40
7.0
 40
7.0
 40
7.0
 10
82.44768064345058
 20
-109.3104681801377
 30
0.0
 10
82.44768064345058
 20
-109.3104681801377
 30
0.0
 10
81.34352754042801
 20
-109.3104681801377
 30
0.0
 10
81.34352754042801
 20
-109.3104681801377
 30
0.0
 10
81.34352754042801
 20
-109.3104681801377
 30
0.0
 10
81.34352754042801
 20
-109.6405083276246
 30
0.0
 10
81.34352754042801
 20
-109.6405083276246
 30
0.0
 10
81.34352754042801
 20
-109.6405083276246
 30
0.0
 10
81.19538843456226
 20
-109.6405083276246
 30
0.0
 10
81.19538843456226
 20
-109.6405083276246
 30
0.0
 10
81.1805745239757
 20
-109.3084011228465
 30
0.0
 10
81.01762150752337
 20
-109.2618923337956
 30
0.0
 10
80.90324433741308
 20
-109.2322645126225
 30
0.0
 10
80.90324433741308
 20
-109.2322645126225
 30
0.0
 10
80.90324433741308
 20
-109.0861924640479
 30
0.0
 10
80.90324433741308
 20
-109.0861924640479
 30
0.0
 10
80.90324433741308
 20
-109.0861924640479
 30
0.0
 10
82.44768064345058
 20
-109.0861924640479
 30
0.0
 10
82.44768064345058
 20
-109.0861924640479
 30
0.0
 10
82.44768064345058
 20
-109.0861924640479
 30
0.0
 10
82.44768064345058
 20
-109.3104681801377
 30
0.0
 10
82.44768064345058
 20
-109.3104681801377
 30
0.0
  0
HATCH
  5
14B
330
146
100
AcDbEntity
  8
_U+30EC_U+30A4_U+30E4_U+30FC 1
 62
   179
420
  2234388
100
AcDbHatch
 10
0.0
 20
0.0
 30
0.0
210
0.0
220
0.0
230
1.0
  2
SOLID
 70
     1
 71
     0
 91
        1
 92
        1
 93
        1
 72
     4
 94
        3
 73
     0
 74
     1
 95
       26
 96
       22
 40
0.0
 40
0.0
 40
0.0
 40
0.0
 40
1.0
 40
1.0
 40
1.0
 40
2.0
 40
2.0
 40
2.0
 40
3.0
 40
3.0
 40
3.0
 40
4.0
 40
4.0
 40
4.0
 40
5.0
 40
5.0
 40
5.0
 40
6.0
 40
6.0
 40
6.0
 40
7.0
 40
7.0
 40
7.0
 40
7.0
 10
82.44768064345058
 20
-109.3104681801377
 10
82.44768064345058
 20
-109.3104681801377
 10
81.34352754042801
 20
-109.3104681801377
 10
81.34352754042801
 20
-109.3104681801377
 10
81.34352754042801
 20
-109.3104681801377
 10
81.34352754042801
 20
-109.6405083276246
 10
81.34352754042801
 20
-109.6405083276246
 10
81.34352754042801
 20
-109.6405083276246
 10
81.19538843456226
 20
-109.6405083276246
 10
81.19538843456226
 20
-109.6405083276246
 10
81.1805745239757
 20
-109.3084011228465
 10
81.01762150752337
 20
-109.2618923337956
 10
80.90324433741308
 20
-109.2322645126225
 10
80.90324433741308
 20
-109.2322645126225
 10
80.90324433741308
 20
-109.0861924640479
 10
80.90324433741308
 20
-109.0861924640479
 10
80.90324433741308
 20
-109.0861924640479
 10
82.44768064345058
 20
-109.0861924640479
 10
82.44768064345058
 20
-109.0861924640479
 10
82.44768064345058
 20
-109.0861924640479
 10
82.44768064345058
 20
-109.3104681801377
 10
82.44768064345058
 20
-109.3104681801377
 97
        0
 97
        0
 75
     2
 76
     1
 98
        0
  0
SPLINE
  5
14C
330
146
100
AcDbEntity
  8
_U+30EC_U+30A4_U+30E4_U+30FC 1
370
     0
100
AcDbSpline
210
0.0
220
0.0
230
1.0
 70
    11
 71
     3
 72
    29
 73
    25
 74
     0
 42
0.0000000001
 43
0.0000000001
 12
1.0
 22
0.0
 32
0.0
 13
1.0
 23
0.0
 33
0.0
 40
0.0
 40
0.0
 40
0.0
 40
0.0
 40
1.0
 40
1.0
 40
1.0
 40
2.0
 40
2.0
 40
2.0
 40
3.0
 40
3.0
 40
3.0
 40
4.0
 40
4.0
 40
4.0
 40
5.0
 40
5.0
 40
5.0
 40
6.0
 40
6.0
 40
6.0
 40
7.0
 40
7.0
 40
7.0
 40
8.0
 40
8.0
 40
8.0
 40
8.0
 10
82.49832354708376
 20
-108.0850477160343
 30
0.0
 10
82.49832354708376
 20
-108.3516981065926
 30
0.0
 10
82.36086423722229
 20
-108.605257134307
 30
0.0
 10
82.01187606456648
 20
-108.605257134307
 30
0.0
 10
81.75590547001242
 20
-108.605257134307
 30
0.0
 10
81.66082083461951
 20
-108.4636637098633
 30
0.0
 10
81.59949813498207
 20
-108.3578992784661
 30
0.0
 10
81.54024249263577
 20
-108.4826117350321
 30
0.0
 10
81.42586532252548
 20
-108.5587483452561
 30
0.0
 10
81.26497936336432
 20
-108.5587483452561
 30
0.0
 10
80.99006074364138
 20
-108.5587483452561
 30
0.0
 10
80.85466849107105
 20
-108.3599663357572
 30
0.0
 10
80.85466849107105
 20
-108.0850477160343
 30
0.0
 10
80.85466849107105
 20
-107.8015163575982
 30
0.0
 10
80.9986734823545
 20
-107.6110025772639
 30
0.0
 10
81.26497936336432
 20
-107.6110025772639
 30
0.0
 10
81.42586532252548
 20
-107.6110025772639
 30
0.0
 10
81.54024249263577
 20
-107.6895507543276
 30
0.0
 10
81.59949813498207
 20
-107.8142632108937
 30
0.0
 10
81.65014103861525
 20
-107.7253797473742
 30
0.0
 10
81.74522567400814
 20
-107.5665608455042
 30
0.0
 10
82.00774194998418
 20
-107.5665608455042
 30
0.0
 10
82.38222382923084
 20
-107.5665608455042
 30
0.0
 10
82.49832354708376
 20
-107.845958089358
 30
0.0
 10
82.49832354708376
 20
-108.0850477160343
 30
0.0
  0
SPLINE
  5
14D
330
146
100
AcDbEntity
  8
_U+30EC_U+30A4_U+30E4_U+30FC 1
370
     0
100
AcDbSpline
210
0.0
220
0.0
230
1.0
 70
    11
 71
     3
 72
    17
 73
    13
 74
     0
 42
0.0000000001
 43
0.0000000001
 12
1.0
 22
0.0
 32
0.0
 13
1.0
 23
0.0
 33
0.0
 40
0.0
 40
0.0
 40
0.0
 40
0.0
 40
1.0
 40
1.0
 40
1.0
 40
2.0
 40
2.0
 40
2.0
 40
3.0
 40
3.0
 40
3.0
 40
4.0
 40
4.0
 40
4.0
 40
4.0
 10
81.04724932869652
 20
-108.0850477160343
 30
0.0
 10
81.04724932869652
 20
-108.2500677897778
 30
0.0
 10
81.14233396408942
 20
-108.3344726291664
 30
0.0
 10
81.27772621665974
 20
-108.3344726291664
 30
0.0
 10
81.40037161593463
 20
-108.3344726291664
 30
0.0
 10
81.51888290062723
 20
-108.2628146430732
 30
0.0
 10
81.51888290062723
 20
-108.0850477160343
 30
0.0
 10
81.51888290062723
 20
-107.9072807889954
 30
0.0
 10
81.40037161593463
 20
-107.8352782933537
 30
0.0
 10
81.27772621665974
 20
-107.8352782933537
 30
0.0
 10
81.14233396408942
 20
-107.8352782933537
 30
0.0
 10
81.04724932869652
 20
-107.922094699582
 30
0.0
 10
81.04724932869652
 20
-108.0850477160343
 30
0.0
  0
SPLINE
  5
14E
330
146
100
AcDbEntity
  8
_U+30EC_U+30A4_U+30E4_U+30FC 1
370
     0
100
AcDbSpline
210
0.0
220
0.0
230
1.0
 70
    11
 71
     3
 72
    17
 73
    13
 74
     0
 42
0.0000000001
 43
0.0000000001
 12
1.0
 22
0.0
 32
0.0
 13
1.0
 23
0.0
 33
0.0
 40
0.0
 40
0.0
 40
0.0
 40
0.0
 40
1.0
 40
1.0
 40
1.0
 40
2.0
 40
2.0
 40
2.0
 40
3.0
 40
3.0
 40
3.0
 40
4.0
 40
4.0
 40
4.0
 40
4.0
 10
81.70732962367039
 20
-108.0850477160343
 30
0.0
 10
81.70732962367039
 20
-108.2287081977692
 30
0.0
 10
81.79414602989868
 20
-108.3813259277658
 30
0.0
 10
81.99706215397991
 20
-108.3813259277658
 30
0.0
 10
82.2023898449008
 20
-108.3813259277658
 30
0.0
 10
82.30367565216714
 20
-108.2542019043601
 30
0.0
 10
82.30367565216714
 20
-108.0850477160343
 30
0.0
 10
82.30367565216714
 20
-107.8990125598308
 30
0.0
 10
82.18103025289224
 20
-107.7887695043028
 30
0.0
 10
82.00326332585335
 20
-107.7887695043028
 30
0.0
 10
81.78139917660326
 20
-107.7887695043028
 30
0.0
 10
81.70732962367039
 20
-107.9517225207551
 30
0.0
 10
81.70732962367039
 20
-108.0850477160343
 30
0.0
  0
HATCH
  5
14F
330
146
100
AcDbEntity
  8
_U+30EC_U+30A4_U+30E4_U+30FC 1
 62
   179
420
  2234388
100
AcDbHatch
 10
0.0
 20
0.0
 30
0.0
210
0.0
220
0.0
230
1.0
  2
SOLID
 70
     1
 71
     0
 91
        3
 92
        1
 93
        1
 72
     4
 94
        3
 73
     0
 74
     1
 95
       29
 96
       25
 40
0.0
 40
0.0
 40
0.0
 40
0.0
 40
1.0
 40
1.0
 40
1.0
 40
2.0
 40
2.0
 40
2.0
 40
3.0
 40
3.0
 40
3.0
 40
4.0
 40
4.0
 40
4.0
 40
5.0
 40
5.0
 40
5.0
 40
6.0
 40
6.0
 40
6.0
 40
7.0
 40
7.0
 40
7.0
 40
8.0
 40
8.0
 40
8.0
 40
8.0
 10
82.49832354708376
 20
-108.0850477160343
 10
82.49832354708376
 20
-108.3516981065926
 10
82.36086423722229
 20
-108.605257134307
 10
82.01187606456648
 20
-108.605257134307
 10
81.75590547001242
 20
-108.605257134307
 10
81.66082083461951
 20
-108.4636637098633
 10
81.59949813498207
 20
-108.3578992784661
 10
81.54024249263577
 20
-108.4826117350321
 10
81.42586532252548
 20
-108.5587483452561
 10
81.26497936336432
 20
-108.5587483452561
 10
80.99006074364138
 20
-108.5587483452561
 10
80.85466849107105
 20
-108.3599663357572
 10
80.85466849107105
 20
-108.0850477160343
 10
80.85466849107105
 20
-107.8015163575982
 10
80.9986734823545
 20
-107.6110025772639
 10
81.26497936336432
 20
-107.6110025772639
 10
81.42586532252548
 20
-107.6110025772639
 10
81.54024249263577
 20
-107.6895507543276
 10
81.59949813498207
 20
-107.8142632108937
 10
81.65014103861525
 20
-107.7253797473742
 10
81.74522567400814
 20
-107.5665608455042
 10
82.00774194998418
 20
-107.5665608455042
 10
82.38222382923084
 20
-107.5665608455042
 10
82.49832354708376
 20
-107.845958089358
 10
82.49832354708376
 20
-108.0850477160343
 97
        0
 97
        0
 92
        1
 93
        1
 72
     4
 94
        3
 73
     0
 74
     1
 95
       17
 96
       13
 40
0.0
 40
0.0
 40
0.0
 40
0.0
 40
1.0
 40
1.0
 40
1.0
 40
2.0
 40
2.0
 40
2.0
 40
3.0
 40
3.0
 40
3.0
 40
4.0
 40
4.0
 40
4.0
 40
4.0
 10
81.04724932869652
 20
-108.0850477160343
 10
81.04724932869652
 20
-108.2500677897778
 10
81.14233396408942
 20
-108.3344726291664
 10
81.27772621665974
 20
-108.3344726291664
 10
81.40037161593463
 20
-108.3344726291664
 10
81.51888290062723
 20
-108.2628146430732
 10
81.51888290062723
 20
-108.0850477160343
 10
81.51888290062723
 20
-107.9072807889954
 10
81.40037161593463
 20
-107.8352782933537
 10
81.27772621665974
 20
-107.8352782933537
 10
81.14233396408942
 20
-107.8352782933537
 10
81.04724932869652
 20
-107.922094699582
 10
81.04724932869652
 20
-108.0850477160343
 97
        0
 97
        0
 92
        1
 93
        1
 72
     4
 94
        3
 73
     0
 74
     1
 95
       17
 96
       13
 40
0.0
 40
0.0
 40
0.0
 40
0.0
 40
1.0
 40
1.0
 40
1.0
 40
2.0
 40
2.0
 40
2.0
 40
3.0
 40
3.0
 40
3.0
 40
4.0
 40
4.0
 40
4.0
 40
4.0
 10
81.70732962367039
 20
-108.0850477160343
 10
81.70732962367039
 20
-108.2287081977692
 10
81.79414602989868
 20
-108.3813259277658
 10
81.99706215397991
 20
-108.3813259277658
 10
82.2023898449008
 20
-108.3813259277658
 10
82.30367565216714
 20
-108.2542019043601
 10
82.30367565216714
 20
-108.0850477160343
 10
82.30367565216714
 20
-107.8990125598308
 10
82.18103025289224
 20
-107.7887695043028
 10
82.00326332585335
 20
-107.7887695043028
 10
81.78139917660326
 20
-107.7887695043028
 10
81.70732962367039
 20
-107.9517225207551
 10
81.70732962367039
 20
-108.0850477160343
 97
        0
 97
        0
 75
     2
 76
     1
 98
        0
  0
POLYLINE
  5
150
330
146
100
AcDbEntity
  8
_U+30EC_U+30A4_U+30E4_U+30FC 1
370
     0
100
AcDb2dPolyline
 66
     1
 10
0.0
 20
0.0
 30
0.0
  0
VERTEX
  5
151
330
150
100
AcDbEntity
  8
_U+30EC_U+30A4_U+30E4_U+30FC 1
370
     0
100
AcDbVertex
100
AcDb2dVertex
 10
82.44768064345058
 20
-107.3481417917394
 30
0.0
  0
VERTEX
  5
152
330
150
100
AcDbEntity
  8
_U+30EC_U+30A4_U+30E4_U+30FC 1
370
     0
100
AcDbVertex
100
AcDb2dVertex
 10
82.19584416347882
 20
-107.3481417917394
 30
0.0
  0
VERTEX
  5
153
330
150
100
AcDbEntity
  8
_U+30EC_U+30A4_U+30E4_U+30FC 1
370
     0
100
AcDbVertex
100
AcDb2dVertex
 10
82.19584416347882
 20
-107.0963053117676
 30
0.0
  0
VERTEX
  5
154
330
150
100
AcDbEntity
  8
_U+30EC_U+30A4_U+30E4_U+30FC 1
370
     0
100
AcDbVertex
100
AcDb2dVertex
 10
82.44768064345058
 20
-107.0963053117676
 30
0.0
  0
VERTEX
  5
155
330
150
100
AcDbEntity
  8
_U+30EC_U+30A4_U+30E4_U+30FC 1
370
     0
100
AcDbVertex
100
AcDb2dVertex
 10
82.44768064345058
 20
-107.3481417917394
 30
0.0
  0
SEQEND
  5
156
330
150
100
AcDbEntity
  8
_U+30EC_U+30A4_U+30E4_U+30FC 1
370
     0
  0
HATCH
  5
157
330
146
100
AcDbEntity
  8
_U+30EC_U+30A4_U+30E4_U+30FC 1
 62
   179
420
  2234388
100
AcDbHatch
 10
0.0
 20
0.0
 30
0.0
210
0.0
220
0.0
230
1.0
  2
SOLID
 70
     1
 71
     0
 91
        1
 92
        1
 93
        4
 72
     1
 10
82.44768064345058
 20
-107.3481417917394
 11
82.19584416347882
 21
-107.3481417917394
 72
     1
 10
82.19584416347882
 20
-107.3481417917394
 11
82.19584416347882
 21
-107.0963053117676
 72
     1
 10
82.19584416347882
 20
-107.0963053117676
 11
82.44768064345058
 21
-107.0963053117676
 72
     1
 10
82.44768064345058
 20
-107.0963053117676
 11
82.44768064345058
 21
-107.3481417917394
 97
        0
 75
     2
 76
     1
 98
        0
  0
SPLINE
  5
158
330
146
100
AcDbEntity
  8
_U+30EC_U+30A4_U+30E4_U+30FC 1
370
     0
100
AcDbSpline
210
0.0
220
0.0
230
1.0
 70
    11
 71
     3
 72
    44
 73
    40
 74
     0
 42
0.0000000001
 43
0.0000000001
 12
1.0
 22
0.0
 32
0.0
 13
1.0
 23
0.0
 33
0.0
 40
0.0
 40
0.0
 40
0.0
 40
0.0
 40
1.0
 40
1.0
 40
1.0
 40
2.0
 40
2.0
 40
2.0
 40
3.0
 40
3.0
 40
3.0
 40
4.0
 40
4.0
 40
4.0
 40
5.0
 40
5.0
 40
5.0
 40
6.0
 40
6.0
 40
6.0
 40
7.0
 40
7.0
 40
7.0
 40
8.0
 40
8.0
 40
8.0
 40
9.0
 40
9.0
 40
9.0
 40
10.0
 40
10.0
 40
10.0
 40
11.0
 40
11.0
 40
11.0
 40
12.0
 40
12.0
 40
12.0
 40
13.0
 40
13.0
 40
13.0
 40
13.0
 10
81.86580401599188
 20
-106.267070828468
 30
0.0
 10
82.0246229178619
 20
-106.4848008631357
 30
0.0
 10
82.09869247079477
 20
-106.5778184412375
 30
0.0
 10
82.2423529525297
 20
-106.626738797128
 30
0.0
 10
82.2423529525297
 20
-106.626738797128
 30
0.0
 10
82.2423529525297
 20
-105.8481472174616
 30
0.0
 10
82.2423529525297
 20
-105.8481472174616
 30
0.0
 10
82.2423529525297
 20
-105.8481472174616
 30
0.0
 10
82.44768064345058
 20
-105.8481472174616
 30
0.0
 10
82.44768064345058
 20
-105.8481472174616
 30
0.0
 10
82.44768064345058
 20
-105.8481472174616
 30
0.0
 10
82.44768064345058
 20
-106.8761637102601
 30
0.0
 10
82.44768064345058
 20
-106.8761637102601
 30
0.0
 10
82.09007973208165
 20
-106.8444688317958
 30
0.0
 10
82.01187606456648
 20
-106.7790120175761
 30
0.0
 10
81.71353079554385
 20
-106.3938503423252
 30
0.0
 10
81.51474878604493
 20
-106.1378797477711
 30
0.0
 10
81.4468804049855
 20
-106.0724229335513
 30
0.0
 10
81.30942109512404
 20
-106.0724229335513
 30
0.0
 10
81.19090981043145
 20
-106.0724229335513
 30
0.0
 10
81.05999618199195
 20
-106.1444254291931
 30
0.0
 10
81.05999618199195
 20
-106.3411403814008
 30
0.0
 10
81.05999618199195
 20
-106.6012450905372
 30
0.0
 10
81.29047306995517
 20
-106.6098578292503
 30
0.0
 10
81.40691729735661
 20
-106.6139919438326
 30
0.0
 10
81.40691729735661
 20
-106.6139919438326
 30
0.0
 10
81.40691729735661
 20
-106.8382676599224
 30
0.0
 10
81.40691729735661
 20
-106.8382676599224
 30
0.0
 10
81.27979327395089
 20
-106.8296549212093
 30
0.0
 10
81.16782767068027
 20
-106.818975125205
 30
0.0
 10
81.04931638598768
 20
-106.7387044003987
 30
0.0
 10
80.8884304268265
 20
-106.6288058544192
 30
0.0
 10
80.85466849107105
 20
-106.4424261886672
 30
0.0
 10
80.85466849107105
 20
-106.3263264708143
 30
0.0
 10
80.85466849107105
 20
-106.0489962842516
 30
0.0
 10
81.0386365899834
 20
-105.8416015360396
 30
0.0
 10
81.3114881524152
 20
-105.8416015360396
 30
0.0
 10
81.54024249263577
 20
-105.8416015360396
 30
0.0
 10
81.63946124261098
 20
-105.958045763441
 30
0.0
 10
81.86580401599188
 20
-106.267070828468
 30
0.0
  0
HATCH
  5
159
330
146
100
AcDbEntity
  8
_U+30EC_U+30A4_U+30E4_U+30FC 1
 62
   179
420
  2234388
100
AcDbHatch
 10
0.0
 20
0.0
 30
0.0
210
0.0
220
0.0
230
1.0
  2
SOLID
 70
     1
 71
     0
 91
        1
 92
        1
 93
        1
 72
     4
 94
        3
 73
     0
 74
     1
 95
       44
 96
       40
 40
0.0
 40
0.0
 40
0.0
 40
0.0
 40
1.0
 40
1.0
 40
1.0
 40
2.0
 40
2.0
 40
2.0
 40
3.0
 40
3.0
 40
3.0
 40
4.0
 40
4.0
 40
4.0
 40
5.0
 40
5.0
 40
5.0
 40
6.0
 40
6.0
 40
6.0
 40
7.0
 40
7.0
 40
7.0
 40
8.0
 40
8.0
 40
8.0
 40
9.0
 40
9.0
 40
9.0
 40
10.0
 40
10.0
 40
10.0
 40
11.0
 40
11.0
 40
11.0
 40
12.0
 40
12.0
 40
12.0
 40
13.0
 40
13.0
 40
13.0
 40
13.0
 10
81.86580401599188
 20
-106.267070828468
 10
82.0246229178619
 20
-106.4848008631357
 10
82.09869247079477
 20
-106.5778184412375
 10
82.2423529525297
 20
-106.626738797128
 10
82.2423529525297
 20
-106.626738797128
 10
82.2423529525297
 20
-105.8481472174616
 10
82.2423529525297
 20
-105.8481472174616
 10
82.2423529525297
 20
-105.8481472174616
 10
82.44768064345058
 20
-105.8481472174616
 10
82.44768064345058
 20
-105.8481472174616
 10
82.44768064345058
 20
-105.8481472174616
 10
82.44768064345058
 20
-106.8761637102601
 10
82.44768064345058
 20
-106.8761637102601
 10
82.09007973208165
 20
-106.8444688317958
 10
82.01187606456648
 20
-106.7790120175761
 10
81.71353079554385
 20
-106.3938503423252
 10
81.51474878604493
 20
-106.1378797477711
 10
81.4468804049855
 20
-106.0724229335513
 10
81.30942109512404
 20
-106.0724229335513
 10
81.19090981043145
 20
-106.0724229335513
 10
81.05999618199195
 20
-106.1444254291931
 10
81.05999618199195
 20
-106.3411403814008
 10
81.05999618199195
 20
-106.6012450905372
 10
81.29047306995517
 20
-106.6098578292503
 10
81.40691729735661
 20
-106.6139919438326
 10
81.40691729735661
 20
-106.6139919438326
 10
81.40691729735661
 20
-106.8382676599224
 10
81.40691729735661
 20
-106.8382676599224
 10
81.27979327395089
 20
-106.8296549212093
 10
81.16782767068027
 20
-106.818975125205
 10
81.04931638598768
 20
-106.7387044003987
 10
80.8884304268265
 20
-106.6288058544192
 10
80.85466849107105
 20
-106.4424261886672
 10
80.85466849107105
 20
-106.3263264708143
 10
80.85466849107105
 20
-106.0489962842516
 10
81.0386365899834
 20
-105.8416015360396
 10
81.3114881524152
 20
-105.8416015360396
 10
81.54024249263577
 20
-105.8416015360396
 10
81.63946124261098
 20
-105.958045763441
 10
81.86580401599188
 20
-106.267070828468
 97
        0
 97
        0
 75
     2
 76
     1
 98
        0
  0
ENDBLK
  5
149
330
146
100
AcDbEntity
  8
0
100
AcDbBlockEnd
  0
BLOCK
  5
164
330
162
100
AcDbEntity
  8
0
100
AcDbBlockBegin
  2
block 6
 70
     0
 10
0.0
 20
0.0
 30
0.0
  3
block 6
  1

  0
SPLINE
  5
166
330
162
100
AcDbEntity
  8
_U+30EC_U+30A4_U+30E4_U+30FC 1
370
     0
100
AcDbSpline
210
0.0
220
0.0
230
1.0
 70
    11
 71
     3
 72
    53
 73
    49
 74
     0
 42
0.0000000001
 43
0.0000000001
 12
1.0
 22
0.0
 32
0.0
 13
1.0
 23
0.0
 33
0.0
 40
0.0
 40
0.0
 40
0.0
 40
0.0
 40
1.0
 40
1.0
 40
1.0
 40
2.0
 40
2.0
 40
2.0
 40
3.0
 40
3.0
 40
3.0
 40
4.0
 40
4.0
 40
4.0
 40
5.0
 40
5.0
 40
5.0
 40
6.0
 40
6.0
 40
6.0
 40
7.0
 40
7.0
 40
7.0
 40
8.0
 40
8.0
 40
8.0
 40
9.0
 40
9.0
 40
9.0
 40
10.0
 40
10.0
 40
10.0
 40
11.0
 40
11.0
 40
11.0
 40
12.0
 40
12.0
 40
12.0
 40
13.0
 40
13.0
 40
13.0
 40
14.0
 40
14.0
 40
14.0
 40
15.0
 40
15.0
 40
15.0
 40
16.0
 40
16.0
 40
16.0
 40
16.0
 10
106.4982367355282
 20
-124.3183376425315
 30
0.0
 10
106.4982367355282
 20
-124.3965413100467
 30
0.0
 10
106.4813557676505
 20
-124.4981716268616
 30
0.0
 10
106.4179660107219
 20
-124.5998019436764
 30
0.0
 10
106.3080674647424
 20
-124.7730902465845
 30
0.0
 10
106.1768093267544
 20
-124.7944498385931
 30
0.0
 10
106.0689778380661
 20
-124.8133978637619
 30
0.0
 10
106.0689778380661
 20
-124.8133978637619
 30
0.0
 10
106.0689778380661
 20
-124.5911892049633
 30
0.0
 10
106.0689778380661
 20
-124.5911892049633
 30
0.0
 10
106.267759847565
 20
-124.5364121867479
 30
0.0
 10
106.2973876687382
 20
-124.4092881633421
 30
0.0
 10
106.2973876687382
 20
-124.3162705852404
 30
0.0
 10
106.2973876687382
 20
-124.1767442180878
 30
0.0
 10
106.1978244092144
 20
-124.0244709976397
 30
0.0
 10
105.9652804639601
 20
-124.0244709976397
 30
0.0
 10
105.709309869406
 20
-124.0244709976397
 30
0.0
 10
105.6393744310554
 20
-124.2043049819698
 30
0.0
 10
105.6393744310554
 20
-124.3248833239535
 30
0.0
 10
105.6393744310554
 20
-124.3565782024178
 30
0.0
 10
105.6393744310554
 20
-124.4981716268616
 30
0.0
 10
105.7685655117523
 20
-124.587055090381
 30
0.0
 10
105.7685655117523
 20
-124.587055090381
 30
0.0
 10
105.7496174865834
 20
-124.7627549601288
 30
0.0
 10
105.7496174865834
 20
-124.7627549601288
 30
0.0
 10
105.7496174865834
 20
-124.7627549601288
 30
0.0
 10
104.9031575258576
 20
-124.642176618145
 30
0.0
 10
104.9031575258576
 20
-124.642176618145
 30
0.0
 10
104.9031575258576
 20
-124.642176618145
 30
0.0
 10
104.9031575258576
 20
-123.8635850384785
 30
0.0
 10
104.9031575258576
 20
-123.8635850384785
 30
0.0
 10
104.9031575258576
 20
-123.8635850384785
 30
0.0
 10
105.0978054207742
 20
-123.8635850384785
 30
0.0
 10
105.0978054207742
 20
-123.8635850384785
 30
0.0
 10
105.0978054207742
 20
-123.8635850384785
 30
0.0
 10
105.0978054207742
 20
-124.4792236016927
 30
0.0
 10
105.0978054207742
 20
-124.4792236016927
 30
0.0
 10
105.0978054207742
 20
-124.4792236016927
 30
0.0
 10
105.5208631463628
 20
-124.5446804159125
 30
0.0
 10
105.5208631463628
 20
-124.5446804159125
 30
0.0
 10
105.4871012106074
 20
-124.483357716275
 30
0.0
 10
105.44679359343
 20
-124.4010199341775
 30
0.0
 10
105.44679359343
 20
-124.2825086494849
 30
0.0
 10
105.44679359343
 20
-124.028605112222
 30
0.0
 10
105.633173259182
 20
-123.7915825428368
 30
0.0
 10
105.9463324387912
 20
-123.7915825428368
 30
0.0
 10
106.2636257329827
 20
-123.7915825428368
 30
0.0
 10
106.4982367355282
 20
-124.0158582589266
 30
0.0
 10
106.4982367355282
 20
-124.3183376425315
 30
0.0
  0
HATCH
  5
167
330
162
100
AcDbEntity
  8
_U+30EC_U+30A4_U+30E4_U+30FC 1
 62
   179
420
  2234388
100
AcDbHatch
 10
0.0
 20
0.0
 30
0.0
210
0.0
220
0.0
230
1.0
  2
SOLID
 70
     1
 71
     0
 91
        1
 92
        1
 93
        1
 72
     4
 94
        3
 73
     0
 74
     1
 95
       53
 96
       49
 40
0.0
 40
0.0
 40
0.0
 40
0.0
 40
1.0
 40
1.0
 40
1.0
 40
2.0
 40
2.0
 40
2.0
 40
3.0
 40
3.0
 40
3.0
 40
4.0
 40
4.0
 40
4.0
 40
5.0
 40
5.0
 40
5.0
 40
6.0
 40
6.0
 40
6.0
 40
7.0
 40
7.0
 40
7.0
 40
8.0
 40
8.0
 40
8.0
 40
9.0
 40
9.0
 40
9.0
 40
10.0
 40
10.0
 40
10.0
 40
11.0
 40
11.0
 40
11.0
 40
12.0
 40
12.0
 40
12.0
 40
13.0
 40
13.0
 40
13.0
 40
14.0
 40
14.0
 40
14.0
 40
15.0
 40
15.0
 40
15.0
 40
16.0
 40
16.0
 40
16.0
 40
16.0
 10
106.4982367355282
 20
-124.3183376425315
 10
106.4982367355282
 20
-124.3965413100467
 10
106.4813557676505
 20
-124.4981716268616
 10
106.4179660107219
 20
-124.5998019436764
 10
106.3080674647424
 20
-124.7730902465845
 10
106.1768093267544
 20
-124.7944498385931
 10
106.0689778380661
 20
-124.8133978637619
 10
106.0689778380661
 20
-124.8133978637619
 10
106.0689778380661
 20
-124.5911892049633
 10
106.0689778380661
 20
-124.5911892049633
 10
106.267759847565
 20
-124.5364121867479
 10
106.2973876687382
 20
-124.4092881633421
 10
106.2973876687382
 20
-124.3162705852404
 10
106.2973876687382
 20
-124.1767442180878
 10
106.1978244092144
 20
-124.0244709976397
 10
105.9652804639601
 20
-124.0244709976397
 10
105.709309869406
 20
-124.0244709976397
 10
105.6393744310554
 20
-124.2043049819698
 10
105.6393744310554
 20
-124.3248833239535
 10
105.6393744310554
 20
-124.3565782024178
 10
105.6393744310554
 20
-124.4981716268616
 10
105.7685655117523
 20
-124.587055090381
 10
105.7685655117523
 20
-124.587055090381
 10
105.7496174865834
 20
-124.7627549601288
 10
105.7496174865834
 20
-124.7627549601288
 10
105.7496174865834
 20
-124.7627549601288
 10
104.9031575258576
 20
-124.642176618145
 10
104.9031575258576
 20
-124.642176618145
 10
104.9031575258576
 20
-124.642176618145
 10
104.9031575258576
 20
-123.8635850384785
 10
104.9031575258576
 20
-123.8635850384785
 10
104.9031575258576
 20
-123.8635850384785
 10
105.0978054207742
 20
-123.8635850384785
 10
105.0978054207742
 20
-123.8635850384785
 10
105.0978054207742
 20
-123.8635850384785
 10
105.0978054207742
 20
-124.4792236016927
 10
105.0978054207742
 20
-124.4792236016927
 10
105.0978054207742
 20
-124.4792236016927
 10
105.5208631463628
 20
-124.5446804159125
 10
105.5208631463628
 20
-124.5446804159125
 10
105.4871012106074
 20
-124.483357716275
 10
105.44679359343
 20
-124.4010199341775
 10
105.44679359343
 20
-124.2825086494849
 10
105.44679359343
 20
-124.028605112222
 10
105.633173259182
 20
-123.7915825428368
 10
105.9463324387912
 20
-123.7915825428368
 10
106.2636257329827
 20
-123.7915825428368
 10
106.4982367355282
 20
-124.0158582589266
 10
106.4982367355282
 20
-124.3183376425315
 97
        0
 97
        0
 75
     2
 76
     1
 98
        0
  0
SPLINE
  5
168
330
162
100
AcDbEntity
  8
_U+30EC_U+30A4_U+30E4_U+30FC 1
370
     0
100
AcDbSpline
210
0.0
220
0.0
230
1.0
 70
    11
 71
     3
 72
    29
 73
    25
 74
     0
 42
0.0000000001
 43
0.0000000001
 12
1.0
 22
0.0
 32
0.0
 13
1.0
 23
0.0
 33
0.0
 40
0.0
 40
0.0
 40
0.0
 40
0.0
 40
1.0
 40
1.0
 40
1.0
 40
2.0
 40
2.0
 40
2.0
 40
3.0
 40
3.0
 40
3.0
 40
4.0
 40
4.0
 40
4.0
 40
5.0
 40
5.0
 40
5.0
 40
6.0
 40
6.0
 40
6.0
 40
7.0
 40
7.0
 40
7.0
 40
8.0
 40
8.0
 40
8.0
 40
8.0
 10
106.2698269048562
 20
-122.724636471055
 30
0.0
 10
106.4792887103594
 20
-122.8328124692918
 30
0.0
 10
106.4982367355282
 20
-123.0061007721999
 30
0.0
 10
106.4982367355282
 20
-123.1225449996013
 30
0.0
 10
106.4982367355282
 20
-123.2834309587625
 30
0.0
 10
106.4517279464773
 20
-123.4250243832062
 30
0.0
 10
106.2698269048562
 20
-123.5201090185991
 30
0.0
 10
106.0751790099395
 20
-123.6238063927052
 30
0.0
 10
105.8385009501029
 20
-123.6430989274226
 30
0.0
 10
105.6755479336506
 20
-123.6430989274226
 30
0.0
 10
105.5315429423671
 20
-123.6430989274226
 30
0.0
 10
105.2797064623954
 20
-123.6258734499963
 30
0.0
 10
105.0809244528964
 20
-123.5201090185991
 30
0.0
 10
104.8780083288152
 20
-123.4122775299108
 30
0.0
 10
104.8545816795155
 20
-123.2513915707497
 30
0.0
 10
104.8545816795155
 20
-123.1225449996013
 30
0.0
 10
104.8545816795155
 20
-122.9637260977313
 30
0.0
 10
104.8990234112753
 20
-122.8200656159964
 30
0.0
 10
105.0809244528964
 20
-122.724636471055
 30
0.0
 10
105.2735052905219
 20
-122.6254177210798
 30
0.0
 10
105.501915121194
 20
-122.6019910717801
 30
0.0
 10
105.6755479336506
 20
-122.6019910717801
 30
0.0
 10
105.8467691792675
 20
-122.6019910717801
 30
0.0
 10
106.0772460672307
 20
-122.6233506637886
 30
0.0
 10
106.2698269048562
 20
-122.724636471055
 30
0.0
  0
SPLINE
  5
169
330
162
100
AcDbEntity
  8
_U+30EC_U+30A4_U+30E4_U+30FC 1
370
     0
100
AcDbSpline
210
0.0
220
0.0
230
1.0
 70
    11
 71
     3
 72
    17
 73
    13
 74
     0
 42
0.0000000001
 43
0.0000000001
 12
1.0
 22
0.0
 32
0.0
 13
1.0
 23
0.0
 33
0.0
 40
0.0
 40
0.0
 40
0.0
 40
0.0
 40
1.0
 40
1.0
 40
1.0
 40
2.0
 40
2.0
 40
2.0
 40
3.0
 40
3.0
 40
3.0
 40
4.0
 40
4.0
 40
4.0
 40
4.0
 10
105.047162517141
 20
-123.1225449996013
 30
0.0
 10
105.047162517141
 20
-123.3723144222819
 30
0.0
 10
105.3306938755771
 20
-123.4188232113328
 30
0.0
 10
105.6755479336506
 20
-123.4188232113328
 30
0.0
 10
105.9949082851332
 20
-123.4188232113328
 30
0.0
 10
106.3035888406116
 20
-123.3826497087377
 30
0.0
 10
106.3035888406116
 20
-123.1225449996013
 30
0.0
 10
106.3035888406116
 20
-122.8748426342118
 30
0.0
 10
106.0224690490152
 20
-122.8262667878698
 30
0.0
 10
105.6755479336506
 20
-122.8262667878698
 30
0.0
 10
105.3558430726194
 20
-122.8262667878698
 30
0.0
 10
105.047162517141
 20
-122.8645073477561
 30
0.0
 10
105.047162517141
 20
-123.1225449996013
 30
0.0
  0
HATCH
  5
16A
330
162
100
AcDbEntity
  8
_U+30EC_U+30A4_U+30E4_U+30FC 1
 62
   179
420
  2234388
100
AcDbHatch
 10
0.0
 20
0.0
 30
0.0
210
0.0
220
0.0
230
1.0
  2
SOLID
 70
     1
 71
     0
 91
        2
 92
        1
 93
        1
 72
     4
 94
        3
 73
     0
 74
     1
 95
       29
 96
       25
 40
0.0
 40
0.0
 40
0.0
 40
0.0
 40
1.0
 40
1.0
 40
1.0
 40
2.0
 40
2.0
 40
2.0
 40
3.0
 40
3.0
 40
3.0
 40
4.0
 40
4.0
 40
4.0
 40
5.0
 40
5.0
 40
5.0
 40
6.0
 40
6.0
 40
6.0
 40
7.0
 40
7.0
 40
7.0
 40
8.0
 40
8.0
 40
8.0
 40
8.0
 10
106.2698269048562
 20
-122.724636471055
 10
106.4792887103594
 20
-122.8328124692918
 10
106.4982367355282
 20
-123.0061007721999
 10
106.4982367355282
 20
-123.1225449996013
 10
106.4982367355282
 20
-123.2834309587625
 10
106.4517279464773
 20
-123.4250243832062
 10
106.2698269048562
 20
-123.5201090185991
 10
106.0751790099395
 20
-123.6238063927052
 10
105.8385009501029
 20
-123.6430989274226
 10
105.6755479336506
 20
-123.6430989274226
 10
105.5315429423671
 20
-123.6430989274226
 10
105.2797064623954
 20
-123.6258734499963
 10
105.0809244528964
 20
-123.5201090185991
 10
104.8780083288152
 20
-123.4122775299108
 10
104.8545816795155
 20
-123.2513915707497
 10
104.8545816795155
 20
-123.1225449996013
 10
104.8545816795155
 20
-122.9637260977313
 10
104.8990234112753
 20
-122.8200656159964
 10
105.0809244528964
 20
-122.724636471055
 10
105.2735052905219
 20
-122.6254177210798
 10
105.501915121194
 20
-122.6019910717801
 10
105.6755479336506
 20
-122.6019910717801
 10
105.8467691792675
 20
-122.6019910717801
 10
106.0772460672307
 20
-122.6233506637886
 10
106.2698269048562
 20
-122.724636471055
 97
        0
 97
        0
 92
        1
 93
        1
 72
     4
 94
        3
 73
     0
 74
     1
 95
       17
 96
       13
 40
0.0
 40
0.0
 40
0.0
 40
0.0
 40
1.0
 40
1.0
 40
1.0
 40
2.0
 40
2.0
 40
2.0
 40
3.0
 40
3.0
 40
3.0
 40
4.0
 40
4.0
 40
4.0
 40
4.0
 10
105.047162517141
 20
-123.1225449996013
 10
105.047162517141
 20
-123.3723144222819
 10
105.3306938755771
 20
-123.4188232113328
 10
105.6755479336506
 20
-123.4188232113328
 10
105.9949082851332
 20
-123.4188232113328
 10
106.3035888406116
 20
-123.3826497087377
 10
106.3035888406116
 20
-123.1225449996013
 10
106.3035888406116
 20
-122.8748426342118
 10
106.0224690490152
 20
-122.8262667878698
 10
105.6755479336506
 20
-122.8262667878698
 10
105.3558430726194
 20
-122.8262667878698
 10
105.047162517141
 20
-122.8645073477561
 10
105.047162517141
 20
-123.1225449996013
 97
        0
 97
        0
 75
     2
 76
     1
 98
        0
  0
ENDBLK
  5
165
330
162
100
AcDbEntity
  8
0
100
AcDbBlockEnd
  0
BLOCK
  5
179
330
177
100
AcDbEntity
  8
0
100
AcDbBlockBegin
  2
block 7
 70
     0
 10
0.0
 20
0.0
 30
0.0
  3
block 7
  1

  0
SPLINE
  5
17B
330
177
100
AcDbEntity
  8
_U+30EC_U+30A4_U+30E4_U+30FC 1
370
     0
100
AcDbSpline
210
0.0
220
0.0
230
1.0
 70
    11
 71
     3
 72
    26
 73
    22
 74
     0
 42
0.0000000001
 43
0.0000000001
 12
1.0
 22
0.0
 32
0.0
 13
1.0
 23
0.0
 33
0.0
 40
0.0
 40
0.0
 40
0.0
 40
0.0
 40
1.0
 40
1.0
 40
1.0
 40
2.0
 40
2.0
 40
2.0
 40
3.0
 40
3.0
 40
3.0
 40
4.0
 40
4.0
 40
4.0
 40
5.0
 40
5.0
 40
5.0
 40
6.0
 40
6.0
 40
6.0
 40
7.0
 40
7.0
 40
7.0
 40
7.0
 10
97.45692814403856
 20
-144.064591435338
 30
0.0
 10
97.45692814403856
 20
-144.064591435338
 30
0.0
 10
97.45692814403856
 20
-142.9604383323154
 30
0.0
 10
97.45692814403856
 20
-142.9604383323154
 30
0.0
 10
97.45692814403856
 20
-142.9604383323154
 30
0.0
 10
97.12688799655162
 20
-142.9604383323154
 30
0.0
 10
97.12688799655162
 20
-142.9604383323154
 30
0.0
 10
97.12688799655162
 20
-142.9604383323154
 30
0.0
 10
97.12688799655162
 20
-142.8122992264497
 30
0.0
 10
97.12688799655162
 20
-142.8122992264497
 30
0.0
 10
97.4589952013297
 20
-142.7974853158631
 30
0.0
 10
97.50515948083205
 20
-142.6345322994108
 30
0.0
 10
97.5347873020052
 20
-142.5201551293005
 30
0.0
 10
97.5347873020052
 20
-142.5201551293005
 30
0.0
 10
97.6808593505798
 20
-142.5201551293005
 30
0.0
 10
97.6808593505798
 20
-142.5201551293005
 30
0.0
 10
97.6808593505798
 20
-142.5201551293005
 30
0.0
 10
97.6808593505798
 20
-144.064591435338
 30
0.0
 10
97.6808593505798
 20
-144.064591435338
 30
0.0
 10
97.6808593505798
 20
-144.064591435338
 30
0.0
 10
97.45692814403856
 20
-144.064591435338
 30
0.0
 10
97.45692814403856
 20
-144.064591435338
 30
0.0
  0
HATCH
  5
17C
330
177
100
AcDbEntity
  8
_U+30EC_U+30A4_U+30E4_U+30FC 1
 62
   179
420
  2234388
100
AcDbHatch
 10
0.0
 20
0.0
 30
0.0
210
0.0
220
0.0
230
1.0
  2
SOLID
 70
     1
 71
     0
 91
        1
 92
        1
 93
        1
 72
     4
 94
        3
 73
     0
 74
     1
 95
       26
 96
       22
 40
0.0
 40
0.0
 40
0.0
 40
0.0
 40
1.0
 40
1.0
 40
1.0
 40
2.0
 40
2.0
 40
2.0
 40
3.0
 40
3.0
 40
3.0
 40
4.0
 40
4.0
 40
4.0
 40
5.0
 40
5.0
 40
5.0
 40
6.0
 40
6.0
 40
6.0
 40
7.0
 40
7.0
 40
7.0
 40
7.0
 10
97.45692814403856
 20
-144.064591435338
 10
97.45692814403856
 20
-144.064591435338
 10
97.45692814403856
 20
-142.9604383323154
 10
97.45692814403856
 20
-142.9604383323154
 10
97.45692814403856
 20
-142.9604383323154
 10
97.12688799655162
 20
-142.9604383323154
 10
97.12688799655162
 20
-142.9604383323154
 10
97.12688799655162
 20
-142.9604383323154
 10
97.12688799655162
 20
-142.8122992264497
 10
97.12688799655162
 20
-142.8122992264497
 10
97.4589952013297
 20
-142.7974853158631
 10
97.50515948083205
 20
-142.6345322994108
 10
97.5347873020052
 20
-142.5201551293005
 10
97.5347873020052
 20
-142.5201551293005
 10
97.6808593505798
 20
-142.5201551293005
 10
97.6808593505798
 20
-142.5201551293005
 10
97.6808593505798
 20
-142.5201551293005
 10
97.6808593505798
 20
-144.064591435338
 10
97.6808593505798
 20
-144.064591435338
 10
97.6808593505798
 20
-144.064591435338
 10
97.45692814403856
 20
-144.064591435338
 10
97.45692814403856
 20
-144.064591435338
 97
        0
 97
        0
 75
     2
 76
     1
 98
        0
  0
SPLINE
  5
17D
330
177
100
AcDbEntity
  8
_U+30EC_U+30A4_U+30E4_U+30FC 1
370
     0
100
AcDbSpline
210
0.0
220
0.0
230
1.0
 70
    11
 71
     3
 72
    29
 73
    25
 74
     0
 42
0.0000000001
 43
0.0000000001
 12
1.0
 22
0.0
 32
0.0
 13
1.0
 23
0.0
 33
0.0
 40
0.0
 40
0.0
 40
0.0
 40
0.0
 40
1.0
 40
1.0
 40
1.0
 40
2.0
 40
2.0
 40
2.0
 40
3.0
 40
3.0
 40
3.0
 40
4.0
 40
4.0
 40
4.0
 40
5.0
 40
5.0
 40
5.0
 40
6.0
 40
6.0
 40
6.0
 40
7.0
 40
7.0
 40
7.0
 40
8.0
 40
8.0
 40
8.0
 40
8.0
 10
99.08025713668827
 20
-143.8868245082991
 30
0.0
 10
98.97208113845143
 20
-144.0962863138023
 30
0.0
 10
98.79844832599484
 20
-144.1152343389712
 30
0.0
 10
98.6820040985934
 20
-144.1152343389712
 30
0.0
 10
98.52146264898074
 20
-144.1152343389712
 30
0.0
 10
98.37952471498846
 20
-144.0687255499203
 30
0.0
 10
98.28444007959556
 20
-143.8868245082991
 30
0.0
 10
98.18108721503806
 20
-143.6921766133825
 30
0.0
 10
98.16179468032067
 20
-143.4554985535459
 30
0.0
 10
98.16179468032067
 20
-143.2925455370935
 30
0.0
 10
98.16179468032067
 20
-143.1485405458101
 30
0.0
 10
98.17902015774692
 20
-142.8967040658383
 30
0.0
 10
98.28444007959556
 20
-142.6979220563394
 30
0.0
 10
98.3926160778324
 20
-142.4950059322582
 30
0.0
 10
98.55315752744505
 20
-142.4715792829585
 30
0.0
 10
98.6820040985934
 20
-142.4715792829585
 30
0.0
 10
98.84116751001193
 20
-142.4715792829585
 30
0.0
 10
98.98448348219833
 20
-142.5160210147182
 30
0.0
 10
99.08025713668827
 20
-142.6979220563394
 30
0.0
 10
99.17947588666347
 20
-142.8905028939649
 30
0.0
 10
99.20290253596316
 20
-143.1189127246369
 30
0.0
 10
99.20290253596316
 20
-143.2925455370935
 30
0.0
 10
99.20290253596316
 20
-143.4637667827105
 30
0.0
 10
99.18154294395463
 20
-143.6942436706737
 30
0.0
 10
99.08025713668827
 20
-143.8868245082991
 30
0.0
  0
SPLINE
  5
17E
330
177
100
AcDbEntity
  8
_U+30EC_U+30A4_U+30E4_U+30FC 1
370
     0
100
AcDbSpline
210
0.0
220
0.0
230
1.0
 70
    11
 71
     3
 72
    17
 73
    13
 74
     0
 42
0.0000000001
 43
0.0000000001
 12
1.0
 22
0.0
 32
0.0
 13
1.0
 23
0.0
 33
0.0
 40
0.0
 40
0.0
 40
0.0
 40
0.0
 40
1.0
 40
1.0
 40
1.0
 40
2.0
 40
2.0
 40
2.0
 40
3.0
 40
3.0
 40
3.0
 40
4.0
 40
4.0
 40
4.0
 40
4.0
 10
98.6820040985934
 20
-142.664160120584
 30
0.0
 10
98.43257918546131
 20
-142.664160120584
 30
0.0
 10
98.3857258868619
 20
-142.94769147902
 30
0.0
 10
98.3857258868619
 20
-143.2925455370935
 30
0.0
 10
98.3857258868619
 20
-143.6119058885762
 30
0.0
 10
98.42224389900555
 20
-143.9205864440546
 30
0.0
 10
98.6820040985934
 20
-143.9205864440546
 30
0.0
 10
98.93005097353138
 20
-143.9205864440546
 30
0.0
 10
98.97828231032487
 20
-143.6394666524582
 30
0.0
 10
98.97828231032487
 20
-143.2925455370935
 30
0.0
 10
98.97828231032487
 20
-142.9728406760624
 30
0.0
 10
98.94038625998714
 20
-142.664160120584
 30
0.0
 10
98.6820040985934
 20
-142.664160120584
 30
0.0
  0
HATCH
  5
17F
330
177
100
AcDbEntity
  8
_U+30EC_U+30A4_U+30E4_U+30FC 1
 62
   179
420
  2234388
100
AcDbHatch
 10
0.0
 20
0.0
 30
0.0
210
0.0
220
0.0
230
1.0
  2
SOLID
 70
     1
 71
     0
 91
        2
 92
        1
 93
        1
 72
     4
 94
        3
 73
     0
 74
     1
 95
       29
 96
       25
 40
0.0
 40
0.0
 40
0.0
 40
0.0
 40
1.0
 40
1.0
 40
1.0
 40
2.0
 40
2.0
 40
2.0
 40
3.0
 40
3.0
 40
3.0
 40
4.0
 40
4.0
 40
4.0
 40
5.0
 40
5.0
 40
5.0
 40
6.0
 40
6.0
 40
6.0
 40
7.0
 40
7.0
 40
7.0
 40
8.0
 40
8.0
 40
8.0
 40
8.0
 10
99.08025713668827
 20
-143.8868245082991
 10
98.97208113845143
 20
-144.0962863138023
 10
98.79844832599484
 20
-144.1152343389712
 10
98.6820040985934
 20
-144.1152343389712
 10
98.52146264898074
 20
-144.1152343389712
 10
98.37952471498846
 20
-144.0687255499203
 10
98.28444007959556
 20
-143.8868245082991
 10
98.18108721503806
 20
-143.6921766133825
 10
98.16179468032067
 20
-143.4554985535459
 10
98.16179468032067
 20
-143.2925455370935
 10
98.16179468032067
 20
-143.1485405458101
 10
98.17902015774692
 20
-142.8967040658383
 10
98.28444007959556
 20
-142.6979220563394
 10
98.3926160778324
 20
-142.4950059322582
 10
98.55315752744505
 20
-142.4715792829585
 10
98.6820040985934
 20
-142.4715792829585
 10
98.84116751001193
 20
-142.4715792829585
 10
98.98448348219833
 20
-142.5160210147182
 10
99.08025713668827
 20
-142.6979220563394
 10
99.17947588666347
 20
-142.8905028939649
 10
99.20290253596316
 20
-143.1189127246369
 10
99.20290253596316
 20
-143.2925455370935
 10
99.20290253596316
 20
-143.4637667827105
 10
99.18154294395463
 20
-143.6942436706737
 10
99.08025713668827
 20
-143.8868245082991
 97
        0
 97
        0
 92
        1
 93
        1
 72
     4
 94
        3
 73
     0
 74
     1
 95
       17
 96
       13
 40
0.0
 40
0.0
 40
0.0
 40
0.0
 40
1.0
 40
1.0
 40
1.0
 40
2.0
 40
2.0
 40
2.0
 40
3.0
 40
3.0
 40
3.0
 40
4.0
 40
4.0
 40
4.0
 40
4.0
 10
98.6820040985934
 20
-142.664160120584
 10
98.43257918546131
 20
-142.664160120584
 10
98.3857258868619
 20
-142.94769147902
 10
98.3857258868619
 20
-143.2925455370935
 10
98.3857258868619
 20
-143.6119058885762
 10
98.42224389900555
 20
-143.9205864440546
 10
98.6820040985934
 20
-143.9205864440546
 10
98.93005097353138
 20
-143.9205864440546
 10
98.97828231032487
 20
-143.6394666524582
 10
98.97828231032487
 20
-143.2925455370935
 10
98.97828231032487
 20
-142.9728406760624
 10
98.94038625998714
 20
-142.664160120584
 10
98.6820040985934
 20
-142.664160120584
 97
        0
 97
        0
 75
     2
 76
     1
 98
        0
  0
ENDBLK
  5
17A
330
177
100
AcDbEntity
  8
0
100
AcDbBlockEnd
  0
ENDSEC
  0
SECTION
  2
ENTITIES
  0
POLYLINE
  5
41
330
1F
100
AcDbEntity
  8
_U+30EC_U+30A4_U+30E4_U+30FC 1
 62
   179
420
  2234388
370
    25
100
AcDb2dPolyline
 66
     1
 10
0.0
 20
0.0
 30
0.0
  0
VERTEX
  5
42
330
41
100
AcDbEntity
  8
_U+30EC_U+30A4_U+30E4_U+30FC 1
 62
   179
420
  2234388
370
    25
100
AcDbVertex
100
AcDb2dVertex
 10
74.34414004776743
 20
-115.7104055266278
 30
0.0
  0
VERTEX
  5
43
330
41
100
AcDbEntity
  8
_U+30EC_U+30A4_U+30E4_U+30FC 1
 62
   179
420
  2234388
370
    25
100
AcDbVertex
100
AcDb2dVertex
 10
77.84401301403378
 20
-115.7104055266278
 30
0.0
  0
SEQEND
  5
44
330
41
100
AcDbEntity
  8
_U+30EC_U+30A4_U+30E4_U+30FC 1
 62
   179
420
  2234388
370
    25
  0
POLYLINE
  5
45
330
1F
100
AcDbEntity
  8
_U+30EC_U+30A4_U+30E4_U+30FC 1
 62
   179
420
  2234388
370
    25
100
AcDb2dPolyline
 66
     1
 10
0.0
 20
0.0
 30
0.0
  0
VERTEX
  5
46
330
45
100
AcDbEntity
  8
_U+30EC_U+30A4_U+30E4_U+30FC 1
 62
   179
420
  2234388
370
    25
100
AcDbVertex
100
AcDb2dVertex
 10
74.34414004776743
 20
-110.7105566389891
 30
0.0
  0
VERTEX
  5
47
330
45
100
AcDbEntity
  8
_U+30EC_U+30A4_U+30E4_U+30FC 1
 62
   179
420
  2234388
370
    25
100
AcDbVertex
100
AcDb2dVertex
 10
75.34387696670645
 20
-110.7105566389891
 30
0.0
  0
SEQEND
  5
48
330
45
100
AcDbEntity
  8
_U+30EC_U+30A4_U+30E4_U+30FC 1
 62
   179
420
  2234388
370
    25
  0
POLYLINE
  5
49
330
1F
100
AcDbEntity
  8
_U+30EC_U+30A4_U+30E4_U+30FC 1
 62
   179
420
  2234388
370
    25
100
AcDb2dPolyline
 66
     1
 10
0.0
 20
0.0
 30
0.0
  0
VERTEX
  5
4A
330
49
100
AcDbEntity
  8
_U+30EC_U+30A4_U+30E4_U+30FC 1
 62
   179
420
  2234388
370
    25
100
AcDbVertex
100
AcDb2dVertex
 10
76.84388803954909
 20
-110.7105566389891
 30
0.0
  0
VERTEX
  5
4B
330
49
100
AcDbEntity
  8
_U+30EC_U+30A4_U+30E4_U+30FC 1
 62
   179
420
  2234388
370
    25
100
AcDbVertex
100
AcDb2dVertex
 10
77.84401301403378
 20
-110.7105566389891
 30
0.0
  0
SEQEND
  5
4C
330
49
100
AcDbEntity
  8
_U+30EC_U+30A4_U+30E4_U+30FC 1
 62
   179
420
  2234388
370
    25
  0
POLYLINE
  5
4D
330
1F
100
AcDbEntity
  8
_U+30EC_U+30A4_U+30E4_U+30FC 1
 62
   179
420
  2234388
370
    25
100
AcDb2dPolyline
 66
     1
 10
0.0
 20
0.0
 30
0.0
  0
VERTEX
  5
4E
330
4D
100
AcDbEntity
  8
_U+30EC_U+30A4_U+30E4_U+30FC 1
 62
   179
420
  2234388
370
    25
100
AcDbVertex
100
AcDb2dVertex
 10
76.84388803954909
 20
-105.7106724735722
 30
0.0
  0
VERTEX
  5
4F
330
4D
100
AcDbEntity
  8
_U+30EC_U+30A4_U+30E4_U+30FC 1
 62
   179
420
  2234388
370
    25
100
AcDbVertex
100
AcDb2dVertex
 10
77.84401301403378
 20
-105.7106724735722
 30
0.0
  0
SEQEND
  5
50
330
4D
100
AcDbEntity
  8
_U+30EC_U+30A4_U+30E4_U+30FC 1
 62
   179
420
  2234388
370
    25
  0
POLYLINE
  5
51
330
1F
100
AcDbEntity
  8
_U+30EC_U+30A4_U+30E4_U+30FC 1
 62
   179
420
  2234388
370
    25
100
AcDb2dPolyline
 66
     1
 10
0.0
 20
0.0
 30
0.0
  0
VERTEX
  5
52
330
51
100
AcDbEntity
  8
_U+30EC_U+30A4_U+30E4_U+30FC 1
 62
   179
420
  2234388
370
    25
100
AcDbVertex
100
AcDb2dVertex
 10
74.34414004776743
 20
-105.7106724735722
 30
0.0
  0
VERTEX
  5
53
330
51
100
AcDbEntity
  8
_U+30EC_U+30A4_U+30E4_U+30FC 1
 62
   179
420
  2234388
370
    25
100
AcDbVertex
100
AcDb2dVertex
 10
75.34387696670645
 20
-105.7106724735722
 30
0.0
  0
SEQEND
  5
54
330
51
100
AcDbEntity
  8
_U+30EC_U+30A4_U+30E4_U+30FC 1
 62
   179
420
  2234388
370
    25
  0
POLYLINE
  5
55
330
1F
100
AcDbEntity
  8
_U+30EC_U+30A4_U+30E4_U+30FC 1
 62
   179
420
  2234388
370
    25
100
AcDb2dPolyline
 66
     1
 10
0.0
 20
0.0
 30
0.0
  0
VERTEX
  5
56
330
55
100
AcDbEntity
  8
_U+30EC_U+30A4_U+30E4_U+30FC 1
 62
   179
420
  2234388
370
    25
100
AcDbVertex
100
AcDb2dVertex
 10
76.84388803954909
 20
-100.7104708081558
 30
0.0
  0
VERTEX
  5
57
330
55
100
AcDbEntity
  8
_U+30EC_U+30A4_U+30E4_U+30FC 1
 62
   179
420
  2234388
370
    25
100
AcDbVertex
100
AcDb2dVertex
 10
77.84401301403378
 20
-100.7104708081558
 30
0.0
  0
SEQEND
  5
58
330
55
100
AcDbEntity
  8
_U+30EC_U+30A4_U+30E4_U+30FC 1
 62
   179
420
  2234388
370
    25
  0
POLYLINE
  5
59
330
1F
100
AcDbEntity
  8
_U+30EC_U+30A4_U+30E4_U+30FC 1
 62
   179
420
  2234388
370
    25
100
AcDb2dPolyline
 66
     1
 10
0.0
 20
0.0
 30
0.0
  0
VERTEX
  5
5A
330
59
100
AcDbEntity
  8
_U+30EC_U+30A4_U+30E4_U+30FC 1
 62
   179
420
  2234388
370
    25
100
AcDbVertex
100
AcDb2dVertex
 10
74.34414004776743
 20
-100.7104708081558
 30
0.0
  0
VERTEX
  5
5B
330
59
100
AcDbEntity
  8
_U+30EC_U+30A4_U+30E4_U+30FC 1
 62
   179
420
  2234388
370
    25
100
AcDbVertex
100
AcDb2dVertex
 10
75.34387696670645
 20
-100.7104708081558
 30
0.0
  0
SEQEND
  5
5C
330
59
100
AcDbEntity
  8
_U+30EC_U+30A4_U+30E4_U+30FC 1
 62
   179
420
  2234388
370
    25
  0
POLYLINE
  5
5D
330
1F
100
AcDbEntity
  8
_U+30EC_U+30A4_U+30E4_U+30FC 1
 62
   179
420
  2234388
370
    25
100
AcDb2dPolyline
 66
     1
 10
0.0
 20
0.0
 30
0.0
  0
VERTEX
  5
5E
330
5D
100
AcDbEntity
  8
_U+30EC_U+30A4_U+30E4_U+30FC 1
 62
   179
420
  2234388
370
    25
100
AcDbVertex
100
AcDb2dVertex
 10
77.84401301403378
 20
-110.7105566389891
 30
0.0
  0
VERTEX
  5
5F
330
5D
100
AcDbEntity
  8
_U+30EC_U+30A4_U+30E4_U+30FC 1
 62
   179
420
  2234388
370
    25
100
AcDbVertex
100
AcDb2dVertex
 10
77.84401301403378
 20
-115.7104055266278
 30
0.0
  0
SEQEND
  5
60
330
5D
100
AcDbEntity
  8
_U+30EC_U+30A4_U+30E4_U+30FC 1
 62
   179
420
  2234388
370
    25
  0
POLYLINE
  5
61
330
1F
100
AcDbEntity
  8
_U+30EC_U+30A4_U+30E4_U+30FC 1
 62
   179
420
  2234388
370
    25
100
AcDb2dPolyline
 66
     1
 10
0.0
 20
0.0
 30
0.0
  0
VERTEX
  5
62
330
61
100
AcDbEntity
  8
_U+30EC_U+30A4_U+30E4_U+30FC 1
 62
   179
420
  2234388
370
    25
100
AcDbVertex
100
AcDb2dVertex
 10
74.34414004776743
 20
-110.7105566389891
 30
0.0
  0
VERTEX
  5
63
330
61
100
AcDbEntity
  8
_U+30EC_U+30A4_U+30E4_U+30FC 1
 62
   179
420
  2234388
370
    25
100
AcDbVertex
100
AcDb2dVertex
 10
74.34414004776743
 20
-115.7104055266278
 30
0.0
  0
SEQEND
  5
64
330
61
100
AcDbEntity
  8
_U+30EC_U+30A4_U+30E4_U+30FC 1
 62
   179
420
  2234388
370
    25
  0
POLYLINE
  5
65
330
1F
100
AcDbEntity
  8
_U+30EC_U+30A4_U+30E4_U+30FC 1
 62
   179
420
  2234388
370
    25
100
AcDb2dPolyline
 66
     1
 10
0.0
 20
0.0
 30
0.0
  0
VERTEX
  5
66
330
65
100
AcDbEntity
  8
_U+30EC_U+30A4_U+30E4_U+30FC 1
 62
   179
420
  2234388
370
    25
100
AcDbVertex
100
AcDb2dVertex
 10
75.34387696670645
 20
-99.71069858618355
 30
0.0
  0
VERTEX
  5
67
330
65
100
AcDbEntity
  8
_U+30EC_U+30A4_U+30E4_U+30FC 1
 62
   179
420
  2234388
370
    25
100
AcDbVertex
100
AcDb2dVertex
 10
75.34387696670645
 20
-100.7104708081558
 30
0.0
  0
SEQEND
  5
68
330
65
100
AcDbEntity
  8
_U+30EC_U+30A4_U+30E4_U+30FC 1
 62
   179
420
  2234388
370
    25
  0
POLYLINE
  5
69
330
1F
100
AcDbEntity
  8
_U+30EC_U+30A4_U+30E4_U+30FC 1
 62
   179
420
  2234388
370
    25
100
AcDb2dPolyline
 66
     1
 10
0.0
 20
0.0
 30
0.0
  0
VERTEX
  5
6A
330
69
100
AcDbEntity
  8
_U+30EC_U+30A4_U+30E4_U+30FC 1
 62
   179
420
  2234388
370
    25
100
AcDbVertex
100
AcDb2dVertex
 10
76.84388803954909
 20
-99.71069858618355
 30
0.0
  0
VERTEX
  5
6B
330
69
100
AcDbEntity
  8
_U+30EC_U+30A4_U+30E4_U+30FC 1
 62
   179
420
  2234388
370
    25
100
AcDbVertex
100
AcDb2dVertex
 10
76.84388803954909
 20
-100.7104708081558
 30
0.0
  0
SEQEND
  5
6C
330
69
100
AcDbEntity
  8
_U+30EC_U+30A4_U+30E4_U+30FC 1
 62
   179
420
  2234388
370
    25
  0
POLYLINE
  5
6D
330
1F
100
AcDbEntity
  8
_U+30EC_U+30A4_U+30E4_U+30FC 1
 62
   179
420
  2234388
370
    25
100
AcDb2dPolyline
 66
     1
 10
0.0
 20
0.0
 30
0.0
  0
VERTEX
  5
6E
330
6D
100
AcDbEntity
  8
_U+30EC_U+30A4_U+30E4_U+30FC 1
 62
   179
420
  2234388
370
    25
100
AcDbVertex
100
AcDb2dVertex
 10
74.34414004776743
 20
-105.7106724735722
 30
0.0
  0
VERTEX
  5
6F
330
6D
100
AcDbEntity
  8
_U+30EC_U+30A4_U+30E4_U+30FC 1
 62
   179
420
  2234388
370
    25
100
AcDbVertex
100
AcDb2dVertex
 10
75.34387696670645
 20
-110.7105566389891
 30
0.0
  0
SEQEND
  5
70
330
6D
100
AcDbEntity
  8
_U+30EC_U+30A4_U+30E4_U+30FC 1
 62
   179
420
  2234388
370
    25
  0
POLYLINE
  5
71
330
1F
100
AcDbEntity
  8
_U+30EC_U+30A4_U+30E4_U+30FC 1
 62
   179
420
  2234388
370
    25
100
AcDb2dPolyline
 66
     1
 10
0.0
 20
0.0
 30
0.0
  0
VERTEX
  5
72
330
71
100
AcDbEntity
  8
_U+30EC_U+30A4_U+30E4_U+30FC 1
 62
   179
420
  2234388
370
    25
100
AcDbVertex
100
AcDb2dVertex
 10
76.84388803954909
 20
-110.7105566389891
 30
0.0
  0
VERTEX
  5
73
330
71
100
AcDbEntity
  8
_U+30EC_U+30A4_U+30E4_U+30FC 1
 62
   179
420
  2234388
370
    25
100
AcDbVertex
100
AcDb2dVertex
 10
77.84401301403378
 20
-105.7106724735722
 30
0.0
  0
SEQEND
  5
74
330
71
100
AcDbEntity
  8
_U+30EC_U+30A4_U+30E4_U+30FC 1
 62
   179
420
  2234388
370
    25
  0
POLYLINE
  5
75
330
1F
100
AcDbEntity
  8
_U+30EC_U+30A4_U+30E4_U+30FC 1
 62
   179
420
  2234388
370
    25
100
AcDb2dPolyline
 66
     1
 10
0.0
 20
0.0
 30
0.0
  0
VERTEX
  5
76
330
75
100
AcDbEntity
  8
_U+30EC_U+30A4_U+30E4_U+30FC 1
 62
   179
420
  2234388
370
    25
100
AcDbVertex
100
AcDb2dVertex
 10
76.84388803954909
 20
-105.7106724735722
 30
0.0
  0
VERTEX
  5
77
330
75
100
AcDbEntity
  8
_U+30EC_U+30A4_U+30E4_U+30FC 1
 62
   179
420
  2234388
370
    25
100
AcDbVertex
100
AcDb2dVertex
 10
77.84401301403378
 20
-100.7104708081558
 30
0.0
  0
SEQEND
  5
78
330
75
100
AcDbEntity
  8
_U+30EC_U+30A4_U+30E4_U+30FC 1
 62
   179
420
  2234388
370
    25
  0
POLYLINE
  5
79
330
1F
100
AcDbEntity
  8
_U+30EC_U+30A4_U+30E4_U+30FC 1
 62
   179
420
  2234388
370
    25
100
AcDb2dPolyline
 66
     1
 10
0.0
 20
0.0
 30
0.0
  0
VERTEX
  5
7A
330
79
100
AcDbEntity
  8
_U+30EC_U+30A4_U+30E4_U+30FC 1
 62
   179
420
  2234388
370
    25
100
AcDbVertex
100
AcDb2dVertex
 10
75.34387696670645
 20
-105.7106724735722
 30
0.0
  0
VERTEX
  5
7B
330
79
100
AcDbEntity
  8
_U+30EC_U+30A4_U+30E4_U+30FC 1
 62
   179
420
  2234388
370
    25
100
AcDbVertex
100
AcDb2dVertex
 10
74.34414004776743
 20
-100.7104708081558
 30
0.0
  0
SEQEND
  5
7C
330
79
100
AcDbEntity
  8
_U+30EC_U+30A4_U+30E4_U+30FC 1
 62
   179
420
  2234388
370
    25
  0
POLYLINE
  5
7D
330
1F
100
AcDbEntity
  8
_U+30EC_U+30A4_U+30E4_U+30FC 1
 62
   179
420
  2234388
370
    25
100
AcDb2dPolyline
 66
     1
 10
0.0
 20
0.0
 30
0.0
  0
VERTEX
  5
7E
330
7D
100
AcDbEntity
  8
_U+30EC_U+30A4_U+30E4_U+30FC 1
 62
   179
420
  2234388
370
    25
100
AcDbVertex
100
AcDb2dVertex
 10
73.09389563521937
 20
-149.9105882958557
 30
0.0
  0
VERTEX
  5
7F
330
7D
100
AcDbEntity
  8
_U+30EC_U+30A4_U+30E4_U+30FC 1
 62
   179
420
  2234388
370
    25
100
AcDbVertex
100
AcDb2dVertex
 10
103.0937995920803
 20
-149.9105882958557
 30
0.0
  0
SEQEND
  5
80
330
7D
100
AcDbEntity
  8
_U+30EC_U+30A4_U+30E4_U+30FC 1
 62
   179
420
  2234388
370
    25
  0
POLYLINE
  5
81
330
1F
100
AcDbEntity
  8
_U+30EC_U+30A4_U+30E4_U+30FC 1
 62
   179
420
  2234388
370
    25
100
AcDb2dPolyline
 66
     1
 10
0.0
 20
0.0
 30
0.0
  0
VERTEX
  5
82
330
81
100
AcDbEntity
  8
_U+30EC_U+30A4_U+30E4_U+30FC 1
 62
   179
420
  2234388
370
    25
100
AcDbVertex
100
AcDb2dVertex
 10
73.09389563521937
 20
-98.7106088642111
 30
0.0
  0
VERTEX
  5
83
330
81
100
AcDbEntity
  8
_U+30EC_U+30A4_U+30E4_U+30FC 1
 62
   179
420
  2234388
370
    25
100
AcDbVertex
100
AcDb2dVertex
 10
74.34414004776743
 20
-98.7106088642111
 30
0.0
  0
SEQEND
  5
84
330
81
100
AcDbEntity
  8
_U+30EC_U+30A4_U+30E4_U+30FC 1
 62
   179
420
  2234388
370
    25
  0
POLYLINE
  5
85
330
1F
100
AcDbEntity
  8
_U+30EC_U+30A4_U+30E4_U+30FC 1
 62
   179
420
  2234388
370
    25
100
AcDb2dPolyline
 66
     1
 10
0.0
 20
0.0
 30
0.0
  0
VERTEX
  5
86
330
85
100
AcDbEntity
  8
_U+30EC_U+30A4_U+30E4_U+30FC 1
 62
   179
420
  2234388
370
    25
100
AcDbVertex
100
AcDb2dVertex
 10
73.09389563521937
 20
-98.7106088642111
 30
0.0
  0
VERTEX
  5
87
330
85
100
AcDbEntity
  8
_U+30EC_U+30A4_U+30E4_U+30FC 1
 62
   179
420
  2234388
370
    25
100
AcDbVertex
100
AcDb2dVertex
 10
73.09389563521937
 20
-149.9105882958557
 30
0.0
  0
SEQEND
  5
88
330
85
100
AcDbEntity
  8
_U+30EC_U+30A4_U+30E4_U+30FC 1
 62
   179
420
  2234388
370
    25
  0
POLYLINE
  5
89
330
1F
100
AcDbEntity
  8
_U+30EC_U+30A4_U+30E4_U+30FC 1
 62
   179
420
  2234388
370
    25
100
AcDb2dPolyline
 66
     1
 10
0.0
 20
0.0
 30
0.0
  0
VERTEX
  5
8A
330
89
100
AcDbEntity
  8
_U+30EC_U+30A4_U+30E4_U+30FC 1
 62
   179
420
  2234388
370
    25
100
AcDbVertex
100
AcDb2dVertex
 10
79.09386937103618
 20
-98.7106088642111
 30
0.0
  0
VERTEX
  5
8B
330
89
100
AcDbEntity
  8
_U+30EC_U+30A4_U+30E4_U+30FC 1
 62
   179
420
  2234388
370
    25
100
AcDbVertex
100
AcDb2dVertex
 10
79.09386937103618
 20
-116.9106966374392
 30
0.0
  0
SEQEND
  5
8C
330
89
100
AcDbEntity
  8
_U+30EC_U+30A4_U+30E4_U+30FC 1
 62
   179
420
  2234388
370
    25
  0
POLYLINE
  5
8D
330
1F
100
AcDbEntity
  8
_U+30EC_U+30A4_U+30E4_U+30FC 1
 62
   179
420
  2234388
370
    25
100
AcDb2dPolyline
 66
     1
 10
0.0
 20
0.0
 30
0.0
  0
VERTEX
  5
8E
330
8D
100
AcDbEntity
  8
_U+30EC_U+30A4_U+30E4_U+30FC 1
 62
   179
420
  2234388
370
    25
100
AcDbVertex
100
AcDb2dVertex
 10
77.84401301403378
 20
-98.7106088642111
 30
0.0
  0
VERTEX
  5
8F
330
8D
100
AcDbEntity
  8
_U+30EC_U+30A4_U+30E4_U+30FC 1
 62
   179
420
  2234388
370
    25
100
AcDbVertex
100
AcDb2dVertex
 10
79.09386937103618
 20
-98.7106088642111
 30
0.0
  0
SEQEND
  5
90
330
8D
100
AcDbEntity
  8
_U+30EC_U+30A4_U+30E4_U+30FC 1
 62
   179
420
  2234388
370
    25
  0
POLYLINE
  5
91
330
1F
100
AcDbEntity
  8
_U+30EC_U+30A4_U+30E4_U+30FC 1
 62
   179
420
  2234388
370
    25
100
AcDb2dPolyline
 66
     1
 10
0.0
 20
0.0
 30
0.0
  0
VERTEX
  5
92
330
91
100
AcDbEntity
  8
_U+30EC_U+30A4_U+30E4_U+30FC 1
 62
   179
420
  2234388
370
    25
100
AcDbVertex
100
AcDb2dVertex
 10
77.84401301403378
 20
-98.7106088642111
 30
0.0
  0
VERTEX
  5
93
330
91
100
AcDbEntity
  8
_U+30EC_U+30A4_U+30E4_U+30FC 1
 62
   179
420
  2234388
370
    25
100
AcDbVertex
100
AcDb2dVertex
 10
76.84388803954909
 20
-99.71069858618355
 30
0.0
  0
SEQEND
  5
94
330
91
100
AcDbEntity
  8
_U+30EC_U+30A4_U+30E4_U+30FC 1
 62
   179
420
  2234388
370
    25
  0
POLYLINE
  5
95
330
1F
100
AcDbEntity
  8
_U+30EC_U+30A4_U+30E4_U+30FC 1
 62
   179
420
  2234388
370
    25
100
AcDb2dPolyline
 66
     1
 10
0.0
 20
0.0
 30
0.0
  0
VERTEX
  5
96
330
95
100
AcDbEntity
  8
_U+30EC_U+30A4_U+30E4_U+30FC 1
 62
   179
420
  2234388
370
    25
100
AcDbVertex
100
AcDb2dVertex
 10
74.34414004776743
 20
-98.7106088642111
 30
0.0
  0
VERTEX
  5
97
330
95
100
AcDbEntity
  8
_U+30EC_U+30A4_U+30E4_U+30FC 1
 62
   179
420
  2234388
370
    25
100
AcDbVertex
100
AcDb2dVertex
 10
75.34387696670645
 20
-99.71069858618355
 30
0.0
  0
SEQEND
  5
98
330
95
100
AcDbEntity
  8
_U+30EC_U+30A4_U+30E4_U+30FC 1
 62
   179
420
  2234388
370
    25
  0
POLYLINE
  5
99
330
1F
100
AcDbEntity
  8
_U+30EC_U+30A4_U+30E4_U+30FC 1
 62
   179
420
  2234388
370
    25
100
AcDb2dPolyline
 66
     1
 10
0.0
 20
0.0
 30
0.0
  0
VERTEX
  5
9A
330
99
100
AcDbEntity
  8
_U+30EC_U+30A4_U+30E4_U+30FC 1
 62
   179
420
  2234388
370
    25
100
AcDbVertex
100
AcDb2dVertex
 10
103.0937995920803
 20
-148.7106499628221
 30
0.0
  0
VERTEX
  5
9B
330
99
100
AcDbEntity
  8
_U+30EC_U+30A4_U+30E4_U+30FC 1
 62
   179
420
  2234388
370
    25
100
AcDbVertex
100
AcDb2dVertex
 10
103.0937995920803
 20
-149.9105882958557
 30
0.0
  0
SEQEND
  5
9C
330
99
100
AcDbEntity
  8
_U+30EC_U+30A4_U+30E4_U+30FC 1
 62
   179
420
  2234388
370
    25
  0
POLYLINE
  5
9D
330
1F
100
AcDbEntity
  8
_U+30EC_U+30A4_U+30E4_U+30FC 1
 62
   179
420
  2234388
370
    25
100
AcDb2dPolyline
 66
     1
 10
0.0
 20
0.0
 30
0.0
  0
VERTEX
  5
9E
330
9D
100
AcDbEntity
  8
_U+30EC_U+30A4_U+30E4_U+30FC 1
 62
   179
420
  2234388
370
    25
100
AcDbVertex
100
AcDb2dVertex
 10
75.29392363464753
 20
-148.7106499628221
 30
0.0
  0
VERTEX
  5
9F
330
9D
100
AcDbEntity
  8
_U+30EC_U+30A4_U+30E4_U+30FC 1
 62
   179
420
  2234388
370
    25
100
AcDbVertex
100
AcDb2dVertex
 10
92.8939006856347
 20
-148.7106499628221
 30
0.0
  0
SEQEND
  5
A0
330
9D
100
AcDbEntity
  8
_U+30EC_U+30A4_U+30E4_U+30FC 1
 62
   179
420
  2234388
370
    25
  0
POLYLINE
  5
A1
330
1F
100
AcDbEntity
  8
_U+30EC_U+30A4_U+30E4_U+30FC 1
 62
   179
420
  2234388
370
    25
100
AcDb2dPolyline
 66
     1
 10
0.0
 20
0.0
 30
0.0
  0
VERTEX
  5
A2
330
A1
100
AcDbEntity
  8
_U+30EC_U+30A4_U+30E4_U+30FC 1
 62
   179
420
  2234388
370
    25
100
AcDbVertex
100
AcDb2dVertex
 10
93.09406679163915
 20
-148.9104632961054
 30
0.0
  0
VERTEX
  5
A3
330
A1
100
AcDbEntity
  8
_U+30EC_U+30A4_U+30E4_U+30FC 1
 62
   179
420
  2234388
370
    25
100
AcDbVertex
100
AcDb2dVertex
 10
93.29388011987483
 20
-148.7106499628221
 30
0.0
  0
SEQEND
  5
A4
330
A1
100
AcDbEntity
  8
_U+30EC_U+30A4_U+30E4_U+30FC 1
 62
   179
420
  2234388
370
    25
  0
POLYLINE
  5
A5
330
1F
100
AcDbEntity
  8
_U+30EC_U+30A4_U+30E4_U+30FC 1
 62
   179
420
  2234388
370
    25
100
AcDb2dPolyline
 66
     1
 10
0.0
 20
0.0
 30
0.0
  0
VERTEX
  5
A6
330
A5
100
AcDbEntity
  8
_U+30EC_U+30A4_U+30E4_U+30FC 1
 62
   179
420
  2234388
370
    25
100
AcDbVertex
100
AcDb2dVertex
 10
92.8939006856347
 20
-148.7106499628221
 30
0.0
  0
VERTEX
  5
A7
330
A5
100
AcDbEntity
  8
_U+30EC_U+30A4_U+30E4_U+30FC 1
 62
   179
420
  2234388
370
    25
100
AcDbVertex
100
AcDb2dVertex
 10
93.09406679163915
 20
-148.9104632961054
 30
0.0
  0
SEQEND
  5
A8
330
A5
100
AcDbEntity
  8
_U+30EC_U+30A4_U+30E4_U+30FC 1
 62
   179
420
  2234388
370
    25
  0
POLYLINE
  5
A9
330
1F
100
AcDbEntity
  8
_U+30EC_U+30A4_U+30E4_U+30FC 1
 62
   179
420
  2234388
370
    25
100
AcDb2dPolyline
 66
     1
 10
0.0
 20
0.0
 30
0.0
  0
VERTEX
  5
AA
330
A9
100
AcDbEntity
  8
_U+30EC_U+30A4_U+30E4_U+30FC 1
 62
   179
420
  2234388
370
    25
100
AcDbVertex
100
AcDb2dVertex
 10
93.29388011987483
 20
-148.7106499628221
 30
0.0
  0
VERTEX
  5
AB
330
A9
100
AcDbEntity
  8
_U+30EC_U+30A4_U+30E4_U+30FC 1
 62
   179
420
  2234388
370
    25
100
AcDbVertex
100
AcDb2dVertex
 10
103.0937995920803
 20
-148.7106499628221
 30
0.0
  0
SEQEND
  5
AC
330
A9
100
AcDbEntity
  8
_U+30EC_U+30A4_U+30E4_U+30FC 1
 62
   179
420
  2234388
370
    25
  0
POLYLINE
  5
AD
330
1F
100
AcDbEntity
  8
_U+30EC_U+30A4_U+30E4_U+30FC 1
 62
   179
420
  2234388
370
    25
100
AcDb2dPolyline
 66
     1
 10
0.0
 20
0.0
 30
0.0
  0
VERTEX
  5
AE
330
AD
100
AcDbEntity
  8
_U+30EC_U+30A4_U+30E4_U+30FC 1
 62
   179
420
  2234388
370
    25
100
AcDbVertex
100
AcDb2dVertex
 10
74.29383393793972
 20
-116.9106966374392
 30
0.0
  0
VERTEX
  5
AF
330
AD
100
AcDbEntity
  8
_U+30EC_U+30A4_U+30E4_U+30FC 1
 62
   179
420
  2234388
370
    25
100
AcDbVertex
100
AcDb2dVertex
 10
74.29383393793972
 20
-147.7105249630725
 30
0.0
  0
SEQEND
  5
B0
330
AD
100
AcDbEntity
  8
_U+30EC_U+30A4_U+30E4_U+30FC 1
 62
   179
420
  2234388
370
    25
  0
POLYLINE
  5
B1
330
1F
100
AcDbEntity
  8
_U+30EC_U+30A4_U+30E4_U+30FC 1
 62
   179
420
  2234388
370
    25
100
AcDb2dPolyline
 66
     1
 10
0.0
 20
0.0
 30
0.0
  0
VERTEX
  5
B2
330
B1
100
AcDbEntity
  8
_U+30EC_U+30A4_U+30E4_U+30FC 1
 62
   179
420
  2234388
370
    25
100
AcDbVertex
100
AcDb2dVertex
 10
74.29383393793972
 20
-116.9106966374392
 30
0.0
  0
VERTEX
  5
B3
330
B1
100
AcDbEntity
  8
_U+30EC_U+30A4_U+30E4_U+30FC 1
 62
   179
420
  2234388
370
    25
100
AcDbVertex
100
AcDb2dVertex
 10
79.09386937103618
 20
-116.9106966374392
 30
0.0
  0
SEQEND
  5
B4
330
B1
100
AcDbEntity
  8
_U+30EC_U+30A4_U+30E4_U+30FC 1
 62
   179
420
  2234388
370
    25
  0
POLYLINE
  5
B5
330
1F
100
AcDbEntity
  8
_U+30EC_U+30A4_U+30E4_U+30FC 1
  6
AI-Linetype-1
 62
   154
420
    23468
370
    25
100
AcDb2dPolyline
 66
     1
 10
0.0
 20
0.0
 30
0.0
  0
VERTEX
  5
B6
330
B5
100
AcDbEntity
  8
_U+30EC_U+30A4_U+30E4_U+30FC 1
  6
AI-Linetype-1
 62
   154
420
    23468
370
    25
100
AcDbVertex
100
AcDb2dVertex
 10
79.09386937103618
 20
-148.2104110740584
 30
0.0
  0
VERTEX
  5
B7
330
B5
100
AcDbEntity
  8
_U+30EC_U+30A4_U+30E4_U+30FC 1
  6
AI-Linetype-1
 62
   154
420
    23468
370
    25
100
AcDbVertex
100
AcDb2dVertex
 10
103.0937995920803
 20
-148.2104110740584
 30
0.0
  0
SEQEND
  5
B9
330
B5
100
AcDbEntity
  8
_U+30EC_U+30A4_U+30E4_U+30FC 1
  6
AI-Linetype-1
 62
   154
420
    23468
370
    25
  0
POLYLINE
  5
BA
330
1F
100
AcDbEntity
  8
_U+30EC_U+30A4_U+30E4_U+30FC 1
 62
   179
420
  2234388
370
     9
100
AcDb2dPolyline
 66
     1
 10
0.0
 20
0.0
 30
0.0
  0
VERTEX
  5
BB
330
BA
100
AcDbEntity
  8
_U+30EC_U+30A4_U+30E4_U+30FC 1
 62
   179
420
  2234388
370
     9
100
AcDbVertex
100
AcDb2dVertex
 10
84.52093201035805
 20
-147.2106388520865
 30
0.0
  0
VERTEX
  5
BC
330
BA
100
AcDbEntity
  8
_U+30EC_U+30A4_U+30E4_U+30FC 1
 62
   179
420
  2234388
370
     9
100
AcDbVertex
100
AcDb2dVertex
 10
84.77965922597959
 20
-146.2446627412164
 30
0.0
  0
SEQEND
  5
BD
330
BA
100
AcDbEntity
  8
_U+30EC_U+30A4_U+30E4_U+30FC 1
 62
   179
420
  2234388
370
     9
  0
POLYLINE
  5
BE
330
1F
100
AcDbEntity
  8
_U+30EC_U+30A4_U+30E4_U+30FC 1
 62
   179
420
  2234388
370
     9
100
AcDb2dPolyline
 66
     1
 10
0.0
 20
0.0
 30
0.0
  0
VERTEX
  5
BF
330
BE
100
AcDbEntity
  8
_U+30EC_U+30A4_U+30E4_U+30FC 1
 62
   179
420
  2234388
370
     9
100
AcDbVertex
100
AcDb2dVertex
 10
84.52093201035805
 20
-147.2106388520865
 30
0.0
  0
VERTEX
  5
C0
330
BE
100
AcDbEntity
  8
_U+30EC_U+30A4_U+30E4_U+30FC 1
 62
   179
420
  2234388
370
     9
100
AcDbVertex
100
AcDb2dVertex
 10
84.2622047947365
 20
-146.2446627412164
 30
0.0
  0
SEQEND
  5
C1
330
BE
100
AcDbEntity
  8
_U+30EC_U+30A4_U+30E4_U+30FC 1
 62
   179
420
  2234388
370
     9
  0
POLYLINE
  5
C2
330
1F
100
AcDbEntity
  8
_U+30EC_U+30A4_U+30E4_U+30FC 1
 62
   179
420
  2234388
370
     9
100
AcDb2dPolyline
 66
     1
 10
0.0
 20
0.0
 30
0.0
  0
VERTEX
  5
C3
330
C2
100
AcDbEntity
  8
_U+30EC_U+30A4_U+30E4_U+30FC 1
 62
   179
420
  2234388
370
     9
100
AcDbVertex
100
AcDb2dVertex
 10
84.52093201035805
 20
-140.3548966315782
 30
0.0
  0
VERTEX
  5
C4
330
C2
100
AcDbEntity
  8
_U+30EC_U+30A4_U+30E4_U+30FC 1
 62
   179
420
  2234388
370
     9
100
AcDbVertex
100
AcDb2dVertex
 10
84.52093201035805
 20
-147.2106388520865
 30
0.0
  0
SEQEND
  5
C5
330
C2
100
AcDbEntity
  8
_U+30EC_U+30A4_U+30E4_U+30FC 1
 62
   179
420
  2234388
370
     9
  0
SPLINE
  5
C6
330
1F
100
AcDbEntity
  8
_U+30EC_U+30A4_U+30E4_U+30FC 1
 62
   179
420
  2234388
370
     9
100
AcDbSpline
210
0.0
220
0.0
230
1.0
 70
    11
 71
     3
 72
    17
 73
    13
 74
     0
 42
0.0000000001
 43
0.0000000001
 12
1.0
 22
0.0
 32
0.0
 13
1.0
 23
0.0
 33
0.0
 40
0.0
 40
0.0
 40
0.0
 40
0.0
 40
1.0
 40
1.0
 40
1.0
 40
2.0
 40
2.0
 40
2.0
 40
3.0
 40
3.0
 40
3.0
 40
4.0
 40
4.0
 40
4.0
 40
4.0
 10
107.1937828208143
 20
-149.9105882958557
 30
0.0
 10
107.1937828208143
 20
-149.8554491292027
 30
0.0
 10
107.1490153219564
 20
-149.8106816292141
 30
0.0
 10
107.0938761566965
 20
-149.8106816292141
 30
0.0
 10
107.0387749732401
 20
-149.8106816292141
 30
0.0
 10
106.993972195474
 20
-149.8554491292027
 30
0.0
 10
106.993972195474
 20
-149.9105882958557
 30
0.0
 10
106.993972195474
 20
-149.9656921847306
 30
0.0
 10
107.0387749732401
 20
-150.0104949624974
 30
0.0
 10
107.0938761566965
 20
-150.0104949624974
 30
0.0
 10
107.1490153219564
 20
-150.0104949624974
 30
0.0
 10
107.1937828208143
 20
-149.9656921847306
 30
0.0
 10
107.1937828208143
 20
-149.9105882958557
 30
0.0
  0
SPLINE
  5
C7
330
1F
100
AcDbEntity
  8
_U+30EC_U+30A4_U+30E4_U+30FC 1
 62
   179
420
  2234388
370
     9
100
AcDbSpline
210
0.0
220
0.0
230
1.0
 70
    11
 71
     3
 72
    17
 73
    13
 74
     0
 42
0.0000000001
 43
0.0000000001
 12
1.0
 22
0.0
 32
0.0
 13
1.0
 23
0.0
 33
0.0
 40
0.0
 40
0.0
 40
0.0
 40
0.0
 40
1.0
 40
1.0
 40
1.0
 40
2.0
 40
2.0
 40
2.0
 40
3.0
 40
3.0
 40
3.0
 40
4.0
 40
4.0
 40
4.0
 40
4.0
 10
107.1937828208143
 20
-148.7106499628221
 30
0.0
 10
107.1937828208143
 20
-148.6551932961695
 30
0.0
 10
107.1490153219564
 20
-148.6103905184028
 30
0.0
 10
107.0938761566965
 20
-148.6103905184028
 30
0.0
 10
107.0387749732401
 20
-148.6103905184028
 30
0.0
 10
106.993972195474
 20
-148.6551932961695
 30
0.0
 10
106.993972195474
 20
-148.7106499628221
 30
0.0
 10
106.993972195474
 20
-148.7657538516977
 30
0.0
 10
107.0387749732401
 20
-148.8105566294638
 30
0.0
 10
107.0938761566965
 20
-148.8105566294638
 30
0.0
 10
107.1490153219564
 20
-148.8105566294638
 30
0.0
 10
107.1937828208143
 20
-148.7657538516977
 30
0.0
 10
107.1937828208143
 20
-148.7106499628221
 30
0.0
  0
SPLINE
  5
C8
330
1F
100
AcDbEntity
  8
_U+30EC_U+30A4_U+30E4_U+30FC 1
 62
   179
420
  2234388
370
    25
100
AcDbSpline
210
0.0
220
0.0
230
1.0
 70
     8
 71
     3
 72
     8
 73
     4
 74
     0
 42
0.0000000001
 43
0.0000000001
 12
1.0
 22
0.0
 32
0.0
 13
1.0
 23
0.0
 33
0.0
 40
0.0
 40
0.0
 40
0.0
 40
0.0
 40
1.0
 40
1.0
 40
1.0
 40
1.0
 10
74.29383393793972
 20
-147.7105249630725
 30
0.0
 10
74.29383393793972
 20
-148.2627985740451
 30
0.0
 10
74.74168531540298
 20
-148.7106499628221
 30
0.0
 10
75.29392363464753
 20
-148.7106499628221
 30
0.0
  0
SPLINE
  5
C9
330
1F
100
AcDbEntity
  8
_U+30EC_U+30A4_U+30E4_U+30FC 1
 62
   179
420
  2234388
370
     9
100
AcDbSpline
210
0.0
220
0.0
230
1.0
 70
    11
 71
     3
 72
    17
 73
    13
 74
     0
 42
0.0000000001
 43
0.0000000001
 12
1.0
 22
0.0
 32
0.0
 13
1.0
 23
0.0
 33
0.0
 40
0.0
 40
0.0
 40
0.0
 40
0.0
 40
1.0
 40
1.0
 40
1.0
 40
2.0
 40
2.0
 40
2.0
 40
3.0
 40
3.0
 40
3.0
 40
4.0
 40
4.0
 40
4.0
 40
4.0
 10
103.1940590339669
 20
-144.7105380193782
 30
0.0
 10
103.1940590339669
 20
-144.6554341305026
 30
0.0
 10
103.1492562573321
 20
-144.6106313527365
 30
0.0
 10
103.0937995920803
 20
-144.6106313527365
 30
0.0
 10
103.0386604268203
 20
-144.6106313527365
 30
0.0
 10
102.9938929279624
 20
-144.6554341305026
 30
0.0
 10
102.9938929279624
 20
-144.7105380193782
 30
0.0
 10
102.9938929279624
 20
-144.7656771860306
 30
0.0
 10
103.0386604268203
 20
-144.8104446860198
 30
0.0
 10
103.0937995920803
 20
-144.8104446860198
 30
0.0
 10
103.1492562573321
 20
-144.8104446860198
 30
0.0
 10
103.1940590339669
 20
-144.7656771860306
 30
0.0
 10
103.1940590339669
 20
-144.7105380193782
 30
0.0
  0
SPLINE
  5
CA
330
1F
100
AcDbEntity
  8
_U+30EC_U+30A4_U+30E4_U+30FC 1
 62
   179
420
  2234388
370
     9
100
AcDbSpline
210
0.0
220
0.0
230
1.0
 70
    11
 71
     3
 72
    17
 73
    13
 74
     0
 42
0.0000000001
 43
0.0000000001
 12
1.0
 22
0.0
 32
0.0
 13
1.0
 23
0.0
 33
0.0
 40
0.0
 40
0.0
 40
0.0
 40
0.0
 40
1.0
 40
1.0
 40
1.0
 40
2.0
 40
2.0
 40
2.0
 40
3.0
 40
3.0
 40
3.0
 40
4.0
 40
4.0
 40
4.0
 40
4.0
 10
93.19397345575699
 20
-144.7105380193782
 30
0.0
 10
93.19397345575699
 20
-144.6554341305026
 30
0.0
 10
93.14917067912224
 20
-144.6106313527365
 30
0.0
 10
93.09406679163915
 20
-144.6106313527365
 30
0.0
 10
93.03857484861042
 20
-144.6106313527365
 30
0.0
 10
92.99380734975254
 20
-144.6554341305026
 30
0.0
 10
92.99380734975254
 20
-144.7105380193782
 30
0.0
 10
92.99380734975254
 20
-144.7656771860306
 30
0.0
 10
93.03857484861042
 20
-144.8104446860198
 30
0.0
 10
93.09406679163915
 20
-144.8104446860198
 30
0.0
 10
93.14917067912224
 20
-144.8104446860198
 30
0.0
 10
93.19397345575699
 20
-144.7656771860306
 30
0.0
 10
93.19397345575699
 20
-144.7105380193782
 30
0.0
  0
SPLINE
  5
CB
330
1F
100
AcDbEntity
  8
_U+30EC_U+30A4_U+30E4_U+30FC 1
 62
   179
420
  2234388
370
     9
100
AcDbSpline
210
0.0
220
0.0
230
1.0
 70
    11
 71
     3
 72
    17
 73
    13
 74
     0
 42
0.0000000001
 43
0.0000000001
 12
1.0
 22
0.0
 32
0.0
 13
1.0
 23
0.0
 33
0.0
 40
0.0
 40
0.0
 40
0.0
 40
0.0
 40
1.0
 40
1.0
 40
1.0
 40
2.0
 40
2.0
 40
2.0
 40
3.0
 40
3.0
 40
3.0
 40
4.0
 40
4.0
 40
4.0
 40
4.0
 10
83.1938878775471
 20
-98.7106088642111
 30
0.0
 10
83.1938878775471
 20
-98.65546969755835
 30
0.0
 10
83.14908510091233
 20
-98.61070219756945
 30
0.0
 10
83.09398331255997
 20
-98.61070219756945
 30
0.0
 10
83.03884204816931
 20
-98.61070219756945
 30
0.0
 10
82.99407454931142
 20
-98.65546969755835
 30
0.0
 10
82.99407454931142
 20
-98.7106088642111
 30
0.0
 10
82.99407454931142
 20
-98.76571275308633
 30
0.0
 10
83.03884204816931
 20
-98.81051553085305
 30
0.0
 10
83.09398331255997
 20
-98.81051553085305
 30
0.0
 10
83.14908510091233
 20
-98.81051553085305
 30
0.0
 10
83.1938878775471
 20
-98.76571275308633
 30
0.0
 10
83.1938878775471
 20
-98.7106088642111
 30
0.0
  0
SPLINE
  5
CC
330
1F
100
AcDbEntity
  8
_U+30EC_U+30A4_U+30E4_U+30FC 1
 62
   179
420
  2234388
370
     9
100
AcDbSpline
210
0.0
220
0.0
230
1.0
 70
    11
 71
     3
 72
    17
 73
    13
 74
     0
 42
0.0000000001
 43
0.0000000001
 12
1.0
 22
0.0
 32
0.0
 13
1.0
 23
0.0
 33
0.0
 40
0.0
 40
0.0
 40
0.0
 40
0.0
 40
1.0
 40
1.0
 40
1.0
 40
2.0
 40
2.0
 40
2.0
 40
3.0
 40
3.0
 40
3.0
 40
4.0
 40
4.0
 40
4.0
 40
4.0
 10
83.1938878775471
 20
-116.9106966374392
 30
0.0
 10
83.1938878775471
 20
-116.8552399707862
 30
0.0
 10
83.14908510091233
 20
-116.8104371930198
 30
0.0
 10
83.09398331255997
 20
-116.8104371930198
 30
0.0
 10
83.03884204816931
 20
-116.8104371930198
 30
0.0
 10
82.99407454931142
 20
-116.8552399707862
 30
0.0
 10
82.99407454931142
 20
-116.9106966374392
 30
0.0
 10
82.99407454931142
 20
-116.9658005263141
 30
0.0
 10
83.03884204816931
 20
-117.0106033040808
 30
0.0
 10
83.09398331255997
 20
-117.0106033040808
 30
0.0
 10
83.14908510091233
 20
-117.0106033040808
 30
0.0
 10
83.1938878775471
 20
-116.9658005263141
 30
0.0
 10
83.1938878775471
 20
-116.9106966374392
 30
0.0
  0
SPLINE
  5
CD
330
1F
100
AcDbEntity
  8
_U+30EC_U+30A4_U+30E4_U+30FC 1
 62
   179
420
  2234388
370
     9
100
AcDbSpline
210
0.0
220
0.0
230
1.0
 70
    11
 71
     3
 72
    17
 73
    13
 74
     0
 42
0.0000000001
 43
0.0000000001
 12
1.0
 22
0.0
 32
0.0
 13
1.0
 23
0.0
 33
0.0
 40
0.0
 40
0.0
 40
0.0
 40
0.0
 40
1.0
 40
1.0
 40
1.0
 40
2.0
 40
2.0
 40
2.0
 40
3.0
 40
3.0
 40
3.0
 40
4.0
 40
4.0
 40
4.0
 40
4.0
 10
107.1937828208143
 20
-98.7106088642111
 30
0.0
 10
107.1937828208143
 20
-98.65546969755835
 30
0.0
 10
107.1490153219564
 20
-98.61070219756945
 30
0.0
 10
107.0938761566965
 20
-98.61070219756945
 30
0.0
 10
107.0387749732401
 20
-98.61070219756945
 30
0.0
 10
106.993972195474
 20
-98.65546969755835
 30
0.0
 10
106.993972195474
 20
-98.7106088642111
 30
0.0
 10
106.993972195474
 20
-98.76571275308633
 30
0.0
 10
107.0387749732401
 20
-98.81051553085305
 30
0.0
 10
107.0938761566965
 20
-98.81051553085305
 30
0.0
 10
107.1490153219564
 20
-98.81051553085305
 30
0.0
 10
107.1937828208143
 20
-98.76571275308633
 30
0.0
 10
107.1937828208143
 20
-98.7106088642111
 30
0.0
  0
SPLINE
  5
CE
330
1F
100
AcDbEntity
  8
_U+30EC_U+30A4_U+30E4_U+30FC 1
 62
   179
420
  2234388
370
     9
100
AcDbSpline
210
0.0
220
0.0
230
1.0
 70
    11
 71
     3
 72
    17
 73
    13
 74
     0
 42
0.0000000001
 43
0.0000000001
 12
1.0
 22
0.0
 32
0.0
 13
1.0
 23
0.0
 33
0.0
 40
0.0
 40
0.0
 40
0.0
 40
0.0
 40
1.0
 40
1.0
 40
1.0
 40
2.0
 40
2.0
 40
2.0
 40
3.0
 40
3.0
 40
3.0
 40
4.0
 40
4.0
 40
4.0
 40
4.0
 10
103.1940590339669
 20
-153.9106649615222
 30
0.0
 10
103.1940590339669
 20
-153.8552082948695
 30
0.0
 10
103.1492562573321
 20
-153.8104055171028
 30
0.0
 10
103.0937995920803
 20
-153.8104055171028
 30
0.0
 10
103.0386604268203
 20
-153.8104055171028
 30
0.0
 10
102.9938929279624
 20
-153.8552082948695
 30
0.0
 10
102.9938929279624
 20
-153.9106649615222
 30
0.0
 10
102.9938929279624
 20
-153.9658041281753
 30
0.0
 10
103.0386604268203
 20
-154.0105716281639
 30
0.0
 10
103.0937995920803
 20
-154.0105716281639
 30
0.0
 10
103.1492562573321
 20
-154.0105716281639
 30
0.0
 10
103.1940590339669
 20
-153.9658041281753
 30
0.0
 10
103.1940590339669
 20
-153.9106649615222
 30
0.0
  0
SPLINE
  5
CF
330
1F
100
AcDbEntity
  8
_U+30EC_U+30A4_U+30E4_U+30FC 1
 62
   179
420
  2234388
370
     9
100
AcDbSpline
210
0.0
220
0.0
230
1.0
 70
    11
 71
     3
 72
    17
 73
    13
 74
     0
 42
0.0000000001
 43
0.0000000001
 12
1.0
 22
0.0
 32
0.0
 13
1.0
 23
0.0
 33
0.0
 40
0.0
 40
0.0
 40
0.0
 40
0.0
 40
1.0
 40
1.0
 40
1.0
 40
2.0
 40
2.0
 40
2.0
 40
3.0
 40
3.0
 40
3.0
 40
4.0
 40
4.0
 40
4.0
 40
4.0
 10
73.19415507710598
 20
-153.9106649615222
 30
0.0
 10
73.19415507710598
 20
-153.8552082948695
 30
0.0
 10
73.14935230047122
 20
-153.8104055171028
 30
0.0
 10
73.09389563521937
 20
-153.8104055171028
 30
0.0
 10
73.0387917477363
 20
-153.8104055171028
 30
0.0
 10
72.99398897110153
 20
-153.8552082948695
 30
0.0
 10
72.99398897110153
 20
-153.9106649615222
 30
0.0
 10
72.99398897110153
 20
-153.9658041281753
 30
0.0
 10
73.0387917477363
 20
-154.0105716281639
 30
0.0
 10
73.09389563521937
 20
-154.0105716281639
 30
0.0
 10
73.14935230047122
 20
-154.0105716281639
 30
0.0
 10
73.19415507710598
 20
-153.9658041281753
 30
0.0
 10
73.19415507710598
 20
-153.9106649615222
 30
0.0
  0
INSERT
  5
D1
330
1F
100
AcDbEntity
  8
_U+30EC_U+30A4_U+30E4_U+30FC 1
100
AcDbBlockReference
  2
block 2
 10
0.0
 20
0.0
 30
0.0
  0
POLYLINE
  5
105
330
1F
100
AcDbEntity
  8
_U+30EC_U+30A4_U+30E4_U+30FC 1
 62
   179
420
  2234388
370
     9
100
AcDb2dPolyline
 66
     1
 10
0.0
 20
0.0
 30
0.0
  0
VERTEX
  5
106
330
105
100
AcDbEntity
  8
_U+30EC_U+30A4_U+30E4_U+30FC 1
 62
   179
420
  2234388
370
     9
100
AcDbVertex
100
AcDb2dVertex
 10
107.0938761566965
 20
-150.9106780178279
 30
0.0
  0
VERTEX
  5
107
330
105
100
AcDbEntity
  8
_U+30EC_U+30A4_U+30E4_U+30FC 1
 62
   179
420
  2234388
370
     9
100
AcDbVertex
100
AcDb2dVertex
 10
107.0938761566965
 20
-155.1684941278747
 30
0.0
  0
SEQEND
  5
108
330
105
100
AcDbEntity
  8
_U+30EC_U+30A4_U+30E4_U+30FC 1
 62
   179
420
  2234388
370
     9
  0
POLYLINE
  5
109
330
1F
100
AcDbEntity
  8
_U+30EC_U+30A4_U+30E4_U+30FC 1
 62
   179
420
  2234388
370
     9
100
AcDb2dPolyline
 66
     1
 10
0.0
 20
0.0
 30
0.0
  0
VERTEX
  5
10A
330
109
100
AcDbEntity
  8
_U+30EC_U+30A4_U+30E4_U+30FC 1
 62
   179
420
  2234388
370
     9
100
AcDbVertex
100
AcDb2dVertex
 10
107.0938761566965
 20
-148.7106499628221
 30
0.0
  0
VERTEX
  5
10B
330
109
100
AcDbEntity
  8
_U+30EC_U+30A4_U+30E4_U+30FC 1
 62
   179
420
  2234388
370
     9
100
AcDbVertex
100
AcDb2dVertex
 10
107.0938761566965
 20
-150.9106780178279
 30
0.0
  0
SEQEND
  5
10C
330
109
100
AcDbEntity
  8
_U+30EC_U+30A4_U+30E4_U+30FC 1
 62
   179
420
  2234388
370
     9
  0
POLYLINE
  5
10D
330
1F
100
AcDbEntity
  8
_U+30EC_U+30A4_U+30E4_U+30FC 1
 62
   179
420
  2234388
370
     9
100
AcDb2dPolyline
 66
     1
 10
0.0
 20
0.0
 30
0.0
  0
VERTEX
  5
10E
330
10D
100
AcDbEntity
  8
_U+30EC_U+30A4_U+30E4_U+30FC 1
 62
   179
420
  2234388
370
     9
100
AcDbVertex
100
AcDb2dVertex
 10
105.6338700828332
 20
-148.7106499628221
 30
0.0
  0
VERTEX
  5
10F
330
10D
100
AcDbEntity
  8
_U+30EC_U+30A4_U+30E4_U+30FC 1
 62
   179
420
  2234388
370
     9
100
AcDbVertex
100
AcDb2dVertex
 10
108.0940011311812
 20
-148.7106499628221
 30
0.0
  0
SEQEND
  5
110
330
10D
100
AcDbEntity
  8
_U+30EC_U+30A4_U+30E4_U+30FC 1
 62
   179
420
  2234388
370
     9
  0
POLYLINE
  5
111
330
1F
100
AcDbEntity
  8
_U+30EC_U+30A4_U+30E4_U+30FC 1
 62
   179
420
  2234388
370
     9
100
AcDb2dPolyline
 66
     1
 10
0.0
 20
0.0
 30
0.0
  0
VERTEX
  5
112
330
111
100
AcDbEntity
  8
_U+30EC_U+30A4_U+30E4_U+30FC 1
 62
   179
420
  2234388
370
     9
100
AcDbVertex
100
AcDb2dVertex
 10
105.6338700828332
 20
-149.9105882958557
 30
0.0
  0
VERTEX
  5
113
330
111
100
AcDbEntity
  8
_U+30EC_U+30A4_U+30E4_U+30FC 1
 62
   179
420
  2234388
370
     9
100
AcDbVertex
100
AcDb2dVertex
 10
108.0940011311812
 20
-149.9105882958557
 30
0.0
  0
SEQEND
  5
114
330
111
100
AcDbEntity
  8
_U+30EC_U+30A4_U+30E4_U+30FC 1
 62
   179
420
  2234388
370
     9
  0
INSERT
  5
116
330
1F
100
AcDbEntity
  8
_U+30EC_U+30A4_U+30E4_U+30FC 1
100
AcDbBlockReference
  2
block 3
 10
0.0
 20
0.0
 30
0.0
  0
POLYLINE
  5
125
330
1F
100
AcDbEntity
  8
_U+30EC_U+30A4_U+30E4_U+30FC 1
 62
   179
420
  2234388
370
     9
100
AcDb2dPolyline
 66
     1
 10
0.0
 20
0.0
 30
0.0
  0
VERTEX
  5
126
330
125
100
AcDbEntity
  8
_U+30EC_U+30A4_U+30E4_U+30FC 1
 62
   179
420
  2234388
370
     9
100
AcDbVertex
100
AcDb2dVertex
 10
73.09389563521937
 20
-153.9106649615222
 30
0.0
  0
VERTEX
  5
127
330
125
100
AcDbEntity
  8
_U+30EC_U+30A4_U+30E4_U+30FC 1
 62
   179
420
  2234388
370
     9
100
AcDbVertex
100
AcDb2dVertex
 10
103.0937995920803
 20
-153.9106649615222
 30
0.0
  0
SEQEND
  5
128
330
125
100
AcDbEntity
  8
_U+30EC_U+30A4_U+30E4_U+30FC 1
 62
   179
420
  2234388
370
     9
  0
POLYLINE
  5
129
330
1F
100
AcDbEntity
  8
_U+30EC_U+30A4_U+30E4_U+30FC 1
 62
   179
420
  2234388
370
     9
100
AcDb2dPolyline
 66
     1
 10
0.0
 20
0.0
 30
0.0
  0
VERTEX
  5
12A
330
129
100
AcDbEntity
  8
_U+30EC_U+30A4_U+30E4_U+30FC 1
 62
   179
420
  2234388
370
     9
100
AcDbVertex
100
AcDb2dVertex
 10
73.09389563521937
 20
-152.450658850776
 30
0.0
  0
VERTEX
  5
12B
330
129
100
AcDbEntity
  8
_U+30EC_U+30A4_U+30E4_U+30FC 1
 62
   179
420
  2234388
370
     9
100
AcDbVertex
100
AcDb2dVertex
 10
73.09389563521937
 20
-154.9104371834948
 30
0.0
  0
SEQEND
  5
12C
330
129
100
AcDbEntity
  8
_U+30EC_U+30A4_U+30E4_U+30FC 1
 62
   179
420
  2234388
370
     9
  0
POLYLINE
  5
12D
330
1F
100
AcDbEntity
  8
_U+30EC_U+30A4_U+30E4_U+30FC 1
 62
   179
420
  2234388
370
     9
100
AcDb2dPolyline
 66
     1
 10
0.0
 20
0.0
 30
0.0
  0
VERTEX
  5
12E
330
12D
100
AcDbEntity
  8
_U+30EC_U+30A4_U+30E4_U+30FC 1
 62
   179
420
  2234388
370
     9
100
AcDbVertex
100
AcDb2dVertex
 10
103.0937995920803
 20
-152.450658850776
 30
0.0
  0
VERTEX
  5
12F
330
12D
100
AcDbEntity
  8
_U+30EC_U+30A4_U+30E4_U+30FC 1
 62
   179
420
  2234388
370
     9
100
AcDbVertex
100
AcDb2dVertex
 10
103.0937995920803
 20
-154.9104371834948
 30
0.0
  0
SEQEND
  5
130
330
12D
100
AcDbEntity
  8
_U+30EC_U+30A4_U+30E4_U+30FC 1
 62
   179
420
  2234388
370
     9
  0
INSERT
  5
132
330
1F
100
AcDbEntity
  8
_U+30EC_U+30A4_U+30E4_U+30FC 1
100
AcDbBlockReference
  2
block 4
 10
0.0
 20
0.0
 30
0.0
  0
POLYLINE
  5
13A
330
1F
100
AcDbEntity
  8
_U+30EC_U+30A4_U+30E4_U+30FC 1
 62
   179
420
  2234388
370
     9
100
AcDb2dPolyline
 66
     1
 10
0.0
 20
0.0
 30
0.0
  0
VERTEX
  5
13B
330
13A
100
AcDbEntity
  8
_U+30EC_U+30A4_U+30E4_U+30FC 1
 62
   179
420
  2234388
370
     9
100
AcDbVertex
100
AcDb2dVertex
 10
83.09398331255997
 20
-98.7106088642111
 30
0.0
  0
VERTEX
  5
13C
330
13A
100
AcDbEntity
  8
_U+30EC_U+30A4_U+30E4_U+30FC 1
 62
   179
420
  2234388
370
     9
100
AcDbVertex
100
AcDb2dVertex
 10
83.09398331255997
 20
-116.9106966374392
 30
0.0
  0
SEQEND
  5
13D
330
13A
100
AcDbEntity
  8
_U+30EC_U+30A4_U+30E4_U+30FC 1
 62
   179
420
  2234388
370
     9
  0
POLYLINE
  5
13E
330
1F
100
AcDbEntity
  8
_U+30EC_U+30A4_U+30E4_U+30FC 1
 62
   179
420
  2234388
370
     9
100
AcDb2dPolyline
 66
     1
 10
0.0
 20
0.0
 30
0.0
  0
VERTEX
  5
13F
330
13E
100
AcDbEntity
  8
_U+30EC_U+30A4_U+30E4_U+30FC 1
 62
   179
420
  2234388
370
     9
100
AcDbVertex
100
AcDb2dVertex
 10
81.63393986178913
 20
-98.7106088642111
 30
0.0
  0
VERTEX
  5
140
330
13E
100
AcDbEntity
  8
_U+30EC_U+30A4_U+30E4_U+30FC 1
 62
   179
420
  2234388
370
     9
100
AcDbVertex
100
AcDb2dVertex
 10
84.09375553453219
 20
-98.7106088642111
 30
0.0
  0
SEQEND
  5
141
330
13E
100
AcDbEntity
  8
_U+30EC_U+30A4_U+30E4_U+30FC 1
 62
   179
420
  2234388
370
     9
  0
POLYLINE
  5
142
330
1F
100
AcDbEntity
  8
_U+30EC_U+30A4_U+30E4_U+30FC 1
 62
   179
420
  2234388
370
     9
100
AcDb2dPolyline
 66
     1
 10
0.0
 20
0.0
 30
0.0
  0
VERTEX
  5
143
330
142
100
AcDbEntity
  8
_U+30EC_U+30A4_U+30E4_U+30FC 1
 62
   179
420
  2234388
370
     9
100
AcDbVertex
100
AcDb2dVertex
 10
81.63393986178913
 20
-116.9106966374392
 30
0.0
  0
VERTEX
  5
144
330
142
100
AcDbEntity
  8
_U+30EC_U+30A4_U+30E4_U+30FC 1
 62
   179
420
  2234388
370
     9
100
AcDbVertex
100
AcDb2dVertex
 10
84.09375553453219
 20
-116.9106966374392
 30
0.0
  0
SEQEND
  5
145
330
142
100
AcDbEntity
  8
_U+30EC_U+30A4_U+30E4_U+30FC 1
 62
   179
420
  2234388
370
     9
  0
INSERT
  5
147
330
1F
100
AcDbEntity
  8
_U+30EC_U+30A4_U+30E4_U+30FC 1
100
AcDbBlockReference
  2
block 5
 10
0.0
 20
0.0
 30
0.0
  0
POLYLINE
  5
15A
330
1F
100
AcDbEntity
  8
_U+30EC_U+30A4_U+30E4_U+30FC 1
 62
   179
420
  2234388
370
     9
100
AcDb2dPolyline
 66
     1
 10
0.0
 20
0.0
 30
0.0
  0
VERTEX
  5
15B
330
15A
100
AcDbEntity
  8
_U+30EC_U+30A4_U+30E4_U+30FC 1
 62
   179
420
  2234388
370
     9
100
AcDbVertex
100
AcDb2dVertex
 10
107.0938761566965
 20
-148.7106499628221
 30
0.0
  0
VERTEX
  5
15C
330
15A
100
AcDbEntity
  8
_U+30EC_U+30A4_U+30E4_U+30FC 1
 62
   179
420
  2234388
370
     9
100
AcDbVertex
100
AcDb2dVertex
 10
107.0938761566965
 20
-98.7106088642111
 30
0.0
  0
SEQEND
  5
15D
330
15A
100
AcDbEntity
  8
_U+30EC_U+30A4_U+30E4_U+30FC 1
 62
   179
420
  2234388
370
     9
  0
POLYLINE
  5
15E
330
1F
100
AcDbEntity
  8
_U+30EC_U+30A4_U+30E4_U+30FC 1
 62
   179
420
  2234388
370
     9
100
AcDb2dPolyline
 66
     1
 10
0.0
 20
0.0
 30
0.0
  0
VERTEX
  5
15F
330
15E
100
AcDbEntity
  8
_U+30EC_U+30A4_U+30E4_U+30FC 1
 62
   179
420
  2234388
370
     9
100
AcDbVertex
100
AcDb2dVertex
 10
81.63393986178913
 20
-98.7106088642111
 30
0.0
  0
VERTEX
  5
160
330
15E
100
AcDbEntity
  8
_U+30EC_U+30A4_U+30E4_U+30FC 1
 62
   179
420
  2234388
370
     9
100
AcDbVertex
100
AcDb2dVertex
 10
108.0940011311812
 20
-98.7106088642111
 30
0.0
  0
SEQEND
  5
161
330
15E
100
AcDbEntity
  8
_U+30EC_U+30A4_U+30E4_U+30FC 1
 62
   179
420
  2234388
370
     9
  0
INSERT
  5
163
330
1F
100
AcDbEntity
  8
_U+30EC_U+30A4_U+30E4_U+30FC 1
100
AcDbBlockReference
  2
block 6
 10
0.0
 20
0.0
 30
0.0
  0
POLYLINE
  5
16B
330
1F
100
AcDbEntity
  8
_U+30EC_U+30A4_U+30E4_U+30FC 1
 62
   179
420
  2234388
370
     9
100
AcDb2dPolyline
 66
     1
 10
0.0
 20
0.0
 30
0.0
  0
VERTEX
  5
16C
330
16B
100
AcDbEntity
  8
_U+30EC_U+30A4_U+30E4_U+30FC 1
 62
   179
420
  2234388
370
     9
100
AcDbVertex
100
AcDb2dVertex
 10
103.0937995920803
 20
-144.7105380193782
 30
0.0
  0
VERTEX
  5
16D
330
16B
100
AcDbEntity
  8
_U+30EC_U+30A4_U+30E4_U+30FC 1
 62
   179
420
  2234388
370
     9
100
AcDbVertex
100
AcDb2dVertex
 10
93.09406679163915
 20
-144.7105380193782
 30
0.0
  0
SEQEND
  5
16E
330
16B
100
AcDbEntity
  8
_U+30EC_U+30A4_U+30E4_U+30FC 1
 62
   179
420
  2234388
370
     9
  0
POLYLINE
  5
16F
330
1F
100
AcDbEntity
  8
_U+30EC_U+30A4_U+30E4_U+30FC 1
 62
   179
420
  2234388
370
     9
100
AcDb2dPolyline
 66
     1
 10
0.0
 20
0.0
 30
0.0
  0
VERTEX
  5
170
330
16F
100
AcDbEntity
  8
_U+30EC_U+30A4_U+30E4_U+30FC 1
 62
   179
420
  2234388
370
     9
100
AcDbVertex
100
AcDb2dVertex
 10
103.0937995920803
 20
-146.1705794079019
 30
0.0
  0
VERTEX
  5
171
330
16F
100
AcDbEntity
  8
_U+30EC_U+30A4_U+30E4_U+30FC 1
 62
   179
420
  2234388
370
     9
100
AcDbVertex
100
AcDb2dVertex
 10
103.0937995920803
 20
-143.710448297406
 30
0.0
  0
SEQEND
  5
172
330
16F
100
AcDbEntity
  8
_U+30EC_U+30A4_U+30E4_U+30FC 1
 62
   179
420
  2234388
370
     9
  0
POLYLINE
  5
173
330
1F
100
AcDbEntity
  8
_U+30EC_U+30A4_U+30E4_U+30FC 1
 62
   179
420
  2234388
370
     9
100
AcDb2dPolyline
 66
     1
 10
0.0
 20
0.0
 30
0.0
  0
VERTEX
  5
174
330
173
100
AcDbEntity
  8
_U+30EC_U+30A4_U+30E4_U+30FC 1
 62
   179
420
  2234388
370
     9
100
AcDbVertex
100
AcDb2dVertex
 10
93.09406679163915
 20
-146.6704655188878
 30
0.0
  0
VERTEX
  5
175
330
173
100
AcDbEntity
  8
_U+30EC_U+30A4_U+30E4_U+30FC 1
 62
   179
420
  2234388
370
     9
100
AcDbVertex
100
AcDb2dVertex
 10
93.09406679163915
 20
-143.710448297406
 30
0.0
  0
SEQEND
  5
176
330
173
100
AcDbEntity
  8
_U+30EC_U+30A4_U+30E4_U+30FC 1
 62
   179
420
  2234388
370
     9
  0
INSERT
  5
178
330
1F
100
AcDbEntity
  8
_U+30EC_U+30A4_U+30E4_U+30FC 1
100
AcDbBlockReference
  2
block 7
 10
0.0
 20
0.0
 30
0.0
  0
ENDSEC
  0
SECTION
  2
OBJECTS
  0
DICTIONARY
  5
C
330
0
100
AcDbDictionary
281
     1
  3
ACAD_GROUP
350
D
  3
ACAD_LAYOUT
350
1A
  3
ACAD_MATERIAL
350
3B
  3
ACAD_MLEADERSTYLE
350
181
  3
ACAD_MLINESTYLE
350
17
  3
ACAD_PLOTSETTINGS
350
19
  3
ACAD_PLOTSTYLENAME
350
E
  3
ACAD_TABLESTYLE
350
180
  3
ACAD_VISUALSTYLE
350
2A
  0
SUN
  5
3F
330
29
100
AcDbSun
 90
        1
290
     0
 63
     7
421
 16777215
 40
1.0
291
     1
 91
  2455826
 92
 54000000
292
     0
 70
     2
 71
   256
280
     1
  0
DICTIONARY
  5
D
102
{ACAD_REACTORS
330
C
102
}
330
C
100
AcDbDictionary
281
     1
  0
DICTIONARY
  5
1A
102
{ACAD_REACTORS
330
C
102
}
330
C
100
AcDbDictionary
281
     1
  3
Layout1
350
1E
  3
Layout2
350
26
  3
Model
350
22
  0
DICTIONARY
  5
3B
102
{ACAD_REACTORS
330
C
102
}
330
C
100
AcDbDictionary
281
     1
  3
ByBlock
350
3D
  3
ByLayer
350
3C
  3
Global
350
3E
  0
DICTIONARY
  5
181
102
{ACAD_REACTORS
330
C
102
}
330
C
100
AcDbDictionary
281
     1
  0
DICTIONARY
  5
17
102
{ACAD_REACTORS
330
C
102
}
330
C
100
AcDbDictionary
281
     1
  3
Standard
350
18
  0
DICTIONARY
  5
19
102
{ACAD_REACTORS
330
C
102
}
330
C
100
AcDbDictionary
281
     1
  0
ACDBDICTIONARYWDFLT
  5
E
102
{ACAD_REACTORS
330
C
102
}
330
C
100
AcDbDictionary
281
     1
  3
Normal
350
F
100
AcDbDictionaryWithDefault
340
F
  0
DICTIONARY
  5
180
102
{ACAD_REACTORS
330
C
102
}
330
C
100
AcDbDictionary
281
     1
  0
DICTIONARY
  5
2A
102
{ACAD_REACTORS
330
C
102
}
330
C
100
AcDbDictionary
281
     1
  3
2dWireframe
350
2F
  3
3D Hidden
350
31
  3
3dWireframe
350
30
  3
Basic
350
32
  3
Brighten
350
36
  3
ColorChange
350
3A
  3
Conceptual
350
34
  3
Dim
350
35
  3
Facepattern
350
39
  3
Flat
350
2B
  3
FlatWithEdges
350
2C
  3
Gouraud
350
2D
  3
GouraudWithEdges
350
2E
  3
Linepattern
350
38
  3
Realistic
350
33
  3
Thicken
350
37
  0
LAYOUT
  5
1E
102
{ACAD_REACTORS
330
1A
102
}
330
1A
100
AcDbPlotSettings
  1

  2
none_device
  4

  6

 40
0.0
 41
0.0
 42
0.0
 43
0.0
 44
0.0
 45
0.0
 46
0.0
 47
0.0
 48
0.0
 49
0.0
140
0.0
141
0.0
142
1.0
143
1.0
 70
   688
 72
     0
 73
     0
 74
     5
  7

 75
    16
 76
     0
 77
     2
 78
   300
147
1.0
148
0.0
149
0.0
100
AcDbLayout
  1
Layout1
 70
     1
 71
     1
 10
0.0
 20
0.0
 11
12.0
 21
9.0
 12
0.0
 22
0.0
 32
0.0
 14
1.000000000000000E+20
 24
1.000000000000000E+20
 34
1.000000000000000E+20
 15
-1.000000000000000E+20
 25
-1.000000000000000E+20
 35
-1.000000000000000E+20
146
0.0
 13
0.0
 23
0.0
 33
0.0
 16
1.0
 26
0.0
 36
0.0
 17
0.0
 27
1.0
 37
0.0
 76
     0
330
1B
  0
LAYOUT
  5
26
102
{ACAD_REACTORS
330
1A
102
}
330
1A
100
AcDbPlotSettings
  1

  2
none_device
  4

  6

 40
0.0
 41
0.0
 42
0.0
 43
0.0
 44
0.0
 45
0.0
 46
0.0
 47
0.0
 48
0.0
 49
0.0
140
0.0
141
0.0
142
1.0
143
1.0
 70
   688
 72
     0
 73
     0
 74
     5
  7

 75
    16
 76
     0
 77
     2
 78
   300
147
1.0
148
0.0
149
0.0
100
AcDbLayout
  1
Layout2
 70
     1
 71
     2
 10
0.0
 20
0.0
 11
0.0
 21
0.0
 12
0.0
 22
0.0
 32
0.0
 14
0.0
 24
0.0
 34
0.0
 15
0.0
 25
0.0
 35
0.0
146
0.0
 13
0.0
 23
0.0
 33
0.0
 16
1.0
 26
0.0
 36
0.0
 17
0.0
 27
1.0
 37
0.0
 76
     0
330
23
  0
LAYOUT
  5
22
102
{ACAD_REACTORS
330
1A
102
}
330
1A
100
AcDbPlotSettings
  1

  2
none_device
  4

  6

 40
0.0
 41
0.0
 42
0.0
 43
0.0
 44
0.0
 45
0.0
 46
0.0
 47
0.0
 48
0.0
 49
0.0
140
0.0
141
0.0
142
1.0
143
1.0
 70
  1712
 72
     0
 73
     0
 74
     0
  7

 75
     0
 76
     0
 77
     2
 78
   300
147
1.0
148
0.0
149
0.0
100
AcDbLayout
  1
Model
 70
     1
 71
     0
 10
0.0
 20
0.0
 11
12.0
 21
9.0
 12
0.0
 22
0.0
 32
0.0
 14
1.000000000000000E+20
 24
1.000000000000000E+20
 34
1.000000000000000E+20
 15
-1.000000000000000E+20
 25
-1.000000000000000E+20
 35
-1.000000000000000E+20
146
0.0
 13
0.0
 23
0.0
 33
0.0
 16
1.0
 26
0.0
 36
0.0
 17
0.0
 27
1.0
 37
0.0
 76
     0
330
1F
331
29
  0
MATERIAL
  5
3D
102
{ACAD_REACTORS
330
3B
102
}
330
3B
100
AcDbMaterial
  1
ByBlock
 72
     1
 94
      127
  0
MATERIAL
  5
3C
102
{ACAD_REACTORS
330
3B
102
}
330
3B
100
AcDbMaterial
  1
ByLayer
 72
     1
 94
      127
  0
MATERIAL
  5
3E
102
{ACAD_REACTORS
330
3B
102
}
330
3B
100
AcDbMaterial
  1
Global
 72
     1
 94
      127
  0
MLINESTYLE
  5
18
102
{ACAD_REACTORS
330
17
102
}
330
17
100
AcDbMlineStyle
  2
Standard
 70
     0
  3

 62
   256
 51
90.0
 52
90.0
 71
     2
 49
0.5
 62
   256
  6
BYLAYER
 49
-0.5
 62
   256
  6
BYLAYER
  0
ACDBPLACEHOLDER
  5
F
102
{ACAD_REACTORS
330
E
102
}
330
E
  0
VISUALSTYLE
  5
2F
102
{ACAD_REACTORS
330
2A
102
}
330
2A
100
AcDbVisualStyle
  2
2dWireframe
 70
     4
177
     2
291
     0
 71
     0
176
     1
 72
     2
176
     1
 73
     0
176
     1
 90
        0
176
     1
 40
-0.6
176
     1
 41
-30.0
176
     1
 62
     5
 63
     7
421
 16777215
176
     1
 74
     1
176
     1
 91
        4
176
     1
 64
     7
176
     1
 65
   257
176
     1
 75
     1
176
     1
175
     1
176
     1
 42
1.0
176
     1
 92
        0
176
     1
 66
   257
176
     1
 43
1.0
176
     1
 76
     1
176
     1
 77
     6
176
     1
 78
     2
176
     1
 67
     7
176
     1
 79
     5
176
     1
170
     0
176
     1
171
     0
176
     1
290
     0
176
     1
 93
        1
176
     1
 44
0.0
176
     1
173
     0
176
     1
  0
VISUALSTYLE
  5
31
102
{ACAD_REACTORS
330
2A
102
}
330
2A
100
AcDbVisualStyle
  2
3D Hidden
 70
     6
177
     2
291
     0
 71
     1
176
     1
 72
     2
176
     1
 73
     2
176
     1
 90
        0
176
     1
 40
-0.6
176
     1
 41
-30.0
176
     1
 62
     5
 63
     7
421
 16777215
176
     1
 74
     2
176
     1
 91
        2
176
     1
 64
     7
176
     1
 65
   257
176
     1
 75
     2
176
     1
175
     1
176
     1
 42
40.0
176
     1
 92
        0
176
     1
 66
   257
176
     1
 43
1.0
176
     1
 76
     1
176
     1
 77
     6
176
     1
 78
     2
176
     1
 67
     7
176
     1
 79
     3
176
     1
170
     0
176
     1
171
     0
176
     1
290
     0
176
     1
 93
        1
176
     1
 44
0.0
176
     1
173
     0
176
     1
  0
VISUALSTYLE
  5
30
102
{ACAD_REACTORS
330
2A
102
}
330
2A
100
AcDbVisualStyle
  2
3dWireframe
 70
     5
177
     2
291
     0
 71
     0
176
     1
 72
     2
176
     1
 73
     0
176
     1
 90
        0
176
     1
 40
-0.6
176
     1
 41
-30.0
176
     1
 62
     5
 63
     7
421
 16777215
176
     1
 74
     1
176
     1
 91
        4
176
     1
 64
     7
176
     1
 65
   257
176
     1
 75
     1
176
     1
175
     1
176
     1
 42
1.0
176
     1
 92
        0
176
     1
 66
   257
176
     1
 43
1.0
176
     1
 76
     1
176
     1
 77
     6
176
     1
 78
     2
176
     1
 67
     7
176
     1
 79
     5
176
     1
170
     0
176
     1
171
     0
176
     1
290
     0
176
     1
 93
        1
176
     1
 44
0.0
176
     1
173
     0
176
     1
  0
VISUALSTYLE
  5
32
102
{ACAD_REACTORS
330
2A
102
}
330
2A
100
AcDbVisualStyle
  2
Basic
 70
     7
177
     2
291
     1
 71
     1
176
     1
 72
     0
176
     1
 73
     1
176
     1
 90
        0
176
     1
 40
-0.6
176
     1
 41
-30.0
176
     1
 62
     5
 63
     7
421
 16777215
176
     1
 74
     0
176
     1
 91
        4
176
     1
 64
     7
176
     1
 65
   257
176
     1
 75
     1
176
     1
175
     1
176
     1
 42
1.0
176
     1
 92
        8
176
     1
 66
     7
176
     1
 43
1.0
176
     1
 76
     1
176
     1
 77
     6
176
     1
 78
     2
176
     1
 67
     7
176
     1
 79
     5
176
     1
170
     0
176
     1
171
     0
176
     1
290
     0
176
     1
 93
        1
176
     1
 44
0.0
176
     1
173
     0
176
     1
  0
VISUALSTYLE
  5
36
102
{ACAD_REACTORS
330
2A
102
}
330
2A
100
AcDbVisualStyle
  2
Brighten
 70
    12
177
     2
291
     1
 71
     2
176
     1
 72
     2
176
     1
 73
     0
176
     1
 90
        0
176
     1
 40
-0.6
176
     1
 41
-30.0
176
     1
 62
     5
 63
     7
421
 16777215
176
     1
 74
     1
176
     1
 91
        4
176
     1
 64
     7
176
     1
 65
   257
176
     1
 75
     1
176
     1
175
     1
176
     1
 42
1.0
176
     1
 92
        8
176
     1
 66
     7
176
     1
 43
1.0
176
     1
 76
     1
176
     1
 77
     6
176
     1
 78
     2
176
     1
 67
     7
176
     1
 79
     5
176
     1
170
     0
176
     1
171
     0
176
     1
290
     0
176
     1
 93
        1
176
     1
 44
50.0
176
     1
173
     0
176
     1
  0
VISUALSTYLE
  5
3A
102
{ACAD_REACTORS
330
2A
102
}
330
2A
100
AcDbVisualStyle
  2
ColorChange
 70
    16
177
     2
291
     1
 71
     2
176
     1
 72
     2
176
     1
 73
     3
176
     1
 90
        0
176
     1
 40
-0.6
176
     1
 41
-30.0
176
     1
 62
     5
 63
     8
421
  8421504
176
     1
 74
     1
176
     1
 91
        4
176
     1
 64
     7
176
     1
 65
   257
176
     1
 75
     1
176
     1
175
     1
176
     1
 42
1.0
176
     1
 92
        8
176
     1
 66
     8
424
  8421504
176
     1
 43
1.0
176
     1
 76
     1
176
     1
 77
     6
176
     1
 78
     2
176
     1
 67
     7
176
     1
 79
     5
176
     1
170
     0
176
     1
171
     0
176
     1
290
     0
176
     1
 93
        1
176
     1
 44
0.0
176
     1
173
     0
176
     1
  0
VISUALSTYLE
  5
34
102
{ACAD_REACTORS
330
2A
102
}
330
2A
100
AcDbVisualStyle
  2
Conceptual
 70
     9
177
     2
291
     0
 71
     3
176
     1
 72
     2
176
     1
 73
     0
176
     1
 90
        0
176
     1
 40
-0.6
176
     1
 41
-30.0
176
     1
 62
     5
 63
     7
421
 16777215
176
     1
 74
     2
176
     1
 91
        2
176
     1
 64
     7
176
     1
 65
   257
176
     1
 75
     1
176
     1
175
     1
176
     1
 42
40.0
176
     1
 92
        8
176
     1
 66
     7
176
     1
 43
1.0
176
     1
 76
     1
176
     1
 77
     6
176
     1
 78
     2
176
     1
 67
     7
176
     1
 79
     3
176
     1
170
     0
176
     1
171
     0
176
     1
290
     0
176
     1
 93
        1
176
     1
 44
0.0
176
     1
173
     0
176
     1
  0
VISUALSTYLE
  5
35
102
{ACAD_REACTORS
330
2A
102
}
330
2A
100
AcDbVisualStyle
  2
Dim
 70
    11
177
     2
291
     1
 71
     2
176
     1
 72
     2
176
     1
 73
     0
176
     1
 90
        0
176
     1
 40
-0.6
176
     1
 41
-30.0
176
     1
 62
     5
 63
     7
421
 16777215
176
     1
 74
     1
176
     1
 91
        4
176
     1
 64
     7
176
     1
 65
   257
176
     1
 75
     1
176
     1
175
     1
176
     1
 42
1.0
176
     1
 92
        8
176
     1
 66
     7
176
     1
 43
1.0
176
     1
 76
     1
176
     1
 77
     6
176
     1
 78
     2
176
     1
 67
     7
176
     1
 79
     5
176
     1
170
     0
176
     1
171
     0
176
     1
290
     0
176
     1
 93
        1
176
     1
 44
-50.0
176
     1
173
     0
176
     1
  0
VISUALSTYLE
  5
39
102
{ACAD_REACTORS
330
2A
102
}
330
2A
100
AcDbVisualStyle
  2
Facepattern
 70
    15
177
     2
291
     1
 71
     2
176
     1
 72
     2
176
     1
 73
     0
176
     1
 90
        0
176
     1
 40
-0.6
176
     1
 41
-30.0
176
     1
 62
     5
 63
     7
421
 16777215
176
     1
 74
     1
176
     1
 91
        4
176
     1
 64
     7
176
     1
 65
   257
176
     1
 75
     1
176
     1
175
     1
176
     1
 42
1.0
176
     1
 92
        8
176
     1
 66
     7
176
     1
 43
1.0
176
     1
 76
     1
176
     1
 77
     6
176
     1
 78
     2
176
     1
 67
     7
176
     1
 79
     5
176
     1
170
     0
176
     1
171
     0
176
     1
290
     0
176
     1
 93
        1
176
     1
 44
0.0
176
     1
173
     0
176
     1
  0
VISUALSTYLE
  5
2B
102
{ACAD_REACTORS
330
2A
102
}
330
2A
100
AcDbVisualStyle
  2
Flat
 70
     0
177
     2
291
     1
 71
     2
176
     1
 72
     1
176
     1
 73
     1
176
     1
 90
        2
176
     1
 40
-0.6
176
     1
 41
30.0
176
     1
 62
     5
 63
     7
421
 16777215
176
     1
 74
     0
176
     1
 91
        4
176
     1
 64
     7
176
     1
 65
   257
176
     1
 75
     1
176
     1
175
     1
176
     1
 42
1.0
176
     1
 92
        8
176
     1
 66
     7
176
     1
 43
1.0
176
     1
 76
     1
176
     1
 77
     6
176
     1
 78
     2
176
     1
 67
     7
176
     1
 79
     5
176
     1
170
     0
176
     1
171
     0
176
     1
290
     0
176
     1
 93
       13
176
     1
 44
0.0
176
     1
173
     0
176
     1
  0
VISUALSTYLE
  5
2C
102
{ACAD_REACTORS
330
2A
102
}
330
2A
100
AcDbVisualStyle
  2
FlatWithEdges
 70
     1
177
     2
291
     1
 71
     2
176
     1
 72
     1
176
     1
 73
     1
176
     1
 90
        2
176
     1
 40
-0.6
176
     1
 41
30.0
176
     1
 62
     5
 63
     7
421
 16777215
176
     1
 74
     1
176
     1
 91
        4
176
     1
 64
     7
176
     1
 65
   257
176
     1
 75
     1
176
     1
175
     1
176
     1
 42
1.0
176
     1
 92
        0
176
     1
 66
   257
176
     1
 43
1.0
176
     1
 76
     1
176
     1
 77
     6
176
     1
 78
     2
176
     1
 67
     7
176
     1
 79
     5
176
     1
170
     0
176
     1
171
     0
176
     1
290
     0
176
     1
 93
       13
176
     1
 44
0.0
176
     1
173
     0
176
     1
  0
VISUALSTYLE
  5
2D
102
{ACAD_REACTORS
330
2A
102
}
330
2A
100
AcDbVisualStyle
  2
Gouraud
 70
     2
177
     2
291
     1
 71
     2
176
     1
 72
     2
176
     1
 73
     1
176
     1
 90
        2
176
     1
 40
-0.6
176
     1
 41
30.0
176
     1
 62
     5
 63
     7
421
 16777215
176
     1
 74
     0
176
     1
 91
        4
176
     1
 64
     7
176
     1
 65
   257
176
     1
 75
     1
176
     1
175
     1
176
     1
 42
1.0
176
     1
 92
        0
176
     1
 66
     7
176
     1
 43
1.0
176
     1
 76
     1
176
     1
 77
     6
176
     1
 78
     2
176
     1
 67
     7
176
     1
 79
     5
176
     1
170
     0
176
     1
171
     0
176
     1
290
     0
176
     1
 93
       13
176
     1
 44
0.0
176
     1
173
     0
176
     1
  0
VISUALSTYLE
  5
2E
102
{ACAD_REACTORS
330
2A
102
}
330
2A
100
AcDbVisualStyle
  2
GouraudWithEdges
 70
     3
177
     2
291
     1
 71
     2
176
     1
 72
     2
176
     1
 73
     1
176
     1
 90
        2
176
     1
 40
-0.6
176
     1
 41
30.0
176
     1
 62
     5
 63
     7
421
 16777215
176
     1
 74
     1
176
     1
 91
        4
176
     1
 64
     7
176
     1
 65
   257
176
     1
 75
     1
176
     1
175
     1
176
     1
 42
1.0
176
     1
 92
        0
176
     1
 66
   257
176
     1
 43
1.0
176
     1
 76
     1
176
     1
 77
     6
176
     1
 78
     2
176
     1
 67
     7
176
     1
 79
     5
176
     1
170
     0
176
     1
171
     0
176
     1
290
     0
176
     1
 93
       13
176
     1
 44
0.0
176
     1
173
     0
176
     1
  0
VISUALSTYLE
  5
38
102
{ACAD_REACTORS
330
2A
102
}
330
2A
100
AcDbVisualStyle
  2
Linepattern
 70
    14
177
     2
291
     1
 71
     2
176
     1
 72
     2
176
     1
 73
     0
176
     1
 90
        0
176
     1
 40
-0.6
176
     1
 41
-30.0
176
     1
 62
     5
 63
     7
421
 16777215
176
     1
 74
     1
176
     1
 91
        4
176
     1
 64
     7
176
     1
 65
   257
176
     1
 75
     7
176
     1
175
     7
176
     1
 42
1.0
176
     1
 92
        8
176
     1
 66
     7
176
     1
 43
1.0
176
     1
 76
     1
176
     1
 77
     6
176
     1
 78
     2
176
     1
 67
     7
176
     1
 79
     5
176
     1
170
     0
176
     1
171
     0
176
     1
290
     0
176
     1
 93
        1
176
     1
 44
0.0
176
     1
173
     0
176
     1
  0
VISUALSTYLE
  5
33
102
{ACAD_REACTORS
330
2A
102
}
330
2A
100
AcDbVisualStyle
  2
Realistic
 70
     8
177
     2
291
     0
 71
     2
176
     1
 72
     2
176
     1
 73
     0
176
     1
 90
        0
176
     1
 40
-0.6
176
     1
 41
-30.0
176
     1
 62
     5
 63
     7
421
 16777215
176
     1
 74
     1
176
     1
 91
        0
176
     1
 64
     7
176
     1
 65
   257
176
     1
 75
     1
176
     1
175
     1
176
     1
 42
1.0
176
     1
 92
        8
176
     1
 66
     8
424
  7895160
176
     1
 43
1.0
176
     1
 76
     1
176
     1
 77
     6
176
     1
 78
     2
176
     1
 67
     7
176
     1
 79
     5
176
     1
170
     0
176
     1
171
     0
176
     1
290
     0
176
     1
 93
       13
176
     1
 44
0.0
176
     1
173
     0
176
     1
  0
VISUALSTYLE
  5
37
102
{ACAD_REACTORS
330
2A
102
}
330
2A
100
AcDbVisualStyle
  2
Thicken
 70
    13
177
     2
291
     1
 71
     2
176
     1
 72
     2
176
     1
 73
     0
176
     1
 90
        0
176
     1
 40
-0.6
176
     1
 41
-30.0
176
     1
 62
     5
 63
     7
421
 16777215
176
     1
 74
     1
176
     1
 91
        4
176
     1
 64
     7
176
     1
 65
   257
176
     1
 75
     1
176
     1
175
     1
176
     1
 42
1.0
176
     1
 92
       12
176
     1
 66
     7
176
     1
 43
1.0
176
     1
 76
     1
176
     1
 77
     6
176
     1
 78
     2
176
     1
 67
     7
176
     1
 79
     5
176
     1
170
     0
176
     1
171
     0
176
     1
290
     0
176
     1
 93
        1
176
     1
 44
0.0
176
     1
173
     0
176
     1
  0
ENDSEC
  0
EOF
