  0
SECTION
  2
HEADER
  9
$ACADVER
  1
AC1024
  9
$ACADMAINTVER
 70
     6
  9
$DWGCODEPAGE
  3
UNDEFINED
  9
$INSBASE
 10
0.0
 20
0.0
 30
0.0
  9
$EXTMIN
 10
1.000000000000000E+20
 20
1.000000000000000E+20
 30
1.000000000000000E+20
  9
$EXTMAX
 10
-1.000000000000000E+20
 20
-1.000000000000000E+20
 30
-1.000000000000000E+20
  9
$LIMMIN
 10
0.0
 20
0.0
  9
$LIMMAX
 10
12.0
 20
9.0
  9
$ORTHOMODE
 70
     0
  9
$REGENMODE
 70
     1
  9
$FILLMODE
 70
     1
  9
$QTEXTMODE
 70
     0
  9
$MIRRTEXT
 70
     1
  9
$LTSCALE
 40
1.0
  9
$ATTMODE
 70
     1
  9
$TEXTSIZE
 40
0.2
  9
$TRACEWID
 40
0.05
  9
$TEXTSTYLE
  7
Standard
  9
$CLAYER
  8
0
  9
$CELTYPE
  6
ByLayer
  9
$CECOLOR
 62
   256
  9
$CELTSCALE
 40
1.0
  9
$DISPSILH
 70
     0
  9
$DIMSCALE
 40
1.0
  9
$DIMASZ
 40
0.18
  9
$DIMEXO
 40
0.0625
  9
$DIMDLI
 40
0.38
  9
$DIMRND
 40
0.0
  9
$DIMDLE
 40
0.0
  9
$DIMEXE
 40
0.18
  9
$DIMTP
 40
0.0
  9
$DIMTM
 40
0.0
  9
$DIMTXT
 40
0.18
  9
$DIMCEN
 40
0.09
  9
$DIMTSZ
 40
0.0
  9
$DIMTOL
 70
     0
  9
$DIMLIM
 70
     0
  9
$DIMTIH
 70
     1
  9
$DIMTOH
 70
     1
  9
$DIMSE1
 70
     0
  9
$DIMSE2
 70
     0
  9
$DIMTAD
 70
     0
  9
$DIMZIN
 70
     0
  9
$DIMBLK
  1

  9
$DIMASO
 70
     1
  9
$DIMSHO
 70
     1
  9
$DIMPOST
  1

  9
$DIMAPOST
  1

  9
$DIMALT
 70
     0
  9
$DIMALTD
 70
     2
  9
$DIMALTF
 40
25.4
  9
$DIMLFAC
 40
1.0
  9
$DIMTOFL
 70
     0
  9
$DIMTVP
 40
0.0
  9
$DIMTIX
 70
     0
  9
$DIMSOXD
 70
     0
  9
$DIMSAH
 70
     0
  9
$DIMBLK1
  1

  9
$DIMBLK2
  1

  9
$DIMSTYLE
  2
Standard
  9
$DIMCLRD
 70
     0
  9
$DIMCLRE
 70
     0
  9
$DIMCLRT
 70
     0
  9
$DIMTFAC
 40
1.0
  9
$DIMGAP
 40
0.09
  9
$DIMJUST
 70
     0
  9
$DIMSD1
 70
     0
  9
$DIMSD2
 70
     0
  9
$DIMTOLJ
 70
     1
  9
$DIMTZIN
 70
     0
  9
$DIMALTZ
 70
     0
  9
$DIMALTTZ
 70
     0
  9
$DIMUPT
 70
     0
  9
$DIMDEC
 70
     4
  9
$DIMTDEC
 70
     4
  9
$DIMALTU
 70
     2
  9
$DIMALTTD
 70
     2
  9
$DIMTXSTY
  7
Standard
  9
$DIMAUNIT
 70
     0
  9
$DIMADEC
 70
     0
  9
$DIMALTRND
 40
0.0
  9
$DIMAZIN
 70
     0
  9
$DIMDSEP
 70
    46
  9
$DIMATFIT
 70
     3
  9
$DIMFRAC
 70
     0
  9
$DIMLDRBLK
  1

  9
$DIMLUNIT
 70
     2
  9
$DIMLWD
 70
    -2
  9
$DIMLWE
 70
    -2
  9
$DIMTMOVE
 70
     0
  9
$DIMFXL
 40
1.0
  9
$DIMFXLON
 70
     0
  9
$DIMJOGANG
 40
0.7853981633974483
  9
$DIMTFILL
 70
     0
  9
$DIMTFILLCLR
 70
     0
  9
$DIMARCSYM
 70
     0
  9
$DIMLTYPE
  6

  9
$DIMLTEX1
  6

  9
$DIMLTEX2
  6

  9
$DIMTXTDIRECTION
 70
     0
  9
$LUNITS
 70
     2
  9
$LUPREC
 70
     4
  9
$SKETCHINC
 40
0.1
  9
$FILLETRAD
 40
0.5
  9
$AUNITS
 70
     0
  9
$AUPREC
 70
     0
  9
$MENU
  1
.
  9
$ELEVATION
 40
0.0
  9
$PELEVATION
 40
0.0
  9
$THICKNESS
 40
0.0
  9
$LIMCHECK
 70
     0
  9
$CHAMFERA
 40
0.5
  9
$CHAMFERB
 40
0.5
  9
$CHAMFERC
 40
1.0
  9
$CHAMFERD
 40
0.0
  9
$SKPOLY
 70
     0
  9
$TDCREATE
 40
2457917.599490741
  9
$TDUCREATE
 40
2457917.224490741
  9
$TDUPDATE
 40
2457917.599490741
  9
$TDUUPDATE
 40
2457917.224490741
  9
$TDINDWG
 40
0.0000000116
  9
$TDUSRTIMER
 40
0.0000000116
  9
$USRTIMER
 70
     1
  9
$ANGBASE
 50
0.0
  9
$ANGDIR
 70
     0
  9
$PDMODE
 70
     0
  9
$PDSIZE
 40
0.0
  9
$PLINEWID
 40
0.0
  9
$SPLFRAME
 70
     0
  9
$SPLINETYPE
 70
     6
  9
$SPLINESEGS
 70
     8
  9
$HANDSEED
  5
138
  9
$SURFTAB1
 70
     6
  9
$SURFTAB2
 70
     6
  9
$SURFTYPE
 70
     6
  9
$SURFU
 70
     6
  9
$SURFV
 70
     6
  9
$UCSBASE
  2

  9
$UCSNAME
  2

  9
$UCSORG
 10
0.0
 20
0.0
 30
0.0
  9
$UCSXDIR
 10
1.0
 20
0.0
 30
0.0
  9
$UCSYDIR
 10
0.0
 20
1.0
 30
0.0
  9
$UCSORTHOREF
  2

  9
$UCSORTHOVIEW
 70
     0
  9
$UCSORGTOP
 10
0.0
 20
0.0
 30
0.0
  9
$UCSORGBOTTOM
 10
0.0
 20
0.0
 30
0.0
  9
$UCSORGLEFT
 10
0.0
 20
0.0
 30
0.0
  9
$UCSORGRIGHT
 10
0.0
 20
0.0
 30
0.0
  9
$UCSORGFRONT
 10
0.0
 20
0.0
 30
0.0
  9
$UCSORGBACK
 10
0.0
 20
0.0
 30
0.0
  9
$PUCSBASE
  2

  9
$PUCSNAME
  2

  9
$PUCSORG
 10
0.0
 20
0.0
 30
0.0
  9
$PUCSXDIR
 10
1.0
 20
0.0
 30
0.0
  9
$PUCSYDIR
 10
0.0
 20
1.0
 30
0.0
  9
$PUCSORTHOREF
  2

  9
$PUCSORTHOVIEW
 70
     0
  9
$PUCSORGTOP
 10
0.0
 20
0.0
 30
0.0
  9
$PUCSORGBOTTOM
 10
0.0
 20
0.0
 30
0.0
  9
$PUCSORGLEFT
 10
0.0
 20
0.0
 30
0.0
  9
$PUCSORGRIGHT
 10
0.0
 20
0.0
 30
0.0
  9
$PUCSORGFRONT
 10
0.0
 20
0.0
 30
0.0
  9
$PUCSORGBACK
 10
0.0
 20
0.0
 30
0.0
  9
$USERI1
 70
     0
  9
$USERI2
 70
     0
  9
$USERI3
 70
     0
  9
$USERI4
 70
     0
  9
$USERI5
 70
     0
  9
$USERR1
 40
0.0
  9
$USERR2
 40
0.0
  9
$USERR3
 40
0.0
  9
$USERR4
 40
0.0
  9
$USERR5
 40
0.0
  9
$WORLDVIEW
 70
     1
  9
$SHADEDGE
 70
     3
  9
$SHADEDIF
 70
    70
  9
$TILEMODE
 70
     1
  9
$MAXACTVP
 70
    64
  9
$PINSBASE
 10
0.0
 20
0.0
 30
0.0
  9
$PLIMCHECK
 70
     0
  9
$PEXTMIN
 10
1.000000000000000E+20
 20
1.000000000000000E+20
 30
1.000000000000000E+20
  9
$PEXTMAX
 10
-1.000000000000000E+20
 20
-1.000000000000000E+20
 30
-1.000000000000000E+20
  9
$PLIMMIN
 10
0.0
 20
0.0
  9
$PLIMMAX
 10
12.0
 20
9.0
  9
$UNITMODE
 70
     0
  9
$VISRETAIN
 70
     1
  9
$PLINEGEN
 70
     0
  9
$PSLTSCALE
 70
     1
  9
$TREEDEPTH
 70
  3020
  9
$CMLSTYLE
  2
Standard
  9
$CMLJUST
 70
     0
  9
$CMLSCALE
 40
1.0
  9
$PROXYGRAPHICS
 70
     1
  9
$MEASUREMENT
 70
     0
  9
$CELWEIGHT
370
    -1
  9
$ENDCAPS
280
     0
  9
$JOINSTYLE
280
     0
  9
$LWDISPLAY
290
     1
  9
$INSUNITS
 70
     1
  9
$HYPERLINKBASE
  1

  9
$STYLESHEET
  1

  9
$XEDIT
290
     1
  9
$CEPSNTYPE
380
     0
  9
$PSTYLEMODE
290
     1
  9
$FINGERPRINTGUID
  2
{57B090F6-C0C7-E8B7-630C-5F0144CA794E}
  9
$VERSIONGUID
  2
{FAEB1C32-E019-11D5-929B-00C0DF256EC4}
  9
$EXTNAMES
290
     1
  9
$PSVPSCALE
 40
0.0
  9
$OLESTARTUP
290
     0
  9
$SORTENTS
280
   127
  9
$INDEXCTL
280
     0
  9
$HIDETEXT
280
     1
  9
$XCLIPFRAME
280
     2
  9
$HALOGAP
280
     0
  9
$OBSCOLOR
 70
   257
  9
$OBSLTYPE
280
     0
  9
$INTERSECTIONDISPLAY
280
     0
  9
$INTERSECTIONCOLOR
 70
   257
  9
$DIMASSOC
280
     2
  9
$PROJECTNAME
  1

  9
$CAMERADISPLAY
290
     0
  9
$LENSLENGTH
 40
50.0
  9
$CAMERAHEIGHT
 40
0.0
  9
$STEPSPERSEC
 40
2.0
  9
$STEPSIZE
 40
6.0
  9
$3DDWFPREC
 40
2.0
  9
$PSOLWIDTH
 40
0.25
  9
$PSOLHEIGHT
 40
4.0
  9
$LOFTANG1
 40
1.570796326794897
  9
$LOFTANG2
 40
1.570796326794897
  9
$LOFTMAG1
 40
0.0
  9
$LOFTMAG2
 40
0.0
  9
$LOFTPARAM
 70
     7
  9
$LOFTNORMALS
280
     1
  9
$LATITUDE
 40
37.795
  9
$LONGITUDE
 40
-122.394
  9
$NORTHDIRECTION
 40
0.0
  9
$TIMEZONE
 70
 -8000
  9
$LIGHTGLYPHDISPLAY
280
     1
  9
$TILEMODELIGHTSYNCH
280
     1
  9
$CMATERIAL
347
3C
  9
$SOLIDHIST
280
     1
  9
$SHOWHIST
280
     1
  9
$DWFFRAME
280
     2
  9
$DGNFRAME
280
     2
  9
$REALWORLDSCALE
290
     1
  9
$INTERFERECOLOR
 62
   256
  9
$CSHADOW
280
     0
  9
$SHADOWPLANELOCATION
 40
0.0
  0
ENDSEC
  0
SECTION
  2
CLASSES
  0
CLASS
  1
ACDBDICTIONARYWDFLT
  2
AcDbDictionaryWithDefault
  3
ObjectDBX Classes
 90
        0
 91
        4
280
     0
281
     0
  0
CLASS
  1
VISUALSTYLE
  2
AcDbVisualStyle
  3
ObjectDBX Classes
 90
     4095
 91
        4
280
     0
281
     0
  0
CLASS
  1
MATERIAL
  2
AcDbMaterial
  3
ObjectDBX Classes
 90
     1153
 91
        4
280
     0
281
     0
  0
CLASS
  1
SUN
  2
AcDbSun
  3
SCENEOE
 90
     1024
 91
        4
280
     0
281
     0
  0
ENDSEC
  0
SECTION
  2
TABLES
  0
TABLE
  2
VPORT
  5
8
330
0
100
AcDbSymbolTable
 70
     1
  0
VPORT
  5
29
330
8
100
AcDbSymbolTableRecord
100
AcDbViewportTableRecord
  2
*Active
 70
     0
 10
0.0
 20
0.0
 11
1.0
 21
1.0
 12
0.0
 22
0.0
 13
0.0
 23
0.0
 14
0.5
 24
0.5
 15
0.5
 25
0.5
 16
0.0
 26
0.0
 36
1.0
 17
91.00082462281999
 27
-128.4993055234307
 37
0.0
 40
256.9986110468615
 41
0.7081814508812795
 42
50.0
 43
0.0
 44
0.0
 50
0.0
 51
0.0
 71
     0
 72
   100
 73
     1
 74
     3
 75
     0
 76
     0
 77
     0
 78
     0
281
     0
 65
     1
110
0.0
120
0.0
130
0.0
111
1.0
121
0.0
131
0.0
112
0.0
122
1.0
132
0.0
 79
     0
146
0.0
 60
     3
 61
     5
292
     1
282
     1
141
0.0
142
0.0
 63
   250
361
3F
  0
ENDTAB
  0
TABLE
  2
LTYPE
  5
5
330
0
100
AcDbSymbolTable
 70
     1
  0
LTYPE
  5
14
330
5
100
AcDbSymbolTableRecord
100
AcDbLinetypeTableRecord
  2
ByBlock
 70
     0
  3

 72
    65
 73
     0
 40
0.0
  0
LTYPE
  5
15
330
5
100
AcDbSymbolTableRecord
100
AcDbLinetypeTableRecord
  2
ByLayer
 70
     0
  3

 72
    65
 73
     0
 40
0.0
  0
LTYPE
  5
16
330
5
100
AcDbSymbolTableRecord
100
AcDbLinetypeTableRecord
  2
Continuous
 70
     0
  3
Solid line
 72
    65
 73
     0
 40
0.0
  0
ENDTAB
  0
TABLE
  2
LAYER
  5
2
330
0
100
AcDbSymbolTable
 70
     2
  0
LAYER
  5
10
330
2
100
AcDbSymbolTableRecord
100
AcDbLayerTableRecord
  2
0
 70
     0
 62
     7
  6
Continuous
370
    -3
390
F
347
3E
  0
LAYER
  5
40
330
2
100
AcDbSymbolTableRecord
100
AcDbLayerTableRecord
  2
_U+30EC_U+30A4_U+30E4_U+30FC 1
 70
     0
 62
     7
  6
Continuous
370
    -3
390
F
347
3E
  0
ENDTAB
  0
TABLE
  2
STYLE
  5
3
330
0
100
AcDbSymbolTable
 70
     1
  0
STYLE
  5
11
330
3
100
AcDbSymbolTableRecord
100
AcDbTextStyleTableRecord
  2
Standard
 70
     0
 40
0.0
 41
1.0
 50
0.0
 71
     0
 42
0.2
  3
txt
  4

  0
ENDTAB
  0
TABLE
  2
VIEW
  5
6
330
0
100
AcDbSymbolTable
 70
     0
  0
ENDTAB
  0
TABLE
  2
UCS
  5
7
330
0
100
AcDbSymbolTable
 70
     0
  0
ENDTAB
  0
TABLE
  2
APPID
  5
9
330
0
100
AcDbSymbolTable
 70
     1
  0
APPID
  5
12
330
9
100
AcDbSymbolTableRecord
100
AcDbRegAppTableRecord
  2
ACAD
 70
     0
  0
ENDTAB
  0
TABLE
  2
DIMSTYLE
  5
A
330
0
100
AcDbSymbolTable
 70
     1
100
AcDbDimStyleTable
  0
DIMSTYLE
105
27
330
A
100
AcDbSymbolTableRecord
100
AcDbDimStyleTableRecord
  2
Standard
 70
     0
178
     0
340
11
  0
ENDTAB
  0
TABLE
  2
BLOCK_RECORD
  5
1
330
0
100
AcDbSymbolTable
 70
     6
  0
BLOCK_RECORD
  5
1F
330
1
100
AcDbSymbolTableRecord
100
AcDbBlockTableRecord
  2
*Model_Space
340
22
 70
     0
280
     1
281
     0
  0
BLOCK_RECORD
  5
1B
330
1
100
AcDbSymbolTableRecord
100
AcDbBlockTableRecord
  2
*Paper_Space
340
1E
 70
     0
280
     1
281
     0
  0
BLOCK_RECORD
  5
23
330
1
100
AcDbSymbolTableRecord
100
AcDbBlockTableRecord
  2
*Paper_Space0
340
26
 70
     0
280
     1
281
     0
  0
BLOCK_RECORD
  5
CB
330
1
100
AcDbSymbolTableRecord
100
AcDbBlockTableRecord
  2
block 2
340
0
102
{BLKREFS
331
CC
102
}
 70
     0
280
     1
281
     0
  0
BLOCK_RECORD
  5
E7
330
1
100
AcDbSymbolTableRecord
100
AcDbBlockTableRecord
  2
block 3
340
0
102
{BLKREFS
331
E8
102
}
 70
     0
280
     1
281
     0
  0
BLOCK_RECORD
  5
F9
330
1
100
AcDbSymbolTableRecord
100
AcDbBlockTableRecord
  2
block 4
340
0
102
{BLKREFS
331
FA
102
}
 70
     0
280
     1
281
     0
  0
BLOCK_RECORD
  5
10E
330
1
100
AcDbSymbolTableRecord
100
AcDbBlockTableRecord
  2
block 5
340
0
102
{BLKREFS
331
10F
102
}
 70
     0
280
     1
281
     0
  0
BLOCK_RECORD
  5
122
330
1
100
AcDbSymbolTableRecord
100
AcDbBlockTableRecord
  2
block 6
340
0
102
{BLKREFS
331
123
102
}
 70
     0
280
     1
281
     0
  0
ENDTAB
  0
ENDSEC
  0
SECTION
  2
BLOCKS
  0
BLOCK
  5
20
330
1F
100
AcDbEntity
  8
0
100
AcDbBlockBegin
  2
*Model_Space
 70
     0
 10
0.0
 20
0.0
 30
0.0
  3
*Model_Space
  1

  0
ENDBLK
  5
21
330
1F
100
AcDbEntity
  8
0
100
AcDbBlockEnd
  0
BLOCK
  5
1C
330
1B
100
AcDbEntity
 67
     1
  8
0
100
AcDbBlockBegin
  2
*Paper_Space
 70
     0
 10
0.0
 20
0.0
 30
0.0
  3
*Paper_Space
  1

  0
ENDBLK
  5
1D
330
1B
100
AcDbEntity
 67
     1
  8
0
100
AcDbBlockEnd
  0
BLOCK
  5
24
330
23
100
AcDbEntity
  8
0
100
AcDbBlockBegin
  2
*Paper_Space0
 70
     0
 10
0.0
 20
0.0
 30
0.0
  3
*Paper_Space0
  1

  0
ENDBLK
  5
25
330
23
100
AcDbEntity
  8
0
100
AcDbBlockEnd
  0
BLOCK
  5
CD
330
CB
100
AcDbEntity
  8
0
100
AcDbBlockBegin
  2
block 2
 70
     0
 10
0.0
 20
0.0
 30
0.0
  3
block 2
  1

  0
SPLINE
  5
CF
330
CB
100
AcDbEntity
  8
_U+30EC_U+30A4_U+30E4_U+30FC 1
370
     0
100
AcDbSpline
210
0.0
220
0.0
230
1.0
 70
    11
 71
     3
 72
    26
 73
    22
 74
     0
 42
0.0000000001
 43
0.0000000001
 12
1.0
 22
0.0
 32
0.0
 13
1.0
 23
0.0
 33
0.0
 40
0.0
 40
0.0
 40
0.0
 40
0.0
 40
1.0
 40
1.0
 40
1.0
 40
2.0
 40
2.0
 40
2.0
 40
3.0
 40
3.0
 40
3.0
 40
4.0
 40
4.0
 40
4.0
 40
5.0
 40
5.0
 40
5.0
 40
6.0
 40
6.0
 40
6.0
 40
7.0
 40
7.0
 40
7.0
 40
7.0
 10
107.4900797257316
 20
-129.2806531794854
 30
0.0
 10
107.4900797257316
 20
-129.2806531794854
 30
0.0
 10
106.3859266227091
 20
-129.2806531794854
 30
0.0
 10
106.3859266227091
 20
-129.2806531794854
 30
0.0
 10
106.3859266227091
 20
-129.2806531794854
 30
0.0
 10
106.3859266227091
 20
-129.6106933269723
 30
0.0
 10
106.3859266227091
 20
-129.6106933269723
 30
0.0
 10
106.3859266227091
 20
-129.6106933269723
 30
0.0
 10
106.2377875168433
 20
-129.6106933269723
 30
0.0
 10
106.2377875168433
 20
-129.6106933269723
 30
0.0
 10
106.2229736062568
 20
-129.2785861221942
 30
0.0
 10
106.0600205898044
 20
-129.2320773331434
 30
0.0
 10
105.9456434196942
 20
-129.2024495119702
 30
0.0
 10
105.9456434196942
 20
-129.2024495119702
 30
0.0
 10
105.9456434196942
 20
-129.0563774633956
 30
0.0
 10
105.9456434196942
 20
-129.0563774633956
 30
0.0
 10
105.9456434196942
 20
-129.0563774633956
 30
0.0
 10
107.4900797257316
 20
-129.0563774633956
 30
0.0
 10
107.4900797257316
 20
-129.0563774633956
 30
0.0
 10
107.4900797257316
 20
-129.0563774633956
 30
0.0
 10
107.4900797257316
 20
-129.2806531794854
 30
0.0
 10
107.4900797257316
 20
-129.2806531794854
 30
0.0
  0
HATCH
  5
D0
330
CB
100
AcDbEntity
  8
_U+30EC_U+30A4_U+30E4_U+30FC 1
 62
   179
420
  2234388
100
AcDbHatch
 10
0.0
 20
0.0
 30
0.0
210
0.0
220
0.0
230
1.0
  2
SOLID
 70
     1
 71
     0
 91
        1
 92
        1
 93
        1
 72
     4
 94
        3
 73
     0
 74
     1
 95
       26
 96
       22
 40
0.0
 40
0.0
 40
0.0
 40
0.0
 40
1.0
 40
1.0
 40
1.0
 40
2.0
 40
2.0
 40
2.0
 40
3.0
 40
3.0
 40
3.0
 40
4.0
 40
4.0
 40
4.0
 40
5.0
 40
5.0
 40
5.0
 40
6.0
 40
6.0
 40
6.0
 40
7.0
 40
7.0
 40
7.0
 40
7.0
 10
107.4900797257316
 20
-129.2806531794854
 10
107.4900797257316
 20
-129.2806531794854
 10
106.3859266227091
 20
-129.2806531794854
 10
106.3859266227091
 20
-129.2806531794854
 10
106.3859266227091
 20
-129.2806531794854
 10
106.3859266227091
 20
-129.6106933269723
 10
106.3859266227091
 20
-129.6106933269723
 10
106.3859266227091
 20
-129.6106933269723
 10
106.2377875168433
 20
-129.6106933269723
 10
106.2377875168433
 20
-129.6106933269723
 10
106.2229736062568
 20
-129.2785861221942
 10
106.0600205898044
 20
-129.2320773331434
 10
105.9456434196942
 20
-129.2024495119702
 10
105.9456434196942
 20
-129.2024495119702
 10
105.9456434196942
 20
-129.0563774633956
 10
105.9456434196942
 20
-129.0563774633956
 10
105.9456434196942
 20
-129.0563774633956
 10
107.4900797257316
 20
-129.0563774633956
 10
107.4900797257316
 20
-129.0563774633956
 10
107.4900797257316
 20
-129.0563774633956
 10
107.4900797257316
 20
-129.2806531794854
 10
107.4900797257316
 20
-129.2806531794854
 97
        0
 97
        0
 75
     2
 76
     1
 98
        0
  0
POLYLINE
  5
D1
330
CB
100
AcDbEntity
  8
_U+30EC_U+30A4_U+30E4_U+30FC 1
370
     0
100
AcDb2dPolyline
 66
     1
 10
0.0
 20
0.0
 30
0.0
  0
VERTEX
  5
D2
330
D1
100
AcDbEntity
  8
_U+30EC_U+30A4_U+30E4_U+30FC 1
370
     0
100
AcDbVertex
100
AcDb2dVertex
 10
107.4900797257316
 20
-128.4951714088484
 30
0.0
  0
VERTEX
  5
D3
330
D1
100
AcDbEntity
  8
_U+30EC_U+30A4_U+30E4_U+30FC 1
370
     0
100
AcDbVertex
100
AcDb2dVertex
 10
107.2382432457599
 20
-128.4951714088484
 30
0.0
  0
VERTEX
  5
D4
330
D1
100
AcDbEntity
  8
_U+30EC_U+30A4_U+30E4_U+30FC 1
370
     0
100
AcDbVertex
100
AcDb2dVertex
 10
107.2382432457599
 20
-128.2433349288767
 30
0.0
  0
VERTEX
  5
D5
330
D1
100
AcDbEntity
  8
_U+30EC_U+30A4_U+30E4_U+30FC 1
370
     0
100
AcDbVertex
100
AcDb2dVertex
 10
107.4900797257316
 20
-128.2433349288767
 30
0.0
  0
VERTEX
  5
D6
330
D1
100
AcDbEntity
  8
_U+30EC_U+30A4_U+30E4_U+30FC 1
370
     0
100
AcDbVertex
100
AcDb2dVertex
 10
107.4900797257316
 20
-128.4951714088484
 30
0.0
  0
SEQEND
  5
D7
330
D1
100
AcDbEntity
  8
_U+30EC_U+30A4_U+30E4_U+30FC 1
370
     0
  0
HATCH
  5
D8
330
CB
100
AcDbEntity
  8
_U+30EC_U+30A4_U+30E4_U+30FC 1
 62
   179
420
  2234388
100
AcDbHatch
 10
0.0
 20
0.0
 30
0.0
210
0.0
220
0.0
230
1.0
  2
SOLID
 70
     1
 71
     0
 91
        1
 92
        1
 93
        4
 72
     1
 10
107.4900797257316
 20
-128.4951714088484
 11
107.2382432457599
 21
-128.4951714088484
 72
     1
 10
107.2382432457599
 20
-128.4951714088484
 11
107.2382432457599
 21
-128.2433349288767
 72
     1
 10
107.2382432457599
 20
-128.2433349288767
 11
107.4900797257316
 21
-128.2433349288767
 72
     1
 10
107.4900797257316
 20
-128.2433349288767
 11
107.4900797257316
 21
-128.4951714088484
 97
        0
 75
     2
 76
     1
 98
        0
  0
SPLINE
  5
D9
330
CB
100
AcDbEntity
  8
_U+30EC_U+30A4_U+30E4_U+30FC 1
370
     0
100
AcDbSpline
210
0.0
220
0.0
230
1.0
 70
    11
 71
     3
 72
    44
 73
    40
 74
     0
 42
0.0000000001
 43
0.0000000001
 12
1.0
 22
0.0
 32
0.0
 13
1.0
 23
0.0
 33
0.0
 40
0.0
 40
0.0
 40
0.0
 40
0.0
 40
1.0
 40
1.0
 40
1.0
 40
2.0
 40
2.0
 40
2.0
 40
3.0
 40
3.0
 40
3.0
 40
4.0
 40
4.0
 40
4.0
 40
5.0
 40
5.0
 40
5.0
 40
6.0
 40
6.0
 40
6.0
 40
7.0
 40
7.0
 40
7.0
 40
8.0
 40
8.0
 40
8.0
 40
9.0
 40
9.0
 40
9.0
 40
10.0
 40
10.0
 40
10.0
 40
11.0
 40
11.0
 40
11.0
 40
12.0
 40
12.0
 40
12.0
 40
13.0
 40
13.0
 40
13.0
 40
13.0
 10
106.9082030982729
 20
-127.414100445577
 30
0.0
 10
107.067022000143
 20
-127.6318304802448
 30
0.0
 10
107.1410915530758
 20
-127.7248480583466
 30
0.0
 10
107.2847520348108
 20
-127.7737684142371
 30
0.0
 10
107.2847520348108
 20
-127.7737684142371
 30
0.0
 10
107.2847520348108
 20
-126.9951768345707
 30
0.0
 10
107.2847520348108
 20
-126.9951768345707
 30
0.0
 10
107.2847520348108
 20
-126.9951768345707
 30
0.0
 10
107.4900797257316
 20
-126.9951768345707
 30
0.0
 10
107.4900797257316
 20
-126.9951768345707
 30
0.0
 10
107.4900797257316
 20
-126.9951768345707
 30
0.0
 10
107.4900797257316
 20
-128.0231933273692
 30
0.0
 10
107.4900797257316
 20
-128.0231933273692
 30
0.0
 10
107.1324788143627
 20
-127.9914984489049
 30
0.0
 10
107.0542751468475
 20
-127.9260416346852
 30
0.0
 10
106.7559298778249
 20
-127.5408799594342
 30
0.0
 10
106.557147868326
 20
-127.2849093648802
 30
0.0
 10
106.4892794872666
 20
-127.2194525506604
 30
0.0
 10
106.3518201774051
 20
-127.2194525506604
 30
0.0
 10
106.2333088927125
 20
-127.2194525506604
 30
0.0
 10
106.102395264273
 20
-127.2914550463021
 30
0.0
 10
106.102395264273
 20
-127.4881699985099
 30
0.0
 10
106.102395264273
 20
-127.7482747076463
 30
0.0
 10
106.3328721522362
 20
-127.7565429368109
 30
0.0
 10
106.4493163796377
 20
-127.7610215609417
 30
0.0
 10
106.4493163796377
 20
-127.7610215609417
 30
0.0
 10
106.4493163796377
 20
-127.9852972770315
 30
0.0
 10
106.4493163796377
 20
-127.9852972770315
 30
0.0
 10
106.322192356232
 20
-127.9766845383183
 30
0.0
 10
106.2102267529613
 20
-127.9660047423141
 30
0.0
 10
106.0917154682687
 20
-127.8857340175077
 30
0.0
 10
105.9308295091076
 20
-127.7758354715283
 30
0.0
 10
105.8970675733521
 20
-127.5894558057763
 30
0.0
 10
105.8970675733521
 20
-127.4733560879233
 30
0.0
 10
105.8970675733521
 20
-127.1960259013607
 30
0.0
 10
106.0810356722645
 20
-126.9886311531487
 30
0.0
 10
106.3538872346963
 20
-126.9886311531487
 30
0.0
 10
106.5826415749168
 20
-126.9886311531487
 30
0.0
 10
106.681860324892
 20
-127.1050753805501
 30
0.0
 10
106.9082030982729
 20
-127.414100445577
 30
0.0
  0
HATCH
  5
DA
330
CB
100
AcDbEntity
  8
_U+30EC_U+30A4_U+30E4_U+30FC 1
 62
   179
420
  2234388
100
AcDbHatch
 10
0.0
 20
0.0
 30
0.0
210
0.0
220
0.0
230
1.0
  2
SOLID
 70
     1
 71
     0
 91
        1
 92
        1
 93
        1
 72
     4
 94
        3
 73
     0
 74
     1
 95
       44
 96
       40
 40
0.0
 40
0.0
 40
0.0
 40
0.0
 40
1.0
 40
1.0
 40
1.0
 40
2.0
 40
2.0
 40
2.0
 40
3.0
 40
3.0
 40
3.0
 40
4.0
 40
4.0
 40
4.0
 40
5.0
 40
5.0
 40
5.0
 40
6.0
 40
6.0
 40
6.0
 40
7.0
 40
7.0
 40
7.0
 40
8.0
 40
8.0
 40
8.0
 40
9.0
 40
9.0
 40
9.0
 40
10.0
 40
10.0
 40
10.0
 40
11.0
 40
11.0
 40
11.0
 40
12.0
 40
12.0
 40
12.0
 40
13.0
 40
13.0
 40
13.0
 40
13.0
 10
106.9082030982729
 20
-127.414100445577
 10
107.067022000143
 20
-127.6318304802448
 10
107.1410915530758
 20
-127.7248480583466
 10
107.2847520348108
 20
-127.7737684142371
 10
107.2847520348108
 20
-127.7737684142371
 10
107.2847520348108
 20
-126.9951768345707
 10
107.2847520348108
 20
-126.9951768345707
 10
107.2847520348108
 20
-126.9951768345707
 10
107.4900797257316
 20
-126.9951768345707
 10
107.4900797257316
 20
-126.9951768345707
 10
107.4900797257316
 20
-126.9951768345707
 10
107.4900797257316
 20
-128.0231933273692
 10
107.4900797257316
 20
-128.0231933273692
 10
107.1324788143627
 20
-127.9914984489049
 10
107.0542751468475
 20
-127.9260416346852
 10
106.7559298778249
 20
-127.5408799594342
 10
106.557147868326
 20
-127.2849093648802
 10
106.4892794872666
 20
-127.2194525506604
 10
106.3518201774051
 20
-127.2194525506604
 10
106.2333088927125
 20
-127.2194525506604
 10
106.102395264273
 20
-127.2914550463021
 10
106.102395264273
 20
-127.4881699985099
 10
106.102395264273
 20
-127.7482747076463
 10
106.3328721522362
 20
-127.7565429368109
 10
106.4493163796377
 20
-127.7610215609417
 10
106.4493163796377
 20
-127.7610215609417
 10
106.4493163796377
 20
-127.9852972770315
 10
106.4493163796377
 20
-127.9852972770315
 10
106.322192356232
 20
-127.9766845383183
 10
106.2102267529613
 20
-127.9660047423141
 10
106.0917154682687
 20
-127.8857340175077
 10
105.9308295091076
 20
-127.7758354715283
 10
105.8970675733521
 20
-127.5894558057763
 10
105.8970675733521
 20
-127.4733560879233
 10
105.8970675733521
 20
-127.1960259013607
 10
106.0810356722645
 20
-126.9886311531487
 10
106.3538872346963
 20
-126.9886311531487
 10
106.5826415749168
 20
-126.9886311531487
 10
106.681860324892
 20
-127.1050753805501
 10
106.9082030982729
 20
-127.414100445577
 97
        0
 97
        0
 75
     2
 76
     1
 98
        0
  0
ENDBLK
  5
CE
330
CB
100
AcDbEntity
  8
0
100
AcDbBlockEnd
  0
BLOCK
  5
E9
330
E7
100
AcDbEntity
  8
0
100
AcDbBlockBegin
  2
block 3
 70
     0
 10
0.0
 20
0.0
 30
0.0
  3
block 3
  1

  0
SPLINE
  5
EB
330
E7
100
AcDbEntity
  8
_U+30EC_U+30A4_U+30E4_U+30FC 1
370
     0
100
AcDbSpline
210
0.0
220
0.0
230
1.0
 70
    11
 71
     3
 72
    26
 73
    22
 74
     0
 42
0.0000000001
 43
0.0000000001
 12
1.0
 22
0.0
 32
0.0
 13
1.0
 23
0.0
 33
0.0
 40
0.0
 40
0.0
 40
0.0
 40
0.0
 40
1.0
 40
1.0
 40
1.0
 40
2.0
 40
2.0
 40
2.0
 40
3.0
 40
3.0
 40
3.0
 40
4.0
 40
4.0
 40
4.0
 40
5.0
 40
5.0
 40
5.0
 40
6.0
 40
6.0
 40
6.0
 40
7.0
 40
7.0
 40
7.0
 40
7.0
 10
94.08796926901273
 20
-126.7231865460102
 30
0.0
 10
94.08796926901273
 20
-126.7231865460102
 30
0.0
 10
94.08796926901273
 20
-125.6190334429876
 30
0.0
 10
94.08796926901273
 20
-125.6190334429876
 30
0.0
 10
94.08796926901273
 20
-125.6190334429876
 30
0.0
 10
93.7579291215258
 20
-125.6190334429876
 30
0.0
 10
93.7579291215258
 20
-125.6190334429876
 30
0.0
 10
93.7579291215258
 20
-125.6190334429876
 30
0.0
 10
93.7579291215258
 20
-125.4708943371219
 30
0.0
 10
93.7579291215258
 20
-125.4708943371219
 30
0.0
 10
94.09003632630389
 20
-125.4560804265353
 30
0.0
 10
94.13654511535476
 20
-125.293127410083
 30
0.0
 10
94.1661729365279
 20
-125.1787502399727
 30
0.0
 10
94.1661729365279
 20
-125.1787502399727
 30
0.0
 10
94.3122449851025
 20
-125.1787502399727
 30
0.0
 10
94.3122449851025
 20
-125.1787502399727
 30
0.0
 10
94.3122449851025
 20
-125.1787502399727
 30
0.0
 10
94.3122449851025
 20
-126.7231865460102
 30
0.0
 10
94.3122449851025
 20
-126.7231865460102
 30
0.0
 10
94.3122449851025
 20
-126.7231865460102
 30
0.0
 10
94.08796926901273
 20
-126.7231865460102
 30
0.0
 10
94.08796926901273
 20
-126.7231865460102
 30
0.0
  0
HATCH
  5
EC
330
E7
100
AcDbEntity
  8
_U+30EC_U+30A4_U+30E4_U+30FC 1
 62
   179
420
  2234388
100
AcDbHatch
 10
0.0
 20
0.0
 30
0.0
210
0.0
220
0.0
230
1.0
  2
SOLID
 70
     1
 71
     0
 91
        1
 92
        1
 93
        1
 72
     4
 94
        3
 73
     0
 74
     1
 95
       26
 96
       22
 40
0.0
 40
0.0
 40
0.0
 40
0.0
 40
1.0
 40
1.0
 40
1.0
 40
2.0
 40
2.0
 40
2.0
 40
3.0
 40
3.0
 40
3.0
 40
4.0
 40
4.0
 40
4.0
 40
5.0
 40
5.0
 40
5.0
 40
6.0
 40
6.0
 40
6.0
 40
7.0
 40
7.0
 40
7.0
 40
7.0
 10
94.08796926901273
 20
-126.7231865460102
 10
94.08796926901273
 20
-126.7231865460102
 10
94.08796926901273
 20
-125.6190334429876
 10
94.08796926901273
 20
-125.6190334429876
 10
94.08796926901273
 20
-125.6190334429876
 10
93.7579291215258
 20
-125.6190334429876
 10
93.7579291215258
 20
-125.6190334429876
 10
93.7579291215258
 20
-125.6190334429876
 10
93.7579291215258
 20
-125.4708943371219
 10
93.7579291215258
 20
-125.4708943371219
 10
94.09003632630389
 20
-125.4560804265353
 10
94.13654511535476
 20
-125.293127410083
 10
94.1661729365279
 20
-125.1787502399727
 10
94.1661729365279
 20
-125.1787502399727
 10
94.3122449851025
 20
-125.1787502399727
 10
94.3122449851025
 20
-125.1787502399727
 10
94.3122449851025
 20
-125.1787502399727
 10
94.3122449851025
 20
-126.7231865460102
 10
94.3122449851025
 20
-126.7231865460102
 10
94.3122449851025
 20
-126.7231865460102
 10
94.08796926901273
 20
-126.7231865460102
 10
94.08796926901273
 20
-126.7231865460102
 97
        0
 97
        0
 75
     2
 76
     1
 98
        0
  0
ENDBLK
  5
EA
330
E7
100
AcDbEntity
  8
0
100
AcDbBlockEnd
  0
BLOCK
  5
FB
330
F9
100
AcDbEntity
  8
0
100
AcDbBlockBegin
  2
block 4
 70
     0
 10
0.0
 20
0.0
 30
0.0
  3
block 4
  1

  0
SPLINE
  5
FD
330
F9
100
AcDbEntity
  8
_U+30EC_U+30A4_U+30E4_U+30FC 1
370
     0
100
AcDbSpline
210
0.0
220
0.0
230
1.0
 70
    11
 71
     3
 72
    26
 73
    22
 74
     0
 42
0.0000000001
 43
0.0000000001
 12
1.0
 22
0.0
 32
0.0
 13
1.0
 23
0.0
 33
0.0
 40
0.0
 40
0.0
 40
0.0
 40
0.0
 40
1.0
 40
1.0
 40
1.0
 40
2.0
 40
2.0
 40
2.0
 40
3.0
 40
3.0
 40
3.0
 40
4.0
 40
4.0
 40
4.0
 40
5.0
 40
5.0
 40
5.0
 40
6.0
 40
6.0
 40
6.0
 40
7.0
 40
7.0
 40
7.0
 40
7.0
 10
98.49975854742368
 20
-135.9227972750471
 30
0.0
 10
98.49975854742368
 20
-135.9227972750471
 30
0.0
 10
98.49975854742368
 20
-134.818988681573
 30
0.0
 10
98.49975854742368
 20
-134.818988681573
 30
0.0
 10
98.49975854742368
 20
-134.818988681573
 30
0.0
 10
98.16971839993674
 20
-134.818988681573
 30
0.0
 10
98.16971839993674
 20
-134.818988681573
 30
0.0
 10
98.16971839993674
 20
-134.818988681573
 30
0.0
 10
98.16971839993674
 20
-134.6708495757073
 30
0.0
 10
98.16971839993674
 20
-134.6708495757073
 30
0.0
 10
98.50182560471482
 20
-134.6556911555722
 30
0.0
 10
98.5483343937657
 20
-134.4930826486684
 30
0.0
 10
98.57796221493885
 20
-134.3787054785581
 30
0.0
 10
98.57796221493885
 20
-134.3787054785581
 30
0.0
 10
98.72403426351345
 20
-134.3787054785581
 30
0.0
 10
98.72403426351345
 20
-134.3787054785581
 30
0.0
 10
98.72403426351345
 20
-134.3787054785581
 30
0.0
 10
98.72403426351345
 20
-135.9227972750471
 30
0.0
 10
98.72403426351345
 20
-135.9227972750471
 30
0.0
 10
98.72403426351345
 20
-135.9227972750471
 30
0.0
 10
98.49975854742368
 20
-135.9227972750471
 30
0.0
 10
98.49975854742368
 20
-135.9227972750471
 30
0.0
  0
HATCH
  5
FE
330
F9
100
AcDbEntity
  8
_U+30EC_U+30A4_U+30E4_U+30FC 1
 62
   179
420
  2234388
100
AcDbHatch
 10
0.0
 20
0.0
 30
0.0
210
0.0
220
0.0
230
1.0
  2
SOLID
 70
     1
 71
     0
 91
        1
 92
        1
 93
        1
 72
     4
 94
        3
 73
     0
 74
     1
 95
       26
 96
       22
 40
0.0
 40
0.0
 40
0.0
 40
0.0
 40
1.0
 40
1.0
 40
1.0
 40
2.0
 40
2.0
 40
2.0
 40
3.0
 40
3.0
 40
3.0
 40
4.0
 40
4.0
 40
4.0
 40
5.0
 40
5.0
 40
5.0
 40
6.0
 40
6.0
 40
6.0
 40
7.0
 40
7.0
 40
7.0
 40
7.0
 10
98.49975854742368
 20
-135.9227972750471
 10
98.49975854742368
 20
-135.9227972750471
 10
98.49975854742368
 20
-134.818988681573
 10
98.49975854742368
 20
-134.818988681573
 10
98.49975854742368
 20
-134.818988681573
 10
98.16971839993674
 20
-134.818988681573
 10
98.16971839993674
 20
-134.818988681573
 10
98.16971839993674
 20
-134.818988681573
 10
98.16971839993674
 20
-134.6708495757073
 10
98.16971839993674
 20
-134.6708495757073
 10
98.50182560471482
 20
-134.6556911555722
 10
98.5483343937657
 20
-134.4930826486684
 10
98.57796221493885
 20
-134.3787054785581
 10
98.57796221493885
 20
-134.3787054785581
 10
98.72403426351345
 20
-134.3787054785581
 10
98.72403426351345
 20
-134.3787054785581
 10
98.72403426351345
 20
-134.3787054785581
 10
98.72403426351345
 20
-135.9227972750471
 10
98.72403426351345
 20
-135.9227972750471
 10
98.72403426351345
 20
-135.9227972750471
 10
98.49975854742368
 20
-135.9227972750471
 10
98.49975854742368
 20
-135.9227972750471
 97
        0
 97
        0
 75
     2
 76
     1
 98
        0
  0
SPLINE
  5
FF
330
F9
100
AcDbEntity
  8
_U+30EC_U+30A4_U+30E4_U+30FC 1
370
     0
100
AcDbSpline
210
0.0
220
0.0
230
1.0
 70
    11
 71
     3
 72
    29
 73
    25
 74
     0
 42
0.0000000001
 43
0.0000000001
 12
1.0
 22
0.0
 32
0.0
 13
1.0
 23
0.0
 33
0.0
 40
0.0
 40
0.0
 40
0.0
 40
0.0
 40
1.0
 40
1.0
 40
1.0
 40
2.0
 40
2.0
 40
2.0
 40
3.0
 40
3.0
 40
3.0
 40
4.0
 40
4.0
 40
4.0
 40
5.0
 40
5.0
 40
5.0
 40
6.0
 40
6.0
 40
6.0
 40
7.0
 40
7.0
 40
7.0
 40
8.0
 40
8.0
 40
8.0
 40
8.0
 10
100.1230875400734
 20
-135.7450303480082
 30
0.0
 10
100.0149115418366
 20
-135.9544921535114
 30
0.0
 10
99.84162323892849
 20
-135.9737846882288
 30
0.0
 10
99.72517901152705
 20
-135.9737846882288
 30
0.0
 10
99.56429305236587
 20
-135.9737846882288
 30
0.0
 10
99.42269962792211
 20
-135.9269313896294
 30
0.0
 10
99.3276149925292
 20
-135.7450303480082
 30
0.0
 10
99.22391761842319
 20
-135.5507269626401
 30
0.0
 10
99.20496959325432
 20
-135.3137043932549
 30
0.0
 10
99.20496959325432
 20
-135.1510958863511
 30
0.0
 10
99.20496959325432
 20
-135.0070908950677
 30
0.0
 10
99.22185056113204
 20
-134.7549099055474
 30
0.0
 10
99.3276149925292
 20
-134.556472405597
 30
0.0
 10
99.43544648121753
 20
-134.3532117719673
 30
0.0
 10
99.5963324403787
 20
-134.3297851226676
 30
0.0
 10
99.72517901152705
 20
-134.3297851226676
 30
0.0
 10
99.88399791339707
 20
-134.3297851226676
 30
0.0
 10
100.027658395132
 20
-134.3745713639758
 30
0.0
 10
100.1230875400734
 20
-134.556472405597
 30
0.0
 10
100.2223062900486
 20
-134.7487087336739
 30
0.0
 10
100.2457329393483
 20
-134.9774630738945
 30
0.0
 10
100.2457329393483
 20
-135.1510958863511
 30
0.0
 10
100.2457329393483
 20
-135.3219726224195
 30
0.0
 10
100.2243733473397
 20
-135.5527940199312
 30
0.0
 10
100.1230875400734
 20
-135.7450303480082
 30
0.0
  0
SPLINE
  5
100
330
F9
100
AcDbEntity
  8
_U+30EC_U+30A4_U+30E4_U+30FC 1
370
     0
100
AcDbSpline
210
0.0
220
0.0
230
1.0
 70
    11
 71
     3
 72
    17
 73
    13
 74
     0
 42
0.0000000001
 43
0.0000000001
 12
1.0
 22
0.0
 32
0.0
 13
1.0
 23
0.0
 33
0.0
 40
0.0
 40
0.0
 40
0.0
 40
0.0
 40
1.0
 40
1.0
 40
1.0
 40
2.0
 40
2.0
 40
2.0
 40
3.0
 40
3.0
 40
3.0
 40
4.0
 40
4.0
 40
4.0
 40
4.0
 10
99.72517901152705
 20
-134.5227104698415
 30
0.0
 10
99.47575409839496
 20
-134.5227104698415
 30
0.0
 10
99.42890079979556
 20
-134.8058973187291
 30
0.0
 10
99.42890079979556
 20
-135.1510958863511
 30
0.0
 10
99.42890079979556
 20
-135.4701117282852
 30
0.0
 10
99.46507430239068
 20
-135.7787922837636
 30
0.0
 10
99.72517901152705
 20
-135.7787922837636
 30
0.0
 10
99.9728813769165
 20
-135.7787922837636
 30
0.0
 10
100.0214572232585
 20
-135.4976724921673
 30
0.0
 10
100.0214572232585
 20
-135.1510958863511
 30
0.0
 10
100.0214572232585
 20
-134.8313910253199
 30
0.0
 10
99.98321666337226
 20
-134.5227104698415
 30
0.0
 10
99.72517901152705
 20
-134.5227104698415
 30
0.0
  0
HATCH
  5
101
330
F9
100
AcDbEntity
  8
_U+30EC_U+30A4_U+30E4_U+30FC 1
 62
   179
420
  2234388
100
AcDbHatch
 10
0.0
 20
0.0
 30
0.0
210
0.0
220
0.0
230
1.0
  2
SOLID
 70
     1
 71
     0
 91
        2
 92
        1
 93
        1
 72
     4
 94
        3
 73
     0
 74
     1
 95
       29
 96
       25
 40
0.0
 40
0.0
 40
0.0
 40
0.0
 40
1.0
 40
1.0
 40
1.0
 40
2.0
 40
2.0
 40
2.0
 40
3.0
 40
3.0
 40
3.0
 40
4.0
 40
4.0
 40
4.0
 40
5.0
 40
5.0
 40
5.0
 40
6.0
 40
6.0
 40
6.0
 40
7.0
 40
7.0
 40
7.0
 40
8.0
 40
8.0
 40
8.0
 40
8.0
 10
100.1230875400734
 20
-135.7450303480082
 10
100.0149115418366
 20
-135.9544921535114
 10
99.84162323892849
 20
-135.9737846882288
 10
99.72517901152705
 20
-135.9737846882288
 10
99.56429305236587
 20
-135.9737846882288
 10
99.42269962792211
 20
-135.9269313896294
 10
99.3276149925292
 20
-135.7450303480082
 10
99.22391761842319
 20
-135.5507269626401
 10
99.20496959325432
 20
-135.3137043932549
 10
99.20496959325432
 20
-135.1510958863511
 10
99.20496959325432
 20
-135.0070908950677
 10
99.22185056113204
 20
-134.7549099055474
 10
99.3276149925292
 20
-134.556472405597
 10
99.43544648121753
 20
-134.3532117719673
 10
99.5963324403787
 20
-134.3297851226676
 10
99.72517901152705
 20
-134.3297851226676
 10
99.88399791339707
 20
-134.3297851226676
 10
100.027658395132
 20
-134.3745713639758
 10
100.1230875400734
 20
-134.556472405597
 10
100.2223062900486
 20
-134.7487087336739
 10
100.2457329393483
 20
-134.9774630738945
 10
100.2457329393483
 20
-135.1510958863511
 10
100.2457329393483
 20
-135.3219726224195
 10
100.2243733473397
 20
-135.5527940199312
 10
100.1230875400734
 20
-135.7450303480082
 97
        0
 97
        0
 92
        1
 93
        1
 72
     4
 94
        3
 73
     0
 74
     1
 95
       17
 96
       13
 40
0.0
 40
0.0
 40
0.0
 40
0.0
 40
1.0
 40
1.0
 40
1.0
 40
2.0
 40
2.0
 40
2.0
 40
3.0
 40
3.0
 40
3.0
 40
4.0
 40
4.0
 40
4.0
 40
4.0
 10
99.72517901152705
 20
-134.5227104698415
 10
99.47575409839496
 20
-134.5227104698415
 10
99.42890079979556
 20
-134.8058973187291
 10
99.42890079979556
 20
-135.1510958863511
 10
99.42890079979556
 20
-135.4701117282852
 10
99.46507430239068
 20
-135.7787922837636
 10
99.72517901152705
 20
-135.7787922837636
 10
99.9728813769165
 20
-135.7787922837636
 10
100.0214572232585
 20
-135.4976724921673
 10
100.0214572232585
 20
-135.1510958863511
 10
100.0214572232585
 20
-134.8313910253199
 10
99.98321666337226
 20
-134.5227104698415
 10
99.72517901152705
 20
-134.5227104698415
 97
        0
 97
        0
 75
     2
 76
     1
 98
        0
  0
ENDBLK
  5
FC
330
F9
100
AcDbEntity
  8
0
100
AcDbBlockEnd
  0
BLOCK
  5
110
330
10E
100
AcDbEntity
  8
0
100
AcDbBlockBegin
  2
block 5
 70
     0
 10
0.0
 20
0.0
 30
0.0
  3
block 5
  1

  0
SPLINE
  5
112
330
10E
100
AcDbEntity
  8
_U+30EC_U+30A4_U+30E4_U+30FC 1
370
     0
100
AcDbSpline
210
0.0
220
0.0
230
1.0
 70
    11
 71
     3
 72
    44
 73
    40
 74
     0
 42
0.0000000001
 43
0.0000000001
 12
1.0
 22
0.0
 32
0.0
 13
1.0
 23
0.0
 33
0.0
 40
0.0
 40
0.0
 40
0.0
 40
0.0
 40
1.0
 40
1.0
 40
1.0
 40
2.0
 40
2.0
 40
2.0
 40
3.0
 40
3.0
 40
3.0
 40
4.0
 40
4.0
 40
4.0
 40
5.0
 40
5.0
 40
5.0
 40
6.0
 40
6.0
 40
6.0
 40
7.0
 40
7.0
 40
7.0
 40
8.0
 40
8.0
 40
8.0
 40
9.0
 40
9.0
 40
9.0
 40
10.0
 40
10.0
 40
10.0
 40
11.0
 40
11.0
 40
11.0
 40
12.0
 40
12.0
 40
12.0
 40
13.0
 40
13.0
 40
13.0
 40
13.0
 10
91.14086233615576
 20
-139.341021015512
 30
0.0
 10
90.92313230148797
 20
-139.5001844269305
 30
0.0
 10
90.83011472338623
 20
-139.5739094703149
 30
0.0
 10
90.78119436749567
 20
-139.7179144615983
 30
0.0
 10
90.78119436749567
 20
-139.7179144615983
 30
0.0
 10
91.5599582019364
 20
-139.7179144615983
 30
0.0
 10
91.5599582019364
 20
-139.7179144615983
 30
0.0
 10
91.5599582019364
 20
-139.7179144615983
 30
0.0
 10
91.5599582019364
 20
-139.9232421525192
 30
0.0
 10
91.5599582019364
 20
-139.9232421525192
 30
0.0
 10
91.5599582019364
 20
-139.9232421525192
 30
0.0
 10
90.53176945436358
 20
-139.9232421525192
 30
0.0
 10
90.53176945436358
 20
-139.9232421525192
 30
0.0
 10
90.56346433282789
 20
-139.5656412411503
 30
0.0
 10
90.62892114704763
 20
-139.4870930640866
 30
0.0
 10
91.01408282229856
 20
-139.1887477950639
 30
0.0
 10
91.27005341685263
 20
-138.9903102951135
 30
0.0
 10
91.33551023107238
 20
-138.9220974045056
 30
0.0
 10
91.33551023107238
 20
-138.7849826041927
 30
0.0
 10
91.33551023107238
 20
-138.6664713195001
 30
0.0
 10
91.26350773543065
 20
-138.5355576910606
 30
0.0
 10
91.0667927832229
 20
-138.5355576910606
 30
0.0
 10
90.80668807408652
 20
-138.5355576910606
 30
0.0
 10
90.7980753353734
 20
-138.7656900694753
 30
0.0
 10
90.7939412207911
 20
-138.8821342968767
 30
0.0
 10
90.7939412207911
 20
-138.8821342968767
 30
0.0
 10
90.56966550470133
 20
-138.8821342968767
 30
0.0
 10
90.56966550470133
 20
-138.8821342968767
 30
0.0
 10
90.57827824341446
 20
-138.7553547830195
 30
0.0
 10
90.58895803941874
 20
-138.6430446702004
 30
0.0
 10
90.66922876422505
 20
-138.5245333855078
 30
0.0
 10
90.77912731020453
 20
-138.3639919358951
 30
0.0
 10
90.96550697595654
 20
-138.3302300001397
 30
0.0
 10
91.08160669380946
 20
-138.3302300001397
 30
0.0
 10
91.35893688037207
 20
-138.3302300001397
 30
0.0
 10
91.56650388335838
 20
-138.514198099052
 30
0.0
 10
91.56650388335838
 20
-138.7870496614838
 30
0.0
 10
91.56650388335838
 20
-139.0158040017044
 30
0.0
 10
91.45005965595693
 20
-139.1150227516796
 30
0.0
 10
91.14086233615576
 20
-139.341021015512
 30
0.0
  0
HATCH
  5
113
330
10E
100
AcDbEntity
  8
_U+30EC_U+30A4_U+30E4_U+30FC 1
 62
   179
420
  2234388
100
AcDbHatch
 10
0.0
 20
0.0
 30
0.0
210
0.0
220
0.0
230
1.0
  2
SOLID
 70
     1
 71
     0
 91
        1
 92
        1
 93
        1
 72
     4
 94
        3
 73
     0
 74
     1
 95
       44
 96
       40
 40
0.0
 40
0.0
 40
0.0
 40
0.0
 40
1.0
 40
1.0
 40
1.0
 40
2.0
 40
2.0
 40
2.0
 40
3.0
 40
3.0
 40
3.0
 40
4.0
 40
4.0
 40
4.0
 40
5.0
 40
5.0
 40
5.0
 40
6.0
 40
6.0
 40
6.0
 40
7.0
 40
7.0
 40
7.0
 40
8.0
 40
8.0
 40
8.0
 40
9.0
 40
9.0
 40
9.0
 40
10.0
 40
10.0
 40
10.0
 40
11.0
 40
11.0
 40
11.0
 40
12.0
 40
12.0
 40
12.0
 40
13.0
 40
13.0
 40
13.0
 40
13.0
 10
91.14086233615576
 20
-139.341021015512
 10
90.92313230148797
 20
-139.5001844269305
 10
90.83011472338623
 20
-139.5739094703149
 10
90.78119436749567
 20
-139.7179144615983
 10
90.78119436749567
 20
-139.7179144615983
 10
91.5599582019364
 20
-139.7179144615983
 10
91.5599582019364
 20
-139.7179144615983
 10
91.5599582019364
 20
-139.7179144615983
 10
91.5599582019364
 20
-139.9232421525192
 10
91.5599582019364
 20
-139.9232421525192
 10
91.5599582019364
 20
-139.9232421525192
 10
90.53176945436358
 20
-139.9232421525192
 10
90.53176945436358
 20
-139.9232421525192
 10
90.56346433282789
 20
-139.5656412411503
 10
90.62892114704763
 20
-139.4870930640866
 10
91.01408282229856
 20
-139.1887477950639
 10
91.27005341685263
 20
-138.9903102951135
 10
91.33551023107238
 20
-138.9220974045056
 10
91.33551023107238
 20
-138.7849826041927
 10
91.33551023107238
 20
-138.6664713195001
 10
91.26350773543065
 20
-138.5355576910606
 10
91.0667927832229
 20
-138.5355576910606
 10
90.80668807408652
 20
-138.5355576910606
 10
90.7980753353734
 20
-138.7656900694753
 10
90.7939412207911
 20
-138.8821342968767
 10
90.7939412207911
 20
-138.8821342968767
 10
90.56966550470133
 20
-138.8821342968767
 10
90.56966550470133
 20
-138.8821342968767
 10
90.57827824341446
 20
-138.7553547830195
 10
90.58895803941874
 20
-138.6430446702004
 10
90.66922876422505
 20
-138.5245333855078
 10
90.77912731020453
 20
-138.3639919358951
 10
90.96550697595654
 20
-138.3302300001397
 10
91.08160669380946
 20
-138.3302300001397
 10
91.35893688037207
 20
-138.3302300001397
 10
91.56650388335838
 20
-138.514198099052
 10
91.56650388335838
 20
-138.7870496614838
 10
91.56650388335838
 20
-139.0158040017044
 10
91.45005965595693
 20
-139.1150227516796
 10
91.14086233615576
 20
-139.341021015512
 97
        0
 97
        0
 75
     2
 76
     1
 98
        0
  0
SPLINE
  5
114
330
10E
100
AcDbEntity
  8
_U+30EC_U+30A4_U+30E4_U+30FC 1
370
     0
100
AcDbSpline
210
0.0
220
0.0
230
1.0
 70
    11
 71
     3
 72
    53
 73
    49
 74
     0
 42
0.0000000001
 43
0.0000000001
 12
1.0
 22
0.0
 32
0.0
 13
1.0
 23
0.0
 33
0.0
 40
0.0
 40
0.0
 40
0.0
 40
0.0
 40
1.0
 40
1.0
 40
1.0
 40
2.0
 40
2.0
 40
2.0
 40
3.0
 40
3.0
 40
3.0
 40
4.0
 40
4.0
 40
4.0
 40
5.0
 40
5.0
 40
5.0
 40
6.0
 40
6.0
 40
6.0
 40
7.0
 40
7.0
 40
7.0
 40
8.0
 40
8.0
 40
8.0
 40
9.0
 40
9.0
 40
9.0
 40
10.0
 40
10.0
 40
10.0
 40
11.0
 40
11.0
 40
11.0
 40
12.0
 40
12.0
 40
12.0
 40
13.0
 40
13.0
 40
13.0
 40
14.0
 40
14.0
 40
14.0
 40
15.0
 40
15.0
 40
15.0
 40
16.0
 40
16.0
 40
16.0
 40
16.0
 10
92.20591360542075
 20
-139.9735405466039
 30
0.0
 10
92.12770993790558
 20
-139.9735405466039
 30
0.0
 10
92.0260796210907
 20
-139.9570040882747
 30
0.0
 10
91.92444930427584
 20
-139.893614331346
 30
0.0
 10
91.75116100136776
 20
-139.783371275818
 30
0.0
 10
91.72980140935923
 20
-139.6524576473786
 30
0.0
 10
91.71085338419034
 20
-139.5442816491417
 30
0.0
 10
91.71085338419034
 20
-139.5442816491417
 30
0.0
 10
91.93306204298896
 20
-139.5442816491417
 30
0.0
 10
91.93306204298896
 20
-139.5442816491417
 30
0.0
 10
91.98783906120444
 20
-139.7434081681891
 30
0.0
 10
92.11496308461015
 20
-139.7730359893623
 30
0.0
 10
92.2079806627119
 20
-139.7730359893623
 30
0.0
 10
92.34750702986452
 20
-139.7730359893623
 30
0.0
 10
92.49978025031255
 20
-139.6731282202901
 30
0.0
 10
92.49978025031255
 20
-139.4409287845842
 30
0.0
 10
92.49978025031255
 20
-139.1846136804816
 30
0.0
 10
92.31994626598252
 20
-139.1150227516796
 30
0.0
 10
92.19936792399878
 20
-139.1150227516796
 30
0.0
 10
92.16767304553447
 20
-139.1150227516796
 30
0.0
 10
92.0260796210907
 20
-139.1150227516796
 30
0.0
 10
91.93719615757126
 20
-139.2438693228279
 30
0.0
 10
91.93719615757126
 20
-139.2438693228279
 30
0.0
 10
91.76149628782352
 20
-139.2252658072076
 30
0.0
 10
91.76149628782352
 20
-139.2252658072076
 30
0.0
 10
91.76149628782352
 20
-139.2252658072076
 30
0.0
 10
91.88207462980726
 20
-138.3784613369332
 30
0.0
 10
91.88207462980726
 20
-138.3784613369332
 30
0.0
 10
91.88207462980726
 20
-138.3784613369332
 30
0.0
 10
92.66066620947373
 20
-138.3784613369332
 30
0.0
 10
92.66066620947373
 20
-138.3784613369332
 30
0.0
 10
92.66066620947373
 20
-138.3784613369332
 30
0.0
 10
92.66066620947373
 20
-138.5734537413983
 30
0.0
 10
92.66066620947373
 20
-138.5734537413983
 30
0.0
 10
92.66066620947373
 20
-138.5734537413983
 30
0.0
 10
92.04502764625958
 20
-138.5734537413983
 30
0.0
 10
92.04502764625958
 20
-138.5734537413983
 30
0.0
 10
92.04502764625958
 20
-138.5734537413983
 30
0.0
 10
91.97957083203984
 20
-138.996511466987
 30
0.0
 10
91.97957083203984
 20
-138.996511466987
 30
0.0
 10
92.04089353167728
 20
-138.9627495312315
 30
0.0
 10
92.12323131377475
 20
-138.9220974045056
 30
0.0
 10
92.24174259846734
 20
-138.9220974045056
 30
0.0
 10
92.49564613573025
 20
-138.9220974045056
 30
0.0
 10
92.73266870511544
 20
-139.1088215798061
 30
0.0
 10
92.73266870511544
 20
-139.4216362498668
 30
0.0
 10
92.73266870511544
 20
-139.7392740536069
 30
0.0
 10
92.50839298902568
 20
-139.9735405466039
 30
0.0
 10
92.20591360542075
 20
-139.9735405466039
 30
0.0
  0
HATCH
  5
115
330
10E
100
AcDbEntity
  8
_U+30EC_U+30A4_U+30E4_U+30FC 1
 62
   179
420
  2234388
100
AcDbHatch
 10
0.0
 20
0.0
 30
0.0
210
0.0
220
0.0
230
1.0
  2
SOLID
 70
     1
 71
     0
 91
        1
 92
        1
 93
        1
 72
     4
 94
        3
 73
     0
 74
     1
 95
       53
 96
       49
 40
0.0
 40
0.0
 40
0.0
 40
0.0
 40
1.0
 40
1.0
 40
1.0
 40
2.0
 40
2.0
 40
2.0
 40
3.0
 40
3.0
 40
3.0
 40
4.0
 40
4.0
 40
4.0
 40
5.0
 40
5.0
 40
5.0
 40
6.0
 40
6.0
 40
6.0
 40
7.0
 40
7.0
 40
7.0
 40
8.0
 40
8.0
 40
8.0
 40
9.0
 40
9.0
 40
9.0
 40
10.0
 40
10.0
 40
10.0
 40
11.0
 40
11.0
 40
11.0
 40
12.0
 40
12.0
 40
12.0
 40
13.0
 40
13.0
 40
13.0
 40
14.0
 40
14.0
 40
14.0
 40
15.0
 40
15.0
 40
15.0
 40
16.0
 40
16.0
 40
16.0
 40
16.0
 10
92.20591360542075
 20
-139.9735405466039
 10
92.12770993790558
 20
-139.9735405466039
 10
92.0260796210907
 20
-139.9570040882747
 10
91.92444930427584
 20
-139.893614331346
 10
91.75116100136776
 20
-139.783371275818
 10
91.72980140935923
 20
-139.6524576473786
 10
91.71085338419034
 20
-139.5442816491417
 10
91.71085338419034
 20
-139.5442816491417
 10
91.93306204298896
 20
-139.5442816491417
 10
91.93306204298896
 20
-139.5442816491417
 10
91.98783906120444
 20
-139.7434081681891
 10
92.11496308461015
 20
-139.7730359893623
 10
92.2079806627119
 20
-139.7730359893623
 10
92.34750702986452
 20
-139.7730359893623
 10
92.49978025031255
 20
-139.6731282202901
 10
92.49978025031255
 20
-139.4409287845842
 10
92.49978025031255
 20
-139.1846136804816
 10
92.31994626598252
 20
-139.1150227516796
 10
92.19936792399878
 20
-139.1150227516796
 10
92.16767304553447
 20
-139.1150227516796
 10
92.0260796210907
 20
-139.1150227516796
 10
91.93719615757126
 20
-139.2438693228279
 10
91.93719615757126
 20
-139.2438693228279
 10
91.76149628782352
 20
-139.2252658072076
 10
91.76149628782352
 20
-139.2252658072076
 10
91.76149628782352
 20
-139.2252658072076
 10
91.88207462980726
 20
-138.3784613369332
 10
91.88207462980726
 20
-138.3784613369332
 10
91.88207462980726
 20
-138.3784613369332
 10
92.66066620947373
 20
-138.3784613369332
 10
92.66066620947373
 20
-138.3784613369332
 10
92.66066620947373
 20
-138.3784613369332
 10
92.66066620947373
 20
-138.5734537413983
 10
92.66066620947373
 20
-138.5734537413983
 10
92.66066620947373
 20
-138.5734537413983
 10
92.04502764625958
 20
-138.5734537413983
 10
92.04502764625958
 20
-138.5734537413983
 10
92.04502764625958
 20
-138.5734537413983
 10
91.97957083203984
 20
-138.996511466987
 10
91.97957083203984
 20
-138.996511466987
 10
92.04089353167728
 20
-138.9627495312315
 10
92.12323131377475
 20
-138.9220974045056
 10
92.24174259846734
 20
-138.9220974045056
 10
92.49564613573025
 20
-138.9220974045056
 10
92.73266870511544
 20
-139.1088215798061
 10
92.73266870511544
 20
-139.4216362498668
 10
92.73266870511544
 20
-139.7392740536069
 10
92.50839298902568
 20
-139.9735405466039
 10
92.20591360542075
 20
-139.9735405466039
 97
        0
 97
        0
 75
     2
 76
     1
 98
        0
  0
ENDBLK
  5
111
330
10E
100
AcDbEntity
  8
0
100
AcDbBlockEnd
  0
BLOCK
  5
124
330
122
100
AcDbEntity
  8
0
100
AcDbBlockBegin
  2
block 6
 70
     0
 10
0.0
 20
0.0
 30
0.0
  3
block 6
  1

  0
SPLINE
  5
126
330
122
100
AcDbEntity
  8
_U+30EC_U+30A4_U+30E4_U+30FC 1
370
     0
100
AcDbSpline
210
0.0
220
0.0
230
1.0
 70
    11
 71
     3
 72
    26
 73
    22
 74
     0
 42
0.0000000001
 43
0.0000000001
 12
1.0
 22
0.0
 32
0.0
 13
1.0
 23
0.0
 33
0.0
 40
0.0
 40
0.0
 40
0.0
 40
0.0
 40
1.0
 40
1.0
 40
1.0
 40
2.0
 40
2.0
 40
2.0
 40
3.0
 40
3.0
 40
3.0
 40
4.0
 40
4.0
 40
4.0
 40
5.0
 40
5.0
 40
5.0
 40
6.0
 40
6.0
 40
6.0
 40
7.0
 40
7.0
 40
7.0
 40
7.0
 10
75.60124238561359
 20
-124.9691161796952
 30
0.0
 10
75.60124238561359
 20
-124.9691161796952
 30
0.0
 10
74.497089282591
 20
-124.9691161796952
 30
0.0
 10
74.497089282591
 20
-124.9691161796952
 30
0.0
 10
74.497089282591
 20
-124.9691161796952
 30
0.0
 10
74.497089282591
 20
-125.2991563271822
 30
0.0
 10
74.497089282591
 20
-125.2991563271822
 30
0.0
 10
74.497089282591
 20
-125.2991563271822
 30
0.0
 10
74.34895017672527
 20
-125.2991563271822
 30
0.0
 10
74.34895017672527
 20
-125.2991563271822
 30
0.0
 10
74.33413626613869
 20
-124.9670491224041
 30
0.0
 10
74.17118324968638
 20
-124.9205403333532
 30
0.0
 10
74.05680607957608
 20
-124.8909125121801
 30
0.0
 10
74.05680607957608
 20
-124.8909125121801
 30
0.0
 10
74.05680607957608
 20
-124.7448404636055
 30
0.0
 10
74.05680607957608
 20
-124.7448404636055
 30
0.0
 10
74.05680607957608
 20
-124.7448404636055
 30
0.0
 10
75.60124238561359
 20
-124.7448404636055
 30
0.0
 10
75.60124238561359
 20
-124.7448404636055
 30
0.0
 10
75.60124238561359
 20
-124.7448404636055
 30
0.0
 10
75.60124238561359
 20
-124.9691161796952
 30
0.0
 10
75.60124238561359
 20
-124.9691161796952
 30
0.0
  0
HATCH
  5
127
330
122
100
AcDbEntity
  8
_U+30EC_U+30A4_U+30E4_U+30FC 1
 62
   179
420
  2234388
100
AcDbHatch
 10
0.0
 20
0.0
 30
0.0
210
0.0
220
0.0
230
1.0
  2
SOLID
 70
     1
 71
     0
 91
        1
 92
        1
 93
        1
 72
     4
 94
        3
 73
     0
 74
     1
 95
       26
 96
       22
 40
0.0
 40
0.0
 40
0.0
 40
0.0
 40
1.0
 40
1.0
 40
1.0
 40
2.0
 40
2.0
 40
2.0
 40
3.0
 40
3.0
 40
3.0
 40
4.0
 40
4.0
 40
4.0
 40
5.0
 40
5.0
 40
5.0
 40
6.0
 40
6.0
 40
6.0
 40
7.0
 40
7.0
 40
7.0
 40
7.0
 10
75.60124238561359
 20
-124.9691161796952
 10
75.60124238561359
 20
-124.9691161796952
 10
74.497089282591
 20
-124.9691161796952
 10
74.497089282591
 20
-124.9691161796952
 10
74.497089282591
 20
-124.9691161796952
 10
74.497089282591
 20
-125.2991563271822
 10
74.497089282591
 20
-125.2991563271822
 10
74.497089282591
 20
-125.2991563271822
 10
74.34895017672527
 20
-125.2991563271822
 10
74.34895017672527
 20
-125.2991563271822
 10
74.33413626613869
 20
-124.9670491224041
 10
74.17118324968638
 20
-124.9205403333532
 10
74.05680607957608
 20
-124.8909125121801
 10
74.05680607957608
 20
-124.8909125121801
 10
74.05680607957608
 20
-124.7448404636055
 10
74.05680607957608
 20
-124.7448404636055
 10
74.05680607957608
 20
-124.7448404636055
 10
75.60124238561359
 20
-124.7448404636055
 10
75.60124238561359
 20
-124.7448404636055
 10
75.60124238561359
 20
-124.7448404636055
 10
75.60124238561359
 20
-124.9691161796952
 10
75.60124238561359
 20
-124.9691161796952
 97
        0
 97
        0
 75
     2
 76
     1
 98
        0
  0
SPLINE
  5
128
330
122
100
AcDbEntity
  8
_U+30EC_U+30A4_U+30E4_U+30FC 1
370
     0
100
AcDbSpline
210
0.0
220
0.0
230
1.0
 70
    11
 71
     3
 72
    29
 73
    25
 74
     0
 42
0.0000000001
 43
0.0000000001
 12
1.0
 22
0.0
 32
0.0
 13
1.0
 23
0.0
 33
0.0
 40
0.0
 40
0.0
 40
0.0
 40
0.0
 40
1.0
 40
1.0
 40
1.0
 40
2.0
 40
2.0
 40
2.0
 40
3.0
 40
3.0
 40
3.0
 40
4.0
 40
4.0
 40
4.0
 40
5.0
 40
5.0
 40
5.0
 40
6.0
 40
6.0
 40
6.0
 40
7.0
 40
7.0
 40
7.0
 40
8.0
 40
8.0
 40
8.0
 40
8.0
 10
75.65188528924675
 20
-123.7436957155919
 30
0.0
 10
75.65188528924675
 20
-124.0103461061502
 30
0.0
 10
75.51442597938528
 20
-124.2639051338646
 30
0.0
 10
75.16543780672947
 20
-124.2639051338646
 30
0.0
 10
74.90946721217541
 20
-124.2639051338646
 30
0.0
 10
74.81438257678252
 20
-124.1223117094208
 30
0.0
 10
74.75305987714508
 20
-124.0165472780237
 30
0.0
 10
74.69380423479878
 20
-124.1412597345897
 30
0.0
 10
74.57942706468847
 20
-124.2173963448137
 30
0.0
 10
74.41854110552731
 20
-124.2173963448137
 30
0.0
 10
74.14362248580437
 20
-124.2173963448137
 30
0.0
 10
74.00823023323406
 20
-124.0186143353148
 30
0.0
 10
74.00823023323406
 20
-123.7436957155919
 30
0.0
 10
74.00823023323406
 20
-123.4601643571558
 30
0.0
 10
74.1522352245175
 20
-123.2696505768215
 30
0.0
 10
74.41854110552731
 20
-123.2696505768215
 30
0.0
 10
74.57942706468847
 20
-123.2696505768215
 30
0.0
 10
74.69380423479878
 20
-123.3481987538852
 30
0.0
 10
74.75305987714508
 20
-123.4729112104512
 30
0.0
 10
74.80370278077824
 20
-123.3840277469318
 30
0.0
 10
74.89878741617115
 20
-123.2252088450618
 30
0.0
 10
75.16130369214717
 20
-123.2252088450618
 30
0.0
 10
75.53578557139383
 20
-123.2252088450618
 30
0.0
 10
75.65188528924675
 20
-123.5046060889155
 30
0.0
 10
75.65188528924675
 20
-123.7436957155919
 30
0.0
  0
SPLINE
  5
129
330
122
100
AcDbEntity
  8
_U+30EC_U+30A4_U+30E4_U+30FC 1
370
     0
100
AcDbSpline
210
0.0
220
0.0
230
1.0
 70
    11
 71
     3
 72
    17
 73
    13
 74
     0
 42
0.0000000001
 43
0.0000000001
 12
1.0
 22
0.0
 32
0.0
 13
1.0
 23
0.0
 33
0.0
 40
0.0
 40
0.0
 40
0.0
 40
0.0
 40
1.0
 40
1.0
 40
1.0
 40
2.0
 40
2.0
 40
2.0
 40
3.0
 40
3.0
 40
3.0
 40
4.0
 40
4.0
 40
4.0
 40
4.0
 10
74.20081107085953
 20
-123.7436957155919
 30
0.0
 10
74.20081107085953
 20
-123.9087157893353
 30
0.0
 10
74.29589570625242
 20
-123.9931206287239
 30
0.0
 10
74.43128795882274
 20
-123.9931206287239
 30
0.0
 10
74.55393335809764
 20
-123.9931206287239
 30
0.0
 10
74.67244464279023
 20
-123.9214626426308
 30
0.0
 10
74.67244464279023
 20
-123.7436957155919
 30
0.0
 10
74.67244464279023
 20
-123.565928788553
 30
0.0
 10
74.55393335809764
 20
-123.4939262929112
 30
0.0
 10
74.43128795882274
 20
-123.4939262929112
 30
0.0
 10
74.29589570625242
 20
-123.4939262929112
 30
0.0
 10
74.20081107085953
 20
-123.5807426991395
 30
0.0
 10
74.20081107085953
 20
-123.7436957155919
 30
0.0
  0
SPLINE
  5
12A
330
122
100
AcDbEntity
  8
_U+30EC_U+30A4_U+30E4_U+30FC 1
370
     0
100
AcDbSpline
210
0.0
220
0.0
230
1.0
 70
    11
 71
     3
 72
    17
 73
    13
 74
     0
 42
0.0000000001
 43
0.0000000001
 12
1.0
 22
0.0
 32
0.0
 13
1.0
 23
0.0
 33
0.0
 40
0.0
 40
0.0
 40
0.0
 40
0.0
 40
1.0
 40
1.0
 40
1.0
 40
2.0
 40
2.0
 40
2.0
 40
3.0
 40
3.0
 40
3.0
 40
4.0
 40
4.0
 40
4.0
 40
4.0
 10
74.8608913658334
 20
-123.7436957155919
 30
0.0
 10
74.8608913658334
 20
-123.8873561973268
 30
0.0
 10
74.94770777206169
 20
-124.0399739273233
 30
0.0
 10
75.1506238961429
 20
-124.0399739273233
 30
0.0
 10
75.3559515870638
 20
-124.0399739273233
 30
0.0
 10
75.45723739433014
 20
-123.9128499039176
 30
0.0
 10
75.45723739433014
 20
-123.7436957155919
 30
0.0
 10
75.45723739433014
 20
-123.5576605593884
 30
0.0
 10
75.33459199505525
 20
-123.4474175038604
 30
0.0
 10
75.15682506801635
 20
-123.4474175038604
 30
0.0
 10
74.93496091876627
 20
-123.4474175038604
 30
0.0
 10
74.8608913658334
 20
-123.6103705203127
 30
0.0
 10
74.8608913658334
 20
-123.7436957155919
 30
0.0
  0
HATCH
  5
12B
330
122
100
AcDbEntity
  8
_U+30EC_U+30A4_U+30E4_U+30FC 1
 62
   179
420
  2234388
100
AcDbHatch
 10
0.0
 20
0.0
 30
0.0
210
0.0
220
0.0
230
1.0
  2
SOLID
 70
     1
 71
     0
 91
        3
 92
        1
 93
        1
 72
     4
 94
        3
 73
     0
 74
     1
 95
       29
 96
       25
 40
0.0
 40
0.0
 40
0.0
 40
0.0
 40
1.0
 40
1.0
 40
1.0
 40
2.0
 40
2.0
 40
2.0
 40
3.0
 40
3.0
 40
3.0
 40
4.0
 40
4.0
 40
4.0
 40
5.0
 40
5.0
 40
5.0
 40
6.0
 40
6.0
 40
6.0
 40
7.0
 40
7.0
 40
7.0
 40
8.0
 40
8.0
 40
8.0
 40
8.0
 10
75.65188528924675
 20
-123.7436957155919
 10
75.65188528924675
 20
-124.0103461061502
 10
75.51442597938528
 20
-124.2639051338646
 10
75.16543780672947
 20
-124.2639051338646
 10
74.90946721217541
 20
-124.2639051338646
 10
74.81438257678252
 20
-124.1223117094208
 10
74.75305987714508
 20
-124.0165472780237
 10
74.69380423479878
 20
-124.1412597345897
 10
74.57942706468847
 20
-124.2173963448137
 10
74.41854110552731
 20
-124.2173963448137
 10
74.14362248580437
 20
-124.2173963448137
 10
74.00823023323406
 20
-124.0186143353148
 10
74.00823023323406
 20
-123.7436957155919
 10
74.00823023323406
 20
-123.4601643571558
 10
74.1522352245175
 20
-123.2696505768215
 10
74.41854110552731
 20
-123.2696505768215
 10
74.57942706468847
 20
-123.2696505768215
 10
74.69380423479878
 20
-123.3481987538852
 10
74.75305987714508
 20
-123.4729112104512
 10
74.80370278077824
 20
-123.3840277469318
 10
74.89878741617115
 20
-123.2252088450618
 10
75.16130369214717
 20
-123.2252088450618
 10
75.53578557139383
 20
-123.2252088450618
 10
75.65188528924675
 20
-123.5046060889155
 10
75.65188528924675
 20
-123.7436957155919
 97
        0
 97
        0
 92
        1
 93
        1
 72
     4
 94
        3
 73
     0
 74
     1
 95
       17
 96
       13
 40
0.0
 40
0.0
 40
0.0
 40
0.0
 40
1.0
 40
1.0
 40
1.0
 40
2.0
 40
2.0
 40
2.0
 40
3.0
 40
3.0
 40
3.0
 40
4.0
 40
4.0
 40
4.0
 40
4.0
 10
74.20081107085953
 20
-123.7436957155919
 10
74.20081107085953
 20
-123.9087157893353
 10
74.29589570625242
 20
-123.9931206287239
 10
74.43128795882274
 20
-123.9931206287239
 10
74.55393335809764
 20
-123.9931206287239
 10
74.67244464279023
 20
-123.9214626426308
 10
74.67244464279023
 20
-123.7436957155919
 10
74.67244464279023
 20
-123.565928788553
 10
74.55393335809764
 20
-123.4939262929112
 10
74.43128795882274
 20
-123.4939262929112
 10
74.29589570625242
 20
-123.4939262929112
 10
74.20081107085953
 20
-123.5807426991395
 10
74.20081107085953
 20
-123.7436957155919
 97
        0
 97
        0
 92
        1
 93
        1
 72
     4
 94
        3
 73
     0
 74
     1
 95
       17
 96
       13
 40
0.0
 40
0.0
 40
0.0
 40
0.0
 40
1.0
 40
1.0
 40
1.0
 40
2.0
 40
2.0
 40
2.0
 40
3.0
 40
3.0
 40
3.0
 40
4.0
 40
4.0
 40
4.0
 40
4.0
 10
74.8608913658334
 20
-123.7436957155919
 10
74.8608913658334
 20
-123.8873561973268
 10
74.94770777206169
 20
-124.0399739273233
 10
75.1506238961429
 20
-124.0399739273233
 10
75.3559515870638
 20
-124.0399739273233
 10
75.45723739433014
 20
-123.9128499039176
 10
75.45723739433014
 20
-123.7436957155919
 10
75.45723739433014
 20
-123.5576605593884
 10
75.33459199505525
 20
-123.4474175038604
 10
75.15682506801635
 20
-123.4474175038604
 10
74.93496091876627
 20
-123.4474175038604
 10
74.8608913658334
 20
-123.6103705203127
 10
74.8608913658334
 20
-123.7436957155919
 97
        0
 97
        0
 75
     2
 76
     1
 98
        0
  0
POLYLINE
  5
12C
330
122
100
AcDbEntity
  8
_U+30EC_U+30A4_U+30E4_U+30FC 1
370
     0
100
AcDb2dPolyline
 66
     1
 10
0.0
 20
0.0
 30
0.0
  0
VERTEX
  5
12D
330
12C
100
AcDbEntity
  8
_U+30EC_U+30A4_U+30E4_U+30FC 1
370
     0
100
AcDbVertex
100
AcDb2dVertex
 10
75.60124238561359
 20
-123.0067897912969
 30
0.0
  0
VERTEX
  5
12E
330
12C
100
AcDbEntity
  8
_U+30EC_U+30A4_U+30E4_U+30FC 1
370
     0
100
AcDbVertex
100
AcDb2dVertex
 10
75.34940590564182
 20
-123.0067897912969
 30
0.0
  0
VERTEX
  5
12F
330
12C
100
AcDbEntity
  8
_U+30EC_U+30A4_U+30E4_U+30FC 1
370
     0
100
AcDbVertex
100
AcDb2dVertex
 10
75.34940590564182
 20
-122.7549533113252
 30
0.0
  0
VERTEX
  5
130
330
12C
100
AcDbEntity
  8
_U+30EC_U+30A4_U+30E4_U+30FC 1
370
     0
100
AcDbVertex
100
AcDb2dVertex
 10
75.60124238561359
 20
-122.7549533113252
 30
0.0
  0
VERTEX
  5
131
330
12C
100
AcDbEntity
  8
_U+30EC_U+30A4_U+30E4_U+30FC 1
370
     0
100
AcDbVertex
100
AcDb2dVertex
 10
75.60124238561359
 20
-123.0067897912969
 30
0.0
  0
SEQEND
  5
132
330
12C
100
AcDbEntity
  8
_U+30EC_U+30A4_U+30E4_U+30FC 1
370
     0
  0
HATCH
  5
133
330
122
100
AcDbEntity
  8
_U+30EC_U+30A4_U+30E4_U+30FC 1
 62
   179
420
  2234388
100
AcDbHatch
 10
0.0
 20
0.0
 30
0.0
210
0.0
220
0.0
230
1.0
  2
SOLID
 70
     1
 71
     0
 91
        1
 92
        1
 93
        4
 72
     1
 10
75.60124238561359
 20
-123.0067897912969
 11
75.34940590564182
 21
-123.0067897912969
 72
     1
 10
75.34940590564182
 20
-123.0067897912969
 11
75.34940590564182
 21
-122.7549533113252
 72
     1
 10
75.34940590564182
 20
-122.7549533113252
 11
75.60124238561359
 21
-122.7549533113252
 72
     1
 10
75.60124238561359
 20
-122.7549533113252
 11
75.60124238561359
 21
-123.0067897912969
 97
        0
 75
     2
 76
     1
 98
        0
  0
SPLINE
  5
134
330
122
100
AcDbEntity
  8
_U+30EC_U+30A4_U+30E4_U+30FC 1
370
     0
100
AcDbSpline
210
0.0
220
0.0
230
1.0
 70
    11
 71
     3
 72
    44
 73
    40
 74
     0
 42
0.0000000001
 43
0.0000000001
 12
1.0
 22
0.0
 32
0.0
 13
1.0
 23
0.0
 33
0.0
 40
0.0
 40
0.0
 40
0.0
 40
0.0
 40
1.0
 40
1.0
 40
1.0
 40
2.0
 40
2.0
 40
2.0
 40
3.0
 40
3.0
 40
3.0
 40
4.0
 40
4.0
 40
4.0
 40
5.0
 40
5.0
 40
5.0
 40
6.0
 40
6.0
 40
6.0
 40
7.0
 40
7.0
 40
7.0
 40
8.0
 40
8.0
 40
8.0
 40
9.0
 40
9.0
 40
9.0
 40
10.0
 40
10.0
 40
10.0
 40
11.0
 40
11.0
 40
11.0
 40
12.0
 40
12.0
 40
12.0
 40
13.0
 40
13.0
 40
13.0
 40
13.0
 10
75.01936575815489
 20
-121.9257188280255
 30
0.0
 10
75.1781846600249
 20
-122.1434488626933
 30
0.0
 10
75.25225421295778
 20
-122.2364664407951
 30
0.0
 10
75.39591469469269
 20
-122.2853867966856
 30
0.0
 10
75.39591469469269
 20
-122.2853867966856
 30
0.0
 10
75.39591469469269
 20
-121.5067952170191
 30
0.0
 10
75.39591469469269
 20
-121.5067952170191
 30
0.0
 10
75.39591469469269
 20
-121.5067952170191
 30
0.0
 10
75.60124238561359
 20
-121.5067952170191
 30
0.0
 10
75.60124238561359
 20
-121.5067952170191
 30
0.0
 10
75.60124238561359
 20
-121.5067952170191
 30
0.0
 10
75.60124238561359
 20
-122.5348117098177
 30
0.0
 10
75.60124238561359
 20
-122.5348117098177
 30
0.0
 10
75.24364147424465
 20
-122.5031168313534
 30
0.0
 10
75.16543780672947
 20
-122.4376600171337
 30
0.0
 10
74.86709253770684
 20
-122.0524983418827
 30
0.0
 10
74.66831052820793
 20
-121.7965277473287
 30
0.0
 10
74.6004421471485
 20
-121.7310709331089
 30
0.0
 10
74.46298283728703
 20
-121.7310709331089
 30
0.0
 10
74.34447155259444
 20
-121.7310709331089
 30
0.0
 10
74.21355792415494
 20
-121.8030734287506
 30
0.0
 10
74.21355792415494
 20
-121.9997883809584
 30
0.0
 10
74.21355792415494
 20
-122.2598930900947
 30
0.0
 10
74.44403481211816
 20
-122.2685058288079
 30
0.0
 10
74.5604790395196
 20
-122.2726399433902
 30
0.0
 10
74.5604790395196
 20
-122.2726399433902
 30
0.0
 10
74.5604790395196
 20
-122.4969156594799
 30
0.0
 10
74.5604790395196
 20
-122.4969156594799
 30
0.0
 10
74.4333550161139
 20
-122.4883029207668
 30
0.0
 10
74.32138941284327
 20
-122.4776231247625
 30
0.0
 10
74.20287812815067
 20
-122.3973523999562
 30
0.0
 10
74.04199216898951
 20
-122.2874538539768
 30
0.0
 10
74.00823023323406
 20
-122.1010741882247
 30
0.0
 10
74.00823023323406
 20
-121.9849744703718
 30
0.0
 10
74.00823023323406
 20
-121.7076442838092
 30
0.0
 10
74.1921983321464
 20
-121.5002495355972
 30
0.0
 10
74.46504989457819
 20
-121.5002495355972
 30
0.0
 10
74.69380423479878
 20
-121.5002495355972
 30
0.0
 10
74.79302298477397
 20
-121.6166937629986
 30
0.0
 10
75.01936575815489
 20
-121.9257188280255
 30
0.0
  0
HATCH
  5
135
330
122
100
AcDbEntity
  8
_U+30EC_U+30A4_U+30E4_U+30FC 1
 62
   179
420
  2234388
100
AcDbHatch
 10
0.0
 20
0.0
 30
0.0
210
0.0
220
0.0
230
1.0
  2
SOLID
 70
     1
 71
     0
 91
        1
 92
        1
 93
        1
 72
     4
 94
        3
 73
     0
 74
     1
 95
       44
 96
       40
 40
0.0
 40
0.0
 40
0.0
 40
0.0
 40
1.0
 40
1.0
 40
1.0
 40
2.0
 40
2.0
 40
2.0
 40
3.0
 40
3.0
 40
3.0
 40
4.0
 40
4.0
 40
4.0
 40
5.0
 40
5.0
 40
5.0
 40
6.0
 40
6.0
 40
6.0
 40
7.0
 40
7.0
 40
7.0
 40
8.0
 40
8.0
 40
8.0
 40
9.0
 40
9.0
 40
9.0
 40
10.0
 40
10.0
 40
10.0
 40
11.0
 40
11.0
 40
11.0
 40
12.0
 40
12.0
 40
12.0
 40
13.0
 40
13.0
 40
13.0
 40
13.0
 10
75.01936575815489
 20
-121.9257188280255
 10
75.1781846600249
 20
-122.1434488626933
 10
75.25225421295778
 20
-122.2364664407951
 10
75.39591469469269
 20
-122.2853867966856
 10
75.39591469469269
 20
-122.2853867966856
 10
75.39591469469269
 20
-121.5067952170191
 10
75.39591469469269
 20
-121.5067952170191
 10
75.39591469469269
 20
-121.5067952170191
 10
75.60124238561359
 20
-121.5067952170191
 10
75.60124238561359
 20
-121.5067952170191
 10
75.60124238561359
 20
-121.5067952170191
 10
75.60124238561359
 20
-122.5348117098177
 10
75.60124238561359
 20
-122.5348117098177
 10
75.24364147424465
 20
-122.5031168313534
 10
75.16543780672947
 20
-122.4376600171337
 10
74.86709253770684
 20
-122.0524983418827
 10
74.66831052820793
 20
-121.7965277473287
 10
74.6004421471485
 20
-121.7310709331089
 10
74.46298283728703
 20
-121.7310709331089
 10
74.34447155259444
 20
-121.7310709331089
 10
74.21355792415494
 20
-121.8030734287506
 10
74.21355792415494
 20
-121.9997883809584
 10
74.21355792415494
 20
-122.2598930900947
 10
74.44403481211816
 20
-122.2685058288079
 10
74.5604790395196
 20
-122.2726399433902
 10
74.5604790395196
 20
-122.2726399433902
 10
74.5604790395196
 20
-122.4969156594799
 10
74.5604790395196
 20
-122.4969156594799
 10
74.4333550161139
 20
-122.4883029207668
 10
74.32138941284327
 20
-122.4776231247625
 10
74.20287812815067
 20
-122.3973523999562
 10
74.04199216898951
 20
-122.2874538539768
 10
74.00823023323406
 20
-122.1010741882247
 10
74.00823023323406
 20
-121.9849744703718
 10
74.00823023323406
 20
-121.7076442838092
 10
74.1921983321464
 20
-121.5002495355972
 10
74.46504989457819
 20
-121.5002495355972
 10
74.69380423479878
 20
-121.5002495355972
 10
74.79302298477397
 20
-121.6166937629986
 10
75.01936575815489
 20
-121.9257188280255
 97
        0
 97
        0
 75
     2
 76
     1
 98
        0
  0
ENDBLK
  5
125
330
122
100
AcDbEntity
  8
0
100
AcDbBlockEnd
  0
ENDSEC
  0
SECTION
  2
ENTITIES
  0
POLYLINE
  5
41
330
1F
100
AcDbEntity
  8
_U+30EC_U+30A4_U+30E4_U+30FC 1
 62
   179
420
  2234388
370
    25
100
AcDb2dPolyline
 66
     1
 10
0.0
 20
0.0
 30
0.0
  0
VERTEX
  5
42
330
41
100
AcDbEntity
  8
_U+30EC_U+30A4_U+30E4_U+30FC 1
 62
   179
420
  2234388
370
    25
100
AcDbVertex
100
AcDb2dVertex
 10
80.38648239361443
 20
-131.3690821893799
 30
0.0
  0
VERTEX
  5
43
330
41
100
AcDbEntity
  8
_U+30EC_U+30A4_U+30E4_U+30FC 1
 62
   179
420
  2234388
370
    25
100
AcDbVertex
100
AcDb2dVertex
 10
83.88635535988078
 20
-131.3690821893799
 30
0.0
  0
SEQEND
  5
44
330
41
100
AcDbEntity
  8
_U+30EC_U+30A4_U+30E4_U+30FC 1
 62
   179
420
  2234388
370
    25
  0
POLYLINE
  5
45
330
1F
100
AcDbEntity
  8
_U+30EC_U+30A4_U+30E4_U+30FC 1
 62
   179
420
  2234388
370
    25
100
AcDb2dPolyline
 66
     1
 10
0.0
 20
0.0
 30
0.0
  0
VERTEX
  5
46
330
45
100
AcDbEntity
  8
_U+30EC_U+30A4_U+30E4_U+30FC 1
 62
   179
420
  2234388
370
    25
100
AcDbVertex
100
AcDb2dVertex
 10
80.38648239361443
 20
-126.3690216350745
 30
0.0
  0
VERTEX
  5
47
330
45
100
AcDbEntity
  8
_U+30EC_U+30A4_U+30E4_U+30FC 1
 62
   179
420
  2234388
370
    25
100
AcDbVertex
100
AcDb2dVertex
 10
81.38625459033032
 20
-126.3690216350745
 30
0.0
  0
SEQEND
  5
48
330
45
100
AcDbEntity
  8
_U+30EC_U+30A4_U+30E4_U+30FC 1
 62
   179
420
  2234388
370
    25
  0
POLYLINE
  5
49
330
1F
100
AcDbEntity
  8
_U+30EC_U+30A4_U+30E4_U+30FC 1
 62
   179
420
  2234388
370
    25
100
AcDb2dPolyline
 66
     1
 10
0.0
 20
0.0
 30
0.0
  0
VERTEX
  5
4A
330
49
100
AcDbEntity
  8
_U+30EC_U+30A4_U+30E4_U+30FC 1
 62
   179
420
  2234388
370
    25
100
AcDbVertex
100
AcDb2dVertex
 10
82.88623038539609
 20
-126.3690216350745
 30
0.0
  0
VERTEX
  5
4B
330
49
100
AcDbEntity
  8
_U+30EC_U+30A4_U+30E4_U+30FC 1
 62
   179
420
  2234388
370
    25
100
AcDbVertex
100
AcDb2dVertex
 10
83.88635535988078
 20
-126.3690216350745
 30
0.0
  0
SEQEND
  5
4C
330
49
100
AcDbEntity
  8
_U+30EC_U+30A4_U+30E4_U+30FC 1
 62
   179
420
  2234388
370
    25
  0
POLYLINE
  5
4D
330
1F
100
AcDbEntity
  8
_U+30EC_U+30A4_U+30E4_U+30FC 1
 62
   179
420
  2234388
370
    25
100
AcDb2dPolyline
 66
     1
 10
0.0
 20
0.0
 30
0.0
  0
VERTEX
  5
4E
330
4D
100
AcDbEntity
  8
_U+30EC_U+30A4_U+30E4_U+30FC 1
 62
   179
420
  2234388
370
    25
100
AcDbVertex
100
AcDb2dVertex
 10
82.88623038539609
 20
-121.3691727474354
 30
0.0
  0
VERTEX
  5
4F
330
4D
100
AcDbEntity
  8
_U+30EC_U+30A4_U+30E4_U+30FC 1
 62
   179
420
  2234388
370
    25
100
AcDbVertex
100
AcDb2dVertex
 10
83.88635535988078
 20
-121.3691727474354
 30
0.0
  0
SEQEND
  5
50
330
4D
100
AcDbEntity
  8
_U+30EC_U+30A4_U+30E4_U+30FC 1
 62
   179
420
  2234388
370
    25
  0
POLYLINE
  5
51
330
1F
100
AcDbEntity
  8
_U+30EC_U+30A4_U+30E4_U+30FC 1
 62
   179
420
  2234388
370
    25
100
AcDb2dPolyline
 66
     1
 10
0.0
 20
0.0
 30
0.0
  0
VERTEX
  5
52
330
51
100
AcDbEntity
  8
_U+30EC_U+30A4_U+30E4_U+30FC 1
 62
   179
420
  2234388
370
    25
100
AcDbVertex
100
AcDb2dVertex
 10
80.38648239361443
 20
-121.3691727474354
 30
0.0
  0
VERTEX
  5
53
330
51
100
AcDbEntity
  8
_U+30EC_U+30A4_U+30E4_U+30FC 1
 62
   179
420
  2234388
370
    25
100
AcDbVertex
100
AcDb2dVertex
 10
81.38625459033032
 20
-121.3691727474354
 30
0.0
  0
SEQEND
  5
54
330
51
100
AcDbEntity
  8
_U+30EC_U+30A4_U+30E4_U+30FC 1
 62
   179
420
  2234388
370
    25
  0
POLYLINE
  5
55
330
1F
100
AcDbEntity
  8
_U+30EC_U+30A4_U+30E4_U+30FC 1
 62
   179
420
  2234388
370
    25
100
AcDb2dPolyline
 66
     1
 10
0.0
 20
0.0
 30
0.0
  0
VERTEX
  5
56
330
55
100
AcDbEntity
  8
_U+30EC_U+30A4_U+30E4_U+30FC 1
 62
   179
420
  2234388
370
    25
100
AcDbVertex
100
AcDb2dVertex
 10
82.88623038539609
 20
-116.3689358042411
 30
0.0
  0
VERTEX
  5
57
330
55
100
AcDbEntity
  8
_U+30EC_U+30A4_U+30E4_U+30FC 1
 62
   179
420
  2234388
370
    25
100
AcDbVertex
100
AcDb2dVertex
 10
83.88635535988078
 20
-116.3689358042411
 30
0.0
  0
SEQEND
  5
58
330
55
100
AcDbEntity
  8
_U+30EC_U+30A4_U+30E4_U+30FC 1
 62
   179
420
  2234388
370
    25
  0
POLYLINE
  5
59
330
1F
100
AcDbEntity
  8
_U+30EC_U+30A4_U+30E4_U+30FC 1
 62
   179
420
  2234388
370
    25
100
AcDb2dPolyline
 66
     1
 10
0.0
 20
0.0
 30
0.0
  0
VERTEX
  5
5A
330
59
100
AcDbEntity
  8
_U+30EC_U+30A4_U+30E4_U+30FC 1
 62
   179
420
  2234388
370
    25
100
AcDbVertex
100
AcDb2dVertex
 10
80.38648239361443
 20
-116.3689358042411
 30
0.0
  0
VERTEX
  5
5B
330
59
100
AcDbEntity
  8
_U+30EC_U+30A4_U+30E4_U+30FC 1
 62
   179
420
  2234388
370
    25
100
AcDbVertex
100
AcDb2dVertex
 10
81.38625459033032
 20
-116.3689358042411
 30
0.0
  0
SEQEND
  5
5C
330
59
100
AcDbEntity
  8
_U+30EC_U+30A4_U+30E4_U+30FC 1
 62
   179
420
  2234388
370
    25
  0
POLYLINE
  5
5D
330
1F
100
AcDbEntity
  8
_U+30EC_U+30A4_U+30E4_U+30FC 1
 62
   179
420
  2234388
370
    25
100
AcDb2dPolyline
 66
     1
 10
0.0
 20
0.0
 30
0.0
  0
VERTEX
  5
5E
330
5D
100
AcDbEntity
  8
_U+30EC_U+30A4_U+30E4_U+30FC 1
 62
   179
420
  2234388
370
    25
100
AcDbVertex
100
AcDb2dVertex
 10
83.88635535988078
 20
-126.3690216350745
 30
0.0
  0
VERTEX
  5
5F
330
5D
100
AcDbEntity
  8
_U+30EC_U+30A4_U+30E4_U+30FC 1
 62
   179
420
  2234388
370
    25
100
AcDbVertex
100
AcDb2dVertex
 10
83.88635535988078
 20
-131.3690821893799
 30
0.0
  0
SEQEND
  5
60
330
5D
100
AcDbEntity
  8
_U+30EC_U+30A4_U+30E4_U+30FC 1
 62
   179
420
  2234388
370
    25
  0
POLYLINE
  5
61
330
1F
100
AcDbEntity
  8
_U+30EC_U+30A4_U+30E4_U+30FC 1
 62
   179
420
  2234388
370
    25
100
AcDb2dPolyline
 66
     1
 10
0.0
 20
0.0
 30
0.0
  0
VERTEX
  5
62
330
61
100
AcDbEntity
  8
_U+30EC_U+30A4_U+30E4_U+30FC 1
 62
   179
420
  2234388
370
    25
100
AcDbVertex
100
AcDb2dVertex
 10
80.38648239361443
 20
-126.3690216350745
 30
0.0
  0
VERTEX
  5
63
330
61
100
AcDbEntity
  8
_U+30EC_U+30A4_U+30E4_U+30FC 1
 62
   179
420
  2234388
370
    25
100
AcDbVertex
100
AcDb2dVertex
 10
80.38648239361443
 20
-131.3690821893799
 30
0.0
  0
SEQEND
  5
64
330
61
100
AcDbEntity
  8
_U+30EC_U+30A4_U+30E4_U+30FC 1
 62
   179
420
  2234388
370
    25
  0
POLYLINE
  5
65
330
1F
100
AcDbEntity
  8
_U+30EC_U+30A4_U+30E4_U+30FC 1
 62
   179
420
  2234388
370
    25
100
AcDb2dPolyline
 66
     1
 10
0.0
 20
0.0
 30
0.0
  0
VERTEX
  5
66
330
65
100
AcDbEntity
  8
_U+30EC_U+30A4_U+30E4_U+30FC 1
 62
   179
420
  2234388
370
    25
100
AcDbVertex
100
AcDb2dVertex
 10
81.38625459033032
 20
-115.3691988600468
 30
0.0
  0
VERTEX
  5
67
330
65
100
AcDbEntity
  8
_U+30EC_U+30A4_U+30E4_U+30FC 1
 62
   179
420
  2234388
370
    25
100
AcDbVertex
100
AcDb2dVertex
 10
81.38625459033032
 20
-116.3689358042411
 30
0.0
  0
SEQEND
  5
68
330
65
100
AcDbEntity
  8
_U+30EC_U+30A4_U+30E4_U+30FC 1
 62
   179
420
  2234388
370
    25
  0
POLYLINE
  5
69
330
1F
100
AcDbEntity
  8
_U+30EC_U+30A4_U+30E4_U+30FC 1
 62
   179
420
  2234388
370
    25
100
AcDb2dPolyline
 66
     1
 10
0.0
 20
0.0
 30
0.0
  0
VERTEX
  5
6A
330
69
100
AcDbEntity
  8
_U+30EC_U+30A4_U+30E4_U+30FC 1
 62
   179
420
  2234388
370
    25
100
AcDbVertex
100
AcDb2dVertex
 10
82.88623038539609
 20
-115.3691988600468
 30
0.0
  0
VERTEX
  5
6B
330
69
100
AcDbEntity
  8
_U+30EC_U+30A4_U+30E4_U+30FC 1
 62
   179
420
  2234388
370
    25
100
AcDbVertex
100
AcDb2dVertex
 10
82.88623038539609
 20
-116.3689358042411
 30
0.0
  0
SEQEND
  5
6C
330
69
100
AcDbEntity
  8
_U+30EC_U+30A4_U+30E4_U+30FC 1
 62
   179
420
  2234388
370
    25
  0
POLYLINE
  5
6D
330
1F
100
AcDbEntity
  8
_U+30EC_U+30A4_U+30E4_U+30FC 1
 62
   179
420
  2234388
370
    25
100
AcDb2dPolyline
 66
     1
 10
0.0
 20
0.0
 30
0.0
  0
VERTEX
  5
6E
330
6D
100
AcDbEntity
  8
_U+30EC_U+30A4_U+30E4_U+30FC 1
 62
   179
420
  2234388
370
    25
100
AcDbVertex
100
AcDb2dVertex
 10
80.38648239361443
 20
-121.3691727474354
 30
0.0
  0
VERTEX
  5
6F
330
6D
100
AcDbEntity
  8
_U+30EC_U+30A4_U+30E4_U+30FC 1
 62
   179
420
  2234388
370
    25
100
AcDbVertex
100
AcDb2dVertex
 10
81.38625459033032
 20
-126.3690216350745
 30
0.0
  0
SEQEND
  5
70
330
6D
100
AcDbEntity
  8
_U+30EC_U+30A4_U+30E4_U+30FC 1
 62
   179
420
  2234388
370
    25
  0
POLYLINE
  5
71
330
1F
100
AcDbEntity
  8
_U+30EC_U+30A4_U+30E4_U+30FC 1
 62
   179
420
  2234388
370
    25
100
AcDb2dPolyline
 66
     1
 10
0.0
 20
0.0
 30
0.0
  0
VERTEX
  5
72
330
71
100
AcDbEntity
  8
_U+30EC_U+30A4_U+30E4_U+30FC 1
 62
   179
420
  2234388
370
    25
100
AcDbVertex
100
AcDb2dVertex
 10
82.88623038539609
 20
-126.3690216350745
 30
0.0
  0
VERTEX
  5
73
330
71
100
AcDbEntity
  8
_U+30EC_U+30A4_U+30E4_U+30FC 1
 62
   179
420
  2234388
370
    25
100
AcDbVertex
100
AcDb2dVertex
 10
83.88635535988078
 20
-121.3691727474354
 30
0.0
  0
SEQEND
  5
74
330
71
100
AcDbEntity
  8
_U+30EC_U+30A4_U+30E4_U+30FC 1
 62
   179
420
  2234388
370
    25
  0
POLYLINE
  5
75
330
1F
100
AcDbEntity
  8
_U+30EC_U+30A4_U+30E4_U+30FC 1
 62
   179
420
  2234388
370
    25
100
AcDb2dPolyline
 66
     1
 10
0.0
 20
0.0
 30
0.0
  0
VERTEX
  5
76
330
75
100
AcDbEntity
  8
_U+30EC_U+30A4_U+30E4_U+30FC 1
 62
   179
420
  2234388
370
    25
100
AcDbVertex
100
AcDb2dVertex
 10
82.88623038539609
 20
-121.3691727474354
 30
0.0
  0
VERTEX
  5
77
330
75
100
AcDbEntity
  8
_U+30EC_U+30A4_U+30E4_U+30FC 1
 62
   179
420
  2234388
370
    25
100
AcDbVertex
100
AcDb2dVertex
 10
83.88635535988078
 20
-116.3689358042411
 30
0.0
  0
SEQEND
  5
78
330
75
100
AcDbEntity
  8
_U+30EC_U+30A4_U+30E4_U+30FC 1
 62
   179
420
  2234388
370
    25
  0
POLYLINE
  5
79
330
1F
100
AcDbEntity
  8
_U+30EC_U+30A4_U+30E4_U+30FC 1
 62
   179
420
  2234388
370
    25
100
AcDb2dPolyline
 66
     1
 10
0.0
 20
0.0
 30
0.0
  0
VERTEX
  5
7A
330
79
100
AcDbEntity
  8
_U+30EC_U+30A4_U+30E4_U+30FC 1
 62
   179
420
  2234388
370
    25
100
AcDbVertex
100
AcDb2dVertex
 10
81.38625459033032
 20
-121.3691727474354
 30
0.0
  0
VERTEX
  5
7B
330
79
100
AcDbEntity
  8
_U+30EC_U+30A4_U+30E4_U+30FC 1
 62
   179
420
  2234388
370
    25
100
AcDbVertex
100
AcDb2dVertex
 10
80.38648239361443
 20
-116.3689358042411
 30
0.0
  0
SEQEND
  5
7C
330
79
100
AcDbEntity
  8
_U+30EC_U+30A4_U+30E4_U+30FC 1
 62
   179
420
  2234388
370
    25
  0
POLYLINE
  5
7D
330
1F
100
AcDbEntity
  8
_U+30EC_U+30A4_U+30E4_U+30FC 1
 62
   179
420
  2234388
370
    25
100
AcDb2dPolyline
 66
     1
 10
0.0
 20
0.0
 30
0.0
  0
VERTEX
  5
7E
330
7D
100
AcDbEntity
  8
_U+30EC_U+30A4_U+30E4_U+30FC 1
 62
   179
420
  2234388
370
    25
100
AcDbVertex
100
AcDb2dVertex
 10
79.13623798106637
 20
-132.5693380224131
 30
0.0
  0
VERTEX
  5
7F
330
7D
100
AcDbEntity
  8
_U+30EC_U+30A4_U+30E4_U+30FC 1
 62
   179
420
  2234388
370
    25
100
AcDbVertex
100
AcDb2dVertex
 10
104.1362931765952
 20
-132.5693380224131
 30
0.0
  0
SEQEND
  5
80
330
7D
100
AcDbEntity
  8
_U+30EC_U+30A4_U+30E4_U+30FC 1
 62
   179
420
  2234388
370
    25
  0
POLYLINE
  5
81
330
1F
100
AcDbEntity
  8
_U+30EC_U+30A4_U+30E4_U+30FC 1
 62
   179
420
  2234388
370
    25
100
AcDb2dPolyline
 66
     1
 10
0.0
 20
0.0
 30
0.0
  0
VERTEX
  5
82
330
81
100
AcDbEntity
  8
_U+30EC_U+30A4_U+30E4_U+30FC 1
 62
   179
420
  2234388
370
    25
100
AcDbVertex
100
AcDb2dVertex
 10
79.13623798106637
 20
-114.3690738602968
 30
0.0
  0
VERTEX
  5
83
330
81
100
AcDbEntity
  8
_U+30EC_U+30A4_U+30E4_U+30FC 1
 62
   179
420
  2234388
370
    25
100
AcDbVertex
100
AcDb2dVertex
 10
80.38648239361443
 20
-114.3690738602968
 30
0.0
  0
SEQEND
  5
84
330
81
100
AcDbEntity
  8
_U+30EC_U+30A4_U+30E4_U+30FC 1
 62
   179
420
  2234388
370
    25
  0
POLYLINE
  5
85
330
1F
100
AcDbEntity
  8
_U+30EC_U+30A4_U+30E4_U+30FC 1
 62
   179
420
  2234388
370
    25
100
AcDb2dPolyline
 66
     1
 10
0.0
 20
0.0
 30
0.0
  0
VERTEX
  5
86
330
85
100
AcDbEntity
  8
_U+30EC_U+30A4_U+30E4_U+30FC 1
 62
   179
420
  2234388
370
    25
100
AcDbVertex
100
AcDb2dVertex
 10
79.13623798106637
 20
-114.3690738602968
 30
0.0
  0
VERTEX
  5
87
330
85
100
AcDbEntity
  8
_U+30EC_U+30A4_U+30E4_U+30FC 1
 62
   179
420
  2234388
370
    25
100
AcDbVertex
100
AcDb2dVertex
 10
79.13623798106637
 20
-132.5693380224131
 30
0.0
  0
SEQEND
  5
88
330
85
100
AcDbEntity
  8
_U+30EC_U+30A4_U+30E4_U+30FC 1
 62
   179
420
  2234388
370
    25
  0
POLYLINE
  5
89
330
1F
100
AcDbEntity
  8
_U+30EC_U+30A4_U+30E4_U+30FC 1
 62
   179
420
  2234388
370
    25
100
AcDb2dPolyline
 66
     1
 10
0.0
 20
0.0
 30
0.0
  0
VERTEX
  5
8A
330
89
100
AcDbEntity
  8
_U+30EC_U+30A4_U+30E4_U+30FC 1
 62
   179
420
  2234388
370
    25
100
AcDbVertex
100
AcDb2dVertex
 10
85.13624699466006
 20
-114.3690738602968
 30
0.0
  0
VERTEX
  5
8B
330
89
100
AcDbEntity
  8
_U+30EC_U+30A4_U+30E4_U+30FC 1
 62
   179
420
  2234388
370
    25
100
AcDbVertex
100
AcDb2dVertex
 10
85.13624699466006
 20
-131.3690821893799
 30
0.0
  0
SEQEND
  5
8C
330
89
100
AcDbEntity
  8
_U+30EC_U+30A4_U+30E4_U+30FC 1
 62
   179
420
  2234388
370
    25
  0
POLYLINE
  5
8D
330
1F
100
AcDbEntity
  8
_U+30EC_U+30A4_U+30E4_U+30FC 1
 62
   179
420
  2234388
370
    25
100
AcDb2dPolyline
 66
     1
 10
0.0
 20
0.0
 30
0.0
  0
VERTEX
  5
8E
330
8D
100
AcDbEntity
  8
_U+30EC_U+30A4_U+30E4_U+30FC 1
 62
   179
420
  2234388
370
    25
100
AcDbVertex
100
AcDb2dVertex
 10
83.88635535988078
 20
-114.3690738602968
 30
0.0
  0
VERTEX
  5
8F
330
8D
100
AcDbEntity
  8
_U+30EC_U+30A4_U+30E4_U+30FC 1
 62
   179
420
  2234388
370
    25
100
AcDbVertex
100
AcDb2dVertex
 10
85.13624699466006
 20
-114.3690738602968
 30
0.0
  0
SEQEND
  5
90
330
8D
100
AcDbEntity
  8
_U+30EC_U+30A4_U+30E4_U+30FC 1
 62
   179
420
  2234388
370
    25
  0
POLYLINE
  5
91
330
1F
100
AcDbEntity
  8
_U+30EC_U+30A4_U+30E4_U+30FC 1
 62
   179
420
  2234388
370
    25
100
AcDb2dPolyline
 66
     1
 10
0.0
 20
0.0
 30
0.0
  0
VERTEX
  5
92
330
91
100
AcDbEntity
  8
_U+30EC_U+30A4_U+30E4_U+30FC 1
 62
   179
420
  2234388
370
    25
100
AcDbVertex
100
AcDb2dVertex
 10
83.88635535988078
 20
-114.3690738602968
 30
0.0
  0
VERTEX
  5
93
330
91
100
AcDbEntity
  8
_U+30EC_U+30A4_U+30E4_U+30FC 1
 62
   179
420
  2234388
370
    25
100
AcDbVertex
100
AcDb2dVertex
 10
82.88623038539609
 20
-115.3691988600468
 30
0.0
  0
SEQEND
  5
94
330
91
100
AcDbEntity
  8
_U+30EC_U+30A4_U+30E4_U+30FC 1
 62
   179
420
  2234388
370
    25
  0
POLYLINE
  5
95
330
1F
100
AcDbEntity
  8
_U+30EC_U+30A4_U+30E4_U+30FC 1
 62
   179
420
  2234388
370
    25
100
AcDb2dPolyline
 66
     1
 10
0.0
 20
0.0
 30
0.0
  0
VERTEX
  5
96
330
95
100
AcDbEntity
  8
_U+30EC_U+30A4_U+30E4_U+30FC 1
 62
   179
420
  2234388
370
    25
100
AcDbVertex
100
AcDb2dVertex
 10
80.38648239361443
 20
-114.3690738602968
 30
0.0
  0
VERTEX
  5
97
330
95
100
AcDbEntity
  8
_U+30EC_U+30A4_U+30E4_U+30FC 1
 62
   179
420
  2234388
370
    25
100
AcDbVertex
100
AcDb2dVertex
 10
81.38625459033032
 20
-115.3691988600468
 30
0.0
  0
SEQEND
  5
98
330
95
100
AcDbEntity
  8
_U+30EC_U+30A4_U+30E4_U+30FC 1
 62
   179
420
  2234388
370
    25
  0
POLYLINE
  5
99
330
1F
100
AcDbEntity
  8
_U+30EC_U+30A4_U+30E4_U+30FC 1
 62
   179
420
  2234388
370
    25
100
AcDb2dPolyline
 66
     1
 10
0.0
 20
0.0
 30
0.0
  0
VERTEX
  5
9A
330
99
100
AcDbEntity
  8
_U+30EC_U+30A4_U+30E4_U+30FC 1
 62
   179
420
  2234388
370
    25
100
AcDbVertex
100
AcDb2dVertex
 10
104.1362931765952
 20
-131.3690821893799
 30
0.0
  0
VERTEX
  5
9B
330
99
100
AcDbEntity
  8
_U+30EC_U+30A4_U+30E4_U+30FC 1
 62
   179
420
  2234388
370
    25
100
AcDbVertex
100
AcDb2dVertex
 10
104.1362931765952
 20
-132.5693380224131
 30
0.0
  0
SEQEND
  5
9C
330
99
100
AcDbEntity
  8
_U+30EC_U+30A4_U+30E4_U+30FC 1
 62
   179
420
  2234388
370
    25
  0
POLYLINE
  5
9D
330
1F
100
AcDbEntity
  8
_U+30EC_U+30A4_U+30E4_U+30FC 1
 62
   179
420
  2234388
370
    25
100
AcDb2dPolyline
 66
     1
 10
0.0
 20
0.0
 30
0.0
  0
VERTEX
  5
9E
330
9D
100
AcDbEntity
  8
_U+30EC_U+30A4_U+30E4_U+30FC 1
 62
   179
420
  2234388
370
    25
100
AcDbVertex
100
AcDb2dVertex
 10
85.13624699466006
 20
-131.3690821893799
 30
0.0
  0
VERTEX
  5
9F
330
9D
100
AcDbEntity
  8
_U+30EC_U+30A4_U+30E4_U+30FC 1
 62
   179
420
  2234388
370
    25
100
AcDbVertex
100
AcDb2dVertex
 10
93.63632150002731
 20
-131.3690821893799
 30
0.0
  0
SEQEND
  5
A0
330
9D
100
AcDbEntity
  8
_U+30EC_U+30A4_U+30E4_U+30FC 1
 62
   179
420
  2234388
370
    25
  0
POLYLINE
  5
A1
330
1F
100
AcDbEntity
  8
_U+30EC_U+30A4_U+30E4_U+30FC 1
 62
   179
420
  2234388
370
    25
100
AcDb2dPolyline
 66
     1
 10
0.0
 20
0.0
 30
0.0
  0
VERTEX
  5
A2
330
A1
100
AcDbEntity
  8
_U+30EC_U+30A4_U+30E4_U+30FC 1
 62
   179
420
  2234388
370
    25
100
AcDbVertex
100
AcDb2dVertex
 10
94.13620759838527
 20
-131.8692858003661
 30
0.0
  0
VERTEX
  5
A3
330
A1
100
AcDbEntity
  8
_U+30EC_U+30A4_U+30E4_U+30FC 1
 62
   179
420
  2234388
370
    25
100
AcDbVertex
100
AcDb2dVertex
 10
94.63641119673512
 20
-131.3690821893799
 30
0.0
  0
SEQEND
  5
A4
330
A1
100
AcDbEntity
  8
_U+30EC_U+30A4_U+30E4_U+30FC 1
 62
   179
420
  2234388
370
    25
  0
POLYLINE
  5
A5
330
1F
100
AcDbEntity
  8
_U+30EC_U+30A4_U+30E4_U+30FC 1
 62
   179
420
  2234388
370
    25
100
AcDb2dPolyline
 66
     1
 10
0.0
 20
0.0
 30
0.0
  0
VERTEX
  5
A6
330
A5
100
AcDbEntity
  8
_U+30EC_U+30A4_U+30E4_U+30FC 1
 62
   179
420
  2234388
370
    25
100
AcDbVertex
100
AcDb2dVertex
 10
93.63632150002731
 20
-131.3690821893799
 30
0.0
  0
VERTEX
  5
A7
330
A5
100
AcDbEntity
  8
_U+30EC_U+30A4_U+30E4_U+30FC 1
 62
   179
420
  2234388
370
    25
100
AcDbVertex
100
AcDb2dVertex
 10
94.13620759838527
 20
-131.8692858003661
 30
0.0
  0
SEQEND
  5
A8
330
A5
100
AcDbEntity
  8
_U+30EC_U+30A4_U+30E4_U+30FC 1
 62
   179
420
  2234388
370
    25
  0
POLYLINE
  5
A9
330
1F
100
AcDbEntity
  8
_U+30EC_U+30A4_U+30E4_U+30FC 1
 62
   179
420
  2234388
370
    25
100
AcDb2dPolyline
 66
     1
 10
0.0
 20
0.0
 30
0.0
  0
VERTEX
  5
AA
330
A9
100
AcDbEntity
  8
_U+30EC_U+30A4_U+30E4_U+30FC 1
 62
   179
420
  2234388
370
    25
100
AcDbVertex
100
AcDb2dVertex
 10
94.63641119673512
 20
-131.3690821893799
 30
0.0
  0
VERTEX
  5
AB
330
A9
100
AcDbEntity
  8
_U+30EC_U+30A4_U+30E4_U+30FC 1
 62
   179
420
  2234388
370
    25
100
AcDbVertex
100
AcDb2dVertex
 10
104.1362931765952
 20
-131.3690821893799
 30
0.0
  0
SEQEND
  5
AC
330
A9
100
AcDbEntity
  8
_U+30EC_U+30A4_U+30E4_U+30FC 1
 62
   179
420
  2234388
370
    25
  0
POLYLINE
  5
AD
330
1F
100
AcDbEntity
  8
_U+30EC_U+30A4_U+30E4_U+30FC 1
 62
   179
420
  2234388
370
     9
100
AcDb2dPolyline
 66
     1
 10
0.0
 20
0.0
 30
0.0
  0
VERTEX
  5
AE
330
AD
100
AcDbEntity
  8
_U+30EC_U+30A4_U+30E4_U+30FC 1
 62
   179
420
  2234388
370
     9
100
AcDbVertex
100
AcDb2dVertex
 10
94.13620759838527
 20
-129.1504274677123
 30
0.0
  0
VERTEX
  5
AF
330
AD
100
AcDbEntity
  8
_U+30EC_U+30A4_U+30E4_U+30FC 1
 62
   179
420
  2234388
370
     9
100
AcDbVertex
100
AcDb2dVertex
 10
94.13620759838527
 20
-132.2151844113906
 30
0.0
  0
SEQEND
  5
B0
330
AD
100
AcDbEntity
  8
_U+30EC_U+30A4_U+30E4_U+30FC 1
 62
   179
420
  2234388
370
     9
  0
SPLINE
  5
B1
330
1F
100
AcDbEntity
  8
_U+30EC_U+30A4_U+30E4_U+30FC 1
 62
   179
420
  2234388
370
     9
100
AcDbSpline
210
0.0
220
0.0
230
1.0
 70
    11
 71
     3
 72
    17
 73
    13
 74
     0
 42
0.0000000001
 43
0.0000000001
 12
1.0
 22
0.0
 32
0.0
 13
1.0
 23
0.0
 33
0.0
 40
0.0
 40
0.0
 40
0.0
 40
0.0
 40
1.0
 40
1.0
 40
1.0
 40
2.0
 40
2.0
 40
2.0
 40
3.0
 40
3.0
 40
3.0
 40
4.0
 40
4.0
 40
4.0
 40
4.0
 10
93.73623053212177
 20
-127.3691466348244
 30
0.0
 10
93.73623053212177
 20
-127.3136899681714
 30
0.0
 10
93.69142775435505
 20
-127.2688871904051
 30
0.0
 10
93.63632150002731
 20
-127.2688871904051
 30
0.0
 10
93.58118233476736
 20
-127.2688871904051
 30
0.0
 10
93.53641483590947
 20
-127.3136899681714
 30
0.0
 10
93.53641483590947
 20
-127.3691466348244
 30
0.0
 10
93.53641483590947
 20
-127.4242505236994
 30
0.0
 10
93.58118233476736
 20
-127.4690533014661
 30
0.0
 10
93.63632150002731
 20
-127.4690533014661
 30
0.0
 10
93.69142775435505
 20
-127.4690533014661
 30
0.0
 10
93.73623053212177
 20
-127.4242505236994
 30
0.0
 10
93.73623053212177
 20
-127.3691466348244
 30
0.0
  0
SPLINE
  5
B2
330
1F
100
AcDbEntity
  8
_U+30EC_U+30A4_U+30E4_U+30FC 1
 62
   179
420
  2234388
370
     9
100
AcDbSpline
210
0.0
220
0.0
230
1.0
 70
    11
 71
     3
 72
    17
 73
    13
 74
     0
 42
0.0000000001
 43
0.0000000001
 12
1.0
 22
0.0
 32
0.0
 13
1.0
 23
0.0
 33
0.0
 40
0.0
 40
0.0
 40
0.0
 40
0.0
 40
1.0
 40
1.0
 40
1.0
 40
2.0
 40
2.0
 40
2.0
 40
3.0
 40
3.0
 40
3.0
 40
4.0
 40
4.0
 40
4.0
 40
4.0
 10
94.73631786085295
 20
-127.3691466348244
 30
0.0
 10
94.73631786085295
 20
-127.3136899681714
 30
0.0
 10
94.6915527541047
 20
-127.2688871904051
 30
0.0
 10
94.63641119673512
 20
-127.2688871904051
 30
0.0
 10
94.58095453148327
 20
-127.2688871904051
 30
0.0
 10
94.53618703262538
 20
-127.3136899681714
 30
0.0
 10
94.53618703262538
 20
-127.3691466348244
 30
0.0
 10
94.53618703262538
 20
-127.4242505236994
 30
0.0
 10
94.58095453148327
 20
-127.4690533014661
 30
0.0
 10
94.63641119673512
 20
-127.4690533014661
 30
0.0
 10
94.6915527541047
 20
-127.4690533014661
 30
0.0
 10
94.73631786085295
 20
-127.4242505236994
 30
0.0
 10
94.73631786085295
 20
-127.3691466348244
 30
0.0
  0
SPLINE
  5
B3
330
1F
100
AcDbEntity
  8
_U+30EC_U+30A4_U+30E4_U+30FC 1
 62
   179
420
  2234388
370
     9
100
AcDbSpline
210
0.0
220
0.0
230
1.0
 70
    11
 71
     3
 72
    17
 73
    13
 74
     0
 42
0.0000000001
 43
0.0000000001
 12
1.0
 22
0.0
 32
0.0
 13
1.0
 23
0.0
 33
0.0
 40
0.0
 40
0.0
 40
0.0
 40
0.0
 40
1.0
 40
1.0
 40
1.0
 40
2.0
 40
2.0
 40
2.0
 40
3.0
 40
3.0
 40
3.0
 40
4.0
 40
4.0
 40
4.0
 40
4.0
 10
108.2362764053292
 20
-132.5693380224131
 30
0.0
 10
108.2362764053292
 20
-132.5135285779826
 30
0.0
 10
108.1915089064713
 20
-132.4687610779941
 30
0.0
 10
108.1363697412114
 20
-132.4687610779941
 30
0.0
 10
108.0809130759595
 20
-132.4687610779941
 30
0.0
 10
108.0361102993248
 20
-132.5135285779826
 30
0.0
 10
108.0361102993248
 20
-132.5693380224131
 30
0.0
 10
108.0361102993248
 20
-132.6244771890661
 30
0.0
 10
108.0809130759595
 20
-132.6692446890547
 30
0.0
 10
108.1363697412114
 20
-132.6692446890547
 30
0.0
 10
108.1915089064713
 20
-132.6692446890547
 30
0.0
 10
108.2362764053292
 20
-132.6244771890661
 30
0.0
 10
108.2362764053292
 20
-132.5693380224131
 30
0.0
  0
SPLINE
  5
B4
330
1F
100
AcDbEntity
  8
_U+30EC_U+30A4_U+30E4_U+30FC 1
 62
   179
420
  2234388
370
     9
100
AcDbSpline
210
0.0
220
0.0
230
1.0
 70
    11
 71
     3
 72
    17
 73
    13
 74
     0
 42
0.0000000001
 43
0.0000000001
 12
1.0
 22
0.0
 32
0.0
 13
1.0
 23
0.0
 33
0.0
 40
0.0
 40
0.0
 40
0.0
 40
0.0
 40
1.0
 40
1.0
 40
1.0
 40
2.0
 40
2.0
 40
2.0
 40
3.0
 40
3.0
 40
3.0
 40
4.0
 40
4.0
 40
4.0
 40
4.0
 10
108.2362764053292
 20
-131.3690821893799
 30
0.0
 10
108.2362764053292
 20
-131.3139430227268
 30
0.0
 10
108.1915089064713
 20
-131.2691755227383
 30
0.0
 10
108.1363697412114
 20
-131.2691755227383
 30
0.0
 10
108.0809130759595
 20
-131.2691755227383
 30
0.0
 10
108.0361102993248
 20
-131.3139430227268
 30
0.0
 10
108.0361102993248
 20
-131.3690821893799
 30
0.0
 10
108.0361102993248
 20
-131.4241860782548
 30
0.0
 10
108.0809130759595
 20
-131.4689888560215
 30
0.0
 10
108.1363697412114
 20
-131.4689888560215
 30
0.0
 10
108.1915089064713
 20
-131.4689888560215
 30
0.0
 10
108.2362764053292
 20
-131.4241860782548
 30
0.0
 10
108.2362764053292
 20
-131.3690821893799
 30
0.0
  0
SPLINE
  5
B5
330
1F
100
AcDbEntity
  8
_U+30EC_U+30A4_U+30E4_U+30FC 1
 62
   179
420
  2234388
370
     9
100
AcDbSpline
210
0.0
220
0.0
230
1.0
 70
    11
 71
     3
 72
    17
 73
    13
 74
     0
 42
0.0000000001
 43
0.0000000001
 12
1.0
 22
0.0
 32
0.0
 13
1.0
 23
0.0
 33
0.0
 40
0.0
 40
0.0
 40
0.0
 40
0.0
 40
1.0
 40
1.0
 40
1.0
 40
2.0
 40
2.0
 40
2.0
 40
3.0
 40
3.0
 40
3.0
 40
4.0
 40
4.0
 40
4.0
 40
4.0
 10
104.236199840713
 20
-136.56909718808
 30
0.0
 10
104.236199840713
 20
-136.513993299205
 30
0.0
 10
104.1913970640782
 20
-136.4691905214383
 30
0.0
 10
104.1362931765952
 20
-136.4691905214383
 30
0.0
 10
104.0811540113352
 20
-136.4691905214383
 30
0.0
 10
104.0363865124773
 20
-136.513993299205
 30
0.0
 10
104.0363865124773
 20
-136.56909718808
 30
0.0
 10
104.0363865124773
 20
-136.624236354733
 30
0.0
 10
104.0811540113352
 20
-136.6690038547216
 30
0.0
 10
104.1362931765952
 20
-136.6690038547216
 30
0.0
 10
104.1913970640782
 20
-136.6690038547216
 30
0.0
 10
104.236199840713
 20
-136.624236354733
 30
0.0
 10
104.236199840713
 20
-136.56909718808
 30
0.0
  0
SPLINE
  5
B6
330
1F
100
AcDbEntity
  8
_U+30EC_U+30A4_U+30E4_U+30FC 1
 62
   179
420
  2234388
370
     9
100
AcDbSpline
210
0.0
220
0.0
230
1.0
 70
    11
 71
     3
 72
    17
 73
    13
 74
     0
 42
0.0000000001
 43
0.0000000001
 12
1.0
 22
0.0
 32
0.0
 13
1.0
 23
0.0
 33
0.0
 40
0.0
 40
0.0
 40
0.0
 40
0.0
 40
1.0
 40
1.0
 40
1.0
 40
2.0
 40
2.0
 40
2.0
 40
3.0
 40
3.0
 40
3.0
 40
4.0
 40
4.0
 40
4.0
 40
4.0
 10
94.23646942088547
 20
-136.56909718808
 30
0.0
 10
94.23646942088547
 20
-136.513993299205
 30
0.0
 10
94.19166664311875
 20
-136.4691905214383
 30
0.0
 10
94.13620759838527
 20
-136.4691905214383
 30
0.0
 10
94.08106843312531
 20
-136.4691905214383
 30
0.0
 10
94.03630093426743
 20
-136.513993299205
 30
0.0
 10
94.03630093426743
 20
-136.56909718808
 30
0.0
 10
94.03630093426743
 20
-136.624236354733
 30
0.0
 10
94.08106843312531
 20
-136.6690038547216
 30
0.0
 10
94.13620759838527
 20
-136.6690038547216
 30
0.0
 10
94.19166664311875
 20
-136.6690038547216
 30
0.0
 10
94.23646942088547
 20
-136.624236354733
 30
0.0
 10
94.23646942088547
 20
-136.56909718808
 30
0.0
  0
SPLINE
  5
B7
330
1F
100
AcDbEntity
  8
_U+30EC_U+30A4_U+30E4_U+30FC 1
 62
   179
420
  2234388
370
     9
100
AcDbSpline
210
0.0
220
0.0
230
1.0
 70
    11
 71
     3
 72
    17
 73
    13
 74
     0
 42
0.0000000001
 43
0.0000000001
 12
1.0
 22
0.0
 32
0.0
 13
1.0
 23
0.0
 33
0.0
 40
0.0
 40
0.0
 40
0.0
 40
0.0
 40
1.0
 40
1.0
 40
1.0
 40
2.0
 40
2.0
 40
2.0
 40
3.0
 40
3.0
 40
3.0
 40
4.0
 40
4.0
 40
4.0
 40
4.0
 10
104.236199840713
 20
-140.5688563537468
 30
0.0
 10
104.236199840713
 20
-140.5137171870938
 30
0.0
 10
104.1913970640782
 20
-140.4689496871052
 30
0.0
 10
104.1362931765952
 20
-140.4689496871052
 30
0.0
 10
104.0811540113352
 20
-140.4689496871052
 30
0.0
 10
104.0363865124773
 20
-140.5137171870938
 30
0.0
 10
104.0363865124773
 20
-140.5688563537468
 30
0.0
 10
104.0363865124773
 20
-140.6239602426218
 30
0.0
 10
104.0811540113352
 20
-140.6687630203885
 30
0.0
 10
104.1362931765952
 20
-140.6687630203885
 30
0.0
 10
104.1913970640782
 20
-140.6687630203885
 30
0.0
 10
104.236199840713
 20
-140.6239602426218
 30
0.0
 10
104.236199840713
 20
-140.5688563537468
 30
0.0
  0
SPLINE
  5
B8
330
1F
100
AcDbEntity
  8
_U+30EC_U+30A4_U+30E4_U+30FC 1
 62
   179
420
  2234388
370
     9
100
AcDbSpline
210
0.0
220
0.0
230
1.0
 70
    11
 71
     3
 72
    17
 73
    13
 74
     0
 42
0.0000000001
 43
0.0000000001
 12
1.0
 22
0.0
 32
0.0
 13
1.0
 23
0.0
 33
0.0
 40
0.0
 40
0.0
 40
0.0
 40
0.0
 40
1.0
 40
1.0
 40
1.0
 40
2.0
 40
2.0
 40
2.0
 40
3.0
 40
3.0
 40
3.0
 40
4.0
 40
4.0
 40
4.0
 40
4.0
 10
79.23649742295298
 20
-140.5688563537468
 30
0.0
 10
79.23649742295298
 20
-140.5137171870938
 30
0.0
 10
79.1917299240951
 20
-140.4689496871052
 30
0.0
 10
79.13623798106637
 20
-140.4689496871052
 30
0.0
 10
79.08113609134097
 20
-140.4689496871052
 30
0.0
 10
79.03633331357425
 20
-140.5137171870938
 30
0.0
 10
79.03633331357425
 20
-140.5688563537468
 30
0.0
 10
79.03633331357425
 20
-140.6239602426218
 30
0.0
 10
79.08113609134097
 20
-140.6687630203885
 30
0.0
 10
79.13623798106637
 20
-140.6687630203885
 30
0.0
 10
79.1917299240951
 20
-140.6687630203885
 30
0.0
 10
79.23649742295298
 20
-140.6239602426218
 30
0.0
 10
79.23649742295298
 20
-140.5688563537468
 30
0.0
  0
SPLINE
  5
B9
330
1F
100
AcDbEntity
  8
_U+30EC_U+30A4_U+30E4_U+30FC 1
 62
   179
420
  2234388
370
     9
100
AcDbSpline
210
0.0
220
0.0
230
1.0
 70
    11
 71
     3
 72
    17
 73
    13
 74
     0
 42
0.0000000001
 43
0.0000000001
 12
1.0
 22
0.0
 32
0.0
 13
1.0
 23
0.0
 33
0.0
 40
0.0
 40
0.0
 40
0.0
 40
0.0
 40
1.0
 40
1.0
 40
1.0
 40
2.0
 40
2.0
 40
2.0
 40
3.0
 40
3.0
 40
3.0
 40
4.0
 40
4.0
 40
4.0
 40
4.0
 10
76.3471083142467
 20
-132.5693380224131
 30
0.0
 10
76.3471083142467
 20
-132.5135285779826
 30
0.0
 10
76.30230553647996
 20
-132.4687610779941
 30
0.0
 10
76.24719972143855
 20
-132.4687610779941
 30
0.0
 10
76.19206055617859
 20
-132.4687610779941
 30
0.0
 10
76.14729305732071
 20
-132.5135285779826
 30
0.0
 10
76.14729305732071
 20
-132.5693380224131
 30
0.0
 10
76.14729305732071
 20
-132.6244771890661
 30
0.0
 10
76.19206055617859
 20
-132.6692446890547
 30
0.0
 10
76.24719972143855
 20
-132.6692446890547
 30
0.0
 10
76.30230553647996
 20
-132.6692446890547
 30
0.0
 10
76.3471083142467
 20
-132.6244771890661
 30
0.0
 10
76.3471083142467
 20
-132.5693380224131
 30
0.0
  0
SPLINE
  5
BA
330
1F
100
AcDbEntity
  8
_U+30EC_U+30A4_U+30E4_U+30FC 1
 62
   179
420
  2234388
370
     9
100
AcDbSpline
210
0.0
220
0.0
230
1.0
 70
    11
 71
     3
 72
    17
 73
    13
 74
     0
 42
0.0000000001
 43
0.0000000001
 12
1.0
 22
0.0
 32
0.0
 13
1.0
 23
0.0
 33
0.0
 40
0.0
 40
0.0
 40
0.0
 40
0.0
 40
1.0
 40
1.0
 40
1.0
 40
2.0
 40
2.0
 40
2.0
 40
3.0
 40
3.0
 40
3.0
 40
4.0
 40
4.0
 40
4.0
 40
4.0
 10
76.3471083142467
 20
-114.3690738602968
 30
0.0
 10
76.3471083142467
 20
-114.3139699714215
 30
0.0
 10
76.30230553647996
 20
-114.2691671936548
 30
0.0
 10
76.24719972143855
 20
-114.2691671936548
 30
0.0
 10
76.19206055617859
 20
-114.2691671936548
 30
0.0
 10
76.14729305732071
 20
-114.3139699714215
 30
0.0
 10
76.14729305732071
 20
-114.3690738602968
 30
0.0
 10
76.14729305732071
 20
-114.4242130269495
 30
0.0
 10
76.19206055617859
 20
-114.4689805269384
 30
0.0
 10
76.24719972143855
 20
-114.4689805269384
 30
0.0
 10
76.30230553647996
 20
-114.4689805269384
 30
0.0
 10
76.3471083142467
 20
-114.4242130269495
 30
0.0
 10
76.3471083142467
 20
-114.3690738602968
 30
0.0
  0
POLYLINE
  5
BB
330
1F
100
AcDbEntity
  8
_U+30EC_U+30A4_U+30E4_U+30FC 1
 62
   179
420
  2234388
370
     9
100
AcDb2dPolyline
 66
     1
 10
0.0
 20
0.0
 30
0.0
  0
VERTEX
  5
BC
330
BB
100
AcDbEntity
  8
_U+30EC_U+30A4_U+30E4_U+30FC 1
 62
   179
420
  2234388
370
     9
100
AcDbVertex
100
AcDb2dVertex
 10
108.1363697412114
 20
-131.3690821893799
 30
0.0
  0
VERTEX
  5
BD
330
BB
100
AcDbEntity
  8
_U+30EC_U+30A4_U+30E4_U+30FC 1
 62
   179
420
  2234388
370
     9
100
AcDbVertex
100
AcDb2dVertex
 10
108.1363697412114
 20
-126.1113527462499
 30
0.0
  0
SEQEND
  5
BE
330
BB
100
AcDbEntity
  8
_U+30EC_U+30A4_U+30E4_U+30FC 1
 62
   179
420
  2234388
370
     9
  0
POLYLINE
  5
BF
330
1F
100
AcDbEntity
  8
_U+30EC_U+30A4_U+30E4_U+30FC 1
 62
   179
420
  2234388
370
     9
100
AcDb2dPolyline
 66
     1
 10
0.0
 20
0.0
 30
0.0
  0
VERTEX
  5
C0
330
BF
100
AcDbEntity
  8
_U+30EC_U+30A4_U+30E4_U+30FC 1
 62
   179
420
  2234388
370
     9
100
AcDbVertex
100
AcDb2dVertex
 10
108.1363697412114
 20
-131.3690821893799
 30
0.0
  0
VERTEX
  5
C1
330
BF
100
AcDbEntity
  8
_U+30EC_U+30A4_U+30E4_U+30FC 1
 62
   179
420
  2234388
370
     9
100
AcDbVertex
100
AcDb2dVertex
 10
108.1363697412114
 20
-133.5691102443856
 30
0.0
  0
SEQEND
  5
C2
330
BF
100
AcDbEntity
  8
_U+30EC_U+30A4_U+30E4_U+30FC 1
 62
   179
420
  2234388
370
     9
  0
POLYLINE
  5
C3
330
1F
100
AcDbEntity
  8
_U+30EC_U+30A4_U+30E4_U+30FC 1
 62
   179
420
  2234388
370
     9
100
AcDb2dPolyline
 66
     1
 10
0.0
 20
0.0
 30
0.0
  0
VERTEX
  5
C4
330
C3
100
AcDbEntity
  8
_U+30EC_U+30A4_U+30E4_U+30FC 1
 62
   179
420
  2234388
370
     9
100
AcDbVertex
100
AcDb2dVertex
 10
106.6763283895712
 20
-131.3690821893799
 30
0.0
  0
VERTEX
  5
C5
330
C3
100
AcDbEntity
  8
_U+30EC_U+30A4_U+30E4_U+30FC 1
 62
   179
420
  2234388
370
     9
100
AcDbVertex
100
AcDb2dVertex
 10
109.1361419379273
 20
-131.3690821893799
 30
0.0
  0
SEQEND
  5
C6
330
C3
100
AcDbEntity
  8
_U+30EC_U+30A4_U+30E4_U+30FC 1
 62
   179
420
  2234388
370
     9
  0
POLYLINE
  5
C7
330
1F
100
AcDbEntity
  8
_U+30EC_U+30A4_U+30E4_U+30FC 1
 62
   179
420
  2234388
370
     9
100
AcDb2dPolyline
 66
     1
 10
0.0
 20
0.0
 30
0.0
  0
VERTEX
  5
C8
330
C7
100
AcDbEntity
  8
_U+30EC_U+30A4_U+30E4_U+30FC 1
 62
   179
420
  2234388
370
     9
100
AcDbVertex
100
AcDb2dVertex
 10
106.6763283895712
 20
-132.5693380224131
 30
0.0
  0
VERTEX
  5
C9
330
C7
100
AcDbEntity
  8
_U+30EC_U+30A4_U+30E4_U+30FC 1
 62
   179
420
  2234388
370
     9
100
AcDbVertex
100
AcDb2dVertex
 10
109.1361419379273
 20
-132.5693380224131
 30
0.0
  0
SEQEND
  5
CA
330
C7
100
AcDbEntity
  8
_U+30EC_U+30A4_U+30E4_U+30FC 1
 62
   179
420
  2234388
370
     9
  0
INSERT
  5
CC
330
1F
100
AcDbEntity
  8
_U+30EC_U+30A4_U+30E4_U+30FC 1
100
AcDbBlockReference
  2
block 2
 10
0.0
 20
0.0
 30
0.0
  0
POLYLINE
  5
DB
330
1F
100
AcDbEntity
  8
_U+30EC_U+30A4_U+30E4_U+30FC 1
 62
   179
420
  2234388
370
     9
100
AcDb2dPolyline
 66
     1
 10
0.0
 20
0.0
 30
0.0
  0
VERTEX
  5
DC
330
DB
100
AcDbEntity
  8
_U+30EC_U+30A4_U+30E4_U+30FC 1
 62
   179
420
  2234388
370
     9
100
AcDbVertex
100
AcDb2dVertex
 10
95.63618339345102
 20
-127.3691466348244
 30
0.0
  0
VERTEX
  5
DD
330
DB
100
AcDbEntity
  8
_U+30EC_U+30A4_U+30E4_U+30FC 1
 62
   179
420
  2234388
370
     9
100
AcDbVertex
100
AcDb2dVertex
 10
92.63619652554263
 20
-127.3691466348244
 30
0.0
  0
SEQEND
  5
DE
330
DB
100
AcDbEntity
  8
_U+30EC_U+30A4_U+30E4_U+30FC 1
 62
   179
420
  2234388
370
     9
  0
POLYLINE
  5
DF
330
1F
100
AcDbEntity
  8
_U+30EC_U+30A4_U+30E4_U+30FC 1
 62
   179
420
  2234388
370
     9
100
AcDb2dPolyline
 66
     1
 10
0.0
 20
0.0
 30
0.0
  0
VERTEX
  5
E0
330
DF
100
AcDbEntity
  8
_U+30EC_U+30A4_U+30E4_U+30FC 1
 62
   179
420
  2234388
370
     9
100
AcDbVertex
100
AcDb2dVertex
 10
94.63641119673512
 20
-128.8293291344592
 30
0.0
  0
VERTEX
  5
E1
330
DF
100
AcDbEntity
  8
_U+30EC_U+30A4_U+30E4_U+30FC 1
 62
   179
420
  2234388
370
     9
100
AcDbVertex
100
AcDb2dVertex
 10
94.63641119673512
 20
-126.3690216350745
 30
0.0
  0
SEQEND
  5
E2
330
DF
100
AcDbEntity
  8
_U+30EC_U+30A4_U+30E4_U+30FC 1
 62
   179
420
  2234388
370
     9
  0
POLYLINE
  5
E3
330
1F
100
AcDbEntity
  8
_U+30EC_U+30A4_U+30E4_U+30FC 1
 62
   179
420
  2234388
370
     9
100
AcDb2dPolyline
 66
     1
 10
0.0
 20
0.0
 30
0.0
  0
VERTEX
  5
E4
330
E3
100
AcDbEntity
  8
_U+30EC_U+30A4_U+30E4_U+30FC 1
 62
   179
420
  2234388
370
     9
100
AcDbVertex
100
AcDb2dVertex
 10
93.63632150002731
 20
-128.8293291344592
 30
0.0
  0
VERTEX
  5
E5
330
E3
100
AcDbEntity
  8
_U+30EC_U+30A4_U+30E4_U+30FC 1
 62
   179
420
  2234388
370
     9
100
AcDbVertex
100
AcDb2dVertex
 10
93.63632150002731
 20
-126.3690216350745
 30
0.0
  0
SEQEND
  5
E6
330
E3
100
AcDbEntity
  8
_U+30EC_U+30A4_U+30E4_U+30FC 1
 62
   179
420
  2234388
370
     9
  0
INSERT
  5
E8
330
1F
100
AcDbEntity
  8
_U+30EC_U+30A4_U+30E4_U+30FC 1
100
AcDbBlockReference
  2
block 3
 10
0.0
 20
0.0
 30
0.0
  0
POLYLINE
  5
ED
330
1F
100
AcDbEntity
  8
_U+30EC_U+30A4_U+30E4_U+30FC 1
 62
   179
420
  2234388
370
     9
100
AcDb2dPolyline
 66
     1
 10
0.0
 20
0.0
 30
0.0
  0
VERTEX
  5
EE
330
ED
100
AcDbEntity
  8
_U+30EC_U+30A4_U+30E4_U+30FC 1
 62
   179
420
  2234388
370
     9
100
AcDbVertex
100
AcDb2dVertex
 10
104.1362931765952
 20
-136.56909718808
 30
0.0
  0
VERTEX
  5
EF
330
ED
100
AcDbEntity
  8
_U+30EC_U+30A4_U+30E4_U+30FC 1
 62
   179
420
  2234388
370
     9
100
AcDbVertex
100
AcDb2dVertex
 10
94.13620759838527
 20
-136.56909718808
 30
0.0
  0
SEQEND
  5
F0
330
ED
100
AcDbEntity
  8
_U+30EC_U+30A4_U+30E4_U+30FC 1
 62
   179
420
  2234388
370
     9
  0
POLYLINE
  5
F1
330
1F
100
AcDbEntity
  8
_U+30EC_U+30A4_U+30E4_U+30FC 1
 62
   179
420
  2234388
370
     9
100
AcDb2dPolyline
 66
     1
 10
0.0
 20
0.0
 30
0.0
  0
VERTEX
  5
F2
330
F1
100
AcDbEntity
  8
_U+30EC_U+30A4_U+30E4_U+30FC 1
 62
   179
420
  2234388
370
     9
100
AcDbVertex
100
AcDb2dVertex
 10
104.1362931765952
 20
-135.1090557995562
 30
0.0
  0
VERTEX
  5
F3
330
F1
100
AcDbEntity
  8
_U+30EC_U+30A4_U+30E4_U+30FC 1
 62
   179
420
  2234388
370
     9
100
AcDbVertex
100
AcDb2dVertex
 10
104.1362931765952
 20
-137.5688694100525
 30
0.0
  0
SEQEND
  5
F4
330
F1
100
AcDbEntity
  8
_U+30EC_U+30A4_U+30E4_U+30FC 1
 62
   179
420
  2234388
370
     9
  0
POLYLINE
  5
F5
330
1F
100
AcDbEntity
  8
_U+30EC_U+30A4_U+30E4_U+30FC 1
 62
   179
420
  2234388
370
     9
100
AcDb2dPolyline
 66
     1
 10
0.0
 20
0.0
 30
0.0
  0
VERTEX
  5
F6
330
F5
100
AcDbEntity
  8
_U+30EC_U+30A4_U+30E4_U+30FC 1
 62
   179
420
  2234388
370
     9
100
AcDbVertex
100
AcDb2dVertex
 10
94.13620759838527
 20
-134.4090388552868
 30
0.0
  0
VERTEX
  5
F7
330
F5
100
AcDbEntity
  8
_U+30EC_U+30A4_U+30E4_U+30FC 1
 62
   179
420
  2234388
370
     9
100
AcDbVertex
100
AcDb2dVertex
 10
94.13620759838527
 20
-137.5688694100525
 30
0.0
  0
SEQEND
  5
F8
330
F5
100
AcDbEntity
  8
_U+30EC_U+30A4_U+30E4_U+30FC 1
 62
   179
420
  2234388
370
     9
  0
INSERT
  5
FA
330
1F
100
AcDbEntity
  8
_U+30EC_U+30A4_U+30E4_U+30FC 1
100
AcDbBlockReference
  2
block 4
 10
0.0
 20
0.0
 30
0.0
  0
POLYLINE
  5
102
330
1F
100
AcDbEntity
  8
_U+30EC_U+30A4_U+30E4_U+30FC 1
 62
   179
420
  2234388
370
     9
100
AcDb2dPolyline
 66
     1
 10
0.0
 20
0.0
 30
0.0
  0
VERTEX
  5
103
330
102
100
AcDbEntity
  8
_U+30EC_U+30A4_U+30E4_U+30FC 1
 62
   179
420
  2234388
370
     9
100
AcDbVertex
100
AcDb2dVertex
 10
104.1362931765952
 20
-140.5688563537468
 30
0.0
  0
VERTEX
  5
104
330
102
100
AcDbEntity
  8
_U+30EC_U+30A4_U+30E4_U+30FC 1
 62
   179
420
  2234388
370
     9
100
AcDbVertex
100
AcDb2dVertex
 10
79.13623798106637
 20
-140.5688563537468
 30
0.0
  0
SEQEND
  5
105
330
102
100
AcDbEntity
  8
_U+30EC_U+30A4_U+30E4_U+30FC 1
 62
   179
420
  2234388
370
     9
  0
POLYLINE
  5
106
330
1F
100
AcDbEntity
  8
_U+30EC_U+30A4_U+30E4_U+30FC 1
 62
   179
420
  2234388
370
     9
100
AcDb2dPolyline
 66
     1
 10
0.0
 20
0.0
 30
0.0
  0
VERTEX
  5
107
330
106
100
AcDbEntity
  8
_U+30EC_U+30A4_U+30E4_U+30FC 1
 62
   179
420
  2234388
370
     9
100
AcDbVertex
100
AcDb2dVertex
 10
104.1362931765952
 20
-135.1090557995562
 30
0.0
  0
VERTEX
  5
108
330
106
100
AcDbEntity
  8
_U+30EC_U+30A4_U+30E4_U+30FC 1
 62
   179
420
  2234388
370
     9
100
AcDbVertex
100
AcDb2dVertex
 10
104.1362931765952
 20
-141.5692988534967
 30
0.0
  0
SEQEND
  5
109
330
106
100
AcDbEntity
  8
_U+30EC_U+30A4_U+30E4_U+30FC 1
 62
   179
420
  2234388
370
     9
  0
POLYLINE
  5
10A
330
1F
100
AcDbEntity
  8
_U+30EC_U+30A4_U+30E4_U+30FC 1
 62
   179
420
  2234388
370
     9
100
AcDb2dPolyline
 66
     1
 10
0.0
 20
0.0
 30
0.0
  0
VERTEX
  5
10B
330
10A
100
AcDbEntity
  8
_U+30EC_U+30A4_U+30E4_U+30FC 1
 62
   179
420
  2234388
370
     9
100
AcDbVertex
100
AcDb2dVertex
 10
79.13623798106637
 20
-135.1090557995562
 30
0.0
  0
VERTEX
  5
10C
330
10A
100
AcDbEntity
  8
_U+30EC_U+30A4_U+30E4_U+30FC 1
 62
   179
420
  2234388
370
     9
100
AcDbVertex
100
AcDb2dVertex
 10
79.13623798106637
 20
-141.5692988534967
 30
0.0
  0
SEQEND
  5
10D
330
10A
100
AcDbEntity
  8
_U+30EC_U+30A4_U+30E4_U+30FC 1
 62
   179
420
  2234388
370
     9
  0
INSERT
  5
10F
330
1F
100
AcDbEntity
  8
_U+30EC_U+30A4_U+30E4_U+30FC 1
100
AcDbBlockReference
  2
block 5
 10
0.0
 20
0.0
 30
0.0
  0
POLYLINE
  5
116
330
1F
100
AcDbEntity
  8
_U+30EC_U+30A4_U+30E4_U+30FC 1
 62
   179
420
  2234388
370
     9
100
AcDb2dPolyline
 66
     1
 10
0.0
 20
0.0
 30
0.0
  0
VERTEX
  5
117
330
116
100
AcDbEntity
  8
_U+30EC_U+30A4_U+30E4_U+30FC 1
 62
   179
420
  2234388
370
     9
100
AcDbVertex
100
AcDb2dVertex
 10
76.24719972143855
 20
-114.3690738602968
 30
0.0
  0
VERTEX
  5
118
330
116
100
AcDbEntity
  8
_U+30EC_U+30A4_U+30E4_U+30FC 1
 62
   179
420
  2234388
370
     9
100
AcDbVertex
100
AcDb2dVertex
 10
76.24719972143855
 20
-132.5693380224131
 30
0.0
  0
SEQEND
  5
119
330
116
100
AcDbEntity
  8
_U+30EC_U+30A4_U+30E4_U+30FC 1
 62
   179
420
  2234388
370
     9
  0
POLYLINE
  5
11A
330
1F
100
AcDbEntity
  8
_U+30EC_U+30A4_U+30E4_U+30FC 1
 62
   179
420
  2234388
370
     9
100
AcDb2dPolyline
 66
     1
 10
0.0
 20
0.0
 30
0.0
  0
VERTEX
  5
11B
330
11A
100
AcDbEntity
  8
_U+30EC_U+30A4_U+30E4_U+30FC 1
 62
   179
420
  2234388
370
     9
100
AcDbVertex
100
AcDb2dVertex
 10
77.70724107307868
 20
-114.3690738602968
 30
0.0
  0
VERTEX
  5
11C
330
11A
100
AcDbEntity
  8
_U+30EC_U+30A4_U+30E4_U+30FC 1
 62
   179
420
  2234388
370
     9
100
AcDbVertex
100
AcDb2dVertex
 10
75.24742752472264
 20
-114.3690738602968
 30
0.0
  0
SEQEND
  5
11D
330
11A
100
AcDbEntity
  8
_U+30EC_U+30A4_U+30E4_U+30FC 1
 62
   179
420
  2234388
370
     9
  0
POLYLINE
  5
11E
330
1F
100
AcDbEntity
  8
_U+30EC_U+30A4_U+30E4_U+30FC 1
 62
   179
420
  2234388
370
     9
100
AcDb2dPolyline
 66
     1
 10
0.0
 20
0.0
 30
0.0
  0
VERTEX
  5
11F
330
11E
100
AcDbEntity
  8
_U+30EC_U+30A4_U+30E4_U+30FC 1
 62
   179
420
  2234388
370
     9
100
AcDbVertex
100
AcDb2dVertex
 10
77.70724107307868
 20
-132.5693380224131
 30
0.0
  0
VERTEX
  5
120
330
11E
100
AcDbEntity
  8
_U+30EC_U+30A4_U+30E4_U+30FC 1
 62
   179
420
  2234388
370
     9
100
AcDbVertex
100
AcDb2dVertex
 10
75.24742752472264
 20
-132.5693380224131
 30
0.0
  0
SEQEND
  5
121
330
11E
100
AcDbEntity
  8
_U+30EC_U+30A4_U+30E4_U+30FC 1
 62
   179
420
  2234388
370
     9
  0
INSERT
  5
123
330
1F
100
AcDbEntity
  8
_U+30EC_U+30A4_U+30E4_U+30FC 1
100
AcDbBlockReference
  2
block 6
 10
0.0
 20
0.0
 30
0.0
  0
ENDSEC
  0
SECTION
  2
OBJECTS
  0
DICTIONARY
  5
C
330
0
100
AcDbDictionary
281
     1
  3
ACAD_GROUP
350
D
  3
ACAD_LAYOUT
350
1A
  3
ACAD_MATERIAL
350
3B
  3
ACAD_MLEADERSTYLE
350
137
  3
ACAD_MLINESTYLE
350
17
  3
ACAD_PLOTSETTINGS
350
19
  3
ACAD_PLOTSTYLENAME
350
E
  3
ACAD_TABLESTYLE
350
136
  3
ACAD_VISUALSTYLE
350
2A
  0
SUN
  5
3F
330
29
100
AcDbSun
 90
        1
290
     0
 63
     7
421
 16777215
 40
1.0
291
     1
 91
  2455826
 92
 54000000
292
     0
 70
     2
 71
   256
280
     1
  0
DICTIONARY
  5
D
102
{ACAD_REACTORS
330
C
102
}
330
C
100
AcDbDictionary
281
     1
  0
DICTIONARY
  5
1A
102
{ACAD_REACTORS
330
C
102
}
330
C
100
AcDbDictionary
281
     1
  3
Layout1
350
1E
  3
Layout2
350
26
  3
Model
350
22
  0
DICTIONARY
  5
3B
102
{ACAD_REACTORS
330
C
102
}
330
C
100
AcDbDictionary
281
     1
  3
ByBlock
350
3D
  3
ByLayer
350
3C
  3
Global
350
3E
  0
DICTIONARY
  5
137
102
{ACAD_REACTORS
330
C
102
}
330
C
100
AcDbDictionary
281
     1
  0
DICTIONARY
  5
17
102
{ACAD_REACTORS
330
C
102
}
330
C
100
AcDbDictionary
281
     1
  3
Standard
350
18
  0
DICTIONARY
  5
19
102
{ACAD_REACTORS
330
C
102
}
330
C
100
AcDbDictionary
281
     1
  0
ACDBDICTIONARYWDFLT
  5
E
102
{ACAD_REACTORS
330
C
102
}
330
C
100
AcDbDictionary
281
     1
  3
Normal
350
F
100
AcDbDictionaryWithDefault
340
F
  0
DICTIONARY
  5
136
102
{ACAD_REACTORS
330
C
102
}
330
C
100
AcDbDictionary
281
     1
  0
DICTIONARY
  5
2A
102
{ACAD_REACTORS
330
C
102
}
330
C
100
AcDbDictionary
281
     1
  3
2dWireframe
350
2F
  3
3D Hidden
350
31
  3
3dWireframe
350
30
  3
Basic
350
32
  3
Brighten
350
36
  3
ColorChange
350
3A
  3
Conceptual
350
34
  3
Dim
350
35
  3
Facepattern
350
39
  3
Flat
350
2B
  3
FlatWithEdges
350
2C
  3
Gouraud
350
2D
  3
GouraudWithEdges
350
2E
  3
Linepattern
350
38
  3
Realistic
350
33
  3
Thicken
350
37
  0
LAYOUT
  5
1E
102
{ACAD_REACTORS
330
1A
102
}
330
1A
100
AcDbPlotSettings
  1

  2
none_device
  4

  6

 40
0.0
 41
0.0
 42
0.0
 43
0.0
 44
0.0
 45
0.0
 46
0.0
 47
0.0
 48
0.0
 49
0.0
140
0.0
141
0.0
142
1.0
143
1.0
 70
   688
 72
     0
 73
     0
 74
     5
  7

 75
    16
 76
     0
 77
     2
 78
   300
147
1.0
148
0.0
149
0.0
100
AcDbLayout
  1
Layout1
 70
     1
 71
     1
 10
0.0
 20
0.0
 11
12.0
 21
9.0
 12
0.0
 22
0.0
 32
0.0
 14
1.000000000000000E+20
 24
1.000000000000000E+20
 34
1.000000000000000E+20
 15
-1.000000000000000E+20
 25
-1.000000000000000E+20
 35
-1.000000000000000E+20
146
0.0
 13
0.0
 23
0.0
 33
0.0
 16
1.0
 26
0.0
 36
0.0
 17
0.0
 27
1.0
 37
0.0
 76
     0
330
1B
  0
LAYOUT
  5
26
102
{ACAD_REACTORS
330
1A
102
}
330
1A
100
AcDbPlotSettings
  1

  2
none_device
  4

  6

 40
0.0
 41
0.0
 42
0.0
 43
0.0
 44
0.0
 45
0.0
 46
0.0
 47
0.0
 48
0.0
 49
0.0
140
0.0
141
0.0
142
1.0
143
1.0
 70
   688
 72
     0
 73
     0
 74
     5
  7

 75
    16
 76
     0
 77
     2
 78
   300
147
1.0
148
0.0
149
0.0
100
AcDbLayout
  1
Layout2
 70
     1
 71
     2
 10
0.0
 20
0.0
 11
0.0
 21
0.0
 12
0.0
 22
0.0
 32
0.0
 14
0.0
 24
0.0
 34
0.0
 15
0.0
 25
0.0
 35
0.0
146
0.0
 13
0.0
 23
0.0
 33
0.0
 16
1.0
 26
0.0
 36
0.0
 17
0.0
 27
1.0
 37
0.0
 76
     0
330
23
  0
LAYOUT
  5
22
102
{ACAD_REACTORS
330
1A
102
}
330
1A
100
AcDbPlotSettings
  1

  2
none_device
  4

  6

 40
0.0
 41
0.0
 42
0.0
 43
0.0
 44
0.0
 45
0.0
 46
0.0
 47
0.0
 48
0.0
 49
0.0
140
0.0
141
0.0
142
1.0
143
1.0
 70
  1712
 72
     0
 73
     0
 74
     0
  7

 75
     0
 76
     0
 77
     2
 78
   300
147
1.0
148
0.0
149
0.0
100
AcDbLayout
  1
Model
 70
     1
 71
     0
 10
0.0
 20
0.0
 11
12.0
 21
9.0
 12
0.0
 22
0.0
 32
0.0
 14
1.000000000000000E+20
 24
1.000000000000000E+20
 34
1.000000000000000E+20
 15
-1.000000000000000E+20
 25
-1.000000000000000E+20
 35
-1.000000000000000E+20
146
0.0
 13
0.0
 23
0.0
 33
0.0
 16
1.0
 26
0.0
 36
0.0
 17
0.0
 27
1.0
 37
0.0
 76
     0
330
1F
331
29
  0
MATERIAL
  5
3D
102
{ACAD_REACTORS
330
3B
102
}
330
3B
100
AcDbMaterial
  1
ByBlock
 72
     1
 94
      127
  0
MATERIAL
  5
3C
102
{ACAD_REACTORS
330
3B
102
}
330
3B
100
AcDbMaterial
  1
ByLayer
 72
     1
 94
      127
  0
MATERIAL
  5
3E
102
{ACAD_REACTORS
330
3B
102
}
330
3B
100
AcDbMaterial
  1
Global
 72
     1
 94
      127
  0
MLINESTYLE
  5
18
102
{ACAD_REACTORS
330
17
102
}
330
17
100
AcDbMlineStyle
  2
Standard
 70
     0
  3

 62
   256
 51
90.0
 52
90.0
 71
     2
 49
0.5
 62
   256
  6
BYLAYER
 49
-0.5
 62
   256
  6
BYLAYER
  0
ACDBPLACEHOLDER
  5
F
102
{ACAD_REACTORS
330
E
102
}
330
E
  0
VISUALSTYLE
  5
2F
102
{ACAD_REACTORS
330
2A
102
}
330
2A
100
AcDbVisualStyle
  2
2dWireframe
 70
     4
177
     2
291
     0
 71
     0
176
     1
 72
     2
176
     1
 73
     0
176
     1
 90
        0
176
     1
 40
-0.6
176
     1
 41
-30.0
176
     1
 62
     5
 63
     7
421
 16777215
176
     1
 74
     1
176
     1
 91
        4
176
     1
 64
     7
176
     1
 65
   257
176
     1
 75
     1
176
     1
175
     1
176
     1
 42
1.0
176
     1
 92
        0
176
     1
 66
   257
176
     1
 43
1.0
176
     1
 76
     1
176
     1
 77
     6
176
     1
 78
     2
176
     1
 67
     7
176
     1
 79
     5
176
     1
170
     0
176
     1
171
     0
176
     1
290
     0
176
     1
 93
        1
176
     1
 44
0.0
176
     1
173
     0
176
     1
  0
VISUALSTYLE
  5
31
102
{ACAD_REACTORS
330
2A
102
}
330
2A
100
AcDbVisualStyle
  2
3D Hidden
 70
     6
177
     2
291
     0
 71
     1
176
     1
 72
     2
176
     1
 73
     2
176
     1
 90
        0
176
     1
 40
-0.6
176
     1
 41
-30.0
176
     1
 62
     5
 63
     7
421
 16777215
176
     1
 74
     2
176
     1
 91
        2
176
     1
 64
     7
176
     1
 65
   257
176
     1
 75
     2
176
     1
175
     1
176
     1
 42
40.0
176
     1
 92
        0
176
     1
 66
   257
176
     1
 43
1.0
176
     1
 76
     1
176
     1
 77
     6
176
     1
 78
     2
176
     1
 67
     7
176
     1
 79
     3
176
     1
170
     0
176
     1
171
     0
176
     1
290
     0
176
     1
 93
        1
176
     1
 44
0.0
176
     1
173
     0
176
     1
  0
VISUALSTYLE
  5
30
102
{ACAD_REACTORS
330
2A
102
}
330
2A
100
AcDbVisualStyle
  2
3dWireframe
 70
     5
177
     2
291
     0
 71
     0
176
     1
 72
     2
176
     1
 73
     0
176
     1
 90
        0
176
     1
 40
-0.6
176
     1
 41
-30.0
176
     1
 62
     5
 63
     7
421
 16777215
176
     1
 74
     1
176
     1
 91
        4
176
     1
 64
     7
176
     1
 65
   257
176
     1
 75
     1
176
     1
175
     1
176
     1
 42
1.0
176
     1
 92
        0
176
     1
 66
   257
176
     1
 43
1.0
176
     1
 76
     1
176
     1
 77
     6
176
     1
 78
     2
176
     1
 67
     7
176
     1
 79
     5
176
     1
170
     0
176
     1
171
     0
176
     1
290
     0
176
     1
 93
        1
176
     1
 44
0.0
176
     1
173
     0
176
     1
  0
VISUALSTYLE
  5
32
102
{ACAD_REACTORS
330
2A
102
}
330
2A
100
AcDbVisualStyle
  2
Basic
 70
     7
177
     2
291
     1
 71
     1
176
     1
 72
     0
176
     1
 73
     1
176
     1
 90
        0
176
     1
 40
-0.6
176
     1
 41
-30.0
176
     1
 62
     5
 63
     7
421
 16777215
176
     1
 74
     0
176
     1
 91
        4
176
     1
 64
     7
176
     1
 65
   257
176
     1
 75
     1
176
     1
175
     1
176
     1
 42
1.0
176
     1
 92
        8
176
     1
 66
     7
176
     1
 43
1.0
176
     1
 76
     1
176
     1
 77
     6
176
     1
 78
     2
176
     1
 67
     7
176
     1
 79
     5
176
     1
170
     0
176
     1
171
     0
176
     1
290
     0
176
     1
 93
        1
176
     1
 44
0.0
176
     1
173
     0
176
     1
  0
VISUALSTYLE
  5
36
102
{ACAD_REACTORS
330
2A
102
}
330
2A
100
AcDbVisualStyle
  2
Brighten
 70
    12
177
     2
291
     1
 71
     2
176
     1
 72
     2
176
     1
 73
     0
176
     1
 90
        0
176
     1
 40
-0.6
176
     1
 41
-30.0
176
     1
 62
     5
 63
     7
421
 16777215
176
     1
 74
     1
176
     1
 91
        4
176
     1
 64
     7
176
     1
 65
   257
176
     1
 75
     1
176
     1
175
     1
176
     1
 42
1.0
176
     1
 92
        8
176
     1
 66
     7
176
     1
 43
1.0
176
     1
 76
     1
176
     1
 77
     6
176
     1
 78
     2
176
     1
 67
     7
176
     1
 79
     5
176
     1
170
     0
176
     1
171
     0
176
     1
290
     0
176
     1
 93
        1
176
     1
 44
50.0
176
     1
173
     0
176
     1
  0
VISUALSTYLE
  5
3A
102
{ACAD_REACTORS
330
2A
102
}
330
2A
100
AcDbVisualStyle
  2
ColorChange
 70
    16
177
     2
291
     1
 71
     2
176
     1
 72
     2
176
     1
 73
     3
176
     1
 90
        0
176
     1
 40
-0.6
176
     1
 41
-30.0
176
     1
 62
     5
 63
     8
421
  8421504
176
     1
 74
     1
176
     1
 91
        4
176
     1
 64
     7
176
     1
 65
   257
176
     1
 75
     1
176
     1
175
     1
176
     1
 42
1.0
176
     1
 92
        8
176
     1
 66
     8
424
  8421504
176
     1
 43
1.0
176
     1
 76
     1
176
     1
 77
     6
176
     1
 78
     2
176
     1
 67
     7
176
     1
 79
     5
176
     1
170
     0
176
     1
171
     0
176
     1
290
     0
176
     1
 93
        1
176
     1
 44
0.0
176
     1
173
     0
176
     1
  0
VISUALSTYLE
  5
34
102
{ACAD_REACTORS
330
2A
102
}
330
2A
100
AcDbVisualStyle
  2
Conceptual
 70
     9
177
     2
291
     0
 71
     3
176
     1
 72
     2
176
     1
 73
     0
176
     1
 90
        0
176
     1
 40
-0.6
176
     1
 41
-30.0
176
     1
 62
     5
 63
     7
421
 16777215
176
     1
 74
     2
176
     1
 91
        2
176
     1
 64
     7
176
     1
 65
   257
176
     1
 75
     1
176
     1
175
     1
176
     1
 42
40.0
176
     1
 92
        8
176
     1
 66
     7
176
     1
 43
1.0
176
     1
 76
     1
176
     1
 77
     6
176
     1
 78
     2
176
     1
 67
     7
176
     1
 79
     3
176
     1
170
     0
176
     1
171
     0
176
     1
290
     0
176
     1
 93
        1
176
     1
 44
0.0
176
     1
173
     0
176
     1
  0
VISUALSTYLE
  5
35
102
{ACAD_REACTORS
330
2A
102
}
330
2A
100
AcDbVisualStyle
  2
Dim
 70
    11
177
     2
291
     1
 71
     2
176
     1
 72
     2
176
     1
 73
     0
176
     1
 90
        0
176
     1
 40
-0.6
176
     1
 41
-30.0
176
     1
 62
     5
 63
     7
421
 16777215
176
     1
 74
     1
176
     1
 91
        4
176
     1
 64
     7
176
     1
 65
   257
176
     1
 75
     1
176
     1
175
     1
176
     1
 42
1.0
176
     1
 92
        8
176
     1
 66
     7
176
     1
 43
1.0
176
     1
 76
     1
176
     1
 77
     6
176
     1
 78
     2
176
     1
 67
     7
176
     1
 79
     5
176
     1
170
     0
176
     1
171
     0
176
     1
290
     0
176
     1
 93
        1
176
     1
 44
-50.0
176
     1
173
     0
176
     1
  0
VISUALSTYLE
  5
39
102
{ACAD_REACTORS
330
2A
102
}
330
2A
100
AcDbVisualStyle
  2
Facepattern
 70
    15
177
     2
291
     1
 71
     2
176
     1
 72
     2
176
     1
 73
     0
176
     1
 90
        0
176
     1
 40
-0.6
176
     1
 41
-30.0
176
     1
 62
     5
 63
     7
421
 16777215
176
     1
 74
     1
176
     1
 91
        4
176
     1
 64
     7
176
     1
 65
   257
176
     1
 75
     1
176
     1
175
     1
176
     1
 42
1.0
176
     1
 92
        8
176
     1
 66
     7
176
     1
 43
1.0
176
     1
 76
     1
176
     1
 77
     6
176
     1
 78
     2
176
     1
 67
     7
176
     1
 79
     5
176
     1
170
     0
176
     1
171
     0
176
     1
290
     0
176
     1
 93
        1
176
     1
 44
0.0
176
     1
173
     0
176
     1
  0
VISUALSTYLE
  5
2B
102
{ACAD_REACTORS
330
2A
102
}
330
2A
100
AcDbVisualStyle
  2
Flat
 70
     0
177
     2
291
     1
 71
     2
176
     1
 72
     1
176
     1
 73
     1
176
     1
 90
        2
176
     1
 40
-0.6
176
     1
 41
30.0
176
     1
 62
     5
 63
     7
421
 16777215
176
     1
 74
     0
176
     1
 91
        4
176
     1
 64
     7
176
     1
 65
   257
176
     1
 75
     1
176
     1
175
     1
176
     1
 42
1.0
176
     1
 92
        8
176
     1
 66
     7
176
     1
 43
1.0
176
     1
 76
     1
176
     1
 77
     6
176
     1
 78
     2
176
     1
 67
     7
176
     1
 79
     5
176
     1
170
     0
176
     1
171
     0
176
     1
290
     0
176
     1
 93
       13
176
     1
 44
0.0
176
     1
173
     0
176
     1
  0
VISUALSTYLE
  5
2C
102
{ACAD_REACTORS
330
2A
102
}
330
2A
100
AcDbVisualStyle
  2
FlatWithEdges
 70
     1
177
     2
291
     1
 71
     2
176
     1
 72
     1
176
     1
 73
     1
176
     1
 90
        2
176
     1
 40
-0.6
176
     1
 41
30.0
176
     1
 62
     5
 63
     7
421
 16777215
176
     1
 74
     1
176
     1
 91
        4
176
     1
 64
     7
176
     1
 65
   257
176
     1
 75
     1
176
     1
175
     1
176
     1
 42
1.0
176
     1
 92
        0
176
     1
 66
   257
176
     1
 43
1.0
176
     1
 76
     1
176
     1
 77
     6
176
     1
 78
     2
176
     1
 67
     7
176
     1
 79
     5
176
     1
170
     0
176
     1
171
     0
176
     1
290
     0
176
     1
 93
       13
176
     1
 44
0.0
176
     1
173
     0
176
     1
  0
VISUALSTYLE
  5
2D
102
{ACAD_REACTORS
330
2A
102
}
330
2A
100
AcDbVisualStyle
  2
Gouraud
 70
     2
177
     2
291
     1
 71
     2
176
     1
 72
     2
176
     1
 73
     1
176
     1
 90
        2
176
     1
 40
-0.6
176
     1
 41
30.0
176
     1
 62
     5
 63
     7
421
 16777215
176
     1
 74
     0
176
     1
 91
        4
176
     1
 64
     7
176
     1
 65
   257
176
     1
 75
     1
176
     1
175
     1
176
     1
 42
1.0
176
     1
 92
        0
176
     1
 66
     7
176
     1
 43
1.0
176
     1
 76
     1
176
     1
 77
     6
176
     1
 78
     2
176
     1
 67
     7
176
     1
 79
     5
176
     1
170
     0
176
     1
171
     0
176
     1
290
     0
176
     1
 93
       13
176
     1
 44
0.0
176
     1
173
     0
176
     1
  0
VISUALSTYLE
  5
2E
102
{ACAD_REACTORS
330
2A
102
}
330
2A
100
AcDbVisualStyle
  2
GouraudWithEdges
 70
     3
177
     2
291
     1
 71
     2
176
     1
 72
     2
176
     1
 73
     1
176
     1
 90
        2
176
     1
 40
-0.6
176
     1
 41
30.0
176
     1
 62
     5
 63
     7
421
 16777215
176
     1
 74
     1
176
     1
 91
        4
176
     1
 64
     7
176
     1
 65
   257
176
     1
 75
     1
176
     1
175
     1
176
     1
 42
1.0
176
     1
 92
        0
176
     1
 66
   257
176
     1
 43
1.0
176
     1
 76
     1
176
     1
 77
     6
176
     1
 78
     2
176
     1
 67
     7
176
     1
 79
     5
176
     1
170
     0
176
     1
171
     0
176
     1
290
     0
176
     1
 93
       13
176
     1
 44
0.0
176
     1
173
     0
176
     1
  0
VISUALSTYLE
  5
38
102
{ACAD_REACTORS
330
2A
102
}
330
2A
100
AcDbVisualStyle
  2
Linepattern
 70
    14
177
     2
291
     1
 71
     2
176
     1
 72
     2
176
     1
 73
     0
176
     1
 90
        0
176
     1
 40
-0.6
176
     1
 41
-30.0
176
     1
 62
     5
 63
     7
421
 16777215
176
     1
 74
     1
176
     1
 91
        4
176
     1
 64
     7
176
     1
 65
   257
176
     1
 75
     7
176
     1
175
     7
176
     1
 42
1.0
176
     1
 92
        8
176
     1
 66
     7
176
     1
 43
1.0
176
     1
 76
     1
176
     1
 77
     6
176
     1
 78
     2
176
     1
 67
     7
176
     1
 79
     5
176
     1
170
     0
176
     1
171
     0
176
     1
290
     0
176
     1
 93
        1
176
     1
 44
0.0
176
     1
173
     0
176
     1
  0
VISUALSTYLE
  5
33
102
{ACAD_REACTORS
330
2A
102
}
330
2A
100
AcDbVisualStyle
  2
Realistic
 70
     8
177
     2
291
     0
 71
     2
176
     1
 72
     2
176
     1
 73
     0
176
     1
 90
        0
176
     1
 40
-0.6
176
     1
 41
-30.0
176
     1
 62
     5
 63
     7
421
 16777215
176
     1
 74
     1
176
     1
 91
        0
176
     1
 64
     7
176
     1
 65
   257
176
     1
 75
     1
176
     1
175
     1
176
     1
 42
1.0
176
     1
 92
        8
176
     1
 66
     8
424
  7895160
176
     1
 43
1.0
176
     1
 76
     1
176
     1
 77
     6
176
     1
 78
     2
176
     1
 67
     7
176
     1
 79
     5
176
     1
170
     0
176
     1
171
     0
176
     1
290
     0
176
     1
 93
       13
176
     1
 44
0.0
176
     1
173
     0
176
     1
  0
VISUALSTYLE
  5
37
102
{ACAD_REACTORS
330
2A
102
}
330
2A
100
AcDbVisualStyle
  2
Thicken
 70
    13
177
     2
291
     1
 71
     2
176
     1
 72
     2
176
     1
 73
     0
176
     1
 90
        0
176
     1
 40
-0.6
176
     1
 41
-30.0
176
     1
 62
     5
 63
     7
421
 16777215
176
     1
 74
     1
176
     1
 91
        4
176
     1
 64
     7
176
     1
 65
   257
176
     1
 75
     1
176
     1
175
     1
176
     1
 42
1.0
176
     1
 92
       12
176
     1
 66
     7
176
     1
 43
1.0
176
     1
 76
     1
176
     1
 77
     6
176
     1
 78
     2
176
     1
 67
     7
176
     1
 79
     5
176
     1
170
     0
176
     1
171
     0
176
     1
290
     0
176
     1
 93
        1
176
     1
 44
0.0
176
     1
173
     0
176
     1
  0
ENDSEC
  0
EOF
