  0
SECTION
  2
HEADER
  9
$ACADVER
  1
AC1024
  9
$ACADMAINTVER
 70
     6
  9
$DWGCODEPAGE
  3
UNDEFINED
  9
$INSBASE
 10
0.0
 20
0.0
 30
0.0
  9
$EXTMIN
 10
1.000000000000000E+20
 20
1.000000000000000E+20
 30
1.000000000000000E+20
  9
$EXTMAX
 10
-1.000000000000000E+20
 20
-1.000000000000000E+20
 30
-1.000000000000000E+20
  9
$LIMMIN
 10
0.0
 20
0.0
  9
$LIMMAX
 10
12.0
 20
9.0
  9
$ORTHOMODE
 70
     0
  9
$REGENMODE
 70
     1
  9
$FILLMODE
 70
     1
  9
$QTEXTMODE
 70
     0
  9
$MIRRTEXT
 70
     1
  9
$LTSCALE
 40
1.0
  9
$ATTMODE
 70
     1
  9
$TEXTSIZE
 40
0.2
  9
$TRACEWID
 40
0.05
  9
$TEXTSTYLE
  7
Standard
  9
$CLAYER
  8
0
  9
$CELTYPE
  6
ByLayer
  9
$CECOLOR
 62
   256
  9
$CELTSCALE
 40
1.0
  9
$DISPSILH
 70
     0
  9
$DIMSCALE
 40
1.0
  9
$DIMASZ
 40
0.18
  9
$DIMEXO
 40
0.0625
  9
$DIMDLI
 40
0.38
  9
$DIMRND
 40
0.0
  9
$DIMDLE
 40
0.0
  9
$DIMEXE
 40
0.18
  9
$DIMTP
 40
0.0
  9
$DIMTM
 40
0.0
  9
$DIMTXT
 40
0.18
  9
$DIMCEN
 40
0.09
  9
$DIMTSZ
 40
0.0
  9
$DIMTOL
 70
     0
  9
$DIMLIM
 70
     0
  9
$DIMTIH
 70
     1
  9
$DIMTOH
 70
     1
  9
$DIMSE1
 70
     0
  9
$DIMSE2
 70
     0
  9
$DIMTAD
 70
     0
  9
$DIMZIN
 70
     0
  9
$DIMBLK
  1

  9
$DIMASO
 70
     1
  9
$DIMSHO
 70
     1
  9
$DIMPOST
  1

  9
$DIMAPOST
  1

  9
$DIMALT
 70
     0
  9
$DIMALTD
 70
     2
  9
$DIMALTF
 40
25.4
  9
$DIMLFAC
 40
1.0
  9
$DIMTOFL
 70
     0
  9
$DIMTVP
 40
0.0
  9
$DIMTIX
 70
     0
  9
$DIMSOXD
 70
     0
  9
$DIMSAH
 70
     0
  9
$DIMBLK1
  1

  9
$DIMBLK2
  1

  9
$DIMSTYLE
  2
Standard
  9
$DIMCLRD
 70
     0
  9
$DIMCLRE
 70
     0
  9
$DIMCLRT
 70
     0
  9
$DIMTFAC
 40
1.0
  9
$DIMGAP
 40
0.09
  9
$DIMJUST
 70
     0
  9
$DIMSD1
 70
     0
  9
$DIMSD2
 70
     0
  9
$DIMTOLJ
 70
     1
  9
$DIMTZIN
 70
     0
  9
$DIMALTZ
 70
     0
  9
$DIMALTTZ
 70
     0
  9
$DIMUPT
 70
     0
  9
$DIMDEC
 70
     4
  9
$DIMTDEC
 70
     4
  9
$DIMALTU
 70
     2
  9
$DIMALTTD
 70
     2
  9
$DIMTXSTY
  7
Standard
  9
$DIMAUNIT
 70
     0
  9
$DIMADEC
 70
     0
  9
$DIMALTRND
 40
0.0
  9
$DIMAZIN
 70
     0
  9
$DIMDSEP
 70
    46
  9
$DIMATFIT
 70
     3
  9
$DIMFRAC
 70
     0
  9
$DIMLDRBLK
  1

  9
$DIMLUNIT
 70
     2
  9
$DIMLWD
 70
    -2
  9
$DIMLWE
 70
    -2
  9
$DIMTMOVE
 70
     0
  9
$DIMFXL
 40
1.0
  9
$DIMFXLON
 70
     0
  9
$DIMJOGANG
 40
0.7853981633974483
  9
$DIMTFILL
 70
     0
  9
$DIMTFILLCLR
 70
     0
  9
$DIMARCSYM
 70
     0
  9
$DIMLTYPE
  6

  9
$DIMLTEX1
  6

  9
$DIMLTEX2
  6

  9
$DIMTXTDIRECTION
 70
     0
  9
$LUNITS
 70
     2
  9
$LUPREC
 70
     4
  9
$SKETCHINC
 40
0.1
  9
$FILLETRAD
 40
0.5
  9
$AUNITS
 70
     0
  9
$AUPREC
 70
     0
  9
$MENU
  1
.
  9
$ELEVATION
 40
0.0
  9
$PELEVATION
 40
0.0
  9
$THICKNESS
 40
0.0
  9
$LIMCHECK
 70
     0
  9
$CHAMFERA
 40
0.5
  9
$CHAMFERB
 40
0.5
  9
$CHAMFERC
 40
1.0
  9
$CHAMFERD
 40
0.0
  9
$SKPOLY
 70
     0
  9
$TDCREATE
 40
2457917.599467593
  9
$TDUCREATE
 40
2457917.224467593
  9
$TDUPDATE
 40
2457917.599467593
  9
$TDUUPDATE
 40
2457917.224467593
  9
$TDINDWG
 40
0.0000000116
  9
$TDUSRTIMER
 40
0.0000000116
  9
$USRTIMER
 70
     1
  9
$ANGBASE
 50
0.0
  9
$ANGDIR
 70
     0
  9
$PDMODE
 70
     0
  9
$PDSIZE
 40
0.0
  9
$PLINEWID
 40
0.0
  9
$SPLFRAME
 70
     0
  9
$SPLINETYPE
 70
     6
  9
$SPLINESEGS
 70
     8
  9
$HANDSEED
  5
C6
  9
$SURFTAB1
 70
     6
  9
$SURFTAB2
 70
     6
  9
$SURFTYPE
 70
     6
  9
$SURFU
 70
     6
  9
$SURFV
 70
     6
  9
$UCSBASE
  2

  9
$UCSNAME
  2

  9
$UCSORG
 10
0.0
 20
0.0
 30
0.0
  9
$UCSXDIR
 10
1.0
 20
0.0
 30
0.0
  9
$UCSYDIR
 10
0.0
 20
1.0
 30
0.0
  9
$UCSORTHOREF
  2

  9
$UCSORTHOVIEW
 70
     0
  9
$UCSORGTOP
 10
0.0
 20
0.0
 30
0.0
  9
$UCSORGBOTTOM
 10
0.0
 20
0.0
 30
0.0
  9
$UCSORGLEFT
 10
0.0
 20
0.0
 30
0.0
  9
$UCSORGRIGHT
 10
0.0
 20
0.0
 30
0.0
  9
$UCSORGFRONT
 10
0.0
 20
0.0
 30
0.0
  9
$UCSORGBACK
 10
0.0
 20
0.0
 30
0.0
  9
$PUCSBASE
  2

  9
$PUCSNAME
  2

  9
$PUCSORG
 10
0.0
 20
0.0
 30
0.0
  9
$PUCSXDIR
 10
1.0
 20
0.0
 30
0.0
  9
$PUCSYDIR
 10
0.0
 20
1.0
 30
0.0
  9
$PUCSORTHOREF
  2

  9
$PUCSORTHOVIEW
 70
     0
  9
$PUCSORGTOP
 10
0.0
 20
0.0
 30
0.0
  9
$PUCSORGBOTTOM
 10
0.0
 20
0.0
 30
0.0
  9
$PUCSORGLEFT
 10
0.0
 20
0.0
 30
0.0
  9
$PUCSORGRIGHT
 10
0.0
 20
0.0
 30
0.0
  9
$PUCSORGFRONT
 10
0.0
 20
0.0
 30
0.0
  9
$PUCSORGBACK
 10
0.0
 20
0.0
 30
0.0
  9
$USERI1
 70
     0
  9
$USERI2
 70
     0
  9
$USERI3
 70
     0
  9
$USERI4
 70
     0
  9
$USERI5
 70
     0
  9
$USERR1
 40
0.0
  9
$USERR2
 40
0.0
  9
$USERR3
 40
0.0
  9
$USERR4
 40
0.0
  9
$USERR5
 40
0.0
  9
$WORLDVIEW
 70
     1
  9
$SHADEDGE
 70
     3
  9
$SHADEDIF
 70
    70
  9
$TILEMODE
 70
     1
  9
$MAXACTVP
 70
    64
  9
$PINSBASE
 10
0.0
 20
0.0
 30
0.0
  9
$PLIMCHECK
 70
     0
  9
$PEXTMIN
 10
1.000000000000000E+20
 20
1.000000000000000E+20
 30
1.000000000000000E+20
  9
$PEXTMAX
 10
-1.000000000000000E+20
 20
-1.000000000000000E+20
 30
-1.000000000000000E+20
  9
$PLIMMIN
 10
0.0
 20
0.0
  9
$PLIMMAX
 10
12.0
 20
9.0
  9
$UNITMODE
 70
     0
  9
$VISRETAIN
 70
     1
  9
$PLINEGEN
 70
     0
  9
$PSLTSCALE
 70
     1
  9
$TREEDEPTH
 70
  3020
  9
$CMLSTYLE
  2
Standard
  9
$CMLJUST
 70
     0
  9
$CMLSCALE
 40
1.0
  9
$PROXYGRAPHICS
 70
     1
  9
$MEASUREMENT
 70
     0
  9
$CELWEIGHT
370
    -1
  9
$ENDCAPS
280
     0
  9
$JOINSTYLE
280
     0
  9
$LWDISPLAY
290
     1
  9
$INSUNITS
 70
     1
  9
$HYPERLINKBASE
  1

  9
$STYLESHEET
  1

  9
$XEDIT
290
     1
  9
$CEPSNTYPE
380
     0
  9
$PSTYLEMODE
290
     1
  9
$FINGERPRINTGUID
  2
{A7C582C9-8583-5CA5-B590-E31C95532494}
  9
$VERSIONGUID
  2
{FAEB1C32-E019-11D5-929B-00C0DF256EC4}
  9
$EXTNAMES
290
     1
  9
$PSVPSCALE
 40
0.0
  9
$OLESTARTUP
290
     0
  9
$SORTENTS
280
   127
  9
$INDEXCTL
280
     0
  9
$HIDETEXT
280
     1
  9
$XCLIPFRAME
280
     2
  9
$HALOGAP
280
     0
  9
$OBSCOLOR
 70
   257
  9
$OBSLTYPE
280
     0
  9
$INTERSECTIONDISPLAY
280
     0
  9
$INTERSECTIONCOLOR
 70
   257
  9
$DIMASSOC
280
     2
  9
$PROJECTNAME
  1

  9
$CAMERADISPLAY
290
     0
  9
$LENSLENGTH
 40
50.0
  9
$CAMERAHEIGHT
 40
0.0
  9
$STEPSPERSEC
 40
2.0
  9
$STEPSIZE
 40
6.0
  9
$3DDWFPREC
 40
2.0
  9
$PSOLWIDTH
 40
0.25
  9
$PSOLHEIGHT
 40
4.0
  9
$LOFTANG1
 40
1.570796326794897
  9
$LOFTANG2
 40
1.570796326794897
  9
$LOFTMAG1
 40
0.0
  9
$LOFTMAG2
 40
0.0
  9
$LOFTPARAM
 70
     7
  9
$LOFTNORMALS
280
     1
  9
$LATITUDE
 40
37.795
  9
$LONGITUDE
 40
-122.394
  9
$NORTHDIRECTION
 40
0.0
  9
$TIMEZONE
 70
 -8000
  9
$LIGHTGLYPHDISPLAY
280
     1
  9
$TILEMODELIGHTSYNCH
280
     1
  9
$CMATERIAL
347
3C
  9
$SOLIDHIST
280
     1
  9
$SHOWHIST
280
     1
  9
$DWFFRAME
280
     2
  9
$DGNFRAME
280
     2
  9
$REALWORLDSCALE
290
     1
  9
$INTERFERECOLOR
 62
   256
  9
$CSHADOW
280
     0
  9
$SHADOWPLANELOCATION
 40
0.0
  0
ENDSEC
  0
SECTION
  2
CLASSES
  0
CLASS
  1
ACDBDICTIONARYWDFLT
  2
AcDbDictionaryWithDefault
  3
ObjectDBX Classes
 90
        0
 91
        4
280
     0
281
     0
  0
CLASS
  1
VISUALSTYLE
  2
AcDbVisualStyle
  3
ObjectDBX Classes
 90
     4095
 91
        4
280
     0
281
     0
  0
CLASS
  1
MATERIAL
  2
AcDbMaterial
  3
ObjectDBX Classes
 90
     1153
 91
        4
280
     0
281
     0
  0
CLASS
  1
SUN
  2
AcDbSun
  3
SCENEOE
 90
     1024
 91
        4
280
     0
281
     0
  0
ENDSEC
  0
SECTION
  2
TABLES
  0
TABLE
  2
VPORT
  5
8
330
0
100
AcDbSymbolTable
 70
     1
  0
VPORT
  5
29
330
8
100
AcDbSymbolTableRecord
100
AcDbViewportTableRecord
  2
*Active
 70
     0
 10
0.0
 20
0.0
 11
1.0
 21
1.0
 12
0.0
 22
0.0
 13
0.0
 23
0.0
 14
0.5
 24
0.5
 15
0.5
 25
0.5
 16
0.0
 26
0.0
 36
1.0
 17
91.00082462281999
 27
-128.4993055234307
 37
0.0
 40
256.9986110468615
 41
0.7081814508812795
 42
50.0
 43
0.0
 44
0.0
 50
0.0
 51
0.0
 71
     0
 72
   100
 73
     1
 74
     3
 75
     0
 76
     0
 77
     0
 78
     0
281
     0
 65
     1
110
0.0
120
0.0
130
0.0
111
1.0
121
0.0
131
0.0
112
0.0
122
1.0
132
0.0
 79
     0
146
0.0
 60
     3
 61
     5
292
     1
282
     1
141
0.0
142
0.0
 63
   250
361
3F
  0
ENDTAB
  0
TABLE
  2
LTYPE
  5
5
330
0
100
AcDbSymbolTable
 70
     1
  0
LTYPE
  5
14
330
5
100
AcDbSymbolTableRecord
100
AcDbLinetypeTableRecord
  2
ByBlock
 70
     0
  3

 72
    65
 73
     0
 40
0.0
  0
LTYPE
  5
15
330
5
100
AcDbSymbolTableRecord
100
AcDbLinetypeTableRecord
  2
ByLayer
 70
     0
  3

 72
    65
 73
     0
 40
0.0
  0
LTYPE
  5
16
330
5
100
AcDbSymbolTableRecord
100
AcDbLinetypeTableRecord
  2
Continuous
 70
     0
  3
Solid line
 72
    65
 73
     0
 40
0.0
  0
ENDTAB
  0
TABLE
  2
LAYER
  5
2
330
0
100
AcDbSymbolTable
 70
     2
  0
LAYER
  5
10
330
2
100
AcDbSymbolTableRecord
100
AcDbLayerTableRecord
  2
0
 70
     0
 62
     7
  6
Continuous
370
    -3
390
F
347
3E
  0
LAYER
  5
40
330
2
100
AcDbSymbolTableRecord
100
AcDbLayerTableRecord
  2
_U+30EC_U+30A4_U+30E4_U+30FC 1
 70
     0
 62
     7
  6
Continuous
370
    -3
390
F
347
3E
  0
ENDTAB
  0
TABLE
  2
STYLE
  5
3
330
0
100
AcDbSymbolTable
 70
     1
  0
STYLE
  5
11
330
3
100
AcDbSymbolTableRecord
100
AcDbTextStyleTableRecord
  2
Standard
 70
     0
 40
0.0
 41
1.0
 50
0.0
 71
     0
 42
0.2
  3
txt
  4

  0
ENDTAB
  0
TABLE
  2
VIEW
  5
6
330
0
100
AcDbSymbolTable
 70
     0
  0
ENDTAB
  0
TABLE
  2
UCS
  5
7
330
0
100
AcDbSymbolTable
 70
     0
  0
ENDTAB
  0
TABLE
  2
APPID
  5
9
330
0
100
AcDbSymbolTable
 70
     1
  0
APPID
  5
12
330
9
100
AcDbSymbolTableRecord
100
AcDbRegAppTableRecord
  2
ACAD
 70
     0
  0
ENDTAB
  0
TABLE
  2
DIMSTYLE
  5
A
330
0
100
AcDbSymbolTable
 70
     1
100
AcDbDimStyleTable
  0
DIMSTYLE
105
27
330
A
100
AcDbSymbolTableRecord
100
AcDbDimStyleTableRecord
  2
Standard
 70
     0
178
     0
340
11
  0
ENDTAB
  0
TABLE
  2
BLOCK_RECORD
  5
1
330
0
100
AcDbSymbolTable
 70
     7
  0
BLOCK_RECORD
  5
1F
330
1
100
AcDbSymbolTableRecord
100
AcDbBlockTableRecord
  2
*Model_Space
340
22
 70
     0
280
     1
281
     0
  0
BLOCK_RECORD
  5
1B
330
1
100
AcDbSymbolTableRecord
100
AcDbBlockTableRecord
  2
*Paper_Space
340
1E
 70
     0
280
     1
281
     0
  0
BLOCK_RECORD
  5
23
330
1
100
AcDbSymbolTableRecord
100
AcDbBlockTableRecord
  2
*Paper_Space0
340
26
 70
     0
280
     1
281
     0
  0
BLOCK_RECORD
  5
58
330
1
100
AcDbSymbolTableRecord
100
AcDbBlockTableRecord
  2
block 2
340
0
102
{BLKREFS
331
59
102
}
 70
     0
280
     1
281
     0
  0
BLOCK_RECORD
  5
70
330
1
100
AcDbSymbolTableRecord
100
AcDbBlockTableRecord
  2
block 3
340
0
102
{BLKREFS
331
71
102
}
 70
     0
280
     1
281
     0
  0
BLOCK_RECORD
  5
8C
330
1
100
AcDbSymbolTableRecord
100
AcDbBlockTableRecord
  2
block 4
340
0
102
{BLKREFS
331
8D
102
}
 70
     0
280
     1
281
     0
  0
BLOCK_RECORD
  5
A2
330
1
100
AcDbSymbolTableRecord
100
AcDbBlockTableRecord
  2
block 5
340
0
102
{BLKREFS
331
A3
102
}
 70
     0
280
     1
281
     0
  0
BLOCK_RECORD
  5
B0
330
1
100
AcDbSymbolTableRecord
100
AcDbBlockTableRecord
  2
block 6
340
0
102
{BLKREFS
331
B1
102
}
 70
     0
280
     1
281
     0
  0
BLOCK_RECORD
  5
BE
330
1
100
AcDbSymbolTableRecord
100
AcDbBlockTableRecord
  2
block 7
340
0
102
{BLKREFS
331
BF
102
}
 70
     0
280
     1
281
     0
  0
ENDTAB
  0
ENDSEC
  0
SECTION
  2
BLOCKS
  0
BLOCK
  5
20
330
1F
100
AcDbEntity
  8
0
100
AcDbBlockBegin
  2
*Model_Space
 70
     0
 10
0.0
 20
0.0
 30
0.0
  3
*Model_Space
  1

  0
ENDBLK
  5
21
330
1F
100
AcDbEntity
  8
0
100
AcDbBlockEnd
  0
BLOCK
  5
1C
330
1B
100
AcDbEntity
 67
     1
  8
0
100
AcDbBlockBegin
  2
*Paper_Space
 70
     0
 10
0.0
 20
0.0
 30
0.0
  3
*Paper_Space
  1

  0
ENDBLK
  5
1D
330
1B
100
AcDbEntity
 67
     1
  8
0
100
AcDbBlockEnd
  0
BLOCK
  5
24
330
23
100
AcDbEntity
  8
0
100
AcDbBlockBegin
  2
*Paper_Space0
 70
     0
 10
0.0
 20
0.0
 30
0.0
  3
*Paper_Space0
  1

  0
ENDBLK
  5
25
330
23
100
AcDbEntity
  8
0
100
AcDbBlockEnd
  0
BLOCK
  5
5A
330
58
100
AcDbEntity
  8
0
100
AcDbBlockBegin
  2
block 2
 70
     0
 10
0.0
 20
0.0
 30
0.0
  3
block 2
  1

  0
SPLINE
  5
5C
330
58
100
AcDbEntity
  8
_U+30EC_U+30A4_U+30E4_U+30FC 1
370
     0
100
AcDbSpline
210
0.0
220
0.0
230
1.0
 70
    11
 71
     3
 72
    44
 73
    40
 74
     0
 42
0.0000000001
 43
0.0000000001
 12
1.0
 22
0.0
 32
0.0
 13
1.0
 23
0.0
 33
0.0
 40
0.0
 40
0.0
 40
0.0
 40
0.0
 40
1.0
 40
1.0
 40
1.0
 40
2.0
 40
2.0
 40
2.0
 40
3.0
 40
3.0
 40
3.0
 40
4.0
 40
4.0
 40
4.0
 40
5.0
 40
5.0
 40
5.0
 40
6.0
 40
6.0
 40
6.0
 40
7.0
 40
7.0
 40
7.0
 40
8.0
 40
8.0
 40
8.0
 40
9.0
 40
9.0
 40
9.0
 40
10.0
 40
10.0
 40
10.0
 40
11.0
 40
11.0
 40
11.0
 40
12.0
 40
12.0
 40
12.0
 40
13.0
 40
13.0
 40
13.0
 40
13.0
 10
80.9972954441604
 20
-133.770301615863
 30
0.0
 10
81.15611434603042
 20
-133.9880316505308
 30
0.0
 10
81.23018389896329
 20
-134.0810492286325
 30
0.0
 10
81.37384438069822
 20
-134.1299695845231
 30
0.0
 10
81.37384438069822
 20
-134.1299695845231
 30
0.0
 10
81.37384438069822
 20
-133.3513780048566
 30
0.0
 10
81.37384438069822
 20
-133.3513780048566
 30
0.0
 10
81.37384438069822
 20
-133.3513780048566
 30
0.0
 10
81.5791720716191
 20
-133.3513780048566
 30
0.0
 10
81.5791720716191
 20
-133.3513780048566
 30
0.0
 10
81.5791720716191
 20
-133.3513780048566
 30
0.0
 10
81.5791720716191
 20
-134.3793944976552
 30
0.0
 10
81.5791720716191
 20
-134.3793944976552
 30
0.0
 10
81.22157116025016
 20
-134.3476996191908
 30
0.0
 10
81.143367492735
 20
-134.2822428049711
 30
0.0
 10
80.84502222371236
 20
-133.8970811297202
 30
0.0
 10
80.64624021421345
 20
-133.6411105351661
 30
0.0
 10
80.57837183315402
 20
-133.5756537209464
 30
0.0
 10
80.44091252329255
 20
-133.5756537209464
 30
0.0
 10
80.32240123859997
 20
-133.5756537209464
 30
0.0
 10
80.19148761016046
 20
-133.6476562165881
 30
0.0
 10
80.19148761016046
 20
-133.8443711687958
 30
0.0
 10
80.19148761016046
 20
-134.1044758779322
 30
0.0
 10
80.42196449812369
 20
-134.1127441070968
 30
0.0
 10
80.53840872552513
 20
-134.1172227312277
 30
0.0
 10
80.53840872552513
 20
-134.1172227312277
 30
0.0
 10
80.53840872552513
 20
-134.3414984473174
 30
0.0
 10
80.53840872552513
 20
-134.3414984473174
 30
0.0
 10
80.4112847021194
 20
-134.3328857086043
 30
0.0
 10
80.29931909884878
 20
-134.3222059126
 30
0.0
 10
80.1808078141562
 20
-134.2419351877937
 30
0.0
 10
80.01992185499502
 20
-134.1320366418142
 30
0.0
 10
79.98615991923957
 20
-133.9456569760622
 30
0.0
 10
79.98615991923957
 20
-133.8295572582093
 30
0.0
 10
79.98615991923957
 20
-133.5522270716467
 30
0.0
 10
80.17012801815191
 20
-133.3448323234346
 30
0.0
 10
80.44297958058371
 20
-133.3448323234346
 30
0.0
 10
80.67173392080429
 20
-133.3448323234346
 30
0.0
 10
80.7709526707795
 20
-133.4612765508361
 30
0.0
 10
80.9972954441604
 20
-133.770301615863
 30
0.0
  0
HATCH
  5
5D
330
58
100
AcDbEntity
  8
_U+30EC_U+30A4_U+30E4_U+30FC 1
 62
   179
420
  2234388
100
AcDbHatch
 10
0.0
 20
0.0
 30
0.0
210
0.0
220
0.0
230
1.0
  2
SOLID
 70
     1
 71
     0
 91
        1
 92
        1
 93
        1
 72
     4
 94
        3
 73
     0
 74
     1
 95
       44
 96
       40
 40
0.0
 40
0.0
 40
0.0
 40
0.0
 40
1.0
 40
1.0
 40
1.0
 40
2.0
 40
2.0
 40
2.0
 40
3.0
 40
3.0
 40
3.0
 40
4.0
 40
4.0
 40
4.0
 40
5.0
 40
5.0
 40
5.0
 40
6.0
 40
6.0
 40
6.0
 40
7.0
 40
7.0
 40
7.0
 40
8.0
 40
8.0
 40
8.0
 40
9.0
 40
9.0
 40
9.0
 40
10.0
 40
10.0
 40
10.0
 40
11.0
 40
11.0
 40
11.0
 40
12.0
 40
12.0
 40
12.0
 40
13.0
 40
13.0
 40
13.0
 40
13.0
 10
80.9972954441604
 20
-133.770301615863
 10
81.15611434603042
 20
-133.9880316505308
 10
81.23018389896329
 20
-134.0810492286325
 10
81.37384438069822
 20
-134.1299695845231
 10
81.37384438069822
 20
-134.1299695845231
 10
81.37384438069822
 20
-133.3513780048566
 10
81.37384438069822
 20
-133.3513780048566
 10
81.37384438069822
 20
-133.3513780048566
 10
81.5791720716191
 20
-133.3513780048566
 10
81.5791720716191
 20
-133.3513780048566
 10
81.5791720716191
 20
-133.3513780048566
 10
81.5791720716191
 20
-134.3793944976552
 10
81.5791720716191
 20
-134.3793944976552
 10
81.22157116025016
 20
-134.3476996191908
 10
81.143367492735
 20
-134.2822428049711
 10
80.84502222371236
 20
-133.8970811297202
 10
80.64624021421345
 20
-133.6411105351661
 10
80.57837183315402
 20
-133.5756537209464
 10
80.44091252329255
 20
-133.5756537209464
 10
80.32240123859997
 20
-133.5756537209464
 10
80.19148761016046
 20
-133.6476562165881
 10
80.19148761016046
 20
-133.8443711687958
 10
80.19148761016046
 20
-134.1044758779322
 10
80.42196449812369
 20
-134.1127441070968
 10
80.53840872552513
 20
-134.1172227312277
 10
80.53840872552513
 20
-134.1172227312277
 10
80.53840872552513
 20
-134.3414984473174
 10
80.53840872552513
 20
-134.3414984473174
 10
80.4112847021194
 20
-134.3328857086043
 10
80.29931909884878
 20
-134.3222059126
 10
80.1808078141562
 20
-134.2419351877937
 10
80.01992185499502
 20
-134.1320366418142
 10
79.98615991923957
 20
-133.9456569760622
 10
79.98615991923957
 20
-133.8295572582093
 10
79.98615991923957
 20
-133.5522270716467
 10
80.17012801815191
 20
-133.3448323234346
 10
80.44297958058371
 20
-133.3448323234346
 10
80.67173392080429
 20
-133.3448323234346
 10
80.7709526707795
 20
-133.4612765508361
 10
80.9972954441604
 20
-133.770301615863
 97
        0
 97
        0
 75
     2
 76
     1
 98
        0
  0
SPLINE
  5
5E
330
58
100
AcDbEntity
  8
_U+30EC_U+30A4_U+30E4_U+30FC 1
370
     0
100
AcDbSpline
210
0.0
220
0.0
230
1.0
 70
    11
 71
     3
 72
    53
 73
    49
 74
     0
 42
0.0000000001
 43
0.0000000001
 12
1.0
 22
0.0
 32
0.0
 13
1.0
 23
0.0
 33
0.0
 40
0.0
 40
0.0
 40
0.0
 40
0.0
 40
1.0
 40
1.0
 40
1.0
 40
2.0
 40
2.0
 40
2.0
 40
3.0
 40
3.0
 40
3.0
 40
4.0
 40
4.0
 40
4.0
 40
5.0
 40
5.0
 40
5.0
 40
6.0
 40
6.0
 40
6.0
 40
7.0
 40
7.0
 40
7.0
 40
8.0
 40
8.0
 40
8.0
 40
9.0
 40
9.0
 40
9.0
 40
10.0
 40
10.0
 40
10.0
 40
11.0
 40
11.0
 40
11.0
 40
12.0
 40
12.0
 40
12.0
 40
13.0
 40
13.0
 40
13.0
 40
14.0
 40
14.0
 40
14.0
 40
15.0
 40
15.0
 40
15.0
 40
16.0
 40
16.0
 40
16.0
 40
16.0
 10
81.62981497525227
 20
-132.7054226013722
 30
0.0
 10
81.62981497525227
 20
-132.7836262688874
 30
0.0
 10
81.61293400737455
 20
-132.8852565857023
 30
0.0
 10
81.54954425044595
 20
-132.9868869025172
 30
0.0
 10
81.43964570446649
 20
-133.1601752054252
 30
0.0
 10
81.30838756647846
 20
-133.1815347974338
 30
0.0
 10
81.20055607779014
 20
-133.2004828226027
 30
0.0
 10
81.20055607779014
 20
-133.2004828226027
 30
0.0
 10
81.20055607779014
 20
-132.9782741638041
 30
0.0
 10
81.20055607779014
 20
-132.9782741638041
 30
0.0
 10
81.39933808728905
 20
-132.9234971455886
 30
0.0
 10
81.4289659084622
 20
-132.7963731221829
 30
0.0
 10
81.4289659084622
 20
-132.7033555440811
 30
0.0
 10
81.4289659084622
 20
-132.5638291769285
 30
0.0
 10
81.32940264893848
 20
-132.4115559564804
 30
0.0
 10
81.09685870368412
 20
-132.4115559564804
 30
0.0
 10
80.84088810913006
 20
-132.4115559564804
 30
0.0
 10
80.7709526707795
 20
-132.5913899408105
 30
0.0
 10
80.7709526707795
 20
-132.7119682827942
 30
0.0
 10
80.7709526707795
 20
-132.7436631612585
 30
0.0
 10
80.7709526707795
 20
-132.8852565857023
 30
0.0
 10
80.90014375147636
 20
-132.9741400492217
 30
0.0
 10
80.90014375147636
 20
-132.9741400492217
 30
0.0
 10
80.88119572630748
 20
-133.1498399189695
 30
0.0
 10
80.88119572630748
 20
-133.1498399189695
 30
0.0
 10
80.88119572630748
 20
-133.1498399189695
 30
0.0
 10
80.0347357655816
 20
-133.0292615769857
 30
0.0
 10
80.0347357655816
 20
-133.0292615769857
 30
0.0
 10
80.0347357655816
 20
-133.0292615769857
 30
0.0
 10
80.0347357655816
 20
-132.2506699973193
 30
0.0
 10
80.0347357655816
 20
-132.2506699973193
 30
0.0
 10
80.0347357655816
 20
-132.2506699973193
 30
0.0
 10
80.22938366049821
 20
-132.2506699973193
 30
0.0
 10
80.22938366049821
 20
-132.2506699973193
 30
0.0
 10
80.22938366049821
 20
-132.2506699973193
 30
0.0
 10
80.22938366049821
 20
-132.8663085605334
 30
0.0
 10
80.22938366049821
 20
-132.8663085605334
 30
0.0
 10
80.22938366049821
 20
-132.8663085605334
 30
0.0
 10
80.65244138608689
 20
-132.9317653747532
 30
0.0
 10
80.65244138608689
 20
-132.9317653747532
 30
0.0
 10
80.61867945033144
 20
-132.8704426751157
 30
0.0
 10
80.57837183315402
 20
-132.7881048930183
 30
0.0
 10
80.57837183315402
 20
-132.6695936083257
 30
0.0
 10
80.57837183315402
 20
-132.4156900710628
 30
0.0
 10
80.76475149890604
 20
-132.1786675016776
 30
0.0
 10
81.07791067851525
 20
-132.1786675016776
 30
0.0
 10
81.39520397270675
 20
-132.1786675016776
 30
0.0
 10
81.62981497525227
 20
-132.4029432177673
 30
0.0
 10
81.62981497525227
 20
-132.7054226013722
 30
0.0
  0
HATCH
  5
5F
330
58
100
AcDbEntity
  8
_U+30EC_U+30A4_U+30E4_U+30FC 1
 62
   179
420
  2234388
100
AcDbHatch
 10
0.0
 20
0.0
 30
0.0
210
0.0
220
0.0
230
1.0
  2
SOLID
 70
     1
 71
     0
 91
        1
 92
        1
 93
        1
 72
     4
 94
        3
 73
     0
 74
     1
 95
       53
 96
       49
 40
0.0
 40
0.0
 40
0.0
 40
0.0
 40
1.0
 40
1.0
 40
1.0
 40
2.0
 40
2.0
 40
2.0
 40
3.0
 40
3.0
 40
3.0
 40
4.0
 40
4.0
 40
4.0
 40
5.0
 40
5.0
 40
5.0
 40
6.0
 40
6.0
 40
6.0
 40
7.0
 40
7.0
 40
7.0
 40
8.0
 40
8.0
 40
8.0
 40
9.0
 40
9.0
 40
9.0
 40
10.0
 40
10.0
 40
10.0
 40
11.0
 40
11.0
 40
11.0
 40
12.0
 40
12.0
 40
12.0
 40
13.0
 40
13.0
 40
13.0
 40
14.0
 40
14.0
 40
14.0
 40
15.0
 40
15.0
 40
15.0
 40
16.0
 40
16.0
 40
16.0
 40
16.0
 10
81.62981497525227
 20
-132.7054226013722
 10
81.62981497525227
 20
-132.7836262688874
 10
81.61293400737455
 20
-132.8852565857023
 10
81.54954425044595
 20
-132.9868869025172
 10
81.43964570446649
 20
-133.1601752054252
 10
81.30838756647846
 20
-133.1815347974338
 10
81.20055607779014
 20
-133.2004828226027
 10
81.20055607779014
 20
-133.2004828226027
 10
81.20055607779014
 20
-132.9782741638041
 10
81.20055607779014
 20
-132.9782741638041
 10
81.39933808728905
 20
-132.9234971455886
 10
81.4289659084622
 20
-132.7963731221829
 10
81.4289659084622
 20
-132.7033555440811
 10
81.4289659084622
 20
-132.5638291769285
 10
81.32940264893848
 20
-132.4115559564804
 10
81.09685870368412
 20
-132.4115559564804
 10
80.84088810913006
 20
-132.4115559564804
 10
80.7709526707795
 20
-132.5913899408105
 10
80.7709526707795
 20
-132.7119682827942
 10
80.7709526707795
 20
-132.7436631612585
 10
80.7709526707795
 20
-132.8852565857023
 10
80.90014375147636
 20
-132.9741400492217
 10
80.90014375147636
 20
-132.9741400492217
 10
80.88119572630748
 20
-133.1498399189695
 10
80.88119572630748
 20
-133.1498399189695
 10
80.88119572630748
 20
-133.1498399189695
 10
80.0347357655816
 20
-133.0292615769857
 10
80.0347357655816
 20
-133.0292615769857
 10
80.0347357655816
 20
-133.0292615769857
 10
80.0347357655816
 20
-132.2506699973193
 10
80.0347357655816
 20
-132.2506699973193
 10
80.0347357655816
 20
-132.2506699973193
 10
80.22938366049821
 20
-132.2506699973193
 10
80.22938366049821
 20
-132.2506699973193
 10
80.22938366049821
 20
-132.2506699973193
 10
80.22938366049821
 20
-132.8663085605334
 10
80.22938366049821
 20
-132.8663085605334
 10
80.22938366049821
 20
-132.8663085605334
 10
80.65244138608689
 20
-132.9317653747532
 10
80.65244138608689
 20
-132.9317653747532
 10
80.61867945033144
 20
-132.8704426751157
 10
80.57837183315402
 20
-132.7881048930183
 10
80.57837183315402
 20
-132.6695936083257
 10
80.57837183315402
 20
-132.4156900710628
 10
80.76475149890604
 20
-132.1786675016776
 10
81.07791067851525
 20
-132.1786675016776
 10
81.39520397270675
 20
-132.1786675016776
 10
81.62981497525227
 20
-132.4029432177673
 10
81.62981497525227
 20
-132.7054226013722
 97
        0
 97
        0
 75
     2
 76
     1
 98
        0
  0
ENDBLK
  5
5B
330
58
100
AcDbEntity
  8
0
100
AcDbBlockEnd
  0
BLOCK
  5
72
330
70
100
AcDbEntity
  8
0
100
AcDbBlockBegin
  2
block 3
 70
     0
 10
0.0
 20
0.0
 30
0.0
  3
block 3
  1

  0
SPLINE
  5
74
330
70
100
AcDbEntity
  8
_U+30EC_U+30A4_U+30E4_U+30FC 1
370
     0
100
AcDbSpline
210
0.0
220
0.0
230
1.0
 70
    11
 71
     3
 72
    26
 73
    22
 74
     0
 42
0.0000000001
 43
0.0000000001
 12
1.0
 22
0.0
 32
0.0
 13
1.0
 23
0.0
 33
0.0
 40
0.0
 40
0.0
 40
0.0
 40
0.0
 40
1.0
 40
1.0
 40
1.0
 40
2.0
 40
2.0
 40
2.0
 40
3.0
 40
3.0
 40
3.0
 40
4.0
 40
4.0
 40
4.0
 40
5.0
 40
5.0
 40
5.0
 40
6.0
 40
6.0
 40
6.0
 40
7.0
 40
7.0
 40
7.0
 40
7.0
 10
80.99212780093252
 20
-121.1722764454014
 30
0.0
 10
80.99212780093252
 20
-121.1722764454014
 30
0.0
 10
79.88797469790995
 20
-121.1722764454014
 30
0.0
 10
79.88797469790995
 20
-121.1722764454014
 30
0.0
 10
79.88797469790995
 20
-121.1722764454014
 30
0.0
 10
79.88797469790995
 20
-121.5023165928883
 30
0.0
 10
79.88797469790995
 20
-121.5023165928883
 30
0.0
 10
79.88797469790995
 20
-121.5023165928883
 30
0.0
 10
79.73983559204422
 20
-121.5023165928883
 30
0.0
 10
79.73983559204422
 20
-121.5023165928883
 30
0.0
 10
79.72502168145763
 20
-121.1702093881102
 30
0.0
 10
79.56206866500531
 20
-121.1237005990594
 30
0.0
 10
79.44769149489503
 20
-121.0940727778862
 30
0.0
 10
79.44769149489503
 20
-121.0940727778862
 30
0.0
 10
79.44769149489503
 20
-120.9480007293116
 30
0.0
 10
79.44769149489503
 20
-120.9480007293116
 30
0.0
 10
79.44769149489503
 20
-120.9480007293116
 30
0.0
 10
80.99212780093252
 20
-120.9480007293116
 30
0.0
 10
80.99212780093252
 20
-120.9480007293116
 30
0.0
 10
80.99212780093252
 20
-120.9480007293116
 30
0.0
 10
80.99212780093252
 20
-121.1722764454014
 30
0.0
 10
80.99212780093252
 20
-121.1722764454014
 30
0.0
  0
HATCH
  5
75
330
70
100
AcDbEntity
  8
_U+30EC_U+30A4_U+30E4_U+30FC 1
 62
   179
420
  2234388
100
AcDbHatch
 10
0.0
 20
0.0
 30
0.0
210
0.0
220
0.0
230
1.0
  2
SOLID
 70
     1
 71
     0
 91
        1
 92
        1
 93
        1
 72
     4
 94
        3
 73
     0
 74
     1
 95
       26
 96
       22
 40
0.0
 40
0.0
 40
0.0
 40
0.0
 40
1.0
 40
1.0
 40
1.0
 40
2.0
 40
2.0
 40
2.0
 40
3.0
 40
3.0
 40
3.0
 40
4.0
 40
4.0
 40
4.0
 40
5.0
 40
5.0
 40
5.0
 40
6.0
 40
6.0
 40
6.0
 40
7.0
 40
7.0
 40
7.0
 40
7.0
 10
80.99212780093252
 20
-121.1722764454014
 10
80.99212780093252
 20
-121.1722764454014
 10
79.88797469790995
 20
-121.1722764454014
 10
79.88797469790995
 20
-121.1722764454014
 10
79.88797469790995
 20
-121.1722764454014
 10
79.88797469790995
 20
-121.5023165928883
 10
79.88797469790995
 20
-121.5023165928883
 10
79.88797469790995
 20
-121.5023165928883
 10
79.73983559204422
 20
-121.5023165928883
 10
79.73983559204422
 20
-121.5023165928883
 10
79.72502168145763
 20
-121.1702093881102
 10
79.56206866500531
 20
-121.1237005990594
 10
79.44769149489503
 20
-121.0940727778862
 10
79.44769149489503
 20
-121.0940727778862
 10
79.44769149489503
 20
-120.9480007293116
 10
79.44769149489503
 20
-120.9480007293116
 10
79.44769149489503
 20
-120.9480007293116
 10
80.99212780093252
 20
-120.9480007293116
 10
80.99212780093252
 20
-120.9480007293116
 10
80.99212780093252
 20
-120.9480007293116
 10
80.99212780093252
 20
-121.1722764454014
 10
80.99212780093252
 20
-121.1722764454014
 97
        0
 97
        0
 75
     2
 76
     1
 98
        0
  0
POLYLINE
  5
76
330
70
100
AcDbEntity
  8
_U+30EC_U+30A4_U+30E4_U+30FC 1
370
     0
100
AcDb2dPolyline
 66
     1
 10
0.0
 20
0.0
 30
0.0
  0
VERTEX
  5
77
330
76
100
AcDbEntity
  8
_U+30EC_U+30A4_U+30E4_U+30FC 1
370
     0
100
AcDbVertex
100
AcDb2dVertex
 10
80.99212780093252
 20
-120.3867946747644
 30
0.0
  0
VERTEX
  5
78
330
76
100
AcDbEntity
  8
_U+30EC_U+30A4_U+30E4_U+30FC 1
370
     0
100
AcDbVertex
100
AcDb2dVertex
 10
80.74029132096076
 20
-120.3867946747644
 30
0.0
  0
VERTEX
  5
79
330
76
100
AcDbEntity
  8
_U+30EC_U+30A4_U+30E4_U+30FC 1
370
     0
100
AcDbVertex
100
AcDb2dVertex
 10
80.74029132096076
 20
-120.1349581947927
 30
0.0
  0
VERTEX
  5
7A
330
76
100
AcDbEntity
  8
_U+30EC_U+30A4_U+30E4_U+30FC 1
370
     0
100
AcDbVertex
100
AcDb2dVertex
 10
80.99212780093252
 20
-120.1349581947927
 30
0.0
  0
VERTEX
  5
7B
330
76
100
AcDbEntity
  8
_U+30EC_U+30A4_U+30E4_U+30FC 1
370
     0
100
AcDbVertex
100
AcDb2dVertex
 10
80.99212780093252
 20
-120.3867946747644
 30
0.0
  0
SEQEND
  5
7C
330
76
100
AcDbEntity
  8
_U+30EC_U+30A4_U+30E4_U+30FC 1
370
     0
  0
HATCH
  5
7D
330
70
100
AcDbEntity
  8
_U+30EC_U+30A4_U+30E4_U+30FC 1
 62
   179
420
  2234388
100
AcDbHatch
 10
0.0
 20
0.0
 30
0.0
210
0.0
220
0.0
230
1.0
  2
SOLID
 70
     1
 71
     0
 91
        1
 92
        1
 93
        4
 72
     1
 10
80.99212780093252
 20
-120.3867946747644
 11
80.74029132096076
 21
-120.3867946747644
 72
     1
 10
80.74029132096076
 20
-120.3867946747644
 11
80.74029132096076
 21
-120.1349581947927
 72
     1
 10
80.74029132096076
 20
-120.1349581947927
 11
80.99212780093252
 21
-120.1349581947927
 72
     1
 10
80.99212780093252
 20
-120.1349581947927
 11
80.99212780093252
 21
-120.3867946747644
 97
        0
 75
     2
 76
     1
 98
        0
  0
SPLINE
  5
7E
330
70
100
AcDbEntity
  8
_U+30EC_U+30A4_U+30E4_U+30FC 1
370
     0
100
AcDbSpline
210
0.0
220
0.0
230
1.0
 70
    11
 71
     3
 72
    44
 73
    40
 74
     0
 42
0.0000000001
 43
0.0000000001
 12
1.0
 22
0.0
 32
0.0
 13
1.0
 23
0.0
 33
0.0
 40
0.0
 40
0.0
 40
0.0
 40
0.0
 40
1.0
 40
1.0
 40
1.0
 40
2.0
 40
2.0
 40
2.0
 40
3.0
 40
3.0
 40
3.0
 40
4.0
 40
4.0
 40
4.0
 40
5.0
 40
5.0
 40
5.0
 40
6.0
 40
6.0
 40
6.0
 40
7.0
 40
7.0
 40
7.0
 40
8.0
 40
8.0
 40
8.0
 40
9.0
 40
9.0
 40
9.0
 40
10.0
 40
10.0
 40
10.0
 40
11.0
 40
11.0
 40
11.0
 40
12.0
 40
12.0
 40
12.0
 40
13.0
 40
13.0
 40
13.0
 40
13.0
 10
80.41025117347382
 20
-119.305723711493
 30
0.0
 10
80.56907007534384
 20
-119.5234537461608
 30
0.0
 10
80.64313962827671
 20
-119.6164713242625
 30
0.0
 10
80.78680011001164
 20
-119.6653916801531
 30
0.0
 10
80.78680011001164
 20
-119.6653916801531
 30
0.0
 10
80.78680011001164
 20
-118.8868001004866
 30
0.0
 10
80.78680011001164
 20
-118.8868001004866
 30
0.0
 10
80.78680011001164
 20
-118.8868001004866
 30
0.0
 10
80.99212780093252
 20
-118.8868001004866
 30
0.0
 10
80.99212780093252
 20
-118.8868001004866
 30
0.0
 10
80.99212780093252
 20
-118.8868001004866
 30
0.0
 10
80.99212780093252
 20
-119.9148165932852
 30
0.0
 10
80.99212780093252
 20
-119.9148165932852
 30
0.0
 10
80.63452688956359
 20
-119.8831217148209
 30
0.0
 10
80.55632322204842
 20
-119.8176649006011
 30
0.0
 10
80.25797795302579
 20
-119.4325032253502
 30
0.0
 10
80.05919594352687
 20
-119.1765326307961
 30
0.0
 10
79.99132756246745
 20
-119.1110758165764
 30
0.0
 10
79.85386825260598
 20
-119.1110758165764
 30
0.0
 10
79.73535696791339
 20
-119.1110758165764
 30
0.0
 10
79.60444333947389
 20
-119.1830783122181
 30
0.0
 10
79.60444333947389
 20
-119.3797932644259
 30
0.0
 10
79.60444333947389
 20
-119.6398979735623
 30
0.0
 10
79.83492022743711
 20
-119.6481662027269
 30
0.0
 10
79.95136445483855
 20
-119.6526448268577
 30
0.0
 10
79.95136445483855
 20
-119.6526448268577
 30
0.0
 10
79.95136445483855
 20
-119.8769205429474
 30
0.0
 10
79.95136445483855
 20
-119.8769205429474
 30
0.0
 10
79.82424043143283
 20
-119.8683078042343
 30
0.0
 10
79.71227482816221
 20
-119.85762800823
 30
0.0
 10
79.59376354346962
 20
-119.7773572834237
 30
0.0
 10
79.43287758430846
 20
-119.6674587374442
 30
0.0
 10
79.399115648553
 20
-119.4810790716922
 30
0.0
 10
79.399115648553
 20
-119.3649793538393
 30
0.0
 10
79.399115648553
 20
-119.0876491672767
 30
0.0
 10
79.58308374746534
 20
-118.8802544190647
 30
0.0
 10
79.85593530989713
 20
-118.8802544190647
 30
0.0
 10
80.08468965011772
 20
-118.8802544190647
 30
0.0
 10
80.18390840009292
 20
-118.9966986464661
 30
0.0
 10
80.41025117347382
 20
-119.305723711493
 30
0.0
  0
HATCH
  5
7F
330
70
100
AcDbEntity
  8
_U+30EC_U+30A4_U+30E4_U+30FC 1
 62
   179
420
  2234388
100
AcDbHatch
 10
0.0
 20
0.0
 30
0.0
210
0.0
220
0.0
230
1.0
  2
SOLID
 70
     1
 71
     0
 91
        1
 92
        1
 93
        1
 72
     4
 94
        3
 73
     0
 74
     1
 95
       44
 96
       40
 40
0.0
 40
0.0
 40
0.0
 40
0.0
 40
1.0
 40
1.0
 40
1.0
 40
2.0
 40
2.0
 40
2.0
 40
3.0
 40
3.0
 40
3.0
 40
4.0
 40
4.0
 40
4.0
 40
5.0
 40
5.0
 40
5.0
 40
6.0
 40
6.0
 40
6.0
 40
7.0
 40
7.0
 40
7.0
 40
8.0
 40
8.0
 40
8.0
 40
9.0
 40
9.0
 40
9.0
 40
10.0
 40
10.0
 40
10.0
 40
11.0
 40
11.0
 40
11.0
 40
12.0
 40
12.0
 40
12.0
 40
13.0
 40
13.0
 40
13.0
 40
13.0
 10
80.41025117347382
 20
-119.305723711493
 10
80.56907007534384
 20
-119.5234537461608
 10
80.64313962827671
 20
-119.6164713242625
 10
80.78680011001164
 20
-119.6653916801531
 10
80.78680011001164
 20
-119.6653916801531
 10
80.78680011001164
 20
-118.8868001004866
 10
80.78680011001164
 20
-118.8868001004866
 10
80.78680011001164
 20
-118.8868001004866
 10
80.99212780093252
 20
-118.8868001004866
 10
80.99212780093252
 20
-118.8868001004866
 10
80.99212780093252
 20
-118.8868001004866
 10
80.99212780093252
 20
-119.9148165932852
 10
80.99212780093252
 20
-119.9148165932852
 10
80.63452688956359
 20
-119.8831217148209
 10
80.55632322204842
 20
-119.8176649006011
 10
80.25797795302579
 20
-119.4325032253502
 10
80.05919594352687
 20
-119.1765326307961
 10
79.99132756246745
 20
-119.1110758165764
 10
79.85386825260598
 20
-119.1110758165764
 10
79.73535696791339
 20
-119.1110758165764
 10
79.60444333947389
 20
-119.1830783122181
 10
79.60444333947389
 20
-119.3797932644259
 10
79.60444333947389
 20
-119.6398979735623
 10
79.83492022743711
 20
-119.6481662027269
 10
79.95136445483855
 20
-119.6526448268577
 10
79.95136445483855
 20
-119.6526448268577
 10
79.95136445483855
 20
-119.8769205429474
 10
79.95136445483855
 20
-119.8769205429474
 10
79.82424043143283
 20
-119.8683078042343
 10
79.71227482816221
 20
-119.85762800823
 10
79.59376354346962
 20
-119.7773572834237
 10
79.43287758430846
 20
-119.6674587374442
 10
79.399115648553
 20
-119.4810790716922
 10
79.399115648553
 20
-119.3649793538393
 10
79.399115648553
 20
-119.0876491672767
 10
79.58308374746534
 20
-118.8802544190647
 10
79.85593530989713
 20
-118.8802544190647
 10
80.08468965011772
 20
-118.8802544190647
 10
80.18390840009292
 20
-118.9966986464661
 10
80.41025117347382
 20
-119.305723711493
 97
        0
 97
        0
 75
     2
 76
     1
 98
        0
  0
ENDBLK
  5
73
330
70
100
AcDbEntity
  8
0
100
AcDbBlockEnd
  0
BLOCK
  5
8E
330
8C
100
AcDbEntity
  8
0
100
AcDbBlockBegin
  2
block 4
 70
     0
 10
0.0
 20
0.0
 30
0.0
  3
block 4
  1

  0
SPLINE
  5
90
330
8C
100
AcDbEntity
  8
_U+30EC_U+30A4_U+30E4_U+30FC 1
370
     0
100
AcDbSpline
210
0.0
220
0.0
230
1.0
 70
    11
 71
     3
 72
    26
 73
    22
 74
     0
 42
0.0000000001
 43
0.0000000001
 12
1.0
 22
0.0
 32
0.0
 13
1.0
 23
0.0
 33
0.0
 40
0.0
 40
0.0
 40
0.0
 40
0.0
 40
1.0
 40
1.0
 40
1.0
 40
2.0
 40
2.0
 40
2.0
 40
3.0
 40
3.0
 40
3.0
 40
4.0
 40
4.0
 40
4.0
 40
5.0
 40
5.0
 40
5.0
 40
6.0
 40
6.0
 40
6.0
 40
7.0
 40
7.0
 40
7.0
 40
7.0
 10
94.58819713347101
 20
-114.9282131331603
 30
0.0
 10
94.58819713347101
 20
-114.9282131331603
 30
0.0
 10
94.58819713347101
 20
-113.8238877753635
 30
0.0
 10
94.58819713347101
 20
-113.8238877753635
 30
0.0
 10
94.58819713347101
 20
-113.8238877753635
 30
0.0
 10
94.25815698598407
 20
-113.8238877753635
 30
0.0
 10
94.25815698598407
 20
-113.8238877753635
 30
0.0
 10
94.25815698598407
 20
-113.8238877753635
 30
0.0
 10
94.25815698598407
 20
-113.675920924272
 30
0.0
 10
94.25815698598407
 20
-113.675920924272
 30
0.0
 10
94.59026419076216
 20
-113.6611070136854
 30
0.0
 10
94.63677297981303
 20
-113.4981539972331
 30
0.0
 10
94.66640080098618
 20
-113.3839490818971
 30
0.0
 10
94.66640080098618
 20
-113.3839490818971
 30
0.0
 10
94.81247284956078
 20
-113.3839490818971
 30
0.0
 10
94.81247284956078
 20
-113.3839490818971
 30
0.0
 10
94.81247284956078
 20
-113.3839490818971
 30
0.0
 10
94.81247284956078
 20
-114.9282131331603
 30
0.0
 10
94.81247284956078
 20
-114.9282131331603
 30
0.0
 10
94.81247284956078
 20
-114.9282131331603
 30
0.0
 10
94.58819713347101
 20
-114.9282131331603
 30
0.0
 10
94.58819713347101
 20
-114.9282131331603
 30
0.0
  0
HATCH
  5
91
330
8C
100
AcDbEntity
  8
_U+30EC_U+30A4_U+30E4_U+30FC 1
 62
   179
420
  2234388
100
AcDbHatch
 10
0.0
 20
0.0
 30
0.0
210
0.0
220
0.0
230
1.0
  2
SOLID
 70
     1
 71
     0
 91
        1
 92
        1
 93
        1
 72
     4
 94
        3
 73
     0
 74
     1
 95
       26
 96
       22
 40
0.0
 40
0.0
 40
0.0
 40
0.0
 40
1.0
 40
1.0
 40
1.0
 40
2.0
 40
2.0
 40
2.0
 40
3.0
 40
3.0
 40
3.0
 40
4.0
 40
4.0
 40
4.0
 40
5.0
 40
5.0
 40
5.0
 40
6.0
 40
6.0
 40
6.0
 40
7.0
 40
7.0
 40
7.0
 40
7.0
 10
94.58819713347101
 20
-114.9282131331603
 10
94.58819713347101
 20
-114.9282131331603
 10
94.58819713347101
 20
-113.8238877753635
 10
94.58819713347101
 20
-113.8238877753635
 10
94.58819713347101
 20
-113.8238877753635
 10
94.25815698598407
 20
-113.8238877753635
 10
94.25815698598407
 20
-113.8238877753635
 10
94.25815698598407
 20
-113.8238877753635
 10
94.25815698598407
 20
-113.675920924272
 10
94.25815698598407
 20
-113.675920924272
 10
94.59026419076216
 20
-113.6611070136854
 10
94.63677297981303
 20
-113.4981539972331
 10
94.66640080098618
 20
-113.3839490818971
 10
94.66640080098618
 20
-113.3839490818971
 10
94.81247284956078
 20
-113.3839490818971
 10
94.81247284956078
 20
-113.3839490818971
 10
94.81247284956078
 20
-113.3839490818971
 10
94.81247284956078
 20
-114.9282131331603
 10
94.81247284956078
 20
-114.9282131331603
 10
94.81247284956078
 20
-114.9282131331603
 10
94.58819713347101
 20
-114.9282131331603
 10
94.58819713347101
 20
-114.9282131331603
 97
        0
 97
        0
 75
     2
 76
     1
 98
        0
  0
SPLINE
  5
92
330
8C
100
AcDbEntity
  8
_U+30EC_U+30A4_U+30E4_U+30FC 1
370
     0
100
AcDbSpline
210
0.0
220
0.0
230
1.0
 70
    11
 71
     3
 72
    29
 73
    25
 74
     0
 42
0.0000000001
 43
0.0000000001
 12
1.0
 22
0.0
 32
0.0
 13
1.0
 23
0.0
 33
0.0
 40
0.0
 40
0.0
 40
0.0
 40
0.0
 40
1.0
 40
1.0
 40
1.0
 40
2.0
 40
2.0
 40
2.0
 40
3.0
 40
3.0
 40
3.0
 40
4.0
 40
4.0
 40
4.0
 40
5.0
 40
5.0
 40
5.0
 40
6.0
 40
6.0
 40
6.0
 40
7.0
 40
7.0
 40
7.0
 40
8.0
 40
8.0
 40
8.0
 40
8.0
 10
95.81361759757438
 20
-114.9790282915677
 30
0.0
 10
95.54696720701604
 20
-114.9790282915677
 30
0.0
 10
95.29306366975312
 20
-114.841396726932
 30
0.0
 10
95.29306366975312
 20
-114.4924085542762
 30
0.0
 10
95.29306366975312
 20
-114.2364379597221
 30
0.0
 10
95.43500160374542
 20
-114.141181069555
 30
0.0
 10
95.5407660351426
 20
-114.0798583699175
 30
0.0
 10
95.41605357857655
 20
-114.0206027275712
 30
0.0
 10
95.33991696835253
 20
-113.9063978122352
 30
0.0
 10
95.33991696835253
 20
-113.7456841078483
 30
0.0
 10
95.33991696835253
 20
-113.4705932333511
 30
0.0
 10
95.53869897785144
 20
-113.3352009807808
 30
0.0
 10
95.81361759757438
 20
-113.3352009807808
 30
0.0
 10
96.09714895601044
 20
-113.3352009807808
 30
0.0
 10
96.28766273634476
 20
-113.47903371729
 30
0.0
 10
96.28766273634476
 20
-113.7456841078483
 30
0.0
 10
96.28766273634476
 20
-113.9063978122352
 30
0.0
 10
96.20911455928106
 20
-114.0206027275712
 30
0.0
 10
96.08440210271502
 20
-114.0798583699175
 30
0.0
 10
96.17328556623445
 20
-114.130673528325
 30
0.0
 10
96.33210446810448
 20
-114.2259304184921
 30
0.0
 10
96.33210446810448
 20
-114.4882744396939
 30
0.0
 10
96.33210446810448
 20
-114.8625840641663
 30
0.0
 10
96.05270722425071
 20
-114.9790282915677
 30
0.0
 10
95.81361759757438
 20
-114.9790282915677
 30
0.0
  0
SPLINE
  5
93
330
8C
100
AcDbEntity
  8
_U+30EC_U+30A4_U+30E4_U+30FC 1
370
     0
100
AcDbSpline
210
0.0
220
0.0
230
1.0
 70
    11
 71
     3
 72
    17
 73
    13
 74
     0
 42
0.0000000001
 43
0.0000000001
 12
1.0
 22
0.0
 32
0.0
 13
1.0
 23
0.0
 33
0.0
 40
0.0
 40
0.0
 40
0.0
 40
0.0
 40
1.0
 40
1.0
 40
1.0
 40
2.0
 40
2.0
 40
2.0
 40
3.0
 40
3.0
 40
3.0
 40
4.0
 40
4.0
 40
4.0
 40
4.0
 10
95.81361759757438
 20
-114.1878621133801
 30
0.0
 10
95.66995711583947
 20
-114.1878621133801
 30
0.0
 10
95.51733938584289
 20
-114.2745062648342
 30
0.0
 10
95.51733938584289
 20
-114.4775946436896
 30
0.0
 10
95.51733938584289
 20
-114.6827500798363
 30
0.0
 10
95.64446340924862
 20
-114.7843803966511
 30
0.0
 10
95.81361759757438
 20
-114.7843803966511
 30
0.0
 10
95.99965275377787
 20
-114.7843803966511
 30
0.0
 10
96.10989580930587
 20
-114.6617349973762
 30
0.0
 10
96.10989580930587
 20
-114.4839680703373
 30
0.0
 10
96.10989580930587
 20
-114.2617594115387
 30
0.0
 10
95.94694279285355
 20
-114.1878621133801
 30
0.0
 10
95.81361759757438
 20
-114.1878621133801
 30
0.0
  0
SPLINE
  5
94
330
8C
100
AcDbEntity
  8
_U+30EC_U+30A4_U+30E4_U+30FC 1
370
     0
100
AcDbSpline
210
0.0
220
0.0
230
1.0
 70
    11
 71
     3
 72
    17
 73
    13
 74
     0
 42
0.0000000001
 43
0.0000000001
 12
1.0
 22
0.0
 32
0.0
 13
1.0
 23
0.0
 33
0.0
 40
0.0
 40
0.0
 40
0.0
 40
0.0
 40
1.0
 40
1.0
 40
1.0
 40
2.0
 40
2.0
 40
2.0
 40
3.0
 40
3.0
 40
3.0
 40
4.0
 40
4.0
 40
4.0
 40
4.0
 10
95.81361759757438
 20
-113.5277818184063
 30
0.0
 10
95.64859752383092
 20
-113.5277818184063
 30
0.0
 10
95.56384817489376
 20
-113.6228664537991
 30
0.0
 10
95.56384817489376
 20
-113.7582587063695
 30
0.0
 10
95.56384817489376
 20
-113.8810763604186
 30
0.0
 10
95.63585067053549
 20
-113.9995876451112
 30
0.0
 10
95.81361759757438
 20
-113.9995876451112
 30
0.0
 10
95.99138452461327
 20
-113.9995876451112
 30
0.0
 10
96.06338702025499
 20
-113.8810763604186
 30
0.0
 10
96.06338702025499
 20
-113.7582587063695
 30
0.0
 10
96.06338702025499
 20
-113.6228664537991
 30
0.0
 10
95.9765706140267
 20
-113.5277818184063
 30
0.0
 10
95.81361759757438
 20
-113.5277818184063
 30
0.0
  0
HATCH
  5
95
330
8C
100
AcDbEntity
  8
_U+30EC_U+30A4_U+30E4_U+30FC 1
 62
   179
420
  2234388
100
AcDbHatch
 10
0.0
 20
0.0
 30
0.0
210
0.0
220
0.0
230
1.0
  2
SOLID
 70
     1
 71
     0
 91
        3
 92
        1
 93
        1
 72
     4
 94
        3
 73
     0
 74
     1
 95
       29
 96
       25
 40
0.0
 40
0.0
 40
0.0
 40
0.0
 40
1.0
 40
1.0
 40
1.0
 40
2.0
 40
2.0
 40
2.0
 40
3.0
 40
3.0
 40
3.0
 40
4.0
 40
4.0
 40
4.0
 40
5.0
 40
5.0
 40
5.0
 40
6.0
 40
6.0
 40
6.0
 40
7.0
 40
7.0
 40
7.0
 40
8.0
 40
8.0
 40
8.0
 40
8.0
 10
95.81361759757438
 20
-114.9790282915677
 10
95.54696720701604
 20
-114.9790282915677
 10
95.29306366975312
 20
-114.841396726932
 10
95.29306366975312
 20
-114.4924085542762
 10
95.29306366975312
 20
-114.2364379597221
 10
95.43500160374542
 20
-114.141181069555
 10
95.5407660351426
 20
-114.0798583699175
 10
95.41605357857655
 20
-114.0206027275712
 10
95.33991696835253
 20
-113.9063978122352
 10
95.33991696835253
 20
-113.7456841078483
 10
95.33991696835253
 20
-113.4705932333511
 10
95.53869897785144
 20
-113.3352009807808
 10
95.81361759757438
 20
-113.3352009807808
 10
96.09714895601044
 20
-113.3352009807808
 10
96.28766273634476
 20
-113.47903371729
 10
96.28766273634476
 20
-113.7456841078483
 10
96.28766273634476
 20
-113.9063978122352
 10
96.20911455928106
 20
-114.0206027275712
 10
96.08440210271502
 20
-114.0798583699175
 10
96.17328556623445
 20
-114.130673528325
 10
96.33210446810448
 20
-114.2259304184921
 10
96.33210446810448
 20
-114.4882744396939
 10
96.33210446810448
 20
-114.8625840641663
 10
96.05270722425071
 20
-114.9790282915677
 10
95.81361759757438
 20
-114.9790282915677
 97
        0
 97
        0
 92
        1
 93
        1
 72
     4
 94
        3
 73
     0
 74
     1
 95
       17
 96
       13
 40
0.0
 40
0.0
 40
0.0
 40
0.0
 40
1.0
 40
1.0
 40
1.0
 40
2.0
 40
2.0
 40
2.0
 40
3.0
 40
3.0
 40
3.0
 40
4.0
 40
4.0
 40
4.0
 40
4.0
 10
95.81361759757438
 20
-114.1878621133801
 10
95.66995711583947
 20
-114.1878621133801
 10
95.51733938584289
 20
-114.2745062648342
 10
95.51733938584289
 20
-114.4775946436896
 10
95.51733938584289
 20
-114.6827500798363
 10
95.64446340924862
 20
-114.7843803966511
 10
95.81361759757438
 20
-114.7843803966511
 10
95.99965275377787
 20
-114.7843803966511
 10
96.10989580930587
 20
-114.6617349973762
 10
96.10989580930587
 20
-114.4839680703373
 10
96.10989580930587
 20
-114.2617594115387
 10
95.94694279285355
 20
-114.1878621133801
 10
95.81361759757438
 20
-114.1878621133801
 97
        0
 97
        0
 92
        1
 93
        1
 72
     4
 94
        3
 73
     0
 74
     1
 95
       17
 96
       13
 40
0.0
 40
0.0
 40
0.0
 40
0.0
 40
1.0
 40
1.0
 40
1.0
 40
2.0
 40
2.0
 40
2.0
 40
3.0
 40
3.0
 40
3.0
 40
4.0
 40
4.0
 40
4.0
 40
4.0
 10
95.81361759757438
 20
-113.5277818184063
 10
95.64859752383092
 20
-113.5277818184063
 10
95.56384817489376
 20
-113.6228664537991
 10
95.56384817489376
 20
-113.7582587063695
 10
95.56384817489376
 20
-113.8810763604186
 10
95.63585067053549
 20
-113.9995876451112
 10
95.81361759757438
 20
-113.9995876451112
 10
95.99138452461327
 20
-113.9995876451112
 10
96.06338702025499
 20
-113.8810763604186
 10
96.06338702025499
 20
-113.7582587063695
 10
96.06338702025499
 20
-113.6228664537991
 10
95.9765706140267
 20
-113.5277818184063
 10
95.81361759757438
 20
-113.5277818184063
 97
        0
 97
        0
 75
     2
 76
     1
 98
        0
  0
ENDBLK
  5
8F
330
8C
100
AcDbEntity
  8
0
100
AcDbBlockEnd
  0
BLOCK
  5
A4
330
A2
100
AcDbEntity
  8
0
100
AcDbBlockBegin
  2
block 5
 70
     0
 10
0.0
 20
0.0
 30
0.0
  3
block 5
  1

  0
SPLINE
  5
A6
330
A2
100
AcDbEntity
  8
_U+30EC_U+30A4_U+30E4_U+30FC 1
370
     0
100
AcDbSpline
210
0.0
220
0.0
230
1.0
 70
    11
 71
     3
 72
    53
 73
    49
 74
     0
 42
0.0000000001
 43
0.0000000001
 12
1.0
 22
0.0
 32
0.0
 13
1.0
 23
0.0
 33
0.0
 40
0.0
 40
0.0
 40
0.0
 40
0.0
 40
1.0
 40
1.0
 40
1.0
 40
2.0
 40
2.0
 40
2.0
 40
3.0
 40
3.0
 40
3.0
 40
4.0
 40
4.0
 40
4.0
 40
5.0
 40
5.0
 40
5.0
 40
6.0
 40
6.0
 40
6.0
 40
7.0
 40
7.0
 40
7.0
 40
8.0
 40
8.0
 40
8.0
 40
9.0
 40
9.0
 40
9.0
 40
10.0
 40
10.0
 40
10.0
 40
11.0
 40
11.0
 40
11.0
 40
12.0
 40
12.0
 40
12.0
 40
13.0
 40
13.0
 40
13.0
 40
14.0
 40
14.0
 40
14.0
 40
15.0
 40
15.0
 40
15.0
 40
16.0
 40
16.0
 40
16.0
 40
16.0
 10
92.58005097511888
 20
-143.2939235752876
 30
0.0
 10
92.58005097511888
 20
-143.3721272428028
 30
0.0
 10
92.56317000724115
 20
-143.4737575596177
 30
0.0
 10
92.49978025031255
 20
-143.5753878764326
 30
0.0
 10
92.38988170433309
 20
-143.7486761793406
 30
0.0
 10
92.25862356634507
 20
-143.7700357713492
 30
0.0
 10
92.15079207765675
 20
-143.788983796518
 30
0.0
 10
92.15079207765675
 20
-143.788983796518
 30
0.0
 10
92.15079207765675
 20
-143.5667751377194
 30
0.0
 10
92.15079207765675
 20
-143.5667751377194
 30
0.0
 10
92.34957408715566
 20
-143.5119981195039
 30
0.0
 10
92.37920190832881
 20
-143.3848740960982
 30
0.0
 10
92.37920190832881
 20
-143.2918565179965
 30
0.0
 10
92.37920190832881
 20
-143.1523301508439
 30
0.0
 10
92.27963864880509
 20
-143.0000569303958
 30
0.0
 10
92.04709470355073
 20
-143.0000569303958
 30
0.0
 10
91.79112410899667
 20
-143.0000569303958
 30
0.0
 10
91.7211886706461
 20
-143.1798909147259
 30
0.0
 10
91.7211886706461
 20
-143.3004692567096
 30
0.0
 10
91.7211886706461
 20
-143.3321641351739
 30
0.0
 10
91.7211886706461
 20
-143.4737575596177
 30
0.0
 10
91.85037975134297
 20
-143.5626410231371
 30
0.0
 10
91.85037975134297
 20
-143.5626410231371
 30
0.0
 10
91.83143172617409
 20
-143.7383408928849
 30
0.0
 10
91.83143172617409
 20
-143.7383408928849
 30
0.0
 10
91.83143172617409
 20
-143.7383408928849
 30
0.0
 10
90.98497176544821
 20
-143.6177625509011
 30
0.0
 10
90.98497176544821
 20
-143.6177625509011
 30
0.0
 10
90.98497176544821
 20
-143.6177625509011
 30
0.0
 10
90.98497176544821
 20
-142.8391709712347
 30
0.0
 10
90.98497176544821
 20
-142.8391709712347
 30
0.0
 10
90.98497176544821
 20
-142.8391709712347
 30
0.0
 10
91.17961966036482
 20
-142.8391709712347
 30
0.0
 10
91.17961966036482
 20
-142.8391709712347
 30
0.0
 10
91.17961966036482
 20
-142.8391709712347
 30
0.0
 10
91.17961966036482
 20
-143.4548095344488
 30
0.0
 10
91.17961966036482
 20
-143.4548095344488
 30
0.0
 10
91.17961966036482
 20
-143.4548095344488
 30
0.0
 10
91.6026773859535
 20
-143.5202663486685
 30
0.0
 10
91.6026773859535
 20
-143.5202663486685
 30
0.0
 10
91.56891545019805
 20
-143.4589436490311
 30
0.0
 10
91.52860783302063
 20
-143.3766058669336
 30
0.0
 10
91.52860783302063
 20
-143.258094582241
 30
0.0
 10
91.52860783302063
 20
-143.0041910449781
 30
0.0
 10
91.71498749877264
 20
-142.7671684755929
 30
0.0
 10
92.02814667838186
 20
-142.7671684755929
 30
0.0
 10
92.34543997257336
 20
-142.7671684755929
 30
0.0
 10
92.58005097511888
 20
-142.9914441916827
 30
0.0
 10
92.58005097511888
 20
-143.2939235752876
 30
0.0
  0
HATCH
  5
A7
330
A2
100
AcDbEntity
  8
_U+30EC_U+30A4_U+30E4_U+30FC 1
 62
   179
420
  2234388
100
AcDbHatch
 10
0.0
 20
0.0
 30
0.0
210
0.0
220
0.0
230
1.0
  2
SOLID
 70
     1
 71
     0
 91
        1
 92
        1
 93
        1
 72
     4
 94
        3
 73
     0
 74
     1
 95
       53
 96
       49
 40
0.0
 40
0.0
 40
0.0
 40
0.0
 40
1.0
 40
1.0
 40
1.0
 40
2.0
 40
2.0
 40
2.0
 40
3.0
 40
3.0
 40
3.0
 40
4.0
 40
4.0
 40
4.0
 40
5.0
 40
5.0
 40
5.0
 40
6.0
 40
6.0
 40
6.0
 40
7.0
 40
7.0
 40
7.0
 40
8.0
 40
8.0
 40
8.0
 40
9.0
 40
9.0
 40
9.0
 40
10.0
 40
10.0
 40
10.0
 40
11.0
 40
11.0
 40
11.0
 40
12.0
 40
12.0
 40
12.0
 40
13.0
 40
13.0
 40
13.0
 40
14.0
 40
14.0
 40
14.0
 40
15.0
 40
15.0
 40
15.0
 40
16.0
 40
16.0
 40
16.0
 40
16.0
 10
92.58005097511888
 20
-143.2939235752876
 10
92.58005097511888
 20
-143.3721272428028
 10
92.56317000724115
 20
-143.4737575596177
 10
92.49978025031255
 20
-143.5753878764326
 10
92.38988170433309
 20
-143.7486761793406
 10
92.25862356634507
 20
-143.7700357713492
 10
92.15079207765675
 20
-143.788983796518
 10
92.15079207765675
 20
-143.788983796518
 10
92.15079207765675
 20
-143.5667751377194
 10
92.15079207765675
 20
-143.5667751377194
 10
92.34957408715566
 20
-143.5119981195039
 10
92.37920190832881
 20
-143.3848740960982
 10
92.37920190832881
 20
-143.2918565179965
 10
92.37920190832881
 20
-143.1523301508439
 10
92.27963864880509
 20
-143.0000569303958
 10
92.04709470355073
 20
-143.0000569303958
 10
91.79112410899667
 20
-143.0000569303958
 10
91.7211886706461
 20
-143.1798909147259
 10
91.7211886706461
 20
-143.3004692567096
 10
91.7211886706461
 20
-143.3321641351739
 10
91.7211886706461
 20
-143.4737575596177
 10
91.85037975134297
 20
-143.5626410231371
 10
91.85037975134297
 20
-143.5626410231371
 10
91.83143172617409
 20
-143.7383408928849
 10
91.83143172617409
 20
-143.7383408928849
 10
91.83143172617409
 20
-143.7383408928849
 10
90.98497176544821
 20
-143.6177625509011
 10
90.98497176544821
 20
-143.6177625509011
 10
90.98497176544821
 20
-143.6177625509011
 10
90.98497176544821
 20
-142.8391709712347
 10
90.98497176544821
 20
-142.8391709712347
 10
90.98497176544821
 20
-142.8391709712347
 10
91.17961966036482
 20
-142.8391709712347
 10
91.17961966036482
 20
-142.8391709712347
 10
91.17961966036482
 20
-142.8391709712347
 10
91.17961966036482
 20
-143.4548095344488
 10
91.17961966036482
 20
-143.4548095344488
 10
91.17961966036482
 20
-143.4548095344488
 10
91.6026773859535
 20
-143.5202663486685
 10
91.6026773859535
 20
-143.5202663486685
 10
91.56891545019805
 20
-143.4589436490311
 10
91.52860783302063
 20
-143.3766058669336
 10
91.52860783302063
 20
-143.258094582241
 10
91.52860783302063
 20
-143.0041910449781
 10
91.71498749877264
 20
-142.7671684755929
 10
92.02814667838186
 20
-142.7671684755929
 10
92.34543997257336
 20
-142.7671684755929
 10
92.58005097511888
 20
-142.9914441916827
 10
92.58005097511888
 20
-143.2939235752876
 97
        0
 97
        0
 75
     2
 76
     1
 98
        0
  0
ENDBLK
  5
A5
330
A2
100
AcDbEntity
  8
0
100
AcDbBlockEnd
  0
BLOCK
  5
B2
330
B0
100
AcDbEntity
  8
0
100
AcDbBlockBegin
  2
block 6
 70
     0
 10
0.0
 20
0.0
 30
0.0
  3
block 6
  1

  0
SPLINE
  5
B4
330
B0
100
AcDbEntity
  8
_U+30EC_U+30A4_U+30E4_U+30FC 1
370
     0
100
AcDbSpline
210
0.0
220
0.0
230
1.0
 70
    11
 71
     3
 72
    53
 73
    49
 74
     0
 42
0.0000000001
 43
0.0000000001
 12
1.0
 22
0.0
 32
0.0
 13
1.0
 23
0.0
 33
0.0
 40
0.0
 40
0.0
 40
0.0
 40
0.0
 40
1.0
 40
1.0
 40
1.0
 40
2.0
 40
2.0
 40
2.0
 40
3.0
 40
3.0
 40
3.0
 40
4.0
 40
4.0
 40
4.0
 40
5.0
 40
5.0
 40
5.0
 40
6.0
 40
6.0
 40
6.0
 40
7.0
 40
7.0
 40
7.0
 40
8.0
 40
8.0
 40
8.0
 40
9.0
 40
9.0
 40
9.0
 40
10.0
 40
10.0
 40
10.0
 40
11.0
 40
11.0
 40
11.0
 40
12.0
 40
12.0
 40
12.0
 40
13.0
 40
13.0
 40
13.0
 40
14.0
 40
14.0
 40
14.0
 40
15.0
 40
15.0
 40
15.0
 40
16.0
 40
16.0
 40
16.0
 40
16.0
 10
92.58005097511888
 20
-138.293711987996
 30
0.0
 10
92.58005097511888
 20
-138.3719156555112
 30
0.0
 10
92.56317000724115
 20
-138.4735459723261
 30
0.0
 10
92.49978025031255
 20
-138.5751762891409
 30
0.0
 10
92.38988170433309
 20
-138.748464592049
 30
0.0
 10
92.25862356634507
 20
-138.7698241840575
 30
0.0
 10
92.15079207765675
 20
-138.7887722092264
 30
0.0
 10
92.15079207765675
 20
-138.7887722092264
 30
0.0
 10
92.15079207765675
 20
-138.5665635504278
 30
0.0
 10
92.15079207765675
 20
-138.5665635504278
 30
0.0
 10
92.34957408715566
 20
-138.5117865322123
 30
0.0
 10
92.37920190832881
 20
-138.3846625088066
 30
0.0
 10
92.37920190832881
 20
-138.2916449307049
 30
0.0
 10
92.37920190832881
 20
-138.1521185635522
 30
0.0
 10
92.27963864880509
 20
-137.9998453431042
 30
0.0
 10
92.04709470355073
 20
-137.9998453431042
 30
0.0
 10
91.79112410899667
 20
-137.9998453431042
 30
0.0
 10
91.7211886706461
 20
-138.1796793274343
 30
0.0
 10
91.7211886706461
 20
-138.300257669418
 30
0.0
 10
91.7211886706461
 20
-138.3319525478823
 30
0.0
 10
91.7211886706461
 20
-138.4735459723261
 30
0.0
 10
91.85037975134297
 20
-138.5624294358455
 30
0.0
 10
91.85037975134297
 20
-138.5624294358455
 30
0.0
 10
91.83143172617409
 20
-138.7381293055932
 30
0.0
 10
91.83143172617409
 20
-138.7381293055932
 30
0.0
 10
91.83143172617409
 20
-138.7381293055932
 30
0.0
 10
90.98497176544821
 20
-138.6175509636095
 30
0.0
 10
90.98497176544821
 20
-138.6175509636095
 30
0.0
 10
90.98497176544821
 20
-138.6175509636095
 30
0.0
 10
90.98497176544821
 20
-137.838959383943
 30
0.0
 10
90.98497176544821
 20
-137.838959383943
 30
0.0
 10
90.98497176544821
 20
-137.838959383943
 30
0.0
 10
91.17961966036482
 20
-137.838959383943
 30
0.0
 10
91.17961966036482
 20
-137.838959383943
 30
0.0
 10
91.17961966036482
 20
-137.838959383943
 30
0.0
 10
91.17961966036482
 20
-138.4545979471572
 30
0.0
 10
91.17961966036482
 20
-138.4545979471572
 30
0.0
 10
91.17961966036482
 20
-138.4545979471572
 30
0.0
 10
91.6026773859535
 20
-138.5200547613769
 30
0.0
 10
91.6026773859535
 20
-138.5200547613769
 30
0.0
 10
91.56891545019805
 20
-138.4587320617395
 30
0.0
 10
91.52860783302063
 20
-138.376394279642
 30
0.0
 10
91.52860783302063
 20
-138.2578829949494
 30
0.0
 10
91.52860783302063
 20
-138.0039794576865
 30
0.0
 10
91.71498749877264
 20
-137.7669568883013
 30
0.0
 10
92.02814667838186
 20
-137.7669568883013
 30
0.0
 10
92.34543997257336
 20
-137.7669568883013
 30
0.0
 10
92.58005097511888
 20
-137.9912326043911
 30
0.0
 10
92.58005097511888
 20
-138.293711987996
 30
0.0
  0
HATCH
  5
B5
330
B0
100
AcDbEntity
  8
_U+30EC_U+30A4_U+30E4_U+30FC 1
 62
   179
420
  2234388
100
AcDbHatch
 10
0.0
 20
0.0
 30
0.0
210
0.0
220
0.0
230
1.0
  2
SOLID
 70
     1
 71
     0
 91
        1
 92
        1
 93
        1
 72
     4
 94
        3
 73
     0
 74
     1
 95
       53
 96
       49
 40
0.0
 40
0.0
 40
0.0
 40
0.0
 40
1.0
 40
1.0
 40
1.0
 40
2.0
 40
2.0
 40
2.0
 40
3.0
 40
3.0
 40
3.0
 40
4.0
 40
4.0
 40
4.0
 40
5.0
 40
5.0
 40
5.0
 40
6.0
 40
6.0
 40
6.0
 40
7.0
 40
7.0
 40
7.0
 40
8.0
 40
8.0
 40
8.0
 40
9.0
 40
9.0
 40
9.0
 40
10.0
 40
10.0
 40
10.0
 40
11.0
 40
11.0
 40
11.0
 40
12.0
 40
12.0
 40
12.0
 40
13.0
 40
13.0
 40
13.0
 40
14.0
 40
14.0
 40
14.0
 40
15.0
 40
15.0
 40
15.0
 40
16.0
 40
16.0
 40
16.0
 40
16.0
 10
92.58005097511888
 20
-138.293711987996
 10
92.58005097511888
 20
-138.3719156555112
 10
92.56317000724115
 20
-138.4735459723261
 10
92.49978025031255
 20
-138.5751762891409
 10
92.38988170433309
 20
-138.748464592049
 10
92.25862356634507
 20
-138.7698241840575
 10
92.15079207765675
 20
-138.7887722092264
 10
92.15079207765675
 20
-138.7887722092264
 10
92.15079207765675
 20
-138.5665635504278
 10
92.15079207765675
 20
-138.5665635504278
 10
92.34957408715566
 20
-138.5117865322123
 10
92.37920190832881
 20
-138.3846625088066
 10
92.37920190832881
 20
-138.2916449307049
 10
92.37920190832881
 20
-138.1521185635522
 10
92.27963864880509
 20
-137.9998453431042
 10
92.04709470355073
 20
-137.9998453431042
 10
91.79112410899667
 20
-137.9998453431042
 10
91.7211886706461
 20
-138.1796793274343
 10
91.7211886706461
 20
-138.300257669418
 10
91.7211886706461
 20
-138.3319525478823
 10
91.7211886706461
 20
-138.4735459723261
 10
91.85037975134297
 20
-138.5624294358455
 10
91.85037975134297
 20
-138.5624294358455
 10
91.83143172617409
 20
-138.7381293055932
 10
91.83143172617409
 20
-138.7381293055932
 10
91.83143172617409
 20
-138.7381293055932
 10
90.98497176544821
 20
-138.6175509636095
 10
90.98497176544821
 20
-138.6175509636095
 10
90.98497176544821
 20
-138.6175509636095
 10
90.98497176544821
 20
-137.838959383943
 10
90.98497176544821
 20
-137.838959383943
 10
90.98497176544821
 20
-137.838959383943
 10
91.17961966036482
 20
-137.838959383943
 10
91.17961966036482
 20
-137.838959383943
 10
91.17961966036482
 20
-137.838959383943
 10
91.17961966036482
 20
-138.4545979471572
 10
91.17961966036482
 20
-138.4545979471572
 10
91.17961966036482
 20
-138.4545979471572
 10
91.6026773859535
 20
-138.5200547613769
 10
91.6026773859535
 20
-138.5200547613769
 10
91.56891545019805
 20
-138.4587320617395
 10
91.52860783302063
 20
-138.376394279642
 10
91.52860783302063
 20
-138.2578829949494
 10
91.52860783302063
 20
-138.0039794576865
 10
91.71498749877264
 20
-137.7669568883013
 10
92.02814667838186
 20
-137.7669568883013
 10
92.34543997257336
 20
-137.7669568883013
 10
92.58005097511888
 20
-137.9912326043911
 10
92.58005097511888
 20
-138.293711987996
 97
        0
 97
        0
 75
     2
 76
     1
 98
        0
  0
ENDBLK
  5
B3
330
B0
100
AcDbEntity
  8
0
100
AcDbBlockEnd
  0
BLOCK
  5
C0
330
BE
100
AcDbEntity
  8
0
100
AcDbBlockBegin
  2
block 7
 70
     0
 10
0.0
 20
0.0
 30
0.0
  3
block 7
  1

  0
SPLINE
  5
C2
330
BE
100
AcDbEntity
  8
_U+30EC_U+30A4_U+30E4_U+30FC 1
370
     0
100
AcDbSpline
210
0.0
220
0.0
230
1.0
 70
    11
 71
     3
 72
    53
 73
    49
 74
     0
 42
0.0000000001
 43
0.0000000001
 12
1.0
 22
0.0
 32
0.0
 13
1.0
 23
0.0
 33
0.0
 40
0.0
 40
0.0
 40
0.0
 40
0.0
 40
1.0
 40
1.0
 40
1.0
 40
2.0
 40
2.0
 40
2.0
 40
3.0
 40
3.0
 40
3.0
 40
4.0
 40
4.0
 40
4.0
 40
5.0
 40
5.0
 40
5.0
 40
6.0
 40
6.0
 40
6.0
 40
7.0
 40
7.0
 40
7.0
 40
8.0
 40
8.0
 40
8.0
 40
9.0
 40
9.0
 40
9.0
 40
10.0
 40
10.0
 40
10.0
 40
11.0
 40
11.0
 40
11.0
 40
12.0
 40
12.0
 40
12.0
 40
13.0
 40
13.0
 40
13.0
 40
14.0
 40
14.0
 40
14.0
 40
15.0
 40
15.0
 40
15.0
 40
16.0
 40
16.0
 40
16.0
 40
16.0
 10
92.58005097511888
 20
-133.2938449102529
 30
0.0
 10
92.58005097511888
 20
-133.3720485777681
 30
0.0
 10
92.56317000724115
 20
-133.473678894583
 30
0.0
 10
92.49978025031255
 20
-133.5753092113978
 30
0.0
 10
92.38988170433309
 20
-133.7485975143059
 30
0.0
 10
92.25862356634507
 20
-133.7699571063145
 30
0.0
 10
92.15079207765675
 20
-133.7889051314833
 30
0.0
 10
92.15079207765675
 20
-133.7889051314833
 30
0.0
 10
92.15079207765675
 20
-133.5666964726847
 30
0.0
 10
92.15079207765675
 20
-133.5666964726847
 30
0.0
 10
92.34957408715566
 20
-133.5119194544693
 30
0.0
 10
92.37920190832881
 20
-133.3847954310635
 30
0.0
 10
92.37920190832881
 20
-133.2917778529618
 30
0.0
 10
92.37920190832881
 20
-133.1522514858092
 30
0.0
 10
92.27963864880509
 20
-132.9999782653611
 30
0.0
 10
92.04709470355073
 20
-132.9999782653611
 30
0.0
 10
91.79112410899667
 20
-132.9999782653611
 30
0.0
 10
91.7211886706461
 20
-133.1798122496912
 30
0.0
 10
91.7211886706461
 20
-133.3003905916749
 30
0.0
 10
91.7211886706461
 20
-133.3320854701392
 30
0.0
 10
91.7211886706461
 20
-133.473678894583
 30
0.0
 10
91.85037975134297
 20
-133.5625623581024
 30
0.0
 10
91.85037975134297
 20
-133.5625623581024
 30
0.0
 10
91.83143172617409
 20
-133.7382622278502
 30
0.0
 10
91.83143172617409
 20
-133.7382622278502
 30
0.0
 10
91.83143172617409
 20
-133.7382622278502
 30
0.0
 10
90.98497176544821
 20
-133.6176838858664
 30
0.0
 10
90.98497176544821
 20
-133.6176838858664
 30
0.0
 10
90.98497176544821
 20
-133.6176838858664
 30
0.0
 10
90.98497176544821
 20
-132.8390923061999
 30
0.0
 10
90.98497176544821
 20
-132.8390923061999
 30
0.0
 10
90.98497176544821
 20
-132.8390923061999
 30
0.0
 10
91.17961966036482
 20
-132.8390923061999
 30
0.0
 10
91.17961966036482
 20
-132.8390923061999
 30
0.0
 10
91.17961966036482
 20
-132.8390923061999
 30
0.0
 10
91.17961966036482
 20
-133.4547308694141
 30
0.0
 10
91.17961966036482
 20
-133.4547308694141
 30
0.0
 10
91.17961966036482
 20
-133.4547308694141
 30
0.0
 10
91.6026773859535
 20
-133.5201876836338
 30
0.0
 10
91.6026773859535
 20
-133.5201876836338
 30
0.0
 10
91.56891545019805
 20
-133.4588649839964
 30
0.0
 10
91.52860783302063
 20
-133.3765272018989
 30
0.0
 10
91.52860783302063
 20
-133.2580159172063
 30
0.0
 10
91.52860783302063
 20
-133.0041123799434
 30
0.0
 10
91.71498749877264
 20
-132.7670898105582
 30
0.0
 10
92.02814667838186
 20
-132.7670898105582
 30
0.0
 10
92.34543997257336
 20
-132.7670898105582
 30
0.0
 10
92.58005097511888
 20
-132.991365526648
 30
0.0
 10
92.58005097511888
 20
-133.2938449102529
 30
0.0
  0
HATCH
  5
C3
330
BE
100
AcDbEntity
  8
_U+30EC_U+30A4_U+30E4_U+30FC 1
 62
   179
420
  2234388
100
AcDbHatch
 10
0.0
 20
0.0
 30
0.0
210
0.0
220
0.0
230
1.0
  2
SOLID
 70
     1
 71
     0
 91
        1
 92
        1
 93
        1
 72
     4
 94
        3
 73
     0
 74
     1
 95
       53
 96
       49
 40
0.0
 40
0.0
 40
0.0
 40
0.0
 40
1.0
 40
1.0
 40
1.0
 40
2.0
 40
2.0
 40
2.0
 40
3.0
 40
3.0
 40
3.0
 40
4.0
 40
4.0
 40
4.0
 40
5.0
 40
5.0
 40
5.0
 40
6.0
 40
6.0
 40
6.0
 40
7.0
 40
7.0
 40
7.0
 40
8.0
 40
8.0
 40
8.0
 40
9.0
 40
9.0
 40
9.0
 40
10.0
 40
10.0
 40
10.0
 40
11.0
 40
11.0
 40
11.0
 40
12.0
 40
12.0
 40
12.0
 40
13.0
 40
13.0
 40
13.0
 40
14.0
 40
14.0
 40
14.0
 40
15.0
 40
15.0
 40
15.0
 40
16.0
 40
16.0
 40
16.0
 40
16.0
 10
92.58005097511888
 20
-133.2938449102529
 10
92.58005097511888
 20
-133.3720485777681
 10
92.56317000724115
 20
-133.473678894583
 10
92.49978025031255
 20
-133.5753092113978
 10
92.38988170433309
 20
-133.7485975143059
 10
92.25862356634507
 20
-133.7699571063145
 10
92.15079207765675
 20
-133.7889051314833
 10
92.15079207765675
 20
-133.7889051314833
 10
92.15079207765675
 20
-133.5666964726847
 10
92.15079207765675
 20
-133.5666964726847
 10
92.34957408715566
 20
-133.5119194544693
 10
92.37920190832881
 20
-133.3847954310635
 10
92.37920190832881
 20
-133.2917778529618
 10
92.37920190832881
 20
-133.1522514858092
 10
92.27963864880509
 20
-132.9999782653611
 10
92.04709470355073
 20
-132.9999782653611
 10
91.79112410899667
 20
-132.9999782653611
 10
91.7211886706461
 20
-133.1798122496912
 10
91.7211886706461
 20
-133.3003905916749
 10
91.7211886706461
 20
-133.3320854701392
 10
91.7211886706461
 20
-133.473678894583
 10
91.85037975134297
 20
-133.5625623581024
 10
91.85037975134297
 20
-133.5625623581024
 10
91.83143172617409
 20
-133.7382622278502
 10
91.83143172617409
 20
-133.7382622278502
 10
91.83143172617409
 20
-133.7382622278502
 10
90.98497176544821
 20
-133.6176838858664
 10
90.98497176544821
 20
-133.6176838858664
 10
90.98497176544821
 20
-133.6176838858664
 10
90.98497176544821
 20
-132.8390923061999
 10
90.98497176544821
 20
-132.8390923061999
 10
90.98497176544821
 20
-132.8390923061999
 10
91.17961966036482
 20
-132.8390923061999
 10
91.17961966036482
 20
-132.8390923061999
 10
91.17961966036482
 20
-132.8390923061999
 10
91.17961966036482
 20
-133.4547308694141
 10
91.17961966036482
 20
-133.4547308694141
 10
91.17961966036482
 20
-133.4547308694141
 10
91.6026773859535
 20
-133.5201876836338
 10
91.6026773859535
 20
-133.5201876836338
 10
91.56891545019805
 20
-133.4588649839964
 10
91.52860783302063
 20
-133.3765272018989
 10
91.52860783302063
 20
-133.2580159172063
 10
91.52860783302063
 20
-133.0041123799434
 10
91.71498749877264
 20
-132.7670898105582
 10
92.02814667838186
 20
-132.7670898105582
 10
92.34543997257336
 20
-132.7670898105582
 10
92.58005097511888
 20
-132.991365526648
 10
92.58005097511888
 20
-133.2938449102529
 97
        0
 97
        0
 75
     2
 76
     1
 98
        0
  0
ENDBLK
  5
C1
330
BE
100
AcDbEntity
  8
0
100
AcDbBlockEnd
  0
ENDSEC
  0
SECTION
  2
ENTITIES
  0
SPLINE
  5
41
330
1F
100
AcDbEntity
  8
_U+30EC_U+30A4_U+30E4_U+30FC 1
 62
   179
420
  2234388
370
    25
100
AcDbSpline
210
0.0
220
0.0
230
1.0
 70
    11
 71
     3
 72
    68
 73
    64
 74
     0
 42
0.0000000001
 43
0.0000000001
 12
1.0
 22
0.0
 32
0.0
 13
1.0
 23
0.0
 33
0.0
 40
0.0
 40
0.0
 40
0.0
 40
0.0
 40
1.0
 40
1.0
 40
1.0
 40
2.0
 40
2.0
 40
2.0
 40
3.0
 40
3.0
 40
3.0
 40
4.0
 40
4.0
 40
4.0
 40
5.0
 40
5.0
 40
5.0
 40
6.0
 40
6.0
 40
6.0
 40
7.0
 40
7.0
 40
7.0
 40
8.0
 40
8.0
 40
8.0
 40
9.0
 40
9.0
 40
9.0
 40
10.0
 40
10.0
 40
10.0
 40
11.0
 40
11.0
 40
11.0
 40
12.0
 40
12.0
 40
12.0
 40
13.0
 40
13.0
 40
13.0
 40
14.0
 40
14.0
 40
14.0
 40
15.0
 40
15.0
 40
15.0
 40
16.0
 40
16.0
 40
16.0
 40
17.0
 40
17.0
 40
17.0
 40
18.0
 40
18.0
 40
18.0
 40
19.0
 40
19.0
 40
19.0
 40
20.0
 40
20.0
 40
20.0
 40
21.0
 40
21.0
 40
21.0
 40
21.0
 10
104.0277434571423
 20
-120.2316055254978
 30
0.0
 10
103.8837395719272
 20
-119.8364238589298
 30
0.0
 10
103.5082429148403
 20
-119.5735691367732
 30
0.0
 10
103.0879434811186
 20
-119.5735691367732
 30
0.0
 10
103.0879434811186
 20
-119.5735691367732
 30
0.0
 10
86.22488608955503
 20
-119.5735691367732
 30
0.0
 10
86.22488608955503
 20
-119.5735691367732
 30
0.0
 10
86.22488608955503
 20
-119.5735691367732
 30
0.0
 10
86.22488608955503
 20
-120.7735074698065
 30
0.0
 10
86.22488608955503
 20
-120.7735074698065
 30
0.0
 10
86.22488608955503
 20
-120.7735074698065
 30
0.0
 10
87.42513971404331
 20
-120.7735074698065
 30
0.0
 10
87.42513971404331
 20
-120.7735074698065
 30
0.0
 10
87.42513971404331
 20
-120.7735074698065
 30
0.0
 10
87.42513971404331
 20
-130.7737696895287
 30
0.0
 10
87.42513971404331
 20
-130.7737696895287
 30
0.0
 10
87.42513971404331
 20
-130.7737696895287
 30
0.0
 10
86.87530028362644
 20
-130.7737696895287
 30
0.0
 10
86.87530028362644
 20
-130.7737696895287
 30
0.0
 10
86.87530028362644
 20
-130.7737696895287
 30
0.0
 10
87.52504637816115
 20
-135.7739713549455
 30
0.0
 10
87.52504637816115
 20
-135.7739713549455
 30
0.0
 10
87.52504637816115
 20
-135.7739713549455
 30
0.0
 10
86.87530028362644
 20
-135.7739713549455
 30
0.0
 10
86.87530028362644
 20
-135.7739713549455
 30
0.0
 10
86.87530028362644
 20
-135.7739713549455
 30
0.0
 10
87.52504637816115
 20
-140.7735027425843
 30
0.0
 10
87.52504637816115
 20
-140.7735027425843
 30
0.0
 10
87.52504637816115
 20
-140.7735027425843
 30
0.0
 10
86.87530028362644
 20
-140.7735027425843
 30
0.0
 10
86.87530028362644
 20
-140.7735027425843
 30
0.0
 10
86.87530028362644
 20
-140.7735027425843
 30
0.0
 10
87.52504637816115
 20
-145.7737044080011
 30
0.0
 10
87.52504637816115
 20
-145.7737044080011
 30
0.0
 10
87.52504637816115
 20
-145.7737044080011
 30
0.0
 10
88.52481857487706
 20
-145.7737044080011
 30
0.0
 10
88.52481857487706
 20
-145.7737044080011
 30
0.0
 10
88.52481857487706
 20
-145.7737044080011
 30
0.0
 10
89.17527022494932
 20
-140.7735027425843
 30
0.0
 10
89.17527022494932
 20
-140.7735027425843
 30
0.0
 10
89.17527022494932
 20
-140.7735027425843
 30
0.0
 10
88.52481857487706
 20
-140.7735027425843
 30
0.0
 10
88.52481857487706
 20
-140.7735027425843
 30
0.0
 10
88.52481857487706
 20
-140.7735027425843
 30
0.0
 10
89.17527022494932
 20
-135.7739713549455
 30
0.0
 10
89.17527022494932
 20
-135.7739713549455
 30
0.0
 10
89.17527022494932
 20
-135.7739713549455
 30
0.0
 10
88.52481857487706
 20
-135.7739713549455
 30
0.0
 10
88.52481857487706
 20
-135.7739713549455
 30
0.0
 10
88.52481857487706
 20
-135.7739713549455
 30
0.0
 10
89.17527022494932
 20
-130.7737696895287
 30
0.0
 10
89.17527022494932
 20
-130.7737696895287
 30
0.0
 10
89.17527022494932
 20
-130.7737696895287
 30
0.0
 10
88.62543079453245
 20
-130.7737696895287
 30
0.0
 10
88.62543079453245
 20
-130.7737696895287
 30
0.0
 10
88.62543079453245
 20
-130.7737696895287
 30
0.0
 10
88.62543079453245
 20
-120.7735074698065
 30
0.0
 10
88.62543079453245
 20
-120.7735074698065
 30
0.0
 10
88.62543079453245
 20
-120.7735074698065
 30
0.0
 10
104.2248051187815
 20
-120.7735074698065
 30
0.0
 10
104.2248051187815
 20
-120.7735074698065
 30
0.0
 10
104.2248051187815
 20
-120.7735074698065
 30
0.0
 10
104.0277434571423
 20
-120.2316055254978
 30
0.0
 10
104.0277434571423
 20
-120.2316055254978
 30
0.0
  0
HATCH
  5
42
330
1F
100
AcDbEntity
  8
_U+30EC_U+30A4_U+30E4_U+30FC 1
 62
    41
420
 16705972
100
AcDbHatch
 10
0.0
 20
0.0
 30
0.0
210
0.0
220
0.0
230
1.0
  2
SOLID
 70
     1
 71
     0
 91
        1
 92
        1
 93
        2
 72
     4
 94
        3
 73
     0
 74
     0
 95
       68
 96
       64
 40
0.0
 40
0.0
 40
0.0
 40
0.0
 40
0.3527777776895833
 40
0.3527777776895833
 40
0.3527777776895833
 40
0.7055555553791667
 40
0.7055555553791667
 40
0.7055555553791667
 40
1.05833333306875
 40
1.05833333306875
 40
1.05833333306875
 40
1.411111110758333
 40
1.411111110758333
 40
1.411111110758333
 40
1.763888888447917
 40
1.763888888447917
 40
1.763888888447917
 40
2.1166666661375
 40
2.1166666661375
 40
2.1166666661375
 40
2.469444443827083
 40
2.469444443827083
 40
2.469444443827083
 40
2.822222221516667
 40
2.822222221516667
 40
2.822222221516667
 40
3.17499999920625
 40
3.17499999920625
 40
3.17499999920625
 40
3.527777776895833
 40
3.527777776895833
 40
3.527777776895833
 40
3.880555554585417
 40
3.880555554585417
 40
3.880555554585417
 40
4.233333332275
 40
4.233333332275
 40
4.233333332275
 40
4.586111109964584
 40
4.586111109964584
 40
4.586111109964584
 40
4.938888887654167
 40
4.938888887654167
 40
4.938888887654167
 40
5.29166666534375
 40
5.29166666534375
 40
5.29166666534375
 40
5.644444443033334
 40
5.644444443033334
 40
5.644444443033334
 40
5.997222220722917
 40
5.997222220722917
 40
5.997222220722917
 40
6.349999998412501
 40
6.349999998412501
 40
6.349999998412501
 40
6.702777776102083
 40
6.702777776102083
 40
6.702777776102083
 40
7.055555553791667
 40
7.055555553791667
 40
7.055555553791667
 40
7.40833333148125
 40
7.40833333148125
 40
7.40833333148125
 40
7.40833333148125
 10
104.0277434571423
 20
-120.2316055254978
 10
103.8837395719272
 20
-119.8364238589298
 10
103.5082429148403
 20
-119.5735691367732
 10
103.0879434811186
 20
-119.5735691367732
 10
103.0879434811186
 20
-119.5735691367732
 10
86.22488608955503
 20
-119.5735691367732
 10
86.22488608955503
 20
-119.5735691367732
 10
86.22488608955503
 20
-119.5735691367732
 10
86.22488608955503
 20
-120.7735074698065
 10
86.22488608955503
 20
-120.7735074698065
 10
86.22488608955503
 20
-120.7735074698065
 10
87.42513971404331
 20
-120.7735074698065
 10
87.42513971404331
 20
-120.7735074698065
 10
87.42513971404331
 20
-120.7735074698065
 10
87.42513971404331
 20
-130.7737696895287
 10
87.42513971404331
 20
-130.7737696895287
 10
87.42513971404331
 20
-130.7737696895287
 10
86.87530028362644
 20
-130.7737696895287
 10
86.87530028362644
 20
-130.7737696895287
 10
86.87530028362644
 20
-130.7737696895287
 10
87.52504637816115
 20
-135.7739713549455
 10
87.52504637816115
 20
-135.7739713549455
 10
87.52504637816115
 20
-135.7739713549455
 10
86.87530028362644
 20
-135.7739713549455
 10
86.87530028362644
 20
-135.7739713549455
 10
86.87530028362644
 20
-135.7739713549455
 10
87.52504637816115
 20
-140.7735027425843
 10
87.52504637816115
 20
-140.7735027425843
 10
87.52504637816115
 20
-140.7735027425843
 10
86.87530028362644
 20
-140.7735027425843
 10
86.87530028362644
 20
-140.7735027425843
 10
86.87530028362644
 20
-140.7735027425843
 10
87.52504637816115
 20
-145.7737044080011
 10
87.52504637816115
 20
-145.7737044080011
 10
87.52504637816115
 20
-145.7737044080011
 10
88.52481857487706
 20
-145.7737044080011
 10
88.52481857487706
 20
-145.7737044080011
 10
88.52481857487706
 20
-145.7737044080011
 10
89.17527022494932
 20
-140.7735027425843
 10
89.17527022494932
 20
-140.7735027425843
 10
89.17527022494932
 20
-140.7735027425843
 10
88.52481857487706
 20
-140.7735027425843
 10
88.52481857487706
 20
-140.7735027425843
 10
88.52481857487706
 20
-140.7735027425843
 10
89.17527022494932
 20
-135.7739713549455
 10
89.17527022494932
 20
-135.7739713549455
 10
89.17527022494932
 20
-135.7739713549455
 10
88.52481857487706
 20
-135.7739713549455
 10
88.52481857487706
 20
-135.7739713549455
 10
88.52481857487706
 20
-135.7739713549455
 10
89.17527022494932
 20
-130.7737696895287
 10
89.17527022494932
 20
-130.7737696895287
 10
89.17527022494932
 20
-130.7737696895287
 10
88.62543079453245
 20
-130.7737696895287
 10
88.62543079453245
 20
-130.7737696895287
 10
88.62543079453245
 20
-130.7737696895287
 10
88.62543079453245
 20
-120.7735074698065
 10
88.62543079453245
 20
-120.7735074698065
 10
88.62543079453245
 20
-120.7735074698065
 10
104.2248051187815
 20
-120.7735074698065
 10
104.2248051187815
 20
-120.7735074698065
 10
104.2248051187815
 20
-120.7735074698065
 10
104.0277434571423
 20
-120.2316055254978
 10
104.0277434571423
 20
-120.2316055254978
 97
        0
 72
     1
 10
104.0277434571423
 20
-120.2316055254978
 11
104.0277434571423
 21
-120.2316055254978
 97
        0
 75
     2
 76
     1
 98
        0
  0
SPLINE
  5
43
330
1F
100
AcDbEntity
  8
_U+30EC_U+30A4_U+30E4_U+30FC 1
 62
   179
420
  2234388
370
     9
100
AcDbSpline
210
0.0
220
0.0
230
1.0
 70
    11
 71
     3
 72
    17
 73
    13
 74
     0
 42
0.0000000001
 43
0.0000000001
 12
1.0
 22
0.0
 32
0.0
 13
1.0
 23
0.0
 33
0.0
 40
0.0
 40
0.0
 40
0.0
 40
0.0
 40
1.0
 40
1.0
 40
1.0
 40
2.0
 40
2.0
 40
2.0
 40
3.0
 40
3.0
 40
3.0
 40
4.0
 40
4.0
 40
4.0
 40
4.0
 10
82.32503151082459
 20
-145.7737044080011
 30
0.0
 10
82.32503151082459
 20
-145.718565241348
 30
0.0
 10
82.2802640119667
 20
-145.6737977413594
 30
0.0
 10
82.22512484670675
 20
-145.6737977413594
 30
0.0
 10
82.17002095922368
 20
-145.6737977413594
 30
0.0
 10
82.12521818258891
 20
-145.718565241348
 30
0.0
 10
82.12521818258891
 20
-145.7737044080011
 30
0.0
 10
82.12521818258891
 20
-145.828808296876
 30
0.0
 10
82.17002095922368
 20
-145.8736110746427
 30
0.0
 10
82.22512484670675
 20
-145.8736110746427
 30
0.0
 10
82.2802640119667
 20
-145.8736110746427
 30
0.0
 10
82.32503151082459
 20
-145.828808296876
 30
0.0
 10
82.32503151082459
 20
-145.7737044080011
 30
0.0
  0
SPLINE
  5
44
330
1F
100
AcDbEntity
  8
_U+30EC_U+30A4_U+30E4_U+30FC 1
 62
   179
420
  2234388
370
     9
100
AcDbSpline
210
0.0
220
0.0
230
1.0
 70
    11
 71
     3
 72
    17
 73
    13
 74
     0
 42
0.0000000001
 43
0.0000000001
 12
1.0
 22
0.0
 32
0.0
 13
1.0
 23
0.0
 33
0.0
 40
0.0
 40
0.0
 40
0.0
 40
0.0
 40
1.0
 40
1.0
 40
1.0
 40
2.0
 40
2.0
 40
2.0
 40
3.0
 40
3.0
 40
3.0
 40
4.0
 40
4.0
 40
4.0
 40
4.0
 10
82.32503151082459
 20
-120.7735074698065
 30
0.0
 10
82.32503151082459
 20
-120.7183683031538
 30
0.0
 10
82.2802640119667
 20
-120.6736008031649
 30
0.0
 10
82.22512484670675
 20
-120.6736008031649
 30
0.0
 10
82.17002095922368
 20
-120.6736008031649
 30
0.0
 10
82.12521818258891
 20
-120.7183683031538
 30
0.0
 10
82.12521818258891
 20
-120.7735074698065
 30
0.0
 10
82.12521818258891
 20
-120.8289641364595
 30
0.0
 10
82.17002095922368
 20
-120.8737669142259
 30
0.0
 10
82.22512484670675
 20
-120.8737669142259
 30
0.0
 10
82.2802640119667
 20
-120.8737669142259
 30
0.0
 10
82.32503151082459
 20
-120.8289641364595
 30
0.0
 10
82.32503151082459
 20
-120.7735074698065
 30
0.0
  0
SPLINE
  5
45
330
1F
100
AcDbEntity
  8
_U+30EC_U+30A4_U+30E4_U+30FC 1
 62
   179
420
  2234388
370
     9
100
AcDbSpline
210
0.0
220
0.0
230
1.0
 70
    11
 71
     3
 72
    17
 73
    13
 74
     0
 42
0.0000000001
 43
0.0000000001
 12
1.0
 22
0.0
 32
0.0
 13
1.0
 23
0.0
 33
0.0
 40
0.0
 40
0.0
 40
0.0
 40
0.0
 40
1.0
 40
1.0
 40
1.0
 40
2.0
 40
2.0
 40
2.0
 40
3.0
 40
3.0
 40
3.0
 40
4.0
 40
4.0
 40
4.0
 40
4.0
 10
82.32503151082459
 20
-119.5735691367732
 30
0.0
 10
82.32503151082459
 20
-119.518465247898
 30
0.0
 10
82.2802640119667
 20
-119.4736624701316
 30
0.0
 10
82.22512484670675
 20
-119.4736624701316
 30
0.0
 10
82.17002095922368
 20
-119.4736624701316
 30
0.0
 10
82.12521818258891
 20
-119.518465247898
 30
0.0
 10
82.12521818258891
 20
-119.5735691367732
 30
0.0
 10
82.12521818258891
 20
-119.6290610812038
 30
0.0
 10
82.17002095922368
 20
-119.6738285811927
 30
0.0
 10
82.22512484670675
 20
-119.6738285811927
 30
0.0
 10
82.2802640119667
 20
-119.6738285811927
 30
0.0
 10
82.32503151082459
 20
-119.6290610812038
 30
0.0
 10
82.32503151082459
 20
-119.5735691367732
 30
0.0
  0
SPLINE
  5
46
330
1F
100
AcDbEntity
  8
_U+30EC_U+30A4_U+30E4_U+30FC 1
 62
   179
420
  2234388
370
     9
100
AcDbSpline
210
0.0
220
0.0
230
1.0
 70
    11
 71
     3
 72
    17
 73
    13
 74
     0
 42
0.0000000001
 43
0.0000000001
 12
1.0
 22
0.0
 32
0.0
 13
1.0
 23
0.0
 33
0.0
 40
0.0
 40
0.0
 40
0.0
 40
0.0
 40
1.0
 40
1.0
 40
1.0
 40
2.0
 40
2.0
 40
2.0
 40
3.0
 40
3.0
 40
3.0
 40
4.0
 40
4.0
 40
4.0
 40
4.0
 10
93.27493595369147
 20
-140.7735027425843
 30
0.0
 10
93.27493595369147
 20
-140.7183635759312
 30
0.0
 10
93.2301331770567
 20
-140.6735960759426
 30
0.0
 10
93.17502928957363
 20
-140.6735960759426
 30
0.0
 10
93.11989012431368
 20
-140.6735960759426
 30
0.0
 10
93.07512497673092
 20
-140.7183635759312
 30
0.0
 10
93.07512497673092
 20
-140.7735027425843
 30
0.0
 10
93.07512497673092
 20
-140.8286066314592
 30
0.0
 10
93.11989012431368
 20
-140.8734094092259
 30
0.0
 10
93.17502928957363
 20
-140.8734094092259
 30
0.0
 10
93.2301331770567
 20
-140.8734094092259
 30
0.0
 10
93.27493595369147
 20
-140.8286066314592
 30
0.0
 10
93.27493595369147
 20
-140.7735027425843
 30
0.0
  0
SPLINE
  5
47
330
1F
100
AcDbEntity
  8
_U+30EC_U+30A4_U+30E4_U+30FC 1
 62
   179
420
  2234388
370
     9
100
AcDbSpline
210
0.0
220
0.0
230
1.0
 70
    11
 71
     3
 72
    17
 73
    13
 74
     0
 42
0.0000000001
 43
0.0000000001
 12
1.0
 22
0.0
 32
0.0
 13
1.0
 23
0.0
 33
0.0
 40
0.0
 40
0.0
 40
0.0
 40
0.0
 40
1.0
 40
1.0
 40
1.0
 40
2.0
 40
2.0
 40
2.0
 40
3.0
 40
3.0
 40
3.0
 40
4.0
 40
4.0
 40
4.0
 40
4.0
 10
93.27493595369147
 20
-145.7737044080011
 30
0.0
 10
93.27493595369147
 20
-145.718565241348
 30
0.0
 10
93.2301331770567
 20
-145.6737977413594
 30
0.0
 10
93.17502928957363
 20
-145.6737977413594
 30
0.0
 10
93.11989012431368
 20
-145.6737977413594
 30
0.0
 10
93.07512497673092
 20
-145.718565241348
 30
0.0
 10
93.07512497673092
 20
-145.7737044080011
 30
0.0
 10
93.07512497673092
 20
-145.828808296876
 30
0.0
 10
93.11989012431368
 20
-145.8736110746427
 30
0.0
 10
93.17502928957363
 20
-145.8736110746427
 30
0.0
 10
93.2301331770567
 20
-145.8736110746427
 30
0.0
 10
93.27493595369147
 20
-145.828808296876
 30
0.0
 10
93.27493595369147
 20
-145.7737044080011
 30
0.0
  0
SPLINE
  5
48
330
1F
100
AcDbEntity
  8
_U+30EC_U+30A4_U+30E4_U+30FC 1
 62
   179
420
  2234388
370
     9
100
AcDbSpline
210
0.0
220
0.0
230
1.0
 70
    11
 71
     3
 72
    17
 73
    13
 74
     0
 42
0.0000000001
 43
0.0000000001
 12
1.0
 22
0.0
 32
0.0
 13
1.0
 23
0.0
 33
0.0
 40
0.0
 40
0.0
 40
0.0
 40
0.0
 40
1.0
 40
1.0
 40
1.0
 40
2.0
 40
2.0
 40
2.0
 40
3.0
 40
3.0
 40
3.0
 40
4.0
 40
4.0
 40
4.0
 40
4.0
 10
93.27493595369147
 20
-135.7739713549455
 30
0.0
 10
93.27493595369147
 20
-135.7181619105151
 30
0.0
 10
93.2301331770567
 20
-135.6733591327483
 30
0.0
 10
93.17502928957363
 20
-135.6733591327483
 30
0.0
 10
93.11989012431368
 20
-135.6733591327483
 30
0.0
 10
93.07512497673092
 20
-135.7181619105151
 30
0.0
 10
93.07512497673092
 20
-135.7739713549455
 30
0.0
 10
93.07512497673092
 20
-135.8290752438204
 30
0.0
 10
93.11989012431368
 20
-135.8738780215871
 30
0.0
 10
93.17502928957363
 20
-135.8738780215871
 30
0.0
 10
93.2301331770567
 20
-135.8738780215871
 30
0.0
 10
93.27493595369147
 20
-135.8290752438204
 30
0.0
 10
93.27493595369147
 20
-135.7739713549455
 30
0.0
  0
SPLINE
  5
49
330
1F
100
AcDbEntity
  8
_U+30EC_U+30A4_U+30E4_U+30FC 1
 62
   179
420
  2234388
370
     9
100
AcDbSpline
210
0.0
220
0.0
230
1.0
 70
    11
 71
     3
 72
    17
 73
    13
 74
     0
 42
0.0000000001
 43
0.0000000001
 12
1.0
 22
0.0
 32
0.0
 13
1.0
 23
0.0
 33
0.0
 40
0.0
 40
0.0
 40
0.0
 40
0.0
 40
1.0
 40
1.0
 40
1.0
 40
2.0
 40
2.0
 40
2.0
 40
3.0
 40
3.0
 40
3.0
 40
4.0
 40
4.0
 40
4.0
 40
4.0
 10
93.27493595369147
 20
-130.7737696895287
 30
0.0
 10
93.27493595369147
 20
-130.7186305228756
 30
0.0
 10
93.2301331770567
 20
-130.6738630228871
 30
0.0
 10
93.17502928957363
 20
-130.6738630228871
 30
0.0
 10
93.11989012431368
 20
-130.6738630228871
 30
0.0
 10
93.07512497673092
 20
-130.7186305228756
 30
0.0
 10
93.07512497673092
 20
-130.7737696895287
 30
0.0
 10
93.07512497673092
 20
-130.8288735784036
 30
0.0
 10
93.11989012431368
 20
-130.8736763561704
 30
0.0
 10
93.17502928957363
 20
-130.8736763561704
 30
0.0
 10
93.2301331770567
 20
-130.8736763561704
 30
0.0
 10
93.27493595369147
 20
-130.8288735784036
 30
0.0
 10
93.27493595369147
 20
-130.7737696895287
 30
0.0
  0
SPLINE
  5
4A
330
1F
100
AcDbEntity
  8
_U+30EC_U+30A4_U+30E4_U+30FC 1
 62
   179
420
  2234388
370
     9
100
AcDbSpline
210
0.0
220
0.0
230
1.0
 70
    11
 71
     3
 72
    17
 73
    13
 74
     0
 42
0.0000000001
 43
0.0000000001
 12
1.0
 22
0.0
 32
0.0
 13
1.0
 23
0.0
 33
0.0
 40
0.0
 40
0.0
 40
0.0
 40
0.0
 40
1.0
 40
1.0
 40
1.0
 40
2.0
 40
2.0
 40
2.0
 40
3.0
 40
3.0
 40
3.0
 40
4.0
 40
4.0
 40
4.0
 40
4.0
 10
86.32479057544889
 20
-115.5736688599953
 30
0.0
 10
86.32479057544889
 20
-115.5183533044537
 30
0.0
 10
86.27998779881413
 20
-115.4735858044648
 30
0.0
 10
86.22488608955503
 20
-115.4735858044648
 30
0.0
 10
86.1697447460711
 20
-115.4735858044648
 30
0.0
 10
86.12497724721322
 20
-115.5183533044537
 30
0.0
 10
86.12497724721322
 20
-115.5736688599953
 30
0.0
 10
86.12497724721322
 20
-115.6289491377594
 30
0.0
 10
86.1697447460711
 20
-115.6737166377483
 30
0.0
 10
86.22488608955503
 20
-115.6737166377483
 30
0.0
 10
86.27998779881413
 20
-115.6737166377483
 30
0.0
 10
86.32479057544889
 20
-115.6289491377594
 30
0.0
 10
86.32479057544889
 20
-115.5736688599953
 30
0.0
  0
SPLINE
  5
4B
330
1F
100
AcDbEntity
  8
_U+30EC_U+30A4_U+30E4_U+30FC 1
 62
   179
420
  2234388
370
     9
100
AcDbSpline
210
0.0
220
0.0
230
1.0
 70
    11
 71
     3
 72
    17
 73
    13
 74
     0
 42
0.0000000001
 43
0.0000000001
 12
1.0
 22
0.0
 32
0.0
 13
1.0
 23
0.0
 33
0.0
 40
0.0
 40
0.0
 40
0.0
 40
0.0
 40
1.0
 40
1.0
 40
1.0
 40
2.0
 40
2.0
 40
2.0
 40
3.0
 40
3.0
 40
3.0
 40
4.0
 40
4.0
 40
4.0
 40
4.0
 10
104.3254173384369
 20
-115.5736688599953
 30
0.0
 10
104.3254173384369
 20
-115.5183533044537
 30
0.0
 10
104.2806145618021
 20
-115.4735858044648
 30
0.0
 10
104.2248051187815
 20
-115.4735858044648
 30
0.0
 10
104.1697012312984
 20
-115.4735858044648
 30
0.0
 10
104.1248984546636
 20
-115.5183533044537
 30
0.0
 10
104.1248984546636
 20
-115.5736688599953
 30
0.0
 10
104.1248984546636
 20
-115.6289491377594
 30
0.0
 10
104.1697012312984
 20
-115.6737166377483
 30
0.0
 10
104.2248051187815
 20
-115.6737166377483
 30
0.0
 10
104.2806145618021
 20
-115.6737166377483
 30
0.0
 10
104.3254173384369
 20
-115.6289491377594
 30
0.0
 10
104.3254173384369
 20
-115.5736688599953
 30
0.0
  0
POLYLINE
  5
4C
330
1F
100
AcDbEntity
  8
_U+30EC_U+30A4_U+30E4_U+30FC 1
 62
   179
420
  2234388
370
     9
100
AcDb2dPolyline
 66
     1
 10
0.0
 20
0.0
 30
0.0
  0
VERTEX
  5
4D
330
4C
100
AcDbEntity
  8
_U+30EC_U+30A4_U+30E4_U+30FC 1
 62
   179
420
  2234388
370
     9
100
AcDbVertex
100
AcDb2dVertex
 10
82.22512484670675
 20
-120.7735074698065
 30
0.0
  0
VERTEX
  5
4E
330
4C
100
AcDbEntity
  8
_U+30EC_U+30A4_U+30E4_U+30FC 1
 62
   179
420
  2234388
370
     9
100
AcDbVertex
100
AcDb2dVertex
 10
82.22512484670675
 20
-145.7737044080011
 30
0.0
  0
SEQEND
  5
4F
330
4C
100
AcDbEntity
  8
_U+30EC_U+30A4_U+30E4_U+30FC 1
 62
   179
420
  2234388
370
     9
  0
POLYLINE
  5
50
330
1F
100
AcDbEntity
  8
_U+30EC_U+30A4_U+30E4_U+30FC 1
 62
   179
420
  2234388
370
     9
100
AcDb2dPolyline
 66
     1
 10
0.0
 20
0.0
 30
0.0
  0
VERTEX
  5
51
330
50
100
AcDbEntity
  8
_U+30EC_U+30A4_U+30E4_U+30FC 1
 62
   179
420
  2234388
370
     9
100
AcDbVertex
100
AcDb2dVertex
 10
83.68516619834688
 20
-120.7735074698065
 30
0.0
  0
VERTEX
  5
52
330
50
100
AcDbEntity
  8
_U+30EC_U+30A4_U+30E4_U+30FC 1
 62
   179
420
  2234388
370
     9
100
AcDbVertex
100
AcDb2dVertex
 10
81.22535264999084
 20
-120.7735074698065
 30
0.0
  0
SEQEND
  5
53
330
50
100
AcDbEntity
  8
_U+30EC_U+30A4_U+30E4_U+30FC 1
 62
   179
420
  2234388
370
     9
  0
POLYLINE
  5
54
330
1F
100
AcDbEntity
  8
_U+30EC_U+30A4_U+30E4_U+30FC 1
 62
   179
420
  2234388
370
     9
100
AcDb2dPolyline
 66
     1
 10
0.0
 20
0.0
 30
0.0
  0
VERTEX
  5
55
330
54
100
AcDbEntity
  8
_U+30EC_U+30A4_U+30E4_U+30FC 1
 62
   179
420
  2234388
370
     9
100
AcDbVertex
100
AcDb2dVertex
 10
84.98532866517697
 20
-145.7737044080011
 30
0.0
  0
VERTEX
  5
56
330
54
100
AcDbEntity
  8
_U+30EC_U+30A4_U+30E4_U+30FC 1
 62
   179
420
  2234388
370
     9
100
AcDbVertex
100
AcDb2dVertex
 10
81.22535264999084
 20
-145.7737044080011
 30
0.0
  0
SEQEND
  5
57
330
54
100
AcDbEntity
  8
_U+30EC_U+30A4_U+30E4_U+30FC 1
 62
   179
420
  2234388
370
     9
  0
INSERT
  5
59
330
1F
100
AcDbEntity
  8
_U+30EC_U+30A4_U+30E4_U+30FC 1
100
AcDbBlockReference
  2
block 2
 10
0.0
 20
0.0
 30
0.0
  0
POLYLINE
  5
60
330
1F
100
AcDbEntity
  8
_U+30EC_U+30A4_U+30E4_U+30FC 1
 62
   179
420
  2234388
370
     9
100
AcDb2dPolyline
 66
     1
 10
0.0
 20
0.0
 30
0.0
  0
VERTEX
  5
61
330
60
100
AcDbEntity
  8
_U+30EC_U+30A4_U+30E4_U+30FC 1
 62
   179
420
  2234388
370
     9
100
AcDbVertex
100
AcDb2dVertex
 10
82.22512484670675
 20
-119.5735691367732
 30
0.0
  0
VERTEX
  5
62
330
60
100
AcDbEntity
  8
_U+30EC_U+30A4_U+30E4_U+30FC 1
 62
   179
420
  2234388
370
     9
100
AcDbVertex
100
AcDb2dVertex
 10
82.22512484670675
 20
-114.3158396936432
 30
0.0
  0
SEQEND
  5
63
330
60
100
AcDbEntity
  8
_U+30EC_U+30A4_U+30E4_U+30FC 1
 62
   179
420
  2234388
370
     9
  0
POLYLINE
  5
64
330
1F
100
AcDbEntity
  8
_U+30EC_U+30A4_U+30E4_U+30FC 1
 62
   179
420
  2234388
370
     9
100
AcDb2dPolyline
 66
     1
 10
0.0
 20
0.0
 30
0.0
  0
VERTEX
  5
65
330
64
100
AcDbEntity
  8
_U+30EC_U+30A4_U+30E4_U+30FC 1
 62
   179
420
  2234388
370
     9
100
AcDbVertex
100
AcDb2dVertex
 10
82.22512484670675
 20
-120.7735074698065
 30
0.0
  0
VERTEX
  5
66
330
64
100
AcDbEntity
  8
_U+30EC_U+30A4_U+30E4_U+30FC 1
 62
   179
420
  2234388
370
     9
100
AcDbVertex
100
AcDb2dVertex
 10
82.22512484670675
 20
-119.5735691367732
 30
0.0
  0
SEQEND
  5
67
330
64
100
AcDbEntity
  8
_U+30EC_U+30A4_U+30E4_U+30FC 1
 62
   179
420
  2234388
370
     9
  0
POLYLINE
  5
68
330
1F
100
AcDbEntity
  8
_U+30EC_U+30A4_U+30E4_U+30FC 1
 62
   179
420
  2234388
370
     9
100
AcDb2dPolyline
 66
     1
 10
0.0
 20
0.0
 30
0.0
  0
VERTEX
  5
69
330
68
100
AcDbEntity
  8
_U+30EC_U+30A4_U+30E4_U+30FC 1
 62
   179
420
  2234388
370
     9
100
AcDbVertex
100
AcDb2dVertex
 10
83.68516619834688
 20
-120.7735074698065
 30
0.0
  0
VERTEX
  5
6A
330
68
100
AcDbEntity
  8
_U+30EC_U+30A4_U+30E4_U+30FC 1
 62
   179
420
  2234388
370
     9
100
AcDbVertex
100
AcDb2dVertex
 10
81.22535264999084
 20
-120.7735074698065
 30
0.0
  0
SEQEND
  5
6B
330
68
100
AcDbEntity
  8
_U+30EC_U+30A4_U+30E4_U+30FC 1
 62
   179
420
  2234388
370
     9
  0
POLYLINE
  5
6C
330
1F
100
AcDbEntity
  8
_U+30EC_U+30A4_U+30E4_U+30FC 1
 62
   179
420
  2234388
370
     9
100
AcDb2dPolyline
 66
     1
 10
0.0
 20
0.0
 30
0.0
  0
VERTEX
  5
6D
330
6C
100
AcDbEntity
  8
_U+30EC_U+30A4_U+30E4_U+30FC 1
 62
   179
420
  2234388
370
     9
100
AcDbVertex
100
AcDb2dVertex
 10
83.68516619834688
 20
-119.5735691367732
 30
0.0
  0
VERTEX
  5
6E
330
6C
100
AcDbEntity
  8
_U+30EC_U+30A4_U+30E4_U+30FC 1
 62
   179
420
  2234388
370
     9
100
AcDbVertex
100
AcDb2dVertex
 10
81.22535264999084
 20
-119.5735691367732
 30
0.0
  0
SEQEND
  5
6F
330
6C
100
AcDbEntity
  8
_U+30EC_U+30A4_U+30E4_U+30FC 1
 62
   179
420
  2234388
370
     9
  0
INSERT
  5
71
330
1F
100
AcDbEntity
  8
_U+30EC_U+30A4_U+30E4_U+30FC 1
100
AcDbBlockReference
  2
block 3
 10
0.0
 20
0.0
 30
0.0
  0
POLYLINE
  5
80
330
1F
100
AcDbEntity
  8
_U+30EC_U+30A4_U+30E4_U+30FC 1
 62
   179
420
  2234388
370
     9
100
AcDb2dPolyline
 66
     1
 10
0.0
 20
0.0
 30
0.0
  0
VERTEX
  5
81
330
80
100
AcDbEntity
  8
_U+30EC_U+30A4_U+30E4_U+30FC 1
 62
   179
420
  2234388
370
     9
100
AcDbVertex
100
AcDb2dVertex
 10
104.2248051187815
 20
-115.5736688599953
 30
0.0
  0
VERTEX
  5
82
330
80
100
AcDbEntity
  8
_U+30EC_U+30A4_U+30E4_U+30FC 1
 62
   179
420
  2234388
370
     9
100
AcDbVertex
100
AcDb2dVertex
 10
86.22488608955503
 20
-115.5736688599953
 30
0.0
  0
SEQEND
  5
83
330
80
100
AcDbEntity
  8
_U+30EC_U+30A4_U+30E4_U+30FC 1
 62
   179
420
  2234388
370
     9
  0
POLYLINE
  5
84
330
1F
100
AcDbEntity
  8
_U+30EC_U+30A4_U+30E4_U+30FC 1
 62
   179
420
  2234388
370
     9
100
AcDb2dPolyline
 66
     1
 10
0.0
 20
0.0
 30
0.0
  0
VERTEX
  5
85
330
84
100
AcDbEntity
  8
_U+30EC_U+30A4_U+30E4_U+30FC 1
 62
   179
420
  2234388
370
     9
100
AcDbVertex
100
AcDb2dVertex
 10
104.2248051187815
 20
-118.2336133037751
 30
0.0
  0
VERTEX
  5
86
330
84
100
AcDbEntity
  8
_U+30EC_U+30A4_U+30E4_U+30FC 1
 62
   179
420
  2234388
370
     9
100
AcDbVertex
100
AcDb2dVertex
 10
104.2248051187815
 20
-114.5737202491342
 30
0.0
  0
SEQEND
  5
87
330
84
100
AcDbEntity
  8
_U+30EC_U+30A4_U+30E4_U+30FC 1
 62
   179
420
  2234388
370
     9
  0
POLYLINE
  5
88
330
1F
100
AcDbEntity
  8
_U+30EC_U+30A4_U+30E4_U+30FC 1
 62
   179
420
  2234388
370
     9
100
AcDb2dPolyline
 66
     1
 10
0.0
 20
0.0
 30
0.0
  0
VERTEX
  5
89
330
88
100
AcDbEntity
  8
_U+30EC_U+30A4_U+30E4_U+30FC 1
 62
   179
420
  2234388
370
     9
100
AcDbVertex
100
AcDb2dVertex
 10
86.22488608955503
 20
-117.0336749707415
 30
0.0
  0
VERTEX
  5
8A
330
88
100
AcDbEntity
  8
_U+30EC_U+30A4_U+30E4_U+30FC 1
 62
   179
420
  2234388
370
     9
100
AcDbVertex
100
AcDb2dVertex
 10
86.22488608955503
 20
-114.5737202491342
 30
0.0
  0
SEQEND
  5
8B
330
88
100
AcDbEntity
  8
_U+30EC_U+30A4_U+30E4_U+30FC 1
 62
   179
420
  2234388
370
     9
  0
INSERT
  5
8D
330
1F
100
AcDbEntity
  8
_U+30EC_U+30A4_U+30E4_U+30FC 1
100
AcDbBlockReference
  2
block 4
 10
0.0
 20
0.0
 30
0.0
  0
POLYLINE
  5
96
330
1F
100
AcDbEntity
  8
_U+30EC_U+30A4_U+30E4_U+30FC 1
 62
   179
420
  2234388
370
     9
100
AcDb2dPolyline
 66
     1
 10
0.0
 20
0.0
 30
0.0
  0
VERTEX
  5
97
330
96
100
AcDbEntity
  8
_U+30EC_U+30A4_U+30E4_U+30FC 1
 62
   179
420
  2234388
370
     9
100
AcDbVertex
100
AcDb2dVertex
 10
93.17502928957363
 20
-145.7737044080011
 30
0.0
  0
VERTEX
  5
98
330
96
100
AcDbEntity
  8
_U+30EC_U+30A4_U+30E4_U+30FC 1
 62
   179
420
  2234388
370
     9
100
AcDbVertex
100
AcDb2dVertex
 10
93.17502928957363
 20
-140.7735027425843
 30
0.0
  0
SEQEND
  5
99
330
96
100
AcDbEntity
  8
_U+30EC_U+30A4_U+30E4_U+30FC 1
 62
   179
420
  2234388
370
     9
  0
POLYLINE
  5
9A
330
1F
100
AcDbEntity
  8
_U+30EC_U+30A4_U+30E4_U+30FC 1
 62
   179
420
  2234388
370
     9
100
AcDb2dPolyline
 66
     1
 10
0.0
 20
0.0
 30
0.0
  0
VERTEX
  5
9B
330
9A
100
AcDbEntity
  8
_U+30EC_U+30A4_U+30E4_U+30FC 1
 62
   179
420
  2234388
370
     9
100
AcDbVertex
100
AcDb2dVertex
 10
91.0652418433988
 20
-145.7737044080011
 30
0.0
  0
VERTEX
  5
9C
330
9A
100
AcDbEntity
  8
_U+30EC_U+30A4_U+30E4_U+30FC 1
 62
   179
420
  2234388
370
     9
100
AcDbVertex
100
AcDb2dVertex
 10
94.17547176405022
 20
-145.7737044080011
 30
0.0
  0
SEQEND
  5
9D
330
9A
100
AcDbEntity
  8
_U+30EC_U+30A4_U+30E4_U+30FC 1
 62
   179
420
  2234388
370
     9
  0
POLYLINE
  5
9E
330
1F
100
AcDbEntity
  8
_U+30EC_U+30A4_U+30E4_U+30FC 1
 62
   179
420
  2234388
370
     9
100
AcDb2dPolyline
 66
     1
 10
0.0
 20
0.0
 30
0.0
  0
VERTEX
  5
9F
330
9E
100
AcDbEntity
  8
_U+30EC_U+30A4_U+30E4_U+30FC 1
 62
   179
420
  2234388
370
     9
100
AcDbVertex
100
AcDb2dVertex
 10
91.7149879379335
 20
-140.7735027425843
 30
0.0
  0
VERTEX
  5
A0
330
9E
100
AcDbEntity
  8
_U+30EC_U+30A4_U+30E4_U+30FC 1
 62
   179
420
  2234388
370
     9
100
AcDbVertex
100
AcDb2dVertex
 10
94.17547176405022
 20
-140.7735027425843
 30
0.0
  0
SEQEND
  5
A1
330
9E
100
AcDbEntity
  8
_U+30EC_U+30A4_U+30E4_U+30FC 1
 62
   179
420
  2234388
370
     9
  0
INSERT
  5
A3
330
1F
100
AcDbEntity
  8
_U+30EC_U+30A4_U+30E4_U+30FC 1
100
AcDbBlockReference
  2
block 5
 10
0.0
 20
0.0
 30
0.0
  0
POLYLINE
  5
A8
330
1F
100
AcDbEntity
  8
_U+30EC_U+30A4_U+30E4_U+30FC 1
 62
   179
420
  2234388
370
     9
100
AcDb2dPolyline
 66
     1
 10
0.0
 20
0.0
 30
0.0
  0
VERTEX
  5
A9
330
A8
100
AcDbEntity
  8
_U+30EC_U+30A4_U+30E4_U+30FC 1
 62
   179
420
  2234388
370
     9
100
AcDbVertex
100
AcDb2dVertex
 10
93.17502928957363
 20
-140.7735027425843
 30
0.0
  0
VERTEX
  5
AA
330
A8
100
AcDbEntity
  8
_U+30EC_U+30A4_U+30E4_U+30FC 1
 62
   179
420
  2234388
370
     9
100
AcDbVertex
100
AcDb2dVertex
 10
93.17502928957363
 20
-135.7739713549455
 30
0.0
  0
SEQEND
  5
AB
330
A8
100
AcDbEntity
  8
_U+30EC_U+30A4_U+30E4_U+30FC 1
 62
   179
420
  2234388
370
     9
  0
POLYLINE
  5
AC
330
1F
100
AcDbEntity
  8
_U+30EC_U+30A4_U+30E4_U+30FC 1
 62
   179
420
  2234388
370
     9
100
AcDb2dPolyline
 66
     1
 10
0.0
 20
0.0
 30
0.0
  0
VERTEX
  5
AD
330
AC
100
AcDbEntity
  8
_U+30EC_U+30A4_U+30E4_U+30FC 1
 62
   179
420
  2234388
370
     9
100
AcDbVertex
100
AcDb2dVertex
 10
91.7149879379335
 20
-135.7739713549455
 30
0.0
  0
VERTEX
  5
AE
330
AC
100
AcDbEntity
  8
_U+30EC_U+30A4_U+30E4_U+30FC 1
 62
   179
420
  2234388
370
     9
100
AcDbVertex
100
AcDb2dVertex
 10
94.17547176405022
 20
-135.7739713549455
 30
0.0
  0
SEQEND
  5
AF
330
AC
100
AcDbEntity
  8
_U+30EC_U+30A4_U+30E4_U+30FC 1
 62
   179
420
  2234388
370
     9
  0
INSERT
  5
B1
330
1F
100
AcDbEntity
  8
_U+30EC_U+30A4_U+30E4_U+30FC 1
100
AcDbBlockReference
  2
block 6
 10
0.0
 20
0.0
 30
0.0
  0
POLYLINE
  5
B6
330
1F
100
AcDbEntity
  8
_U+30EC_U+30A4_U+30E4_U+30FC 1
 62
   179
420
  2234388
370
     9
100
AcDb2dPolyline
 66
     1
 10
0.0
 20
0.0
 30
0.0
  0
VERTEX
  5
B7
330
B6
100
AcDbEntity
  8
_U+30EC_U+30A4_U+30E4_U+30FC 1
 62
   179
420
  2234388
370
     9
100
AcDbVertex
100
AcDb2dVertex
 10
93.17502928957363
 20
-135.7739713549455
 30
0.0
  0
VERTEX
  5
B8
330
B6
100
AcDbEntity
  8
_U+30EC_U+30A4_U+30E4_U+30FC 1
 62
   179
420
  2234388
370
     9
100
AcDbVertex
100
AcDb2dVertex
 10
93.17502928957363
 20
-130.7737696895287
 30
0.0
  0
SEQEND
  5
B9
330
B6
100
AcDbEntity
  8
_U+30EC_U+30A4_U+30E4_U+30FC 1
 62
   179
420
  2234388
370
     9
  0
POLYLINE
  5
BA
330
1F
100
AcDbEntity
  8
_U+30EC_U+30A4_U+30E4_U+30FC 1
 62
   179
420
  2234388
370
     9
100
AcDb2dPolyline
 66
     1
 10
0.0
 20
0.0
 30
0.0
  0
VERTEX
  5
BB
330
BA
100
AcDbEntity
  8
_U+30EC_U+30A4_U+30E4_U+30FC 1
 62
   179
420
  2234388
370
     9
100
AcDbVertex
100
AcDb2dVertex
 10
91.7149879379335
 20
-130.7737696895287
 30
0.0
  0
VERTEX
  5
BC
330
BA
100
AcDbEntity
  8
_U+30EC_U+30A4_U+30E4_U+30FC 1
 62
   179
420
  2234388
370
     9
100
AcDbVertex
100
AcDb2dVertex
 10
94.17547176405022
 20
-130.7737696895287
 30
0.0
  0
SEQEND
  5
BD
330
BA
100
AcDbEntity
  8
_U+30EC_U+30A4_U+30E4_U+30FC 1
 62
   179
420
  2234388
370
     9
  0
INSERT
  5
BF
330
1F
100
AcDbEntity
  8
_U+30EC_U+30A4_U+30E4_U+30FC 1
100
AcDbBlockReference
  2
block 7
 10
0.0
 20
0.0
 30
0.0
  0
ENDSEC
  0
SECTION
  2
OBJECTS
  0
DICTIONARY
  5
C
330
0
100
AcDbDictionary
281
     1
  3
ACAD_GROUP
350
D
  3
ACAD_LAYOUT
350
1A
  3
ACAD_MATERIAL
350
3B
  3
ACAD_MLEADERSTYLE
350
C5
  3
ACAD_MLINESTYLE
350
17
  3
ACAD_PLOTSETTINGS
350
19
  3
ACAD_PLOTSTYLENAME
350
E
  3
ACAD_TABLESTYLE
350
C4
  3
ACAD_VISUALSTYLE
350
2A
  0
SUN
  5
3F
330
29
100
AcDbSun
 90
        1
290
     0
 63
     7
421
 16777215
 40
1.0
291
     1
 91
  2455826
 92
 54000000
292
     0
 70
     2
 71
   256
280
     1
  0
DICTIONARY
  5
D
102
{ACAD_REACTORS
330
C
102
}
330
C
100
AcDbDictionary
281
     1
  0
DICTIONARY
  5
1A
102
{ACAD_REACTORS
330
C
102
}
330
C
100
AcDbDictionary
281
     1
  3
Layout1
350
1E
  3
Layout2
350
26
  3
Model
350
22
  0
DICTIONARY
  5
3B
102
{ACAD_REACTORS
330
C
102
}
330
C
100
AcDbDictionary
281
     1
  3
ByBlock
350
3D
  3
ByLayer
350
3C
  3
Global
350
3E
  0
DICTIONARY
  5
C5
102
{ACAD_REACTORS
330
C
102
}
330
C
100
AcDbDictionary
281
     1
  0
DICTIONARY
  5
17
102
{ACAD_REACTORS
330
C
102
}
330
C
100
AcDbDictionary
281
     1
  3
Standard
350
18
  0
DICTIONARY
  5
19
102
{ACAD_REACTORS
330
C
102
}
330
C
100
AcDbDictionary
281
     1
  0
ACDBDICTIONARYWDFLT
  5
E
102
{ACAD_REACTORS
330
C
102
}
330
C
100
AcDbDictionary
281
     1
  3
Normal
350
F
100
AcDbDictionaryWithDefault
340
F
  0
DICTIONARY
  5
C4
102
{ACAD_REACTORS
330
C
102
}
330
C
100
AcDbDictionary
281
     1
  0
DICTIONARY
  5
2A
102
{ACAD_REACTORS
330
C
102
}
330
C
100
AcDbDictionary
281
     1
  3
2dWireframe
350
2F
  3
3D Hidden
350
31
  3
3dWireframe
350
30
  3
Basic
350
32
  3
Brighten
350
36
  3
ColorChange
350
3A
  3
Conceptual
350
34
  3
Dim
350
35
  3
Facepattern
350
39
  3
Flat
350
2B
  3
FlatWithEdges
350
2C
  3
Gouraud
350
2D
  3
GouraudWithEdges
350
2E
  3
Linepattern
350
38
  3
Realistic
350
33
  3
Thicken
350
37
  0
LAYOUT
  5
1E
102
{ACAD_REACTORS
330
1A
102
}
330
1A
100
AcDbPlotSettings
  1

  2
none_device
  4

  6

 40
0.0
 41
0.0
 42
0.0
 43
0.0
 44
0.0
 45
0.0
 46
0.0
 47
0.0
 48
0.0
 49
0.0
140
0.0
141
0.0
142
1.0
143
1.0
 70
   688
 72
     0
 73
     0
 74
     5
  7

 75
    16
 76
     0
 77
     2
 78
   300
147
1.0
148
0.0
149
0.0
100
AcDbLayout
  1
Layout1
 70
     1
 71
     1
 10
0.0
 20
0.0
 11
12.0
 21
9.0
 12
0.0
 22
0.0
 32
0.0
 14
1.000000000000000E+20
 24
1.000000000000000E+20
 34
1.000000000000000E+20
 15
-1.000000000000000E+20
 25
-1.000000000000000E+20
 35
-1.000000000000000E+20
146
0.0
 13
0.0
 23
0.0
 33
0.0
 16
1.0
 26
0.0
 36
0.0
 17
0.0
 27
1.0
 37
0.0
 76
     0
330
1B
  0
LAYOUT
  5
26
102
{ACAD_REACTORS
330
1A
102
}
330
1A
100
AcDbPlotSettings
  1

  2
none_device
  4

  6

 40
0.0
 41
0.0
 42
0.0
 43
0.0
 44
0.0
 45
0.0
 46
0.0
 47
0.0
 48
0.0
 49
0.0
140
0.0
141
0.0
142
1.0
143
1.0
 70
   688
 72
     0
 73
     0
 74
     5
  7

 75
    16
 76
     0
 77
     2
 78
   300
147
1.0
148
0.0
149
0.0
100
AcDbLayout
  1
Layout2
 70
     1
 71
     2
 10
0.0
 20
0.0
 11
0.0
 21
0.0
 12
0.0
 22
0.0
 32
0.0
 14
0.0
 24
0.0
 34
0.0
 15
0.0
 25
0.0
 35
0.0
146
0.0
 13
0.0
 23
0.0
 33
0.0
 16
1.0
 26
0.0
 36
0.0
 17
0.0
 27
1.0
 37
0.0
 76
     0
330
23
  0
LAYOUT
  5
22
102
{ACAD_REACTORS
330
1A
102
}
330
1A
100
AcDbPlotSettings
  1

  2
none_device
  4

  6

 40
0.0
 41
0.0
 42
0.0
 43
0.0
 44
0.0
 45
0.0
 46
0.0
 47
0.0
 48
0.0
 49
0.0
140
0.0
141
0.0
142
1.0
143
1.0
 70
  1712
 72
     0
 73
     0
 74
     0
  7

 75
     0
 76
     0
 77
     2
 78
   300
147
1.0
148
0.0
149
0.0
100
AcDbLayout
  1
Model
 70
     1
 71
     0
 10
0.0
 20
0.0
 11
12.0
 21
9.0
 12
0.0
 22
0.0
 32
0.0
 14
1.000000000000000E+20
 24
1.000000000000000E+20
 34
1.000000000000000E+20
 15
-1.000000000000000E+20
 25
-1.000000000000000E+20
 35
-1.000000000000000E+20
146
0.0
 13
0.0
 23
0.0
 33
0.0
 16
1.0
 26
0.0
 36
0.0
 17
0.0
 27
1.0
 37
0.0
 76
     0
330
1F
331
29
  0
MATERIAL
  5
3D
102
{ACAD_REACTORS
330
3B
102
}
330
3B
100
AcDbMaterial
  1
ByBlock
 72
     1
 94
      127
  0
MATERIAL
  5
3C
102
{ACAD_REACTORS
330
3B
102
}
330
3B
100
AcDbMaterial
  1
ByLayer
 72
     1
 94
      127
  0
MATERIAL
  5
3E
102
{ACAD_REACTORS
330
3B
102
}
330
3B
100
AcDbMaterial
  1
Global
 72
     1
 94
      127
  0
MLINESTYLE
  5
18
102
{ACAD_REACTORS
330
17
102
}
330
17
100
AcDbMlineStyle
  2
Standard
 70
     0
  3

 62
   256
 51
90.0
 52
90.0
 71
     2
 49
0.5
 62
   256
  6
BYLAYER
 49
-0.5
 62
   256
  6
BYLAYER
  0
ACDBPLACEHOLDER
  5
F
102
{ACAD_REACTORS
330
E
102
}
330
E
  0
VISUALSTYLE
  5
2F
102
{ACAD_REACTORS
330
2A
102
}
330
2A
100
AcDbVisualStyle
  2
2dWireframe
 70
     4
177
     2
291
     0
 71
     0
176
     1
 72
     2
176
     1
 73
     0
176
     1
 90
        0
176
     1
 40
-0.6
176
     1
 41
-30.0
176
     1
 62
     5
 63
     7
421
 16777215
176
     1
 74
     1
176
     1
 91
        4
176
     1
 64
     7
176
     1
 65
   257
176
     1
 75
     1
176
     1
175
     1
176
     1
 42
1.0
176
     1
 92
        0
176
     1
 66
   257
176
     1
 43
1.0
176
     1
 76
     1
176
     1
 77
     6
176
     1
 78
     2
176
     1
 67
     7
176
     1
 79
     5
176
     1
170
     0
176
     1
171
     0
176
     1
290
     0
176
     1
 93
        1
176
     1
 44
0.0
176
     1
173
     0
176
     1
  0
VISUALSTYLE
  5
31
102
{ACAD_REACTORS
330
2A
102
}
330
2A
100
AcDbVisualStyle
  2
3D Hidden
 70
     6
177
     2
291
     0
 71
     1
176
     1
 72
     2
176
     1
 73
     2
176
     1
 90
        0
176
     1
 40
-0.6
176
     1
 41
-30.0
176
     1
 62
     5
 63
     7
421
 16777215
176
     1
 74
     2
176
     1
 91
        2
176
     1
 64
     7
176
     1
 65
   257
176
     1
 75
     2
176
     1
175
     1
176
     1
 42
40.0
176
     1
 92
        0
176
     1
 66
   257
176
     1
 43
1.0
176
     1
 76
     1
176
     1
 77
     6
176
     1
 78
     2
176
     1
 67
     7
176
     1
 79
     3
176
     1
170
     0
176
     1
171
     0
176
     1
290
     0
176
     1
 93
        1
176
     1
 44
0.0
176
     1
173
     0
176
     1
  0
VISUALSTYLE
  5
30
102
{ACAD_REACTORS
330
2A
102
}
330
2A
100
AcDbVisualStyle
  2
3dWireframe
 70
     5
177
     2
291
     0
 71
     0
176
     1
 72
     2
176
     1
 73
     0
176
     1
 90
        0
176
     1
 40
-0.6
176
     1
 41
-30.0
176
     1
 62
     5
 63
     7
421
 16777215
176
     1
 74
     1
176
     1
 91
        4
176
     1
 64
     7
176
     1
 65
   257
176
     1
 75
     1
176
     1
175
     1
176
     1
 42
1.0
176
     1
 92
        0
176
     1
 66
   257
176
     1
 43
1.0
176
     1
 76
     1
176
     1
 77
     6
176
     1
 78
     2
176
     1
 67
     7
176
     1
 79
     5
176
     1
170
     0
176
     1
171
     0
176
     1
290
     0
176
     1
 93
        1
176
     1
 44
0.0
176
     1
173
     0
176
     1
  0
VISUALSTYLE
  5
32
102
{ACAD_REACTORS
330
2A
102
}
330
2A
100
AcDbVisualStyle
  2
Basic
 70
     7
177
     2
291
     1
 71
     1
176
     1
 72
     0
176
     1
 73
     1
176
     1
 90
        0
176
     1
 40
-0.6
176
     1
 41
-30.0
176
     1
 62
     5
 63
     7
421
 16777215
176
     1
 74
     0
176
     1
 91
        4
176
     1
 64
     7
176
     1
 65
   257
176
     1
 75
     1
176
     1
175
     1
176
     1
 42
1.0
176
     1
 92
        8
176
     1
 66
     7
176
     1
 43
1.0
176
     1
 76
     1
176
     1
 77
     6
176
     1
 78
     2
176
     1
 67
     7
176
     1
 79
     5
176
     1
170
     0
176
     1
171
     0
176
     1
290
     0
176
     1
 93
        1
176
     1
 44
0.0
176
     1
173
     0
176
     1
  0
VISUALSTYLE
  5
36
102
{ACAD_REACTORS
330
2A
102
}
330
2A
100
AcDbVisualStyle
  2
Brighten
 70
    12
177
     2
291
     1
 71
     2
176
     1
 72
     2
176
     1
 73
     0
176
     1
 90
        0
176
     1
 40
-0.6
176
     1
 41
-30.0
176
     1
 62
     5
 63
     7
421
 16777215
176
     1
 74
     1
176
     1
 91
        4
176
     1
 64
     7
176
     1
 65
   257
176
     1
 75
     1
176
     1
175
     1
176
     1
 42
1.0
176
     1
 92
        8
176
     1
 66
     7
176
     1
 43
1.0
176
     1
 76
     1
176
     1
 77
     6
176
     1
 78
     2
176
     1
 67
     7
176
     1
 79
     5
176
     1
170
     0
176
     1
171
     0
176
     1
290
     0
176
     1
 93
        1
176
     1
 44
50.0
176
     1
173
     0
176
     1
  0
VISUALSTYLE
  5
3A
102
{ACAD_REACTORS
330
2A
102
}
330
2A
100
AcDbVisualStyle
  2
ColorChange
 70
    16
177
     2
291
     1
 71
     2
176
     1
 72
     2
176
     1
 73
     3
176
     1
 90
        0
176
     1
 40
-0.6
176
     1
 41
-30.0
176
     1
 62
     5
 63
     8
421
  8421504
176
     1
 74
     1
176
     1
 91
        4
176
     1
 64
     7
176
     1
 65
   257
176
     1
 75
     1
176
     1
175
     1
176
     1
 42
1.0
176
     1
 92
        8
176
     1
 66
     8
424
  8421504
176
     1
 43
1.0
176
     1
 76
     1
176
     1
 77
     6
176
     1
 78
     2
176
     1
 67
     7
176
     1
 79
     5
176
     1
170
     0
176
     1
171
     0
176
     1
290
     0
176
     1
 93
        1
176
     1
 44
0.0
176
     1
173
     0
176
     1
  0
VISUALSTYLE
  5
34
102
{ACAD_REACTORS
330
2A
102
}
330
2A
100
AcDbVisualStyle
  2
Conceptual
 70
     9
177
     2
291
     0
 71
     3
176
     1
 72
     2
176
     1
 73
     0
176
     1
 90
        0
176
     1
 40
-0.6
176
     1
 41
-30.0
176
     1
 62
     5
 63
     7
421
 16777215
176
     1
 74
     2
176
     1
 91
        2
176
     1
 64
     7
176
     1
 65
   257
176
     1
 75
     1
176
     1
175
     1
176
     1
 42
40.0
176
     1
 92
        8
176
     1
 66
     7
176
     1
 43
1.0
176
     1
 76
     1
176
     1
 77
     6
176
     1
 78
     2
176
     1
 67
     7
176
     1
 79
     3
176
     1
170
     0
176
     1
171
     0
176
     1
290
     0
176
     1
 93
        1
176
     1
 44
0.0
176
     1
173
     0
176
     1
  0
VISUALSTYLE
  5
35
102
{ACAD_REACTORS
330
2A
102
}
330
2A
100
AcDbVisualStyle
  2
Dim
 70
    11
177
     2
291
     1
 71
     2
176
     1
 72
     2
176
     1
 73
     0
176
     1
 90
        0
176
     1
 40
-0.6
176
     1
 41
-30.0
176
     1
 62
     5
 63
     7
421
 16777215
176
     1
 74
     1
176
     1
 91
        4
176
     1
 64
     7
176
     1
 65
   257
176
     1
 75
     1
176
     1
175
     1
176
     1
 42
1.0
176
     1
 92
        8
176
     1
 66
     7
176
     1
 43
1.0
176
     1
 76
     1
176
     1
 77
     6
176
     1
 78
     2
176
     1
 67
     7
176
     1
 79
     5
176
     1
170
     0
176
     1
171
     0
176
     1
290
     0
176
     1
 93
        1
176
     1
 44
-50.0
176
     1
173
     0
176
     1
  0
VISUALSTYLE
  5
39
102
{ACAD_REACTORS
330
2A
102
}
330
2A
100
AcDbVisualStyle
  2
Facepattern
 70
    15
177
     2
291
     1
 71
     2
176
     1
 72
     2
176
     1
 73
     0
176
     1
 90
        0
176
     1
 40
-0.6
176
     1
 41
-30.0
176
     1
 62
     5
 63
     7
421
 16777215
176
     1
 74
     1
176
     1
 91
        4
176
     1
 64
     7
176
     1
 65
   257
176
     1
 75
     1
176
     1
175
     1
176
     1
 42
1.0
176
     1
 92
        8
176
     1
 66
     7
176
     1
 43
1.0
176
     1
 76
     1
176
     1
 77
     6
176
     1
 78
     2
176
     1
 67
     7
176
     1
 79
     5
176
     1
170
     0
176
     1
171
     0
176
     1
290
     0
176
     1
 93
        1
176
     1
 44
0.0
176
     1
173
     0
176
     1
  0
VISUALSTYLE
  5
2B
102
{ACAD_REACTORS
330
2A
102
}
330
2A
100
AcDbVisualStyle
  2
Flat
 70
     0
177
     2
291
     1
 71
     2
176
     1
 72
     1
176
     1
 73
     1
176
     1
 90
        2
176
     1
 40
-0.6
176
     1
 41
30.0
176
     1
 62
     5
 63
     7
421
 16777215
176
     1
 74
     0
176
     1
 91
        4
176
     1
 64
     7
176
     1
 65
   257
176
     1
 75
     1
176
     1
175
     1
176
     1
 42
1.0
176
     1
 92
        8
176
     1
 66
     7
176
     1
 43
1.0
176
     1
 76
     1
176
     1
 77
     6
176
     1
 78
     2
176
     1
 67
     7
176
     1
 79
     5
176
     1
170
     0
176
     1
171
     0
176
     1
290
     0
176
     1
 93
       13
176
     1
 44
0.0
176
     1
173
     0
176
     1
  0
VISUALSTYLE
  5
2C
102
{ACAD_REACTORS
330
2A
102
}
330
2A
100
AcDbVisualStyle
  2
FlatWithEdges
 70
     1
177
     2
291
     1
 71
     2
176
     1
 72
     1
176
     1
 73
     1
176
     1
 90
        2
176
     1
 40
-0.6
176
     1
 41
30.0
176
     1
 62
     5
 63
     7
421
 16777215
176
     1
 74
     1
176
     1
 91
        4
176
     1
 64
     7
176
     1
 65
   257
176
     1
 75
     1
176
     1
175
     1
176
     1
 42
1.0
176
     1
 92
        0
176
     1
 66
   257
176
     1
 43
1.0
176
     1
 76
     1
176
     1
 77
     6
176
     1
 78
     2
176
     1
 67
     7
176
     1
 79
     5
176
     1
170
     0
176
     1
171
     0
176
     1
290
     0
176
     1
 93
       13
176
     1
 44
0.0
176
     1
173
     0
176
     1
  0
VISUALSTYLE
  5
2D
102
{ACAD_REACTORS
330
2A
102
}
330
2A
100
AcDbVisualStyle
  2
Gouraud
 70
     2
177
     2
291
     1
 71
     2
176
     1
 72
     2
176
     1
 73
     1
176
     1
 90
        2
176
     1
 40
-0.6
176
     1
 41
30.0
176
     1
 62
     5
 63
     7
421
 16777215
176
     1
 74
     0
176
     1
 91
        4
176
     1
 64
     7
176
     1
 65
   257
176
     1
 75
     1
176
     1
175
     1
176
     1
 42
1.0
176
     1
 92
        0
176
     1
 66
     7
176
     1
 43
1.0
176
     1
 76
     1
176
     1
 77
     6
176
     1
 78
     2
176
     1
 67
     7
176
     1
 79
     5
176
     1
170
     0
176
     1
171
     0
176
     1
290
     0
176
     1
 93
       13
176
     1
 44
0.0
176
     1
173
     0
176
     1
  0
VISUALSTYLE
  5
2E
102
{ACAD_REACTORS
330
2A
102
}
330
2A
100
AcDbVisualStyle
  2
GouraudWithEdges
 70
     3
177
     2
291
     1
 71
     2
176
     1
 72
     2
176
     1
 73
     1
176
     1
 90
        2
176
     1
 40
-0.6
176
     1
 41
30.0
176
     1
 62
     5
 63
     7
421
 16777215
176
     1
 74
     1
176
     1
 91
        4
176
     1
 64
     7
176
     1
 65
   257
176
     1
 75
     1
176
     1
175
     1
176
     1
 42
1.0
176
     1
 92
        0
176
     1
 66
   257
176
     1
 43
1.0
176
     1
 76
     1
176
     1
 77
     6
176
     1
 78
     2
176
     1
 67
     7
176
     1
 79
     5
176
     1
170
     0
176
     1
171
     0
176
     1
290
     0
176
     1
 93
       13
176
     1
 44
0.0
176
     1
173
     0
176
     1
  0
VISUALSTYLE
  5
38
102
{ACAD_REACTORS
330
2A
102
}
330
2A
100
AcDbVisualStyle
  2
Linepattern
 70
    14
177
     2
291
     1
 71
     2
176
     1
 72
     2
176
     1
 73
     0
176
     1
 90
        0
176
     1
 40
-0.6
176
     1
 41
-30.0
176
     1
 62
     5
 63
     7
421
 16777215
176
     1
 74
     1
176
     1
 91
        4
176
     1
 64
     7
176
     1
 65
   257
176
     1
 75
     7
176
     1
175
     7
176
     1
 42
1.0
176
     1
 92
        8
176
     1
 66
     7
176
     1
 43
1.0
176
     1
 76
     1
176
     1
 77
     6
176
     1
 78
     2
176
     1
 67
     7
176
     1
 79
     5
176
     1
170
     0
176
     1
171
     0
176
     1
290
     0
176
     1
 93
        1
176
     1
 44
0.0
176
     1
173
     0
176
     1
  0
VISUALSTYLE
  5
33
102
{ACAD_REACTORS
330
2A
102
}
330
2A
100
AcDbVisualStyle
  2
Realistic
 70
     8
177
     2
291
     0
 71
     2
176
     1
 72
     2
176
     1
 73
     0
176
     1
 90
        0
176
     1
 40
-0.6
176
     1
 41
-30.0
176
     1
 62
     5
 63
     7
421
 16777215
176
     1
 74
     1
176
     1
 91
        0
176
     1
 64
     7
176
     1
 65
   257
176
     1
 75
     1
176
     1
175
     1
176
     1
 42
1.0
176
     1
 92
        8
176
     1
 66
     8
424
  7895160
176
     1
 43
1.0
176
     1
 76
     1
176
     1
 77
     6
176
     1
 78
     2
176
     1
 67
     7
176
     1
 79
     5
176
     1
170
     0
176
     1
171
     0
176
     1
290
     0
176
     1
 93
       13
176
     1
 44
0.0
176
     1
173
     0
176
     1
  0
VISUALSTYLE
  5
37
102
{ACAD_REACTORS
330
2A
102
}
330
2A
100
AcDbVisualStyle
  2
Thicken
 70
    13
177
     2
291
     1
 71
     2
176
     1
 72
     2
176
     1
 73
     0
176
     1
 90
        0
176
     1
 40
-0.6
176
     1
 41
-30.0
176
     1
 62
     5
 63
     7
421
 16777215
176
     1
 74
     1
176
     1
 91
        4
176
     1
 64
     7
176
     1
 65
   257
176
     1
 75
     1
176
     1
175
     1
176
     1
 42
1.0
176
     1
 92
       12
176
     1
 66
     7
176
     1
 43
1.0
176
     1
 76
     1
176
     1
 77
     6
176
     1
 78
     2
176
     1
 67
     7
176
     1
 79
     5
176
     1
170
     0
176
     1
171
     0
176
     1
290
     0
176
     1
 93
        1
176
     1
 44
0.0
176
     1
173
     0
176
     1
  0
ENDSEC
  0
EOF
