  0
SECTION
  2
HEADER
  9
$ACADVER
  1
AC1024
  9
$ACADMAINTVER
 70
     6
  9
$DWGCODEPAGE
  3
UNDEFINED
  9
$INSBASE
 10
0.0
 20
0.0
 30
0.0
  9
$EXTMIN
 10
1.000000000000000E+20
 20
1.000000000000000E+20
 30
1.000000000000000E+20
  9
$EXTMAX
 10
-1.000000000000000E+20
 20
-1.000000000000000E+20
 30
-1.000000000000000E+20
  9
$LIMMIN
 10
0.0
 20
0.0
  9
$LIMMAX
 10
12.0
 20
9.0
  9
$ORTHOMODE
 70
     0
  9
$REGENMODE
 70
     1
  9
$FILLMODE
 70
     1
  9
$QTEXTMODE
 70
     0
  9
$MIRRTEXT
 70
     1
  9
$LTSCALE
 40
1.0
  9
$ATTMODE
 70
     1
  9
$TEXTSIZE
 40
0.2
  9
$TRACEWID
 40
0.05
  9
$TEXTSTYLE
  7
Standard
  9
$CLAYER
  8
0
  9
$CELTYPE
  6
ByLayer
  9
$CECOLOR
 62
   256
  9
$CELTSCALE
 40
1.0
  9
$DISPSILH
 70
     0
  9
$DIMSCALE
 40
1.0
  9
$DIMASZ
 40
0.18
  9
$DIMEXO
 40
0.0625
  9
$DIMDLI
 40
0.38
  9
$DIMRND
 40
0.0
  9
$DIMDLE
 40
0.0
  9
$DIMEXE
 40
0.18
  9
$DIMTP
 40
0.0
  9
$DIMTM
 40
0.0
  9
$DIMTXT
 40
0.18
  9
$DIMCEN
 40
0.09
  9
$DIMTSZ
 40
0.0
  9
$DIMTOL
 70
     0
  9
$DIMLIM
 70
     0
  9
$DIMTIH
 70
     1
  9
$DIMTOH
 70
     1
  9
$DIMSE1
 70
     0
  9
$DIMSE2
 70
     0
  9
$DIMTAD
 70
     0
  9
$DIMZIN
 70
     0
  9
$DIMBLK
  1

  9
$DIMASO
 70
     1
  9
$DIMSHO
 70
     1
  9
$DIMPOST
  1

  9
$DIMAPOST
  1

  9
$DIMALT
 70
     0
  9
$DIMALTD
 70
     2
  9
$DIMALTF
 40
25.4
  9
$DIMLFAC
 40
1.0
  9
$DIMTOFL
 70
     0
  9
$DIMTVP
 40
0.0
  9
$DIMTIX
 70
     0
  9
$DIMSOXD
 70
     0
  9
$DIMSAH
 70
     0
  9
$DIMBLK1
  1

  9
$DIMBLK2
  1

  9
$DIMSTYLE
  2
Standard
  9
$DIMCLRD
 70
     0
  9
$DIMCLRE
 70
     0
  9
$DIMCLRT
 70
     0
  9
$DIMTFAC
 40
1.0
  9
$DIMGAP
 40
0.09
  9
$DIMJUST
 70
     0
  9
$DIMSD1
 70
     0
  9
$DIMSD2
 70
     0
  9
$DIMTOLJ
 70
     1
  9
$DIMTZIN
 70
     0
  9
$DIMALTZ
 70
     0
  9
$DIMALTTZ
 70
     0
  9
$DIMUPT
 70
     0
  9
$DIMDEC
 70
     4
  9
$DIMTDEC
 70
     4
  9
$DIMALTU
 70
     2
  9
$DIMALTTD
 70
     2
  9
$DIMTXSTY
  7
Standard
  9
$DIMAUNIT
 70
     0
  9
$DIMADEC
 70
     0
  9
$DIMALTRND
 40
0.0
  9
$DIMAZIN
 70
     0
  9
$DIMDSEP
 70
    46
  9
$DIMATFIT
 70
     3
  9
$DIMFRAC
 70
     0
  9
$DIMLDRBLK
  1

  9
$DIMLUNIT
 70
     2
  9
$DIMLWD
 70
    -2
  9
$DIMLWE
 70
    -2
  9
$DIMTMOVE
 70
     0
  9
$DIMFXL
 40
1.0
  9
$DIMFXLON
 70
     0
  9
$DIMJOGANG
 40
0.7853981633974483
  9
$DIMTFILL
 70
     0
  9
$DIMTFILLCLR
 70
     0
  9
$DIMARCSYM
 70
     0
  9
$DIMLTYPE
  6

  9
$DIMLTEX1
  6

  9
$DIMLTEX2
  6

  9
$DIMTXTDIRECTION
 70
     0
  9
$LUNITS
 70
     2
  9
$LUPREC
 70
     4
  9
$SKETCHINC
 40
0.1
  9
$FILLETRAD
 40
0.5
  9
$AUNITS
 70
     0
  9
$AUPREC
 70
     0
  9
$MENU
  1
.
  9
$ELEVATION
 40
0.0
  9
$PELEVATION
 40
0.0
  9
$THICKNESS
 40
0.0
  9
$LIMCHECK
 70
     0
  9
$CHAMFERA
 40
0.5
  9
$CHAMFERB
 40
0.5
  9
$CHAMFERC
 40
1.0
  9
$CHAMFERD
 40
0.0
  9
$SKPOLY
 70
     0
  9
$TDCREATE
 40
2457917.599398148
  9
$TDUCREATE
 40
2457917.224398148
  9
$TDUPDATE
 40
2457917.599398148
  9
$TDUUPDATE
 40
2457917.224398148
  9
$TDINDWG
 40
0.0000000116
  9
$TDUSRTIMER
 40
0.0000000116
  9
$USRTIMER
 70
     1
  9
$ANGBASE
 50
0.0
  9
$ANGDIR
 70
     0
  9
$PDMODE
 70
     0
  9
$PDSIZE
 40
0.0
  9
$PLINEWID
 40
0.0
  9
$SPLFRAME
 70
     0
  9
$SPLINETYPE
 70
     6
  9
$SPLINESEGS
 70
     8
  9
$HANDSEED
  5
137
  9
$SURFTAB1
 70
     6
  9
$SURFTAB2
 70
     6
  9
$SURFTYPE
 70
     6
  9
$SURFU
 70
     6
  9
$SURFV
 70
     6
  9
$UCSBASE
  2

  9
$UCSNAME
  2

  9
$UCSORG
 10
0.0
 20
0.0
 30
0.0
  9
$UCSXDIR
 10
1.0
 20
0.0
 30
0.0
  9
$UCSYDIR
 10
0.0
 20
1.0
 30
0.0
  9
$UCSORTHOREF
  2

  9
$UCSORTHOVIEW
 70
     0
  9
$UCSORGTOP
 10
0.0
 20
0.0
 30
0.0
  9
$UCSORGBOTTOM
 10
0.0
 20
0.0
 30
0.0
  9
$UCSORGLEFT
 10
0.0
 20
0.0
 30
0.0
  9
$UCSORGRIGHT
 10
0.0
 20
0.0
 30
0.0
  9
$UCSORGFRONT
 10
0.0
 20
0.0
 30
0.0
  9
$UCSORGBACK
 10
0.0
 20
0.0
 30
0.0
  9
$PUCSBASE
  2

  9
$PUCSNAME
  2

  9
$PUCSORG
 10
0.0
 20
0.0
 30
0.0
  9
$PUCSXDIR
 10
1.0
 20
0.0
 30
0.0
  9
$PUCSYDIR
 10
0.0
 20
1.0
 30
0.0
  9
$PUCSORTHOREF
  2

  9
$PUCSORTHOVIEW
 70
     0
  9
$PUCSORGTOP
 10
0.0
 20
0.0
 30
0.0
  9
$PUCSORGBOTTOM
 10
0.0
 20
0.0
 30
0.0
  9
$PUCSORGLEFT
 10
0.0
 20
0.0
 30
0.0
  9
$PUCSORGRIGHT
 10
0.0
 20
0.0
 30
0.0
  9
$PUCSORGFRONT
 10
0.0
 20
0.0
 30
0.0
  9
$PUCSORGBACK
 10
0.0
 20
0.0
 30
0.0
  9
$USERI1
 70
     0
  9
$USERI2
 70
     0
  9
$USERI3
 70
     0
  9
$USERI4
 70
     0
  9
$USERI5
 70
     0
  9
$USERR1
 40
0.0
  9
$USERR2
 40
0.0
  9
$USERR3
 40
0.0
  9
$USERR4
 40
0.0
  9
$USERR5
 40
0.0
  9
$WORLDVIEW
 70
     1
  9
$SHADEDGE
 70
     3
  9
$SHADEDIF
 70
    70
  9
$TILEMODE
 70
     1
  9
$MAXACTVP
 70
    64
  9
$PINSBASE
 10
0.0
 20
0.0
 30
0.0
  9
$PLIMCHECK
 70
     0
  9
$PEXTMIN
 10
1.000000000000000E+20
 20
1.000000000000000E+20
 30
1.000000000000000E+20
  9
$PEXTMAX
 10
-1.000000000000000E+20
 20
-1.000000000000000E+20
 30
-1.000000000000000E+20
  9
$PLIMMIN
 10
0.0
 20
0.0
  9
$PLIMMAX
 10
12.0
 20
9.0
  9
$UNITMODE
 70
     0
  9
$VISRETAIN
 70
     1
  9
$PLINEGEN
 70
     0
  9
$PSLTSCALE
 70
     1
  9
$TREEDEPTH
 70
  3020
  9
$CMLSTYLE
  2
Standard
  9
$CMLJUST
 70
     0
  9
$CMLSCALE
 40
1.0
  9
$PROXYGRAPHICS
 70
     1
  9
$MEASUREMENT
 70
     0
  9
$CELWEIGHT
370
    -1
  9
$ENDCAPS
280
     0
  9
$JOINSTYLE
280
     0
  9
$LWDISPLAY
290
     1
  9
$INSUNITS
 70
     1
  9
$HYPERLINKBASE
  1

  9
$STYLESHEET
  1

  9
$XEDIT
290
     1
  9
$CEPSNTYPE
380
     0
  9
$PSTYLEMODE
290
     1
  9
$FINGERPRINTGUID
  2
{DF362583-5BBD-CAD0-5A3E-20FFCA9C5992}
  9
$VERSIONGUID
  2
{FAEB1C32-E019-11D5-929B-00C0DF256EC4}
  9
$EXTNAMES
290
     1
  9
$PSVPSCALE
 40
0.0
  9
$OLESTARTUP
290
     0
  9
$SORTENTS
280
   127
  9
$INDEXCTL
280
     0
  9
$HIDETEXT
280
     1
  9
$XCLIPFRAME
280
     2
  9
$HALOGAP
280
     0
  9
$OBSCOLOR
 70
   257
  9
$OBSLTYPE
280
     0
  9
$INTERSECTIONDISPLAY
280
     0
  9
$INTERSECTIONCOLOR
 70
   257
  9
$DIMASSOC
280
     2
  9
$PROJECTNAME
  1

  9
$CAMERADISPLAY
290
     0
  9
$LENSLENGTH
 40
50.0
  9
$CAMERAHEIGHT
 40
0.0
  9
$STEPSPERSEC
 40
2.0
  9
$STEPSIZE
 40
6.0
  9
$3DDWFPREC
 40
2.0
  9
$PSOLWIDTH
 40
0.25
  9
$PSOLHEIGHT
 40
4.0
  9
$LOFTANG1
 40
1.570796326794897
  9
$LOFTANG2
 40
1.570796326794897
  9
$LOFTMAG1
 40
0.0
  9
$LOFTMAG2
 40
0.0
  9
$LOFTPARAM
 70
     7
  9
$LOFTNORMALS
280
     1
  9
$LATITUDE
 40
37.795
  9
$LONGITUDE
 40
-122.394
  9
$NORTHDIRECTION
 40
0.0
  9
$TIMEZONE
 70
 -8000
  9
$LIGHTGLYPHDISPLAY
280
     1
  9
$TILEMODELIGHTSYNCH
280
     1
  9
$CMATERIAL
347
3C
  9
$SOLIDHIST
280
     1
  9
$SHOWHIST
280
     1
  9
$DWFFRAME
280
     2
  9
$DGNFRAME
280
     2
  9
$REALWORLDSCALE
290
     1
  9
$INTERFERECOLOR
 62
   256
  9
$CSHADOW
280
     0
  9
$SHADOWPLANELOCATION
 40
0.0
  0
ENDSEC
  0
SECTION
  2
CLASSES
  0
CLASS
  1
ACDBDICTIONARYWDFLT
  2
AcDbDictionaryWithDefault
  3
ObjectDBX Classes
 90
        0
 91
        4
280
     0
281
     0
  0
CLASS
  1
VISUALSTYLE
  2
AcDbVisualStyle
  3
ObjectDBX Classes
 90
     4095
 91
        4
280
     0
281
     0
  0
CLASS
  1
MATERIAL
  2
AcDbMaterial
  3
ObjectDBX Classes
 90
     1153
 91
        4
280
     0
281
     0
  0
CLASS
  1
SUN
  2
AcDbSun
  3
SCENEOE
 90
     1024
 91
        4
280
     0
281
     0
  0
ENDSEC
  0
SECTION
  2
TABLES
  0
TABLE
  2
VPORT
  5
8
330
0
100
AcDbSymbolTable
 70
     1
  0
VPORT
  5
29
330
8
100
AcDbSymbolTableRecord
100
AcDbViewportTableRecord
  2
*Active
 70
     0
 10
0.0
 20
0.0
 11
1.0
 21
1.0
 12
0.0
 22
0.0
 13
0.0
 23
0.0
 14
0.5
 24
0.5
 15
0.5
 25
0.5
 16
0.0
 26
0.0
 36
1.0
 17
91.00082462281999
 27
-128.4993055234307
 37
0.0
 40
256.9986110468615
 41
0.7081814508812795
 42
50.0
 43
0.0
 44
0.0
 50
0.0
 51
0.0
 71
     0
 72
   100
 73
     1
 74
     3
 75
     0
 76
     0
 77
     0
 78
     0
281
     0
 65
     1
110
0.0
120
0.0
130
0.0
111
1.0
121
0.0
131
0.0
112
0.0
122
1.0
132
0.0
 79
     0
146
0.0
 60
     3
 61
     5
292
     1
282
     1
141
0.0
142
0.0
 63
   250
361
3F
  0
ENDTAB
  0
TABLE
  2
LTYPE
  5
5
330
0
100
AcDbSymbolTable
 70
     1
  0
LTYPE
  5
14
330
5
100
AcDbSymbolTableRecord
100
AcDbLinetypeTableRecord
  2
ByBlock
 70
     0
  3

 72
    65
 73
     0
 40
0.0
  0
LTYPE
  5
15
330
5
100
AcDbSymbolTableRecord
100
AcDbLinetypeTableRecord
  2
ByLayer
 70
     0
  3

 72
    65
 73
     0
 40
0.0
  0
LTYPE
  5
16
330
5
100
AcDbSymbolTableRecord
100
AcDbLinetypeTableRecord
  2
Continuous
 70
     0
  3
Solid line
 72
    65
 73
     0
 40
0.0
  0
ENDTAB
  0
TABLE
  2
LAYER
  5
2
330
0
100
AcDbSymbolTable
 70
     2
  0
LAYER
  5
10
330
2
100
AcDbSymbolTableRecord
100
AcDbLayerTableRecord
  2
0
 70
     0
 62
     7
  6
Continuous
370
    -3
390
F
347
3E
  0
LAYER
  5
40
330
2
100
AcDbSymbolTableRecord
100
AcDbLayerTableRecord
  2
_U+30EC_U+30A4_U+30E4_U+30FC 1
 70
     0
 62
     7
  6
Continuous
370
    -3
390
F
347
3E
  0
ENDTAB
  0
TABLE
  2
STYLE
  5
3
330
0
100
AcDbSymbolTable
 70
     1
  0
STYLE
  5
11
330
3
100
AcDbSymbolTableRecord
100
AcDbTextStyleTableRecord
  2
Standard
 70
     0
 40
0.0
 41
1.0
 50
0.0
 71
     0
 42
0.2
  3
txt
  4

  0
ENDTAB
  0
TABLE
  2
VIEW
  5
6
330
0
100
AcDbSymbolTable
 70
     0
  0
ENDTAB
  0
TABLE
  2
UCS
  5
7
330
0
100
AcDbSymbolTable
 70
     0
  0
ENDTAB
  0
TABLE
  2
APPID
  5
9
330
0
100
AcDbSymbolTable
 70
     1
  0
APPID
  5
12
330
9
100
AcDbSymbolTableRecord
100
AcDbRegAppTableRecord
  2
ACAD
 70
     0
  0
ENDTAB
  0
TABLE
  2
DIMSTYLE
  5
A
330
0
100
AcDbSymbolTable
 70
     1
100
AcDbDimStyleTable
  0
DIMSTYLE
105
27
330
A
100
AcDbSymbolTableRecord
100
AcDbDimStyleTableRecord
  2
Standard
 70
     0
178
     0
340
11
  0
ENDTAB
  0
TABLE
  2
BLOCK_RECORD
  5
1
330
0
100
AcDbSymbolTable
 70
     7
  0
BLOCK_RECORD
  5
1F
330
1
100
AcDbSymbolTableRecord
100
AcDbBlockTableRecord
  2
*Model_Space
340
22
 70
     0
280
     1
281
     0
  0
BLOCK_RECORD
  5
1B
330
1
100
AcDbSymbolTableRecord
100
AcDbBlockTableRecord
  2
*Paper_Space
340
1E
 70
     0
280
     1
281
     0
  0
BLOCK_RECORD
  5
23
330
1
100
AcDbSymbolTableRecord
100
AcDbBlockTableRecord
  2
*Paper_Space0
340
26
 70
     0
280
     1
281
     0
  0
BLOCK_RECORD
  5
A8
330
1
100
AcDbSymbolTableRecord
100
AcDbBlockTableRecord
  2
block 2
340
0
102
{BLKREFS
331
A9
102
}
 70
     0
280
     1
281
     0
  0
BLOCK_RECORD
  5
BC
330
1
100
AcDbSymbolTableRecord
100
AcDbBlockTableRecord
  2
block 3
340
0
102
{BLKREFS
331
BD
102
}
 70
     0
280
     1
281
     0
  0
BLOCK_RECORD
  5
D8
330
1
100
AcDbSymbolTableRecord
100
AcDbBlockTableRecord
  2
block 4
340
0
102
{BLKREFS
331
D9
102
}
 70
     0
280
     1
281
     0
  0
BLOCK_RECORD
  5
E6
330
1
100
AcDbSymbolTableRecord
100
AcDbBlockTableRecord
  2
block 5
340
0
102
{BLKREFS
331
E7
102
}
 70
     0
280
     1
281
     0
  0
BLOCK_RECORD
  5
107
330
1
100
AcDbSymbolTableRecord
100
AcDbBlockTableRecord
  2
block 6
340
0
102
{BLKREFS
331
108
102
}
 70
     0
280
     1
281
     0
  0
BLOCK_RECORD
  5
12C
330
1
100
AcDbSymbolTableRecord
100
AcDbBlockTableRecord
  2
block 7
340
0
102
{BLKREFS
331
12D
102
}
 70
     0
280
     1
281
     0
  0
ENDTAB
  0
ENDSEC
  0
SECTION
  2
BLOCKS
  0
BLOCK
  5
20
330
1F
100
AcDbEntity
  8
0
100
AcDbBlockBegin
  2
*Model_Space
 70
     0
 10
0.0
 20
0.0
 30
0.0
  3
*Model_Space
  1

  0
ENDBLK
  5
21
330
1F
100
AcDbEntity
  8
0
100
AcDbBlockEnd
  0
BLOCK
  5
1C
330
1B
100
AcDbEntity
 67
     1
  8
0
100
AcDbBlockBegin
  2
*Paper_Space
 70
     0
 10
0.0
 20
0.0
 30
0.0
  3
*Paper_Space
  1

  0
ENDBLK
  5
1D
330
1B
100
AcDbEntity
 67
     1
  8
0
100
AcDbBlockEnd
  0
BLOCK
  5
24
330
23
100
AcDbEntity
  8
0
100
AcDbBlockBegin
  2
*Paper_Space0
 70
     0
 10
0.0
 20
0.0
 30
0.0
  3
*Paper_Space0
  1

  0
ENDBLK
  5
25
330
23
100
AcDbEntity
  8
0
100
AcDbBlockEnd
  0
BLOCK
  5
AA
330
A8
100
AcDbEntity
  8
0
100
AcDbBlockBegin
  2
block 2
 70
     0
 10
0.0
 20
0.0
 30
0.0
  3
block 2
  1

  0
SPLINE
  5
AC
330
A8
100
AcDbEntity
  8
_U+30EC_U+30A4_U+30E4_U+30FC 1
370
     0
100
AcDbSpline
210
0.0
220
0.0
230
1.0
 70
    11
 71
     3
 72
    44
 73
    40
 74
     0
 42
0.0000000001
 43
0.0000000001
 12
1.0
 22
0.0
 32
0.0
 13
1.0
 23
0.0
 33
0.0
 40
0.0
 40
0.0
 40
0.0
 40
0.0
 40
1.0
 40
1.0
 40
1.0
 40
2.0
 40
2.0
 40
2.0
 40
3.0
 40
3.0
 40
3.0
 40
4.0
 40
4.0
 40
4.0
 40
5.0
 40
5.0
 40
5.0
 40
6.0
 40
6.0
 40
6.0
 40
7.0
 40
7.0
 40
7.0
 40
8.0
 40
8.0
 40
8.0
 40
9.0
 40
9.0
 40
9.0
 40
10.0
 40
10.0
 40
10.0
 40
11.0
 40
11.0
 40
11.0
 40
12.0
 40
12.0
 40
12.0
 40
13.0
 40
13.0
 40
13.0
 40
13.0
 10
75.43725584051569
 20
-133.6593695412379
 30
0.0
 10
75.59607474238571
 20
-133.8770995759057
 30
0.0
 10
75.67014429531858
 20
-133.9701171540075
 30
0.0
 10
75.81380477705349
 20
-134.019037509898
 30
0.0
 10
75.81380477705349
 20
-134.019037509898
 30
0.0
 10
75.81380477705349
 20
-133.2404459302316
 30
0.0
 10
75.81380477705349
 20
-133.2404459302316
 30
0.0
 10
75.81380477705349
 20
-133.2404459302316
 30
0.0
 10
76.01913246797439
 20
-133.2404459302316
 30
0.0
 10
76.01913246797439
 20
-133.2404459302316
 30
0.0
 10
76.01913246797439
 20
-133.2404459302316
 30
0.0
 10
76.01913246797439
 20
-134.2684624230301
 30
0.0
 10
76.01913246797439
 20
-134.2684624230301
 30
0.0
 10
75.66153155660545
 20
-134.2367675445658
 30
0.0
 10
75.58332788909028
 20
-134.1713107303461
 30
0.0
 10
75.28498262006765
 20
-133.7861490550951
 30
0.0
 10
75.08620061056872
 20
-133.5301784605411
 30
0.0
 10
75.01833222950931
 20
-133.4647216463213
 30
0.0
 10
74.88087291964784
 20
-133.4647216463213
 30
0.0
 10
74.76236163495524
 20
-133.4647216463213
 30
0.0
 10
74.63144800651575
 20
-133.536724141963
 30
0.0
 10
74.63144800651575
 20
-133.7334390941708
 30
0.0
 10
74.63144800651575
 20
-133.9935438033072
 30
0.0
 10
74.86192489447896
 20
-134.0018120324718
 30
0.0
 10
74.9783691218804
 20
-134.0062906566026
 30
0.0
 10
74.9783691218804
 20
-134.0062906566026
 30
0.0
 10
74.9783691218804
 20
-134.2305663726924
 30
0.0
 10
74.9783691218804
 20
-134.2305663726924
 30
0.0
 10
74.85124509847469
 20
-134.2219536339792
 30
0.0
 10
74.73927949520407
 20
-134.211273837975
 30
0.0
 10
74.62076821051147
 20
-134.1310031131686
 30
0.0
 10
74.45988225135031
 20
-134.0211045671892
 30
0.0
 10
74.42612031559486
 20
-133.8347249014372
 30
0.0
 10
74.42612031559486
 20
-133.7186251835842
 30
0.0
 10
74.42612031559486
 20
-133.4412949970216
 30
0.0
 10
74.6100884145072
 20
-133.2339002488096
 30
0.0
 10
74.88293997693899
 20
-133.2339002488096
 30
0.0
 10
75.11169431715958
 20
-133.2339002488096
 30
0.0
 10
75.21091306713477
 20
-133.350344476211
 30
0.0
 10
75.43725584051569
 20
-133.6593695412379
 30
0.0
  0
HATCH
  5
AD
330
A8
100
AcDbEntity
  8
_U+30EC_U+30A4_U+30E4_U+30FC 1
 62
   179
420
  2234388
100
AcDbHatch
 10
0.0
 20
0.0
 30
0.0
210
0.0
220
0.0
230
1.0
  2
SOLID
 70
     1
 71
     0
 91
        1
 92
        1
 93
        1
 72
     4
 94
        3
 73
     0
 74
     1
 95
       44
 96
       40
 40
0.0
 40
0.0
 40
0.0
 40
0.0
 40
1.0
 40
1.0
 40
1.0
 40
2.0
 40
2.0
 40
2.0
 40
3.0
 40
3.0
 40
3.0
 40
4.0
 40
4.0
 40
4.0
 40
5.0
 40
5.0
 40
5.0
 40
6.0
 40
6.0
 40
6.0
 40
7.0
 40
7.0
 40
7.0
 40
8.0
 40
8.0
 40
8.0
 40
9.0
 40
9.0
 40
9.0
 40
10.0
 40
10.0
 40
10.0
 40
11.0
 40
11.0
 40
11.0
 40
12.0
 40
12.0
 40
12.0
 40
13.0
 40
13.0
 40
13.0
 40
13.0
 10
75.43725584051569
 20
-133.6593695412379
 10
75.59607474238571
 20
-133.8770995759057
 10
75.67014429531858
 20
-133.9701171540075
 10
75.81380477705349
 20
-134.019037509898
 10
75.81380477705349
 20
-134.019037509898
 10
75.81380477705349
 20
-133.2404459302316
 10
75.81380477705349
 20
-133.2404459302316
 10
75.81380477705349
 20
-133.2404459302316
 10
76.01913246797439
 20
-133.2404459302316
 10
76.01913246797439
 20
-133.2404459302316
 10
76.01913246797439
 20
-133.2404459302316
 10
76.01913246797439
 20
-134.2684624230301
 10
76.01913246797439
 20
-134.2684624230301
 10
75.66153155660545
 20
-134.2367675445658
 10
75.58332788909028
 20
-134.1713107303461
 10
75.28498262006765
 20
-133.7861490550951
 10
75.08620061056872
 20
-133.5301784605411
 10
75.01833222950931
 20
-133.4647216463213
 10
74.88087291964784
 20
-133.4647216463213
 10
74.76236163495524
 20
-133.4647216463213
 10
74.63144800651575
 20
-133.536724141963
 10
74.63144800651575
 20
-133.7334390941708
 10
74.63144800651575
 20
-133.9935438033072
 10
74.86192489447896
 20
-134.0018120324718
 10
74.9783691218804
 20
-134.0062906566026
 10
74.9783691218804
 20
-134.0062906566026
 10
74.9783691218804
 20
-134.2305663726924
 10
74.9783691218804
 20
-134.2305663726924
 10
74.85124509847469
 20
-134.2219536339792
 10
74.73927949520407
 20
-134.211273837975
 10
74.62076821051147
 20
-134.1310031131686
 10
74.45988225135031
 20
-134.0211045671892
 10
74.42612031559486
 20
-133.8347249014372
 10
74.42612031559486
 20
-133.7186251835842
 10
74.42612031559486
 20
-133.4412949970216
 10
74.6100884145072
 20
-133.2339002488096
 10
74.88293997693899
 20
-133.2339002488096
 10
75.11169431715958
 20
-133.2339002488096
 10
75.21091306713477
 20
-133.350344476211
 10
75.43725584051569
 20
-133.6593695412379
 97
        0
 97
        0
 75
     2
 76
     1
 98
        0
  0
SPLINE
  5
AE
330
A8
100
AcDbEntity
  8
_U+30EC_U+30A4_U+30E4_U+30FC 1
370
     0
100
AcDbSpline
210
0.0
220
0.0
230
1.0
 70
    11
 71
     3
 72
    53
 73
    49
 74
     0
 42
0.0000000001
 43
0.0000000001
 12
1.0
 22
0.0
 32
0.0
 13
1.0
 23
0.0
 33
0.0
 40
0.0
 40
0.0
 40
0.0
 40
0.0
 40
1.0
 40
1.0
 40
1.0
 40
2.0
 40
2.0
 40
2.0
 40
3.0
 40
3.0
 40
3.0
 40
4.0
 40
4.0
 40
4.0
 40
5.0
 40
5.0
 40
5.0
 40
6.0
 40
6.0
 40
6.0
 40
7.0
 40
7.0
 40
7.0
 40
8.0
 40
8.0
 40
8.0
 40
9.0
 40
9.0
 40
9.0
 40
10.0
 40
10.0
 40
10.0
 40
11.0
 40
11.0
 40
11.0
 40
12.0
 40
12.0
 40
12.0
 40
13.0
 40
13.0
 40
13.0
 40
14.0
 40
14.0
 40
14.0
 40
15.0
 40
15.0
 40
15.0
 40
16.0
 40
16.0
 40
16.0
 40
16.0
 10
76.06977537160756
 20
-132.5944905267472
 30
0.0
 10
76.06977537160756
 20
-132.6726941942624
 30
0.0
 10
76.05289440372984
 20
-132.7743245110773
 30
0.0
 10
75.98950464680124
 20
-132.8759548278921
 30
0.0
 10
75.87960610082177
 20
-133.0492431308002
 30
0.0
 10
75.74834796283375
 20
-133.0706027228088
 30
0.0
 10
75.64051647414543
 20
-133.0895507479776
 30
0.0
 10
75.64051647414543
 20
-133.0895507479776
 30
0.0
 10
75.64051647414543
 20
-132.867342089179
 30
0.0
 10
75.64051647414543
 20
-132.867342089179
 30
0.0
 10
75.83929848364434
 20
-132.8125650709635
 30
0.0
 10
75.86892630481749
 20
-132.6854410475578
 30
0.0
 10
75.86892630481749
 20
-132.5924234694561
 30
0.0
 10
75.86892630481749
 20
-132.4528971023034
 30
0.0
 10
75.76936304529377
 20
-132.3006238818554
 30
0.0
 10
75.53681910003941
 20
-132.3006238818554
 30
0.0
 10
75.28084850548535
 20
-132.3006238818554
 30
0.0
 10
75.21091306713477
 20
-132.4804578661854
 30
0.0
 10
75.21091306713477
 20
-132.6010362081692
 30
0.0
 10
75.21091306713477
 20
-132.6327310866335
 30
0.0
 10
75.21091306713477
 20
-132.7743245110773
 30
0.0
 10
75.34010414783164
 20
-132.8632079745967
 30
0.0
 10
75.34010414783164
 20
-132.8632079745967
 30
0.0
 10
75.32115612266277
 20
-133.0389078443444
 30
0.0
 10
75.32115612266277
 20
-133.0389078443444
 30
0.0
 10
75.32115612266277
 20
-133.0389078443444
 30
0.0
 10
74.47469616193689
 20
-132.9183295023607
 30
0.0
 10
74.47469616193689
 20
-132.9183295023607
 30
0.0
 10
74.47469616193689
 20
-132.9183295023607
 30
0.0
 10
74.47469616193689
 20
-132.1397379226943
 30
0.0
 10
74.47469616193689
 20
-132.1397379226943
 30
0.0
 10
74.47469616193689
 20
-132.1397379226943
 30
0.0
 10
74.6693440568535
 20
-132.1397379226943
 30
0.0
 10
74.6693440568535
 20
-132.1397379226943
 30
0.0
 10
74.6693440568535
 20
-132.1397379226943
 30
0.0
 10
74.6693440568535
 20
-132.7553764859084
 30
0.0
 10
74.6693440568535
 20
-132.7553764859084
 30
0.0
 10
74.6693440568535
 20
-132.7553764859084
 30
0.0
 10
75.09240178244218
 20
-132.8208333001281
 30
0.0
 10
75.09240178244218
 20
-132.8208333001281
 30
0.0
 10
75.05863984668673
 20
-132.7595106004907
 30
0.0
 10
75.01833222950931
 20
-132.6771728183932
 30
0.0
 10
75.01833222950931
 20
-132.5586615337006
 30
0.0
 10
75.01833222950931
 20
-132.3047579964377
 30
0.0
 10
75.20471189526133
 20
-132.0677354270525
 30
0.0
 10
75.51787107487054
 20
-132.0677354270525
 30
0.0
 10
75.83516436906204
 20
-132.0677354270525
 30
0.0
 10
76.06977537160756
 20
-132.2920111431423
 30
0.0
 10
76.06977537160756
 20
-132.5944905267472
 30
0.0
  0
HATCH
  5
AF
330
A8
100
AcDbEntity
  8
_U+30EC_U+30A4_U+30E4_U+30FC 1
 62
   179
420
  2234388
100
AcDbHatch
 10
0.0
 20
0.0
 30
0.0
210
0.0
220
0.0
230
1.0
  2
SOLID
 70
     1
 71
     0
 91
        1
 92
        1
 93
        1
 72
     4
 94
        3
 73
     0
 74
     1
 95
       53
 96
       49
 40
0.0
 40
0.0
 40
0.0
 40
0.0
 40
1.0
 40
1.0
 40
1.0
 40
2.0
 40
2.0
 40
2.0
 40
3.0
 40
3.0
 40
3.0
 40
4.0
 40
4.0
 40
4.0
 40
5.0
 40
5.0
 40
5.0
 40
6.0
 40
6.0
 40
6.0
 40
7.0
 40
7.0
 40
7.0
 40
8.0
 40
8.0
 40
8.0
 40
9.0
 40
9.0
 40
9.0
 40
10.0
 40
10.0
 40
10.0
 40
11.0
 40
11.0
 40
11.0
 40
12.0
 40
12.0
 40
12.0
 40
13.0
 40
13.0
 40
13.0
 40
14.0
 40
14.0
 40
14.0
 40
15.0
 40
15.0
 40
15.0
 40
16.0
 40
16.0
 40
16.0
 40
16.0
 10
76.06977537160756
 20
-132.5944905267472
 10
76.06977537160756
 20
-132.6726941942624
 10
76.05289440372984
 20
-132.7743245110773
 10
75.98950464680124
 20
-132.8759548278921
 10
75.87960610082177
 20
-133.0492431308002
 10
75.74834796283375
 20
-133.0706027228088
 10
75.64051647414543
 20
-133.0895507479776
 10
75.64051647414543
 20
-133.0895507479776
 10
75.64051647414543
 20
-132.867342089179
 10
75.64051647414543
 20
-132.867342089179
 10
75.83929848364434
 20
-132.8125650709635
 10
75.86892630481749
 20
-132.6854410475578
 10
75.86892630481749
 20
-132.5924234694561
 10
75.86892630481749
 20
-132.4528971023034
 10
75.76936304529377
 20
-132.3006238818554
 10
75.53681910003941
 20
-132.3006238818554
 10
75.28084850548535
 20
-132.3006238818554
 10
75.21091306713477
 20
-132.4804578661854
 10
75.21091306713477
 20
-132.6010362081692
 10
75.21091306713477
 20
-132.6327310866335
 10
75.21091306713477
 20
-132.7743245110773
 10
75.34010414783164
 20
-132.8632079745967
 10
75.34010414783164
 20
-132.8632079745967
 10
75.32115612266277
 20
-133.0389078443444
 10
75.32115612266277
 20
-133.0389078443444
 10
75.32115612266277
 20
-133.0389078443444
 10
74.47469616193689
 20
-132.9183295023607
 10
74.47469616193689
 20
-132.9183295023607
 10
74.47469616193689
 20
-132.9183295023607
 10
74.47469616193689
 20
-132.1397379226943
 10
74.47469616193689
 20
-132.1397379226943
 10
74.47469616193689
 20
-132.1397379226943
 10
74.6693440568535
 20
-132.1397379226943
 10
74.6693440568535
 20
-132.1397379226943
 10
74.6693440568535
 20
-132.1397379226943
 10
74.6693440568535
 20
-132.7553764859084
 10
74.6693440568535
 20
-132.7553764859084
 10
74.6693440568535
 20
-132.7553764859084
 10
75.09240178244218
 20
-132.8208333001281
 10
75.09240178244218
 20
-132.8208333001281
 10
75.05863984668673
 20
-132.7595106004907
 10
75.01833222950931
 20
-132.6771728183932
 10
75.01833222950931
 20
-132.5586615337006
 10
75.01833222950931
 20
-132.3047579964377
 10
75.20471189526133
 20
-132.0677354270525
 10
75.51787107487054
 20
-132.0677354270525
 10
75.83516436906204
 20
-132.0677354270525
 10
76.06977537160756
 20
-132.2920111431423
 10
76.06977537160756
 20
-132.5944905267472
 97
        0
 97
        0
 75
     2
 76
     1
 98
        0
  0
ENDBLK
  5
AB
330
A8
100
AcDbEntity
  8
0
100
AcDbBlockEnd
  0
BLOCK
  5
BE
330
BC
100
AcDbEntity
  8
0
100
AcDbBlockBegin
  2
block 3
 70
     0
 10
0.0
 20
0.0
 30
0.0
  3
block 3
  1

  0
SPLINE
  5
C0
330
BC
100
AcDbEntity
  8
_U+30EC_U+30A4_U+30E4_U+30FC 1
370
     0
100
AcDbSpline
210
0.0
220
0.0
230
1.0
 70
    11
 71
     3
 72
    26
 73
    22
 74
     0
 42
0.0000000001
 43
0.0000000001
 12
1.0
 22
0.0
 32
0.0
 13
1.0
 23
0.0
 33
0.0
 40
0.0
 40
0.0
 40
0.0
 40
0.0
 40
1.0
 40
1.0
 40
1.0
 40
2.0
 40
2.0
 40
2.0
 40
3.0
 40
3.0
 40
3.0
 40
4.0
 40
4.0
 40
4.0
 40
5.0
 40
5.0
 40
5.0
 40
6.0
 40
6.0
 40
6.0
 40
7.0
 40
7.0
 40
7.0
 40
7.0
 10
75.03865829287228
 20
-121.0337836068943
 30
0.0
 10
75.03865829287228
 20
-121.0337836068943
 30
0.0
 10
73.93450518984972
 20
-121.0337836068943
 30
0.0
 10
73.93450518984972
 20
-121.0337836068943
 30
0.0
 10
73.93450518984972
 20
-121.0337836068943
 30
0.0
 10
73.93450518984972
 20
-121.3638237543813
 30
0.0
 10
73.93450518984972
 20
-121.3638237543813
 30
0.0
 10
73.93450518984972
 20
-121.3638237543813
 30
0.0
 10
73.78636608398396
 20
-121.3638237543813
 30
0.0
 10
73.78636608398396
 20
-121.3638237543813
 30
0.0
 10
73.7715521733974
 20
-121.0317165496032
 30
0.0
 10
73.60859915694508
 20
-120.9852077605523
 30
0.0
 10
73.49422198683479
 20
-120.9555799393792
 30
0.0
 10
73.49422198683479
 20
-120.9555799393792
 30
0.0
 10
73.49422198683479
 20
-120.8095078908046
 30
0.0
 10
73.49422198683479
 20
-120.8095078908046
 30
0.0
 10
73.49422198683479
 20
-120.8095078908046
 30
0.0
 10
75.03865829287228
 20
-120.8095078908046
 30
0.0
 10
75.03865829287228
 20
-120.8095078908046
 30
0.0
 10
75.03865829287228
 20
-120.8095078908046
 30
0.0
 10
75.03865829287228
 20
-121.0337836068943
 30
0.0
 10
75.03865829287228
 20
-121.0337836068943
 30
0.0
  0
HATCH
  5
C1
330
BC
100
AcDbEntity
  8
_U+30EC_U+30A4_U+30E4_U+30FC 1
 62
   179
420
  2234388
100
AcDbHatch
 10
0.0
 20
0.0
 30
0.0
210
0.0
220
0.0
230
1.0
  2
SOLID
 70
     1
 71
     0
 91
        1
 92
        1
 93
        1
 72
     4
 94
        3
 73
     0
 74
     1
 95
       26
 96
       22
 40
0.0
 40
0.0
 40
0.0
 40
0.0
 40
1.0
 40
1.0
 40
1.0
 40
2.0
 40
2.0
 40
2.0
 40
3.0
 40
3.0
 40
3.0
 40
4.0
 40
4.0
 40
4.0
 40
5.0
 40
5.0
 40
5.0
 40
6.0
 40
6.0
 40
6.0
 40
7.0
 40
7.0
 40
7.0
 40
7.0
 10
75.03865829287228
 20
-121.0337836068943
 10
75.03865829287228
 20
-121.0337836068943
 10
73.93450518984972
 20
-121.0337836068943
 10
73.93450518984972
 20
-121.0337836068943
 10
73.93450518984972
 20
-121.0337836068943
 10
73.93450518984972
 20
-121.3638237543813
 10
73.93450518984972
 20
-121.3638237543813
 10
73.93450518984972
 20
-121.3638237543813
 10
73.78636608398396
 20
-121.3638237543813
 10
73.78636608398396
 20
-121.3638237543813
 10
73.7715521733974
 20
-121.0317165496032
 10
73.60859915694508
 20
-120.9852077605523
 10
73.49422198683479
 20
-120.9555799393792
 10
73.49422198683479
 20
-120.9555799393792
 10
73.49422198683479
 20
-120.8095078908046
 10
73.49422198683479
 20
-120.8095078908046
 10
73.49422198683479
 20
-120.8095078908046
 10
75.03865829287228
 20
-120.8095078908046
 10
75.03865829287228
 20
-120.8095078908046
 10
75.03865829287228
 20
-120.8095078908046
 10
75.03865829287228
 20
-121.0337836068943
 10
75.03865829287228
 20
-121.0337836068943
 97
        0
 97
        0
 75
     2
 76
     1
 98
        0
  0
POLYLINE
  5
C2
330
BC
100
AcDbEntity
  8
_U+30EC_U+30A4_U+30E4_U+30FC 1
370
     0
100
AcDb2dPolyline
 66
     1
 10
0.0
 20
0.0
 30
0.0
  0
VERTEX
  5
C3
330
C2
100
AcDbEntity
  8
_U+30EC_U+30A4_U+30E4_U+30FC 1
370
     0
100
AcDbVertex
100
AcDb2dVertex
 10
75.03865829287228
 20
-120.2483018362574
 30
0.0
  0
VERTEX
  5
C4
330
C2
100
AcDbEntity
  8
_U+30EC_U+30A4_U+30E4_U+30FC 1
370
     0
100
AcDbVertex
100
AcDb2dVertex
 10
74.78682181290053
 20
-120.2483018362574
 30
0.0
  0
VERTEX
  5
C5
330
C2
100
AcDbEntity
  8
_U+30EC_U+30A4_U+30E4_U+30FC 1
370
     0
100
AcDbVertex
100
AcDb2dVertex
 10
74.78682181290053
 20
-119.9964653562856
 30
0.0
  0
VERTEX
  5
C6
330
C2
100
AcDbEntity
  8
_U+30EC_U+30A4_U+30E4_U+30FC 1
370
     0
100
AcDbVertex
100
AcDb2dVertex
 10
75.03865829287228
 20
-119.9964653562856
 30
0.0
  0
VERTEX
  5
C7
330
C2
100
AcDbEntity
  8
_U+30EC_U+30A4_U+30E4_U+30FC 1
370
     0
100
AcDbVertex
100
AcDb2dVertex
 10
75.03865829287228
 20
-120.2483018362574
 30
0.0
  0
SEQEND
  5
C8
330
C2
100
AcDbEntity
  8
_U+30EC_U+30A4_U+30E4_U+30FC 1
370
     0
  0
HATCH
  5
C9
330
BC
100
AcDbEntity
  8
_U+30EC_U+30A4_U+30E4_U+30FC 1
 62
   179
420
  2234388
100
AcDbHatch
 10
0.0
 20
0.0
 30
0.0
210
0.0
220
0.0
230
1.0
  2
SOLID
 70
     1
 71
     0
 91
        1
 92
        1
 93
        4
 72
     1
 10
75.03865829287228
 20
-120.2483018362574
 11
74.78682181290053
 21
-120.2483018362574
 72
     1
 10
74.78682181290053
 20
-120.2483018362574
 11
74.78682181290053
 21
-119.9964653562856
 72
     1
 10
74.78682181290053
 20
-119.9964653562856
 11
75.03865829287228
 21
-119.9964653562856
 72
     1
 10
75.03865829287228
 20
-119.9964653562856
 11
75.03865829287228
 21
-120.2483018362574
 97
        0
 75
     2
 76
     1
 98
        0
  0
SPLINE
  5
CA
330
BC
100
AcDbEntity
  8
_U+30EC_U+30A4_U+30E4_U+30FC 1
370
     0
100
AcDbSpline
210
0.0
220
0.0
230
1.0
 70
    11
 71
     3
 72
    44
 73
    40
 74
     0
 42
0.0000000001
 43
0.0000000001
 12
1.0
 22
0.0
 32
0.0
 13
1.0
 23
0.0
 33
0.0
 40
0.0
 40
0.0
 40
0.0
 40
0.0
 40
1.0
 40
1.0
 40
1.0
 40
2.0
 40
2.0
 40
2.0
 40
3.0
 40
3.0
 40
3.0
 40
4.0
 40
4.0
 40
4.0
 40
5.0
 40
5.0
 40
5.0
 40
6.0
 40
6.0
 40
6.0
 40
7.0
 40
7.0
 40
7.0
 40
8.0
 40
8.0
 40
8.0
 40
9.0
 40
9.0
 40
9.0
 40
10.0
 40
10.0
 40
10.0
 40
11.0
 40
11.0
 40
11.0
 40
12.0
 40
12.0
 40
12.0
 40
13.0
 40
13.0
 40
13.0
 40
13.0
 10
74.45678166541359
 20
-119.167230872986
 30
0.0
 10
74.61560056728361
 20
-119.3849609076538
 30
0.0
 10
74.68967012021648
 20
-119.4779784857555
 30
0.0
 10
74.83333060195139
 20
-119.5268988416461
 30
0.0
 10
74.83333060195139
 20
-119.5268988416461
 30
0.0
 10
74.83333060195139
 20
-118.7483072619796
 30
0.0
 10
74.83333060195139
 20
-118.7483072619796
 30
0.0
 10
74.83333060195139
 20
-118.7483072619796
 30
0.0
 10
75.03865829287228
 20
-118.7483072619796
 30
0.0
 10
75.03865829287228
 20
-118.7483072619796
 30
0.0
 10
75.03865829287228
 20
-118.7483072619796
 30
0.0
 10
75.03865829287228
 20
-119.7763237547781
 30
0.0
 10
75.03865829287228
 20
-119.7763237547781
 30
0.0
 10
74.68105738150335
 20
-119.7446288763139
 30
0.0
 10
74.60285371398818
 20
-119.6791720620941
 30
0.0
 10
74.30450844496555
 20
-119.2940103868432
 30
0.0
 10
74.10572643546662
 20
-119.0380397922891
 30
0.0
 10
74.03785805440721
 20
-118.9725829780694
 30
0.0
 10
73.90039874454574
 20
-118.9725829780694
 30
0.0
 10
73.78188745985314
 20
-118.9725829780694
 30
0.0
 10
73.65097383141365
 20
-119.0445854737111
 30
0.0
 10
73.65097383141365
 20
-119.2413004259189
 30
0.0
 10
73.65097383141365
 20
-119.5014051350552
 30
0.0
 10
73.88145071937686
 20
-119.5096733642198
 30
0.0
 10
73.9978949467783
 20
-119.5141519883506
 30
0.0
 10
73.9978949467783
 20
-119.5141519883506
 30
0.0
 10
73.9978949467783
 20
-119.7384277044404
 30
0.0
 10
73.9978949467783
 20
-119.7384277044404
 30
0.0
 10
73.87077092337259
 20
-119.7298149657273
 30
0.0
 10
73.75880532010197
 20
-119.719135169723
 30
0.0
 10
73.64029403540937
 20
-119.6388644449167
 30
0.0
 10
73.4794080762482
 20
-119.5289658989372
 30
0.0
 10
73.44564614049276
 20
-119.3425862331852
 30
0.0
 10
73.44564614049276
 20
-119.2264865153323
 30
0.0
 10
73.44564614049276
 20
-118.9491563287697
 30
0.0
 10
73.6296142394051
 20
-118.7417615805576
 30
0.0
 10
73.90246580183688
 20
-118.7417615805576
 30
0.0
 10
74.13122014205747
 20
-118.7417615805576
 30
0.0
 10
74.23043889203267
 20
-118.8582058079591
 30
0.0
 10
74.45678166541359
 20
-119.167230872986
 30
0.0
  0
HATCH
  5
CB
330
BC
100
AcDbEntity
  8
_U+30EC_U+30A4_U+30E4_U+30FC 1
 62
   179
420
  2234388
100
AcDbHatch
 10
0.0
 20
0.0
 30
0.0
210
0.0
220
0.0
230
1.0
  2
SOLID
 70
     1
 71
     0
 91
        1
 92
        1
 93
        1
 72
     4
 94
        3
 73
     0
 74
     1
 95
       44
 96
       40
 40
0.0
 40
0.0
 40
0.0
 40
0.0
 40
1.0
 40
1.0
 40
1.0
 40
2.0
 40
2.0
 40
2.0
 40
3.0
 40
3.0
 40
3.0
 40
4.0
 40
4.0
 40
4.0
 40
5.0
 40
5.0
 40
5.0
 40
6.0
 40
6.0
 40
6.0
 40
7.0
 40
7.0
 40
7.0
 40
8.0
 40
8.0
 40
8.0
 40
9.0
 40
9.0
 40
9.0
 40
10.0
 40
10.0
 40
10.0
 40
11.0
 40
11.0
 40
11.0
 40
12.0
 40
12.0
 40
12.0
 40
13.0
 40
13.0
 40
13.0
 40
13.0
 10
74.45678166541359
 20
-119.167230872986
 10
74.61560056728361
 20
-119.3849609076538
 10
74.68967012021648
 20
-119.4779784857555
 10
74.83333060195139
 20
-119.5268988416461
 10
74.83333060195139
 20
-119.5268988416461
 10
74.83333060195139
 20
-118.7483072619796
 10
74.83333060195139
 20
-118.7483072619796
 10
74.83333060195139
 20
-118.7483072619796
 10
75.03865829287228
 20
-118.7483072619796
 10
75.03865829287228
 20
-118.7483072619796
 10
75.03865829287228
 20
-118.7483072619796
 10
75.03865829287228
 20
-119.7763237547781
 10
75.03865829287228
 20
-119.7763237547781
 10
74.68105738150335
 20
-119.7446288763139
 10
74.60285371398818
 20
-119.6791720620941
 10
74.30450844496555
 20
-119.2940103868432
 10
74.10572643546662
 20
-119.0380397922891
 10
74.03785805440721
 20
-118.9725829780694
 10
73.90039874454574
 20
-118.9725829780694
 10
73.78188745985314
 20
-118.9725829780694
 10
73.65097383141365
 20
-119.0445854737111
 10
73.65097383141365
 20
-119.2413004259189
 10
73.65097383141365
 20
-119.5014051350552
 10
73.88145071937686
 20
-119.5096733642198
 10
73.9978949467783
 20
-119.5141519883506
 10
73.9978949467783
 20
-119.5141519883506
 10
73.9978949467783
 20
-119.7384277044404
 10
73.9978949467783
 20
-119.7384277044404
 10
73.87077092337259
 20
-119.7298149657273
 10
73.75880532010197
 20
-119.719135169723
 10
73.64029403540937
 20
-119.6388644449167
 10
73.4794080762482
 20
-119.5289658989372
 10
73.44564614049276
 20
-119.3425862331852
 10
73.44564614049276
 20
-119.2264865153323
 10
73.44564614049276
 20
-118.9491563287697
 10
73.6296142394051
 20
-118.7417615805576
 10
73.90246580183688
 20
-118.7417615805576
 10
74.13122014205747
 20
-118.7417615805576
 10
74.23043889203267
 20
-118.8582058079591
 10
74.45678166541359
 20
-119.167230872986
 97
        0
 97
        0
 75
     2
 76
     1
 98
        0
  0
ENDBLK
  5
BF
330
BC
100
AcDbEntity
  8
0
100
AcDbBlockEnd
  0
BLOCK
  5
DA
330
D8
100
AcDbEntity
  8
0
100
AcDbBlockBegin
  2
block 4
 70
     0
 10
0.0
 20
0.0
 30
0.0
  3
block 4
  1

  0
SPLINE
  5
DC
330
D8
100
AcDbEntity
  8
_U+30EC_U+30A4_U+30E4_U+30FC 1
370
     0
100
AcDbSpline
210
0.0
220
0.0
230
1.0
 70
    11
 71
     3
 72
    53
 73
    49
 74
     0
 42
0.0000000001
 43
0.0000000001
 12
1.0
 22
0.0
 32
0.0
 13
1.0
 23
0.0
 33
0.0
 40
0.0
 40
0.0
 40
0.0
 40
0.0
 40
1.0
 40
1.0
 40
1.0
 40
2.0
 40
2.0
 40
2.0
 40
3.0
 40
3.0
 40
3.0
 40
4.0
 40
4.0
 40
4.0
 40
5.0
 40
5.0
 40
5.0
 40
6.0
 40
6.0
 40
6.0
 40
7.0
 40
7.0
 40
7.0
 40
8.0
 40
8.0
 40
8.0
 40
9.0
 40
9.0
 40
9.0
 40
10.0
 40
10.0
 40
10.0
 40
11.0
 40
11.0
 40
11.0
 40
12.0
 40
12.0
 40
12.0
 40
13.0
 40
13.0
 40
13.0
 40
14.0
 40
14.0
 40
14.0
 40
15.0
 40
15.0
 40
15.0
 40
16.0
 40
16.0
 40
16.0
 40
16.0
 10
89.91974824140895
 20
-143.1829915006626
 30
0.0
 10
89.91974824140895
 20
-143.2611951681777
 30
0.0
 10
89.90286727353123
 20
-143.3628254849926
 30
0.0
 10
89.83947751660263
 20
-143.4644558018075
 30
0.0
 10
89.72957897062317
 20
-143.6377441047156
 30
0.0
 10
89.59832083263515
 20
-143.6591036967241
 30
0.0
 10
89.49048934394682
 20
-143.678051721893
 30
0.0
 10
89.49048934394682
 20
-143.678051721893
 30
0.0
 10
89.49048934394682
 20
-143.4558430630944
 30
0.0
 10
89.49048934394682
 20
-143.4558430630944
 30
0.0
 10
89.68927135344575
 20
-143.4010660448789
 30
0.0
 10
89.7188991746189
 20
-143.2739420214732
 30
0.0
 10
89.7188991746189
 20
-143.1809244433715
 30
0.0
 10
89.7188991746189
 20
-143.0413980762188
 30
0.0
 10
89.61933591509516
 20
-142.8891248557708
 30
0.0
 10
89.3867919698408
 20
-142.8891248557708
 30
0.0
 10
89.13082137528674
 20
-142.8891248557708
 30
0.0
 10
89.06088593693617
 20
-143.0689588401008
 30
0.0
 10
89.06088593693617
 20
-143.1895371820846
 30
0.0
 10
89.06088593693617
 20
-143.2212320605489
 30
0.0
 10
89.06088593693617
 20
-143.3628254849926
 30
0.0
 10
89.19007701763304
 20
-143.4517089485121
 30
0.0
 10
89.19007701763304
 20
-143.4517089485121
 30
0.0
 10
89.17112899246416
 20
-143.6274088182598
 30
0.0
 10
89.17112899246416
 20
-143.6274088182598
 30
0.0
 10
89.17112899246416
 20
-143.6274088182598
 30
0.0
 10
88.32466903173828
 20
-143.5068304762761
 30
0.0
 10
88.32466903173828
 20
-143.5068304762761
 30
0.0
 10
88.32466903173828
 20
-143.5068304762761
 30
0.0
 10
88.32466903173828
 20
-142.7282388966096
 30
0.0
 10
88.32466903173828
 20
-142.7282388966096
 30
0.0
 10
88.32466903173828
 20
-142.7282388966096
 30
0.0
 10
88.5193169266549
 20
-142.7282388966096
 30
0.0
 10
88.5193169266549
 20
-142.7282388966096
 30
0.0
 10
88.5193169266549
 20
-142.7282388966096
 30
0.0
 10
88.5193169266549
 20
-143.3438774598238
 30
0.0
 10
88.5193169266549
 20
-143.3438774598238
 30
0.0
 10
88.5193169266549
 20
-143.3438774598238
 30
0.0
 10
88.94237465224357
 20
-143.4093342740435
 30
0.0
 10
88.94237465224357
 20
-143.4093342740435
 30
0.0
 10
88.90861271648812
 20
-143.3480115744061
 30
0.0
 10
88.8683050993107
 20
-143.2656737923086
 30
0.0
 10
88.8683050993107
 20
-143.147162507616
 30
0.0
 10
88.8683050993107
 20
-142.8932589703531
 30
0.0
 10
89.05468476506272
 20
-142.6562364009679
 30
0.0
 10
89.36784394467193
 20
-142.6562364009679
 30
0.0
 10
89.68513723886345
 20
-142.6562364009679
 30
0.0
 10
89.91974824140895
 20
-142.8805121170577
 30
0.0
 10
89.91974824140895
 20
-143.1829915006626
 30
0.0
  0
HATCH
  5
DD
330
D8
100
AcDbEntity
  8
_U+30EC_U+30A4_U+30E4_U+30FC 1
 62
   179
420
  2234388
100
AcDbHatch
 10
0.0
 20
0.0
 30
0.0
210
0.0
220
0.0
230
1.0
  2
SOLID
 70
     1
 71
     0
 91
        1
 92
        1
 93
        1
 72
     4
 94
        3
 73
     0
 74
     1
 95
       53
 96
       49
 40
0.0
 40
0.0
 40
0.0
 40
0.0
 40
1.0
 40
1.0
 40
1.0
 40
2.0
 40
2.0
 40
2.0
 40
3.0
 40
3.0
 40
3.0
 40
4.0
 40
4.0
 40
4.0
 40
5.0
 40
5.0
 40
5.0
 40
6.0
 40
6.0
 40
6.0
 40
7.0
 40
7.0
 40
7.0
 40
8.0
 40
8.0
 40
8.0
 40
9.0
 40
9.0
 40
9.0
 40
10.0
 40
10.0
 40
10.0
 40
11.0
 40
11.0
 40
11.0
 40
12.0
 40
12.0
 40
12.0
 40
13.0
 40
13.0
 40
13.0
 40
14.0
 40
14.0
 40
14.0
 40
15.0
 40
15.0
 40
15.0
 40
16.0
 40
16.0
 40
16.0
 40
16.0
 10
89.91974824140895
 20
-143.1829915006626
 10
89.91974824140895
 20
-143.2611951681777
 10
89.90286727353123
 20
-143.3628254849926
 10
89.83947751660263
 20
-143.4644558018075
 10
89.72957897062317
 20
-143.6377441047156
 10
89.59832083263515
 20
-143.6591036967241
 10
89.49048934394682
 20
-143.678051721893
 10
89.49048934394682
 20
-143.678051721893
 10
89.49048934394682
 20
-143.4558430630944
 10
89.49048934394682
 20
-143.4558430630944
 10
89.68927135344575
 20
-143.4010660448789
 10
89.7188991746189
 20
-143.2739420214732
 10
89.7188991746189
 20
-143.1809244433715
 10
89.7188991746189
 20
-143.0413980762188
 10
89.61933591509516
 20
-142.8891248557708
 10
89.3867919698408
 20
-142.8891248557708
 10
89.13082137528674
 20
-142.8891248557708
 10
89.06088593693617
 20
-143.0689588401008
 10
89.06088593693617
 20
-143.1895371820846
 10
89.06088593693617
 20
-143.2212320605489
 10
89.06088593693617
 20
-143.3628254849926
 10
89.19007701763304
 20
-143.4517089485121
 10
89.19007701763304
 20
-143.4517089485121
 10
89.17112899246416
 20
-143.6274088182598
 10
89.17112899246416
 20
-143.6274088182598
 10
89.17112899246416
 20
-143.6274088182598
 10
88.32466903173828
 20
-143.5068304762761
 10
88.32466903173828
 20
-143.5068304762761
 10
88.32466903173828
 20
-143.5068304762761
 10
88.32466903173828
 20
-142.7282388966096
 10
88.32466903173828
 20
-142.7282388966096
 10
88.32466903173828
 20
-142.7282388966096
 10
88.5193169266549
 20
-142.7282388966096
 10
88.5193169266549
 20
-142.7282388966096
 10
88.5193169266549
 20
-142.7282388966096
 10
88.5193169266549
 20
-143.3438774598238
 10
88.5193169266549
 20
-143.3438774598238
 10
88.5193169266549
 20
-143.3438774598238
 10
88.94237465224357
 20
-143.4093342740435
 10
88.94237465224357
 20
-143.4093342740435
 10
88.90861271648812
 20
-143.3480115744061
 10
88.8683050993107
 20
-143.2656737923086
 10
88.8683050993107
 20
-143.147162507616
 10
88.8683050993107
 20
-142.8932589703531
 10
89.05468476506272
 20
-142.6562364009679
 10
89.36784394467193
 20
-142.6562364009679
 10
89.68513723886345
 20
-142.6562364009679
 10
89.91974824140895
 20
-142.8805121170577
 10
89.91974824140895
 20
-143.1829915006626
 97
        0
 97
        0
 75
     2
 76
     1
 98
        0
  0
ENDBLK
  5
DB
330
D8
100
AcDbEntity
  8
0
100
AcDbBlockEnd
  0
BLOCK
  5
E8
330
E6
100
AcDbEntity
  8
0
100
AcDbBlockBegin
  2
block 5
 70
     0
 10
0.0
 20
0.0
 30
0.0
  3
block 5
  1

  0
POLYLINE
  5
EA
330
E6
100
AcDbEntity
  8
_U+30EC_U+30A4_U+30E4_U+30FC 1
370
     0
100
AcDb2dPolyline
 66
     1
 10
0.0
 20
0.0
 30
0.0
  0
VERTEX
  5
EB
330
EA
100
AcDbEntity
  8
_U+30EC_U+30A4_U+30E4_U+30FC 1
370
     0
100
AcDbVertex
100
AcDb2dVertex
 10
89.52218422241113
 20
-138.3319525478823
 30
0.0
  0
VERTEX
  5
EC
330
EA
100
AcDbEntity
  8
_U+30EC_U+30A4_U+30E4_U+30FC 1
370
     0
100
AcDbVertex
100
AcDb2dVertex
 10
89.86910533777578
 20
-138.3319525478823
 30
0.0
  0
VERTEX
  5
ED
330
EA
100
AcDbEntity
  8
_U+30EC_U+30A4_U+30E4_U+30FC 1
370
     0
100
AcDbVertex
100
AcDb2dVertex
 10
89.86910533777578
 20
-138.5496825825501
 30
0.0
  0
VERTEX
  5
EE
330
EA
100
AcDbEntity
  8
_U+30EC_U+30A4_U+30E4_U+30FC 1
370
     0
100
AcDbVertex
100
AcDb2dVertex
 10
89.52218422241113
 20
-138.5496825825501
 30
0.0
  0
VERTEX
  5
EF
330
EA
100
AcDbEntity
  8
_U+30EC_U+30A4_U+30E4_U+30FC 1
370
     0
100
AcDbVertex
100
AcDb2dVertex
 10
89.52218422241113
 20
-139.2056287629416
 30
0.0
  0
VERTEX
  5
F0
330
EA
100
AcDbEntity
  8
_U+30EC_U+30A4_U+30E4_U+30FC 1
370
     0
100
AcDbVertex
100
AcDb2dVertex
 10
89.29790850632136
 20
-139.2056287629416
 30
0.0
  0
VERTEX
  5
F1
330
EA
100
AcDbEntity
  8
_U+30EC_U+30A4_U+30E4_U+30FC 1
370
     0
100
AcDbVertex
100
AcDb2dVertex
 10
88.32466903173828
 20
-138.5266004427989
 30
0.0
  0
VERTEX
  5
F2
330
EA
100
AcDbEntity
  8
_U+30EC_U+30A4_U+30E4_U+30FC 1
370
     0
100
AcDbVertex
100
AcDb2dVertex
 10
88.32466903173828
 20
-138.3319525478823
 30
0.0
  0
VERTEX
  5
F3
330
EA
100
AcDbEntity
  8
_U+30EC_U+30A4_U+30E4_U+30FC 1
370
     0
100
AcDbVertex
100
AcDb2dVertex
 10
89.32340221291221
 20
-138.3319525478823
 30
0.0
  0
VERTEX
  5
F4
330
EA
100
AcDbEntity
  8
_U+30EC_U+30A4_U+30E4_U+30FC 1
370
     0
100
AcDbVertex
100
AcDb2dVertex
 10
89.32340221291221
 20
-138.1245577996702
 30
0.0
  0
VERTEX
  5
F5
330
EA
100
AcDbEntity
  8
_U+30EC_U+30A4_U+30E4_U+30FC 1
370
     0
100
AcDbVertex
100
AcDb2dVertex
 10
89.52218422241113
 20
-138.1245577996702
 30
0.0
  0
VERTEX
  5
F6
330
EA
100
AcDbEntity
  8
_U+30EC_U+30A4_U+30E4_U+30FC 1
370
     0
100
AcDbVertex
100
AcDb2dVertex
 10
89.52218422241113
 20
-138.3319525478823
 30
0.0
  0
SEQEND
  5
F7
330
EA
100
AcDbEntity
  8
_U+30EC_U+30A4_U+30E4_U+30FC 1
370
     0
  0
POLYLINE
  5
F8
330
E6
100
AcDbEntity
  8
_U+30EC_U+30A4_U+30E4_U+30FC 1
370
     0
100
AcDb2dPolyline
 66
     1
 10
0.0
 20
0.0
 30
0.0
  0
VERTEX
  5
F9
330
F8
100
AcDbEntity
  8
_U+30EC_U+30A4_U+30E4_U+30FC 1
370
     0
100
AcDbVertex
100
AcDb2dVertex
 10
88.66745603252065
 20
-138.5496825825501
 30
0.0
  0
VERTEX
  5
FA
330
F8
100
AcDbEntity
  8
_U+30EC_U+30A4_U+30E4_U+30FC 1
370
     0
100
AcDbVertex
100
AcDb2dVertex
 10
89.32340221291221
 20
-139.0068467534427
 30
0.0
  0
VERTEX
  5
FB
330
F8
100
AcDbEntity
  8
_U+30EC_U+30A4_U+30E4_U+30FC 1
370
     0
100
AcDbVertex
100
AcDb2dVertex
 10
89.32340221291221
 20
-138.5496825825501
 30
0.0
  0
VERTEX
  5
FC
330
F8
100
AcDbEntity
  8
_U+30EC_U+30A4_U+30E4_U+30FC 1
370
     0
100
AcDbVertex
100
AcDb2dVertex
 10
88.66745603252065
 20
-138.5496825825501
 30
0.0
  0
SEQEND
  5
FD
330
F8
100
AcDbEntity
  8
_U+30EC_U+30A4_U+30E4_U+30FC 1
370
     0
  0
HATCH
  5
FE
330
E6
100
AcDbEntity
  8
_U+30EC_U+30A4_U+30E4_U+30FC 1
 62
   179
420
  2234388
100
AcDbHatch
 10
0.0
 20
0.0
 30
0.0
210
0.0
220
0.0
230
1.0
  2
SOLID
 70
     1
 71
     0
 91
        2
 92
        1
 93
       11
 72
     1
 10
89.52218422241113
 20
-138.3319525478823
 11
89.86910533777578
 21
-138.3319525478823
 72
     1
 10
89.86910533777578
 20
-138.3319525478823
 11
89.86910533777578
 21
-138.5496825825501
 72
     1
 10
89.86910533777578
 20
-138.5496825825501
 11
89.52218422241113
 21
-138.5496825825501
 72
     1
 10
89.52218422241113
 20
-138.5496825825501
 11
89.52218422241113
 21
-139.2056287629416
 72
     1
 10
89.52218422241113
 20
-139.2056287629416
 11
89.29790850632136
 21
-139.2056287629416
 72
     1
 10
89.29790850632136
 20
-139.2056287629416
 11
88.32466903173828
 21
-138.5266004427989
 72
     1
 10
88.32466903173828
 20
-138.5266004427989
 11
88.32466903173828
 21
-138.3319525478823
 72
     1
 10
88.32466903173828
 20
-138.3319525478823
 11
89.32340221291221
 21
-138.3319525478823
 72
     1
 10
89.32340221291221
 20
-138.3319525478823
 11
89.32340221291221
 21
-138.1245577996702
 72
     1
 10
89.32340221291221
 20
-138.1245577996702
 11
89.52218422241113
 21
-138.1245577996702
 72
     1
 10
89.52218422241113
 20
-138.1245577996702
 11
89.52218422241113
 21
-138.3319525478823
 97
        0
 92
        1
 93
        3
 72
     1
 10
88.66745603252065
 20
-138.5496825825501
 11
89.32340221291221
 21
-139.0068467534427
 72
     1
 10
89.32340221291221
 20
-139.0068467534427
 11
89.32340221291221
 21
-138.5496825825501
 72
     1
 10
89.32340221291221
 20
-138.5496825825501
 11
88.66745603252065
 21
-138.5496825825501
 97
        0
 75
     2
 76
     1
 98
        0
  0
ENDBLK
  5
E9
330
E6
100
AcDbEntity
  8
0
100
AcDbBlockEnd
  0
BLOCK
  5
109
330
107
100
AcDbEntity
  8
0
100
AcDbBlockBegin
  2
block 6
 70
     0
 10
0.0
 20
0.0
 30
0.0
  3
block 6
  1

  0
POLYLINE
  5
10B
330
107
100
AcDbEntity
  8
_U+30EC_U+30A4_U+30E4_U+30FC 1
370
     0
100
AcDb2dPolyline
 66
     1
 10
0.0
 20
0.0
 30
0.0
  0
VERTEX
  5
10C
330
10B
100
AcDbEntity
  8
_U+30EC_U+30A4_U+30E4_U+30FC 1
370
     0
100
AcDbVertex
100
AcDb2dVertex
 10
89.52218422241113
 20
-134.3318521799587
 30
0.0
  0
VERTEX
  5
10D
330
10B
100
AcDbEntity
  8
_U+30EC_U+30A4_U+30E4_U+30FC 1
370
     0
100
AcDbVertex
100
AcDb2dVertex
 10
89.86910533777578
 20
-134.3318521799587
 30
0.0
  0
VERTEX
  5
10E
330
10B
100
AcDbEntity
  8
_U+30EC_U+30A4_U+30E4_U+30FC 1
370
     0
100
AcDbVertex
100
AcDb2dVertex
 10
89.86910533777578
 20
-134.5495822146265
 30
0.0
  0
VERTEX
  5
10F
330
10B
100
AcDbEntity
  8
_U+30EC_U+30A4_U+30E4_U+30FC 1
370
     0
100
AcDbVertex
100
AcDb2dVertex
 10
89.52218422241113
 20
-134.5495822146265
 30
0.0
  0
VERTEX
  5
110
330
10B
100
AcDbEntity
  8
_U+30EC_U+30A4_U+30E4_U+30FC 1
370
     0
100
AcDbVertex
100
AcDb2dVertex
 10
89.52218422241113
 20
-135.2055283950181
 30
0.0
  0
VERTEX
  5
111
330
10B
100
AcDbEntity
  8
_U+30EC_U+30A4_U+30E4_U+30FC 1
370
     0
100
AcDbVertex
100
AcDb2dVertex
 10
89.29790850632136
 20
-135.2055283950181
 30
0.0
  0
VERTEX
  5
112
330
10B
100
AcDbEntity
  8
_U+30EC_U+30A4_U+30E4_U+30FC 1
370
     0
100
AcDbVertex
100
AcDb2dVertex
 10
88.32466903173828
 20
-134.5265000748753
 30
0.0
  0
VERTEX
  5
113
330
10B
100
AcDbEntity
  8
_U+30EC_U+30A4_U+30E4_U+30FC 1
370
     0
100
AcDbVertex
100
AcDb2dVertex
 10
88.32466903173828
 20
-134.3318521799587
 30
0.0
  0
VERTEX
  5
114
330
10B
100
AcDbEntity
  8
_U+30EC_U+30A4_U+30E4_U+30FC 1
370
     0
100
AcDbVertex
100
AcDb2dVertex
 10
89.32340221291221
 20
-134.3318521799587
 30
0.0
  0
VERTEX
  5
115
330
10B
100
AcDbEntity
  8
_U+30EC_U+30A4_U+30E4_U+30FC 1
370
     0
100
AcDbVertex
100
AcDb2dVertex
 10
89.32340221291221
 20
-134.1244574317467
 30
0.0
  0
VERTEX
  5
116
330
10B
100
AcDbEntity
  8
_U+30EC_U+30A4_U+30E4_U+30FC 1
370
     0
100
AcDbVertex
100
AcDb2dVertex
 10
89.52218422241113
 20
-134.1244574317467
 30
0.0
  0
VERTEX
  5
117
330
10B
100
AcDbEntity
  8
_U+30EC_U+30A4_U+30E4_U+30FC 1
370
     0
100
AcDbVertex
100
AcDb2dVertex
 10
89.52218422241113
 20
-134.3318521799587
 30
0.0
  0
SEQEND
  5
118
330
10B
100
AcDbEntity
  8
_U+30EC_U+30A4_U+30E4_U+30FC 1
370
     0
  0
POLYLINE
  5
119
330
107
100
AcDbEntity
  8
_U+30EC_U+30A4_U+30E4_U+30FC 1
370
     0
100
AcDb2dPolyline
 66
     1
 10
0.0
 20
0.0
 30
0.0
  0
VERTEX
  5
11A
330
119
100
AcDbEntity
  8
_U+30EC_U+30A4_U+30E4_U+30FC 1
370
     0
100
AcDbVertex
100
AcDb2dVertex
 10
88.66745603252065
 20
-134.5495822146265
 30
0.0
  0
VERTEX
  5
11B
330
119
100
AcDbEntity
  8
_U+30EC_U+30A4_U+30E4_U+30FC 1
370
     0
100
AcDbVertex
100
AcDb2dVertex
 10
89.32340221291221
 20
-135.0067463855192
 30
0.0
  0
VERTEX
  5
11C
330
119
100
AcDbEntity
  8
_U+30EC_U+30A4_U+30E4_U+30FC 1
370
     0
100
AcDbVertex
100
AcDb2dVertex
 10
89.32340221291221
 20
-134.5495822146265
 30
0.0
  0
VERTEX
  5
11D
330
119
100
AcDbEntity
  8
_U+30EC_U+30A4_U+30E4_U+30FC 1
370
     0
100
AcDbVertex
100
AcDb2dVertex
 10
88.66745603252065
 20
-134.5495822146265
 30
0.0
  0
SEQEND
  5
11E
330
119
100
AcDbEntity
  8
_U+30EC_U+30A4_U+30E4_U+30FC 1
370
     0
  0
HATCH
  5
11F
330
107
100
AcDbEntity
  8
_U+30EC_U+30A4_U+30E4_U+30FC 1
 62
   179
420
  2234388
100
AcDbHatch
 10
0.0
 20
0.0
 30
0.0
210
0.0
220
0.0
230
1.0
  2
SOLID
 70
     1
 71
     0
 91
        2
 92
        1
 93
       11
 72
     1
 10
89.52218422241113
 20
-134.3318521799587
 11
89.86910533777578
 21
-134.3318521799587
 72
     1
 10
89.86910533777578
 20
-134.3318521799587
 11
89.86910533777578
 21
-134.5495822146265
 72
     1
 10
89.86910533777578
 20
-134.5495822146265
 11
89.52218422241113
 21
-134.5495822146265
 72
     1
 10
89.52218422241113
 20
-134.5495822146265
 11
89.52218422241113
 21
-135.2055283950181
 72
     1
 10
89.52218422241113
 20
-135.2055283950181
 11
89.29790850632136
 21
-135.2055283950181
 72
     1
 10
89.29790850632136
 20
-135.2055283950181
 11
88.32466903173828
 21
-134.5265000748753
 72
     1
 10
88.32466903173828
 20
-134.5265000748753
 11
88.32466903173828
 21
-134.3318521799587
 72
     1
 10
88.32466903173828
 20
-134.3318521799587
 11
89.32340221291221
 21
-134.3318521799587
 72
     1
 10
89.32340221291221
 20
-134.3318521799587
 11
89.32340221291221
 21
-134.1244574317467
 72
     1
 10
89.32340221291221
 20
-134.1244574317467
 11
89.52218422241113
 21
-134.1244574317467
 72
     1
 10
89.52218422241113
 20
-134.1244574317467
 11
89.52218422241113
 21
-134.3318521799587
 97
        0
 92
        1
 93
        3
 72
     1
 10
88.66745603252065
 20
-134.5495822146265
 11
89.32340221291221
 21
-135.0067463855192
 72
     1
 10
89.32340221291221
 20
-135.0067463855192
 11
89.32340221291221
 21
-134.5495822146265
 72
     1
 10
89.32340221291221
 20
-134.5495822146265
 11
88.66745603252065
 21
-134.5495822146265
 97
        0
 75
     2
 76
     1
 98
        0
  0
ENDBLK
  5
10A
330
107
100
AcDbEntity
  8
0
100
AcDbBlockEnd
  0
BLOCK
  5
12E
330
12C
100
AcDbEntity
  8
0
100
AcDbBlockBegin
  2
block 7
 70
     0
 10
0.0
 20
0.0
 30
0.0
  3
block 7
  1

  0
SPLINE
  5
130
330
12C
100
AcDbEntity
  8
_U+30EC_U+30A4_U+30E4_U+30FC 1
370
     0
100
AcDbSpline
210
0.0
220
0.0
230
1.0
 70
    11
 71
     3
 72
    62
 73
    58
 74
     0
 42
0.0000000001
 43
0.0000000001
 12
1.0
 22
0.0
 32
0.0
 13
1.0
 23
0.0
 33
0.0
 40
0.0
 40
0.0
 40
0.0
 40
0.0
 40
1.0
 40
1.0
 40
1.0
 40
2.0
 40
2.0
 40
2.0
 40
3.0
 40
3.0
 40
3.0
 40
4.0
 40
4.0
 40
4.0
 40
5.0
 40
5.0
 40
5.0
 40
6.0
 40
6.0
 40
6.0
 40
7.0
 40
7.0
 40
7.0
 40
8.0
 40
8.0
 40
8.0
 40
9.0
 40
9.0
 40
9.0
 40
10.0
 40
10.0
 40
10.0
 40
11.0
 40
11.0
 40
11.0
 40
12.0
 40
12.0
 40
12.0
 40
13.0
 40
13.0
 40
13.0
 40
14.0
 40
14.0
 40
14.0
 40
15.0
 40
15.0
 40
15.0
 40
16.0
 40
16.0
 40
16.0
 40
17.0
 40
17.0
 40
17.0
 40
18.0
 40
18.0
 40
18.0
 40
19.0
 40
19.0
 40
19.0
 40
19.0
 10
95.06809893456631
 20
-114.8696465099111
 30
0.0
 10
94.97266978962489
 20
-114.8696465099111
 30
0.0
 10
94.7549397549571
 20
-114.8484591726768
 30
0.0
 10
94.63022729839106
 20
-114.662251761699
 30
0.0
 10
94.5561577454582
 20
-114.5501139036542
 30
0.0
 10
94.55167912132737
 20
-114.4507228989047
 30
0.0
 10
94.54754500674507
 20
-114.3661458047418
 30
0.0
 10
94.54754500674507
 20
-114.3661458047418
 30
0.0
 10
94.76768660825253
 20
-114.3661458047418
 30
0.0
 10
94.76768660825253
 20
-114.3661458047418
 30
0.0
 10
94.76975366554367
 20
-114.4402153576747
 30
0.0
 10
94.78043346154796
 20
-114.6749986149945
 30
0.0
 10
95.06362031043548
 20
-114.6749986149945
 30
0.0
 10
95.20142412984548
 20
-114.6749986149945
 30
0.0
 10
95.35369735029353
 20
-114.6052354314181
 30
0.0
 10
95.35369735029353
 20
-114.3766533459718
 30
0.0
 10
95.35369735029353
 20
-114.2603813733446
 30
0.0
 10
95.31545679040725
 20
-114.2116332722283
 30
0.0
 10
95.28376191194295
 20
-114.179938393764
 30
0.0
 10
95.20969235901008
 20
-114.1058688408312
 30
0.0
 10
95.09324813160863
 20
-114.09329424231
 30
0.0
 10
95.03847111339316
 20
-114.09329424231
 30
0.0
 10
95.01952308822429
 20
-114.09329424231
 30
0.0
 10
94.98334958562917
 20
-114.0953612996012
 30
0.0
 10
94.95578882174716
 20
-114.0994954141835
 30
0.0
 10
94.95578882174716
 20
-114.0994954141835
 30
0.0
 10
94.95578882174716
 20
-113.9048475192669
 30
0.0
 10
94.95578882174716
 20
-113.9048475192669
 30
0.0
 10
94.99402938163344
 20
-113.9112209459146
 30
0.0
 10
95.03640405610201
 20
-113.91346025798
 30
0.0
 10
95.04260522797546
 20
-113.91346025798
 30
0.0
 10
95.10806204219521
 20
-113.91346025798
 30
0.0
 10
95.30718856124265
 20
-113.8922729207457
 30
0.0
 10
95.30718856124265
 20
-113.6552503513605
 30
0.0
 10
95.30718856124265
 20
-113.4776556790959
 30
0.0
 10
95.17593042325463
 20
-113.4225341513319
 30
0.0
 10
95.06603187727517
 20
-113.4225341513319
 30
0.0
 10
94.80144854400798
 20
-113.4225341513319
 30
0.0
 10
94.79283580529486
 20
-113.6552503513605
 30
0.0
 10
94.78870169071256
 20
-113.7272528470022
 30
0.0
 10
94.78870169071256
 20
-113.7272528470022
 30
0.0
 10
94.58578556663133
 20
-113.7272528470022
 30
0.0
 10
94.58578556663133
 20
-113.7272528470022
 30
0.0
 10
94.59405379579593
 20
-113.6023681356619
 30
0.0
 10
94.62161455967794
 20
-113.2258191991241
 30
0.0
 10
95.07843422102206
 20
-113.2258191991241
 30
0.0
 10
95.30270993711183
 20
-113.2258191991241
 30
0.0
 10
95.54386662107932
 20
-113.3527709677556
 30
0.0
 10
95.54386662107932
 20
-113.6488769247128
 30
0.0
 10
95.54386662107932
 20
-113.8350843356905
 30
0.0
 10
95.44878198568642
 20
-113.9175943725623
 30
0.0
 10
95.3492187261627
 20
-113.9789170721997
 30
0.0
 10
95.41088593534867
 20
-114.0064778360817
 30
0.0
 10
95.59278697696986
 20
-114.0869208156623
 30
0.0
 10
95.59278697696986
 20
-114.3640787474506
 30
0.0
 10
95.59278697696986
 20
-114.7025593788764
 30
0.0
 10
95.3450846115804
 20
-114.8696465099111
 30
0.0
 10
95.06809893456631
 20
-114.8696465099111
 30
0.0
  0
HATCH
  5
131
330
12C
100
AcDbEntity
  8
_U+30EC_U+30A4_U+30E4_U+30FC 1
 62
   179
420
  2234388
100
AcDbHatch
 10
0.0
 20
0.0
 30
0.0
210
0.0
220
0.0
230
1.0
  2
SOLID
 70
     1
 71
     0
 91
        1
 92
        1
 93
        1
 72
     4
 94
        3
 73
     0
 74
     1
 95
       62
 96
       58
 40
0.0
 40
0.0
 40
0.0
 40
0.0
 40
1.0
 40
1.0
 40
1.0
 40
2.0
 40
2.0
 40
2.0
 40
3.0
 40
3.0
 40
3.0
 40
4.0
 40
4.0
 40
4.0
 40
5.0
 40
5.0
 40
5.0
 40
6.0
 40
6.0
 40
6.0
 40
7.0
 40
7.0
 40
7.0
 40
8.0
 40
8.0
 40
8.0
 40
9.0
 40
9.0
 40
9.0
 40
10.0
 40
10.0
 40
10.0
 40
11.0
 40
11.0
 40
11.0
 40
12.0
 40
12.0
 40
12.0
 40
13.0
 40
13.0
 40
13.0
 40
14.0
 40
14.0
 40
14.0
 40
15.0
 40
15.0
 40
15.0
 40
16.0
 40
16.0
 40
16.0
 40
17.0
 40
17.0
 40
17.0
 40
18.0
 40
18.0
 40
18.0
 40
19.0
 40
19.0
 40
19.0
 40
19.0
 10
95.06809893456631
 20
-114.8696465099111
 10
94.97266978962489
 20
-114.8696465099111
 10
94.7549397549571
 20
-114.8484591726768
 10
94.63022729839106
 20
-114.662251761699
 10
94.5561577454582
 20
-114.5501139036542
 10
94.55167912132737
 20
-114.4507228989047
 10
94.54754500674507
 20
-114.3661458047418
 10
94.54754500674507
 20
-114.3661458047418
 10
94.76768660825253
 20
-114.3661458047418
 10
94.76768660825253
 20
-114.3661458047418
 10
94.76975366554367
 20
-114.4402153576747
 10
94.78043346154796
 20
-114.6749986149945
 10
95.06362031043548
 20
-114.6749986149945
 10
95.20142412984548
 20
-114.6749986149945
 10
95.35369735029353
 20
-114.6052354314181
 10
95.35369735029353
 20
-114.3766533459718
 10
95.35369735029353
 20
-114.2603813733446
 10
95.31545679040725
 20
-114.2116332722283
 10
95.28376191194295
 20
-114.179938393764
 10
95.20969235901008
 20
-114.1058688408312
 10
95.09324813160863
 20
-114.09329424231
 10
95.03847111339316
 20
-114.09329424231
 10
95.01952308822429
 20
-114.09329424231
 10
94.98334958562917
 20
-114.0953612996012
 10
94.95578882174716
 20
-114.0994954141835
 10
94.95578882174716
 20
-114.0994954141835
 10
94.95578882174716
 20
-113.9048475192669
 10
94.95578882174716
 20
-113.9048475192669
 10
94.99402938163344
 20
-113.9112209459146
 10
95.03640405610201
 20
-113.91346025798
 10
95.04260522797546
 20
-113.91346025798
 10
95.10806204219521
 20
-113.91346025798
 10
95.30718856124265
 20
-113.8922729207457
 10
95.30718856124265
 20
-113.6552503513605
 10
95.30718856124265
 20
-113.4776556790959
 10
95.17593042325463
 20
-113.4225341513319
 10
95.06603187727517
 20
-113.4225341513319
 10
94.80144854400798
 20
-113.4225341513319
 10
94.79283580529486
 20
-113.6552503513605
 10
94.78870169071256
 20
-113.7272528470022
 10
94.78870169071256
 20
-113.7272528470022
 10
94.58578556663133
 20
-113.7272528470022
 10
94.58578556663133
 20
-113.7272528470022
 10
94.59405379579593
 20
-113.6023681356619
 10
94.62161455967794
 20
-113.2258191991241
 10
95.07843422102206
 20
-113.2258191991241
 10
95.30270993711183
 20
-113.2258191991241
 10
95.54386662107932
 20
-113.3527709677556
 10
95.54386662107932
 20
-113.6488769247128
 10
95.54386662107932
 20
-113.8350843356905
 10
95.44878198568642
 20
-113.9175943725623
 10
95.3492187261627
 20
-113.9789170721997
 10
95.41088593534867
 20
-114.0064778360817
 10
95.59278697696986
 20
-114.0869208156623
 10
95.59278697696986
 20
-114.3640787474506
 10
95.59278697696986
 20
-114.7025593788764
 10
95.3450846115804
 20
-114.8696465099111
 10
95.06809893456631
 20
-114.8696465099111
 97
        0
 97
        0
 75
     2
 76
     1
 98
        0
  0
SPLINE
  5
132
330
12C
100
AcDbEntity
  8
_U+30EC_U+30A4_U+30E4_U+30FC 1
370
     0
100
AcDbSpline
210
0.0
220
0.0
230
1.0
 70
    11
 71
     3
 72
    29
 73
    25
 74
     0
 42
0.0000000001
 43
0.0000000001
 12
1.0
 22
0.0
 32
0.0
 13
1.0
 23
0.0
 33
0.0
 40
0.0
 40
0.0
 40
0.0
 40
0.0
 40
1.0
 40
1.0
 40
1.0
 40
2.0
 40
2.0
 40
2.0
 40
3.0
 40
3.0
 40
3.0
 40
4.0
 40
4.0
 40
4.0
 40
5.0
 40
5.0
 40
5.0
 40
6.0
 40
6.0
 40
6.0
 40
7.0
 40
7.0
 40
7.0
 40
8.0
 40
8.0
 40
8.0
 40
8.0
 10
96.6511203100386
 20
-114.6410644244647
 30
0.0
 10
96.54294431180176
 20
-114.8505262299679
 30
0.0
 10
96.3696560088937
 20
-114.8696465099111
 30
0.0
 10
96.25321178149225
 20
-114.8696465099111
 30
0.0
 10
96.09232582233109
 20
-114.8696465099111
 30
0.0
 10
95.95073239788732
 20
-114.8231377208602
 30
0.0
 10
95.85564776249443
 20
-114.6410644244647
 30
0.0
 10
95.75195038838841
 20
-114.4464165295481
 30
0.0
 10
95.73300236321953
 20
-114.2095662149372
 30
0.0
 10
95.73300236321953
 20
-114.0466131984849
 30
0.0
 10
95.73300236321953
 20
-113.9027804619757
 30
0.0
 10
95.74988333109725
 20
-113.6511162367782
 30
0.0
 10
95.85564776249443
 20
-113.452161972505
 30
0.0
 10
95.96347925118275
 20
-113.2490735936495
 30
0.0
 10
96.12436521034391
 20
-113.2258191991241
 30
0.0
 10
96.25321178149225
 20
-113.2258191991241
 30
0.0
 10
96.41203068336227
 20
-113.2258191991241
 30
0.0
 10
96.55569116509719
 20
-113.2702609308838
 30
0.0
 10
96.6511203100386
 20
-113.452161972505
 30
0.0
 10
96.75033906001381
 20
-113.6447428101305
 30
0.0
 10
96.77376570931351
 20
-113.8731526408025
 30
0.0
 10
96.77376570931351
 20
-114.0466131984849
 30
0.0
 10
96.77376570931351
 20
-114.2180066988761
 30
0.0
 10
96.75240611730496
 20
-114.4486558416135
 30
0.0
 10
96.6511203100386
 20
-114.6410644244647
 30
0.0
  0
SPLINE
  5
133
330
12C
100
AcDbEntity
  8
_U+30EC_U+30A4_U+30E4_U+30FC 1
370
     0
100
AcDbSpline
210
0.0
220
0.0
230
1.0
 70
    11
 71
     3
 72
    17
 73
    13
 74
     0
 42
0.0000000001
 43
0.0000000001
 12
1.0
 22
0.0
 32
0.0
 13
1.0
 23
0.0
 33
0.0
 40
0.0
 40
0.0
 40
0.0
 40
0.0
 40
1.0
 40
1.0
 40
1.0
 40
2.0
 40
2.0
 40
2.0
 40
3.0
 40
3.0
 40
3.0
 40
4.0
 40
4.0
 40
4.0
 40
4.0
 10
96.25321178149225
 20
-113.4184000367496
 30
0.0
 10
96.00378686836017
 20
-113.4184000367496
 30
0.0
 10
95.95693356976076
 20
-113.7019313951856
 30
0.0
 10
95.95693356976076
 20
-114.0466131984849
 30
0.0
 10
95.95693356976076
 20
-114.3661458047418
 30
0.0
 10
95.9931070723559
 20
-114.6749986149945
 30
0.0
 10
96.25321178149225
 20
-114.6749986149945
 30
0.0
 10
96.50091414688173
 20
-114.6749986149945
 30
0.0
 10
96.54948999322374
 20
-114.3935343138495
 30
0.0
 10
96.54948999322374
 20
-114.0466131984849
 30
0.0
 10
96.54948999322374
 20
-113.7272528470022
 30
0.0
 10
96.51124943333747
 20
-113.4184000367496
 30
0.0
 10
96.25321178149225
 20
-113.4184000367496
 30
0.0
  0
HATCH
  5
134
330
12C
100
AcDbEntity
  8
_U+30EC_U+30A4_U+30E4_U+30FC 1
 62
   179
420
  2234388
100
AcDbHatch
 10
0.0
 20
0.0
 30
0.0
210
0.0
220
0.0
230
1.0
  2
SOLID
 70
     1
 71
     0
 91
        2
 92
        1
 93
        1
 72
     4
 94
        3
 73
     0
 74
     1
 95
       29
 96
       25
 40
0.0
 40
0.0
 40
0.0
 40
0.0
 40
1.0
 40
1.0
 40
1.0
 40
2.0
 40
2.0
 40
2.0
 40
3.0
 40
3.0
 40
3.0
 40
4.0
 40
4.0
 40
4.0
 40
5.0
 40
5.0
 40
5.0
 40
6.0
 40
6.0
 40
6.0
 40
7.0
 40
7.0
 40
7.0
 40
8.0
 40
8.0
 40
8.0
 40
8.0
 10
96.6511203100386
 20
-114.6410644244647
 10
96.54294431180176
 20
-114.8505262299679
 10
96.3696560088937
 20
-114.8696465099111
 10
96.25321178149225
 20
-114.8696465099111
 10
96.09232582233109
 20
-114.8696465099111
 10
95.95073239788732
 20
-114.8231377208602
 10
95.85564776249443
 20
-114.6410644244647
 10
95.75195038838841
 20
-114.4464165295481
 10
95.73300236321953
 20
-114.2095662149372
 10
95.73300236321953
 20
-114.0466131984849
 10
95.73300236321953
 20
-113.9027804619757
 10
95.74988333109725
 20
-113.6511162367782
 10
95.85564776249443
 20
-113.452161972505
 10
95.96347925118275
 20
-113.2490735936495
 10
96.12436521034391
 20
-113.2258191991241
 10
96.25321178149225
 20
-113.2258191991241
 10
96.41203068336227
 20
-113.2258191991241
 10
96.55569116509719
 20
-113.2702609308838
 10
96.6511203100386
 20
-113.452161972505
 10
96.75033906001381
 20
-113.6447428101305
 10
96.77376570931351
 20
-113.8731526408025
 10
96.77376570931351
 20
-114.0466131984849
 10
96.77376570931351
 20
-114.2180066988761
 10
96.75240611730496
 20
-114.4486558416135
 10
96.6511203100386
 20
-114.6410644244647
 97
        0
 97
        0
 92
        1
 93
        1
 72
     4
 94
        3
 73
     0
 74
     1
 95
       17
 96
       13
 40
0.0
 40
0.0
 40
0.0
 40
0.0
 40
1.0
 40
1.0
 40
1.0
 40
2.0
 40
2.0
 40
2.0
 40
3.0
 40
3.0
 40
3.0
 40
4.0
 40
4.0
 40
4.0
 40
4.0
 10
96.25321178149225
 20
-113.4184000367496
 10
96.00378686836017
 20
-113.4184000367496
 10
95.95693356976076
 20
-113.7019313951856
 10
95.95693356976076
 20
-114.0466131984849
 10
95.95693356976076
 20
-114.3661458047418
 10
95.9931070723559
 20
-114.6749986149945
 10
96.25321178149225
 20
-114.6749986149945
 10
96.50091414688173
 20
-114.6749986149945
 10
96.54948999322374
 20
-114.3935343138495
 10
96.54948999322374
 20
-114.0466131984849
 10
96.54948999322374
 20
-113.7272528470022
 10
96.51124943333747
 20
-113.4184000367496
 10
96.25321178149225
 20
-113.4184000367496
 97
        0
 97
        0
 75
     2
 76
     1
 98
        0
  0
ENDBLK
  5
12F
330
12C
100
AcDbEntity
  8
0
100
AcDbBlockEnd
  0
ENDSEC
  0
SECTION
  2
ENTITIES
  0
POLYLINE
  5
41
330
1F
100
AcDbEntity
  8
_U+30EC_U+30A4_U+30E4_U+30FC 1
 62
   179
420
  2234388
370
    25
100
AcDb2dPolyline
 66
     1
 10
0.0
 20
0.0
 30
0.0
  0
VERTEX
  5
42
330
41
100
AcDbEntity
  8
_U+30EC_U+30A4_U+30E4_U+30FC 1
 62
   179
420
  2234388
370
    25
100
AcDbVertex
100
AcDb2dVertex
 10
80.66485933095687
 20
-120.664287469834
 30
0.0
  0
VERTEX
  5
43
330
41
100
AcDbEntity
  8
_U+30EC_U+30A4_U+30E4_U+30FC 1
 62
   179
420
  2234388
370
    25
100
AcDbVertex
100
AcDb2dVertex
 10
95.16490757214095
 20
-120.664287469834
 30
0.0
  0
SEQEND
  5
44
330
41
100
AcDbEntity
  8
_U+30EC_U+30A4_U+30E4_U+30FC 1
 62
   179
420
  2234388
370
    25
  0
POLYLINE
  5
45
330
1F
100
AcDbEntity
  8
_U+30EC_U+30A4_U+30E4_U+30FC 1
 62
   179
420
  2234388
370
    25
100
AcDb2dPolyline
 66
     1
 10
0.0
 20
0.0
 30
0.0
  0
VERTEX
  5
46
330
45
100
AcDbEntity
  8
_U+30EC_U+30A4_U+30E4_U+30FC 1
 62
   179
420
  2234388
370
    25
100
AcDbVertex
100
AcDb2dVertex
 10
95.16490757214095
 20
-145.6641669080286
 30
0.0
  0
VERTEX
  5
47
330
45
100
AcDbEntity
  8
_U+30EC_U+30A4_U+30E4_U+30FC 1
 62
   179
420
  2234388
370
    25
100
AcDbVertex
100
AcDb2dVertex
 10
96.16467976885684
 20
-145.6641669080286
 30
0.0
  0
SEQEND
  5
48
330
45
100
AcDbEntity
  8
_U+30EC_U+30A4_U+30E4_U+30FC 1
 62
   179
420
  2234388
370
    25
  0
POLYLINE
  5
49
330
1F
100
AcDbEntity
  8
_U+30EC_U+30A4_U+30E4_U+30FC 1
 62
   179
420
  2234388
370
    25
100
AcDb2dPolyline
 66
     1
 10
0.0
 20
0.0
 30
0.0
  0
VERTEX
  5
4A
330
49
100
AcDbEntity
  8
_U+30EC_U+30A4_U+30E4_U+30FC 1
 62
   179
420
  2234388
370
    25
100
AcDbVertex
100
AcDb2dVertex
 10
81.80172096861979
 20
-119.4643844145782
 30
0.0
  0
VERTEX
  5
4B
330
49
100
AcDbEntity
  8
_U+30EC_U+30A4_U+30E4_U+30FC 1
 62
   179
420
  2234388
370
    25
100
AcDbVertex
100
AcDb2dVertex
 10
109.527866372378
 20
-119.4643844145782
 30
0.0
  0
SEQEND
  5
4C
330
49
100
AcDbEntity
  8
_U+30EC_U+30A4_U+30E4_U+30FC 1
 62
   179
420
  2234388
370
    25
  0
POLYLINE
  5
4D
330
1F
100
AcDbEntity
  8
_U+30EC_U+30A4_U+30E4_U+30FC 1
 62
   179
420
  2234388
370
    25
100
AcDb2dPolyline
 66
     1
 10
0.0
 20
0.0
 30
0.0
  0
VERTEX
  5
4E
330
4D
100
AcDbEntity
  8
_U+30EC_U+30A4_U+30E4_U+30FC 1
 62
   179
420
  2234388
370
    25
100
AcDbVertex
100
AcDb2dVertex
 10
110.4676663484017
 20
-120.1223855255249
 30
0.0
  0
VERTEX
  5
4F
330
4D
100
AcDbEntity
  8
_U+30EC_U+30A4_U+30E4_U+30FC 1
 62
   179
420
  2234388
370
    25
100
AcDbVertex
100
AcDb2dVertex
 10
110.6647280100409
 20
-120.664287469834
 30
0.0
  0
SEQEND
  5
50
330
4D
100
AcDbEntity
  8
_U+30EC_U+30A4_U+30E4_U+30FC 1
 62
   179
420
  2234388
370
    25
  0
POLYLINE
  5
51
330
1F
100
AcDbEntity
  8
_U+30EC_U+30A4_U+30E4_U+30FC 1
 62
   179
420
  2234388
370
    25
100
AcDb2dPolyline
 66
     1
 10
0.0
 20
0.0
 30
0.0
  0
VERTEX
  5
52
330
51
100
AcDbEntity
  8
_U+30EC_U+30A4_U+30E4_U+30FC 1
 62
   179
420
  2234388
370
    25
100
AcDbVertex
100
AcDb2dVertex
 10
80.86223849258798
 20
-120.1223855255249
 30
0.0
  0
VERTEX
  5
53
330
51
100
AcDbEntity
  8
_U+30EC_U+30A4_U+30E4_U+30FC 1
 62
   179
420
  2234388
370
    25
100
AcDbVertex
100
AcDb2dVertex
 10
80.66485933095687
 20
-120.664287469834
 30
0.0
  0
SEQEND
  5
54
330
51
100
AcDbEntity
  8
_U+30EC_U+30A4_U+30E4_U+30FC 1
 62
   179
420
  2234388
370
    25
  0
POLYLINE
  5
55
330
1F
100
AcDbEntity
  8
_U+30EC_U+30A4_U+30E4_U+30FC 1
 62
   179
420
  2234388
370
    25
100
AcDb2dPolyline
 66
     1
 10
0.0
 20
0.0
 30
0.0
  0
VERTEX
  5
56
330
55
100
AcDbEntity
  8
_U+30EC_U+30A4_U+30E4_U+30FC 1
 62
   179
420
  2234388
370
    25
100
AcDbVertex
100
AcDb2dVertex
 10
96.16467976885684
 20
-120.664287469834
 30
0.0
  0
VERTEX
  5
57
330
55
100
AcDbEntity
  8
_U+30EC_U+30A4_U+30E4_U+30FC 1
 62
   179
420
  2234388
370
    25
100
AcDbVertex
100
AcDb2dVertex
 10
96.16467976885684
 20
-132.6644116335005
 30
0.0
  0
SEQEND
  5
58
330
55
100
AcDbEntity
  8
_U+30EC_U+30A4_U+30E4_U+30FC 1
 62
   179
420
  2234388
370
    25
  0
POLYLINE
  5
59
330
1F
100
AcDbEntity
  8
_U+30EC_U+30A4_U+30E4_U+30FC 1
 62
   179
420
  2234388
370
    25
100
AcDb2dPolyline
 66
     1
 10
0.0
 20
0.0
 30
0.0
  0
VERTEX
  5
5A
330
59
100
AcDbEntity
  8
_U+30EC_U+30A4_U+30E4_U+30FC 1
 62
   179
420
  2234388
370
    25
100
AcDbVertex
100
AcDb2dVertex
 10
94.51481108748214
 20
-140.6646355203892
 30
0.0
  0
VERTEX
  5
5B
330
59
100
AcDbEntity
  8
_U+30EC_U+30A4_U+30E4_U+30FC 1
 62
   179
420
  2234388
370
    25
100
AcDbVertex
100
AcDb2dVertex
 10
95.16490757214095
 20
-140.6646355203892
 30
0.0
  0
SEQEND
  5
5C
330
59
100
AcDbEntity
  8
_U+30EC_U+30A4_U+30E4_U+30FC 1
 62
   179
420
  2234388
370
    25
  0
POLYLINE
  5
5D
330
1F
100
AcDbEntity
  8
_U+30EC_U+30A4_U+30E4_U+30FC 1
 62
   179
420
  2234388
370
    25
100
AcDb2dPolyline
 66
     1
 10
0.0
 20
0.0
 30
0.0
  0
VERTEX
  5
5E
330
5D
100
AcDbEntity
  8
_U+30EC_U+30A4_U+30E4_U+30FC 1
 62
   179
420
  2234388
370
    25
100
AcDbVertex
100
AcDb2dVertex
 10
94.51481108748214
 20
-136.6641707991674
 30
0.0
  0
VERTEX
  5
5F
330
5D
100
AcDbEntity
  8
_U+30EC_U+30A4_U+30E4_U+30FC 1
 62
   179
420
  2234388
370
    25
100
AcDbVertex
100
AcDb2dVertex
 10
95.16490757214095
 20
-136.6641707991674
 30
0.0
  0
SEQEND
  5
60
330
5D
100
AcDbEntity
  8
_U+30EC_U+30A4_U+30E4_U+30FC 1
 62
   179
420
  2234388
370
    25
  0
POLYLINE
  5
61
330
1F
100
AcDbEntity
  8
_U+30EC_U+30A4_U+30E4_U+30FC 1
 62
   179
420
  2234388
370
    25
100
AcDb2dPolyline
 66
     1
 10
0.0
 20
0.0
 30
0.0
  0
VERTEX
  5
62
330
61
100
AcDbEntity
  8
_U+30EC_U+30A4_U+30E4_U+30FC 1
 62
   179
420
  2234388
370
    25
100
AcDbVertex
100
AcDb2dVertex
 10
94.51481108748214
 20
-132.6644116335005
 30
0.0
  0
VERTEX
  5
63
330
61
100
AcDbEntity
  8
_U+30EC_U+30A4_U+30E4_U+30FC 1
 62
   179
420
  2234388
370
    25
100
AcDbVertex
100
AcDb2dVertex
 10
95.16490757214095
 20
-132.6644116335005
 30
0.0
  0
SEQEND
  5
64
330
61
100
AcDbEntity
  8
_U+30EC_U+30A4_U+30E4_U+30FC 1
 62
   179
420
  2234388
370
    25
  0
POLYLINE
  5
65
330
1F
100
AcDbEntity
  8
_U+30EC_U+30A4_U+30E4_U+30FC 1
 62
   179
420
  2234388
370
    25
100
AcDb2dPolyline
 66
     1
 10
0.0
 20
0.0
 30
0.0
  0
VERTEX
  5
66
330
65
100
AcDbEntity
  8
_U+30EC_U+30A4_U+30E4_U+30FC 1
 62
   179
420
  2234388
370
    25
100
AcDbVertex
100
AcDb2dVertex
 10
94.51481108748214
 20
-140.6646355203892
 30
0.0
  0
VERTEX
  5
67
330
65
100
AcDbEntity
  8
_U+30EC_U+30A4_U+30E4_U+30FC 1
 62
   179
420
  2234388
370
    25
100
AcDbVertex
100
AcDb2dVertex
 10
95.16490757214095
 20
-145.6641669080286
 30
0.0
  0
SEQEND
  5
68
330
65
100
AcDbEntity
  8
_U+30EC_U+30A4_U+30E4_U+30FC 1
 62
   179
420
  2234388
370
    25
  0
POLYLINE
  5
69
330
1F
100
AcDbEntity
  8
_U+30EC_U+30A4_U+30E4_U+30FC 1
 62
   179
420
  2234388
370
    25
100
AcDb2dPolyline
 66
     1
 10
0.0
 20
0.0
 30
0.0
  0
VERTEX
  5
6A
330
69
100
AcDbEntity
  8
_U+30EC_U+30A4_U+30E4_U+30FC 1
 62
   179
420
  2234388
370
    25
100
AcDbVertex
100
AcDb2dVertex
 10
96.16467976885684
 20
-145.6641669080286
 30
0.0
  0
VERTEX
  5
6B
330
69
100
AcDbEntity
  8
_U+30EC_U+30A4_U+30E4_U+30FC 1
 62
   179
420
  2234388
370
    25
100
AcDbVertex
100
AcDb2dVertex
 10
96.81474336338346
 20
-140.6646355203892
 30
0.0
  0
SEQEND
  5
6C
330
69
100
AcDbEntity
  8
_U+30EC_U+30A4_U+30E4_U+30FC 1
 62
   179
420
  2234388
370
    25
  0
POLYLINE
  5
6D
330
1F
100
AcDbEntity
  8
_U+30EC_U+30A4_U+30E4_U+30FC 1
 62
   179
420
  2234388
370
    25
100
AcDb2dPolyline
 66
     1
 10
0.0
 20
0.0
 30
0.0
  0
VERTEX
  5
6E
330
6D
100
AcDbEntity
  8
_U+30EC_U+30A4_U+30E4_U+30FC 1
 62
   179
420
  2234388
370
    25
100
AcDbVertex
100
AcDb2dVertex
 10
95.16490757214095
 20
-140.6646355203892
 30
0.0
  0
VERTEX
  5
6F
330
6D
100
AcDbEntity
  8
_U+30EC_U+30A4_U+30E4_U+30FC 1
 62
   179
420
  2234388
370
    25
100
AcDbVertex
100
AcDb2dVertex
 10
94.51481108748214
 20
-136.6641707991674
 30
0.0
  0
SEQEND
  5
70
330
6D
100
AcDbEntity
  8
_U+30EC_U+30A4_U+30E4_U+30FC 1
 62
   179
420
  2234388
370
    25
  0
POLYLINE
  5
71
330
1F
100
AcDbEntity
  8
_U+30EC_U+30A4_U+30E4_U+30FC 1
 62
   179
420
  2234388
370
    25
100
AcDb2dPolyline
 66
     1
 10
0.0
 20
0.0
 30
0.0
  0
VERTEX
  5
72
330
71
100
AcDbEntity
  8
_U+30EC_U+30A4_U+30E4_U+30FC 1
 62
   179
420
  2234388
370
    25
100
AcDbVertex
100
AcDb2dVertex
 10
96.16467976885684
 20
-140.6646355203892
 30
0.0
  0
VERTEX
  5
73
330
71
100
AcDbEntity
  8
_U+30EC_U+30A4_U+30E4_U+30FC 1
 62
   179
420
  2234388
370
    25
100
AcDbVertex
100
AcDb2dVertex
 10
96.81474336338346
 20
-136.6641707991674
 30
0.0
  0
SEQEND
  5
74
330
71
100
AcDbEntity
  8
_U+30EC_U+30A4_U+30E4_U+30FC 1
 62
   179
420
  2234388
370
    25
  0
POLYLINE
  5
75
330
1F
100
AcDbEntity
  8
_U+30EC_U+30A4_U+30E4_U+30FC 1
 62
   179
420
  2234388
370
    25
100
AcDb2dPolyline
 66
     1
 10
0.0
 20
0.0
 30
0.0
  0
VERTEX
  5
76
330
75
100
AcDbEntity
  8
_U+30EC_U+30A4_U+30E4_U+30FC 1
 62
   179
420
  2234388
370
    25
100
AcDbVertex
100
AcDb2dVertex
 10
96.16467976885684
 20
-136.6641707991674
 30
0.0
  0
VERTEX
  5
77
330
75
100
AcDbEntity
  8
_U+30EC_U+30A4_U+30E4_U+30FC 1
 62
   179
420
  2234388
370
    25
100
AcDbVertex
100
AcDb2dVertex
 10
96.81474336338346
 20
-132.6644116335005
 30
0.0
  0
SEQEND
  5
78
330
75
100
AcDbEntity
  8
_U+30EC_U+30A4_U+30E4_U+30FC 1
 62
   179
420
  2234388
370
    25
  0
POLYLINE
  5
79
330
1F
100
AcDbEntity
  8
_U+30EC_U+30A4_U+30E4_U+30FC 1
 62
   179
420
  2234388
370
    25
100
AcDb2dPolyline
 66
     1
 10
0.0
 20
0.0
 30
0.0
  0
VERTEX
  5
7A
330
79
100
AcDbEntity
  8
_U+30EC_U+30A4_U+30E4_U+30FC 1
 62
   179
420
  2234388
370
    25
100
AcDbVertex
100
AcDb2dVertex
 10
95.16490757214095
 20
-136.6641707991674
 30
0.0
  0
VERTEX
  5
7B
330
79
100
AcDbEntity
  8
_U+30EC_U+30A4_U+30E4_U+30FC 1
 62
   179
420
  2234388
370
    25
100
AcDbVertex
100
AcDb2dVertex
 10
94.51481108748214
 20
-132.6644116335005
 30
0.0
  0
SEQEND
  5
7C
330
79
100
AcDbEntity
  8
_U+30EC_U+30A4_U+30E4_U+30FC 1
 62
   179
420
  2234388
370
    25
  0
POLYLINE
  5
7D
330
1F
100
AcDbEntity
  8
_U+30EC_U+30A4_U+30E4_U+30FC 1
 62
   179
420
  2234388
370
    25
100
AcDb2dPolyline
 66
     1
 10
0.0
 20
0.0
 30
0.0
  0
VERTEX
  5
7E
330
7D
100
AcDbEntity
  8
_U+30EC_U+30A4_U+30E4_U+30FC 1
 62
   179
420
  2234388
370
    25
100
AcDbVertex
100
AcDb2dVertex
 10
95.16490757214095
 20
-120.664287469834
 30
0.0
  0
VERTEX
  5
7F
330
7D
100
AcDbEntity
  8
_U+30EC_U+30A4_U+30E4_U+30FC 1
 62
   179
420
  2234388
370
    25
100
AcDbVertex
100
AcDb2dVertex
 10
95.16490757214095
 20
-132.6644116335005
 30
0.0
  0
SEQEND
  5
80
330
7D
100
AcDbEntity
  8
_U+30EC_U+30A4_U+30E4_U+30FC 1
 62
   179
420
  2234388
370
    25
  0
POLYLINE
  5
81
330
1F
100
AcDbEntity
  8
_U+30EC_U+30A4_U+30E4_U+30FC 1
 62
   179
420
  2234388
370
    25
100
AcDb2dPolyline
 66
     1
 10
0.0
 20
0.0
 30
0.0
  0
VERTEX
  5
82
330
81
100
AcDbEntity
  8
_U+30EC_U+30A4_U+30E4_U+30FC 1
 62
   179
420
  2234388
370
    25
100
AcDbVertex
100
AcDb2dVertex
 10
96.16467976885684
 20
-120.664287469834
 30
0.0
  0
VERTEX
  5
83
330
81
100
AcDbEntity
  8
_U+30EC_U+30A4_U+30E4_U+30FC 1
 62
   179
420
  2234388
370
    25
100
AcDbVertex
100
AcDb2dVertex
 10
110.6647280100409
 20
-120.664287469834
 30
0.0
  0
SEQEND
  5
84
330
81
100
AcDbEntity
  8
_U+30EC_U+30A4_U+30E4_U+30FC 1
 62
   179
420
  2234388
370
    25
  0
POLYLINE
  5
85
330
1F
100
AcDbEntity
  8
_U+30EC_U+30A4_U+30E4_U+30FC 1
 62
   179
420
  2234388
370
    25
100
AcDb2dPolyline
 66
     1
 10
0.0
 20
0.0
 30
0.0
  0
VERTEX
  5
86
330
85
100
AcDbEntity
  8
_U+30EC_U+30A4_U+30E4_U+30FC 1
 62
   179
420
  2234388
370
    25
100
AcDbVertex
100
AcDb2dVertex
 10
96.11645504786495
 20
-132.6644116335005
 30
0.0
  0
VERTEX
  5
87
330
85
100
AcDbEntity
  8
_U+30EC_U+30A4_U+30E4_U+30FC 1
 62
   179
420
  2234388
370
    25
100
AcDbVertex
100
AcDb2dVertex
 10
96.81474336338346
 20
-132.6644116335005
 30
0.0
  0
SEQEND
  5
88
330
85
100
AcDbEntity
  8
_U+30EC_U+30A4_U+30E4_U+30FC 1
 62
   179
420
  2234388
370
    25
  0
POLYLINE
  5
89
330
1F
100
AcDbEntity
  8
_U+30EC_U+30A4_U+30E4_U+30FC 1
 62
   179
420
  2234388
370
    25
100
AcDb2dPolyline
 66
     1
 10
0.0
 20
0.0
 30
0.0
  0
VERTEX
  5
8A
330
89
100
AcDbEntity
  8
_U+30EC_U+30A4_U+30E4_U+30FC 1
 62
   179
420
  2234388
370
    25
100
AcDbVertex
100
AcDb2dVertex
 10
96.16467976885684
 20
-136.6641707991674
 30
0.0
  0
VERTEX
  5
8B
330
89
100
AcDbEntity
  8
_U+30EC_U+30A4_U+30E4_U+30FC 1
 62
   179
420
  2234388
370
    25
100
AcDbVertex
100
AcDb2dVertex
 10
96.81474336338346
 20
-136.6641707991674
 30
0.0
  0
SEQEND
  5
8C
330
89
100
AcDbEntity
  8
_U+30EC_U+30A4_U+30E4_U+30FC 1
 62
   179
420
  2234388
370
    25
  0
POLYLINE
  5
8D
330
1F
100
AcDbEntity
  8
_U+30EC_U+30A4_U+30E4_U+30FC 1
 62
   179
420
  2234388
370
    25
100
AcDb2dPolyline
 66
     1
 10
0.0
 20
0.0
 30
0.0
  0
VERTEX
  5
8E
330
8D
100
AcDbEntity
  8
_U+30EC_U+30A4_U+30E4_U+30FC 1
 62
   179
420
  2234388
370
    25
100
AcDbVertex
100
AcDb2dVertex
 10
96.16467976885684
 20
-140.6646355203892
 30
0.0
  0
VERTEX
  5
8F
330
8D
100
AcDbEntity
  8
_U+30EC_U+30A4_U+30E4_U+30FC 1
 62
   179
420
  2234388
370
    25
100
AcDbVertex
100
AcDb2dVertex
 10
96.81474336338346
 20
-140.6646355203892
 30
0.0
  0
SEQEND
  5
90
330
8D
100
AcDbEntity
  8
_U+30EC_U+30A4_U+30E4_U+30FC 1
 62
   179
420
  2234388
370
    25
  0
SPLINE
  5
91
330
1F
100
AcDbEntity
  8
_U+30EC_U+30A4_U+30E4_U+30FC 1
 62
   179
420
  2234388
370
    25
100
AcDbSpline
210
0.0
220
0.0
230
1.0
 70
     8
 71
     3
 72
     8
 73
     4
 74
     0
 42
0.0000000001
 43
0.0000000001
 12
1.0
 22
0.0
 32
0.0
 13
1.0
 23
0.0
 33
0.0
 40
0.0
 40
0.0
 40
0.0
 40
0.0
 40
1.0
 40
1.0
 40
1.0
 40
1.0
 10
110.4676663484017
 20
-120.1223855255249
 30
0.0
 10
110.3236624631867
 20
-119.7272391367348
 30
0.0
 10
109.9481658060997
 20
-119.4643844145782
 30
0.0
 10
109.527866372378
 20
-119.4643844145782
 30
0.0
  0
SPLINE
  5
92
330
1F
100
AcDbEntity
  8
_U+30EC_U+30A4_U+30E4_U+30FC 1
 62
   179
420
  2234388
370
    25
100
AcDbSpline
210
0.0
220
0.0
230
1.0
 70
     8
 71
     3
 72
     8
 73
     4
 74
     0
 42
0.0000000001
 43
0.0000000001
 12
1.0
 22
0.0
 32
0.0
 13
1.0
 23
0.0
 33
0.0
 40
0.0
 40
0.0
 40
0.0
 40
0.0
 40
1.0
 40
1.0
 40
1.0
 40
1.0
 10
81.80172096861979
 20
-119.4643844145782
 30
0.0
 10
81.38142153489808
 20
-119.4643844145782
 30
0.0
 10
81.00589164641505
 20
-119.7272391367348
 30
0.0
 10
80.86223849258798
 20
-120.1223855255249
 30
0.0
  0
SPLINE
  5
93
330
1F
100
AcDbEntity
  8
_U+30EC_U+30A4_U+30E4_U+30FC 1
 62
   179
420
  2234388
370
     9
100
AcDbSpline
210
0.0
220
0.0
230
1.0
 70
    11
 71
     3
 72
    17
 73
    13
 74
     0
 42
0.0000000001
 43
0.0000000001
 12
1.0
 22
0.0
 32
0.0
 13
1.0
 23
0.0
 33
0.0
 40
0.0
 40
0.0
 40
0.0
 40
0.0
 40
1.0
 40
1.0
 40
1.0
 40
2.0
 40
2.0
 40
2.0
 40
3.0
 40
3.0
 40
3.0
 40
4.0
 40
4.0
 40
4.0
 40
4.0
 10
76.76483054156601
 20
-145.6641669080286
 30
0.0
 10
76.76483054156601
 20
-145.6090277413755
 30
0.0
 10
76.72002776493125
 20
-145.5642249636088
 30
0.0
 10
76.66492387744817
 20
-145.5642249636088
 30
0.0
 10
76.60978471218823
 20
-145.5642249636088
 30
0.0
 10
76.56501721333035
 20
-145.6090277413755
 30
0.0
 10
76.56501721333035
 20
-145.6641669080286
 30
0.0
 10
76.56501721333035
 20
-145.719976352459
 30
0.0
 10
76.60978471218823
 20
-145.7647438524476
 30
0.0
 10
76.66492387744817
 20
-145.7647438524476
 30
0.0
 10
76.72002776493125
 20
-145.7647438524476
 30
0.0
 10
76.76483054156601
 20
-145.719976352459
 30
0.0
 10
76.76483054156601
 20
-145.6641669080286
 30
0.0
  0
SPLINE
  5
94
330
1F
100
AcDbEntity
  8
_U+30EC_U+30A4_U+30E4_U+30FC 1
 62
   179
420
  2234388
370
     9
100
AcDbSpline
210
0.0
220
0.0
230
1.0
 70
    11
 71
     3
 72
    17
 73
    13
 74
     0
 42
0.0000000001
 43
0.0000000001
 12
1.0
 22
0.0
 32
0.0
 13
1.0
 23
0.0
 33
0.0
 40
0.0
 40
0.0
 40
0.0
 40
0.0
 40
1.0
 40
1.0
 40
1.0
 40
2.0
 40
2.0
 40
2.0
 40
3.0
 40
3.0
 40
3.0
 40
4.0
 40
4.0
 40
4.0
 40
4.0
 10
90.61463879933908
 20
-145.6641669080286
 30
0.0
 10
90.61463879933908
 20
-145.6090277413755
 30
0.0
 10
90.56983602270432
 20
-145.5642249636088
 30
0.0
 10
90.51469685744436
 20
-145.5642249636088
 30
0.0
 10
90.45959296996129
 20
-145.5642249636088
 30
0.0
 10
90.41479019332652
 20
-145.6090277413755
 30
0.0
 10
90.41479019332652
 20
-145.6641669080286
 30
0.0
 10
90.41479019332652
 20
-145.719976352459
 30
0.0
 10
90.45959296996129
 20
-145.7647438524476
 30
0.0
 10
90.51469685744436
 20
-145.7647438524476
 30
0.0
 10
90.56983602270432
 20
-145.7647438524476
 30
0.0
 10
90.61463879933908
 20
-145.719976352459
 30
0.0
 10
90.61463879933908
 20
-145.6641669080286
 30
0.0
  0
SPLINE
  5
95
330
1F
100
AcDbEntity
  8
_U+30EC_U+30A4_U+30E4_U+30FC 1
 62
   179
420
  2234388
370
     9
100
AcDbSpline
210
0.0
220
0.0
230
1.0
 70
    11
 71
     3
 72
    17
 73
    13
 74
     0
 42
0.0000000001
 43
0.0000000001
 12
1.0
 22
0.0
 32
0.0
 13
1.0
 23
0.0
 33
0.0
 40
0.0
 40
0.0
 40
0.0
 40
0.0
 40
1.0
 40
1.0
 40
1.0
 40
2.0
 40
2.0
 40
2.0
 40
3.0
 40
3.0
 40
3.0
 40
4.0
 40
4.0
 40
4.0
 40
4.0
 10
90.61463879933908
 20
-140.6646355203892
 30
0.0
 10
90.61463879933908
 20
-140.6094963537367
 30
0.0
 10
90.56983602270432
 20
-140.5647288537475
 30
0.0
 10
90.51469685744436
 20
-140.5647288537475
 30
0.0
 10
90.45959296996129
 20
-140.5647288537475
 30
0.0
 10
90.41479019332652
 20
-140.6094963537367
 30
0.0
 10
90.41479019332652
 20
-140.6646355203892
 30
0.0
 10
90.41479019332652
 20
-140.7197394092647
 30
0.0
 10
90.45959296996129
 20
-140.7645421870308
 30
0.0
 10
90.51469685744436
 20
-140.7645421870308
 30
0.0
 10
90.56983602270432
 20
-140.7645421870308
 30
0.0
 10
90.61463879933908
 20
-140.7197394092647
 30
0.0
 10
90.61463879933908
 20
-140.6646355203892
 30
0.0
  0
SPLINE
  5
96
330
1F
100
AcDbEntity
  8
_U+30EC_U+30A4_U+30E4_U+30FC 1
 62
   179
420
  2234388
370
     9
100
AcDbSpline
210
0.0
220
0.0
230
1.0
 70
    11
 71
     3
 72
    17
 73
    13
 74
     0
 42
0.0000000001
 43
0.0000000001
 12
1.0
 22
0.0
 32
0.0
 13
1.0
 23
0.0
 33
0.0
 40
0.0
 40
0.0
 40
0.0
 40
0.0
 40
1.0
 40
1.0
 40
1.0
 40
2.0
 40
2.0
 40
2.0
 40
3.0
 40
3.0
 40
3.0
 40
4.0
 40
4.0
 40
4.0
 40
4.0
 10
90.61463879933908
 20
-136.6641707991674
 30
0.0
 10
90.61463879933908
 20
-136.6090669102925
 30
0.0
 10
90.56983602270432
 20
-136.5642641325258
 30
0.0
 10
90.51469685744436
 20
-136.5642641325258
 30
0.0
 10
90.45959296996129
 20
-136.5642641325258
 30
0.0
 10
90.41479019332652
 20
-136.6090669102925
 30
0.0
 10
90.41479019332652
 20
-136.6641707991674
 30
0.0
 10
90.41479019332652
 20
-136.7199802435979
 30
0.0
 10
90.45959296996129
 20
-136.7647830213646
 30
0.0
 10
90.51469685744436
 20
-136.7647830213646
 30
0.0
 10
90.56983602270432
 20
-136.7647830213646
 30
0.0
 10
90.61463879933908
 20
-136.7199802435979
 30
0.0
 10
90.61463879933908
 20
-136.6641707991674
 30
0.0
  0
SPLINE
  5
97
330
1F
100
AcDbEntity
  8
_U+30EC_U+30A4_U+30E4_U+30FC 1
 62
   179
420
  2234388
370
     9
100
AcDbSpline
210
0.0
220
0.0
230
1.0
 70
    11
 71
     3
 72
    17
 73
    13
 74
     0
 42
0.0000000001
 43
0.0000000001
 12
1.0
 22
0.0
 32
0.0
 13
1.0
 23
0.0
 33
0.0
 40
0.0
 40
0.0
 40
0.0
 40
0.0
 40
1.0
 40
1.0
 40
1.0
 40
2.0
 40
2.0
 40
2.0
 40
3.0
 40
3.0
 40
3.0
 40
4.0
 40
4.0
 40
4.0
 40
4.0
 10
90.61463879933908
 20
-132.6644116335005
 30
0.0
 10
90.61463879933908
 20
-132.6093077446256
 30
0.0
 10
90.56983602270432
 20
-132.5645049668589
 30
0.0
 10
90.51469685744436
 20
-132.5645049668589
 30
0.0
 10
90.45959296996129
 20
-132.5645049668589
 30
0.0
 10
90.41479019332652
 20
-132.6093077446256
 30
0.0
 10
90.41479019332652
 20
-132.6644116335005
 30
0.0
 10
90.41479019332652
 20
-132.7195508001536
 30
0.0
 10
90.45959296996129
 20
-132.7643183001422
 30
0.0
 10
90.51469685744436
 20
-132.7643183001422
 30
0.0
 10
90.56983602270432
 20
-132.7643183001422
 30
0.0
 10
90.61463879933908
 20
-132.7195508001536
 30
0.0
 10
90.61463879933908
 20
-132.6644116335005
 30
0.0
  0
SPLINE
  5
98
330
1F
100
AcDbEntity
  8
_U+30EC_U+30A4_U+30E4_U+30FC 1
 62
   179
420
  2234388
370
     9
100
AcDbSpline
210
0.0
220
0.0
230
1.0
 70
    11
 71
     3
 72
    17
 73
    13
 74
     0
 42
0.0000000001
 43
0.0000000001
 12
1.0
 22
0.0
 32
0.0
 13
1.0
 23
0.0
 33
0.0
 40
0.0
 40
0.0
 40
0.0
 40
0.0
 40
1.0
 40
1.0
 40
1.0
 40
2.0
 40
2.0
 40
2.0
 40
3.0
 40
3.0
 40
3.0
 40
4.0
 40
4.0
 40
4.0
 40
4.0
 10
76.76483054156601
 20
-120.664287469834
 30
0.0
 10
76.76483054156601
 20
-120.6091835809587
 30
0.0
 10
76.72002776493125
 20
-120.5643808031923
 30
0.0
 10
76.66492387744817
 20
-120.5643808031923
 30
0.0
 10
76.60978471218823
 20
-120.5643808031923
 30
0.0
 10
76.56501721333035
 20
-120.6091835809587
 30
0.0
 10
76.56501721333035
 20
-120.664287469834
 30
0.0
 10
76.56501721333035
 20
-120.7197794142645
 30
0.0
 10
76.60978471218823
 20
-120.7645469142534
 30
0.0
 10
76.66492387744817
 20
-120.7645469142534
 30
0.0
 10
76.72002776493125
 20
-120.7645469142534
 30
0.0
 10
76.76483054156601
 20
-120.7197794142645
 30
0.0
 10
76.76483054156601
 20
-120.664287469834
 30
0.0
  0
SPLINE
  5
99
330
1F
100
AcDbEntity
  8
_U+30EC_U+30A4_U+30E4_U+30FC 1
 62
   179
420
  2234388
370
     9
100
AcDbSpline
210
0.0
220
0.0
230
1.0
 70
    11
 71
     3
 72
    17
 73
    13
 74
     0
 42
0.0000000001
 43
0.0000000001
 12
1.0
 22
0.0
 32
0.0
 13
1.0
 23
0.0
 33
0.0
 40
0.0
 40
0.0
 40
0.0
 40
0.0
 40
1.0
 40
1.0
 40
1.0
 40
2.0
 40
2.0
 40
2.0
 40
3.0
 40
3.0
 40
3.0
 40
4.0
 40
4.0
 40
4.0
 40
4.0
 10
76.76483054156601
 20
-119.4643844145782
 30
0.0
 10
76.76483054156601
 20
-119.4092452479255
 30
0.0
 10
76.72002776493125
 20
-119.3644777479366
 30
0.0
 10
76.66492387744817
 20
-119.3644777479366
 30
0.0
 10
76.60978471218823
 20
-119.3644777479366
 30
0.0
 10
76.56501721333035
 20
-119.4092452479255
 30
0.0
 10
76.56501721333035
 20
-119.4643844145782
 30
0.0
 10
76.56501721333035
 20
-119.5198410812312
 30
0.0
 10
76.60978471218823
 20
-119.5646085812201
 30
0.0
 10
76.66492387744817
 20
-119.5646085812201
 30
0.0
 10
76.72002776493125
 20
-119.5646085812201
 30
0.0
 10
76.76483054156601
 20
-119.5198410812312
 30
0.0
 10
76.76483054156601
 20
-119.4643844145782
 30
0.0
  0
SPLINE
  5
9A
330
1F
100
AcDbEntity
  8
_U+30EC_U+30A4_U+30E4_U+30FC 1
 62
   179
420
  2234388
370
     9
100
AcDbSpline
210
0.0
220
0.0
230
1.0
 70
    11
 71
     3
 72
    17
 73
    13
 74
     0
 42
0.0000000001
 43
0.0000000001
 12
1.0
 22
0.0
 32
0.0
 13
1.0
 23
0.0
 33
0.0
 40
0.0
 40
0.0
 40
0.0
 40
0.0
 40
1.0
 40
1.0
 40
1.0
 40
2.0
 40
2.0
 40
2.0
 40
3.0
 40
3.0
 40
3.0
 40
4.0
 40
4.0
 40
4.0
 40
4.0
 10
80.76476599507471
 20
-115.4642724711339
 30
0.0
 10
80.76476599507471
 20
-115.4091333044811
 30
0.0
 10
80.71996321843996
 20
-115.3643658044923
 30
0.0
 10
80.66485933095687
 20
-115.3643658044923
 30
0.0
 10
80.60936942429204
 20
-115.3643658044923
 30
0.0
 10
80.56459988907027
 20
-115.4091333044811
 30
0.0
 10
80.56459988907027
 20
-115.4642724711339
 30
0.0
 10
80.56459988907027
 20
-115.5197291377869
 30
0.0
 10
80.60936942429204
 20
-115.5645319155533
 30
0.0
 10
80.66485933095687
 20
-115.5645319155533
 30
0.0
 10
80.71996321843996
 20
-115.5645319155533
 30
0.0
 10
80.76476599507471
 20
-115.5197291377869
 30
0.0
 10
80.76476599507471
 20
-115.4642724711339
 30
0.0
  0
SPLINE
  5
9B
330
1F
100
AcDbEntity
  8
_U+30EC_U+30A4_U+30E4_U+30FC 1
 62
   179
420
  2234388
370
     9
100
AcDbSpline
210
0.0
220
0.0
230
1.0
 70
    11
 71
     3
 72
    17
 73
    13
 74
     0
 42
0.0000000001
 43
0.0000000001
 12
1.0
 22
0.0
 32
0.0
 13
1.0
 23
0.0
 33
0.0
 40
0.0
 40
0.0
 40
0.0
 40
0.0
 40
1.0
 40
1.0
 40
1.0
 40
2.0
 40
2.0
 40
2.0
 40
3.0
 40
3.0
 40
3.0
 40
4.0
 40
4.0
 40
4.0
 40
4.0
 10
110.7649874519275
 20
-115.4642724711339
 30
0.0
 10
110.7649874519275
 20
-115.4091333044811
 30
0.0
 10
110.7201846752928
 20
-115.3643658044923
 30
0.0
 10
110.6647280100409
 20
-115.3643658044923
 30
0.0
 10
110.6096241225578
 20
-115.3643658044923
 30
0.0
 10
110.5648213459231
 20
-115.4091333044811
 30
0.0
 10
110.5648213459231
 20
-115.4642724711339
 30
0.0
 10
110.5648213459231
 20
-115.5197291377869
 30
0.0
 10
110.6096241225578
 20
-115.5645319155533
 30
0.0
 10
110.6647280100409
 20
-115.5645319155533
 30
0.0
 10
110.7201846752928
 20
-115.5645319155533
 30
0.0
 10
110.7649874519275
 20
-115.5197291377869
 30
0.0
 10
110.7649874519275
 20
-115.4642724711339
 30
0.0
  0
POLYLINE
  5
9C
330
1F
100
AcDbEntity
  8
_U+30EC_U+30A4_U+30E4_U+30FC 1
 62
   179
420
  2234388
370
     9
100
AcDb2dPolyline
 66
     1
 10
0.0
 20
0.0
 30
0.0
  0
VERTEX
  5
9D
330
9C
100
AcDbEntity
  8
_U+30EC_U+30A4_U+30E4_U+30FC 1
 62
   179
420
  2234388
370
     9
100
AcDbVertex
100
AcDb2dVertex
 10
76.66492387744817
 20
-120.664287469834
 30
0.0
  0
VERTEX
  5
9E
330
9C
100
AcDbEntity
  8
_U+30EC_U+30A4_U+30E4_U+30FC 1
 62
   179
420
  2234388
370
     9
100
AcDbVertex
100
AcDb2dVertex
 10
76.66492387744817
 20
-145.6641669080286
 30
0.0
  0
SEQEND
  5
9F
330
9C
100
AcDbEntity
  8
_U+30EC_U+30A4_U+30E4_U+30FC 1
 62
   179
420
  2234388
370
     9
  0
POLYLINE
  5
A0
330
1F
100
AcDbEntity
  8
_U+30EC_U+30A4_U+30E4_U+30FC 1
 62
   179
420
  2234388
370
     9
100
AcDb2dPolyline
 66
     1
 10
0.0
 20
0.0
 30
0.0
  0
VERTEX
  5
A1
330
A0
100
AcDbEntity
  8
_U+30EC_U+30A4_U+30E4_U+30FC 1
 62
   179
420
  2234388
370
     9
100
AcDbVertex
100
AcDb2dVertex
 10
78.12492995131143
 20
-120.664287469834
 30
0.0
  0
VERTEX
  5
A2
330
A0
100
AcDbEntity
  8
_U+30EC_U+30A4_U+30E4_U+30FC 1
 62
   179
420
  2234388
370
     9
100
AcDbVertex
100
AcDb2dVertex
 10
75.66515168073227
 20
-120.664287469834
 30
0.0
  0
SEQEND
  5
A3
330
A0
100
AcDbEntity
  8
_U+30EC_U+30A4_U+30E4_U+30FC 1
 62
   179
420
  2234388
370
     9
  0
POLYLINE
  5
A4
330
1F
100
AcDbEntity
  8
_U+30EC_U+30A4_U+30E4_U+30FC 1
 62
   179
420
  2234388
370
     9
100
AcDb2dPolyline
 66
     1
 10
0.0
 20
0.0
 30
0.0
  0
VERTEX
  5
A5
330
A4
100
AcDbEntity
  8
_U+30EC_U+30A4_U+30E4_U+30FC 1
 62
   179
420
  2234388
370
     9
100
AcDbVertex
100
AcDb2dVertex
 10
92.62483708138798
 20
-145.6641669080286
 30
0.0
  0
VERTEX
  5
A6
330
A4
100
AcDbEntity
  8
_U+30EC_U+30A4_U+30E4_U+30FC 1
 62
   179
420
  2234388
370
     9
100
AcDbVertex
100
AcDb2dVertex
 10
75.66515168073227
 20
-145.6641669080286
 30
0.0
  0
SEQEND
  5
A7
330
A4
100
AcDbEntity
  8
_U+30EC_U+30A4_U+30E4_U+30FC 1
 62
   179
420
  2234388
370
     9
  0
INSERT
  5
A9
330
1F
100
AcDbEntity
  8
_U+30EC_U+30A4_U+30E4_U+30FC 1
100
AcDbBlockReference
  2
block 2
 10
0.0
 20
0.0
 30
0.0
  0
POLYLINE
  5
B0
330
1F
100
AcDbEntity
  8
_U+30EC_U+30A4_U+30E4_U+30FC 1
 62
   179
420
  2234388
370
     9
100
AcDb2dPolyline
 66
     1
 10
0.0
 20
0.0
 30
0.0
  0
VERTEX
  5
B1
330
B0
100
AcDbEntity
  8
_U+30EC_U+30A4_U+30E4_U+30FC 1
 62
   179
420
  2234388
370
     9
100
AcDbVertex
100
AcDb2dVertex
 10
76.66492387744817
 20
-120.664287469834
 30
0.0
  0
VERTEX
  5
B2
330
B0
100
AcDbEntity
  8
_U+30EC_U+30A4_U+30E4_U+30FC 1
 62
   179
420
  2234388
370
     9
100
AcDbVertex
100
AcDb2dVertex
 10
76.66492387744817
 20
-119.4643844145782
 30
0.0
  0
SEQEND
  5
B3
330
B0
100
AcDbEntity
  8
_U+30EC_U+30A4_U+30E4_U+30FC 1
 62
   179
420
  2234388
370
     9
  0
POLYLINE
  5
B4
330
1F
100
AcDbEntity
  8
_U+30EC_U+30A4_U+30E4_U+30FC 1
 62
   179
420
  2234388
370
     9
100
AcDb2dPolyline
 66
     1
 10
0.0
 20
0.0
 30
0.0
  0
VERTEX
  5
B5
330
B4
100
AcDbEntity
  8
_U+30EC_U+30A4_U+30E4_U+30FC 1
 62
   179
420
  2234388
370
     9
100
AcDbVertex
100
AcDb2dVertex
 10
78.12492995131143
 20
-120.664287469834
 30
0.0
  0
VERTEX
  5
B6
330
B4
100
AcDbEntity
  8
_U+30EC_U+30A4_U+30E4_U+30FC 1
 62
   179
420
  2234388
370
     9
100
AcDbVertex
100
AcDb2dVertex
 10
75.66515168073227
 20
-120.664287469834
 30
0.0
  0
SEQEND
  5
B7
330
B4
100
AcDbEntity
  8
_U+30EC_U+30A4_U+30E4_U+30FC 1
 62
   179
420
  2234388
370
     9
  0
POLYLINE
  5
B8
330
1F
100
AcDbEntity
  8
_U+30EC_U+30A4_U+30E4_U+30FC 1
 62
   179
420
  2234388
370
     9
100
AcDb2dPolyline
 66
     1
 10
0.0
 20
0.0
 30
0.0
  0
VERTEX
  5
B9
330
B8
100
AcDbEntity
  8
_U+30EC_U+30A4_U+30E4_U+30FC 1
 62
   179
420
  2234388
370
     9
100
AcDbVertex
100
AcDb2dVertex
 10
79.26165047786684
 20
-119.4643844145782
 30
0.0
  0
VERTEX
  5
BA
330
B8
100
AcDbEntity
  8
_U+30EC_U+30A4_U+30E4_U+30FC 1
 62
   179
420
  2234388
370
     9
100
AcDbVertex
100
AcDb2dVertex
 10
75.66515168073227
 20
-119.4643844145782
 30
0.0
  0
SEQEND
  5
BB
330
B8
100
AcDbEntity
  8
_U+30EC_U+30A4_U+30E4_U+30FC 1
 62
   179
420
  2234388
370
     9
  0
INSERT
  5
BD
330
1F
100
AcDbEntity
  8
_U+30EC_U+30A4_U+30E4_U+30FC 1
100
AcDbBlockReference
  2
block 3
 10
0.0
 20
0.0
 30
0.0
  0
POLYLINE
  5
CC
330
1F
100
AcDbEntity
  8
_U+30EC_U+30A4_U+30E4_U+30FC 1
 62
   179
420
  2234388
370
     9
100
AcDb2dPolyline
 66
     1
 10
0.0
 20
0.0
 30
0.0
  0
VERTEX
  5
CD
330
CC
100
AcDbEntity
  8
_U+30EC_U+30A4_U+30E4_U+30FC 1
 62
   179
420
  2234388
370
     9
100
AcDbVertex
100
AcDb2dVertex
 10
90.51469685744436
 20
-145.6641669080286
 30
0.0
  0
VERTEX
  5
CE
330
CC
100
AcDbEntity
  8
_U+30EC_U+30A4_U+30E4_U+30FC 1
 62
   179
420
  2234388
370
     9
100
AcDbVertex
100
AcDb2dVertex
 10
90.51469685744436
 20
-140.6646355203892
 30
0.0
  0
SEQEND
  5
CF
330
CC
100
AcDbEntity
  8
_U+30EC_U+30A4_U+30E4_U+30FC 1
 62
   179
420
  2234388
370
     9
  0
POLYLINE
  5
D0
330
1F
100
AcDbEntity
  8
_U+30EC_U+30A4_U+30E4_U+30FC 1
 62
   179
420
  2234388
370
     9
100
AcDb2dPolyline
 66
     1
 10
0.0
 20
0.0
 30
0.0
  0
VERTEX
  5
D1
330
D0
100
AcDbEntity
  8
_U+30EC_U+30A4_U+30E4_U+30FC 1
 62
   179
420
  2234388
370
     9
100
AcDbVertex
100
AcDb2dVertex
 10
92.62483708138798
 20
-145.6641669080286
 30
0.0
  0
VERTEX
  5
D2
330
D0
100
AcDbEntity
  8
_U+30EC_U+30A4_U+30E4_U+30FC 1
 62
   179
420
  2234388
370
     9
100
AcDbVertex
100
AcDb2dVertex
 10
89.51495993850534
 20
-145.6641669080286
 30
0.0
  0
SEQEND
  5
D3
330
D0
100
AcDbEntity
  8
_U+30EC_U+30A4_U+30E4_U+30FC 1
 62
   179
420
  2234388
370
     9
  0
POLYLINE
  5
D4
330
1F
100
AcDbEntity
  8
_U+30EC_U+30A4_U+30E4_U+30FC 1
 62
   179
420
  2234388
370
     9
100
AcDb2dPolyline
 66
     1
 10
0.0
 20
0.0
 30
0.0
  0
VERTEX
  5
D5
330
D4
100
AcDbEntity
  8
_U+30EC_U+30A4_U+30E4_U+30FC 1
 62
   179
420
  2234388
370
     9
100
AcDbVertex
100
AcDb2dVertex
 10
91.97473820908449
 20
-140.6646355203892
 30
0.0
  0
VERTEX
  5
D6
330
D4
100
AcDbEntity
  8
_U+30EC_U+30A4_U+30E4_U+30FC 1
 62
   179
420
  2234388
370
     9
100
AcDbVertex
100
AcDb2dVertex
 10
89.51495993850534
 20
-140.6646355203892
 30
0.0
  0
SEQEND
  5
D7
330
D4
100
AcDbEntity
  8
_U+30EC_U+30A4_U+30E4_U+30FC 1
 62
   179
420
  2234388
370
     9
  0
INSERT
  5
D9
330
1F
100
AcDbEntity
  8
_U+30EC_U+30A4_U+30E4_U+30FC 1
100
AcDbBlockReference
  2
block 4
 10
0.0
 20
0.0
 30
0.0
  0
POLYLINE
  5
DE
330
1F
100
AcDbEntity
  8
_U+30EC_U+30A4_U+30E4_U+30FC 1
 62
   179
420
  2234388
370
     9
100
AcDb2dPolyline
 66
     1
 10
0.0
 20
0.0
 30
0.0
  0
VERTEX
  5
DF
330
DE
100
AcDbEntity
  8
_U+30EC_U+30A4_U+30E4_U+30FC 1
 62
   179
420
  2234388
370
     9
100
AcDbVertex
100
AcDb2dVertex
 10
90.51469685744436
 20
-140.6646355203892
 30
0.0
  0
VERTEX
  5
E0
330
DE
100
AcDbEntity
  8
_U+30EC_U+30A4_U+30E4_U+30FC 1
 62
   179
420
  2234388
370
     9
100
AcDbVertex
100
AcDb2dVertex
 10
90.51469685744436
 20
-136.6641707991674
 30
0.0
  0
SEQEND
  5
E1
330
DE
100
AcDbEntity
  8
_U+30EC_U+30A4_U+30E4_U+30FC 1
 62
   179
420
  2234388
370
     9
  0
POLYLINE
  5
E2
330
1F
100
AcDbEntity
  8
_U+30EC_U+30A4_U+30E4_U+30FC 1
 62
   179
420
  2234388
370
     9
100
AcDb2dPolyline
 66
     1
 10
0.0
 20
0.0
 30
0.0
  0
VERTEX
  5
E3
330
E2
100
AcDbEntity
  8
_U+30EC_U+30A4_U+30E4_U+30FC 1
 62
   179
420
  2234388
370
     9
100
AcDbVertex
100
AcDb2dVertex
 10
91.97473820908449
 20
-136.6641707991674
 30
0.0
  0
VERTEX
  5
E4
330
E2
100
AcDbEntity
  8
_U+30EC_U+30A4_U+30E4_U+30FC 1
 62
   179
420
  2234388
370
     9
100
AcDbVertex
100
AcDb2dVertex
 10
89.51495993850534
 20
-136.6641707991674
 30
0.0
  0
SEQEND
  5
E5
330
E2
100
AcDbEntity
  8
_U+30EC_U+30A4_U+30E4_U+30FC 1
 62
   179
420
  2234388
370
     9
  0
INSERT
  5
E7
330
1F
100
AcDbEntity
  8
_U+30EC_U+30A4_U+30E4_U+30FC 1
100
AcDbBlockReference
  2
block 5
 10
0.0
 20
0.0
 30
0.0
  0
POLYLINE
  5
FF
330
1F
100
AcDbEntity
  8
_U+30EC_U+30A4_U+30E4_U+30FC 1
 62
   179
420
  2234388
370
     9
100
AcDb2dPolyline
 66
     1
 10
0.0
 20
0.0
 30
0.0
  0
VERTEX
  5
100
330
FF
100
AcDbEntity
  8
_U+30EC_U+30A4_U+30E4_U+30FC 1
 62
   179
420
  2234388
370
     9
100
AcDbVertex
100
AcDb2dVertex
 10
90.51469685744436
 20
-136.6641707991674
 30
0.0
  0
VERTEX
  5
101
330
FF
100
AcDbEntity
  8
_U+30EC_U+30A4_U+30E4_U+30FC 1
 62
   179
420
  2234388
370
     9
100
AcDbVertex
100
AcDb2dVertex
 10
90.51469685744436
 20
-132.6644116335005
 30
0.0
  0
SEQEND
  5
102
330
FF
100
AcDbEntity
  8
_U+30EC_U+30A4_U+30E4_U+30FC 1
 62
   179
420
  2234388
370
     9
  0
POLYLINE
  5
103
330
1F
100
AcDbEntity
  8
_U+30EC_U+30A4_U+30E4_U+30FC 1
 62
   179
420
  2234388
370
     9
100
AcDb2dPolyline
 66
     1
 10
0.0
 20
0.0
 30
0.0
  0
VERTEX
  5
104
330
103
100
AcDbEntity
  8
_U+30EC_U+30A4_U+30E4_U+30FC 1
 62
   179
420
  2234388
370
     9
100
AcDbVertex
100
AcDb2dVertex
 10
91.97473820908449
 20
-132.6644116335005
 30
0.0
  0
VERTEX
  5
105
330
103
100
AcDbEntity
  8
_U+30EC_U+30A4_U+30E4_U+30FC 1
 62
   179
420
  2234388
370
     9
100
AcDbVertex
100
AcDb2dVertex
 10
89.51495993850534
 20
-132.6644116335005
 30
0.0
  0
SEQEND
  5
106
330
103
100
AcDbEntity
  8
_U+30EC_U+30A4_U+30E4_U+30FC 1
 62
   179
420
  2234388
370
     9
  0
INSERT
  5
108
330
1F
100
AcDbEntity
  8
_U+30EC_U+30A4_U+30E4_U+30FC 1
100
AcDbBlockReference
  2
block 6
 10
0.0
 20
0.0
 30
0.0
  0
POLYLINE
  5
120
330
1F
100
AcDbEntity
  8
_U+30EC_U+30A4_U+30E4_U+30FC 1
 62
   179
420
  2234388
370
     9
100
AcDb2dPolyline
 66
     1
 10
0.0
 20
0.0
 30
0.0
  0
VERTEX
  5
121
330
120
100
AcDbEntity
  8
_U+30EC_U+30A4_U+30E4_U+30FC 1
 62
   179
420
  2234388
370
     9
100
AcDbVertex
100
AcDb2dVertex
 10
110.6647280100409
 20
-115.4642724711339
 30
0.0
  0
VERTEX
  5
122
330
120
100
AcDbEntity
  8
_U+30EC_U+30A4_U+30E4_U+30FC 1
 62
   179
420
  2234388
370
     9
100
AcDbVertex
100
AcDb2dVertex
 10
80.66485933095687
 20
-115.4642724711339
 30
0.0
  0
SEQEND
  5
123
330
120
100
AcDbEntity
  8
_U+30EC_U+30A4_U+30E4_U+30FC 1
 62
   179
420
  2234388
370
     9
  0
POLYLINE
  5
124
330
1F
100
AcDbEntity
  8
_U+30EC_U+30A4_U+30E4_U+30FC 1
 62
   179
420
  2234388
370
     9
100
AcDb2dPolyline
 66
     1
 10
0.0
 20
0.0
 30
0.0
  0
VERTEX
  5
125
330
124
100
AcDbEntity
  8
_U+30EC_U+30A4_U+30E4_U+30FC 1
 62
   179
420
  2234388
370
     9
100
AcDbVertex
100
AcDb2dVertex
 10
110.6647280100409
 20
-118.1245696926911
 30
0.0
  0
VERTEX
  5
126
330
124
100
AcDbEntity
  8
_U+30EC_U+30A4_U+30E4_U+30FC 1
 62
   179
420
  2234388
370
     9
100
AcDbVertex
100
AcDb2dVertex
 10
110.6647280100409
 20
-114.4645002491617
 30
0.0
  0
SEQEND
  5
127
330
124
100
AcDbEntity
  8
_U+30EC_U+30A4_U+30E4_U+30FC 1
 62
   179
420
  2234388
370
     9
  0
POLYLINE
  5
128
330
1F
100
AcDbEntity
  8
_U+30EC_U+30A4_U+30E4_U+30FC 1
 62
   179
420
  2234388
370
     9
100
AcDb2dPolyline
 66
     1
 10
0.0
 20
0.0
 30
0.0
  0
VERTEX
  5
129
330
128
100
AcDbEntity
  8
_U+30EC_U+30A4_U+30E4_U+30FC 1
 62
   179
420
  2234388
370
     9
100
AcDbVertex
100
AcDb2dVertex
 10
80.66485933095687
 20
-118.1245696926911
 30
0.0
  0
VERTEX
  5
12A
330
128
100
AcDbEntity
  8
_U+30EC_U+30A4_U+30E4_U+30FC 1
 62
   179
420
  2234388
370
     9
100
AcDbVertex
100
AcDb2dVertex
 10
80.66485933095687
 20
-114.4645002491617
 30
0.0
  0
SEQEND
  5
12B
330
128
100
AcDbEntity
  8
_U+30EC_U+30A4_U+30E4_U+30FC 1
 62
   179
420
  2234388
370
     9
  0
INSERT
  5
12D
330
1F
100
AcDbEntity
  8
_U+30EC_U+30A4_U+30E4_U+30FC 1
100
AcDbBlockReference
  2
block 7
 10
0.0
 20
0.0
 30
0.0
  0
ENDSEC
  0
SECTION
  2
OBJECTS
  0
DICTIONARY
  5
C
330
0
100
AcDbDictionary
281
     1
  3
ACAD_GROUP
350
D
  3
ACAD_LAYOUT
350
1A
  3
ACAD_MATERIAL
350
3B
  3
ACAD_MLEADERSTYLE
350
136
  3
ACAD_MLINESTYLE
350
17
  3
ACAD_PLOTSETTINGS
350
19
  3
ACAD_PLOTSTYLENAME
350
E
  3
ACAD_TABLESTYLE
350
135
  3
ACAD_VISUALSTYLE
350
2A
  0
SUN
  5
3F
330
29
100
AcDbSun
 90
        1
290
     0
 63
     7
421
 16777215
 40
1.0
291
     1
 91
  2455826
 92
 54000000
292
     0
 70
     2
 71
   256
280
     1
  0
DICTIONARY
  5
D
102
{ACAD_REACTORS
330
C
102
}
330
C
100
AcDbDictionary
281
     1
  0
DICTIONARY
  5
1A
102
{ACAD_REACTORS
330
C
102
}
330
C
100
AcDbDictionary
281
     1
  3
Layout1
350
1E
  3
Layout2
350
26
  3
Model
350
22
  0
DICTIONARY
  5
3B
102
{ACAD_REACTORS
330
C
102
}
330
C
100
AcDbDictionary
281
     1
  3
ByBlock
350
3D
  3
ByLayer
350
3C
  3
Global
350
3E
  0
DICTIONARY
  5
136
102
{ACAD_REACTORS
330
C
102
}
330
C
100
AcDbDictionary
281
     1
  0
DICTIONARY
  5
17
102
{ACAD_REACTORS
330
C
102
}
330
C
100
AcDbDictionary
281
     1
  3
Standard
350
18
  0
DICTIONARY
  5
19
102
{ACAD_REACTORS
330
C
102
}
330
C
100
AcDbDictionary
281
     1
  0
ACDBDICTIONARYWDFLT
  5
E
102
{ACAD_REACTORS
330
C
102
}
330
C
100
AcDbDictionary
281
     1
  3
Normal
350
F
100
AcDbDictionaryWithDefault
340
F
  0
DICTIONARY
  5
135
102
{ACAD_REACTORS
330
C
102
}
330
C
100
AcDbDictionary
281
     1
  0
DICTIONARY
  5
2A
102
{ACAD_REACTORS
330
C
102
}
330
C
100
AcDbDictionary
281
     1
  3
2dWireframe
350
2F
  3
3D Hidden
350
31
  3
3dWireframe
350
30
  3
Basic
350
32
  3
Brighten
350
36
  3
ColorChange
350
3A
  3
Conceptual
350
34
  3
Dim
350
35
  3
Facepattern
350
39
  3
Flat
350
2B
  3
FlatWithEdges
350
2C
  3
Gouraud
350
2D
  3
GouraudWithEdges
350
2E
  3
Linepattern
350
38
  3
Realistic
350
33
  3
Thicken
350
37
  0
LAYOUT
  5
1E
102
{ACAD_REACTORS
330
1A
102
}
330
1A
100
AcDbPlotSettings
  1

  2
none_device
  4

  6

 40
0.0
 41
0.0
 42
0.0
 43
0.0
 44
0.0
 45
0.0
 46
0.0
 47
0.0
 48
0.0
 49
0.0
140
0.0
141
0.0
142
1.0
143
1.0
 70
   688
 72
     0
 73
     0
 74
     5
  7

 75
    16
 76
     0
 77
     2
 78
   300
147
1.0
148
0.0
149
0.0
100
AcDbLayout
  1
Layout1
 70
     1
 71
     1
 10
0.0
 20
0.0
 11
12.0
 21
9.0
 12
0.0
 22
0.0
 32
0.0
 14
1.000000000000000E+20
 24
1.000000000000000E+20
 34
1.000000000000000E+20
 15
-1.000000000000000E+20
 25
-1.000000000000000E+20
 35
-1.000000000000000E+20
146
0.0
 13
0.0
 23
0.0
 33
0.0
 16
1.0
 26
0.0
 36
0.0
 17
0.0
 27
1.0
 37
0.0
 76
     0
330
1B
  0
LAYOUT
  5
26
102
{ACAD_REACTORS
330
1A
102
}
330
1A
100
AcDbPlotSettings
  1

  2
none_device
  4

  6

 40
0.0
 41
0.0
 42
0.0
 43
0.0
 44
0.0
 45
0.0
 46
0.0
 47
0.0
 48
0.0
 49
0.0
140
0.0
141
0.0
142
1.0
143
1.0
 70
   688
 72
     0
 73
     0
 74
     5
  7

 75
    16
 76
     0
 77
     2
 78
   300
147
1.0
148
0.0
149
0.0
100
AcDbLayout
  1
Layout2
 70
     1
 71
     2
 10
0.0
 20
0.0
 11
0.0
 21
0.0
 12
0.0
 22
0.0
 32
0.0
 14
0.0
 24
0.0
 34
0.0
 15
0.0
 25
0.0
 35
0.0
146
0.0
 13
0.0
 23
0.0
 33
0.0
 16
1.0
 26
0.0
 36
0.0
 17
0.0
 27
1.0
 37
0.0
 76
     0
330
23
  0
LAYOUT
  5
22
102
{ACAD_REACTORS
330
1A
102
}
330
1A
100
AcDbPlotSettings
  1

  2
none_device
  4

  6

 40
0.0
 41
0.0
 42
0.0
 43
0.0
 44
0.0
 45
0.0
 46
0.0
 47
0.0
 48
0.0
 49
0.0
140
0.0
141
0.0
142
1.0
143
1.0
 70
  1712
 72
     0
 73
     0
 74
     0
  7

 75
     0
 76
     0
 77
     2
 78
   300
147
1.0
148
0.0
149
0.0
100
AcDbLayout
  1
Model
 70
     1
 71
     0
 10
0.0
 20
0.0
 11
12.0
 21
9.0
 12
0.0
 22
0.0
 32
0.0
 14
1.000000000000000E+20
 24
1.000000000000000E+20
 34
1.000000000000000E+20
 15
-1.000000000000000E+20
 25
-1.000000000000000E+20
 35
-1.000000000000000E+20
146
0.0
 13
0.0
 23
0.0
 33
0.0
 16
1.0
 26
0.0
 36
0.0
 17
0.0
 27
1.0
 37
0.0
 76
     0
330
1F
331
29
  0
MATERIAL
  5
3D
102
{ACAD_REACTORS
330
3B
102
}
330
3B
100
AcDbMaterial
  1
ByBlock
 72
     1
 94
      127
  0
MATERIAL
  5
3C
102
{ACAD_REACTORS
330
3B
102
}
330
3B
100
AcDbMaterial
  1
ByLayer
 72
     1
 94
      127
  0
MATERIAL
  5
3E
102
{ACAD_REACTORS
330
3B
102
}
330
3B
100
AcDbMaterial
  1
Global
 72
     1
 94
      127
  0
MLINESTYLE
  5
18
102
{ACAD_REACTORS
330
17
102
}
330
17
100
AcDbMlineStyle
  2
Standard
 70
     0
  3

 62
   256
 51
90.0
 52
90.0
 71
     2
 49
0.5
 62
   256
  6
BYLAYER
 49
-0.5
 62
   256
  6
BYLAYER
  0
ACDBPLACEHOLDER
  5
F
102
{ACAD_REACTORS
330
E
102
}
330
E
  0
VISUALSTYLE
  5
2F
102
{ACAD_REACTORS
330
2A
102
}
330
2A
100
AcDbVisualStyle
  2
2dWireframe
 70
     4
177
     2
291
     0
 71
     0
176
     1
 72
     2
176
     1
 73
     0
176
     1
 90
        0
176
     1
 40
-0.6
176
     1
 41
-30.0
176
     1
 62
     5
 63
     7
421
 16777215
176
     1
 74
     1
176
     1
 91
        4
176
     1
 64
     7
176
     1
 65
   257
176
     1
 75
     1
176
     1
175
     1
176
     1
 42
1.0
176
     1
 92
        0
176
     1
 66
   257
176
     1
 43
1.0
176
     1
 76
     1
176
     1
 77
     6
176
     1
 78
     2
176
     1
 67
     7
176
     1
 79
     5
176
     1
170
     0
176
     1
171
     0
176
     1
290
     0
176
     1
 93
        1
176
     1
 44
0.0
176
     1
173
     0
176
     1
  0
VISUALSTYLE
  5
31
102
{ACAD_REACTORS
330
2A
102
}
330
2A
100
AcDbVisualStyle
  2
3D Hidden
 70
     6
177
     2
291
     0
 71
     1
176
     1
 72
     2
176
     1
 73
     2
176
     1
 90
        0
176
     1
 40
-0.6
176
     1
 41
-30.0
176
     1
 62
     5
 63
     7
421
 16777215
176
     1
 74
     2
176
     1
 91
        2
176
     1
 64
     7
176
     1
 65
   257
176
     1
 75
     2
176
     1
175
     1
176
     1
 42
40.0
176
     1
 92
        0
176
     1
 66
   257
176
     1
 43
1.0
176
     1
 76
     1
176
     1
 77
     6
176
     1
 78
     2
176
     1
 67
     7
176
     1
 79
     3
176
     1
170
     0
176
     1
171
     0
176
     1
290
     0
176
     1
 93
        1
176
     1
 44
0.0
176
     1
173
     0
176
     1
  0
VISUALSTYLE
  5
30
102
{ACAD_REACTORS
330
2A
102
}
330
2A
100
AcDbVisualStyle
  2
3dWireframe
 70
     5
177
     2
291
     0
 71
     0
176
     1
 72
     2
176
     1
 73
     0
176
     1
 90
        0
176
     1
 40
-0.6
176
     1
 41
-30.0
176
     1
 62
     5
 63
     7
421
 16777215
176
     1
 74
     1
176
     1
 91
        4
176
     1
 64
     7
176
     1
 65
   257
176
     1
 75
     1
176
     1
175
     1
176
     1
 42
1.0
176
     1
 92
        0
176
     1
 66
   257
176
     1
 43
1.0
176
     1
 76
     1
176
     1
 77
     6
176
     1
 78
     2
176
     1
 67
     7
176
     1
 79
     5
176
     1
170
     0
176
     1
171
     0
176
     1
290
     0
176
     1
 93
        1
176
     1
 44
0.0
176
     1
173
     0
176
     1
  0
VISUALSTYLE
  5
32
102
{ACAD_REACTORS
330
2A
102
}
330
2A
100
AcDbVisualStyle
  2
Basic
 70
     7
177
     2
291
     1
 71
     1
176
     1
 72
     0
176
     1
 73
     1
176
     1
 90
        0
176
     1
 40
-0.6
176
     1
 41
-30.0
176
     1
 62
     5
 63
     7
421
 16777215
176
     1
 74
     0
176
     1
 91
        4
176
     1
 64
     7
176
     1
 65
   257
176
     1
 75
     1
176
     1
175
     1
176
     1
 42
1.0
176
     1
 92
        8
176
     1
 66
     7
176
     1
 43
1.0
176
     1
 76
     1
176
     1
 77
     6
176
     1
 78
     2
176
     1
 67
     7
176
     1
 79
     5
176
     1
170
     0
176
     1
171
     0
176
     1
290
     0
176
     1
 93
        1
176
     1
 44
0.0
176
     1
173
     0
176
     1
  0
VISUALSTYLE
  5
36
102
{ACAD_REACTORS
330
2A
102
}
330
2A
100
AcDbVisualStyle
  2
Brighten
 70
    12
177
     2
291
     1
 71
     2
176
     1
 72
     2
176
     1
 73
     0
176
     1
 90
        0
176
     1
 40
-0.6
176
     1
 41
-30.0
176
     1
 62
     5
 63
     7
421
 16777215
176
     1
 74
     1
176
     1
 91
        4
176
     1
 64
     7
176
     1
 65
   257
176
     1
 75
     1
176
     1
175
     1
176
     1
 42
1.0
176
     1
 92
        8
176
     1
 66
     7
176
     1
 43
1.0
176
     1
 76
     1
176
     1
 77
     6
176
     1
 78
     2
176
     1
 67
     7
176
     1
 79
     5
176
     1
170
     0
176
     1
171
     0
176
     1
290
     0
176
     1
 93
        1
176
     1
 44
50.0
176
     1
173
     0
176
     1
  0
VISUALSTYLE
  5
3A
102
{ACAD_REACTORS
330
2A
102
}
330
2A
100
AcDbVisualStyle
  2
ColorChange
 70
    16
177
     2
291
     1
 71
     2
176
     1
 72
     2
176
     1
 73
     3
176
     1
 90
        0
176
     1
 40
-0.6
176
     1
 41
-30.0
176
     1
 62
     5
 63
     8
421
  8421504
176
     1
 74
     1
176
     1
 91
        4
176
     1
 64
     7
176
     1
 65
   257
176
     1
 75
     1
176
     1
175
     1
176
     1
 42
1.0
176
     1
 92
        8
176
     1
 66
     8
424
  8421504
176
     1
 43
1.0
176
     1
 76
     1
176
     1
 77
     6
176
     1
 78
     2
176
     1
 67
     7
176
     1
 79
     5
176
     1
170
     0
176
     1
171
     0
176
     1
290
     0
176
     1
 93
        1
176
     1
 44
0.0
176
     1
173
     0
176
     1
  0
VISUALSTYLE
  5
34
102
{ACAD_REACTORS
330
2A
102
}
330
2A
100
AcDbVisualStyle
  2
Conceptual
 70
     9
177
     2
291
     0
 71
     3
176
     1
 72
     2
176
     1
 73
     0
176
     1
 90
        0
176
     1
 40
-0.6
176
     1
 41
-30.0
176
     1
 62
     5
 63
     7
421
 16777215
176
     1
 74
     2
176
     1
 91
        2
176
     1
 64
     7
176
     1
 65
   257
176
     1
 75
     1
176
     1
175
     1
176
     1
 42
40.0
176
     1
 92
        8
176
     1
 66
     7
176
     1
 43
1.0
176
     1
 76
     1
176
     1
 77
     6
176
     1
 78
     2
176
     1
 67
     7
176
     1
 79
     3
176
     1
170
     0
176
     1
171
     0
176
     1
290
     0
176
     1
 93
        1
176
     1
 44
0.0
176
     1
173
     0
176
     1
  0
VISUALSTYLE
  5
35
102
{ACAD_REACTORS
330
2A
102
}
330
2A
100
AcDbVisualStyle
  2
Dim
 70
    11
177
     2
291
     1
 71
     2
176
     1
 72
     2
176
     1
 73
     0
176
     1
 90
        0
176
     1
 40
-0.6
176
     1
 41
-30.0
176
     1
 62
     5
 63
     7
421
 16777215
176
     1
 74
     1
176
     1
 91
        4
176
     1
 64
     7
176
     1
 65
   257
176
     1
 75
     1
176
     1
175
     1
176
     1
 42
1.0
176
     1
 92
        8
176
     1
 66
     7
176
     1
 43
1.0
176
     1
 76
     1
176
     1
 77
     6
176
     1
 78
     2
176
     1
 67
     7
176
     1
 79
     5
176
     1
170
     0
176
     1
171
     0
176
     1
290
     0
176
     1
 93
        1
176
     1
 44
-50.0
176
     1
173
     0
176
     1
  0
VISUALSTYLE
  5
39
102
{ACAD_REACTORS
330
2A
102
}
330
2A
100
AcDbVisualStyle
  2
Facepattern
 70
    15
177
     2
291
     1
 71
     2
176
     1
 72
     2
176
     1
 73
     0
176
     1
 90
        0
176
     1
 40
-0.6
176
     1
 41
-30.0
176
     1
 62
     5
 63
     7
421
 16777215
176
     1
 74
     1
176
     1
 91
        4
176
     1
 64
     7
176
     1
 65
   257
176
     1
 75
     1
176
     1
175
     1
176
     1
 42
1.0
176
     1
 92
        8
176
     1
 66
     7
176
     1
 43
1.0
176
     1
 76
     1
176
     1
 77
     6
176
     1
 78
     2
176
     1
 67
     7
176
     1
 79
     5
176
     1
170
     0
176
     1
171
     0
176
     1
290
     0
176
     1
 93
        1
176
     1
 44
0.0
176
     1
173
     0
176
     1
  0
VISUALSTYLE
  5
2B
102
{ACAD_REACTORS
330
2A
102
}
330
2A
100
AcDbVisualStyle
  2
Flat
 70
     0
177
     2
291
     1
 71
     2
176
     1
 72
     1
176
     1
 73
     1
176
     1
 90
        2
176
     1
 40
-0.6
176
     1
 41
30.0
176
     1
 62
     5
 63
     7
421
 16777215
176
     1
 74
     0
176
     1
 91
        4
176
     1
 64
     7
176
     1
 65
   257
176
     1
 75
     1
176
     1
175
     1
176
     1
 42
1.0
176
     1
 92
        8
176
     1
 66
     7
176
     1
 43
1.0
176
     1
 76
     1
176
     1
 77
     6
176
     1
 78
     2
176
     1
 67
     7
176
     1
 79
     5
176
     1
170
     0
176
     1
171
     0
176
     1
290
     0
176
     1
 93
       13
176
     1
 44
0.0
176
     1
173
     0
176
     1
  0
VISUALSTYLE
  5
2C
102
{ACAD_REACTORS
330
2A
102
}
330
2A
100
AcDbVisualStyle
  2
FlatWithEdges
 70
     1
177
     2
291
     1
 71
     2
176
     1
 72
     1
176
     1
 73
     1
176
     1
 90
        2
176
     1
 40
-0.6
176
     1
 41
30.0
176
     1
 62
     5
 63
     7
421
 16777215
176
     1
 74
     1
176
     1
 91
        4
176
     1
 64
     7
176
     1
 65
   257
176
     1
 75
     1
176
     1
175
     1
176
     1
 42
1.0
176
     1
 92
        0
176
     1
 66
   257
176
     1
 43
1.0
176
     1
 76
     1
176
     1
 77
     6
176
     1
 78
     2
176
     1
 67
     7
176
     1
 79
     5
176
     1
170
     0
176
     1
171
     0
176
     1
290
     0
176
     1
 93
       13
176
     1
 44
0.0
176
     1
173
     0
176
     1
  0
VISUALSTYLE
  5
2D
102
{ACAD_REACTORS
330
2A
102
}
330
2A
100
AcDbVisualStyle
  2
Gouraud
 70
     2
177
     2
291
     1
 71
     2
176
     1
 72
     2
176
     1
 73
     1
176
     1
 90
        2
176
     1
 40
-0.6
176
     1
 41
30.0
176
     1
 62
     5
 63
     7
421
 16777215
176
     1
 74
     0
176
     1
 91
        4
176
     1
 64
     7
176
     1
 65
   257
176
     1
 75
     1
176
     1
175
     1
176
     1
 42
1.0
176
     1
 92
        0
176
     1
 66
     7
176
     1
 43
1.0
176
     1
 76
     1
176
     1
 77
     6
176
     1
 78
     2
176
     1
 67
     7
176
     1
 79
     5
176
     1
170
     0
176
     1
171
     0
176
     1
290
     0
176
     1
 93
       13
176
     1
 44
0.0
176
     1
173
     0
176
     1
  0
VISUALSTYLE
  5
2E
102
{ACAD_REACTORS
330
2A
102
}
330
2A
100
AcDbVisualStyle
  2
GouraudWithEdges
 70
     3
177
     2
291
     1
 71
     2
176
     1
 72
     2
176
     1
 73
     1
176
     1
 90
        2
176
     1
 40
-0.6
176
     1
 41
30.0
176
     1
 62
     5
 63
     7
421
 16777215
176
     1
 74
     1
176
     1
 91
        4
176
     1
 64
     7
176
     1
 65
   257
176
     1
 75
     1
176
     1
175
     1
176
     1
 42
1.0
176
     1
 92
        0
176
     1
 66
   257
176
     1
 43
1.0
176
     1
 76
     1
176
     1
 77
     6
176
     1
 78
     2
176
     1
 67
     7
176
     1
 79
     5
176
     1
170
     0
176
     1
171
     0
176
     1
290
     0
176
     1
 93
       13
176
     1
 44
0.0
176
     1
173
     0
176
     1
  0
VISUALSTYLE
  5
38
102
{ACAD_REACTORS
330
2A
102
}
330
2A
100
AcDbVisualStyle
  2
Linepattern
 70
    14
177
     2
291
     1
 71
     2
176
     1
 72
     2
176
     1
 73
     0
176
     1
 90
        0
176
     1
 40
-0.6
176
     1
 41
-30.0
176
     1
 62
     5
 63
     7
421
 16777215
176
     1
 74
     1
176
     1
 91
        4
176
     1
 64
     7
176
     1
 65
   257
176
     1
 75
     7
176
     1
175
     7
176
     1
 42
1.0
176
     1
 92
        8
176
     1
 66
     7
176
     1
 43
1.0
176
     1
 76
     1
176
     1
 77
     6
176
     1
 78
     2
176
     1
 67
     7
176
     1
 79
     5
176
     1
170
     0
176
     1
171
     0
176
     1
290
     0
176
     1
 93
        1
176
     1
 44
0.0
176
     1
173
     0
176
     1
  0
VISUALSTYLE
  5
33
102
{ACAD_REACTORS
330
2A
102
}
330
2A
100
AcDbVisualStyle
  2
Realistic
 70
     8
177
     2
291
     0
 71
     2
176
     1
 72
     2
176
     1
 73
     0
176
     1
 90
        0
176
     1
 40
-0.6
176
     1
 41
-30.0
176
     1
 62
     5
 63
     7
421
 16777215
176
     1
 74
     1
176
     1
 91
        0
176
     1
 64
     7
176
     1
 65
   257
176
     1
 75
     1
176
     1
175
     1
176
     1
 42
1.0
176
     1
 92
        8
176
     1
 66
     8
424
  7895160
176
     1
 43
1.0
176
     1
 76
     1
176
     1
 77
     6
176
     1
 78
     2
176
     1
 67
     7
176
     1
 79
     5
176
     1
170
     0
176
     1
171
     0
176
     1
290
     0
176
     1
 93
       13
176
     1
 44
0.0
176
     1
173
     0
176
     1
  0
VISUALSTYLE
  5
37
102
{ACAD_REACTORS
330
2A
102
}
330
2A
100
AcDbVisualStyle
  2
Thicken
 70
    13
177
     2
291
     1
 71
     2
176
     1
 72
     2
176
     1
 73
     0
176
     1
 90
        0
176
     1
 40
-0.6
176
     1
 41
-30.0
176
     1
 62
     5
 63
     7
421
 16777215
176
     1
 74
     1
176
     1
 91
        4
176
     1
 64
     7
176
     1
 65
   257
176
     1
 75
     1
176
     1
175
     1
176
     1
 42
1.0
176
     1
 92
       12
176
     1
 66
     7
176
     1
 43
1.0
176
     1
 76
     1
176
     1
 77
     6
176
     1
 78
     2
176
     1
 67
     7
176
     1
 79
     5
176
     1
170
     0
176
     1
171
     0
176
     1
290
     0
176
     1
 93
        1
176
     1
 44
0.0
176
     1
173
     0
176
     1
  0
ENDSEC
  0
EOF
