  0
SECTION
  2
HEADER
  9
$ACADVER
  1
AC1024
  9
$ACADMAINTVER
 70
   226
  9
$DWGCODEPAGE
  3
ANSI_932
  9
$INSBASE
 10
0.0
 20
0.0
 30
0.0
  9
$EXTMIN
 10
1.000000000000000E+20
 20
1.000000000000000E+20
 30
1.000000000000000E+20
  9
$EXTMAX
 10
-1.000000000000000E+20
 20
-1.000000000000000E+20
 30
-1.000000000000000E+20
  9
$LIMMIN
 10
0.0
 20
0.0
  9
$LIMMAX
 10
12.0
 20
9.0
  9
$ORTHOMODE
 70
     0
  9
$REGENMODE
 70
     1
  9
$FILLMODE
 70
     1
  9
$QTEXTMODE
 70
     0
  9
$MIRRTEXT
 70
     0
  9
$LTSCALE
 40
1.0
  9
$ATTMODE
 70
     1
  9
$TEXTSIZE
 40
0.2
  9
$TRACEWID
 40
0.05
  9
$TEXTSTYLE
  7
Standard
  9
$CLAYER
  8
0
  9
$CELTYPE
  6
ByLayer
  9
$CECOLOR
 62
   256
  9
$CELTSCALE
 40
1.0
  9
$DISPSILH
 70
     0
  9
$DIMSCALE
 40
1.0
  9
$DIMASZ
 40
0.18
  9
$DIMEXO
 40
0.0625
  9
$DIMDLI
 40
0.38
  9
$DIMRND
 40
0.0
  9
$DIMDLE
 40
0.0
  9
$DIMEXE
 40
0.18
  9
$DIMTP
 40
0.0
  9
$DIMTM
 40
0.0
  9
$DIMTXT
 40
0.18
  9
$DIMCEN
 40
0.09
  9
$DIMTSZ
 40
0.0
  9
$DIMTOL
 70
     0
  9
$DIMLIM
 70
     0
  9
$DIMTIH
 70
     1
  9
$DIMTOH
 70
     1
  9
$DIMSE1
 70
     0
  9
$DIMSE2
 70
     0
  9
$DIMTAD
 70
     0
  9
$DIMZIN
 70
     0
  9
$DIMBLK
  1

  9
$DIMASO
 70
     1
  9
$DIMSHO
 70
     1
  9
$DIMPOST
  1

  9
$DIMAPOST
  1

  9
$DIMALT
 70
     0
  9
$DIMALTD
 70
     2
  9
$DIMALTF
 40
25.4
  9
$DIMLFAC
 40
1.0
  9
$DIMTOFL
 70
     0
  9
$DIMTVP
 40
0.0
  9
$DIMTIX
 70
     0
  9
$DIMSOXD
 70
     0
  9
$DIMSAH
 70
     0
  9
$DIMBLK1
  1

  9
$DIMBLK2
  1

  9
$DIMSTYLE
  2
Standard
  9
$DIMCLRD
 70
     0
  9
$DIMCLRE
 70
     0
  9
$DIMCLRT
 70
     0
  9
$DIMTFAC
 40
1.0
  9
$DIMGAP
 40
0.09
  9
$DIMJUST
 70
     0
  9
$DIMSD1
 70
     0
  9
$DIMSD2
 70
     0
  9
$DIMTOLJ
 70
     1
  9
$DIMTZIN
 70
     0
  9
$DIMALTZ
 70
     0
  9
$DIMALTTZ
 70
     0
  9
$DIMUPT
 70
     0
  9
$DIMDEC
 70
     4
  9
$DIMTDEC
 70
     4
  9
$DIMALTU
 70
     2
  9
$DIMALTTD
 70
     2
  9
$DIMTXSTY
  7
Standard
  9
$DIMAUNIT
 70
     0
  9
$DIMADEC
 70
     0
  9
$DIMALTRND
 40
0.0
  9
$DIMAZIN
 70
     0
  9
$DIMDSEP
 70
    46
  9
$DIMATFIT
 70
     3
  9
$DIMFRAC
 70
     0
  9
$DIMLDRBLK
  1

  9
$DIMLUNIT
 70
     2
  9
$DIMLWD
 70
    -2
  9
$DIMLWE
 70
    -2
  9
$DIMTMOVE
 70
     0
  9
$DIMFXL
 40
1.0
  9
$DIMFXLON
 70
     0
  9
$DIMJOGANG
 40
0.7853981633974483
  9
$DIMTFILL
 70
     0
  9
$DIMTFILLCLR
 70
     0
  9
$DIMARCSYM
 70
     0
  9
$DIMLTYPE
  6

  9
$DIMLTEX1
  6

  9
$DIMLTEX2
  6

  9
$DIMTXTDIRECTION
 70
     0
  9
$LUNITS
 70
     2
  9
$LUPREC
 70
     4
  9
$SKETCHINC
 40
0.1
  9
$FILLETRAD
 40
0.0
  9
$AUNITS
 70
     0
  9
$AUPREC
 70
     0
  9
$MENU
  1
.
  9
$ELEVATION
 40
0.0
  9
$PELEVATION
 40
0.0
  9
$THICKNESS
 40
0.0
  9
$LIMCHECK
 70
     0
  9
$CHAMFERA
 40
0.0
  9
$CHAMFERB
 40
0.0
  9
$CHAMFERC
 40
0.0
  9
$CHAMFERD
 40
0.0
  9
$SKPOLY
 70
     0
  9
$TDCREATE
 40
2459569.489270833
  9
$TDUCREATE
 40
2459569.114270834
  9
$TDUPDATE
 40
2459569.489270833
  9
$TDUUPDATE
 40
2459569.114270834
  9
$TDINDWG
 40
0.0000000000
  9
$TDUSRTIMER
 40
0.0000000000
  9
$USRTIMER
 70
     1
  9
$ANGBASE
 50
0.0
  9
$ANGDIR
 70
     0
  9
$PDMODE
 70
     0
  9
$PDSIZE
 40
0.0
  9
$PLINEWID
 40
0.0
  9
$SPLFRAME
 70
     0
  9
$SPLINETYPE
 70
     6
  9
$SPLINESEGS
 70
     8
  9
$HANDSEED
  5
192
  9
$SURFTAB1
 70
     6
  9
$SURFTAB2
 70
     6
  9
$SURFTYPE
 70
     6
  9
$SURFU
 70
     6
  9
$SURFV
 70
     6
  9
$UCSBASE
  2

  9
$UCSNAME
  2

  9
$UCSORG
 10
0.0
 20
0.0
 30
0.0
  9
$UCSXDIR
 10
1.0
 20
0.0
 30
0.0
  9
$UCSYDIR
 10
0.0
 20
1.0
 30
0.0
  9
$UCSORTHOREF
  2

  9
$UCSORTHOVIEW
 70
     0
  9
$UCSORGTOP
 10
0.0
 20
0.0
 30
0.0
  9
$UCSORGBOTTOM
 10
0.0
 20
0.0
 30
0.0
  9
$UCSORGLEFT
 10
0.0
 20
0.0
 30
0.0
  9
$UCSORGRIGHT
 10
0.0
 20
0.0
 30
0.0
  9
$UCSORGFRONT
 10
0.0
 20
0.0
 30
0.0
  9
$UCSORGBACK
 10
0.0
 20
0.0
 30
0.0
  9
$PUCSBASE
  2

  9
$PUCSNAME
  2

  9
$PUCSORG
 10
0.0
 20
0.0
 30
0.0
  9
$PUCSXDIR
 10
1.0
 20
0.0
 30
0.0
  9
$PUCSYDIR
 10
0.0
 20
1.0
 30
0.0
  9
$PUCSORTHOREF
  2

  9
$PUCSORTHOVIEW
 70
     0
  9
$PUCSORGTOP
 10
0.0
 20
0.0
 30
0.0
  9
$PUCSORGBOTTOM
 10
0.0
 20
0.0
 30
0.0
  9
$PUCSORGLEFT
 10
0.0
 20
0.0
 30
0.0
  9
$PUCSORGRIGHT
 10
0.0
 20
0.0
 30
0.0
  9
$PUCSORGFRONT
 10
0.0
 20
0.0
 30
0.0
  9
$PUCSORGBACK
 10
0.0
 20
0.0
 30
0.0
  9
$USERI1
 70
     0
  9
$USERI2
 70
     0
  9
$USERI3
 70
     0
  9
$USERI4
 70
     0
  9
$USERI5
 70
     0
  9
$USERR1
 40
0.0
  9
$USERR2
 40
0.0
  9
$USERR3
 40
0.0
  9
$USERR4
 40
0.0
  9
$USERR5
 40
0.0
  9
$WORLDVIEW
 70
     1
  9
$SHADEDGE
 70
     3
  9
$SHADEDIF
 70
    70
  9
$TILEMODE
 70
     1
  9
$MAXACTVP
 70
    64
  9
$PINSBASE
 10
0.0
 20
0.0
 30
0.0
  9
$PLIMCHECK
 70
     0
  9
$PEXTMIN
 10
1.000000000000000E+20
 20
1.000000000000000E+20
 30
1.000000000000000E+20
  9
$PEXTMAX
 10
-1.000000000000000E+20
 20
-1.000000000000000E+20
 30
-1.000000000000000E+20
  9
$PLIMMIN
 10
0.0
 20
0.0
  9
$PLIMMAX
 10
12.0
 20
9.0
  9
$UNITMODE
 70
     0
  9
$VISRETAIN
 70
     1
  9
$PLINEGEN
 70
     0
  9
$PSLTSCALE
 70
     1
  9
$TREEDEPTH
 70
  3020
  9
$CMLSTYLE
  2
Standard
  9
$CMLJUST
 70
     0
  9
$CMLSCALE
 40
1.0
  9
$PROXYGRAPHICS
 70
     1
  9
$MEASUREMENT
 70
     0
  9
$CELWEIGHT
370
    -1
  9
$ENDCAPS
280
     0
  9
$JOINSTYLE
280
     0
  9
$LWDISPLAY
290
     1
  9
$INSUNITS
 70
     4
  9
$HYPERLINKBASE
  1

  9
$STYLESHEET
  1

  9
$XEDIT
290
     1
  9
$CEPSNTYPE
380
     0
  9
$PSTYLEMODE
290
     1
  9
$FINGERPRINTGUID
  2
{BBFCACF0-A7D2-6243-9772-1724705621D7}
  9
$VERSIONGUID
  2
{CEE366CF-42C2-CA4D-AACE-A0E711AB1D0A}
  9
$EXTNAMES
290
     1
  9
$PSVPSCALE
 40
0.0
  9
$OLESTARTUP
290
     0
  9
$SORTENTS
280
   127
  9
$INDEXCTL
280
     0
  9
$HIDETEXT
280
     1
  9
$XCLIPFRAME
280
     2
  9
$HALOGAP
280
     0
  9
$OBSCOLOR
 70
   257
  9
$OBSLTYPE
280
     0
  9
$INTERSECTIONDISPLAY
280
     0
  9
$INTERSECTIONCOLOR
 70
   257
  9
$DIMASSOC
280
     2
  9
$PROJECTNAME
  1

  9
$CAMERADISPLAY
290
     0
  9
$LENSLENGTH
 40
50.0
  9
$CAMERAHEIGHT
 40
0.0
  9
$STEPSPERSEC
 40
2.0
  9
$STEPSIZE
 40
6.0
  9
$3DDWFPREC
 40
2.0
  9
$PSOLWIDTH
 40
0.25
  9
$PSOLHEIGHT
 40
4.0
  9
$LOFTANG1
 40
1.570796326794896
  9
$LOFTANG2
 40
1.570796326794896
  9
$LOFTMAG1
 40
0.0
  9
$LOFTMAG2
 40
0.0
  9
$LOFTPARAM
 70
     7
  9
$LOFTNORMALS
280
     1
  9
$LATITUDE
 40
37.795
  9
$LONGITUDE
 40
-122.394
  9
$NORTHDIRECTION
 40
0.0
  9
$TIMEZONE
 70
 -8000
  9
$LIGHTGLYPHDISPLAY
280
     1
  9
$TILEMODELIGHTSYNCH
280
     1
  9
$CMATERIAL
347
11
  9
$SOLIDHIST
280
     0
  9
$SHOWHIST
280
     1
  9
$DWFFRAME
280
     2
  9
$DGNFRAME
280
     0
  9
$REALWORLDSCALE
290
     1
  9
$INTERFERECOLOR
 62
     1
  9
$INTERFEREOBJVS
345
33
  9
$INTERFEREVPVS
346
30
  9
$CSHADOW
280
     0
  9
$SHADOWPLANELOCATION
 40
0.0
  0
ENDSEC
  0
SECTION
  2
CLASSES
  0
CLASS
  1
ACDBDICTIONARYWDFLT
  2
AcDbDictionaryWithDefault
  3
ObjectDBX Classes
 90
        0
 91
        1
280
     0
281
     0
  0
CLASS
  1
MATERIAL
  2
AcDbMaterial
  3
ObjectDBX Classes
 90
     1153
 91
        3
280
     0
281
     0
  0
CLASS
  1
VISUALSTYLE
  2
AcDbVisualStyle
  3
ObjectDBX Classes
 90
     4095
 91
       24
280
     0
281
     0
  0
CLASS
  1
SCALE
  2
AcDbScale
  3
ObjectDBX Classes
 90
     1153
 91
       17
280
     0
281
     0
  0
CLASS
  1
TABLESTYLE
  2
AcDbTableStyle
  3
ObjectDBX Classes
 90
     4095
 91
        1
280
     0
281
     0
  0
CLASS
  1
MLEADERSTYLE
  2
AcDbMLeaderStyle
  3
ACDB_MLEADERSTYLE_CLASS
 90
     4095
 91
        1
280
     0
281
     0
  0
CLASS
  1
ACDBSECTIONVIEWSTYLE
  2
AcDbSectionViewStyle
  3
ObjectDBX Classes
 90
     1025
 91
        1
280
     0
281
     0
  0
CLASS
  1
ACDBDETAILVIEWSTYLE
  2
AcDbDetailViewStyle
  3
ObjectDBX Classes
 90
     1025
 91
        1
280
     0
281
     0
  0
CLASS
  1
DICTIONARYVAR
  2
AcDbDictionaryVar
  3
ObjectDBX Classes
 90
        0
 91
        5
280
     0
281
     0
  0
CLASS
  1
CELLSTYLEMAP
  2
AcDbCellStyleMap
  3
ObjectDBX Classes
 90
     1152
 91
        1
280
     0
281
     0
  0
ENDSEC
  0
SECTION
  2
TABLES
  0
TABLE
  2
VPORT
  5
8
330
0
100
AcDbSymbolTable
 70
     1
  0
VPORT
  5
57
330
8
100
AcDbSymbolTableRecord
100
AcDbViewportTableRecord
  2
*Active
 70
     0
 10
0.0
 20
0.0
 11
1.0
 21
1.0
 12
0.0
 22
0.0
 13
0.0
 23
0.0
 14
1.0
 24
1.0
 15
0.0
 25
0.0
 16
0.0
 26
0.0
 36
1.0
 17
104.9999999737534
 27
-148.4999999628701
 37
0.0
 40
302.939999924255
 41
0.7070707070707534
 42
50.0
 43
0.0
 44
0.0
 50
0.0
 51
0.0
 71
     0
 72
   100
 73
     1
 74
     0
 75
     1
 76
     0
 77
     0
 78
     0
281
     0
 65
     1
110
0.0
120
0.0
130
0.0
111
1.0
121
0.0
131
0.0
112
0.0
122
1.0
132
0.0
 79
     0
146
0.0
 60
     3
 61
     5
292
     1
282
     1
141
0.0
142
0.0
 63
   250
421
  3355443
  0
ENDTAB
  0
TABLE
  2
LTYPE
  5
5
330
0
100
AcDbSymbolTable
 70
     2
  0
LTYPE
  5
5B
330
5
100
AcDbSymbolTableRecord
100
AcDbLinetypeTableRecord
  2
ByBlock
 70
     0
  3

 72
    65
 73
     0
 40
0.0
  0
LTYPE
  5
5C
330
5
100
AcDbSymbolTableRecord
100
AcDbLinetypeTableRecord
  2
ByLayer
 70
     0
  3

 72
    65
 73
     0
 40
0.0
  0
LTYPE
  5
5D
330
5
100
AcDbSymbolTableRecord
100
AcDbLinetypeTableRecord
  2
Continuous
 70
     0
  3
Solid line
 72
    65
 73
     0
 40
0.0
  0
LTYPE
  5
12C
330
5
100
AcDbSymbolTableRecord
100
AcDbLinetypeTableRecord
  2
AI-Linetype-0
 70
     0
  3
Adobe Illustrator Linetype No. 0
 72
    65
 73
     2
 40
1.411111110758333
 49
0.7055555553791667
 74
     0
 49
-0.7055555553791667
 74
     0
  0
ENDTAB
  0
TABLE
  2
LAYER
  5
2
330
0
100
AcDbSymbolTable
 70
     2
  0
LAYER
  5
54
330
2
100
AcDbSymbolTableRecord
100
AcDbLayerTableRecord
  2
0
 70
     0
 62
     7
  6
Continuous
370
    -3
390
F
347
21
  0
LAYER
  5
78
330
2
100
AcDbSymbolTableRecord
100
AcDbLayerTableRecord
  2
レイヤー 1
 70
     0
 62
     7
  6
Continuous
370
     0
390
F
347
21
  0
ENDTAB
  0
TABLE
  2
STYLE
  5
3
330
0
100
AcDbSymbolTable
 70
     2
  0
STYLE
  5
55
330
3
100
AcDbSymbolTableRecord
100
AcDbTextStyleTableRecord
  2
Standard
 70
     0
 40
0.0
 41
1.0
 50
0.0
 71
     0
 42
0.2
  3
txt
  4

  0
STYLE
  5
5A
330
3
100
AcDbSymbolTableRecord
100
AcDbTextStyleTableRecord
  2
Annotative
 70
     0
 40
0.0
 41
1.0
 50
0.0
 71
     0
 42
0.2
  3
txt
  4

1001
AcadAnnotative
1000
AnnotativeData
1002
{
1070
     1
1070
     1
1002
}
  0
ENDTAB
  0
TABLE
  2
VIEW
  5
6
330
0
100
AcDbSymbolTable
 70
     0
  0
ENDTAB
  0
TABLE
  2
UCS
  5
7
330
0
100
AcDbSymbolTable
 70
     0
  0
ENDTAB
  0
TABLE
  2
APPID
  5
9
330
0
100
AcDbSymbolTable
 70
     2
  0
APPID
  5
56
330
9
100
AcDbSymbolTableRecord
100
AcDbRegAppTableRecord
  2
ACAD
 70
     0
  0
APPID
  5
5E
330
9
100
AcDbSymbolTableRecord
100
AcDbRegAppTableRecord
  2
AcadAnnotative
 70
     0
  0
ENDTAB
  0
TABLE
  2
DIMSTYLE
  5
A
330
0
100
AcDbSymbolTable
 70
     2
100
AcDbDimStyleTable
 71
     0
  0
DIMSTYLE
105
58
330
A
100
AcDbSymbolTableRecord
100
AcDbDimStyleTableRecord
  2
Standard
 70
     0
340
55
  0
DIMSTYLE
105
59
330
A
100
AcDbSymbolTableRecord
100
AcDbDimStyleTableRecord
  2
Annotative
 70
     0
340
55
1001
AcadAnnotative
1000
AnnotativeData
1002
{
1070
     1
1070
     1
1002
}
  0
ENDTAB
  0
TABLE
  2
BLOCK_RECORD
  5
1
330
0
100
AcDbSymbolTable
 70
    17
  0
BLOCK_RECORD
  5
70
330
1
100
AcDbSymbolTableRecord
100
AcDbBlockTableRecord
  2
*Model_Space
340
73
 70
     0
280
     1
281
     0
  0
BLOCK_RECORD
  5
6C
330
1
100
AcDbSymbolTableRecord
100
AcDbBlockTableRecord
  2
*Paper_Space
340
6F
 70
     0
280
     1
281
     0
  0
BLOCK_RECORD
  5
74
330
1
100
AcDbSymbolTableRecord
100
AcDbBlockTableRecord
  2
*Paper_Space0
340
77
 70
     0
280
     1
281
     0
  0
BLOCK_RECORD
  5
79
330
1
100
AcDbSymbolTableRecord
100
AcDbBlockTableRecord
  2
Block_0
340
0
102
{BLKREFS
331
7A
102
}
 70
     0
280
     1
281
     0
  0
BLOCK_RECORD
  5
B8
330
1
100
AcDbSymbolTableRecord
100
AcDbBlockTableRecord
  2
Block_1
340
0
102
{BLKREFS
331
B9
102
}
 70
     0
280
     1
281
     0
  0
BLOCK_RECORD
  5
BC
330
1
100
AcDbSymbolTableRecord
100
AcDbBlockTableRecord
  2
Block_2
340
0
102
{BLKREFS
331
BD
102
}
 70
     0
280
     1
281
     0
  0
BLOCK_RECORD
  5
C9
330
1
100
AcDbSymbolTableRecord
100
AcDbBlockTableRecord
  2
Block_3
340
0
102
{BLKREFS
331
CA
102
}
 70
     0
280
     1
281
     0
  0
BLOCK_RECORD
  5
CD
330
1
100
AcDbSymbolTableRecord
100
AcDbBlockTableRecord
  2
Block_4
340
0
102
{BLKREFS
331
CE
102
}
 70
     0
280
     1
281
     0
  0
BLOCK_RECORD
  5
D7
330
1
100
AcDbSymbolTableRecord
100
AcDbBlockTableRecord
  2
Block_5
340
0
102
{BLKREFS
331
D8
102
}
 70
     0
280
     1
281
     0
  0
BLOCK_RECORD
  5
E2
330
1
100
AcDbSymbolTableRecord
100
AcDbBlockTableRecord
  2
Block_6
340
0
102
{BLKREFS
331
E3
102
}
 70
     0
280
     1
281
     0
  0
BLOCK_RECORD
  5
E6
330
1
100
AcDbSymbolTableRecord
100
AcDbBlockTableRecord
  2
Block_7
340
0
102
{BLKREFS
331
E7
102
}
 70
     0
280
     1
281
     0
  0
BLOCK_RECORD
  5
F3
330
1
100
AcDbSymbolTableRecord
100
AcDbBlockTableRecord
  2
Block_8
340
0
102
{BLKREFS
331
F4
102
}
 70
     0
280
     1
281
     0
  0
BLOCK_RECORD
  5
F7
330
1
100
AcDbSymbolTableRecord
100
AcDbBlockTableRecord
  2
Block_9
340
0
102
{BLKREFS
331
F8
102
}
 70
     0
280
     1
281
     0
  0
BLOCK_RECORD
  5
101
330
1
100
AcDbSymbolTableRecord
100
AcDbBlockTableRecord
  2
Block_10
340
0
102
{BLKREFS
331
102
102
}
 70
     0
280
     1
281
     0
  0
BLOCK_RECORD
  5
107
330
1
100
AcDbSymbolTableRecord
100
AcDbBlockTableRecord
  2
Block_11
340
0
102
{BLKREFS
331
108
102
}
 70
     0
280
     1
281
     0
  0
BLOCK_RECORD
  5
12D
330
1
100
AcDbSymbolTableRecord
100
AcDbBlockTableRecord
  2
Block_12
340
0
102
{BLKREFS
331
12E
102
}
 70
     0
280
     1
281
     0
  0
BLOCK_RECORD
  5
131
330
1
100
AcDbSymbolTableRecord
100
AcDbBlockTableRecord
  2
Block_13
340
0
102
{BLKREFS
331
132
102
}
 70
     0
280
     1
281
     0
  0
BLOCK_RECORD
  5
138
330
1
100
AcDbSymbolTableRecord
100
AcDbBlockTableRecord
  2
Block_14
340
0
102
{BLKREFS
331
139
102
}
 70
     0
280
     1
281
     0
  0
BLOCK_RECORD
  5
13C
330
1
100
AcDbSymbolTableRecord
100
AcDbBlockTableRecord
  2
Block_15
340
0
102
{BLKREFS
331
13D
102
}
 70
     0
280
     1
281
     0
  0
ENDTAB
  0
ENDSEC
  0
SECTION
  2
BLOCKS
  0
BLOCK
  5
71
330
70
100
AcDbEntity
  8
0
100
AcDbBlockBegin
  2
*Model_Space
 70
     0
 10
0.0
 20
0.0
 30
0.0
  3
*Model_Space
  1

  0
ENDBLK
  5
72
330
70
100
AcDbEntity
  8
0
100
AcDbBlockEnd
  0
BLOCK
  5
6D
330
6C
100
AcDbEntity
 67
     1
  8
0
100
AcDbBlockBegin
  2
*Paper_Space
 70
     0
 10
0.0
 20
0.0
 30
0.0
  3
*Paper_Space
  1

  0
ENDBLK
  5
6E
330
6C
100
AcDbEntity
 67
     1
  8
0
100
AcDbBlockEnd
  0
BLOCK
  5
75
330
74
100
AcDbEntity
 67
     1
  8
0
100
AcDbBlockBegin
  2
*Paper_Space0
 70
     0
 10
0.0
 20
0.0
 30
0.0
  3
*Paper_Space0
  1

  0
ENDBLK
  5
76
330
74
100
AcDbEntity
 67
     1
  8
0
100
AcDbBlockEnd
  0
BLOCK
  5
7B
330
79
100
AcDbEntity
  8
0
100
AcDbBlockBegin
  2
Block_0
 70
     0
 10
0.0
 20
0.0
 30
0.0
  3
Block_0
  1

  0
LINE
  5
7D
330
79
100
AcDbEntity
  8
レイヤー 1
 62
   250
420
  2299925
370
    25
100
AcDbLine
 10
114.286141159744
 20
-153.9282021357691
 30
0.0
 11
97.2863055327533
 21
-153.9282021357691
 31
0.0
  0
LINE
  5
7E
330
79
100
AcDbEntity
  8
レイヤー 1
 62
   250
420
  2299925
370
    25
100
AcDbLine
 10
77.28475854303527
 20
-145.4277746378946
 30
0.0
 11
77.28475854303527
 21
-145.9280135266583
 31
0.0
  0
LINE
  5
7F
330
79
100
AcDbEntity
  8
レイヤー 1
 62
   250
420
  2299925
370
    25
100
AcDbLine
 10
97.2863055327533
 20
-145.9280135266583
 30
0.0
 11
77.28475854303527
 21
-145.9280135266583
 31
0.0
  0
LINE
  5
80
330
79
100
AcDbEntity
  8
レイヤー 1
 62
   250
420
  2299925
370
    25
100
AcDbLine
 10
77.28475854303527
 20
-145.4277746378946
 30
0.0
 11
77.79875575214465
 21
-145.8101857489097
 31
0.0
  0
LINE
  5
81
330
79
100
AcDbEntity
  8
レイヤー 1
 62
   250
420
  2299925
370
    25
100
AcDbLine
 10
77.79875575214465
 20
-145.8101857489097
 30
0.0
 11
78.28382518421361
 21
-145.3926379712362
 31
0.0
  0
LINE
  5
82
330
79
100
AcDbEntity
  8
レイヤー 1
 62
   250
420
  2299925
370
    25
100
AcDbLine
 10
78.79785767109955
 20
-145.7743788044746
 30
0.0
 11
79.28359738092952
 21
-145.3568310268015
 31
0.0
  0
LINE
  5
83
330
79
100
AcDbEntity
  8
レイヤー 1
 62
   250
420
  2299925
370
    25
100
AcDbLine
 10
78.28382518421361
 20
-145.3926379712362
 30
0.0
 11
78.79785767109955
 21
-145.7743788044746
 31
0.0
  0
LINE
  5
84
330
79
100
AcDbEntity
  8
レイヤー 1
 62
   250
420
  2299925
370
    25
100
AcDbLine
 10
79.28359738092952
 20
-145.3568310268015
 30
0.0
 11
79.79762986781546
 21
-145.7385365822614
 31
0.0
  0
LINE
  5
85
330
79
100
AcDbEntity
  8
レイヤー 1
 62
   250
420
  2299925
370
    25
100
AcDbLine
 10
79.79762986781546
 20
-145.7385365822614
 30
0.0
 11
80.28269929988475
 21
-145.3209888045882
 31
0.0
  0
LINE
  5
86
330
79
100
AcDbEntity
  8
レイヤー 1
 62
   250
420
  2299925
370
    25
100
AcDbLine
 10
80.28269929988475
 20
-145.3209888045882
 30
0.0
 11
80.79669650899381
 21
-145.7026943600481
 31
0.0
  0
LINE
  5
87
330
79
100
AcDbEntity
  8
レイヤー 1
 62
   250
420
  2299925
370
    25
100
AcDbLine
 10
80.79669650899381
 20
-145.7026943600481
 30
0.0
 11
81.28211871883188
 21
-145.2851465823749
 31
0.0
  0
LINE
  5
88
330
79
100
AcDbEntity
  8
レイヤー 1
 62
   250
420
  2299925
370
    25
100
AcDbLine
 10
81.28211871883188
 20
-145.2851465823749
 30
0.0
 11
81.79611592794094
 21
-145.6668874156124
 31
0.0
  0
LINE
  5
89
330
79
100
AcDbEntity
  8
レイヤー 1
 62
   250
420
  2299925
370
    25
100
AcDbLine
 10
81.79611592794094
 20
-145.6668874156124
 30
0.0
 11
82.28153813777902
 21
-145.2493396379389
 31
0.0
  0
LINE
  5
8A
330
79
100
AcDbEntity
  8
レイヤー 1
 62
   250
420
  2299925
370
    25
100
AcDbLine
 10
82.28153813777902
 20
-145.2493396379389
 30
0.0
 11
82.79553534688806
 21
-145.6317507489547
 31
0.0
  0
LINE
  5
8B
330
79
100
AcDbEntity
  8
レイヤー 1
 62
   250
420
  2299925
370
    25
100
AcDbLine
 10
82.79553534688806
 20
-145.6317507489547
 30
0.0
 11
83.28095755672647
 21
-145.2142029712812
 31
0.0
  0
LINE
  5
8C
330
79
100
AcDbEntity
  8
レイヤー 1
 62
   250
420
  2299925
370
    25
100
AcDbLine
 10
83.28095755672647
 20
-145.2142029712812
 30
0.0
 11
83.79460198806643
 21
-145.5959085267414
 31
0.0
  0
LINE
  5
8D
330
79
100
AcDbEntity
  8
レイヤー 1
 62
   250
420
  2299925
370
    25
100
AcDbLine
 10
83.79460198806643
 20
-145.5959085267414
 30
0.0
 11
84.28037697567328
 21
-145.1783607490679
 31
0.0
  0
LINE
  5
8E
330
79
100
AcDbEntity
  8
レイヤー 1
 62
   250
420
  2299925
370
    25
100
AcDbLine
 10
84.79437418478234
 20
-145.5600663045282
 30
0.0
 11
85.27944361685227
 21
-145.1425538046322
 31
0.0
  0
LINE
  5
8F
330
79
100
AcDbEntity
  8
レイヤー 1
 62
   250
420
  2299925
370
    25
100
AcDbLine
 10
84.28037697567328
 20
-145.1783607490679
 30
0.0
 11
84.79437418478234
 21
-145.5600663045282
 31
0.0
  0
LINE
  5
90
330
79
100
AcDbEntity
  8
レイヤー 1
 62
   250
420
  2299925
370
    25
100
AcDbLine
 10
85.27944361685227
 20
-145.1425538046322
 30
0.0
 11
85.79347610373757
 21
-145.5242593600924
 31
0.0
  0
LINE
  5
91
330
79
100
AcDbEntity
  8
レイヤー 1
 62
   250
420
  2299925
370
    25
100
AcDbLine
 10
85.79347610373757
 20
-145.5242593600924
 30
0.0
 11
86.27921581356755
 21
-145.1067115824189
 31
0.0
  0
LINE
  5
92
330
79
100
AcDbEntity
  8
レイヤー 1
 62
   250
420
  2299925
370
    25
100
AcDbLine
 10
86.79321302267659
 20
-145.4884171378792
 30
0.0
 11
87.27828245474588
 21
-145.0708693602057
 31
0.0
  0
LINE
  5
93
330
79
100
AcDbEntity
  8
レイヤー 1
 62
   250
420
  2299925
370
    25
100
AcDbLine
 10
86.27921581356755
 20
-145.1067115824189
 30
0.0
 11
86.79321302267659
 21
-145.4884171378792
 31
0.0
  0
LINE
  5
94
330
79
100
AcDbEntity
  8
レイヤー 1
 62
   250
420
  2299925
370
    25
100
AcDbLine
 10
87.79231494163182
 20
-145.4532804712218
 30
0.0
 11
88.27805465146212
 21
-145.035732693548
 31
0.0
  0
LINE
  5
95
330
79
100
AcDbEntity
  8
レイヤー 1
 62
   250
420
  2299925
370
    25
100
AcDbLine
 10
87.27828245474588
 20
-145.0708693602057
 30
0.0
 11
87.79231494163182
 21
-145.4532804712218
 31
0.0
  0
LINE
  5
96
330
79
100
AcDbEntity
  8
レイヤー 1
 62
   250
420
  2299925
370
    25
100
AcDbLine
 10
88.27805465146212
 20
-145.035732693548
 30
0.0
 11
88.79208713834774
 21
-145.4174382490085
 31
0.0
  0
LINE
  5
97
330
79
100
AcDbEntity
  8
レイヤー 1
 62
   250
420
  2299925
370
    25
100
AcDbLine
 10
88.79208713834774
 20
-145.4174382490085
 30
0.0
 11
89.27715657041703
 21
-144.9999257491126
 31
0.0
  0
LINE
  5
98
330
79
100
AcDbEntity
  8
レイヤー 1
 62
   250
420
  2299925
370
    25
100
AcDbLine
 10
89.27715657041703
 20
-144.9999257491126
 30
0.0
 11
89.79115377952609
 21
-145.3816313045725
 31
0.0
  0
LINE
  5
99
330
79
100
AcDbEntity
  8
レイヤー 1
 62
   250
420
  2299925
370
    25
100
AcDbLine
 10
89.79115377952609
 20
-145.3816313045725
 30
0.0
 11
90.27622321159538
 21
-144.964083526899
 31
0.0
  0
LINE
  5
9A
330
79
100
AcDbEntity
  8
レイヤー 1
 62
   250
420
  2299925
370
    25
100
AcDbLine
 10
90.27622321159538
 20
-144.964083526899
 30
0.0
 11
90.79022042070445
 21
-145.3457890823592
 31
0.0
  0
LINE
  5
9B
330
79
100
AcDbEntity
  8
レイヤー 1
 62
   250
420
  2299925
370
    25
100
AcDbLine
 10
90.79022042070445
 20
-145.3457890823592
 30
0.0
 11
91.27599540831097
 21
-144.9282413046858
 31
0.0
  0
LINE
  5
9C
330
79
100
AcDbEntity
  8
レイヤー 1
 62
   250
420
  2299925
370
    25
100
AcDbLine
 10
91.27599540831097
 20
-144.9282413046858
 30
0.0
 11
91.78999261742069
 21
-145.3099821379235
 31
0.0
  0
LINE
  5
9D
330
79
100
AcDbEntity
  8
レイヤー 1
 62
   250
420
  2299925
370
    25
100
AcDbLine
 10
91.78999261742069
 20
-145.3099821379235
 30
0.0
 11
92.27506204948964
 21
-144.8924343602507
 31
0.0
  0
LINE
  5
9E
330
79
100
AcDbEntity
  8
レイヤー 1
 62
   250
420
  2299925
370
    25
100
AcDbLine
 10
92.27506204948964
 20
-144.8924343602507
 30
0.0
 11
92.78905925859872
 21
-145.2748454712658
 31
0.0
  0
LINE
  5
9F
330
79
100
AcDbEntity
  8
レイヤー 1
 62
   250
420
  2299925
370
    25
100
AcDbLine
 10
92.78905925859872
 20
-145.2748454712658
 30
0.0
 11
93.27483424620556
 21
-144.8572976935923
 31
0.0
  0
LINE
  5
A0
330
79
100
AcDbEntity
  8
レイヤー 1
 62
   250
420
  2299925
370
    25
100
AcDbLine
 10
93.27483424620556
 20
-144.8572976935923
 30
0.0
 11
93.78883145531462
 21
-145.2390032490525
 31
0.0
  0
LINE
  5
A1
330
79
100
AcDbEntity
  8
レイヤー 1
 62
   250
420
  2299925
370
    25
100
AcDbLine
 10
93.78883145531462
 20
-145.2390032490525
 30
0.0
 11
94.27390088738389
 21
-144.8214554713787
 31
0.0
  0
LINE
  5
A2
330
79
100
AcDbEntity
  8
レイヤー 1
 62
   250
420
  2299925
370
    25
100
AcDbLine
 10
94.27390088738389
 20
-144.8214554713787
 30
0.0
 11
94.78789809649297
 21
-145.2031610268393
 31
0.0
  0
LINE
  5
A3
330
79
100
AcDbEntity
  8
レイヤー 1
 62
   250
420
  2299925
370
    25
100
AcDbLine
 10
94.78789809649297
 20
-145.2031610268393
 30
0.0
 11
95.27367308409981
 21
-144.7856132491661
 31
0.0
  0
LINE
  5
A4
330
79
100
AcDbEntity
  8
レイヤー 1
 62
   250
420
  2299925
370
    25
100
AcDbLine
 10
95.27367308409981
 20
-144.7856132491661
 30
0.0
 11
95.78767029320887
 21
-145.1673540824042
 31
0.0
  0
LINE
  5
A5
330
79
100
AcDbEntity
  8
レイヤー 1
 62
   250
420
  2299925
370
    25
100
AcDbLine
 10
95.78767029320887
 20
-145.1673540824042
 30
0.0
 11
96.27273972527817
 21
-144.7498063047307
 31
0.0
  0
LINE
  5
A6
330
79
100
AcDbEntity
  8
レイヤー 1
 62
   250
420
  2299925
370
    25
100
AcDbLine
 10
96.27273972527817
 20
-144.7498063047307
 30
0.0
 11
96.7867722121641
 21
-145.1315118601909
 31
0.0
  0
LINE
  5
A7
330
79
100
AcDbEntity
  8
レイヤー 1
 62
   250
420
  2299925
370
    25
100
AcDbLine
 10
96.7867722121641
 20
-145.1315118601909
 30
0.0
 11
97.27251192199409
 21
-144.7139640825174
 31
0.0
  0
LINE
  5
A8
330
79
100
AcDbEntity
  8
レイヤー 1
 62
   250
420
  2299925
370
    25
100
AcDbLine
 10
97.34650913121209
 20
-144.665739360307
 30
0.0
 11
98.2860777294692
 21
-144.665739360307
 31
0.0
  0
LINE
  5
A9
330
79
100
AcDbEntity
  8
レイヤー 1
 62
   250
420
  2299925
370
    25
100
AcDbLine
 10
98.2860777294692
 20
-144.665739360307
 30
0.0
 11
98.2860777294692
 21
-152.9277596360198
 31
0.0
  0
LINE
  5
AA
330
79
100
AcDbEntity
  8
レイヤー 1
 62
   250
420
  2299925
370
    25
100
AcDbLine
 10
97.2863055327533
 20
-145.9280135266583
 30
0.0
 11
97.2863055327533
 21
-153.9282021357691
 31
0.0
  0
LINE
  5
AB
330
79
100
AcDbEntity
  8
レイヤー 1
 62
   250
420
  2299925
370
    25
100
AcDbLine
 10
113.2856986852674
 20
-152.9277596360198
 30
0.0
 11
98.2860777294692
 21
-152.9277596360198
 31
0.0
  0
LINE
  5
AC
330
79
100
AcDbEntity
  8
レイヤー 1
 62
   250
420
  2299925
370
    25
100
AcDbLine
 10
113.2856987673895
 20
-144.665739360307
 30
0.0
 11
113.2856987673895
 21
-152.9277596360198
 31
0.0
  0
LINE
  5
AD
330
79
100
AcDbEntity
  8
レイヤー 1
 62
   250
420
  2299925
370
    25
100
AcDbLine
 10
114.2861412418661
 20
-144.665739360307
 30
0.0
 11
114.2861412418661
 21
-153.9282021357691
 31
0.0
  0
CIRCLE
  5
AE
330
79
100
AcDbEntity
  8
レイヤー 1
 62
   250
420
  2299925
370
     9
100
AcDbCircle
 10
77.28475854303527
 20
-140.6659801946405
 30
0.0
 40
0.0999066653800974
  0
SPLINE
  5
AF
330
79
100
AcDbEntity
  8
レイヤー 1
 62
   250
420
  2299925
370
     9
100
AcDbSpline
210
0.0
220
0.0
230
1.0
 70
     9
 71
     3
 72
    17
 73
    13
 74
     0
 42
0.0000000001
 43
0.0000000001
 40
0.0
 40
0.0
 40
0.0
 40
0.0
 40
1.0
 40
1.0
 40
1.0
 40
2.0
 40
2.0
 40
2.0
 40
3.0
 40
3.0
 40
3.0
 40
4.0
 40
4.0
 40
4.0
 40
4.0
 10
73.38490614252943
 20
-145.4277746378946
 30
0.0
 10
73.38490614252943
 20
-145.3726707490187
 30
0.0
 10
73.3401386436709
 20
-145.3278679712529
 30
0.0
 10
73.28464670064217
 20
-145.3278679712529
 30
0.0
 10
73.2295428131591
 20
-145.3278679712529
 30
0.0
 10
73.18474003652433
 20
-145.3726707490187
 30
0.0
 10
73.18474003652433
 20
-145.4277746378946
 30
0.0
 10
73.18474003652433
 20
-145.4829138045467
 30
0.0
 10
73.2295428131591
 20
-145.5276813045365
 30
0.0
 10
73.28464670064217
 20
-145.5276813045365
 30
0.0
 10
73.3401386436709
 20
-145.5276813045365
 30
0.0
 10
73.38490614252943
 20
-145.4829138045467
 30
0.0
 10
73.38490614252943
 20
-145.4277746378946
 30
0.0
  0
SPLINE
  5
B0
330
79
100
AcDbEntity
  8
レイヤー 1
 62
   250
420
  2299925
370
     9
100
AcDbSpline
210
0.0
220
0.0
230
1.0
 70
     9
 71
     3
 72
    17
 73
    13
 74
     0
 42
0.0000000001
 43
0.0000000001
 40
0.0
 40
0.0
 40
0.0
 40
0.0
 40
1.0
 40
1.0
 40
1.0
 40
2.0
 40
2.0
 40
2.0
 40
3.0
 40
3.0
 40
3.0
 40
4.0
 40
4.0
 40
4.0
 40
4.0
 10
73.38490614252943
 20
-145.9280135266583
 30
0.0
 10
73.38490614252943
 20
-145.8729096377834
 30
0.0
 10
73.3401386436709
 20
-145.828106860017
 30
0.0
 10
73.28464670064217
 20
-145.828106860017
 30
0.0
 10
73.2295428131591
 20
-145.828106860017
 30
0.0
 10
73.18474003652433
 20
-145.8729096377834
 30
0.0
 10
73.18474003652433
 20
-145.9280135266583
 30
0.0
 10
73.18474003652433
 20
-145.9831526933114
 30
0.0
 10
73.2295428131591
 20
-146.0279201932999
 30
0.0
 10
73.28464670064217
 20
-146.0279201932999
 30
0.0
 10
73.3401386436709
 20
-146.0279201932999
 30
0.0
 10
73.38490614252943
 20
-145.9831526933114
 30
0.0
 10
73.38490614252943
 20
-145.9280135266583
 30
0.0
  0
SPLINE
  5
B1
330
79
100
AcDbEntity
  8
レイヤー 1
 62
   250
420
  2299925
370
     9
100
AcDbSpline
210
0.0
220
0.0
230
1.0
 70
     9
 71
     3
 72
    17
 73
    13
 74
     0
 42
0.0000000001
 43
0.0000000001
 40
0.0
 40
0.0
 40
0.0
 40
0.0
 40
1.0
 40
1.0
 40
1.0
 40
2.0
 40
2.0
 40
2.0
 40
3.0
 40
3.0
 40
3.0
 40
4.0
 40
4.0
 40
4.0
 40
4.0
 10
73.38490614252943
 20
-153.9282021357691
 30
0.0
 10
73.38490614252943
 20
-153.8730982468948
 30
0.0
 10
73.3401386436709
 20
-153.8282954691281
 30
0.0
 10
73.28464670064217
 20
-153.8282954691281
 30
0.0
 10
73.2295428131591
 20
-153.8282954691281
 30
0.0
 10
73.18474003652433
 20
-153.8730982468948
 30
0.0
 10
73.18474003652433
 20
-153.9282021357691
 30
0.0
 10
73.18474003652433
 20
-153.9833413024228
 30
0.0
 10
73.2295428131591
 20
-154.0281440801883
 30
0.0
 10
73.28464670064217
 20
-154.0281440801883
 30
0.0
 10
73.3401386436709
 20
-154.0281440801883
 30
0.0
 10
73.38490614252943
 20
-153.9833413024228
 30
0.0
 10
73.38490614252943
 20
-153.9282021357691
 30
0.0
  0
CIRCLE
  5
B2
330
79
100
AcDbEntity
  8
レイヤー 1
 62
   250
420
  2299925
370
     9
100
AcDbCircle
 10
98.28607772946927
 20
-140.6659801946405
 30
0.0
 40
0.0999066653799771
  0
CIRCLE
  5
B3
330
79
100
AcDbEntity
  8
レイヤー 1
 62
   250
420
  2299925
370
     9
100
AcDbCircle
 10
113.2856987673895
 20
-140.6659801946405
 30
0.0
 40
0.0999066653800974
  0
LINE
  5
B4
330
79
100
AcDbEntity
  8
レイヤー 1
 62
   250
420
  2299925
370
     9
100
AcDbLine
 10
73.28464670064217
 20
-145.4277746378946
 30
0.0
 11
73.28464670064217
 21
-140.169868805876
 31
0.0
  0
LINE
  5
B5
330
79
100
AcDbEntity
  8
レイヤー 1
 62
   250
420
  2299925
370
     9
100
AcDbLine
 10
73.28464670064217
 20
-145.4277746378946
 30
0.0
 11
73.28464670064217
 21
-145.9280135266583
 31
0.0
  0
LINE
  5
B6
330
79
100
AcDbEntity
  8
レイヤー 1
 62
   250
420
  2299925
370
     9
100
AcDbLine
 10
74.7446880522823
 20
-145.4277746378946
 30
0.0
 11
72.28455700393436
 21
-145.4277746378946
 31
0.0
  0
LINE
  5
B7
330
79
100
AcDbEntity
  8
レイヤー 1
 62
   250
420
  2299925
370
     9
100
AcDbLine
 10
74.7446880522823
 20
-145.9280135266583
 30
0.0
 11
72.28455700393436
 21
-145.9280135266583
 31
0.0
  0
INSERT
  5
B9
330
79
100
AcDbEntity
  8
レイヤー 1
100
AcDbBlockReference
  2
Block_1
 10
0.0
 20
0.0
 30
0.0
  0
LINE
  5
C7
330
79
100
AcDbEntity
  8
レイヤー 1
 62
   250
420
  2299925
370
     9
100
AcDbLine
 10
77.28475854303527
 20
-140.6659801946407
 30
0.0
 11
98.2860777294692
 21
-140.6659801946407
 31
0.0
  0
LINE
  5
C8
330
79
100
AcDbEntity
  8
レイヤー 1
 62
   250
420
  2299925
370
     9
100
AcDbLine
 10
77.28475854303527
 20
-142.8880568607514
 30
0.0
 11
77.28475854303527
 21
-139.6662079726682
 31
0.0
  0
INSERT
  5
CA
330
79
100
AcDbEntity
  8
レイヤー 1
100
AcDbBlockReference
  2
Block_3
 10
0.0
 20
0.0
 30
0.0
  0
LINE
  5
D5
330
79
100
AcDbEntity
  8
レイヤー 1
 62
   250
420
  2299925
370
     9
100
AcDbLine
 10
73.28464670064217
 20
-145.9280135266583
 30
0.0
 11
73.28464670064217
 21
-153.9282021357691
 31
0.0
  0
LINE
  5
D6
330
79
100
AcDbEntity
  8
レイヤー 1
 62
   250
420
  2299925
370
     9
100
AcDbLine
 10
94.74658781976911
 20
-153.9282021357691
 30
0.0
 11
72.28455700393436
 21
-153.9282021357691
 31
0.0
  0
INSERT
  5
D8
330
79
100
AcDbEntity
  8
レイヤー 1
100
AcDbBlockReference
  2
Block_5
 10
0.0
 20
0.0
 30
0.0
  0
LINE
  5
DF
330
79
100
AcDbEntity
  8
レイヤー 1
 62
   250
420
  2299925
370
     9
100
AcDbLine
 10
98.2860777294692
 20
-140.6659801946407
 30
0.0
 11
113.2856986852674
 21
-140.6659801946407
 31
0.0
  0
LINE
  5
E0
330
79
100
AcDbEntity
  8
レイヤー 1
 62
   250
420
  2299925
370
     9
100
AcDbLine
 10
98.2860777294692
 20
-142.1260215831644
 30
0.0
 11
98.2860777294692
 21
-139.6662079726682
 31
0.0
  0
LINE
  5
E1
330
79
100
AcDbEntity
  8
レイヤー 1
 62
   250
420
  2299925
370
     9
100
AcDbLine
 10
113.2856987673895
 20
-142.1260215831644
 30
0.0
 11
113.2856987673895
 21
-139.6662079726682
 31
0.0
  0
INSERT
  5
E3
330
79
100
AcDbEntity
  8
レイヤー 1
100
AcDbBlockReference
  2
Block_6
 10
0.0
 20
0.0
 30
0.0
  0
SPLINE
  5
EE
330
79
100
AcDbEntity
  8
レイヤー 1
 62
   250
420
  2299925
370
     9
100
AcDbSpline
210
0.0
220
0.0
230
1.0
 70
     9
 71
     3
 72
    17
 73
    13
 74
     0
 42
0.0000000001
 43
0.0000000001
 40
0.0
 40
0.0
 40
0.0
 40
0.0
 40
1.0
 40
1.0
 40
1.0
 40
2.0
 40
2.0
 40
2.0
 40
3.0
 40
3.0
 40
3.0
 40
4.0
 40
4.0
 40
4.0
 40
4.0
 10
97.38621219687113
 20
-158.0416615791859
 30
0.0
 10
97.38621219687113
 20
-157.9865576903103
 30
0.0
 10
97.34074182942741
 20
-157.9417549125436
 30
0.0
 10
97.28559997721573
 20
-157.9417549125436
 30
0.0
 10
97.23049608973266
 20
-157.9417549125436
 30
0.0
 10
97.1856933130979
 20
-157.9865576903103
 30
0.0
 10
97.1856933130979
 20
-158.0416615791859
 30
0.0
 10
97.1856933130979
 20
-158.0968007458383
 30
0.0
 10
97.23049608973266
 20
-158.1415682458269
 30
0.0
 10
97.28559997721573
 20
-158.1415682458269
 30
0.0
 10
97.34074182942741
 20
-158.1415682458269
 30
0.0
 10
97.38621219687113
 20
-158.0968007458383
 30
0.0
 10
97.38621219687113
 20
-158.0416615791859
 30
0.0
  0
CIRCLE
  5
EF
330
79
100
AcDbEntity
  8
レイヤー 1
 62
   250
420
  2299925
370
     9
100
AcDbCircle
 10
114.2861412418661
 20
-158.0416615791856
 30
0.0
 40
0.0999066653798969
  0
LINE
  5
F0
330
79
100
AcDbEntity
  8
レイヤー 1
 62
   250
420
  2299925
370
     9
100
AcDbLine
 10
114.286141159744
 20
-158.0416615791859
 30
0.0
 11
97.28559997721573
 21
-158.0416615791859
 31
0.0
  0
LINE
  5
F1
330
79
100
AcDbEntity
  8
レイヤー 1
 62
   250
420
  2299925
370
     9
100
AcDbLine
 10
114.2861412418661
 20
-156.5816201906609
 30
0.0
 11
114.2861412418661
 21
-159.0414338011578
 31
0.0
  0
LINE
  5
F2
330
79
100
AcDbEntity
  8
レイヤー 1
 62
   250
420
  2299925
370
     9
100
AcDbLine
 10
97.28559997721573
 20
-156.5816201906609
 30
0.0
 11
97.28559997721573
 21
-159.0414338011578
 31
0.0
  0
INSERT
  5
F4
330
79
100
AcDbEntity
  8
レイヤー 1
100
AcDbBlockReference
  2
Block_8
 10
0.0
 20
0.0
 30
0.0
  0
LINE
  5
FF
330
79
100
AcDbEntity
  8
レイヤー 1
 62
   250
420
  2299925
370
    25
100
AcDbLine
 10
114.2861412418661
 20
-144.665739360307
 30
0.0
 11
113.2856987673895
 21
-144.665739360307
 31
0.0
  0
LINE
  5
100
330
79
100
AcDbEntity
  8
レイヤー 1
 62
   250
420
  2299925
370
     9
100
AcDbLine
 10
111.2275932643406
 20
-150.0731524145106
 30
0.0
 11
119.2278169491267
 21
-150.0731524145106
 31
0.0
  0
INSERT
  5
102
330
79
100
AcDbEntity
  8
レイヤー 1
100
AcDbBlockReference
  2
Block_10
 10
0.0
 20
0.0
 30
0.0
  0
INSERT
  5
108
330
79
100
AcDbEntity
  8
レイヤー 1
100
AcDbBlockReference
  2
Block_11
 10
0.0
 20
0.0
 30
0.0
  0
LINE
  5
12B
330
79
100
AcDbEntity
  8
レイヤー 1
  6
AI-Linetype-0
 62
   154
420
    23468
370
    25
100
AcDbLine
 10
77.28475854303527
 20
-146.8037490819945
 30
0.0
 11
87.28449134347638
 21
-146.8037490819945
 31
0.0
  0
INSERT
  5
12E
330
79
100
AcDbEntity
  8
レイヤー 1
100
AcDbBlockReference
  2
Block_12
 10
0.0
 20
0.0
 30
0.0
  0
ENDBLK
  5
7C
330
79
100
AcDbEntity
  8
0
100
AcDbBlockEnd
  0
BLOCK
  5
BA
330
B8
100
AcDbEntity
  8
0
100
AcDbBlockBegin
  2
Block_1
 70
     0
 10
0.0
 20
0.0
 30
0.0
  3
Block_1
  1

  0
INSERT
  5
BD
330
B8
100
AcDbEntity
  8
レイヤー 1
100
AcDbBlockReference
  2
Block_2
 10
0.0
 20
0.0
 30
0.0
  0
ENDBLK
  5
BB
330
B8
100
AcDbEntity
  8
0
100
AcDbBlockEnd
  0
BLOCK
  5
BE
330
BC
100
AcDbEntity
  8
0
100
AcDbBlockBegin
  2
Block_2
 70
     0
 10
0.0
 20
0.0
 30
0.0
  3
Block_2
  1

  0
SPLINE
  5
C0
330
BC
100
AcDbEntity
  8
レイヤー 1
100
AcDbSpline
210
0.0
220
0.0
230
1.0
 70
     9
 71
     3
 72
    17
 73
    13
 74
     0
 42
0.0000000001
 43
0.0000000001
 40
0.0
 40
0.0
 40
0.0
 40
0.0
 40
1.0
 40
1.0
 40
1.0
 40
2.0
 40
2.0
 40
2.0
 40
3.0
 40
3.0
 40
3.0
 40
4.0
 40
4.0
 40
4.0
 40
4.0
 10
70.44014483916079
 20
-146.5419595987811
 30
0.0
 10
70.44014483916079
 20
-146.7917290214618
 30
0.0
 10
70.7235039428226
 20
-146.8382378105127
 30
0.0
 10
71.06835800089611
 20
-146.8382378105127
 30
0.0
 10
71.38789060715303
 20
-146.8382378105127
 30
0.0
 10
71.69674341740568
 20
-146.8020643079175
 30
0.0
 10
71.69674341740568
 20
-146.5419595987811
 30
0.0
 10
71.69674341740568
 20
-146.2942572333917
 30
0.0
 10
71.41527911626076
 20
-146.2456813870497
 30
0.0
 10
71.06835800089611
 20
-146.2456813870497
 30
0.0
 10
70.74899764941346
 20
-146.2456813870497
 30
0.0
 10
70.44014483916079
 20
-146.2839219469359
 30
0.0
 10
70.44014483916079
 20
-146.5419595987811
 30
0.0
  0
SPLINE
  5
C1
330
BC
100
AcDbEntity
  8
レイヤー 1
100
AcDbSpline
210
0.0
220
0.0
230
1.0
 70
     9
 71
     3
 72
    29
 73
    25
 74
     0
 42
0.0000000001
 43
0.0000000001
 40
0.0
 40
0.0
 40
0.0
 40
0.0
 40
1.0
 40
1.0
 40
1.0
 40
2.0
 40
2.0
 40
2.0
 40
3.0
 40
3.0
 40
3.0
 40
4.0
 40
4.0
 40
4.0
 40
5.0
 40
5.0
 40
5.0
 40
6.0
 40
6.0
 40
6.0
 40
7.0
 40
7.0
 40
7.0
 40
8.0
 40
8.0
 40
8.0
 40
8.0
 10
71.66280922687596
 20
-146.1440510702348
 30
0.0
 10
71.87227103237916
 20
-146.2522270684717
 30
0.0
 10
71.8913913123223
 20
-146.4255153713797
 30
0.0
 10
71.8913913123223
 20
-146.5419595987811
 30
0.0
 10
71.8913913123223
 20
-146.7028455579423
 30
0.0
 10
71.84488252327142
 20
-146.8444389823861
 30
0.0
 10
71.66280922687596
 20
-146.939523617779
 30
0.0
 10
71.46833358673362
 20
-147.043220991885
 30
0.0
 10
71.23131101734843
 20
-147.0625135266024
 30
0.0
 10
71.06835800089611
 20
-147.0625135266024
 30
0.0
 10
70.92452526438693
 20
-147.0625135266024
 30
0.0
 10
70.67286103918942
 20
-147.0452880491762
 30
0.0
 10
70.47390677491624
 20
-146.939523617779
 30
0.0
 10
70.27081839606077
 20
-146.8316921290907
 30
0.0
 10
70.24756400153534
 20
-146.6708061699295
 30
0.0
 10
70.24756400153534
 20
-146.5419595987811
 30
0.0
 10
70.24756400153534
 20
-146.3831406969111
 30
0.0
 10
70.29200573329505
 20
-146.2394802151762
 30
0.0
 10
70.47390677491624
 20
-146.1440510702348
 30
0.0
 10
70.66648761254171
 20
-146.0448323202596
 30
0.0
 10
70.89489744321378
 20
-146.0214056709599
 30
0.0
 10
71.06835800089611
 20
-146.0214056709599
 30
0.0
 10
71.23975150128728
 20
-146.0214056709599
 30
0.0
 10
71.47040064402476
 20
-146.0427652629685
 30
0.0
 10
71.66280922687596
 20
-146.1440510702348
 30
0.0
  0
HATCH
  5
C2
330
BC
100
AcDbEntity
  8
レイヤー 1
 62
   250
420
  2299925
440
 33554687
100
AcDbHatch
 10
0.0
 20
0.0
 30
0.0
210
0.0
220
0.0
230
1.0
  2
SOLID
 70
     1
 71
     1
 91
        2
 92
        1
 93
        1
 72
     4
 94
        3
 73
     0
 74
     0
 95
       17
 96
       13
 40
0.0
 40
0.0
 40
0.0
 40
0.0
 40
1.0
 40
1.0
 40
1.0
 40
2.0
 40
2.0
 40
2.0
 40
3.0
 40
3.0
 40
3.0
 40
4.0
 40
4.0
 40
4.0
 40
4.0
 10
70.44014483916079
 20
-146.5419595987811
 10
70.44014483916079
 20
-146.7917290214618
 10
70.7235039428226
 20
-146.8382378105127
 10
71.06835800089611
 20
-146.8382378105127
 10
71.38789060715303
 20
-146.8382378105127
 10
71.69674341740568
 20
-146.8020643079175
 10
71.69674341740568
 20
-146.5419595987811
 10
71.69674341740568
 20
-146.2942572333917
 10
71.41527911626076
 20
-146.2456813870497
 10
71.06835800089611
 20
-146.2456813870497
 10
70.74899764941346
 20
-146.2456813870497
 10
70.44014483916079
 20
-146.2839219469359
 10
70.44014483916079
 20
-146.5419595987811
 97
        0
 97
        1
330
C0
 92
        1
 93
        1
 72
     4
 94
        3
 73
     0
 74
     0
 95
       29
 96
       25
 40
0.0
 40
0.0
 40
0.0
 40
0.0
 40
1.0
 40
1.0
 40
1.0
 40
2.0
 40
2.0
 40
2.0
 40
3.0
 40
3.0
 40
3.0
 40
4.0
 40
4.0
 40
4.0
 40
5.0
 40
5.0
 40
5.0
 40
6.0
 40
6.0
 40
6.0
 40
7.0
 40
7.0
 40
7.0
 40
8.0
 40
8.0
 40
8.0
 40
8.0
 10
71.66280922687596
 20
-146.1440510702348
 10
71.87227103237916
 20
-146.2522270684717
 10
71.8913913123223
 20
-146.4255153713797
 10
71.8913913123223
 20
-146.5419595987811
 10
71.8913913123223
 20
-146.7028455579423
 10
71.84488252327142
 20
-146.8444389823861
 10
71.66280922687596
 20
-146.939523617779
 10
71.46833358673362
 20
-147.043220991885
 10
71.23131101734843
 20
-147.0625135266024
 10
71.06835800089611
 20
-147.0625135266024
 10
70.92452526438693
 20
-147.0625135266024
 10
70.67286103918942
 20
-147.0452880491762
 10
70.47390677491624
 20
-146.939523617779
 10
70.27081839606077
 20
-146.8316921290907
 10
70.24756400153534
 20
-146.6708061699295
 10
70.24756400153534
 20
-146.5419595987811
 10
70.24756400153534
 20
-146.3831406969111
 10
70.29200573329505
 20
-146.2394802151762
 10
70.47390677491624
 20
-146.1440510702348
 10
70.66648761254171
 20
-146.0448323202596
 10
70.89489744321378
 20
-146.0214056709599
 10
71.06835800089611
 20
-146.0214056709599
 10
71.23975150128728
 20
-146.0214056709599
 10
71.47040064402476
 20
-146.0427652629685
 10
71.66280922687596
 20
-146.1440510702348
 97
        0
 97
        1
330
C1
 75
     2
 76
     1
 98
        1
 10
0.0
 20
0.0
450
        0
451
        0
460
0.0
461
0.0
452
        0
462
0.0
453
        0
470

  0
SPLINE
  5
C3
330
BC
100
AcDbEntity
  8
レイヤー 1
100
AcDbSpline
210
0.0
220
0.0
230
1.0
 70
    11
 71
     3
 72
    17
 73
    13
 74
     0
 42
0.0000000001
 43
0.0000000001
 40
0.0
 40
0.0
 40
0.0
 40
0.0
 40
1.0
 40
1.0
 40
1.0
 40
2.0
 40
2.0
 40
2.0
 40
3.0
 40
3.0
 40
3.0
 40
4.0
 40
4.0
 40
4.0
 40
4.0
 10
71.84057615391485
 20
-145.8050536744862
 30
0.0
 10
71.84057615391485
 20
-145.8050536744862
 30
0.0
 10
71.58891192871736
 20
-145.8050536744862
 30
0.0
 10
71.58891192871736
 20
-145.8050536744862
 30
0.0
 10
71.58891192871736
 20
-145.8050536744862
 30
0.0
 10
71.58891192871736
 20
-145.5532171945145
 30
0.0
 10
71.58891192871736
 20
-145.5532171945145
 30
0.0
 10
71.58891192871736
 20
-145.5532171945145
 30
0.0
 10
71.84057615391485
 20
-145.5532171945145
 30
0.0
 10
71.84057615391485
 20
-145.5532171945145
 30
0.0
 10
71.84057615391485
 20
-145.5532171945145
 30
0.0
 10
71.84057615391485
 20
-145.8050536744862
 30
0.0
 10
71.84057615391485
 20
-145.8050536744862
 30
0.0
  0
HATCH
  5
C4
330
BC
100
AcDbEntity
  8
レイヤー 1
 62
   250
420
  2299925
440
 33554687
100
AcDbHatch
 10
0.0
 20
0.0
 30
0.0
210
0.0
220
0.0
230
1.0
  2
SOLID
 70
     1
 71
     1
 91
        1
 92
        1
 93
        1
 72
     4
 94
        3
 73
     0
 74
     0
 95
       17
 96
       13
 40
0.0
 40
0.0
 40
0.0
 40
0.0
 40
1.0
 40
1.0
 40
1.0
 40
2.0
 40
2.0
 40
2.0
 40
3.0
 40
3.0
 40
3.0
 40
4.0
 40
4.0
 40
4.0
 40
4.0
 10
71.84057615391485
 20
-145.8050536744862
 10
71.84057615391485
 20
-145.8050536744862
 10
71.58891192871736
 20
-145.8050536744862
 10
71.58891192871736
 20
-145.8050536744862
 10
71.58891192871736
 20
-145.8050536744862
 10
71.58891192871736
 20
-145.5532171945145
 10
71.58891192871736
 20
-145.5532171945145
 10
71.58891192871736
 20
-145.5532171945145
 10
71.84057615391485
 20
-145.5532171945145
 10
71.84057615391485
 20
-145.5532171945145
 10
71.84057615391485
 20
-145.5532171945145
 10
71.84057615391485
 20
-145.8050536744862
 10
71.84057615391485
 20
-145.8050536744862
 97
        0
 97
        1
330
C3
 75
     2
 76
     1
 98
        1
 10
0.0
 20
0.0
450
        0
451
        0
460
0.0
461
0.0
452
        0
462
0.0
453
        0
470

  0
SPLINE
  5
C5
330
BC
100
AcDbEntity
  8
レイヤー 1
100
AcDbSpline
210
0.0
220
0.0
230
1.0
 70
     9
 71
     3
 72
    53
 73
    49
 74
     0
 42
0.0000000001
 43
0.0000000001
 40
0.0
 40
0.0
 40
0.0
 40
0.0
 40
1.0
 40
1.0
 40
1.0
 40
2.0
 40
2.0
 40
2.0
 40
3.0
 40
3.0
 40
3.0
 40
4.0
 40
4.0
 40
4.0
 40
5.0
 40
5.0
 40
5.0
 40
6.0
 40
6.0
 40
6.0
 40
7.0
 40
7.0
 40
7.0
 40
8.0
 40
8.0
 40
8.0
 40
9.0
 40
9.0
 40
9.0
 40
10.0
 40
10.0
 40
10.0
 40
11.0
 40
11.0
 40
11.0
 40
12.0
 40
12.0
 40
12.0
 40
13.0
 40
13.0
 40
13.0
 40
14.0
 40
14.0
 40
14.0
 40
15.0
 40
15.0
 40
15.0
 40
16.0
 40
16.0
 40
16.0
 40
16.0
 10
71.8913913123223
 20
-144.8359483144854
 30
0.0
 10
71.8913913123223
 20
-144.9141519820006
 30
0.0
 10
71.87451034444457
 20
-145.0157822988155
 30
0.0
 10
71.81094833274172
 20
-145.1174126156304
 30
0.0
 10
71.70087753198798
 20
-145.2907009185384
 30
0.0
 10
71.56979164877423
 20
-145.312060510547
 30
0.0
 10
71.46196016008591
 20
-145.3310085357158
 30
0.0
 10
71.46196016008591
 20
-145.3310085357158
 30
0.0
 10
71.46196016008591
 20
-145.1087998769172
 30
0.0
 10
71.46196016008591
 20
-145.1087998769172
 30
0.0
 10
71.66074216958482
 20
-145.0540228587018
 30
0.0
 10
71.69036999075797
 20
-144.9268988352961
 30
0.0
 10
71.69036999075797
 20
-144.8338812571943
 30
0.0
 10
71.69036999075797
 20
-144.6943548900417
 30
0.0
 10
71.59097898600851
 20
-144.5420816695936
 30
0.0
 10
71.35826278597988
 20
-144.5420816695936
 30
0.0
 10
71.10229219142581
 20
-144.5420816695936
 30
0.0
 10
71.0325290078495
 20
-144.7219156539237
 30
0.0
 10
71.0325290078495
 20
-144.8424939959074
 30
0.0
 10
71.0325290078495
 20
-144.8741888743717
 30
0.0
 10
71.0325290078495
 20
-145.0157822988155
 30
0.0
 10
71.16154783377211
 20
-145.1046657623349
 30
0.0
 10
71.16154783377211
 20
-145.1046657623349
 30
0.0
 10
71.14242755382898
 20
-145.2803656320827
 30
0.0
 10
71.14242755382898
 20
-145.2803656320827
 30
0.0
 10
71.14242755382898
 20
-145.2803656320827
 30
0.0
 10
70.29631210265162
 20
-145.159787290099
 30
0.0
 10
70.29631210265162
 20
-145.159787290099
 30
0.0
 10
70.29631210265162
 20
-145.159787290099
 30
0.0
 10
70.29631210265162
 20
-144.3811957104325
 30
0.0
 10
70.29631210265162
 20
-144.3811957104325
 30
0.0
 10
70.29631210265162
 20
-144.3811957104325
 30
0.0
 10
70.49095999756824
 20
-144.3811957104325
 30
0.0
 10
70.49095999756824
 20
-144.3811957104325
 30
0.0
 10
70.49095999756824
 20
-144.3811957104325
 30
0.0
 10
70.49095999756824
 20
-144.9968342736466
 30
0.0
 10
70.49095999756824
 20
-144.9968342736466
 30
0.0
 10
70.49095999756824
 20
-144.9968342736466
 30
0.0
 10
70.91401772315691
 20
-145.0622910878664
 30
0.0
 10
70.91401772315691
 20
-145.0622910878664
 30
0.0
 10
70.88008353262721
 20
-145.0009683882289
 30
0.0
 10
70.83994817022404
 20
-144.9186306061315
 30
0.0
 10
70.83994817022404
 20
-144.8001193214389
 30
0.0
 10
70.83994817022404
 20
-144.5462157841759
 30
0.0
 10
71.02615558120179
 20
-144.3091932147907
 30
0.0
 10
71.33914250603675
 20
-144.3091932147907
 30
0.0
 10
71.65660805500252
 20
-144.3091932147907
 30
0.0
 10
71.8913913123223
 20
-144.5334689308805
 30
0.0
 10
71.8913913123223
 20
-144.8359483144854
 30
0.0
  0
HATCH
  5
C6
330
BC
100
AcDbEntity
  8
レイヤー 1
 62
   250
420
  2299925
440
 33554687
100
AcDbHatch
 10
0.0
 20
0.0
 30
0.0
210
0.0
220
0.0
230
1.0
  2
SOLID
 70
     1
 71
     1
 91
        1
 92
        1
 93
        1
 72
     4
 94
        3
 73
     0
 74
     0
 95
       53
 96
       49
 40
0.0
 40
0.0
 40
0.0
 40
0.0
 40
1.0
 40
1.0
 40
1.0
 40
2.0
 40
2.0
 40
2.0
 40
3.0
 40
3.0
 40
3.0
 40
4.0
 40
4.0
 40
4.0
 40
5.0
 40
5.0
 40
5.0
 40
6.0
 40
6.0
 40
6.0
 40
7.0
 40
7.0
 40
7.0
 40
8.0
 40
8.0
 40
8.0
 40
9.0
 40
9.0
 40
9.0
 40
10.0
 40
10.0
 40
10.0
 40
11.0
 40
11.0
 40
11.0
 40
12.0
 40
12.0
 40
12.0
 40
13.0
 40
13.0
 40
13.0
 40
14.0
 40
14.0
 40
14.0
 40
15.0
 40
15.0
 40
15.0
 40
16.0
 40
16.0
 40
16.0
 40
16.0
 10
71.8913913123223
 20
-144.8359483144854
 10
71.8913913123223
 20
-144.9141519820006
 10
71.87451034444457
 20
-145.0157822988155
 10
71.81094833274172
 20
-145.1174126156304
 10
71.70087753198798
 20
-145.2907009185384
 10
71.56979164877423
 20
-145.312060510547
 10
71.46196016008591
 20
-145.3310085357158
 10
71.46196016008591
 20
-145.3310085357158
 10
71.46196016008591
 20
-145.1087998769172
 10
71.46196016008591
 20
-145.1087998769172
 10
71.66074216958482
 20
-145.0540228587018
 10
71.69036999075797
 20
-144.9268988352961
 10
71.69036999075797
 20
-144.8338812571943
 10
71.69036999075797
 20
-144.6943548900417
 10
71.59097898600851
 20
-144.5420816695936
 10
71.35826278597988
 20
-144.5420816695936
 10
71.10229219142581
 20
-144.5420816695936
 10
71.0325290078495
 20
-144.7219156539237
 10
71.0325290078495
 20
-144.8424939959074
 10
71.0325290078495
 20
-144.8741888743717
 10
71.0325290078495
 20
-145.0157822988155
 10
71.16154783377211
 20
-145.1046657623349
 10
71.16154783377211
 20
-145.1046657623349
 10
71.14242755382898
 20
-145.2803656320827
 10
71.14242755382898
 20
-145.2803656320827
 10
71.14242755382898
 20
-145.2803656320827
 10
70.29631210265162
 20
-145.159787290099
 10
70.29631210265162
 20
-145.159787290099
 10
70.29631210265162
 20
-145.159787290099
 10
70.29631210265162
 20
-144.3811957104325
 10
70.29631210265162
 20
-144.3811957104325
 10
70.29631210265162
 20
-144.3811957104325
 10
70.49095999756824
 20
-144.3811957104325
 10
70.49095999756824
 20
-144.3811957104325
 10
70.49095999756824
 20
-144.3811957104325
 10
70.49095999756824
 20
-144.9968342736466
 10
70.49095999756824
 20
-144.9968342736466
 10
70.49095999756824
 20
-144.9968342736466
 10
70.91401772315691
 20
-145.0622910878664
 10
70.91401772315691
 20
-145.0622910878664
 10
70.88008353262721
 20
-145.0009683882289
 10
70.83994817022404
 20
-144.9186306061315
 10
70.83994817022404
 20
-144.8001193214389
 10
70.83994817022404
 20
-144.5462157841759
 10
71.02615558120179
 20
-144.3091932147907
 10
71.33914250603675
 20
-144.3091932147907
 10
71.65660805500252
 20
-144.3091932147907
 10
71.8913913123223
 20
-144.5334689308805
 10
71.8913913123223
 20
-144.8359483144854
 97
        0
 97
        1
330
C5
 75
     2
 76
     1
 98
        1
 10
0.0
 20
0.0
450
        0
451
        0
460
0.0
461
0.0
452
        0
462
0.0
453
        0
470

  0
ENDBLK
  5
BF
330
BC
100
AcDbEntity
  8
0
100
AcDbBlockEnd
  0
BLOCK
  5
CB
330
C9
100
AcDbEntity
  8
0
100
AcDbBlockBegin
  2
Block_3
 70
     0
 10
0.0
 20
0.0
 30
0.0
  3
Block_3
  1

  0
INSERT
  5
CE
330
C9
100
AcDbEntity
  8
レイヤー 1
100
AcDbBlockReference
  2
Block_4
 10
0.0
 20
0.0
 30
0.0
  0
ENDBLK
  5
CC
330
C9
100
AcDbEntity
  8
0
100
AcDbBlockEnd
  0
BLOCK
  5
CF
330
CD
100
AcDbEntity
  8
0
100
AcDbBlockBegin
  2
Block_4
 70
     0
 10
0.0
 20
0.0
 30
0.0
  3
Block_4
  1

  0
SPLINE
  5
D1
330
CD
100
AcDbEntity
  8
レイヤー 1
100
AcDbSpline
210
0.0
220
0.0
230
1.0
 70
     9
 71
     3
 72
    44
 73
    40
 74
     0
 42
0.0000000001
 43
0.0000000001
 40
0.0
 40
0.0
 40
0.0
 40
0.0
 40
1.0
 40
1.0
 40
1.0
 40
2.0
 40
2.0
 40
2.0
 40
3.0
 40
3.0
 40
3.0
 40
4.0
 40
4.0
 40
4.0
 40
5.0
 40
5.0
 40
5.0
 40
6.0
 40
6.0
 40
6.0
 40
7.0
 40
7.0
 40
7.0
 40
8.0
 40
8.0
 40
8.0
 40
9.0
 40
9.0
 40
9.0
 40
10.0
 40
10.0
 40
10.0
 40
11.0
 40
11.0
 40
11.0
 40
12.0
 40
12.0
 40
12.0
 40
13.0
 40
13.0
 40
13.0
 40
13.0
 10
87.28924558364644
 20
-139.3723713844277
 30
0.0
 10
87.07134329420439
 20
-139.5310180315235
 30
0.0
 10
86.97815346132838
 20
-139.6050875844563
 30
0.0
 10
86.92957761498636
 20
-139.7489203209655
 30
0.0
 10
86.92957761498636
 20
-139.7489203209655
 30
0.0
 10
87.70799693987855
 20
-139.7489203209655
 30
0.0
 10
87.70799693987855
 20
-139.7489203209655
 30
0.0
 10
87.70799693987855
 20
-139.7489203209655
 30
0.0
 10
87.70799693987855
 20
-139.9540757571122
 30
0.0
 10
87.70799693987855
 20
-139.9540757571122
 30
0.0
 10
87.70799693987855
 20
-139.9540757571122
 30
0.0
 10
86.67998044708001
 20
-139.9540757571122
 30
0.0
 10
86.67998044708001
 20
-139.9540757571122
 30
0.0
 10
86.71167532554431
 20
-139.5964748457432
 30
0.0
 10
86.77713213976405
 20
-139.5182711782281
 30
0.0
 10
87.16229381501499
 20
-139.2199259092054
 30
0.0
 10
87.41826440956904
 20
-139.0211438997065
 30
0.0
 10
87.4837212237888
 20
-138.9534477734214
 30
0.0
 10
87.4837212237888
 20
-138.8159884635599
 30
0.0
 10
87.4837212237888
 20
-138.6974771788673
 30
0.0
 10
87.41189098292133
 20
-138.5662190408792
 30
0.0
 10
87.21517603071356
 20
-138.5662190408792
 30
0.0
 10
86.95489906680295
 20
-138.5662190408792
 30
0.0
 10
86.94645858286408
 20
-138.7968681836167
 30
0.0
 10
86.94215221350752
 20
-138.9133124110182
 30
0.0
 10
86.94215221350752
 20
-138.9133124110182
 30
0.0
 10
86.71804875219201
 20
-138.9133124110182
 30
0.0
 10
86.71804875219201
 20
-138.9133124110182
 30
0.0
 10
86.72648923613088
 20
-138.7863606423867
 30
0.0
 10
86.7369967773609
 20
-138.6742227843418
 30
0.0
 10
86.81743975694148
 20
-138.5557114996492
 30
0.0
 10
86.92733830292095
 20
-138.3949977952623
 30
0.0
 10
87.1135457138987
 20
-138.3610636047326
 30
0.0
 10
87.22998994130014
 20
-138.3610636047326
 30
0.0
 10
87.50714787308849
 20
-138.3610636047326
 30
0.0
 10
87.71437036652626
 20
-138.5452039584192
 30
0.0
 10
87.71437036652626
 20
-138.818055520851
 30
0.0
 10
87.71437036652626
 20
-139.0464653515231
 30
0.0
 10
87.59809839389909
 20
-139.1460286110468
 30
0.0
 10
87.28924558364644
 20
-139.3723713844277
 30
0.0
  0
HATCH
  5
D2
330
CD
100
AcDbEntity
  8
レイヤー 1
 62
   250
420
  2299925
440
 33554687
100
AcDbHatch
 10
0.0
 20
0.0
 30
0.0
210
0.0
220
0.0
230
1.0
  2
SOLID
 70
     1
 71
     1
 91
        1
 92
        1
 93
        1
 72
     4
 94
        3
 73
     0
 74
     0
 95
       44
 96
       40
 40
0.0
 40
0.0
 40
0.0
 40
0.0
 40
1.0
 40
1.0
 40
1.0
 40
2.0
 40
2.0
 40
2.0
 40
3.0
 40
3.0
 40
3.0
 40
4.0
 40
4.0
 40
4.0
 40
5.0
 40
5.0
 40
5.0
 40
6.0
 40
6.0
 40
6.0
 40
7.0
 40
7.0
 40
7.0
 40
8.0
 40
8.0
 40
8.0
 40
9.0
 40
9.0
 40
9.0
 40
10.0
 40
10.0
 40
10.0
 40
11.0
 40
11.0
 40
11.0
 40
12.0
 40
12.0
 40
12.0
 40
13.0
 40
13.0
 40
13.0
 40
13.0
 10
87.28924558364644
 20
-139.3723713844277
 10
87.07134329420439
 20
-139.5310180315235
 10
86.97815346132838
 20
-139.6050875844563
 10
86.92957761498636
 20
-139.7489203209655
 10
86.92957761498636
 20
-139.7489203209655
 10
87.70799693987855
 20
-139.7489203209655
 10
87.70799693987855
 20
-139.7489203209655
 10
87.70799693987855
 20
-139.7489203209655
 10
87.70799693987855
 20
-139.9540757571122
 10
87.70799693987855
 20
-139.9540757571122
 10
87.70799693987855
 20
-139.9540757571122
 10
86.67998044708001
 20
-139.9540757571122
 10
86.67998044708001
 20
-139.9540757571122
 10
86.71167532554431
 20
-139.5964748457432
 10
86.77713213976405
 20
-139.5182711782281
 10
87.16229381501499
 20
-139.2199259092054
 10
87.41826440956904
 20
-139.0211438997065
 10
87.4837212237888
 20
-138.9534477734214
 10
87.4837212237888
 20
-138.8159884635599
 10
87.4837212237888
 20
-138.6974771788673
 10
87.41189098292133
 20
-138.5662190408792
 10
87.21517603071356
 20
-138.5662190408792
 10
86.95489906680295
 20
-138.5662190408792
 10
86.94645858286408
 20
-138.7968681836167
 10
86.94215221350752
 20
-138.9133124110182
 10
86.94215221350752
 20
-138.9133124110182
 10
86.71804875219201
 20
-138.9133124110182
 10
86.71804875219201
 20
-138.9133124110182
 10
86.72648923613088
 20
-138.7863606423867
 10
86.7369967773609
 20
-138.6742227843418
 10
86.81743975694148
 20
-138.5557114996492
 10
86.92733830292095
 20
-138.3949977952623
 10
87.1135457138987
 20
-138.3610636047326
 10
87.22998994130014
 20
-138.3610636047326
 10
87.50714787308849
 20
-138.3610636047326
 10
87.71437036652626
 20
-138.5452039584192
 10
87.71437036652626
 20
-138.818055520851
 10
87.71437036652626
 20
-139.0464653515231
 10
87.59809839389909
 20
-139.1460286110468
 10
87.28924558364644
 20
-139.3723713844277
 97
        0
 97
        1
330
D1
 75
     2
 76
     1
 98
        1
 10
0.0
 20
0.0
450
        0
451
        0
460
0.0
461
0.0
452
        0
462
0.0
453
        0
470

  0
SPLINE
  5
D3
330
CD
100
AcDbEntity
  8
レイヤー 1
100
AcDbSpline
210
0.0
220
0.0
230
1.0
 70
    11
 71
     3
 72
    26
 73
    22
 74
     0
 42
0.0000000001
 43
0.0000000001
 40
0.0
 40
0.0
 40
0.0
 40
0.0
 40
1.0
 40
1.0
 40
1.0
 40
2.0
 40
2.0
 40
2.0
 40
3.0
 40
3.0
 40
3.0
 40
4.0
 40
4.0
 40
4.0
 40
5.0
 40
5.0
 40
5.0
 40
6.0
 40
6.0
 40
6.0
 40
7.0
 40
7.0
 40
7.0
 40
7.0
 10
88.32432452218975
 20
-139.9540757571122
 30
0.0
 10
88.32432452218975
 20
-139.9540757571122
 30
0.0
 10
88.32432452218975
 20
-138.8497503993153
 30
0.0
 10
88.32432452218975
 20
-138.8497503993153
 30
0.0
 10
88.32432452218975
 20
-138.8497503993153
 30
0.0
 10
87.99428437470281
 20
-138.8497503993153
 30
0.0
 10
87.99428437470281
 20
-138.8497503993153
 30
0.0
 10
87.99428437470281
 20
-138.8497503993153
 30
0.0
 10
87.99428437470281
 20
-138.7016112934496
 30
0.0
 10
87.99428437470281
 20
-138.7016112934496
 30
0.0
 10
88.32639157948092
 20
-138.6869696376373
 30
0.0
 10
88.37290036853177
 20
-138.524016621185
 30
0.0
 10
88.40252818970492
 20
-138.4098117058489
 30
0.0
 10
88.40252818970492
 20
-138.4098117058489
 30
0.0
 10
88.54860023827951
 20
-138.4098117058489
 30
0.0
 10
88.54860023827951
 20
-138.4098117058489
 30
0.0
 10
88.54860023827951
 20
-138.4098117058489
 30
0.0
 10
88.54860023827951
 20
-139.9540757571122
 30
0.0
 10
88.54860023827951
 20
-139.9540757571122
 30
0.0
 10
88.54860023827951
 20
-139.9540757571122
 30
0.0
 10
88.32432452218975
 20
-139.9540757571122
 30
0.0
 10
88.32432452218975
 20
-139.9540757571122
 30
0.0
  0
HATCH
  5
D4
330
CD
100
AcDbEntity
  8
レイヤー 1
 62
   250
420
  2299925
440
 33554687
100
AcDbHatch
 10
0.0
 20
0.0
 30
0.0
210
0.0
220
0.0
230
1.0
  2
SOLID
 70
     1
 71
     1
 91
        1
 92
        1
 93
        1
 72
     4
 94
        3
 73
     0
 74
     0
 95
       26
 96
       22
 40
0.0
 40
0.0
 40
0.0
 40
0.0
 40
1.0
 40
1.0
 40
1.0
 40
2.0
 40
2.0
 40
2.0
 40
3.0
 40
3.0
 40
3.0
 40
4.0
 40
4.0
 40
4.0
 40
5.0
 40
5.0
 40
5.0
 40
6.0
 40
6.0
 40
6.0
 40
7.0
 40
7.0
 40
7.0
 40
7.0
 10
88.32432452218975
 20
-139.9540757571122
 10
88.32432452218975
 20
-139.9540757571122
 10
88.32432452218975
 20
-138.8497503993153
 10
88.32432452218975
 20
-138.8497503993153
 10
88.32432452218975
 20
-138.8497503993153
 10
87.99428437470281
 20
-138.8497503993153
 10
87.99428437470281
 20
-138.8497503993153
 10
87.99428437470281
 20
-138.8497503993153
 10
87.99428437470281
 20
-138.7016112934496
 10
87.99428437470281
 20
-138.7016112934496
 10
88.32639157948092
 20
-138.6869696376373
 10
88.37290036853177
 20
-138.524016621185
 10
88.40252818970492
 20
-138.4098117058489
 10
88.40252818970492
 20
-138.4098117058489
 10
88.54860023827951
 20
-138.4098117058489
 10
88.54860023827951
 20
-138.4098117058489
 10
88.54860023827951
 20
-138.4098117058489
 10
88.54860023827951
 20
-139.9540757571122
 10
88.54860023827951
 20
-139.9540757571122
 10
88.54860023827951
 20
-139.9540757571122
 10
88.32432452218975
 20
-139.9540757571122
 10
88.32432452218975
 20
-139.9540757571122
 97
        0
 97
        1
330
D3
 75
     2
 76
     1
 98
        1
 10
0.0
 20
0.0
450
        0
451
        0
460
0.0
461
0.0
452
        0
462
0.0
453
        0
470

  0
ENDBLK
  5
D0
330
CD
100
AcDbEntity
  8
0
100
AcDbBlockEnd
  0
BLOCK
  5
D9
330
D7
100
AcDbEntity
  8
0
100
AcDbBlockBegin
  2
Block_5
 70
     0
 10
0.0
 20
0.0
 30
0.0
  3
Block_5
  1

  0
SPLINE
  5
DB
330
D7
100
AcDbEntity
  8
レイヤー 1
100
AcDbSpline
210
0.0
220
0.0
230
1.0
 70
     9
 71
     3
 72
    17
 73
    13
 74
     0
 42
0.0000000001
 43
0.0000000001
 40
0.0
 40
0.0
 40
0.0
 40
0.0
 40
1.0
 40
1.0
 40
1.0
 40
2.0
 40
2.0
 40
2.0
 40
3.0
 40
3.0
 40
3.0
 40
4.0
 40
4.0
 40
4.0
 40
4.0
 10
71.83075763178189
 20
-149.9281439512332
 30
0.0
 10
71.83075763178189
 20
-150.0718044329682
 30
0.0
 10
71.91740178323593
 20
-150.2244221629647
 30
0.0
 10
72.12049016209141
 20
-150.2244221629647
 30
0.0
 10
72.32564559823804
 20
-150.2244221629647
 30
0.0
 10
72.4272759150529
 20
-150.097298139559
 30
0.0
 10
72.4272759150529
 20
-149.9281439512332
 30
0.0
 10
72.4272759150529
 20
-149.7421087950297
 30
0.0
 10
72.30463051577801
 20
-149.6318657395017
 30
0.0
 10
72.12686358873913
 20
-149.6318657395017
 30
0.0
 10
71.9046549299405
 20
-149.6318657395017
 30
0.0
 10
71.83075763178189
 20
-149.7948187559541
 30
0.0
 10
71.83075763178189
 20
-149.9281439512332
 30
0.0
  0
SPLINE
  5
DC
330
D7
100
AcDbEntity
  8
レイヤー 1
100
AcDbSpline
210
0.0
220
0.0
230
1.0
 70
     9
 71
     3
 72
    17
 73
    13
 74
     0
 42
0.0000000001
 43
0.0000000001
 40
0.0
 40
0.0
 40
0.0
 40
0.0
 40
1.0
 40
1.0
 40
1.0
 40
2.0
 40
2.0
 40
2.0
 40
3.0
 40
3.0
 40
3.0
 40
4.0
 40
4.0
 40
4.0
 40
4.0
 10
71.17067733680802
 20
-149.9281439512332
 30
0.0
 10
71.17067733680802
 20
-150.0931640249767
 30
0.0
 10
71.26576197220092
 20
-150.1779133739138
 30
0.0
 10
71.40115422477125
 20
-150.1779133739138
 30
0.0
 10
71.52397187882041
 20
-150.1779133739138
 30
0.0
 10
71.64248316351299
 20
-150.1059108782721
 30
0.0
 10
71.64248316351299
 20
-149.9281439512332
 30
0.0
 10
71.64248316351299
 20
-149.7503770241943
 30
0.0
 10
71.52397187882041
 20
-149.6783745285526
 30
0.0
 10
71.40115422477125
 20
-149.6783745285526
 30
0.0
 10
71.26576197220092
 20
-149.6783745285526
 30
0.0
 10
71.17067733680802
 20
-149.7651909347809
 30
0.0
 10
71.17067733680802
 20
-149.9281439512332
 30
0.0
  0
SPLINE
  5
DD
330
D7
100
AcDbEntity
  8
レイヤー 1
100
AcDbSpline
210
0.0
220
0.0
230
1.0
 70
     9
 71
     3
 72
    29
 73
    25
 74
     0
 42
0.0000000001
 43
0.0000000001
 40
0.0
 40
0.0
 40
0.0
 40
0.0
 40
1.0
 40
1.0
 40
1.0
 40
2.0
 40
2.0
 40
2.0
 40
3.0
 40
3.0
 40
3.0
 40
4.0
 40
4.0
 40
4.0
 40
5.0
 40
5.0
 40
5.0
 40
6.0
 40
6.0
 40
6.0
 40
7.0
 40
7.0
 40
7.0
 40
8.0
 40
8.0
 40
8.0
 40
8.0
 10
72.62192380996951
 20
-149.9281439512332
 30
0.0
 10
72.62192380996951
 20
-150.1947943417915
 30
0.0
 10
72.48429224533379
 20
-150.4486978790545
 30
0.0
 10
72.13530407267798
 20
-150.4486978790545
 30
0.0
 10
71.87933347812393
 20
-150.4486978790545
 30
0.0
 10
71.78407658795676
 20
-150.3067599450622
 30
0.0
 10
71.72275388831931
 20
-150.200995513665
 30
0.0
 10
71.66349824597301
 20
-150.3257079702311
 30
0.0
 10
71.54929333063698
 20
-150.4018445804551
 30
0.0
 10
71.38857962625007
 20
-150.4018445804551
 30
0.0
 10
71.11348875175288
 20
-150.4018445804551
 30
0.0
 10
70.97809649918255
 20
-150.2030625709562
 30
0.0
 10
70.97809649918255
 20
-149.9281439512332
 30
0.0
 10
70.97809649918255
 20
-149.6446125927972
 30
0.0
 10
71.12192923569174
 20
-149.4540988124628
 30
0.0
 10
71.38857962625007
 20
-149.4540988124628
 30
0.0
 10
71.54929333063698
 20
-149.4540988124628
 30
0.0
 10
71.66349824597301
 20
-149.5326469895266
 30
0.0
 10
71.72275388831931
 20
-149.6573594460926
 30
0.0
 10
71.77356904672675
 20
-149.5684759825732
 30
0.0
 10
71.86882593689391
 20
-149.4096570807031
 30
0.0
 10
72.13099770332142
 20
-149.4096570807031
 30
0.0
 10
72.50547958256807
 20
-149.4096570807031
 30
0.0
 10
72.62192380996951
 20
-149.6890543245569
 30
0.0
 10
72.62192380996951
 20
-149.9281439512332
 30
0.0
  0
HATCH
  5
DE
330
D7
100
AcDbEntity
  8
レイヤー 1
 62
   250
420
  2299925
440
 33554687
100
AcDbHatch
 10
0.0
 20
0.0
 30
0.0
210
0.0
220
0.0
230
1.0
  2
SOLID
 70
     1
 71
     1
 91
        3
 92
        1
 93
        1
 72
     4
 94
        3
 73
     0
 74
     0
 95
       17
 96
       13
 40
0.0
 40
0.0
 40
0.0
 40
0.0
 40
1.0
 40
1.0
 40
1.0
 40
2.0
 40
2.0
 40
2.0
 40
3.0
 40
3.0
 40
3.0
 40
4.0
 40
4.0
 40
4.0
 40
4.0
 10
71.83075763178189
 20
-149.9281439512332
 10
71.83075763178189
 20
-150.0718044329682
 10
71.91740178323593
 20
-150.2244221629647
 10
72.12049016209141
 20
-150.2244221629647
 10
72.32564559823804
 20
-150.2244221629647
 10
72.4272759150529
 20
-150.097298139559
 10
72.4272759150529
 20
-149.9281439512332
 10
72.4272759150529
 20
-149.7421087950297
 10
72.30463051577801
 20
-149.6318657395017
 10
72.12686358873913
 20
-149.6318657395017
 10
71.9046549299405
 20
-149.6318657395017
 10
71.83075763178189
 20
-149.7948187559541
 10
71.83075763178189
 20
-149.9281439512332
 97
        0
 97
        1
330
DB
 92
        1
 93
        1
 72
     4
 94
        3
 73
     0
 74
     0
 95
       17
 96
       13
 40
0.0
 40
0.0
 40
0.0
 40
0.0
 40
1.0
 40
1.0
 40
1.0
 40
2.0
 40
2.0
 40
2.0
 40
3.0
 40
3.0
 40
3.0
 40
4.0
 40
4.0
 40
4.0
 40
4.0
 10
71.17067733680802
 20
-149.9281439512332
 10
71.17067733680802
 20
-150.0931640249767
 10
71.26576197220092
 20
-150.1779133739138
 10
71.40115422477125
 20
-150.1779133739138
 10
71.52397187882041
 20
-150.1779133739138
 10
71.64248316351299
 20
-150.1059108782721
 10
71.64248316351299
 20
-149.9281439512332
 10
71.64248316351299
 20
-149.7503770241943
 10
71.52397187882041
 20
-149.6783745285526
 10
71.40115422477125
 20
-149.6783745285526
 10
71.26576197220092
 20
-149.6783745285526
 10
71.17067733680802
 20
-149.7651909347809
 10
71.17067733680802
 20
-149.9281439512332
 97
        0
 97
        1
330
DC
 92
        1
 93
        1
 72
     4
 94
        3
 73
     0
 74
     0
 95
       29
 96
       25
 40
0.0
 40
0.0
 40
0.0
 40
0.0
 40
1.0
 40
1.0
 40
1.0
 40
2.0
 40
2.0
 40
2.0
 40
3.0
 40
3.0
 40
3.0
 40
4.0
 40
4.0
 40
4.0
 40
5.0
 40
5.0
 40
5.0
 40
6.0
 40
6.0
 40
6.0
 40
7.0
 40
7.0
 40
7.0
 40
8.0
 40
8.0
 40
8.0
 40
8.0
 10
72.62192380996951
 20
-149.9281439512332
 10
72.62192380996951
 20
-150.1947943417915
 10
72.48429224533379
 20
-150.4486978790545
 10
72.13530407267798
 20
-150.4486978790545
 10
71.87933347812393
 20
-150.4486978790545
 10
71.78407658795676
 20
-150.3067599450622
 10
71.72275388831931
 20
-150.200995513665
 10
71.66349824597301
 20
-150.3257079702311
 10
71.54929333063698
 20
-150.4018445804551
 10
71.38857962625007
 20
-150.4018445804551
 10
71.11348875175288
 20
-150.4018445804551
 10
70.97809649918255
 20
-150.2030625709562
 10
70.97809649918255
 20
-149.9281439512332
 10
70.97809649918255
 20
-149.6446125927972
 10
71.12192923569174
 20
-149.4540988124628
 10
71.38857962625007
 20
-149.4540988124628
 10
71.54929333063698
 20
-149.4540988124628
 10
71.66349824597301
 20
-149.5326469895266
 10
71.72275388831931
 20
-149.6573594460926
 10
71.77356904672675
 20
-149.5684759825732
 10
71.86882593689391
 20
-149.4096570807031
 10
72.13099770332142
 20
-149.4096570807031
 10
72.50547958256807
 20
-149.4096570807031
 10
72.62192380996951
 20
-149.6890543245569
 10
72.62192380996951
 20
-149.9281439512332
 97
        0
 97
        1
330
DD
 75
     2
 76
     1
 98
        1
 10
0.0
 20
0.0
450
        0
451
        0
460
0.0
461
0.0
452
        0
462
0.0
453
        0
470

  0
ENDBLK
  5
DA
330
D7
100
AcDbEntity
  8
0
100
AcDbBlockEnd
  0
BLOCK
  5
E4
330
E2
100
AcDbEntity
  8
0
100
AcDbBlockBegin
  2
Block_6
 70
     0
 10
0.0
 20
0.0
 30
0.0
  3
Block_6
  1

  0
INSERT
  5
E7
330
E2
100
AcDbEntity
  8
レイヤー 1
100
AcDbBlockReference
  2
Block_7
 10
0.0
 20
0.0
 30
0.0
  0
ENDBLK
  5
E5
330
E2
100
AcDbEntity
  8
0
100
AcDbBlockEnd
  0
BLOCK
  5
E8
330
E6
100
AcDbEntity
  8
0
100
AcDbBlockBegin
  2
Block_7
 70
     0
 10
0.0
 20
0.0
 30
0.0
  3
Block_7
  1

  0
SPLINE
  5
EA
330
E6
100
AcDbEntity
  8
レイヤー 1
100
AcDbSpline
210
0.0
220
0.0
230
1.0
 70
    11
 71
     3
 72
    26
 73
    22
 74
     0
 42
0.0000000001
 43
0.0000000001
 40
0.0
 40
0.0
 40
0.0
 40
0.0
 40
1.0
 40
1.0
 40
1.0
 40
2.0
 40
2.0
 40
2.0
 40
3.0
 40
3.0
 40
3.0
 40
4.0
 40
4.0
 40
4.0
 40
5.0
 40
5.0
 40
5.0
 40
6.0
 40
6.0
 40
6.0
 40
7.0
 40
7.0
 40
7.0
 40
7.0
 10
105.1484483244073
 20
-139.9528699736923
 30
0.0
 10
105.1484483244073
 20
-139.9528699736923
 30
0.0
 10
105.1484483244073
 20
-138.8485446158955
 30
0.0
 10
105.1484483244073
 20
-138.8485446158955
 30
0.0
 10
105.1484483244073
 20
-138.8485446158955
 30
0.0
 10
104.8184081769204
 20
-138.8485446158955
 30
0.0
 10
104.8184081769204
 20
-138.8485446158955
 30
0.0
 10
104.8184081769204
 20
-138.8485446158955
 30
0.0
 10
104.8184081769204
 20
-138.700577764804
 30
0.0
 10
104.8184081769204
 20
-138.700577764804
 30
0.0
 10
105.1505153816985
 20
-138.6857638542174
 30
0.0
 10
105.1970241707493
 20
-138.5228108377651
 30
0.0
 10
105.2266519919225
 20
-138.4086059224291
 30
0.0
 10
105.2266519919225
 20
-138.4086059224291
 30
0.0
 10
105.3725517857228
 20
-138.4086059224291
 30
0.0
 10
105.3725517857228
 20
-138.4086059224291
 30
0.0
 10
105.3725517857228
 20
-138.4086059224291
 30
0.0
 10
105.3725517857228
 20
-139.9528699736923
 30
0.0
 10
105.3725517857228
 20
-139.9528699736923
 30
0.0
 10
105.3725517857228
 20
-139.9528699736923
 30
0.0
 10
105.1484483244073
 20
-139.9528699736923
 30
0.0
 10
105.1484483244073
 20
-139.9528699736923
 30
0.0
  0
HATCH
  5
EB
330
E6
100
AcDbEntity
  8
レイヤー 1
 62
   250
420
  2299925
440
 33554687
100
AcDbHatch
 10
0.0
 20
0.0
 30
0.0
210
0.0
220
0.0
230
1.0
  2
SOLID
 70
     1
 71
     1
 91
        1
 92
        1
 93
        1
 72
     4
 94
        3
 73
     0
 74
     0
 95
       26
 96
       22
 40
0.0
 40
0.0
 40
0.0
 40
0.0
 40
1.0
 40
1.0
 40
1.0
 40
2.0
 40
2.0
 40
2.0
 40
3.0
 40
3.0
 40
3.0
 40
4.0
 40
4.0
 40
4.0
 40
5.0
 40
5.0
 40
5.0
 40
6.0
 40
6.0
 40
6.0
 40
7.0
 40
7.0
 40
7.0
 40
7.0
 10
105.1484483244073
 20
-139.9528699736923
 10
105.1484483244073
 20
-139.9528699736923
 10
105.1484483244073
 20
-138.8485446158955
 10
105.1484483244073
 20
-138.8485446158955
 10
105.1484483244073
 20
-138.8485446158955
 10
104.8184081769204
 20
-138.8485446158955
 10
104.8184081769204
 20
-138.8485446158955
 10
104.8184081769204
 20
-138.8485446158955
 10
104.8184081769204
 20
-138.700577764804
 10
104.8184081769204
 20
-138.700577764804
 10
105.1505153816985
 20
-138.6857638542174
 10
105.1970241707493
 20
-138.5228108377651
 10
105.2266519919225
 20
-138.4086059224291
 10
105.2266519919225
 20
-138.4086059224291
 10
105.3725517857228
 20
-138.4086059224291
 10
105.3725517857228
 20
-138.4086059224291
 10
105.3725517857228
 20
-138.4086059224291
 10
105.3725517857228
 20
-139.9528699736923
 10
105.3725517857228
 20
-139.9528699736923
 10
105.3725517857228
 20
-139.9528699736923
 10
105.1484483244073
 20
-139.9528699736923
 10
105.1484483244073
 20
-139.9528699736923
 97
        0
 97
        1
330
EA
 75
     2
 76
     1
 98
        1
 10
0.0
 20
0.0
450
        0
451
        0
460
0.0
461
0.0
452
        0
462
0.0
453
        0
470

  0
SPLINE
  5
EC
330
E6
100
AcDbEntity
  8
レイヤー 1
100
AcDbSpline
210
0.0
220
0.0
230
1.0
 70
     9
 71
     3
 72
    53
 73
    49
 74
     0
 42
0.0000000001
 43
0.0000000001
 40
0.0
 40
0.0
 40
0.0
 40
0.0
 40
1.0
 40
1.0
 40
1.0
 40
2.0
 40
2.0
 40
2.0
 40
3.0
 40
3.0
 40
3.0
 40
4.0
 40
4.0
 40
4.0
 40
5.0
 40
5.0
 40
5.0
 40
6.0
 40
6.0
 40
6.0
 40
7.0
 40
7.0
 40
7.0
 40
8.0
 40
8.0
 40
8.0
 40
9.0
 40
9.0
 40
9.0
 40
10.0
 40
10.0
 40
10.0
 40
11.0
 40
11.0
 40
11.0
 40
12.0
 40
12.0
 40
12.0
 40
13.0
 40
13.0
 40
13.0
 40
14.0
 40
14.0
 40
14.0
 40
15.0
 40
15.0
 40
15.0
 40
16.0
 40
16.0
 40
16.0
 40
16.0
 10
106.3549207633418
 20
-140.0036851320997
 30
0.0
 10
106.2767170958266
 20
-140.0036851320997
 30
0.0
 10
106.1750867790118
 20
-139.9866319094478
 30
0.0
 10
106.0734564621969
 20
-139.9232421525192
 30
0.0
 10
105.9001681592888
 20
-139.8131713517654
 30
0.0
 10
105.8788085672803
 20
-139.6820854685517
 30
0.0
 10
105.8598605421114
 20
-139.5742539798634
 30
0.0
 10
105.8598605421114
 20
-139.5742539798634
 30
0.0
 10
106.08206920091
 20
-139.5742539798634
 30
0.0
 10
106.08206920091
 20
-139.5742539798634
 30
0.0
 10
106.1368462191255
 20
-139.7730359893623
 30
0.0
 10
106.2639702425312
 20
-139.8026638105354
 30
0.0
 10
106.356987820633
 20
-139.8026638105354
 30
0.0
 10
106.4965141877856
 20
-139.8026638105354
 30
0.0
 10
106.6487874082336
 20
-139.703272805786
 30
0.0
 10
106.6487874082336
 20
-139.4705566057574
 30
0.0
 10
106.6487874082336
 20
-139.2145860112033
 30
0.0
 10
106.4689534239036
 20
-139.144822827627
 30
0.0
 10
106.3483750819198
 20
-139.144822827627
 30
0.0
 10
106.3166802034555
 20
-139.144822827627
 30
0.0
 10
106.1750867790118
 20
-139.144822827627
 30
0.0
 10
106.0862033154923
 20
-139.2738416535496
 30
0.0
 10
106.0862033154923
 20
-139.2738416535496
 30
0.0
 10
105.9105034457446
 20
-139.2547213736064
 30
0.0
 10
105.9105034457446
 20
-139.2547213736064
 30
0.0
 10
105.9105034457446
 20
-139.2547213736064
 30
0.0
 10
106.0310817877283
 20
-138.4086059224291
 30
0.0
 10
106.0310817877283
 20
-138.4086059224291
 30
0.0
 10
106.0310817877283
 20
-138.4086059224291
 30
0.0
 10
106.8096733673948
 20
-138.4086059224291
 30
0.0
 10
106.8096733673948
 20
-138.4086059224291
 30
0.0
 10
106.8096733673948
 20
-138.4086059224291
 30
0.0
 10
106.8096733673948
 20
-138.6032538173457
 30
0.0
 10
106.8096733673948
 20
-138.6032538173457
 30
0.0
 10
106.8096733673948
 20
-138.6032538173457
 30
0.0
 10
106.1940348041806
 20
-138.6032538173457
 30
0.0
 10
106.1940348041806
 20
-138.6032538173457
 30
0.0
 10
106.1940348041806
 20
-138.6032538173457
 30
0.0
 10
106.1285779899609
 20
-139.0263115429344
 30
0.0
 10
106.1285779899609
 20
-139.0263115429344
 30
0.0
 10
106.1899006895983
 20
-138.9923773524047
 30
0.0
 10
106.2722384716958
 20
-138.9522419900015
 30
0.0
 10
106.3907497563884
 20
-138.9522419900015
 30
0.0
 10
106.6446532936513
 20
-138.9522419900015
 30
0.0
 10
106.8816758630365
 20
-139.1384494009793
 30
0.0
 10
106.8816758630365
 20
-139.4514363258142
 30
0.0
 10
106.8816758630365
 20
-139.76890187478
 30
0.0
 10
106.6574001469468
 20
-140.0036851320997
 30
0.0
 10
106.3549207633418
 20
-140.0036851320997
 30
0.0
  0
HATCH
  5
ED
330
E6
100
AcDbEntity
  8
レイヤー 1
 62
   250
420
  2299925
440
 33554687
100
AcDbHatch
 10
0.0
 20
0.0
 30
0.0
210
0.0
220
0.0
230
1.0
  2
SOLID
 70
     1
 71
     1
 91
        1
 92
        1
 93
        1
 72
     4
 94
        3
 73
     0
 74
     0
 95
       53
 96
       49
 40
0.0
 40
0.0
 40
0.0
 40
0.0
 40
1.0
 40
1.0
 40
1.0
 40
2.0
 40
2.0
 40
2.0
 40
3.0
 40
3.0
 40
3.0
 40
4.0
 40
4.0
 40
4.0
 40
5.0
 40
5.0
 40
5.0
 40
6.0
 40
6.0
 40
6.0
 40
7.0
 40
7.0
 40
7.0
 40
8.0
 40
8.0
 40
8.0
 40
9.0
 40
9.0
 40
9.0
 40
10.0
 40
10.0
 40
10.0
 40
11.0
 40
11.0
 40
11.0
 40
12.0
 40
12.0
 40
12.0
 40
13.0
 40
13.0
 40
13.0
 40
14.0
 40
14.0
 40
14.0
 40
15.0
 40
15.0
 40
15.0
 40
16.0
 40
16.0
 40
16.0
 40
16.0
 10
106.3549207633418
 20
-140.0036851320997
 10
106.2767170958266
 20
-140.0036851320997
 10
106.1750867790118
 20
-139.9866319094478
 10
106.0734564621969
 20
-139.9232421525192
 10
105.9001681592888
 20
-139.8131713517654
 10
105.8788085672803
 20
-139.6820854685517
 10
105.8598605421114
 20
-139.5742539798634
 10
105.8598605421114
 20
-139.5742539798634
 10
106.08206920091
 20
-139.5742539798634
 10
106.08206920091
 20
-139.5742539798634
 10
106.1368462191255
 20
-139.7730359893623
 10
106.2639702425312
 20
-139.8026638105354
 10
106.356987820633
 20
-139.8026638105354
 10
106.4965141877856
 20
-139.8026638105354
 10
106.6487874082336
 20
-139.703272805786
 10
106.6487874082336
 20
-139.4705566057574
 10
106.6487874082336
 20
-139.2145860112033
 10
106.4689534239036
 20
-139.144822827627
 10
106.3483750819198
 20
-139.144822827627
 10
106.3166802034555
 20
-139.144822827627
 10
106.1750867790118
 20
-139.144822827627
 10
106.0862033154923
 20
-139.2738416535496
 10
106.0862033154923
 20
-139.2738416535496
 10
105.9105034457446
 20
-139.2547213736064
 10
105.9105034457446
 20
-139.2547213736064
 10
105.9105034457446
 20
-139.2547213736064
 10
106.0310817877283
 20
-138.4086059224291
 10
106.0310817877283
 20
-138.4086059224291
 10
106.0310817877283
 20
-138.4086059224291
 10
106.8096733673948
 20
-138.4086059224291
 10
106.8096733673948
 20
-138.4086059224291
 10
106.8096733673948
 20
-138.4086059224291
 10
106.8096733673948
 20
-138.6032538173457
 10
106.8096733673948
 20
-138.6032538173457
 10
106.8096733673948
 20
-138.6032538173457
 10
106.1940348041806
 20
-138.6032538173457
 10
106.1940348041806
 20
-138.6032538173457
 10
106.1940348041806
 20
-138.6032538173457
 10
106.1285779899609
 20
-139.0263115429344
 10
106.1285779899609
 20
-139.0263115429344
 10
106.1899006895983
 20
-138.9923773524047
 10
106.2722384716958
 20
-138.9522419900015
 10
106.3907497563884
 20
-138.9522419900015
 10
106.6446532936513
 20
-138.9522419900015
 10
106.8816758630365
 20
-139.1384494009793
 10
106.8816758630365
 20
-139.4514363258142
 10
106.8816758630365
 20
-139.76890187478
 10
106.6574001469468
 20
-140.0036851320997
 10
106.3549207633418
 20
-140.0036851320997
 97
        0
 97
        1
330
EC
 75
     2
 76
     1
 98
        1
 10
0.0
 20
0.0
450
        0
451
        0
460
0.0
461
0.0
452
        0
462
0.0
453
        0
470

  0
ENDBLK
  5
E9
330
E6
100
AcDbEntity
  8
0
100
AcDbBlockEnd
  0
BLOCK
  5
F5
330
F3
100
AcDbEntity
  8
0
100
AcDbBlockBegin
  2
Block_8
 70
     0
 10
0.0
 20
0.0
 30
0.0
  3
Block_8
  1

  0
INSERT
  5
F8
330
F3
100
AcDbEntity
  8
レイヤー 1
100
AcDbBlockReference
  2
Block_9
 10
0.0
 20
0.0
 30
0.0
  0
ENDBLK
  5
F6
330
F3
100
AcDbEntity
  8
0
100
AcDbBlockEnd
  0
BLOCK
  5
F9
330
F7
100
AcDbEntity
  8
0
100
AcDbBlockBegin
  2
Block_9
 70
     0
 10
0.0
 20
0.0
 30
0.0
  3
Block_9
  1

  0
SPLINE
  5
FB
330
F7
100
AcDbEntity
  8
レイヤー 1
100
AcDbSpline
210
0.0
220
0.0
230
1.0
 70
    11
 71
     3
 72
    26
 73
    22
 74
     0
 42
0.0000000001
 43
0.0000000001
 40
0.0
 40
0.0
 40
0.0
 40
0.0
 40
1.0
 40
1.0
 40
1.0
 40
2.0
 40
2.0
 40
2.0
 40
3.0
 40
3.0
 40
3.0
 40
4.0
 40
4.0
 40
4.0
 40
5.0
 40
5.0
 40
5.0
 40
6.0
 40
6.0
 40
6.0
 40
7.0
 40
7.0
 40
7.0
 40
7.0
 10
105.1486205791816
 20
-157.3299316012925
 30
0.0
 10
105.1486205791816
 20
-157.3299316012925
 30
0.0
 10
105.1486205791816
 20
-156.2257784982699
 30
0.0
 10
105.1486205791816
 20
-156.2257784982699
 30
0.0
 10
105.1486205791816
 20
-156.2257784982699
 30
0.0
 10
104.8185804316946
 20
-156.2257784982699
 30
0.0
 10
104.8185804316946
 20
-156.2257784982699
 30
0.0
 10
104.8185804316946
 20
-156.2257784982699
 30
0.0
 10
104.8185804316946
 20
-156.0776393924042
 30
0.0
 10
104.8185804316946
 20
-156.0776393924042
 30
0.0
 10
105.1506876364727
 20
-156.0628254818176
 30
0.0
 10
105.1971964255236
 20
-155.8998724653653
 30
0.0
 10
105.2268242466967
 20
-155.785495295255
 30
0.0
 10
105.2268242466967
 20
-155.785495295255
 30
0.0
 10
105.3728962952713
 20
-155.785495295255
 30
0.0
 10
105.3728962952713
 20
-155.785495295255
 30
0.0
 10
105.3728962952713
 20
-155.785495295255
 30
0.0
 10
105.3728962952713
 20
-157.3299316012925
 30
0.0
 10
105.3728962952713
 20
-157.3299316012925
 30
0.0
 10
105.3728962952713
 20
-157.3299316012925
 30
0.0
 10
105.1486205791816
 20
-157.3299316012925
 30
0.0
 10
105.1486205791816
 20
-157.3299316012925
 30
0.0
  0
HATCH
  5
FC
330
F7
100
AcDbEntity
  8
レイヤー 1
 62
   250
420
  2299925
440
 33554687
100
AcDbHatch
 10
0.0
 20
0.0
 30
0.0
210
0.0
220
0.0
230
1.0
  2
SOLID
 70
     1
 71
     1
 91
        1
 92
        1
 93
        1
 72
     4
 94
        3
 73
     0
 74
     0
 95
       26
 96
       22
 40
0.0
 40
0.0
 40
0.0
 40
0.0
 40
1.0
 40
1.0
 40
1.0
 40
2.0
 40
2.0
 40
2.0
 40
3.0
 40
3.0
 40
3.0
 40
4.0
 40
4.0
 40
4.0
 40
5.0
 40
5.0
 40
5.0
 40
6.0
 40
6.0
 40
6.0
 40
7.0
 40
7.0
 40
7.0
 40
7.0
 10
105.1486205791816
 20
-157.3299316012925
 10
105.1486205791816
 20
-157.3299316012925
 10
105.1486205791816
 20
-156.2257784982699
 10
105.1486205791816
 20
-156.2257784982699
 10
105.1486205791816
 20
-156.2257784982699
 10
104.8185804316946
 20
-156.2257784982699
 10
104.8185804316946
 20
-156.2257784982699
 10
104.8185804316946
 20
-156.2257784982699
 10
104.8185804316946
 20
-156.0776393924042
 10
104.8185804316946
 20
-156.0776393924042
 10
105.1506876364727
 20
-156.0628254818176
 10
105.1971964255236
 20
-155.8998724653653
 10
105.2268242466967
 20
-155.785495295255
 10
105.2268242466967
 20
-155.785495295255
 10
105.3728962952713
 20
-155.785495295255
 10
105.3728962952713
 20
-155.785495295255
 10
105.3728962952713
 20
-155.785495295255
 10
105.3728962952713
 20
-157.3299316012925
 10
105.3728962952713
 20
-157.3299316012925
 10
105.3728962952713
 20
-157.3299316012925
 10
105.1486205791816
 20
-157.3299316012925
 10
105.1486205791816
 20
-157.3299316012925
 97
        0
 97
        1
330
FB
 75
     2
 76
     1
 98
        1
 10
0.0
 20
0.0
450
        0
451
        0
460
0.0
461
0.0
452
        0
462
0.0
453
        0
470

  0
SPLINE
  5
FD
330
F7
100
AcDbEntity
  8
レイヤー 1
100
AcDbSpline
210
0.0
220
0.0
230
1.0
 70
     9
 71
     3
 72
    26
 73
    22
 74
     0
 42
0.0000000001
 43
0.0000000001
 40
0.0
 40
0.0
 40
0.0
 40
0.0
 40
1.0
 40
1.0
 40
1.0
 40
2.0
 40
2.0
 40
2.0
 40
3.0
 40
3.0
 40
3.0
 40
4.0
 40
4.0
 40
4.0
 40
5.0
 40
5.0
 40
5.0
 40
6.0
 40
6.0
 40
6.0
 40
7.0
 40
7.0
 40
7.0
 40
7.0
 10
106.2849853249912
 20
-157.3299316012925
 30
0.0
 10
106.2849853249912
 20
-157.3299316012925
 30
0.0
 10
106.047962755606
 20
-157.3299316012925
 30
0.0
 10
106.047962755606
 20
-157.3299316012925
 30
0.0
 10
106.0734564621969
 20
-157.0209065362656
 30
0.0
 10
106.2660372998224
 20
-156.502764175284
 30
0.0
 10
106.6722140575333
 20
-155.9970241580493
 30
0.0
 10
106.6722140575333
 20
-155.9970241580493
 30
0.0
 10
105.8343668355206
 20
-155.9970241580493
 30
0.0
 10
105.8343668355206
 20
-155.9970241580493
 30
0.0
 10
105.8343668355206
 20
-155.9970241580493
 30
0.0
 10
105.8343668355206
 20
-155.785495295255
 30
0.0
 10
105.8343668355206
 20
-155.785495295255
 30
0.0
 10
105.8343668355206
 20
-155.785495295255
 30
0.0
 10
106.9092366269185
 20
-155.785495295255
 30
0.0
 10
106.9092366269185
 20
-155.785495295255
 30
0.0
 10
106.9092366269185
 20
-155.785495295255
 30
0.0
 10
106.9092366269185
 20
-155.9970241580493
 30
0.0
 10
106.9092366269185
 20
-155.9970241580493
 30
0.0
 10
106.585397651305
 20
-156.2871011979074
 30
0.0
 10
106.3187472607467
 20
-156.8793131118218
 30
0.0
 10
106.2849853249912
 20
-157.3299316012925
 30
0.0
  0
HATCH
  5
FE
330
F7
100
AcDbEntity
  8
レイヤー 1
 62
   250
420
  2299925
440
 33554687
100
AcDbHatch
 10
0.0
 20
0.0
 30
0.0
210
0.0
220
0.0
230
1.0
  2
SOLID
 70
     1
 71
     1
 91
        1
 92
        1
 93
        1
 72
     4
 94
        3
 73
     0
 74
     0
 95
       26
 96
       22
 40
0.0
 40
0.0
 40
0.0
 40
0.0
 40
1.0
 40
1.0
 40
1.0
 40
2.0
 40
2.0
 40
2.0
 40
3.0
 40
3.0
 40
3.0
 40
4.0
 40
4.0
 40
4.0
 40
5.0
 40
5.0
 40
5.0
 40
6.0
 40
6.0
 40
6.0
 40
7.0
 40
7.0
 40
7.0
 40
7.0
 10
106.2849853249912
 20
-157.3299316012925
 10
106.2849853249912
 20
-157.3299316012925
 10
106.047962755606
 20
-157.3299316012925
 10
106.047962755606
 20
-157.3299316012925
 10
106.0734564621969
 20
-157.0209065362656
 10
106.2660372998224
 20
-156.502764175284
 10
106.6722140575333
 20
-155.9970241580493
 10
106.6722140575333
 20
-155.9970241580493
 10
105.8343668355206
 20
-155.9970241580493
 10
105.8343668355206
 20
-155.9970241580493
 10
105.8343668355206
 20
-155.9970241580493
 10
105.8343668355206
 20
-155.785495295255
 10
105.8343668355206
 20
-155.785495295255
 10
105.8343668355206
 20
-155.785495295255
 10
106.9092366269185
 20
-155.785495295255
 10
106.9092366269185
 20
-155.785495295255
 10
106.9092366269185
 20
-155.785495295255
 10
106.9092366269185
 20
-155.9970241580493
 10
106.9092366269185
 20
-155.9970241580493
 10
106.585397651305
 20
-156.2871011979074
 10
106.3187472607467
 20
-156.8793131118218
 10
106.2849853249912
 20
-157.3299316012925
 97
        0
 97
        1
330
FD
 75
     2
 76
     1
 98
        1
 10
0.0
 20
0.0
450
        0
451
        0
460
0.0
461
0.0
452
        0
462
0.0
453
        0
470

  0
ENDBLK
  5
FA
330
F7
100
AcDbEntity
  8
0
100
AcDbBlockEnd
  0
BLOCK
  5
103
330
101
100
AcDbEntity
  8
0
100
AcDbBlockBegin
  2
Block_10
 70
     0
 10
0.0
 20
0.0
 30
0.0
  3
Block_10
  1

  0
SPLINE
  5
105
330
101
100
AcDbEntity
  8
レイヤー 1
100
AcDbSpline
210
0.0
220
0.0
230
1.0
 70
    11
 71
     3
 72
    26
 73
    22
 74
     0
 42
0.0000000001
 43
0.0000000001
 40
0.0
 40
0.0
 40
0.0
 40
0.0
 40
1.0
 40
1.0
 40
1.0
 40
2.0
 40
2.0
 40
2.0
 40
3.0
 40
3.0
 40
3.0
 40
4.0
 40
4.0
 40
4.0
 40
5.0
 40
5.0
 40
5.0
 40
6.0
 40
6.0
 40
6.0
 40
7.0
 40
7.0
 40
7.0
 40
7.0
 10
116.1875677877934
 20
-149.3069932352427
 30
0.0
 10
116.1875677877934
 20
-149.3069932352427
 30
0.0
 10
116.1875677877934
 20
-148.2024956226716
 30
0.0
 10
116.1875677877934
 20
-148.2024956226716
 30
0.0
 10
116.1875677877934
 20
-148.2024956226716
 30
0.0
 10
115.8575276403064
 20
-148.2024956226716
 30
0.0
 10
115.8575276403064
 20
-148.2024956226716
 30
0.0
 10
115.8575276403064
 20
-148.2024956226716
 30
0.0
 10
115.8575276403064
 20
-148.0543565168058
 30
0.0
 10
115.8575276403064
 20
-148.0543565168058
 30
0.0
 10
116.1896348450845
 20
-148.0397148609935
 30
0.0
 10
116.2361436341354
 20
-147.8767618445412
 30
0.0
 10
116.2657714553085
 20
-147.7625569292052
 30
0.0
 10
116.2657714553085
 20
-147.7625569292052
 30
0.0
 10
116.4118435038831
 20
-147.7625569292052
 30
0.0
 10
116.4118435038831
 20
-147.7625569292052
 30
0.0
 10
116.4118435038831
 20
-147.7625569292052
 30
0.0
 10
116.4118435038831
 20
-149.3069932352427
 30
0.0
 10
116.4118435038831
 20
-149.3069932352427
 30
0.0
 10
116.4118435038831
 20
-149.3069932352427
 30
0.0
 10
116.1875677877934
 20
-149.3069932352427
 30
0.0
 10
116.1875677877934
 20
-149.3069932352427
 30
0.0
  0
HATCH
  5
106
330
101
100
AcDbEntity
  8
レイヤー 1
 62
   250
420
  2299925
440
 33554687
100
AcDbHatch
 10
0.0
 20
0.0
 30
0.0
210
0.0
220
0.0
230
1.0
  2
SOLID
 70
     1
 71
     1
 91
        1
 92
        1
 93
        1
 72
     4
 94
        3
 73
     0
 74
     0
 95
       26
 96
       22
 40
0.0
 40
0.0
 40
0.0
 40
0.0
 40
1.0
 40
1.0
 40
1.0
 40
2.0
 40
2.0
 40
2.0
 40
3.0
 40
3.0
 40
3.0
 40
4.0
 40
4.0
 40
4.0
 40
5.0
 40
5.0
 40
5.0
 40
6.0
 40
6.0
 40
6.0
 40
7.0
 40
7.0
 40
7.0
 40
7.0
 10
116.1875677877934
 20
-149.3069932352427
 10
116.1875677877934
 20
-149.3069932352427
 10
116.1875677877934
 20
-148.2024956226716
 10
116.1875677877934
 20
-148.2024956226716
 10
116.1875677877934
 20
-148.2024956226716
 10
115.8575276403064
 20
-148.2024956226716
 10
115.8575276403064
 20
-148.2024956226716
 10
115.8575276403064
 20
-148.2024956226716
 10
115.8575276403064
 20
-148.0543565168058
 10
115.8575276403064
 20
-148.0543565168058
 10
116.1896348450845
 20
-148.0397148609935
 10
116.2361436341354
 20
-147.8767618445412
 10
116.2657714553085
 20
-147.7625569292052
 10
116.2657714553085
 20
-147.7625569292052
 10
116.4118435038831
 20
-147.7625569292052
 10
116.4118435038831
 20
-147.7625569292052
 10
116.4118435038831
 20
-147.7625569292052
 10
116.4118435038831
 20
-149.3069932352427
 10
116.4118435038831
 20
-149.3069932352427
 10
116.4118435038831
 20
-149.3069932352427
 10
116.1875677877934
 20
-149.3069932352427
 10
116.1875677877934
 20
-149.3069932352427
 97
        0
 97
        1
330
105
 75
     2
 76
     1
 98
        1
 10
0.0
 20
0.0
450
        0
451
        0
460
0.0
461
0.0
452
        0
462
0.0
453
        0
470

  0
ENDBLK
  5
104
330
101
100
AcDbEntity
  8
0
100
AcDbBlockEnd
  0
BLOCK
  5
109
330
107
100
AcDbEntity
  8
0
100
AcDbBlockBegin
  2
Block_11
 70
     0
 10
0.0
 20
0.0
 30
0.0
  3
Block_11
  1

  0
SPLINE
  5
10B
330
107
100
AcDbEntity
  8
レイヤー 1
 62
   250
420
  2299925
370
     9
100
AcDbSpline
210
0.0
220
0.0
230
1.0
 70
     8
 71
     3
 72
    26
 73
    22
 74
     0
 42
0.0000000001
 43
0.0000000001
 40
0.0
 40
0.0
 40
0.0
 40
0.0
 40
1.0
 40
1.0
 40
1.0
 40
2.0
 40
2.0
 40
2.0
 40
3.0
 40
3.0
 40
3.0
 40
4.0
 40
4.0
 40
4.0
 40
5.0
 40
5.0
 40
5.0
 40
6.0
 40
6.0
 40
6.0
 40
7.0
 40
7.0
 40
7.0
 40
7.0
 10
131.3193808073119
 20
-147.3908065818484
 30
0.0
 10
131.3193808073119
 20
-147.3908065818484
 30
0.0
 10
122.7273371376243
 20
-150.4135476922029
 30
0.0
 10
122.7273371376243
 20
-150.4135476922029
 30
0.0
 10
122.7273371376243
 20
-150.4135476922029
 30
0.0
 10
121.3589474503126
 20
-150.6795068588042
 30
0.0
 10
121.8722391038841
 20
-151.135613247578
 30
0.0
 10
121.8722391038841
 20
-151.135613247578
 30
0.0
 10
122.1761218739092
 20
-151.325795747531
 30
0.0
 10
122.7087104714329
 20
-151.5352399141458
 30
0.0
 10
122.7087104714329
 20
-151.5352399141458
 30
0.0
 10
127.7075714550124
 20
-153.5533757469739
 30
0.0
 10
127.7075714550124
 20
-153.5533757469739
 30
0.0
 10
127.7075714550124
 20
-153.5533757469739
 30
0.0
 10
127.7075714550124
 20
-156.6284690795392
 30
0.0
 10
127.7075714550124
 20
-156.6284690795392
 30
0.0
 10
127.7075714550124
 20
-156.6284690795392
 30
0.0
 10
130.3499474987109
 20
-157.9024907458866
 30
0.0
 10
130.3499474987109
 20
-157.9024907458866
 30
0.0
 10
130.3499474987109
 20
-157.9024907458866
 30
0.0
 10
140.532948350032
 20
-153.4989774136539
 30
0.0
 10
140.532948350032
 20
-153.4989774136539
 30
0.0
  0
LINE
  5
10C
330
107
100
AcDbEntity
  8
レイヤー 1
 62
   250
420
  2299925
370
     9
100
AcDbLine
 10
129.8559175113146
 20
-154.0529443579609
 30
0.0
 11
140.0389183626358
 21
-150.0524796367378
 31
0.0
  0
SPLINE
  5
10D
330
107
100
AcDbEntity
  8
レイヤー 1
 62
   250
420
  2299925
370
     9
100
AcDbSpline
210
0.0
220
0.0
230
1.0
 70
     8
 71
     3
 72
    26
 73
    22
 74
     0
 42
0.0000000001
 43
0.0000000001
 40
0.0
 40
0.0
 40
0.0
 40
0.0
 40
1.0
 40
1.0
 40
1.0
 40
2.0
 40
2.0
 40
2.0
 40
3.0
 40
3.0
 40
3.0
 40
4.0
 40
4.0
 40
4.0
 40
5.0
 40
5.0
 40
5.0
 40
6.0
 40
6.0
 40
6.0
 40
7.0
 40
7.0
 40
7.0
 40
7.0
 10
131.4137841382368
 20
-147.5616921373613
 30
0.0
 10
131.4137841382368
 20
-147.5616921373613
 30
0.0
 10
122.5185632540617
 20
-150.6795068588042
 30
0.0
 10
122.5185632540617
 20
-150.6795068588042
 30
0.0
 10
122.5185632540617
 20
-150.6795068588042
 30
0.0
 10
122.0438302106176
 20
-150.7552835254512
 30
0.0
 10
122.0817185429843
 20
-150.9261690809645
 30
0.0
 10
122.0817185429843
 20
-150.9261690809645
 30
0.0
 10
122.0624215990322
 20
-151.002651303167
 30
0.0
 10
122.3669746468179
 20
-151.0977249142551
 30
0.0
 10
122.3669746468179
 20
-151.0977249142551
 30
0.0
 10
128.0493072796273
 20
-153.3404743581379
 30
0.0
 10
128.0493072796273
 20
-153.3404743581379
 30
0.0
 10
128.0493072796273
 20
-153.3404743581379
 30
0.0
 10
128.0493072796273
 20
-156.3060301907306
 30
0.0
 10
128.0493072796273
 20
-156.3060301907306
 30
0.0
 10
128.0493072796273
 20
-156.3060301907306
 30
0.0
 10
129.8559175113146
 20
-157.1610929682948
 30
0.0
 10
129.8559175113146
 20
-157.1610929682948
 30
0.0
 10
129.8559175113146
 20
-157.1610929682948
 30
0.0
 10
129.8559175113146
 20
-154.0529443579609
 30
0.0
 10
129.8559175113146
 20
-154.0529443579609
 30
0.0
  0
LINE
  5
10E
330
107
100
AcDbEntity
  8
レイヤー 1
 62
   250
420
  2299925
370
     9
100
AcDbLine
 10
137.3641573197635
 20
-149.6149646368472
 30
0.0
 11
128.0493072796273
 21
-153.3404743581379
 31
0.0
  0
LINE
  5
10F
330
107
100
AcDbEntity
  8
レイヤー 1
 62
   250
420
  2299925
370
     9
100
AcDbLine
 10
130.3499474987109
 20
-157.9024907458866
 30
0.0
 11
130.3499474987109
 21
-154.24792463569
 31
0.0
  0
LINE
  5
110
330
107
100
AcDbEntity
  8
レイヤー 1
 62
   250
420
  2299925
370
     9
100
AcDbLine
 10
128.0493072796273
 20
-156.3060301907306
 30
0.0
 11
129.8559175113146
 21
-155.6542026908929
 31
0.0
  0
SPLINE
  5
111
330
107
100
AcDbEntity
  8
レイヤー 1
 62
   250
420
  2299925
370
     9
100
AcDbSpline
210
0.0
220
0.0
230
1.0
 70
     9
 71
     3
 72
    17
 73
    13
 74
     0
 42
0.0000000001
 43
0.0000000001
 40
0.0
 40
0.0
 40
0.0
 40
0.0
 40
1.0
 40
1.0
 40
1.0
 40
2.0
 40
2.0
 40
2.0
 40
3.0
 40
3.0
 40
3.0
 40
4.0
 40
4.0
 40
4.0
 40
4.0
 10
134.6439232224958
 20
-149.3958543591241
 30
0.0
 10
134.6439232224958
 20
-149.6308043590657
 30
0.0
 10
134.3152401753256
 20
-149.8216571367962
 30
0.0
 10
133.910780463422
 20
-149.8216571367962
 30
0.0
 10
133.5042780136198
 20
-149.8216571367962
 30
0.0
 10
133.1770027043645
 20
-149.6308043590657
 30
0.0
 10
133.1770027043645
 20
-149.3958543591241
 30
0.0
 10
133.1770027043645
 20
-149.1609043591837
 30
0.0
 10
133.5042780136198
 20
-148.9707218592306
 30
0.0
 10
133.910780463422
 20
-148.9707218592306
 30
0.0
 10
134.3152401753256
 20
-148.9707218592306
 30
0.0
 10
134.6439232224958
 20
-149.1609043591837
 30
0.0
 10
134.6439232224958
 20
-149.3958543591241
 30
0.0
  0
SPLINE
  5
112
330
107
100
AcDbEntity
  8
レイヤー 1
 62
   250
420
  2299925
370
     9
100
AcDbSpline
210
0.0
220
0.0
230
1.0
 70
     8
 71
     3
 72
    11
 73
     7
 74
     0
 42
0.0000000001
 43
0.0000000001
 40
0.0
 40
0.0
 40
0.0
 40
0.0
 40
1.0
 40
1.0
 40
1.0
 40
2.0
 40
2.0
 40
2.0
 40
2.0
 10
133.3044613122239
 20
-149.6301340812883
 30
0.0
 10
133.3044613122239
 20
-149.6301340812883
 30
0.0
 10
133.2824127016752
 20
-149.1188532480827
 30
0.0
 10
134.1120049027328
 20
-149.1622801925166
 30
0.0
 10
134.1120049027328
 20
-149.1622801925166
 30
0.0
 10
134.6012018346968
 20
-149.2256743591676
 30
0.0
 10
134.5164293368595
 20
-149.6087557479601
 30
0.0
  0
SPLINE
  5
113
330
107
100
AcDbEntity
  8
レイヤー 1
 62
   250
420
  2299925
370
     9
100
AcDbSpline
210
0.0
220
0.0
230
1.0
 70
     9
 71
     3
 72
    17
 73
    13
 74
     0
 42
0.0000000001
 43
0.0000000001
 40
0.0
 40
0.0
 40
0.0
 40
0.0
 40
1.0
 40
1.0
 40
1.0
 40
2.0
 40
2.0
 40
2.0
 40
3.0
 40
3.0
 40
3.0
 40
4.0
 40
4.0
 40
4.0
 40
4.0
 10
134.4075621174147
 20
-148.31547241495
 30
0.0
 10
134.4075621174147
 20
-148.5504224148917
 30
0.0
 10
134.0789143480215
 20
-148.7412751926215
 30
0.0
 10
133.6744546361179
 20
-148.7412751926215
 30
0.0
 10
133.2686224581226
 20
-148.7412751926215
 30
0.0
 10
132.9406415992834
 20
-148.5504224148917
 30
0.0
 10
132.9406415992834
 20
-148.31547241495
 30
0.0
 10
132.9406415992834
 20
-148.080522415009
 30
0.0
 10
133.2686224581226
 20
-147.8896696372786
 30
0.0
 10
133.6744546361179
 20
-147.8896696372786
 30
0.0
 10
134.0789143480215
 20
-147.8896696372786
 30
0.0
 10
134.4075621174147
 20
-148.080522415009
 30
0.0
 10
134.4075621174147
 20
-148.31547241495
 30
0.0
  0
SPLINE
  5
114
330
107
100
AcDbEntity
  8
レイヤー 1
 62
   250
420
  2299925
370
     9
100
AcDbSpline
210
0.0
220
0.0
230
1.0
 70
     8
 71
     3
 72
    11
 73
     7
 74
     0
 42
0.0000000001
 43
0.0000000001
 40
0.0
 40
0.0
 40
0.0
 40
0.0
 40
1.0
 40
1.0
 40
1.0
 40
2.0
 40
2.0
 40
2.0
 40
2.0
 10
133.0681354849197
 20
-148.5490465815588
 30
0.0
 10
133.0681354849197
 20
-148.5490465815588
 30
0.0
 10
133.0467571521318
 20
-148.0384713039081
 30
0.0
 10
133.8763493531893
 20
-148.0818982483419
 30
0.0
 10
133.8763493531893
 20
-148.0818982483419
 30
0.0
 10
134.3648760073926
 20
-148.1445868594374
 30
0.0
 10
134.2801035095554
 20
-148.5283738037861
 30
0.0
  0
SPLINE
  5
115
330
107
100
AcDbEntity
  8
レイヤー 1
 62
   250
420
  2299925
370
     9
100
AcDbSpline
210
0.0
220
0.0
230
1.0
 70
     9
 71
     3
 72
    17
 73
    13
 74
     0
 42
0.0000000001
 43
0.0000000001
 40
0.0
 40
0.0
 40
0.0
 40
0.0
 40
1.0
 40
1.0
 40
1.0
 40
2.0
 40
2.0
 40
2.0
 40
3.0
 40
3.0
 40
3.0
 40
4.0
 40
4.0
 40
4.0
 40
4.0
 10
124.7509762526636
 20
-150.915127136522
 30
0.0
 10
124.7509762526636
 20
-151.1500771364636
 30
0.0
 10
124.4223284832704
 20
-151.3409651919722
 30
0.0
 10
124.0171632158292
 20
-151.3409651919722
 30
0.0
 10
123.6120363494258
 20
-151.3409651919722
 30
0.0
 10
123.2833501789948
 20
-151.1500771364636
 30
0.0
 10
123.2833501789948
 20
-150.915127136522
 30
0.0
 10
123.2833501789948
 20
-150.6801771365816
 30
0.0
 10
123.6120363494258
 20
-150.4893243588512
 30
0.0
 10
124.0171632158292
 20
-150.4893243588512
 30
0.0
 10
124.4223284832704
 20
-150.4893243588512
 30
0.0
 10
124.7509762526636
 20
-150.6801771365816
 30
0.0
 10
124.7509762526636
 20
-150.915127136522
 30
0.0
  0
SPLINE
  5
116
330
107
100
AcDbEntity
  8
レイヤー 1
 62
   250
420
  2299925
370
     9
100
AcDbSpline
210
0.0
220
0.0
230
1.0
 70
     8
 71
     3
 72
    11
 73
     7
 74
     0
 42
0.0000000001
 43
0.0000000001
 40
0.0
 40
0.0
 40
0.0
 40
0.0
 40
1.0
 40
1.0
 40
1.0
 40
2.0
 40
2.0
 40
2.0
 40
2.0
 10
123.4115143423917
 20
-151.1494068586863
 30
0.0
 10
123.4115143423917
 20
-151.1494068586863
 30
0.0
 10
123.3894657318431
 20
-150.6381613032588
 30
0.0
 10
124.2190579329007
 20
-150.6815529699145
 30
0.0
 10
124.2190579329007
 20
-150.6815529699145
 30
0.0
 10
124.7082548648647
 20
-150.7449471365655
 30
0.0
 10
124.6235176448043
 20
-151.128028525358
 30
0.0
  0
SPLINE
  5
117
330
107
100
AcDbEntity
  8
レイヤー 1
 62
   250
420
  2299925
370
     9
100
AcDbSpline
210
0.0
220
0.0
230
1.0
 70
     9
 71
     3
 72
    17
 73
    13
 74
     0
 42
0.0000000001
 43
0.0000000001
 40
0.0
 40
0.0
 40
0.0
 40
0.0
 40
1.0
 40
1.0
 40
1.0
 40
2.0
 40
2.0
 40
2.0
 40
3.0
 40
3.0
 40
3.0
 40
4.0
 40
4.0
 40
4.0
 40
4.0
 10
132.4493985562606
 20
-150.4762363032984
 30
0.0
 10
132.4493985562606
 20
-150.7111863032401
 30
0.0
 10
132.1193396757922
 20
-150.9020390809705
 30
0.0
 10
131.7148799638886
 20
-150.9020390809705
 30
0.0
 10
131.3104555297618
 20
-150.9020390809705
 30
0.0
 10
130.9817724825917
 20
-150.7111863032401
 30
0.0
 10
130.9817724825917
 20
-150.4762363032984
 30
0.0
 10
130.9817724825917
 20
-150.2419565811354
 30
0.0
 10
131.3104555297618
 20
-150.051103803405
 30
0.0
 10
131.7148799638886
 20
-150.051103803405
 30
0.0
 10
132.1193396757922
 20
-150.051103803405
 30
0.0
 10
132.4493985562606
 20
-150.2419565811354
 30
0.0
 10
132.4493985562606
 20
-150.4762363032984
 30
0.0
  0
SPLINE
  5
118
330
107
100
AcDbEntity
  8
レイヤー 1
 62
   250
420
  2299925
370
     9
100
AcDbSpline
210
0.0
220
0.0
230
1.0
 70
     8
 71
     3
 72
    11
 73
     7
 74
     0
 42
0.0000000001
 43
0.0000000001
 40
0.0
 40
0.0
 40
0.0
 40
0.0
 40
1.0
 40
1.0
 40
1.0
 40
2.0
 40
2.0
 40
2.0
 40
2.0
 10
131.1092310904511
 20
-150.7105160254627
 30
0.0
 10
131.1092310904511
 20
-150.7105160254627
 30
0.0
 10
131.08788803544
 20
-150.1992351922571
 30
0.0
 10
131.9174835695722
 20
-150.2426621366909
 30
0.0
 10
131.9174835695722
 20
-150.2426621366909
 30
0.0
 10
132.4066771684616
 20
-150.306056303342
 30
0.0
 10
132.3212343928636
 20
-150.6891376921345
 30
0.0
  0
SPLINE
  5
119
330
107
100
AcDbEntity
  8
レイヤー 1
 62
   250
420
  2299925
370
     9
100
AcDbSpline
210
0.0
220
0.0
230
1.0
 70
     9
 71
     3
 72
    17
 73
    13
 74
     0
 42
0.0000000001
 43
0.0000000001
 40
0.0
 40
0.0
 40
0.0
 40
0.0
 40
1.0
 40
1.0
 40
1.0
 40
2.0
 40
2.0
 40
2.0
 40
3.0
 40
3.0
 40
3.0
 40
4.0
 40
4.0
 40
4.0
 40
4.0
 10
132.2123671734188
 20
-149.3958543591241
 30
0.0
 10
132.2123671734188
 20
-149.6308043590657
 30
0.0
 10
131.8837194040256
 20
-149.8216571367962
 30
0.0
 10
131.4785541365844
 20
-149.8216571367962
 30
0.0
 10
131.0740944246808
 20
-149.8216571367962
 30
0.0
 10
130.74474109975
 20
-149.6308043590657
 30
0.0
 10
130.74474109975
 20
-149.3958543591241
 30
0.0
 10
130.74474109975
 20
-149.1609043591837
 30
0.0
 10
131.0740944246808
 20
-148.9707218592306
 30
0.0
 10
131.4785541365844
 20
-148.9707218592306
 30
0.0
 10
131.8837194040256
 20
-148.9707218592306
 30
0.0
 10
132.2123671734188
 20
-149.1609043591837
 30
0.0
 10
132.2123671734188
 20
-149.3958543591241
 30
0.0
  0
SPLINE
  5
11A
330
107
100
AcDbEntity
  8
レイヤー 1
 62
   250
420
  2299925
370
     9
100
AcDbSpline
210
0.0
220
0.0
230
1.0
 70
     8
 71
     3
 72
    11
 73
     7
 74
     0
 42
0.0000000001
 43
0.0000000001
 40
0.0
 40
0.0
 40
0.0
 40
0.0
 40
1.0
 40
1.0
 40
1.0
 40
2.0
 40
2.0
 40
2.0
 40
2.0
 10
130.8736141253878
 20
-149.6301340812883
 30
0.0
 10
130.8736141253878
 20
-149.6301340812883
 30
0.0
 10
130.8515622081358
 20
-149.1188532480827
 30
0.0
 10
131.6804488536559
 20
-149.1622801925166
 30
0.0
 10
131.6804488536559
 20
-149.1622801925166
 30
0.0
 10
132.1696457856198
 20
-149.2256743591676
 30
0.0
 10
132.0849085655595
 20
-149.6087557479601
 30
0.0
  0
SPLINE
  5
11B
330
107
100
AcDbEntity
  8
レイヤー 1
 62
   250
420
  2299925
370
     9
100
AcDbSpline
210
0.0
220
0.0
230
1.0
 70
     9
 71
     3
 72
    17
 73
    13
 74
     0
 42
0.0000000001
 43
0.0000000001
 40
0.0
 40
0.0
 40
0.0
 40
0.0
 40
1.0
 40
1.0
 40
1.0
 40
2.0
 40
2.0
 40
2.0
 40
3.0
 40
3.0
 40
3.0
 40
4.0
 40
4.0
 40
4.0
 40
4.0
 10
131.6728641316271
 20
-148.4505157482501
 30
0.0
 10
131.6728641316271
 20
-148.685465748191
 30
0.0
 10
131.3435141252711
 20
-148.8763185259212
 30
0.0
 10
130.9390510947927
 20
-148.8763185259212
 30
0.0
 10
130.5339211051284
 20
-148.8763185259212
 30
0.0
 10
130.2045677801976
 20
-148.685465748191
 30
0.0
 10
130.2045677801976
 20
-148.4505157482501
 30
0.0
 10
130.2045677801976
 20
-148.2155657483084
 30
0.0
 10
130.5339211051284
 20
-148.025383248356
 30
0.0
 10
130.9390510947927
 20
-148.025383248356
 30
0.0
 10
131.3435141252711
 20
-148.025383248356
 30
0.0
 10
131.6728641316271
 20
-148.2155657483084
 30
0.0
 10
131.6728641316271
 20
-148.4505157482501
 30
0.0
  0
SPLINE
  5
11C
330
107
100
AcDbEntity
  8
レイヤー 1
 62
   250
420
  2299925
370
     9
100
AcDbSpline
210
0.0
220
0.0
230
1.0
 70
     8
 71
     3
 72
    11
 73
     7
 74
     0
 42
0.0000000001
 43
0.0000000001
 40
0.0
 40
0.0
 40
0.0
 40
0.0
 40
1.0
 40
1.0
 40
1.0
 40
2.0
 40
2.0
 40
2.0
 40
2.0
 10
130.3327319435945
 20
-148.6847954704137
 30
0.0
 10
130.3327319435945
 20
-148.6847954704137
 30
0.0
 10
130.3120591663442
 20
-148.1735146372084
 30
0.0
 10
131.1402402563266
 20
-148.216941581641
 30
0.0
 10
131.1402402563266
 20
-148.216941581641
 30
0.0
 10
131.6294371882906
 20
-148.2803357482923
 30
0.0
 10
131.5446999682302
 20
-148.6634171370854
 30
0.0
  0
SPLINE
  5
11D
330
107
100
AcDbEntity
  8
レイヤー 1
 62
   250
420
  2299925
370
     9
100
AcDbSpline
210
0.0
220
0.0
230
1.0
 70
    11
 71
     3
 72
    17
 73
    13
 74
     0
 42
0.0000000001
 43
0.0000000001
 40
0.0
 40
0.0
 40
0.0
 40
0.0
 40
1.0
 40
1.0
 40
1.0
 40
2.0
 40
2.0
 40
2.0
 40
3.0
 40
3.0
 40
3.0
 40
4.0
 40
4.0
 40
4.0
 40
4.0
 10
130.1528891255688
 20
-151.286531580874
 30
0.0
 10
130.1528891255688
 20
-151.5214815808157
 30
0.0
 10
129.8235325121408
 20
-151.7123343585461
 30
0.0
 10
129.4190728002373
 20
-151.7123343585461
 30
0.0
 10
129.0132372550354
 20
-151.7123343585461
 30
0.0
 10
128.6859653189404
 20
-151.5214815808157
 30
0.0
 10
128.6859653189404
 20
-151.286531580874
 30
0.0
 10
128.6859653189404
 20
-151.0515815809324
 30
0.0
 10
129.0132372550354
 20
-150.8613990809806
 30
0.0
 10
129.4190728002373
 20
-150.8613990809806
 30
0.0
 10
129.8235325121408
 20
-150.8613990809806
 30
0.0
 10
130.1528891255688
 20
-151.0515815809324
 30
0.0
 10
130.1528891255688
 20
-151.286531580874
 30
0.0
  0
SPLINE
  5
11E
330
107
100
AcDbEntity
  8
レイヤー 1
 62
   250
420
  2299925
370
     9
100
AcDbSpline
210
0.0
220
0.0
230
1.0
 70
     8
 71
     3
 72
    11
 73
     7
 74
     0
 42
0.0000000001
 43
0.0000000001
 40
0.0
 40
0.0
 40
0.0
 40
0.0
 40
1.0
 40
1.0
 40
1.0
 40
2.0
 40
2.0
 40
2.0
 40
2.0
 10
128.8134239267997
 20
-151.5207760252601
 30
0.0
 10
128.8134239267997
 20
-151.5207760252601
 30
0.0
 10
128.7913753162512
 20
-151.0095304698327
 30
0.0
 10
129.6216377950694
 20
-151.0529574142653
 30
0.0
 10
129.6216377950694
 20
-151.0529574142653
 30
0.0
 10
130.1101644492727
 20
-151.1163163031394
 30
0.0
 10
130.0247216736748
 20
-151.4994329697101
 30
0.0
  0
SPLINE
  5
11F
330
107
100
AcDbEntity
  8
レイヤー 1
 62
   250
420
  2299925
370
     9
100
AcDbSpline
210
0.0
220
0.0
230
1.0
 70
     9
 71
     3
 72
    17
 73
    13
 74
     0
 42
0.0000000001
 43
0.0000000001
 40
0.0
 40
0.0
 40
0.0
 40
0.0
 40
1.0
 40
1.0
 40
1.0
 40
2.0
 40
2.0
 40
2.0
 40
3.0
 40
3.0
 40
3.0
 40
4.0
 40
4.0
 40
4.0
 40
4.0
 10
129.91585445423
 20
-150.2061496366997
 30
0.0
 10
129.91585445423
 20
-150.4410996366413
 30
0.0
 10
129.5872066848367
 20
-150.6319524143718
 30
0.0
 10
129.1827502369224
 20
-150.6319524143718
 30
0.0
 10
128.7776169832688
 20
-150.6319524143718
 30
0.0
 10
128.4489339360987
 20
-150.4410996366413
 30
0.0
 10
128.4489339360987
 20
-150.2061496366997
 30
0.0
 10
128.4489339360987
 20
-149.9718699145367
 30
0.0
 10
128.7776169832688
 20
-149.7803115812507
 30
0.0
 10
129.1827502369224
 20
-149.7803115812507
 30
0.0
 10
129.5872066848367
 20
-149.7803115812507
 30
0.0
 10
129.91585445423
 20
-149.9718699145367
 30
0.0
 10
129.91585445423
 20
-150.2061496366997
 30
0.0
  0
SPLINE
  5
120
330
107
100
AcDbEntity
  8
レイヤー 1
 62
   250
420
  2299925
370
     9
100
AcDbSpline
210
0.0
220
0.0
230
1.0
 70
     8
 71
     3
 72
    11
 73
     7
 74
     0
 42
0.0000000001
 43
0.0000000001
 40
0.0
 40
0.0
 40
0.0
 40
0.0
 40
1.0
 40
1.0
 40
1.0
 40
2.0
 40
2.0
 40
2.0
 40
2.0
 10
128.5770980994956
 20
-150.4397238033084
 30
0.0
 10
128.5770980994956
 20
-150.4397238033084
 30
0.0
 10
128.5557550444845
 20
-149.9291485256584
 30
0.0
 10
129.3846416900045
 20
-149.9725754700909
 30
0.0
 10
129.3846416900045
 20
-149.9725754700909
 30
0.0
 10
129.8738419034159
 20
-150.0359343589651
 30
0.0
 10
129.7883958463706
 20
-150.4190510255357
 30
0.0
  0
SPLINE
  5
121
330
107
100
AcDbEntity
  8
レイヤー 1
 62
   250
420
  2299925
370
     9
100
AcDbSpline
210
0.0
220
0.0
230
1.0
 70
     9
 71
     3
 72
    17
 73
    13
 74
     0
 42
0.0000000001
 43
0.0000000001
 40
0.0
 40
0.0
 40
0.0
 40
0.0
 40
1.0
 40
1.0
 40
1.0
 40
2.0
 40
2.0
 40
2.0
 40
3.0
 40
3.0
 40
3.0
 40
4.0
 40
4.0
 40
4.0
 40
4.0
 10
129.3763514124383
 20
-149.2608110258247
 30
0.0
 10
129.3763514124383
 20
-149.4957610257664
 30
0.0
 10
129.0469980875075
 20
-149.6859435257181
 30
0.0
 10
128.6432439311414
 20
-149.6859435257181
 30
0.0
 10
128.2374083859396
 20
-149.6859435257181
 30
0.0
 10
127.9087606165463
 20
-149.4957610257664
 30
0.0
 10
127.9087606165463
 20
-149.2608110258247
 30
0.0
 10
127.9087606165463
 20
-149.0258610258843
 30
0.0
 10
128.2374083859396
 20
-148.8356785259316
 30
0.0
 10
128.6432439311414
 20
-148.8356785259316
 30
0.0
 10
129.0469980875075
 20
-148.8356785259316
 30
0.0
 10
129.3763514124383
 20
-149.0258610258843
 30
0.0
 10
129.3763514124383
 20
-149.2608110258247
 30
0.0
  0
SPLINE
  5
122
330
107
100
AcDbEntity
  8
レイヤー 1
 62
   250
420
  2299925
370
     9
100
AcDbSpline
210
0.0
220
0.0
230
1.0
 70
     8
 71
     3
 72
    11
 73
     7
 74
     0
 42
0.0000000001
 43
0.0000000001
 40
0.0
 40
0.0
 40
0.0
 40
0.0
 40
1.0
 40
1.0
 40
1.0
 40
2.0
 40
2.0
 40
2.0
 40
2.0
 10
128.0369280149868
 20
-149.4943851924334
 30
0.0
 10
128.0369280149868
 20
-149.4943851924334
 30
0.0
 10
128.0155464471553
 20
-148.9838099147834
 30
0.0
 10
128.8437628149146
 20
-149.0272368592172
 30
0.0
 10
128.8437628149146
 20
-149.0272368592172
 30
0.0
 10
129.3336300246393
 20
-149.090631025867
 30
0.0
 10
129.2488928045789
 20
-149.4737124146607
 30
0.0
  0
SPLINE
  5
123
330
107
100
AcDbEntity
  8
レイヤー 1
 62
   250
420
  2299925
370
     9
100
AcDbSpline
210
0.0
220
0.0
230
1.0
 70
     9
 71
     3
 72
    17
 73
    13
 74
     0
 42
0.0000000001
 43
0.0000000001
 40
0.0
 40
0.0
 40
0.0
 40
0.0
 40
1.0
 40
1.0
 40
1.0
 40
2.0
 40
2.0
 40
2.0
 40
3.0
 40
3.0
 40
3.0
 40
4.0
 40
4.0
 40
4.0
 40
4.0
 10
127.7213297879947
 20
-152.097497136227
 30
0.0
 10
127.7213297879947
 20
-152.33177685839
 30
0.0
 10
127.3926820186015
 20
-152.5226296361205
 30
0.0
 10
126.9875167511603
 20
-152.5226296361205
 30
0.0
 10
126.582386761496
 20
-152.5226296361205
 30
0.0
 10
126.2537389921028
 20
-152.33177685839
 30
0.0
 10
126.2537389921028
 20
-152.097497136227
 30
0.0
 10
126.2537389921028
 20
-151.8625471362854
 30
0.0
 10
126.582386761496
 20
-151.6716943585562
 30
0.0
 10
126.9875167511603
 20
-151.6716943585562
 30
0.0
 10
127.3926820186015
 20
-151.6716943585562
 30
0.0
 10
127.7213297879947
 20
-151.8625471362854
 30
0.0
 10
127.7213297879947
 20
-152.097497136227
 30
0.0
  0
SPLINE
  5
124
330
107
100
AcDbEntity
  8
レイヤー 1
 62
   250
420
  2299925
370
     9
100
AcDbSpline
210
0.0
220
0.0
230
1.0
 70
     8
 71
     3
 72
    11
 73
     7
 74
     0
 42
0.0000000001
 43
0.0000000001
 40
0.0
 40
0.0
 40
0.0
 40
0.0
 40
1.0
 40
1.0
 40
1.0
 40
2.0
 40
2.0
 40
2.0
 40
2.0
 10
126.3818678777228
 20
-152.3310713028358
 30
0.0
 10
126.3818678777228
 20
-152.3310713028358
 30
0.0
 10
126.3598224598502
 20
-151.8204960251857
 30
0.0
 10
127.1901170237693
 20
-151.8632174140627
 30
0.0
 10
127.1901170237693
 20
-151.8632174140627
 30
0.0
 10
127.6786084001958
 20
-151.9266115807138
 30
0.0
 10
127.5945446817638
 20
-152.310398525063
 30
0.0
  0
SPLINE
  5
125
330
107
100
AcDbEntity
  8
レイヤー 1
 62
   250
420
  2299925
370
     9
100
AcDbSpline
210
0.0
220
0.0
230
1.0
 70
     9
 71
     3
 72
    17
 73
    13
 74
     0
 42
0.0000000001
 43
0.0000000001
 40
0.0
 40
0.0
 40
0.0
 40
0.0
 40
1.0
 40
1.0
 40
1.0
 40
2.0
 40
2.0
 40
2.0
 40
3.0
 40
3.0
 40
3.0
 40
4.0
 40
4.0
 40
4.0
 40
4.0
 10
127.4857095162281
 20
-151.0164096364972
 30
0.0
 10
127.4857095162281
 20
-151.2513949142157
 30
0.0
 10
127.1556506357597
 20
-151.4422476919461
 30
0.0
 10
126.7511909238562
 20
-151.4422476919461
 30
0.0
 10
126.3460641265201
 20
-151.4422476919461
 30
0.0
 10
126.0180834425593
 20
-151.2513949142157
 30
0.0
 10
126.0180834425593
 20
-151.0164096364972
 30
0.0
 10
126.0180834425593
 20
-150.7814596365555
 30
0.0
 10
126.3460641265201
 20
-150.5913124143819
 30
0.0
 10
126.7511909238562
 20
-150.5913124143819
 30
0.0
 10
127.1556506357597
 20
-150.5913124143819
 30
0.0
 10
127.4857095162281
 20
-150.7814596365555
 30
0.0
 10
127.4857095162281
 20
-151.0164096364972
 30
0.0
  0
SPLINE
  5
126
330
107
100
AcDbEntity
  8
レイヤー 1
 62
   250
420
  2299925
370
     9
100
AcDbSpline
210
0.0
220
0.0
230
1.0
 70
     8
 71
     3
 72
    11
 73
     7
 74
     0
 42
0.0000000001
 43
0.0000000001
 40
0.0
 40
0.0
 40
0.0
 40
0.0
 40
1.0
 40
1.0
 40
1.0
 40
2.0
 40
2.0
 40
2.0
 40
2.0
 10
126.144871772658
 20
-151.2506893586614
 30
0.0
 10
126.144871772658
 20
-151.2506893586614
 30
0.0
 10
126.1241989954076
 20
-150.7394438032327
 30
0.0
 10
126.9537559186883
 20
-150.7828354698884
 30
0.0
 10
126.9537559186883
 20
-150.7828354698884
 30
0.0
 10
127.4429881284292
 20
-150.8462296365394
 30
0.0
 10
127.3575453528312
 20
-151.2293463031101
 30
0.0
  0
SPLINE
  5
127
330
107
100
AcDbEntity
  8
レイヤー 1
 62
   250
420
  2299925
370
     9
100
AcDbSpline
210
0.0
220
0.0
230
1.0
 70
     9
 71
     3
 72
    17
 73
    13
 74
     0
 42
0.0000000001
 43
0.0000000001
 40
0.0
 40
0.0
 40
0.0
 40
0.0
 40
1.0
 40
1.0
 40
1.0
 40
2.0
 40
2.0
 40
2.0
 40
3.0
 40
3.0
 40
3.0
 40
4.0
 40
4.0
 40
4.0
 40
4.0
 10
126.9448306411382
 20
-150.0711063034003
 30
0.0
 10
126.9448306411382
 20
-150.306056303342
 30
0.0
 10
126.6161475939681
 20
-150.4969090810711
 30
0.0
 10
126.2116878820645
 20
-150.4969090810711
 30
0.0
 10
125.8058523368626
 20
-150.4969090810711
 30
0.0
 10
125.4778780156263
 20
-150.306056303342
 30
0.0
 10
125.4778780156263
 20
-150.0711063034003
 30
0.0
 10
125.4778780156263
 20
-149.8361210256818
 30
0.0
 10
125.8058523368626
 20
-149.6459738035069
 30
0.0
 10
126.2116878820645
 20
-149.6459738035069
 30
0.0
 10
126.6161475939681
 20
-149.6459738035069
 30
0.0
 10
126.9448306411382
 20
-149.8361210256818
 30
0.0
 10
126.9448306411382
 20
-150.0711063034003
 30
0.0
  0
SPLINE
  5
128
330
107
100
AcDbEntity
  8
レイヤー 1
 62
   250
420
  2299925
370
     9
100
AcDbSpline
210
0.0
220
0.0
230
1.0
 70
     8
 71
     3
 72
    11
 73
     7
 74
     0
 42
0.0000000001
 43
0.0000000001
 40
0.0
 40
0.0
 40
0.0
 40
0.0
 40
1.0
 40
1.0
 40
1.0
 40
2.0
 40
2.0
 40
2.0
 40
2.0
 10
125.606039008627
 20
-150.3053507477864
 30
0.0
 10
125.606039008627
 20
-150.3053507477864
 30
0.0
 10
125.5839903980784
 20
-149.794105192359
 30
0.0
 10
126.4135825991359
 20
-149.8374968590147
 30
0.0
 10
126.4135825991359
 20
-149.8374968590147
 30
0.0
 10
126.9027795310999
 20
-149.9008910256644
 30
0.0
 10
126.817336755502
 20
-150.2840076922363
 30
0.0
  0
LINE
  5
129
330
107
100
AcDbEntity
  8
レイヤー 1
 62
   250
420
  2299925
370
     9
100
AcDbLine
 10
129.855247233554
 20
-154.0529443579609
 30
0.0
 11
130.3499474987109
 21
-154.24792463569
 31
0.0
  0
LINE
  5
12A
330
107
100
AcDbEntity
  8
レイヤー 1
 62
   250
420
  2299925
370
     9
100
AcDbLine
 10
130.3499474987109
 20
-154.24792463569
 30
0.0
 11
140.532948350032
 21
-150.2474951922451
 31
0.0
  0
ENDBLK
  5
10A
330
107
100
AcDbEntity
  8
0
100
AcDbBlockEnd
  0
BLOCK
  5
12F
330
12D
100
AcDbEntity
  8
0
100
AcDbBlockBegin
  2
Block_12
 70
     0
 10
0.0
 20
0.0
 30
0.0
  3
Block_12
  1

  0
INSERT
  5
132
330
12D
100
AcDbEntity
  8
レイヤー 1
100
AcDbBlockReference
  2
Block_13
 10
0.0
 20
0.0
 30
0.0
  0
INSERT
  5
139
330
12D
100
AcDbEntity
  8
レイヤー 1
100
AcDbBlockReference
  2
Block_14
 10
0.0
 20
0.0
 30
0.0
  0
ENDBLK
  5
130
330
12D
100
AcDbEntity
  8
0
100
AcDbBlockEnd
  0
BLOCK
  5
133
330
131
100
AcDbEntity
  8
0
100
AcDbBlockBegin
  2
Block_13
 70
     0
 10
0.0
 20
0.0
 30
0.0
  3
Block_13
  1

  0
LINE
  5
135
330
131
100
AcDbEntity
  8
レイヤー 1
 62
    18
420
        0
370
     9
100
AcDbLine
 10
81.54169260109849
 20
-146.9036557486368
 30
0.0
 11
82.35301091373337
 21
-147.4886318596016
 31
0.0
  0
LINE
  5
136
330
131
100
AcDbEntity
  8
レイヤー 1
 62
    18
420
        0
370
     9
100
AcDbLine
 10
81.54169260109849
 20
-146.9036557486368
 30
0.0
 11
84.11929864644939
 21
-150.0607699145133
 31
0.0
  0
LINE
  5
137
330
131
100
AcDbEntity
  8
レイヤー 1
 62
    18
420
        0
370
     9
100
AcDbLine
 10
81.54169260109849
 20
-146.9036557486368
 30
0.0
 11
81.95200842396411
 21
-147.8159390817419
 31
0.0
  0
ENDBLK
  5
134
330
131
100
AcDbEntity
  8
0
100
AcDbBlockEnd
  0
BLOCK
  5
13A
330
138
100
AcDbEntity
  8
0
100
AcDbBlockBegin
  2
Block_14
 70
     0
 10
0.0
 20
0.0
 30
0.0
  3
Block_14
  1

  0
INSERT
  5
13D
330
138
100
AcDbEntity
  8
レイヤー 1
100
AcDbBlockReference
  2
Block_15
 10
0.0
 20
0.0
 30
0.0
  0
ENDBLK
  5
13B
330
138
100
AcDbEntity
  8
0
100
AcDbBlockEnd
  0
BLOCK
  5
13E
330
13C
100
AcDbEntity
  8
0
100
AcDbBlockBegin
  2
Block_15
 70
     0
 10
0.0
 20
0.0
 30
0.0
  3
Block_15
  1

  0
SPLINE
  5
140
330
13C
100
AcDbEntity
  8
レイヤー 1
100
AcDbSpline
210
0.0
220
0.0
230
1.0
 70
     9
 71
     3
 72
    17
 73
    13
 74
     0
 42
0.0000000001
 43
0.0000000001
 40
0.0
 40
0.0
 40
0.0
 40
0.0
 40
1.0
 40
1.0
 40
1.0
 40
2.0
 40
2.0
 40
2.0
 40
3.0
 40
3.0
 40
3.0
 40
4.0
 40
4.0
 40
4.0
 40
4.0
 10
85.78563365910914
 20
-150.5086425404978
 30
0.0
 10
85.76875269123142
 20
-150.5382703616709
 30
0.0
 10
85.71793753282399
 20
-150.6312879397727
 30
0.0
 10
85.70742999159397
 20
-150.6502359649416
 30
0.0
 10
85.89777151715402
 20
-150.7094916072879
 30
0.0
 10
85.91895885438832
 20
-150.7160372887098
 30
0.0
 10
85.99096135003005
 20
-150.7432535430433
 30
0.0
 10
86.04591062301977
 20
-150.6567816463635
 30
0.0
 10
86.06916501754522
 20
-150.5827120934307
 30
0.0
 10
86.08397892813178
 20
-150.5086425404978
 30
0.0
 10
86.08397892813178
 20
-150.5086425404978
 30
0.0
 10
85.78563365910914
 20
-150.5086425404978
 30
0.0
 10
85.78563365910914
 20
-150.5086425404978
 30
0.0
  0
SPLINE
  5
141
330
13C
100
AcDbEntity
  8
レイヤー 1
100
AcDbSpline
210
0.0
220
0.0
230
1.0
 70
    11
 71
     3
 72
    20
 73
    16
 74
     0
 42
0.0000000001
 43
0.0000000001
 40
0.0
 40
0.0
 40
0.0
 40
0.0
 40
1.0
 40
1.0
 40
1.0
 40
2.0
 40
2.0
 40
2.0
 40
3.0
 40
3.0
 40
3.0
 40
4.0
 40
4.0
 40
4.0
 40
5.0
 40
5.0
 40
5.0
 40
5.0
 10
85.72224390218055
 20
-149.6580484651896
 30
0.0
 10
85.72224390218055
 20
-149.6580484651896
 30
0.0
 10
85.69054902371625
 20
-149.6580484651896
 30
0.0
 10
85.69054902371625
 20
-149.6580484651896
 30
0.0
 10
85.73705781276713
 20
-149.7576117247134
 30
0.0
 10
85.76875269123142
 20
-149.8378824495197
 30
0.0
 10
85.80268688176113
 20
-149.9650064729254
 30
0.0
 10
85.80268688176113
 20
-149.9650064729254
 30
0.0
 10
86.00990937519892
 20
-149.9650064729254
 30
0.0
 10
86.00990937519892
 20
-149.9650064729254
 30
0.0
 10
86.04160425366321
 20
-149.8719888948237
 30
0.0
 10
86.06485864818864
 20
-149.7872395458865
 30
0.0
 10
86.08811304271409
 20
-149.6580484651896
 30
0.0
 10
86.08811304271409
 20
-149.6580484651896
 30
0.0
 10
85.72224390218055
 20
-149.6580484651896
 30
0.0
 10
85.72224390218055
 20
-149.6580484651896
 30
0.0
  0
SPLINE
  5
142
330
13C
100
AcDbEntity
  8
レイヤー 1
100
AcDbSpline
210
0.0
220
0.0
230
1.0
 70
     9
 71
     3
 72
   242
 73
   238
 74
     0
 42
0.0000000001
 43
0.0000000001
 40
0.0
 40
0.0
 40
0.0
 40
0.0
 40
1.0
 40
1.0
 40
1.0
 40
2.0
 40
2.0
 40
2.0
 40
3.0
 40
3.0
 40
3.0
 40
4.0
 40
4.0
 40
4.0
 40
5.0
 40
5.0
 40
5.0
 40
6.0
 40
6.0
 40
6.0
 40
7.0
 40
7.0
 40
7.0
 40
8.0
 40
8.0
 40
8.0
 40
9.0
 40
9.0
 40
9.0
 40
10.0
 40
10.0
 40
10.0
 40
11.0
 40
11.0
 40
11.0
 40
12.0
 40
12.0
 40
12.0
 40
13.0
 40
13.0
 40
13.0
 40
14.0
 40
14.0
 40
14.0
 40
15.0
 40
15.0
 40
15.0
 40
16.0
 40
16.0
 40
16.0
 40
17.0
 40
17.0
 40
17.0
 40
18.0
 40
18.0
 40
18.0
 40
19.0
 40
19.0
 40
19.0
 40
20.0
 40
20.0
 40
20.0
 40
21.0
 40
21.0
 40
21.0
 40
22.0
 40
22.0
 40
22.0
 40
23.0
 40
23.0
 40
23.0
 40
24.0
 40
24.0
 40
24.0
 40
25.0
 40
25.0
 40
25.0
 40
26.0
 40
26.0
 40
26.0
 40
27.0
 40
27.0
 40
27.0
 40
28.0
 40
28.0
 40
28.0
 40
29.0
 40
29.0
 40
29.0
 40
30.0
 40
30.0
 40
30.0
 40
31.0
 40
31.0
 40
31.0
 40
32.0
 40
32.0
 40
32.0
 40
33.0
 40
33.0
 40
33.0
 40
34.0
 40
34.0
 40
34.0
 40
35.0
 40
35.0
 40
35.0
 40
36.0
 40
36.0
 40
36.0
 40
37.0
 40
37.0
 40
37.0
 40
38.0
 40
38.0
 40
38.0
 40
39.0
 40
39.0
 40
39.0
 40
40.0
 40
40.0
 40
40.0
 40
41.0
 40
41.0
 40
41.0
 40
42.0
 40
42.0
 40
42.0
 40
43.0
 40
43.0
 40
43.0
 40
44.0
 40
44.0
 40
44.0
 40
45.0
 40
45.0
 40
45.0
 40
46.0
 40
46.0
 40
46.0
 40
47.0
 40
47.0
 40
47.0
 40
48.0
 40
48.0
 40
48.0
 40
49.0
 40
49.0
 40
49.0
 40
50.0
 40
50.0
 40
50.0
 40
51.0
 40
51.0
 40
51.0
 40
52.0
 40
52.0
 40
52.0
 40
53.0
 40
53.0
 40
53.0
 40
54.0
 40
54.0
 40
54.0
 40
55.0
 40
55.0
 40
55.0
 40
56.0
 40
56.0
 40
56.0
 40
57.0
 40
57.0
 40
57.0
 40
58.0
 40
58.0
 40
58.0
 40
59.0
 40
59.0
 40
59.0
 40
60.0
 40
60.0
 40
60.0
 40
61.0
 40
61.0
 40
61.0
 40
62.0
 40
62.0
 40
62.0
 40
63.0
 40
63.0
 40
63.0
 40
64.0
 40
64.0
 40
64.0
 40
65.0
 40
65.0
 40
65.0
 40
66.0
 40
66.0
 40
66.0
 40
67.0
 40
67.0
 40
67.0
 40
68.0
 40
68.0
 40
68.0
 40
69.0
 40
69.0
 40
69.0
 40
70.0
 40
70.0
 40
70.0
 40
71.0
 40
71.0
 40
71.0
 40
72.0
 40
72.0
 40
72.0
 40
73.0
 40
73.0
 40
73.0
 40
74.0
 40
74.0
 40
74.0
 40
75.0
 40
75.0
 40
75.0
 40
76.0
 40
76.0
 40
76.0
 40
77.0
 40
77.0
 40
77.0
 40
78.0
 40
78.0
 40
78.0
 40
79.0
 40
79.0
 40
79.0
 40
79.0
 10
86.35045706391586
 20
-150.1234808652469
 30
0.0
 10
86.35045706391586
 20
-150.1234808652469
 30
0.0
 10
86.09672578142721
 20
-150.1234808652469
 30
0.0
 10
86.09672578142721
 20
-150.1234808652469
 30
0.0
 10
86.09672578142721
 20
-150.1234808652469
 30
0.0
 10
85.81956784963885
 20
-150.1234808652469
 30
0.0
 10
85.81956784963885
 20
-150.1234808652469
 30
0.0
 10
85.81956784963885
 20
-150.1234808652469
 30
0.0
 10
85.94651961827031
 20
-150.1658555397155
 30
0.0
 10
85.94651961827031
 20
-150.1658555397155
 30
0.0
 10
85.95702715950032
 20
-150.1699896542977
 30
0.0
 10
85.96977401279575
 20
-150.1765353357197
 30
0.0
 10
85.96977401279575
 20
-150.1892821890152
 30
0.0
 10
85.96977401279575
 20
-150.2102972714752
 30
0.0
 10
85.93807913433145
 20
-150.2164984433486
 30
0.0
 10
85.91689179709716
 20
-150.2209770674794
 30
0.0
 10
85.90621200109289
 20
-150.2440592072306
 30
0.0
 10
85.87658417991974
 20
-150.3098605309989
 30
0.0
 10
85.85763615475087
 20
-150.3543022627586
 30
0.0
 10
85.85763615475087
 20
-150.3543022627586
 30
0.0
 10
86.1284206598915
 20
-150.3543022627586
 30
0.0
 10
86.1284206598915
 20
-150.3543022627586
 30
0.0
 10
86.21937118070212
 20
-150.3543022627586
 30
0.0
 10
86.41608613290987
 20
-150.3498236386278
 30
0.0
 10
86.5578518121279
 20
-150.3415554094632
 30
0.0
 10
86.5578518121279
 20
-150.3415554094632
 30
0.0
 10
86.5578518121279
 20
-150.5193223365021
 30
0.0
 10
86.5578518121279
 20
-150.5193223365021
 30
0.0
 10
86.47534177525617
 20
-150.5148437123713
 30
0.0
 10
86.45415443802189
 20
-150.5148437123713
 30
0.0
 10
86.27432045369184
 20
-150.510709597789
 30
0.0
 10
86.24262557522753
 20
-150.6650498755282
 30
0.0
 10
86.19818384346782
 20
-150.745665109883
 30
0.0
 10
86.15374211170809
 20
-150.8152560386851
 30
0.0
 10
86.27432045369184
 20
-150.8745116810314
 30
0.0
 10
86.380084885089
 20
-150.9423800620908
 30
0.0
 10
86.48378225919502
 20
-151.0247178441882
 30
0.0
 10
86.48378225919502
 20
-151.0247178441882
 30
0.0
 10
86.36527097450244
 20
-151.1918049752229
 30
0.0
 10
86.36527097450244
 20
-151.1918049752229
 30
0.0
 10
86.34201657997699
 20
-151.172856950054
 30
0.0
 10
86.32944198145585
 20
-151.1642442113409
 30
0.0
 10
86.21730412341095
 20
-151.0798393719522
 30
0.0
 10
86.16855602229467
 20
-151.041598812066
 30
0.0
 10
86.10930037994839
 20
-151.0057698190194
 30
0.0
 10
86.02902965514205
 20
-150.9613280872597
 30
0.0
 10
85.81732853757344
 20
-151.1473632434631
 30
0.0
 10
85.61217310142682
 20
-151.1707898927628
 30
0.0
 10
85.3224405711173
 20
-151.200417713936
 30
0.0
 10
85.3224405711173
 20
-151.200417713936
 30
0.0
 10
85.21874319701129
 20
-151.0205837296059
 30
0.0
 10
85.21874319701129
 20
-151.0205837296059
 30
0.0
 10
85.5360364912028
 20
-151.0164496150236
 30
0.0
 10
85.71156410617629
 20
-150.9909559084328
 30
0.0
 10
85.8640095813986
 20
-150.8810573624533
 30
0.0
 10
85.74549829670599
 20
-150.8300699492716
 30
0.0
 10
85.65661483318654
 20
-150.8025091853896
 30
0.0
 10
85.62061358536569
 20
-150.7901068416428
 30
0.0
 10
85.6016655601968
 20
-150.8173230959762
 30
0.0
 10
85.58685164961024
 20
-150.8366156306936
 30
0.0
 10
85.55929088572822
 20
-150.8703775664491
 30
0.0
 10
85.55929088572822
 20
-150.8703775664491
 30
0.0
 10
85.36257593352047
 20
-150.787695274803
 30
0.0
 10
85.36257593352047
 20
-150.787695274803
 30
0.0
 10
85.4450859703922
 20
-150.7074245499967
 30
0.0
 10
85.50640867002966
 20
-150.6123399146038
 30
0.0
 10
85.5635972550848
 20
-150.510709597789
 30
0.0
 10
85.37308347475049
 20
-150.5148437123713
 30
0.0
 10
85.35206839229045
 20
-150.5148437123713
 30
0.0
 10
85.26955835541873
 20
-150.5193223365021
 30
0.0
 10
85.26955835541873
 20
-150.5193223365021
 30
0.0
 10
85.26955835541873
 20
-150.3415554094632
 30
0.0
 10
85.26955835541873
 20
-150.3415554094632
 30
0.0
 10
85.40908472257134
 20
-150.3477565813367
 30
0.0
 10
85.61854652807452
 20
-150.3518906959189
 30
0.0
 10
85.64386797989113
 20
-150.3518906959189
 30
0.0
 10
85.6609212025431
 20
-150.3181287601635
 30
0.0
 10
85.71587047553284
 20
-150.1975504181798
 30
0.0
 10
85.73499075547598
 20
-150.1234808652469
 30
0.0
 10
85.71587047553284
 20
-150.1234808652469
 30
0.0
 10
85.53810354849394
 20
-150.1300265466689
 30
0.0
 10
85.34362790835158
 20
-150.1427733999643
 30
0.0
 10
85.34362790835158
 20
-150.1427733999643
 30
0.0
 10
85.34362790835158
 20
-150.2757540856949
 30
0.0
 10
85.34362790835158
 20
-150.2757540856949
 30
0.0
 10
85.29487980723532
 20
-150.3012477922858
 30
0.0
 10
85.23562416488902
 20
-150.3329426707501
 30
0.0
 10
85.10229896960984
 20
-150.3987439945183
 30
0.0
 10
85.10229896960984
 20
-150.3987439945183
 30
0.0
 10
85.10229896960984
 20
-150.5444715335444
 30
0.0
 10
85.10229896960984
 20
-150.5444715335444
 30
0.0
 10
85.10229896960984
 20
-150.5444715335444
 30
0.0
 10
85.10229896960984
 20
-151.0119709908928
 30
0.0
 10
85.10229896960984
 20
-151.0119709908928
 30
0.0
 10
85.10229896960984
 20
-151.1390950142985
 30
0.0
 10
85.06646997656323
 20
-151.1983506566448
 30
0.0
 10
84.78293861812719
 20
-151.1897379179317
 30
0.0
 10
84.78293861812719
 20
-151.1897379179317
 30
0.0
 10
84.67924124402117
 20
-150.9823431697197
 30
0.0
 10
84.67924124402117
 20
-150.9823431697197
 30
0.0
 10
84.74280325572403
 20
-150.9950900230151
 30
0.0
 10
84.79137910206604
 20
-150.9992241375974
 30
0.0
 10
84.83151446446921
 20
-150.9992241375974
 30
0.0
 10
84.90782332946748
 20
-150.9992241375974
 30
0.0
 10
84.9183308706975
 20
-150.9761419978462
 30
0.0
 10
84.9183308706975
 20
-150.9106851836265
 30
0.0
 10
84.9183308706975
 20
-150.9106851836265
 30
0.0
 10
84.9183308706975
 20
-150.4810817766158
 30
0.0
 10
84.9183308706975
 20
-150.4810817766158
 30
0.0
 10
84.82100692323919
 20
-150.5213893937932
 30
0.0
 10
84.80412595536147
 20
-150.5275905656667
 30
0.0
 10
84.7576171663106
 20
-150.5465385908355
 30
0.0
 10
84.75331079695404
 20
-150.5678981828441
 30
0.0
 10
84.74900442759746
 20
-150.5975260040172
 30
0.0
 10
84.7300564024286
 20
-150.5975260040172
 30
0.0
 10
84.72161591848973
 20
-150.5975260040172
 30
0.0
 10
84.71093612248546
 20
-150.593391889435
 30
0.0
 10
84.70473495061202
 20
-150.5699652401353
 30
0.0
 10
84.70473495061202
 20
-150.5699652401353
 30
0.0
 10
84.65185273491343
 20
-150.3773844025098
 30
0.0
 10
84.65185273491343
 20
-150.3773844025098
 30
0.0
 10
84.79775252871375
 20
-150.3308756134589
 30
0.0
 10
84.86338159770777
 20
-150.3077934737078
 30
0.0
 10
84.9183308706975
 20
-150.2864338816992
 30
0.0
 10
84.9183308706975
 20
-150.2864338816992
 30
0.0
 10
84.9183308706975
 20
-149.8740559521148
 30
0.0
 10
84.9183308706975
 20
-149.8740559521148
 30
0.0
 10
84.9183308706975
 20
-149.8740559521148
 30
0.0
 10
84.86544865499892
 20
-149.8740559521148
 30
0.0
 10
84.86544865499892
 20
-149.8740559521148
 30
0.0
 10
84.86544865499892
 20
-149.8740559521148
 30
0.0
 10
84.78724498748375
 20
-149.8740559521148
 30
0.0
 10
84.78724498748375
 20
-149.8740559521148
 30
0.0
 10
84.71954886119858
 20
-149.8740559521148
 30
0.0
 10
84.71093612248546
 20
-149.8740559521148
 30
0.0
 10
84.67510712943887
 20
-149.8802571239883
 30
0.0
 10
84.67510712943887
 20
-149.8802571239883
 30
0.0
 10
84.67510712943887
 20
-149.6856092290717
 30
0.0
 10
84.67510712943887
 20
-149.6856092290717
 30
0.0
 10
84.70249563854661
 20
-149.6921549104936
 30
0.0
 10
84.71093612248546
 20
-149.6921549104936
 30
0.0
 10
84.78087156083603
 20
-149.6921549104936
 30
0.0
 10
84.78087156083603
 20
-149.6921549104936
 30
0.0
 10
84.91402450134094
 20
-149.6921549104936
 30
0.0
 10
84.91402450134094
 20
-149.6921549104936
 30
0.0
 10
84.91402450134094
 20
-149.622219472143
 30
0.0
 10
84.91402450134094
 20
-149.539537180497
 30
0.0
 10
84.91195744404979
 20
-149.5354030659147
 30
0.0
 10
84.90351696011094
 20
-149.3555690815847
 30
0.0
 10
84.90351696011094
 20
-149.3366210564158
 30
0.0
 10
84.90144990281978
 20
-149.2901122673649
 30
0.0
 10
84.90144990281978
 20
-149.2901122673649
 30
0.0
 10
85.11711288019641
 20
-149.2983804965295
 30
0.0
 10
85.11711288019641
 20
-149.2983804965295
 30
0.0
 10
85.1277926762007
 20
-149.2983804965295
 30
0.0
 10
85.14898001343498
 20
-149.3007920633692
 30
0.0
 10
85.14898001343498
 20
-149.317673031247
 30
0.0
 10
85.14898001343498
 20
-149.3366210564158
 30
0.0
 10
85.1341661028484
 20
-149.3473008524201
 30
0.0
 10
85.10867239625756
 20
-149.366248877589
 30
0.0
 10
85.10867239625756
 20
-149.4168917812221
 30
0.0
 10
85.10229896960984
 20
-149.6453016118942
 30
0.0
 10
85.10453828167525
 20
-149.6921549104936
 30
0.0
 10
85.23355710759785
 20
-149.6921549104936
 30
0.0
 10
85.24630396089328
 20
-149.6921549104936
 30
0.0
 10
85.34362790835158
 20
-149.6835421717805
 30
0.0
 10
85.34362790835158
 20
-149.6835421717805
 30
0.0
 10
85.34362790835158
 20
-149.8781900666971
 30
0.0
 10
85.34362790835158
 20
-149.8781900666971
 30
0.0
 10
85.30538734846532
 20
-149.876123009406
 30
0.0
 10
85.23769122218016
 20
-149.8719888948237
 30
0.0
 10
85.10229896960984
 20
-149.8740559521148
 30
0.0
 10
85.10229896960984
 20
-149.8740559521148
 30
0.0
 10
85.10229896960984
 20
-150.2123643287663
 30
0.0
 10
85.10229896960984
 20
-150.2123643287663
 30
0.0
 10
85.15742049737385
 20
-150.1892821890152
 30
0.0
 10
85.22287731159359
 20
-150.1617214251331
 30
0.0
 10
85.27162541270987
 20
-150.1382947758335
 30
0.0
 10
85.27162541270987
 20
-150.1382947758335
 30
0.0
 10
85.27162541270987
 20
-149.9605278487946
 30
0.0
 10
85.27162541270987
 20
-149.9605278487946
 30
0.0
 10
85.38583032804591
 20
-149.97327470209
 30
0.0
 10
85.5043416127385
 20
-149.97327470209
 30
0.0
 10
85.62061358536569
 20
-149.97327470209
 30
0.0
 10
85.59735919084024
 20
-149.8781900666971
 30
0.0
 10
85.56997068173251
 20
-149.7955077750511
 30
0.0
 10
85.50640867002966
 20
-149.6625270893205
 30
0.0
 10
85.46196693826992
 20
-149.6645941466116
 30
0.0
 10
85.37945690139819
 20
-149.6687282611939
 30
0.0
 10
85.34138859628617
 20
-149.6707953184851
 30
0.0
 10
85.34138859628617
 20
-149.6707953184851
 30
0.0
 10
85.34138859628617
 20
-149.490961334155
 30
0.0
 10
85.34138859628617
 20
-149.490961334155
 30
0.0
 10
85.4662733076265
 20
-149.4995740728682
 30
0.0
 10
85.63973386530882
 20
-149.5037081874504
 30
0.0
 10
85.72224390218055
 20
-149.5037081874504
 30
0.0
 10
85.72224390218055
 20
-149.5037081874504
 30
0.0
 10
85.8047539390523
 20
-149.5037081874504
 30
0.0
 10
85.8047539390523
 20
-149.5037081874504
 30
0.0
 10
85.8047539390523
 20
-149.3407551709981
 30
0.0
 10
85.8047539390523
 20
-149.3304198845424
 30
0.0
 10
85.80268688176113
 20
-149.2752983567784
 30
0.0
 10
85.80268688176113
 20
-149.2752983567784
 30
0.0
 10
86.02679034307664
 20
-149.3007920633692
 30
0.0
 10
86.02679034307664
 20
-149.3007920633692
 30
0.0
 10
86.0310967124332
 20
-149.3007920633692
 30
0.0
 10
86.0522840496675
 20
-149.3028591206604
 30
0.0
 10
86.0522840496675
 20
-149.3197400885381
 30
0.0
 10
86.0522840496675
 20
-149.3345539991247
 30
0.0
 10
86.04160425366321
 20
-149.3428222282893
 30
0.0
 10
86.01421574455548
 20
-149.3576361388758
 30
0.0
 10
86.00784231790775
 20
-149.4234374626441
 30
0.0
 10
86.00577526061661
 20
-149.4444525451042
 30
0.0
 10
86.00577526061661
 20
-149.5037081874504
 30
0.0
 10
86.00577526061661
 20
-149.5037081874504
 30
0.0
 10
86.10085989600952
 20
-149.5037081874504
 30
0.0
 10
86.10085989600952
 20
-149.5037081874504
 30
0.0
 10
86.18336993288124
 20
-149.5037081874504
 30
0.0
 10
86.35683049056357
 20
-149.4995740728682
 30
0.0
 10
86.48171520190388
 20
-149.490961334155
 30
0.0
 10
86.48171520190388
 20
-149.490961334155
 30
0.0
 10
86.48171520190388
 20
-149.6707953184851
 30
0.0
 10
86.48171520190388
 20
-149.6707953184851
 30
0.0
 10
86.45208738073073
 20
-149.6687282611939
 30
0.0
 10
86.33357609603814
 20
-149.6645941466116
 30
0.0
 10
86.29344073363498
 20
-149.6625270893205
 30
0.0
 10
86.2786268230484
 20
-149.7131699929536
 30
0.0
 10
86.24469263251869
 20
-149.8251355962243
 30
0.0
 10
86.17923581829895
 20
-149.9650064729254
 30
0.0
 10
86.22143823799325
 20
-149.9650064729254
 30
0.0
 10
86.4985961697816
 20
-149.945713938208
 30
0.0
 10
86.55991886941905
 20
-149.9436468809169
 30
0.0
 10
86.55991886941905
 20
-149.9436468809169
 30
0.0
 10
86.55991886941905
 20
-150.1279594893777
 30
0.0
 10
86.55991886941905
 20
-150.1279594893777
 30
0.0
 10
86.53029104824589
 20
-150.1279594893777
 30
0.0
 10
86.51341008036817
 20
-150.1234808652469
 30
0.0
 10
86.35045706391586
 20
-150.1234808652469
 30
0.0
  0
HATCH
  5
143
330
13C
100
AcDbEntity
  8
レイヤー 1
 62
    18
420
        0
440
 33554687
100
AcDbHatch
 10
0.0
 20
0.0
 30
0.0
210
0.0
220
0.0
230
1.0
  2
SOLID
 70
     1
 71
     1
 91
        3
 92
        1
 93
        1
 72
     4
 94
        3
 73
     0
 74
     0
 95
       17
 96
       13
 40
0.0
 40
0.0
 40
0.0
 40
0.0
 40
1.0
 40
1.0
 40
1.0
 40
2.0
 40
2.0
 40
2.0
 40
3.0
 40
3.0
 40
3.0
 40
4.0
 40
4.0
 40
4.0
 40
4.0
 10
85.78563365910914
 20
-150.5086425404978
 10
85.76875269123142
 20
-150.5382703616709
 10
85.71793753282399
 20
-150.6312879397727
 10
85.70742999159397
 20
-150.6502359649416
 10
85.89777151715402
 20
-150.7094916072879
 10
85.91895885438832
 20
-150.7160372887098
 10
85.99096135003005
 20
-150.7432535430433
 10
86.04591062301977
 20
-150.6567816463635
 10
86.06916501754522
 20
-150.5827120934307
 10
86.08397892813178
 20
-150.5086425404978
 10
86.08397892813178
 20
-150.5086425404978
 10
85.78563365910914
 20
-150.5086425404978
 10
85.78563365910914
 20
-150.5086425404978
 97
        0
 97
        1
330
140
 92
        1
 93
        1
 72
     4
 94
        3
 73
     0
 74
     0
 95
       20
 96
       16
 40
0.0
 40
0.0
 40
0.0
 40
0.0
 40
1.0
 40
1.0
 40
1.0
 40
2.0
 40
2.0
 40
2.0
 40
3.0
 40
3.0
 40
3.0
 40
4.0
 40
4.0
 40
4.0
 40
5.0
 40
5.0
 40
5.0
 40
5.0
 10
85.72224390218055
 20
-149.6580484651896
 10
85.72224390218055
 20
-149.6580484651896
 10
85.69054902371625
 20
-149.6580484651896
 10
85.69054902371625
 20
-149.6580484651896
 10
85.73705781276713
 20
-149.7576117247134
 10
85.76875269123142
 20
-149.8378824495197
 10
85.80268688176113
 20
-149.9650064729254
 10
85.80268688176113
 20
-149.9650064729254
 10
86.00990937519892
 20
-149.9650064729254
 10
86.00990937519892
 20
-149.9650064729254
 10
86.04160425366321
 20
-149.8719888948237
 10
86.06485864818864
 20
-149.7872395458865
 10
86.08811304271409
 20
-149.6580484651896
 10
86.08811304271409
 20
-149.6580484651896
 10
85.72224390218055
 20
-149.6580484651896
 10
85.72224390218055
 20
-149.6580484651896
 97
        0
 97
        1
330
141
 92
        1
 93
        1
 72
     4
 94
        3
 73
     0
 74
     0
 95
      242
 96
      238
 40
0.0
 40
0.0
 40
0.0
 40
0.0
 40
1.0
 40
1.0
 40
1.0
 40
2.0
 40
2.0
 40
2.0
 40
3.0
 40
3.0
 40
3.0
 40
4.0
 40
4.0
 40
4.0
 40
5.0
 40
5.0
 40
5.0
 40
6.0
 40
6.0
 40
6.0
 40
7.0
 40
7.0
 40
7.0
 40
8.0
 40
8.0
 40
8.0
 40
9.0
 40
9.0
 40
9.0
 40
10.0
 40
10.0
 40
10.0
 40
11.0
 40
11.0
 40
11.0
 40
12.0
 40
12.0
 40
12.0
 40
13.0
 40
13.0
 40
13.0
 40
14.0
 40
14.0
 40
14.0
 40
15.0
 40
15.0
 40
15.0
 40
16.0
 40
16.0
 40
16.0
 40
17.0
 40
17.0
 40
17.0
 40
18.0
 40
18.0
 40
18.0
 40
19.0
 40
19.0
 40
19.0
 40
20.0
 40
20.0
 40
20.0
 40
21.0
 40
21.0
 40
21.0
 40
22.0
 40
22.0
 40
22.0
 40
23.0
 40
23.0
 40
23.0
 40
24.0
 40
24.0
 40
24.0
 40
25.0
 40
25.0
 40
25.0
 40
26.0
 40
26.0
 40
26.0
 40
27.0
 40
27.0
 40
27.0
 40
28.0
 40
28.0
 40
28.0
 40
29.0
 40
29.0
 40
29.0
 40
30.0
 40
30.0
 40
30.0
 40
31.0
 40
31.0
 40
31.0
 40
32.0
 40
32.0
 40
32.0
 40
33.0
 40
33.0
 40
33.0
 40
34.0
 40
34.0
 40
34.0
 40
35.0
 40
35.0
 40
35.0
 40
36.0
 40
36.0
 40
36.0
 40
37.0
 40
37.0
 40
37.0
 40
38.0
 40
38.0
 40
38.0
 40
39.0
 40
39.0
 40
39.0
 40
40.0
 40
40.0
 40
40.0
 40
41.0
 40
41.0
 40
41.0
 40
42.0
 40
42.0
 40
42.0
 40
43.0
 40
43.0
 40
43.0
 40
44.0
 40
44.0
 40
44.0
 40
45.0
 40
45.0
 40
45.0
 40
46.0
 40
46.0
 40
46.0
 40
47.0
 40
47.0
 40
47.0
 40
48.0
 40
48.0
 40
48.0
 40
49.0
 40
49.0
 40
49.0
 40
50.0
 40
50.0
 40
50.0
 40
51.0
 40
51.0
 40
51.0
 40
52.0
 40
52.0
 40
52.0
 40
53.0
 40
53.0
 40
53.0
 40
54.0
 40
54.0
 40
54.0
 40
55.0
 40
55.0
 40
55.0
 40
56.0
 40
56.0
 40
56.0
 40
57.0
 40
57.0
 40
57.0
 40
58.0
 40
58.0
 40
58.0
 40
59.0
 40
59.0
 40
59.0
 40
60.0
 40
60.0
 40
60.0
 40
61.0
 40
61.0
 40
61.0
 40
62.0
 40
62.0
 40
62.0
 40
63.0
 40
63.0
 40
63.0
 40
64.0
 40
64.0
 40
64.0
 40
65.0
 40
65.0
 40
65.0
 40
66.0
 40
66.0
 40
66.0
 40
67.0
 40
67.0
 40
67.0
 40
68.0
 40
68.0
 40
68.0
 40
69.0
 40
69.0
 40
69.0
 40
70.0
 40
70.0
 40
70.0
 40
71.0
 40
71.0
 40
71.0
 40
72.0
 40
72.0
 40
72.0
 40
73.0
 40
73.0
 40
73.0
 40
74.0
 40
74.0
 40
74.0
 40
75.0
 40
75.0
 40
75.0
 40
76.0
 40
76.0
 40
76.0
 40
77.0
 40
77.0
 40
77.0
 40
78.0
 40
78.0
 40
78.0
 40
79.0
 40
79.0
 40
79.0
 40
79.0
 10
86.35045706391586
 20
-150.1234808652469
 10
86.35045706391586
 20
-150.1234808652469
 10
86.09672578142721
 20
-150.1234808652469
 10
86.09672578142721
 20
-150.1234808652469
 10
86.09672578142721
 20
-150.1234808652469
 10
85.81956784963885
 20
-150.1234808652469
 10
85.81956784963885
 20
-150.1234808652469
 10
85.81956784963885
 20
-150.1234808652469
 10
85.94651961827031
 20
-150.1658555397155
 10
85.94651961827031
 20
-150.1658555397155
 10
85.95702715950032
 20
-150.1699896542977
 10
85.96977401279575
 20
-150.1765353357197
 10
85.96977401279575
 20
-150.1892821890152
 10
85.96977401279575
 20
-150.2102972714752
 10
85.93807913433145
 20
-150.2164984433486
 10
85.91689179709716
 20
-150.2209770674794
 10
85.90621200109289
 20
-150.2440592072306
 10
85.87658417991974
 20
-150.3098605309989
 10
85.85763615475087
 20
-150.3543022627586
 10
85.85763615475087
 20
-150.3543022627586
 10
86.1284206598915
 20
-150.3543022627586
 10
86.1284206598915
 20
-150.3543022627586
 10
86.21937118070212
 20
-150.3543022627586
 10
86.41608613290987
 20
-150.3498236386278
 10
86.5578518121279
 20
-150.3415554094632
 10
86.5578518121279
 20
-150.3415554094632
 10
86.5578518121279
 20
-150.5193223365021
 10
86.5578518121279
 20
-150.5193223365021
 10
86.47534177525617
 20
-150.5148437123713
 10
86.45415443802189
 20
-150.5148437123713
 10
86.27432045369184
 20
-150.510709597789
 10
86.24262557522753
 20
-150.6650498755282
 10
86.19818384346782
 20
-150.745665109883
 10
86.15374211170809
 20
-150.8152560386851
 10
86.27432045369184
 20
-150.8745116810314
 10
86.380084885089
 20
-150.9423800620908
 10
86.48378225919502
 20
-151.0247178441882
 10
86.48378225919502
 20
-151.0247178441882
 10
86.36527097450244
 20
-151.1918049752229
 10
86.36527097450244
 20
-151.1918049752229
 10
86.34201657997699
 20
-151.172856950054
 10
86.32944198145585
 20
-151.1642442113409
 10
86.21730412341095
 20
-151.0798393719522
 10
86.16855602229467
 20
-151.041598812066
 10
86.10930037994839
 20
-151.0057698190194
 10
86.02902965514205
 20
-150.9613280872597
 10
85.81732853757344
 20
-151.1473632434631
 10
85.61217310142682
 20
-151.1707898927628
 10
85.3224405711173
 20
-151.200417713936
 10
85.3224405711173
 20
-151.200417713936
 10
85.21874319701129
 20
-151.0205837296059
 10
85.21874319701129
 20
-151.0205837296059
 10
85.5360364912028
 20
-151.0164496150236
 10
85.71156410617629
 20
-150.9909559084328
 10
85.8640095813986
 20
-150.8810573624533
 10
85.74549829670599
 20
-150.8300699492716
 10
85.65661483318654
 20
-150.8025091853896
 10
85.62061358536569
 20
-150.7901068416428
 10
85.6016655601968
 20
-150.8173230959762
 10
85.58685164961024
 20
-150.8366156306936
 10
85.55929088572822
 20
-150.8703775664491
 10
85.55929088572822
 20
-150.8703775664491
 10
85.36257593352047
 20
-150.787695274803
 10
85.36257593352047
 20
-150.787695274803
 10
85.4450859703922
 20
-150.7074245499967
 10
85.50640867002966
 20
-150.6123399146038
 10
85.5635972550848
 20
-150.510709597789
 10
85.37308347475049
 20
-150.5148437123713
 10
85.35206839229045
 20
-150.5148437123713
 10
85.26955835541873
 20
-150.5193223365021
 10
85.26955835541873
 20
-150.5193223365021
 10
85.26955835541873
 20
-150.3415554094632
 10
85.26955835541873
 20
-150.3415554094632
 10
85.40908472257134
 20
-150.3477565813367
 10
85.61854652807452
 20
-150.3518906959189
 10
85.64386797989113
 20
-150.3518906959189
 10
85.6609212025431
 20
-150.3181287601635
 10
85.71587047553284
 20
-150.1975504181798
 10
85.73499075547598
 20
-150.1234808652469
 10
85.71587047553284
 20
-150.1234808652469
 10
85.53810354849394
 20
-150.1300265466689
 10
85.34362790835158
 20
-150.1427733999643
 10
85.34362790835158
 20
-150.1427733999643
 10
85.34362790835158
 20
-150.2757540856949
 10
85.34362790835158
 20
-150.2757540856949
 10
85.29487980723532
 20
-150.3012477922858
 10
85.23562416488902
 20
-150.3329426707501
 10
85.10229896960984
 20
-150.3987439945183
 10
85.10229896960984
 20
-150.3987439945183
 10
85.10229896960984
 20
-150.5444715335444
 10
85.10229896960984
 20
-150.5444715335444
 10
85.10229896960984
 20
-150.5444715335444
 10
85.10229896960984
 20
-151.0119709908928
 10
85.10229896960984
 20
-151.0119709908928
 10
85.10229896960984
 20
-151.1390950142985
 10
85.06646997656323
 20
-151.1983506566448
 10
84.78293861812719
 20
-151.1897379179317
 10
84.78293861812719
 20
-151.1897379179317
 10
84.67924124402117
 20
-150.9823431697197
 10
84.67924124402117
 20
-150.9823431697197
 10
84.74280325572403
 20
-150.9950900230151
 10
84.79137910206604
 20
-150.9992241375974
 10
84.83151446446921
 20
-150.9992241375974
 10
84.90782332946748
 20
-150.9992241375974
 10
84.9183308706975
 20
-150.9761419978462
 10
84.9183308706975
 20
-150.9106851836265
 10
84.9183308706975
 20
-150.9106851836265
 10
84.9183308706975
 20
-150.4810817766158
 10
84.9183308706975
 20
-150.4810817766158
 10
84.82100692323919
 20
-150.5213893937932
 10
84.80412595536147
 20
-150.5275905656667
 10
84.7576171663106
 20
-150.5465385908355
 10
84.75331079695404
 20
-150.5678981828441
 10
84.74900442759746
 20
-150.5975260040172
 10
84.7300564024286
 20
-150.5975260040172
 10
84.72161591848973
 20
-150.5975260040172
 10
84.71093612248546
 20
-150.593391889435
 10
84.70473495061202
 20
-150.5699652401353
 10
84.70473495061202
 20
-150.5699652401353
 10
84.65185273491343
 20
-150.3773844025098
 10
84.65185273491343
 20
-150.3773844025098
 10
84.79775252871375
 20
-150.3308756134589
 10
84.86338159770777
 20
-150.3077934737078
 10
84.9183308706975
 20
-150.2864338816992
 10
84.9183308706975
 20
-150.2864338816992
 10
84.9183308706975
 20
-149.8740559521148
 10
84.9183308706975
 20
-149.8740559521148
 10
84.9183308706975
 20
-149.8740559521148
 10
84.86544865499892
 20
-149.8740559521148
 10
84.86544865499892
 20
-149.8740559521148
 10
84.86544865499892
 20
-149.8740559521148
 10
84.78724498748375
 20
-149.8740559521148
 10
84.78724498748375
 20
-149.8740559521148
 10
84.71954886119858
 20
-149.8740559521148
 10
84.71093612248546
 20
-149.8740559521148
 10
84.67510712943887
 20
-149.8802571239883
 10
84.67510712943887
 20
-149.8802571239883
 10
84.67510712943887
 20
-149.6856092290717
 10
84.67510712943887
 20
-149.6856092290717
 10
84.70249563854661
 20
-149.6921549104936
 10
84.71093612248546
 20
-149.6921549104936
 10
84.78087156083603
 20
-149.6921549104936
 10
84.78087156083603
 20
-149.6921549104936
 10
84.91402450134094
 20
-149.6921549104936
 10
84.91402450134094
 20
-149.6921549104936
 10
84.91402450134094
 20
-149.622219472143
 10
84.91402450134094
 20
-149.539537180497
 10
84.91195744404979
 20
-149.5354030659147
 10
84.90351696011094
 20
-149.3555690815847
 10
84.90351696011094
 20
-149.3366210564158
 10
84.90144990281978
 20
-149.2901122673649
 10
84.90144990281978
 20
-149.2901122673649
 10
85.11711288019641
 20
-149.2983804965295
 10
85.11711288019641
 20
-149.2983804965295
 10
85.1277926762007
 20
-149.2983804965295
 10
85.14898001343498
 20
-149.3007920633692
 10
85.14898001343498
 20
-149.317673031247
 10
85.14898001343498
 20
-149.3366210564158
 10
85.1341661028484
 20
-149.3473008524201
 10
85.10867239625756
 20
-149.366248877589
 10
85.10867239625756
 20
-149.4168917812221
 10
85.10229896960984
 20
-149.6453016118942
 10
85.10453828167525
 20
-149.6921549104936
 10
85.23355710759785
 20
-149.6921549104936
 10
85.24630396089328
 20
-149.6921549104936
 10
85.34362790835158
 20
-149.6835421717805
 10
85.34362790835158
 20
-149.6835421717805
 10
85.34362790835158
 20
-149.8781900666971
 10
85.34362790835158
 20
-149.8781900666971
 10
85.30538734846532
 20
-149.876123009406
 10
85.23769122218016
 20
-149.8719888948237
 10
85.10229896960984
 20
-149.8740559521148
 10
85.10229896960984
 20
-149.8740559521148
 10
85.10229896960984
 20
-150.2123643287663
 10
85.10229896960984
 20
-150.2123643287663
 10
85.15742049737385
 20
-150.1892821890152
 10
85.22287731159359
 20
-150.1617214251331
 10
85.27162541270987
 20
-150.1382947758335
 10
85.27162541270987
 20
-150.1382947758335
 10
85.27162541270987
 20
-149.9605278487946
 10
85.27162541270987
 20
-149.9605278487946
 10
85.38583032804591
 20
-149.97327470209
 10
85.5043416127385
 20
-149.97327470209
 10
85.62061358536569
 20
-149.97327470209
 10
85.59735919084024
 20
-149.8781900666971
 10
85.56997068173251
 20
-149.7955077750511
 10
85.50640867002966
 20
-149.6625270893205
 10
85.46196693826992
 20
-149.6645941466116
 10
85.37945690139819
 20
-149.6687282611939
 10
85.34138859628617
 20
-149.6707953184851
 10
85.34138859628617
 20
-149.6707953184851
 10
85.34138859628617
 20
-149.490961334155
 10
85.34138859628617
 20
-149.490961334155
 10
85.4662733076265
 20
-149.4995740728682
 10
85.63973386530882
 20
-149.5037081874504
 10
85.72224390218055
 20
-149.5037081874504
 10
85.72224390218055
 20
-149.5037081874504
 10
85.8047539390523
 20
-149.5037081874504
 10
85.8047539390523
 20
-149.5037081874504
 10
85.8047539390523
 20
-149.3407551709981
 10
85.8047539390523
 20
-149.3304198845424
 10
85.80268688176113
 20
-149.2752983567784
 10
85.80268688176113
 20
-149.2752983567784
 10
86.02679034307664
 20
-149.3007920633692
 10
86.02679034307664
 20
-149.3007920633692
 10
86.0310967124332
 20
-149.3007920633692
 10
86.0522840496675
 20
-149.3028591206604
 10
86.0522840496675
 20
-149.3197400885381
 10
86.0522840496675
 20
-149.3345539991247
 10
86.04160425366321
 20
-149.3428222282893
 10
86.01421574455548
 20
-149.3576361388758
 10
86.00784231790775
 20
-149.4234374626441
 10
86.00577526061661
 20
-149.4444525451042
 10
86.00577526061661
 20
-149.5037081874504
 10
86.00577526061661
 20
-149.5037081874504
 10
86.10085989600952
 20
-149.5037081874504
 10
86.10085989600952
 20
-149.5037081874504
 10
86.18336993288124
 20
-149.5037081874504
 10
86.35683049056357
 20
-149.4995740728682
 10
86.48171520190388
 20
-149.490961334155
 10
86.48171520190388
 20
-149.490961334155
 10
86.48171520190388
 20
-149.6707953184851
 10
86.48171520190388
 20
-149.6707953184851
 10
86.45208738073073
 20
-149.6687282611939
 10
86.33357609603814
 20
-149.6645941466116
 10
86.29344073363498
 20
-149.6625270893205
 10
86.2786268230484
 20
-149.7131699929536
 10
86.24469263251869
 20
-149.8251355962243
 10
86.17923581829895
 20
-149.9650064729254
 10
86.22143823799325
 20
-149.9650064729254
 10
86.4985961697816
 20
-149.945713938208
 10
86.55991886941905
 20
-149.9436468809169
 10
86.55991886941905
 20
-149.9436468809169
 10
86.55991886941905
 20
-150.1279594893777
 10
86.55991886941905
 20
-150.1279594893777
 10
86.53029104824589
 20
-150.1279594893777
 10
86.51341008036817
 20
-150.1234808652469
 10
86.35045706391586
 20
-150.1234808652469
 97
        0
 97
        1
330
142
 75
     2
 76
     1
 98
        1
 10
0.0
 20
0.0
450
        0
451
        0
460
0.0
461
0.0
452
        0
462
0.0
453
        0
470

  0
SPLINE
  5
144
330
13C
100
AcDbEntity
  8
レイヤー 1
100
AcDbSpline
210
0.0
220
0.0
230
1.0
 70
    11
 71
     3
 72
    17
 73
    13
 74
     0
 42
0.0000000001
 43
0.0000000001
 40
0.0
 40
0.0
 40
0.0
 40
0.0
 40
1.0
 40
1.0
 40
1.0
 40
2.0
 40
2.0
 40
2.0
 40
3.0
 40
3.0
 40
3.0
 40
4.0
 40
4.0
 40
4.0
 40
4.0
 10
88.207019020917
 20
-150.9230875273734
 30
0.0
 10
88.207019020917
 20
-150.9230875273734
 30
0.0
 10
87.50042993689225
 20
-150.9230875273734
 30
0.0
 10
87.50042993689225
 20
-150.9230875273734
 30
0.0
 10
87.50042993689225
 20
-150.9230875273734
 30
0.0
 10
87.50042993689225
 20
-151.0374646974837
 30
0.0
 10
87.50042993689225
 20
-151.0374646974837
 30
0.0
 10
87.50042993689225
 20
-151.0374646974837
 30
0.0
 10
88.207019020917
 20
-151.0374646974837
 30
0.0
 10
88.207019020917
 20
-151.0374646974837
 30
0.0
 10
88.207019020917
 20
-151.0374646974837
 30
0.0
 10
88.207019020917
 20
-150.9230875273734
 30
0.0
 10
88.207019020917
 20
-150.9230875273734
 30
0.0
  0
SPLINE
  5
145
330
13C
100
AcDbEntity
  8
レイヤー 1
100
AcDbSpline
210
0.0
220
0.0
230
1.0
 70
    11
 71
     3
 72
    17
 73
    13
 74
     0
 42
0.0000000001
 43
0.0000000001
 40
0.0
 40
0.0
 40
0.0
 40
0.0
 40
1.0
 40
1.0
 40
1.0
 40
2.0
 40
2.0
 40
2.0
 40
3.0
 40
3.0
 40
3.0
 40
4.0
 40
4.0
 40
4.0
 40
4.0
 10
88.207019020917
 20
-150.6798637861147
 30
0.0
 10
88.207019020917
 20
-150.6798637861147
 30
0.0
 10
87.50042993689225
 20
-150.6798637861147
 30
0.0
 10
87.50042993689225
 20
-150.6798637861147
 30
0.0
 10
87.50042993689225
 20
-150.6798637861147
 30
0.0
 10
87.50042993689225
 20
-150.794240956225
 30
0.0
 10
87.50042993689225
 20
-150.794240956225
 30
0.0
 10
87.50042993689225
 20
-150.794240956225
 30
0.0
 10
88.207019020917
 20
-150.794240956225
 30
0.0
 10
88.207019020917
 20
-150.794240956225
 30
0.0
 10
88.207019020917
 20
-150.794240956225
 30
0.0
 10
88.207019020917
 20
-150.6798637861147
 30
0.0
 10
88.207019020917
 20
-150.6798637861147
 30
0.0
  0
SPLINE
  5
146
330
13C
100
AcDbEntity
  8
レイヤー 1
100
AcDbSpline
210
0.0
220
0.0
230
1.0
 70
    11
 71
     3
 72
    17
 73
    13
 74
     0
 42
0.0000000001
 43
0.0000000001
 40
0.0
 40
0.0
 40
0.0
 40
0.0
 40
1.0
 40
1.0
 40
1.0
 40
2.0
 40
2.0
 40
2.0
 40
3.0
 40
3.0
 40
3.0
 40
4.0
 40
4.0
 40
4.0
 40
4.0
 10
88.207019020917
 20
-150.4473198408604
 30
0.0
 10
88.207019020917
 20
-150.4473198408604
 30
0.0
 10
87.50042993689225
 20
-150.4473198408604
 30
0.0
 10
87.50042993689225
 20
-150.4473198408604
 30
0.0
 10
87.50042993689225
 20
-150.4473198408604
 30
0.0
 10
87.50042993689225
 20
-150.5551513295487
 30
0.0
 10
87.50042993689225
 20
-150.5551513295487
 30
0.0
 10
87.50042993689225
 20
-150.5551513295487
 30
0.0
 10
88.207019020917
 20
-150.5551513295487
 30
0.0
 10
88.207019020917
 20
-150.5551513295487
 30
0.0
 10
88.207019020917
 20
-150.5551513295487
 30
0.0
 10
88.207019020917
 20
-150.4473198408604
 30
0.0
 10
88.207019020917
 20
-150.4473198408604
 30
0.0
  0
SPLINE
  5
147
330
13C
100
AcDbEntity
  8
レイヤー 1
100
AcDbSpline
210
0.0
220
0.0
230
1.0
 70
     9
 71
     3
 72
   203
 73
   199
 74
     0
 42
0.0000000001
 43
0.0000000001
 40
0.0
 40
0.0
 40
0.0
 40
0.0
 40
1.0
 40
1.0
 40
1.0
 40
2.0
 40
2.0
 40
2.0
 40
3.0
 40
3.0
 40
3.0
 40
4.0
 40
4.0
 40
4.0
 40
5.0
 40
5.0
 40
5.0
 40
6.0
 40
6.0
 40
6.0
 40
7.0
 40
7.0
 40
7.0
 40
8.0
 40
8.0
 40
8.0
 40
9.0
 40
9.0
 40
9.0
 40
10.0
 40
10.0
 40
10.0
 40
11.0
 40
11.0
 40
11.0
 40
12.0
 40
12.0
 40
12.0
 40
13.0
 40
13.0
 40
13.0
 40
14.0
 40
14.0
 40
14.0
 40
15.0
 40
15.0
 40
15.0
 40
16.0
 40
16.0
 40
16.0
 40
17.0
 40
17.0
 40
17.0
 40
18.0
 40
18.0
 40
18.0
 40
19.0
 40
19.0
 40
19.0
 40
20.0
 40
20.0
 40
20.0
 40
21.0
 40
21.0
 40
21.0
 40
22.0
 40
22.0
 40
22.0
 40
23.0
 40
23.0
 40
23.0
 40
24.0
 40
24.0
 40
24.0
 40
25.0
 40
25.0
 40
25.0
 40
26.0
 40
26.0
 40
26.0
 40
27.0
 40
27.0
 40
27.0
 40
28.0
 40
28.0
 40
28.0
 40
29.0
 40
29.0
 40
29.0
 40
30.0
 40
30.0
 40
30.0
 40
31.0
 40
31.0
 40
31.0
 40
32.0
 40
32.0
 40
32.0
 40
33.0
 40
33.0
 40
33.0
 40
34.0
 40
34.0
 40
34.0
 40
35.0
 40
35.0
 40
35.0
 40
36.0
 40
36.0
 40
36.0
 40
37.0
 40
37.0
 40
37.0
 40
38.0
 40
38.0
 40
38.0
 40
39.0
 40
39.0
 40
39.0
 40
40.0
 40
40.0
 40
40.0
 40
41.0
 40
41.0
 40
41.0
 40
42.0
 40
42.0
 40
42.0
 40
43.0
 40
43.0
 40
43.0
 40
44.0
 40
44.0
 40
44.0
 40
45.0
 40
45.0
 40
45.0
 40
46.0
 40
46.0
 40
46.0
 40
47.0
 40
47.0
 40
47.0
 40
48.0
 40
48.0
 40
48.0
 40
49.0
 40
49.0
 40
49.0
 40
50.0
 40
50.0
 40
50.0
 40
51.0
 40
51.0
 40
51.0
 40
52.0
 40
52.0
 40
52.0
 40
53.0
 40
53.0
 40
53.0
 40
54.0
 40
54.0
 40
54.0
 40
55.0
 40
55.0
 40
55.0
 40
56.0
 40
56.0
 40
56.0
 40
57.0
 40
57.0
 40
57.0
 40
58.0
 40
58.0
 40
58.0
 40
59.0
 40
59.0
 40
59.0
 40
60.0
 40
60.0
 40
60.0
 40
61.0
 40
61.0
 40
61.0
 40
62.0
 40
62.0
 40
62.0
 40
63.0
 40
63.0
 40
63.0
 40
64.0
 40
64.0
 40
64.0
 40
65.0
 40
65.0
 40
65.0
 40
66.0
 40
66.0
 40
66.0
 40
66.0
 10
88.04199894717354
 20
-150.1913492463063
 30
0.0
 10
88.04199894717354
 20
-150.1913492463063
 30
0.0
 10
87.48354896901453
 20
-150.1913492463063
 30
0.0
 10
87.48354896901453
 20
-150.1913492463063
 30
0.0
 10
87.47286917301025
 20
-150.235790978066
 30
0.0
 10
87.4644286890714
 20
-150.2674858565303
 30
0.0
 10
87.45168183577597
 20
-150.3053819068681
 30
0.0
 10
87.47717554236682
 20
-150.3053819068681
 30
0.0
 10
87.49198945295338
 20
-150.3077934737078
 30
0.0
 10
87.49836287960111
 20
-150.3077934737078
 30
0.0
 10
87.49836287960111
 20
-150.3077934737078
 30
0.0
 10
87.68663734787002
 20
-150.3077934737078
 30
0.0
 10
87.68663734787002
 20
-150.3077934737078
 30
0.0
 10
87.68663734787002
 20
-150.3077934737078
 30
0.0
 10
88.06094697234241
 20
-150.3077934737078
 30
0.0
 10
88.06094697234241
 20
-150.3077934737078
 30
0.0
 10
88.11176213074984
 20
-150.3077934737078
 30
0.0
 10
88.3952934891859
 20
-150.2950466204123
 30
0.0
 10
88.4269883676502
 20
-150.2950466204123
 30
0.0
 10
88.42492131035905
 20
-150.3226073842943
 30
0.0
 10
88.42268199829364
 20
-150.3415554094632
 30
0.0
 10
88.42268199829364
 20
-150.3711832306364
 30
0.0
 10
88.42061494100247
 20
-150.4028781091006
 30
0.0
 10
88.42061494100247
 20
-150.5382703616709
 30
0.0
 10
88.42061494100247
 20
-150.565831125553
 30
0.0
 10
88.42061494100247
 20
-150.565831125553
 30
0.0
 10
88.42061494100247
 20
-150.8111219241028
 30
0.0
 10
88.42061494100247
 20
-150.8111219241028
 30
0.0
 10
88.42061494100247
 20
-150.8555636558625
 30
0.0
 10
88.42492131035905
 20
-151.0522786080703
 30
0.0
 10
88.42905542494134
 20
-151.2045518285183
 30
0.0
 10
88.42905542494134
 20
-151.2045518285183
 30
0.0
 10
88.20271265156042
 20
-151.2045518285183
 30
0.0
 10
88.20271265156042
 20
-151.2045518285183
 30
0.0
 10
88.20271265156042
 20
-151.2045518285183
 30
0.0
 10
88.20477970885159
 20
-151.1707898927628
 30
0.0
 10
88.20477970885159
 20
-151.1707898927628
 30
0.0
 10
88.20477970885159
 20
-151.1707898927628
 30
0.0
 10
87.5024969941834
 20
-151.1707898927628
 30
0.0
 10
87.5024969941834
 20
-151.1707898927628
 30
0.0
 10
87.5024969941834
 20
-151.1707898927628
 30
0.0
 10
87.50456405147456
 20
-151.2045518285183
 30
0.0
 10
87.50456405147456
 20
-151.2045518285183
 30
0.0
 10
87.50456405147456
 20
-151.2045518285183
 30
0.0
 10
87.28666176203251
 20
-151.2045518285183
 30
0.0
 10
87.28666176203251
 20
-151.2045518285183
 30
0.0
 10
87.29096813138907
 20
-151.1494303007543
 30
0.0
 10
87.29096813138907
 20
-151.1370279570074
 30
0.0
 10
87.29734155803678
 20
-151.0226507868971
 30
0.0
 10
87.29940861532794
 20
-150.9950900230151
 30
0.0
 10
87.30147567261907
 20
-150.8617648277359
 30
0.0
 10
87.30147567261907
 20
-150.8428168025671
 30
0.0
 10
87.30147567261907
 20
-150.8428168025671
 30
0.0
 10
87.30147567261907
 20
-150.6399006784858
 30
0.0
 10
87.30147567261907
 20
-150.6399006784858
 30
0.0
 10
87.16194930546647
 20
-150.8893255916179
 30
0.0
 10
86.99262286236644
 20
-151.0205837296059
 30
0.0
 10
86.88685843096925
 20
-151.0860405438257
 30
0.0
 10
86.88685843096925
 20
-151.0860405438257
 30
0.0
 10
86.71339787328694
 20
-150.9465141766731
 30
0.0
 10
86.71339787328694
 20
-150.9465141766731
 30
0.0
 10
86.80228133680637
 20
-150.8958712730399
 30
0.0
 10
86.94611407331555
 20
-150.8090548668116
 30
0.0
 10
87.08357338317702
 20
-150.614406971895
 30
0.0
 10
87.17469615876188
 20
-150.4872829484893
 30
0.0
 10
87.24015297298164
 20
-150.3436224667543
 30
0.0
 10
87.27408716351133
 20
-150.1913492463063
 30
0.0
 10
87.04550507806501
 20
-150.1934163035975
 30
0.0
 10
86.86567109373497
 20
-150.1996174754709
 30
0.0
 10
86.77058645834208
 20
-150.2016845327621
 30
0.0
 10
86.77058645834208
 20
-150.2016845327621
 30
0.0
 10
86.77058645834208
 20
-150.0242621152717
 30
0.0
 10
86.77058645834208
 20
-150.0242621152717
 30
0.0
 10
86.96730141054985
 20
-150.0304632871451
 30
0.0
 10
87.2508327689859
 20
-150.0345974017274
 30
0.0
 10
87.4010389321428
 20
-150.0345974017274
 30
0.0
 10
87.4010389321428
 20
-150.0345974017274
 30
0.0
 10
87.61463485222829
 20
-150.0345974017274
 30
0.0
 10
87.61463485222829
 20
-150.0345974017274
 30
0.0
 10
87.61463485222829
 20
-150.0345974017274
 30
0.0
 10
87.61463485222829
 20
-149.9267659130391
 30
0.0
 10
87.61463485222829
 20
-149.9267659130391
 30
0.0
 10
87.61463485222829
 20
-149.9267659130391
 30
0.0
 10
87.46873505842795
 20
-149.9267659130391
 30
0.0
 10
87.46873505842795
 20
-149.9267659130391
 30
0.0
 10
87.29940861532794
 20
-149.9267659130391
 30
0.0
 10
87.13025442700216
 20
-149.9309000276214
 30
0.0
 10
86.96299504119329
 20
-149.9374457090434
 30
0.0
 10
86.96299504119329
 20
-149.9374457090434
 30
0.0
 10
86.96299504119329
 20
-149.7662244634265
 30
0.0
 10
86.96299504119329
 20
-149.7662244634265
 30
0.0
 10
87.11750757370673
 20
-149.7765597498822
 30
0.0
 10
87.30371498468448
 20
-149.7765597498822
 30
0.0
 10
87.46873505842795
 20
-149.7765597498822
 30
0.0
 10
87.46873505842795
 20
-149.7765597498822
 30
0.0
 10
87.61463485222829
 20
-149.7765597498822
 30
0.0
 10
87.61463485222829
 20
-149.7765597498822
 30
0.0
 10
87.61463485222829
 20
-149.7765597498822
 30
0.0
 10
87.61463485222829
 20
-149.6580484651896
 30
0.0
 10
87.61463485222829
 20
-149.6580484651896
 30
0.0
 10
87.61463485222829
 20
-149.6580484651896
 30
0.0
 10
87.48354896901453
 20
-149.6580484651896
 30
0.0
 10
87.48354896901453
 20
-149.6580484651896
 30
0.0
 10
87.43686792518941
 20
-149.6580484651896
 30
0.0
 10
87.23377954633392
 20
-149.6666612039027
 30
0.0
 10
87.19157712663962
 20
-149.6666612039027
 30
0.0
 10
86.98848874778413
 20
-149.6707953184851
 30
0.0
 10
86.9123521375601
 20
-149.6728623757762
 30
0.0
 10
86.83397621527069
 20
-149.6749294330673
 30
0.0
 10
86.83397621527069
 20
-149.6749294330673
 30
0.0
 10
86.83397621527069
 20
-149.490961334155
 30
0.0
 10
86.83397621527069
 20
-149.490961334155
 30
0.0
 10
86.94818113060671
 20
-149.4995740728682
 30
0.0
 10
86.99262286236644
 20
-149.4995740728682
 30
0.0
 10
87.37554522555194
 20
-149.5078423020328
 30
0.0
 10
87.31215546862335
 20
-149.4127576666398
 30
0.0
 10
87.28459470474135
 20
-149.3851969027579
 30
0.0
 10
87.24859345692049
 20
-149.3493679097112
 30
0.0
 10
87.24859345692049
 20
-149.3493679097112
 30
0.0
 10
87.42429332666823
 20
-149.2666856180653
 30
0.0
 10
87.42429332666823
 20
-149.2666856180653
 30
0.0
 10
87.4644286890714
 20
-149.3028591206604
 30
0.0
 10
87.50887042083112
 20
-149.3452337951289
 30
0.0
 10
87.58293997376398
 20
-149.4551323411084
 30
0.0
 10
87.58293997376398
 20
-149.4551323411084
 30
0.0
 10
87.46873505842795
 20
-149.5102538688724
 30
0.0
 10
87.46873505842795
 20
-149.5102538688724
 30
0.0
 10
87.46873505842795
 20
-149.5102538688724
 30
0.0
 10
87.47924259965797
 20
-149.5102538688724
 30
0.0
 10
87.47924259965797
 20
-149.5102538688724
 30
0.0
 10
87.47924259965797
 20
-149.5102538688724
 30
0.0
 10
88.00186358477038
 20
-149.5102538688724
 30
0.0
 10
88.00186358477038
 20
-149.5102538688724
 30
0.0
 10
88.00186358477038
 20
-149.5102538688724
 30
0.0
 10
87.9066066946032
 20
-149.4658121371127
 30
0.0
 10
87.9066066946032
 20
-149.4658121371127
 30
0.0
 10
87.93399520371094
 20
-149.4275715772264
 30
0.0
 10
87.9911837887661
 20
-149.3473008524201
 30
0.0
 10
88.00599769935267
 20
-149.2732312994872
 30
0.0
 10
88.00599769935267
 20
-149.2732312994872
 30
0.0
 10
88.21959361943816
 20
-149.3366210564158
 30
0.0
 10
88.21959361943816
 20
-149.3366210564158
 30
0.0
 10
88.22820635815128
 20
-149.338688113707
 30
0.0
 10
88.24922144061131
 20
-149.3493679097112
 30
0.0
 10
88.24922144061131
 20
-149.3703829921713
 30
0.0
 10
88.24922144061131
 20
-149.4086235520575
 30
0.0
 10
88.18376462639156
 20
-149.4086235520575
 30
0.0
 10
88.16464434644842
 20
-149.4086235520575
 30
0.0
 10
88.15413680521841
 20
-149.4275715772264
 30
0.0
 10
88.13088241069298
 20
-149.4678791944038
 30
0.0
 10
88.10125458951983
 20
-149.5078423020328
 30
0.0
 10
88.50105792058307
 20
-149.5016411301593
 30
0.0
 10
88.53068574175621
 20
-149.4995740728682
 30
0.0
 10
88.60682235198025
 20
-149.4930283914461
 30
0.0
 10
88.60682235198025
 20
-149.4930283914461
 30
0.0
 10
88.60682235198025
 20
-149.6749294330673
 30
0.0
 10
88.60682235198025
 20
-149.6749294330673
 30
0.0
 10
88.5877020720371
 20
-149.6749294330673
 30
0.0
 10
88.56238062022052
 20
-149.6728623757762
 30
0.0
 10
88.34241127348731
 20
-149.6645941466116
 30
0.0
 10
88.29159611507988
 20
-149.6625270893205
 30
0.0
 10
88.07162676834668
 20
-149.6580484651896
 30
0.0
 10
88.02718503658695
 20
-149.6580484651896
 30
0.0
 10
88.02718503658695
 20
-149.6580484651896
 30
0.0
 10
87.81134980443606
 20
-149.6580484651896
 30
0.0
 10
87.81134980443606
 20
-149.6580484651896
 30
0.0
 10
87.81134980443606
 20
-149.6580484651896
 30
0.0
 10
87.81134980443606
 20
-149.7765597498822
 30
0.0
 10
87.81134980443606
 20
-149.7765597498822
 30
0.0
 10
87.81134980443606
 20
-149.7765597498822
 30
0.0
 10
87.98481036211837
 20
-149.7765597498822
 30
0.0
 10
87.98481036211837
 20
-149.7765597498822
 30
0.0
 10
88.1477633785707
 20
-149.7765597498822
 30
0.0
 10
88.33810490413076
 20
-149.7765597498822
 30
0.0
 10
88.49468449393537
 20
-149.7662244634265
 30
0.0
 10
88.49468449393537
 20
-149.7662244634265
 30
0.0
 10
88.49468449393537
 20
-149.9374457090434
 30
0.0
 10
88.49468449393537
 20
-149.9374457090434
 30
0.0
 10
88.28522268843217
 20
-149.9288329703303
 30
0.0
 10
88.0885077362244
 20
-149.9267659130391
 30
0.0
 10
87.98481036211837
 20
-149.9267659130391
 30
0.0
 10
87.98481036211837
 20
-149.9267659130391
 30
0.0
 10
87.81134980443606
 20
-149.9267659130391
 30
0.0
 10
87.81134980443606
 20
-149.9267659130391
 30
0.0
 10
87.81134980443606
 20
-149.9267659130391
 30
0.0
 10
87.81134980443606
 20
-150.0345974017274
 30
0.0
 10
87.81134980443606
 20
-150.0345974017274
 30
0.0
 10
87.81134980443606
 20
-150.0345974017274
 30
0.0
 10
88.04199894717354
 20
-150.0345974017274
 30
0.0
 10
88.04199894717354
 20
-150.0345974017274
 30
0.0
 10
88.17532414245269
 20
-150.0345974017274
 30
0.0
 10
88.46298961547105
 20
-150.0304632871451
 30
0.0
 10
88.67245142097425
 20
-150.0242621152717
 30
0.0
 10
88.67245142097425
 20
-150.0242621152717
 30
0.0
 10
88.67245142097425
 20
-150.2016845327621
 30
0.0
 10
88.67245142097425
 20
-150.2016845327621
 30
0.0
 10
88.47987058334878
 20
-150.1954833608886
 30
0.0
 10
88.16671140373957
 20
-150.1913492463063
 30
0.0
 10
88.04199894717354
 20
-150.1913492463063
 30
0.0
  0
HATCH
  5
148
330
13C
100
AcDbEntity
  8
レイヤー 1
 62
    18
420
        0
440
 33554687
100
AcDbHatch
 10
0.0
 20
0.0
 30
0.0
210
0.0
220
0.0
230
1.0
  2
SOLID
 70
     1
 71
     1
 91
        4
 92
        1
 93
        1
 72
     4
 94
        3
 73
     0
 74
     0
 95
       17
 96
       13
 40
0.0
 40
0.0
 40
0.0
 40
0.0
 40
1.0
 40
1.0
 40
1.0
 40
2.0
 40
2.0
 40
2.0
 40
3.0
 40
3.0
 40
3.0
 40
4.0
 40
4.0
 40
4.0
 40
4.0
 10
88.207019020917
 20
-150.9230875273734
 10
88.207019020917
 20
-150.9230875273734
 10
87.50042993689225
 20
-150.9230875273734
 10
87.50042993689225
 20
-150.9230875273734
 10
87.50042993689225
 20
-150.9230875273734
 10
87.50042993689225
 20
-151.0374646974837
 10
87.50042993689225
 20
-151.0374646974837
 10
87.50042993689225
 20
-151.0374646974837
 10
88.207019020917
 20
-151.0374646974837
 10
88.207019020917
 20
-151.0374646974837
 10
88.207019020917
 20
-151.0374646974837
 10
88.207019020917
 20
-150.9230875273734
 10
88.207019020917
 20
-150.9230875273734
 97
        0
 97
        1
330
144
 92
        1
 93
        1
 72
     4
 94
        3
 73
     0
 74
     0
 95
       17
 96
       13
 40
0.0
 40
0.0
 40
0.0
 40
0.0
 40
1.0
 40
1.0
 40
1.0
 40
2.0
 40
2.0
 40
2.0
 40
3.0
 40
3.0
 40
3.0
 40
4.0
 40
4.0
 40
4.0
 40
4.0
 10
88.207019020917
 20
-150.6798637861147
 10
88.207019020917
 20
-150.6798637861147
 10
87.50042993689225
 20
-150.6798637861147
 10
87.50042993689225
 20
-150.6798637861147
 10
87.50042993689225
 20
-150.6798637861147
 10
87.50042993689225
 20
-150.794240956225
 10
87.50042993689225
 20
-150.794240956225
 10
87.50042993689225
 20
-150.794240956225
 10
88.207019020917
 20
-150.794240956225
 10
88.207019020917
 20
-150.794240956225
 10
88.207019020917
 20
-150.794240956225
 10
88.207019020917
 20
-150.6798637861147
 10
88.207019020917
 20
-150.6798637861147
 97
        0
 97
        1
330
145
 92
        1
 93
        1
 72
     4
 94
        3
 73
     0
 74
     0
 95
       17
 96
       13
 40
0.0
 40
0.0
 40
0.0
 40
0.0
 40
1.0
 40
1.0
 40
1.0
 40
2.0
 40
2.0
 40
2.0
 40
3.0
 40
3.0
 40
3.0
 40
4.0
 40
4.0
 40
4.0
 40
4.0
 10
88.207019020917
 20
-150.4473198408604
 10
88.207019020917
 20
-150.4473198408604
 10
87.50042993689225
 20
-150.4473198408604
 10
87.50042993689225
 20
-150.4473198408604
 10
87.50042993689225
 20
-150.4473198408604
 10
87.50042993689225
 20
-150.5551513295487
 10
87.50042993689225
 20
-150.5551513295487
 10
87.50042993689225
 20
-150.5551513295487
 10
88.207019020917
 20
-150.5551513295487
 10
88.207019020917
 20
-150.5551513295487
 10
88.207019020917
 20
-150.5551513295487
 10
88.207019020917
 20
-150.4473198408604
 10
88.207019020917
 20
-150.4473198408604
 97
        0
 97
        1
330
146
 92
        1
 93
        1
 72
     4
 94
        3
 73
     0
 74
     0
 95
      203
 96
      199
 40
0.0
 40
0.0
 40
0.0
 40
0.0
 40
1.0
 40
1.0
 40
1.0
 40
2.0
 40
2.0
 40
2.0
 40
3.0
 40
3.0
 40
3.0
 40
4.0
 40
4.0
 40
4.0
 40
5.0
 40
5.0
 40
5.0
 40
6.0
 40
6.0
 40
6.0
 40
7.0
 40
7.0
 40
7.0
 40
8.0
 40
8.0
 40
8.0
 40
9.0
 40
9.0
 40
9.0
 40
10.0
 40
10.0
 40
10.0
 40
11.0
 40
11.0
 40
11.0
 40
12.0
 40
12.0
 40
12.0
 40
13.0
 40
13.0
 40
13.0
 40
14.0
 40
14.0
 40
14.0
 40
15.0
 40
15.0
 40
15.0
 40
16.0
 40
16.0
 40
16.0
 40
17.0
 40
17.0
 40
17.0
 40
18.0
 40
18.0
 40
18.0
 40
19.0
 40
19.0
 40
19.0
 40
20.0
 40
20.0
 40
20.0
 40
21.0
 40
21.0
 40
21.0
 40
22.0
 40
22.0
 40
22.0
 40
23.0
 40
23.0
 40
23.0
 40
24.0
 40
24.0
 40
24.0
 40
25.0
 40
25.0
 40
25.0
 40
26.0
 40
26.0
 40
26.0
 40
27.0
 40
27.0
 40
27.0
 40
28.0
 40
28.0
 40
28.0
 40
29.0
 40
29.0
 40
29.0
 40
30.0
 40
30.0
 40
30.0
 40
31.0
 40
31.0
 40
31.0
 40
32.0
 40
32.0
 40
32.0
 40
33.0
 40
33.0
 40
33.0
 40
34.0
 40
34.0
 40
34.0
 40
35.0
 40
35.0
 40
35.0
 40
36.0
 40
36.0
 40
36.0
 40
37.0
 40
37.0
 40
37.0
 40
38.0
 40
38.0
 40
38.0
 40
39.0
 40
39.0
 40
39.0
 40
40.0
 40
40.0
 40
40.0
 40
41.0
 40
41.0
 40
41.0
 40
42.0
 40
42.0
 40
42.0
 40
43.0
 40
43.0
 40
43.0
 40
44.0
 40
44.0
 40
44.0
 40
45.0
 40
45.0
 40
45.0
 40
46.0
 40
46.0
 40
46.0
 40
47.0
 40
47.0
 40
47.0
 40
48.0
 40
48.0
 40
48.0
 40
49.0
 40
49.0
 40
49.0
 40
50.0
 40
50.0
 40
50.0
 40
51.0
 40
51.0
 40
51.0
 40
52.0
 40
52.0
 40
52.0
 40
53.0
 40
53.0
 40
53.0
 40
54.0
 40
54.0
 40
54.0
 40
55.0
 40
55.0
 40
55.0
 40
56.0
 40
56.0
 40
56.0
 40
57.0
 40
57.0
 40
57.0
 40
58.0
 40
58.0
 40
58.0
 40
59.0
 40
59.0
 40
59.0
 40
60.0
 40
60.0
 40
60.0
 40
61.0
 40
61.0
 40
61.0
 40
62.0
 40
62.0
 40
62.0
 40
63.0
 40
63.0
 40
63.0
 40
64.0
 40
64.0
 40
64.0
 40
65.0
 40
65.0
 40
65.0
 40
66.0
 40
66.0
 40
66.0
 40
66.0
 10
88.04199894717354
 20
-150.1913492463063
 10
88.04199894717354
 20
-150.1913492463063
 10
87.48354896901453
 20
-150.1913492463063
 10
87.48354896901453
 20
-150.1913492463063
 10
87.47286917301025
 20
-150.235790978066
 10
87.4644286890714
 20
-150.2674858565303
 10
87.45168183577597
 20
-150.3053819068681
 10
87.47717554236682
 20
-150.3053819068681
 10
87.49198945295338
 20
-150.3077934737078
 10
87.49836287960111
 20
-150.3077934737078
 10
87.49836287960111
 20
-150.3077934737078
 10
87.68663734787002
 20
-150.3077934737078
 10
87.68663734787002
 20
-150.3077934737078
 10
87.68663734787002
 20
-150.3077934737078
 10
88.06094697234241
 20
-150.3077934737078
 10
88.06094697234241
 20
-150.3077934737078
 10
88.11176213074984
 20
-150.3077934737078
 10
88.3952934891859
 20
-150.2950466204123
 10
88.4269883676502
 20
-150.2950466204123
 10
88.42492131035905
 20
-150.3226073842943
 10
88.42268199829364
 20
-150.3415554094632
 10
88.42268199829364
 20
-150.3711832306364
 10
88.42061494100247
 20
-150.4028781091006
 10
88.42061494100247
 20
-150.5382703616709
 10
88.42061494100247
 20
-150.565831125553
 10
88.42061494100247
 20
-150.565831125553
 10
88.42061494100247
 20
-150.8111219241028
 10
88.42061494100247
 20
-150.8111219241028
 10
88.42061494100247
 20
-150.8555636558625
 10
88.42492131035905
 20
-151.0522786080703
 10
88.42905542494134
 20
-151.2045518285183
 10
88.42905542494134
 20
-151.2045518285183
 10
88.20271265156042
 20
-151.2045518285183
 10
88.20271265156042
 20
-151.2045518285183
 10
88.20271265156042
 20
-151.2045518285183
 10
88.20477970885159
 20
-151.1707898927628
 10
88.20477970885159
 20
-151.1707898927628
 10
88.20477970885159
 20
-151.1707898927628
 10
87.5024969941834
 20
-151.1707898927628
 10
87.5024969941834
 20
-151.1707898927628
 10
87.5024969941834
 20
-151.1707898927628
 10
87.50456405147456
 20
-151.2045518285183
 10
87.50456405147456
 20
-151.2045518285183
 10
87.50456405147456
 20
-151.2045518285183
 10
87.28666176203251
 20
-151.2045518285183
 10
87.28666176203251
 20
-151.2045518285183
 10
87.29096813138907
 20
-151.1494303007543
 10
87.29096813138907
 20
-151.1370279570074
 10
87.29734155803678
 20
-151.0226507868971
 10
87.29940861532794
 20
-150.9950900230151
 10
87.30147567261907
 20
-150.8617648277359
 10
87.30147567261907
 20
-150.8428168025671
 10
87.30147567261907
 20
-150.8428168025671
 10
87.30147567261907
 20
-150.6399006784858
 10
87.30147567261907
 20
-150.6399006784858
 10
87.16194930546647
 20
-150.8893255916179
 10
86.99262286236644
 20
-151.0205837296059
 10
86.88685843096925
 20
-151.0860405438257
 10
86.88685843096925
 20
-151.0860405438257
 10
86.71339787328694
 20
-150.9465141766731
 10
86.71339787328694
 20
-150.9465141766731
 10
86.80228133680637
 20
-150.8958712730399
 10
86.94611407331555
 20
-150.8090548668116
 10
87.08357338317702
 20
-150.614406971895
 10
87.17469615876188
 20
-150.4872829484893
 10
87.24015297298164
 20
-150.3436224667543
 10
87.27408716351133
 20
-150.1913492463063
 10
87.04550507806501
 20
-150.1934163035975
 10
86.86567109373497
 20
-150.1996174754709
 10
86.77058645834208
 20
-150.2016845327621
 10
86.77058645834208
 20
-150.2016845327621
 10
86.77058645834208
 20
-150.0242621152717
 10
86.77058645834208
 20
-150.0242621152717
 10
86.96730141054985
 20
-150.0304632871451
 10
87.2508327689859
 20
-150.0345974017274
 10
87.4010389321428
 20
-150.0345974017274
 10
87.4010389321428
 20
-150.0345974017274
 10
87.61463485222829
 20
-150.0345974017274
 10
87.61463485222829
 20
-150.0345974017274
 10
87.61463485222829
 20
-150.0345974017274
 10
87.61463485222829
 20
-149.9267659130391
 10
87.61463485222829
 20
-149.9267659130391
 10
87.61463485222829
 20
-149.9267659130391
 10
87.46873505842795
 20
-149.9267659130391
 10
87.46873505842795
 20
-149.9267659130391
 10
87.29940861532794
 20
-149.9267659130391
 10
87.13025442700216
 20
-149.9309000276214
 10
86.96299504119329
 20
-149.9374457090434
 10
86.96299504119329
 20
-149.9374457090434
 10
86.96299504119329
 20
-149.7662244634265
 10
86.96299504119329
 20
-149.7662244634265
 10
87.11750757370673
 20
-149.7765597498822
 10
87.30371498468448
 20
-149.7765597498822
 10
87.46873505842795
 20
-149.7765597498822
 10
87.46873505842795
 20
-149.7765597498822
 10
87.61463485222829
 20
-149.7765597498822
 10
87.61463485222829
 20
-149.7765597498822
 10
87.61463485222829
 20
-149.7765597498822
 10
87.61463485222829
 20
-149.6580484651896
 10
87.61463485222829
 20
-149.6580484651896
 10
87.61463485222829
 20
-149.6580484651896
 10
87.48354896901453
 20
-149.6580484651896
 10
87.48354896901453
 20
-149.6580484651896
 10
87.43686792518941
 20
-149.6580484651896
 10
87.23377954633392
 20
-149.6666612039027
 10
87.19157712663962
 20
-149.6666612039027
 10
86.98848874778413
 20
-149.6707953184851
 10
86.9123521375601
 20
-149.6728623757762
 10
86.83397621527069
 20
-149.6749294330673
 10
86.83397621527069
 20
-149.6749294330673
 10
86.83397621527069
 20
-149.490961334155
 10
86.83397621527069
 20
-149.490961334155
 10
86.94818113060671
 20
-149.4995740728682
 10
86.99262286236644
 20
-149.4995740728682
 10
87.37554522555194
 20
-149.5078423020328
 10
87.31215546862335
 20
-149.4127576666398
 10
87.28459470474135
 20
-149.3851969027579
 10
87.24859345692049
 20
-149.3493679097112
 10
87.24859345692049
 20
-149.3493679097112
 10
87.42429332666823
 20
-149.2666856180653
 10
87.42429332666823
 20
-149.2666856180653
 10
87.4644286890714
 20
-149.3028591206604
 10
87.50887042083112
 20
-149.3452337951289
 10
87.58293997376398
 20
-149.4551323411084
 10
87.58293997376398
 20
-149.4551323411084
 10
87.46873505842795
 20
-149.5102538688724
 10
87.46873505842795
 20
-149.5102538688724
 10
87.46873505842795
 20
-149.5102538688724
 10
87.47924259965797
 20
-149.5102538688724
 10
87.47924259965797
 20
-149.5102538688724
 10
87.47924259965797
 20
-149.5102538688724
 10
88.00186358477038
 20
-149.5102538688724
 10
88.00186358477038
 20
-149.5102538688724
 10
88.00186358477038
 20
-149.5102538688724
 10
87.9066066946032
 20
-149.4658121371127
 10
87.9066066946032
 20
-149.4658121371127
 10
87.93399520371094
 20
-149.4275715772264
 10
87.9911837887661
 20
-149.3473008524201
 10
88.00599769935267
 20
-149.2732312994872
 10
88.00599769935267
 20
-149.2732312994872
 10
88.21959361943816
 20
-149.3366210564158
 10
88.21959361943816
 20
-149.3366210564158
 10
88.22820635815128
 20
-149.338688113707
 10
88.24922144061131
 20
-149.3493679097112
 10
88.24922144061131
 20
-149.3703829921713
 10
88.24922144061131
 20
-149.4086235520575
 10
88.18376462639156
 20
-149.4086235520575
 10
88.16464434644842
 20
-149.4086235520575
 10
88.15413680521841
 20
-149.4275715772264
 10
88.13088241069298
 20
-149.4678791944038
 10
88.10125458951983
 20
-149.5078423020328
 10
88.50105792058307
 20
-149.5016411301593
 10
88.53068574175621
 20
-149.4995740728682
 10
88.60682235198025
 20
-149.4930283914461
 10
88.60682235198025
 20
-149.4930283914461
 10
88.60682235198025
 20
-149.6749294330673
 10
88.60682235198025
 20
-149.6749294330673
 10
88.5877020720371
 20
-149.6749294330673
 10
88.56238062022052
 20
-149.6728623757762
 10
88.34241127348731
 20
-149.6645941466116
 10
88.29159611507988
 20
-149.6625270893205
 10
88.07162676834668
 20
-149.6580484651896
 10
88.02718503658695
 20
-149.6580484651896
 10
88.02718503658695
 20
-149.6580484651896
 10
87.81134980443606
 20
-149.6580484651896
 10
87.81134980443606
 20
-149.6580484651896
 10
87.81134980443606
 20
-149.6580484651896
 10
87.81134980443606
 20
-149.7765597498822
 10
87.81134980443606
 20
-149.7765597498822
 10
87.81134980443606
 20
-149.7765597498822
 10
87.98481036211837
 20
-149.7765597498822
 10
87.98481036211837
 20
-149.7765597498822
 10
88.1477633785707
 20
-149.7765597498822
 10
88.33810490413076
 20
-149.7765597498822
 10
88.49468449393537
 20
-149.7662244634265
 10
88.49468449393537
 20
-149.7662244634265
 10
88.49468449393537
 20
-149.9374457090434
 10
88.49468449393537
 20
-149.9374457090434
 10
88.28522268843217
 20
-149.9288329703303
 10
88.0885077362244
 20
-149.9267659130391
 10
87.98481036211837
 20
-149.9267659130391
 10
87.98481036211837
 20
-149.9267659130391
 10
87.81134980443606
 20
-149.9267659130391
 10
87.81134980443606
 20
-149.9267659130391
 10
87.81134980443606
 20
-149.9267659130391
 10
87.81134980443606
 20
-150.0345974017274
 10
87.81134980443606
 20
-150.0345974017274
 10
87.81134980443606
 20
-150.0345974017274
 10
88.04199894717354
 20
-150.0345974017274
 10
88.04199894717354
 20
-150.0345974017274
 10
88.17532414245269
 20
-150.0345974017274
 10
88.46298961547105
 20
-150.0304632871451
 10
88.67245142097425
 20
-150.0242621152717
 10
88.67245142097425
 20
-150.0242621152717
 10
88.67245142097425
 20
-150.2016845327621
 10
88.67245142097425
 20
-150.2016845327621
 10
88.47987058334878
 20
-150.1954833608886
 10
88.16671140373957
 20
-150.1913492463063
 10
88.04199894717354
 20
-150.1913492463063
 97
        0
 97
        1
330
147
 75
     2
 76
     1
 98
        1
 10
0.0
 20
0.0
450
        0
451
        0
460
0.0
461
0.0
452
        0
462
0.0
453
        0
470

  0
SPLINE
  5
149
330
13C
100
AcDbEntity
  8
レイヤー 1
100
AcDbSpline
210
0.0
220
0.0
230
1.0
 70
     9
 71
     3
 72
    29
 73
    25
 74
     0
 42
0.0000000001
 43
0.0000000001
 40
0.0
 40
0.0
 40
0.0
 40
0.0
 40
1.0
 40
1.0
 40
1.0
 40
2.0
 40
2.0
 40
2.0
 40
3.0
 40
3.0
 40
3.0
 40
4.0
 40
4.0
 40
4.0
 40
5.0
 40
5.0
 40
5.0
 40
6.0
 40
6.0
 40
6.0
 40
7.0
 40
7.0
 40
7.0
 40
8.0
 40
8.0
 40
8.0
 40
8.0
 10
89.91750892934353
 20
-149.6391004400208
 30
0.0
 10
89.91750892934353
 20
-149.6391004400208
 30
0.0
 10
89.56421438733118
 20
-149.6391004400208
 30
0.0
 10
89.56421438733118
 20
-149.6391004400208
 30
0.0
 10
89.45207652928628
 20
-149.6391004400208
 30
0.0
 10
89.3123779073594
 20
-149.6453016118942
 30
0.0
 10
89.20454641867108
 20
-149.6580484651896
 30
0.0
 10
89.20454641867108
 20
-149.6580484651896
 30
0.0
 10
89.20454641867108
 20
-149.4234374626441
 30
0.0
 10
89.20454641867108
 20
-149.4234374626441
 30
0.0
 10
89.32305770336368
 20
-149.4382513732307
 30
0.0
 10
89.50702580227602
 20
-149.442385487813
 30
0.0
 10
89.56421438733118
 20
-149.442385487813
 30
0.0
 10
89.56421438733118
 20
-149.442385487813
 30
0.0
 10
89.91750892934353
 20
-149.442385487813
 30
0.0
 10
89.91750892934353
 20
-149.442385487813
 30
0.0
 10
89.93645695451242
 20
-149.442385487813
 30
0.0
 10
90.13954533336789
 20
-149.442385487813
 30
0.0
 10
90.28131101258592
 20
-149.4234374626441
 30
0.0
 10
90.28131101258592
 20
-149.4234374626441
 30
0.0
 10
90.28131101258592
 20
-149.6580484651896
 30
0.0
 10
90.28131101258592
 20
-149.6580484651896
 30
0.0
 10
90.12473142278132
 20
-149.6391004400208
 30
0.0
 10
89.93438989722127
 20
-149.6391004400208
 30
0.0
 10
89.91750892934353
 20
-149.6391004400208
 30
0.0
  0
SPLINE
  5
14A
330
13C
100
AcDbEntity
  8
レイヤー 1
100
AcDbSpline
210
0.0
220
0.0
230
1.0
 70
     9
 71
     3
 72
    47
 73
    43
 74
     0
 42
0.0000000001
 43
0.0000000001
 40
0.0
 40
0.0
 40
0.0
 40
0.0
 40
1.0
 40
1.0
 40
1.0
 40
2.0
 40
2.0
 40
2.0
 40
3.0
 40
3.0
 40
3.0
 40
4.0
 40
4.0
 40
4.0
 40
5.0
 40
5.0
 40
5.0
 40
6.0
 40
6.0
 40
6.0
 40
7.0
 40
7.0
 40
7.0
 40
8.0
 40
8.0
 40
8.0
 40
9.0
 40
9.0
 40
9.0
 40
10.0
 40
10.0
 40
10.0
 40
11.0
 40
11.0
 40
11.0
 40
12.0
 40
12.0
 40
12.0
 40
13.0
 40
13.0
 40
13.0
 40
14.0
 40
14.0
 40
14.0
 40
14.0
 10
90.01896699138415
 20
-150.1679225970066
 30
0.0
 10
90.01896699138415
 20
-150.1679225970066
 30
0.0
 10
89.91750892934353
 20
-150.1679225970066
 30
0.0
 10
89.91750892934353
 20
-150.1679225970066
 30
0.0
 10
89.91750892934353
 20
-150.2547390032349
 30
0.0
 10
89.89632159210925
 20
-150.6440347930681
 30
0.0
 10
89.69960663990148
 20
-150.8641763945756
 30
0.0
 10
89.54716116467919
 20
-151.0333305829013
 30
0.0
 10
89.33993867124142
 20
-151.1029215117034
 30
0.0
 10
89.25536157707853
 20
-151.1304822755854
 30
0.0
 10
89.25536157707853
 20
-151.1304822755854
 30
0.0
 10
89.0607136821619
 20
-150.9633951445508
 30
0.0
 10
89.0607136821619
 20
-150.9633951445508
 30
0.0
 10
89.15803762962021
 20
-150.9506482912554
 30
0.0
 10
89.3335652445937
 20
-150.9275661515042
 30
0.0
 10
89.5218397128626
 20
-150.739119428461
 30
0.0
 10
89.59590926579547
 20
-150.6671169328193
 30
0.0
 10
89.69960663990148
 20
-150.5275905656667
 30
0.0
 10
89.69960663990148
 20
-150.1679225970066
 30
0.0
 10
89.69960663990148
 20
-150.1679225970066
 30
0.0
 10
89.46895749716402
 20
-150.1679225970066
 30
0.0
 10
89.46895749716402
 20
-150.1679225970066
 30
0.0
 10
89.28275008618625
 20
-150.1679225970066
 30
0.0
 10
89.09654267520851
 20
-150.1724012211374
 30
0.0
 10
88.91050751900502
 20
-150.1868706221755
 30
0.0
 10
88.91050751900502
 20
-150.1868706221755
 30
0.0
 10
88.91050751900502
 20
-149.9670735302165
 30
0.0
 10
88.91050751900502
 20
-149.9670735302165
 30
0.0
 10
89.09878198727392
 20
-149.9818874408031
 30
0.0
 10
89.38438040300113
 20
-149.9860215553854
 30
0.0
 10
89.46895749716402
 20
-149.9860215553854
 30
0.0
 10
89.46895749716402
 20
-149.9860215553854
 30
0.0
 10
90.01896699138415
 20
-149.9860215553854
 30
0.0
 10
90.01896699138415
 20
-149.9860215553854
 30
0.0
 10
90.03808727132728
 20
-149.9860215553854
 30
0.0
 10
90.3553805655188
 20
-149.9860215553854
 30
0.0
 10
90.58379039619087
 20
-149.9670735302165
 30
0.0
 10
90.58379039619087
 20
-149.9670735302165
 30
0.0
 10
90.58379039619087
 20
-150.1868706221755
 30
0.0
 10
90.58379039619087
 20
-150.1868706221755
 30
0.0
 10
90.39551592792196
 20
-150.1724012211374
 30
0.0
 10
90.20724145965305
 20
-150.1679225970066
 30
0.0
 10
90.01896699138415
 20
-150.1679225970066
 30
0.0
  0
HATCH
  5
14B
330
13C
100
AcDbEntity
  8
レイヤー 1
 62
    18
420
        0
440
 33554687
100
AcDbHatch
 10
0.0
 20
0.0
 30
0.0
210
0.0
220
0.0
230
1.0
  2
SOLID
 70
     1
 71
     1
 91
        2
 92
        1
 93
        1
 72
     4
 94
        3
 73
     0
 74
     0
 95
       29
 96
       25
 40
0.0
 40
0.0
 40
0.0
 40
0.0
 40
1.0
 40
1.0
 40
1.0
 40
2.0
 40
2.0
 40
2.0
 40
3.0
 40
3.0
 40
3.0
 40
4.0
 40
4.0
 40
4.0
 40
5.0
 40
5.0
 40
5.0
 40
6.0
 40
6.0
 40
6.0
 40
7.0
 40
7.0
 40
7.0
 40
8.0
 40
8.0
 40
8.0
 40
8.0
 10
89.91750892934353
 20
-149.6391004400208
 10
89.91750892934353
 20
-149.6391004400208
 10
89.56421438733118
 20
-149.6391004400208
 10
89.56421438733118
 20
-149.6391004400208
 10
89.45207652928628
 20
-149.6391004400208
 10
89.3123779073594
 20
-149.6453016118942
 10
89.20454641867108
 20
-149.6580484651896
 10
89.20454641867108
 20
-149.6580484651896
 10
89.20454641867108
 20
-149.4234374626441
 10
89.20454641867108
 20
-149.4234374626441
 10
89.32305770336368
 20
-149.4382513732307
 10
89.50702580227602
 20
-149.442385487813
 10
89.56421438733118
 20
-149.442385487813
 10
89.56421438733118
 20
-149.442385487813
 10
89.91750892934353
 20
-149.442385487813
 10
89.91750892934353
 20
-149.442385487813
 10
89.93645695451242
 20
-149.442385487813
 10
90.13954533336789
 20
-149.442385487813
 10
90.28131101258592
 20
-149.4234374626441
 10
90.28131101258592
 20
-149.4234374626441
 10
90.28131101258592
 20
-149.6580484651896
 10
90.28131101258592
 20
-149.6580484651896
 10
90.12473142278132
 20
-149.6391004400208
 10
89.93438989722127
 20
-149.6391004400208
 10
89.91750892934353
 20
-149.6391004400208
 97
        0
 97
        1
330
149
 92
        1
 93
        1
 72
     4
 94
        3
 73
     0
 74
     0
 95
       47
 96
       43
 40
0.0
 40
0.0
 40
0.0
 40
0.0
 40
1.0
 40
1.0
 40
1.0
 40
2.0
 40
2.0
 40
2.0
 40
3.0
 40
3.0
 40
3.0
 40
4.0
 40
4.0
 40
4.0
 40
5.0
 40
5.0
 40
5.0
 40
6.0
 40
6.0
 40
6.0
 40
7.0
 40
7.0
 40
7.0
 40
8.0
 40
8.0
 40
8.0
 40
9.0
 40
9.0
 40
9.0
 40
10.0
 40
10.0
 40
10.0
 40
11.0
 40
11.0
 40
11.0
 40
12.0
 40
12.0
 40
12.0
 40
13.0
 40
13.0
 40
13.0
 40
14.0
 40
14.0
 40
14.0
 40
14.0
 10
90.01896699138415
 20
-150.1679225970066
 10
90.01896699138415
 20
-150.1679225970066
 10
89.91750892934353
 20
-150.1679225970066
 10
89.91750892934353
 20
-150.1679225970066
 10
89.91750892934353
 20
-150.2547390032349
 10
89.89632159210925
 20
-150.6440347930681
 10
89.69960663990148
 20
-150.8641763945756
 10
89.54716116467919
 20
-151.0333305829013
 10
89.33993867124142
 20
-151.1029215117034
 10
89.25536157707853
 20
-151.1304822755854
 10
89.25536157707853
 20
-151.1304822755854
 10
89.0607136821619
 20
-150.9633951445508
 10
89.0607136821619
 20
-150.9633951445508
 10
89.15803762962021
 20
-150.9506482912554
 10
89.3335652445937
 20
-150.9275661515042
 10
89.5218397128626
 20
-150.739119428461
 10
89.59590926579547
 20
-150.6671169328193
 10
89.69960663990148
 20
-150.5275905656667
 10
89.69960663990148
 20
-150.1679225970066
 10
89.69960663990148
 20
-150.1679225970066
 10
89.46895749716402
 20
-150.1679225970066
 10
89.46895749716402
 20
-150.1679225970066
 10
89.28275008618625
 20
-150.1679225970066
 10
89.09654267520851
 20
-150.1724012211374
 10
88.91050751900502
 20
-150.1868706221755
 10
88.91050751900502
 20
-150.1868706221755
 10
88.91050751900502
 20
-149.9670735302165
 10
88.91050751900502
 20
-149.9670735302165
 10
89.09878198727392
 20
-149.9818874408031
 10
89.38438040300113
 20
-149.9860215553854
 10
89.46895749716402
 20
-149.9860215553854
 10
89.46895749716402
 20
-149.9860215553854
 10
90.01896699138415
 20
-149.9860215553854
 10
90.01896699138415
 20
-149.9860215553854
 10
90.03808727132728
 20
-149.9860215553854
 10
90.3553805655188
 20
-149.9860215553854
 10
90.58379039619087
 20
-149.9670735302165
 10
90.58379039619087
 20
-149.9670735302165
 10
90.58379039619087
 20
-150.1868706221755
 10
90.58379039619087
 20
-150.1868706221755
 10
90.39551592792196
 20
-150.1724012211374
 10
90.20724145965305
 20
-150.1679225970066
 10
90.01896699138415
 20
-150.1679225970066
 97
        0
 97
        1
330
14A
 75
     2
 76
     1
 98
        1
 10
0.0
 20
0.0
450
        0
451
        0
460
0.0
461
0.0
452
        0
462
0.0
453
        0
470

  0
SPLINE
  5
14C
330
13C
100
AcDbEntity
  8
レイヤー 1
100
AcDbSpline
210
0.0
220
0.0
230
1.0
 70
     9
 71
     3
 72
    29
 73
    25
 74
     0
 42
0.0000000001
 43
0.0000000001
 40
0.0
 40
0.0
 40
0.0
 40
0.0
 40
1.0
 40
1.0
 40
1.0
 40
2.0
 40
2.0
 40
2.0
 40
3.0
 40
3.0
 40
3.0
 40
4.0
 40
4.0
 40
4.0
 40
5.0
 40
5.0
 40
5.0
 40
6.0
 40
6.0
 40
6.0
 40
7.0
 40
7.0
 40
7.0
 40
8.0
 40
8.0
 40
8.0
 40
8.0
 10
91.86467689760675
 20
-150.3308756134589
 30
0.0
 10
91.86467689760675
 20
-150.3308756134589
 30
0.0
 10
91.38029647238061
 20
-150.3308756134589
 30
0.0
 10
91.38029647238061
 20
-150.3308756134589
 30
0.0
 10
91.35273570849863
 20
-150.3308756134589
 30
0.0
 10
91.03544241430711
 20
-150.3308756134589
 30
0.0
 10
90.82391355151278
 20
-150.3563693200498
 30
0.0
 10
90.82391355151278
 20
-150.3563693200498
 30
0.0
 10
90.82391355151278
 20
-150.125547922538
 30
0.0
 10
90.82391355151278
 20
-150.125547922538
 30
0.0
 10
90.98256019860853
 20
-150.1489745718377
 30
0.0
 10
91.17290172416858
 20
-150.1510416291289
 30
0.0
 10
91.38029647238061
 20
-150.1510416291289
 30
0.0
 10
91.38029647238061
 20
-150.1510416291289
 30
0.0
 10
91.86467689760675
 20
-150.1510416291289
 30
0.0
 10
91.86467689760675
 20
-150.1510416291289
 30
0.0
 10
92.05088430858451
 20
-150.1510416291289
 30
0.0
 10
92.23709171956226
 20
-150.1489745718377
 30
0.0
 10
92.4210598184746
 20
-150.125547922538
 30
0.0
 10
92.4210598184746
 20
-150.125547922538
 30
0.0
 10
92.4210598184746
 20
-150.3563693200498
 30
0.0
 10
92.4210598184746
 20
-150.3563693200498
 30
0.0
 10
92.23709171956226
 20
-150.3329426707501
 30
0.0
 10
91.98956160894706
 20
-150.3308756134589
 30
0.0
 10
91.86467689760675
 20
-150.3308756134589
 30
0.0
  0
HATCH
  5
14D
330
13C
100
AcDbEntity
  8
レイヤー 1
 62
    18
420
        0
440
 33554687
100
AcDbHatch
 10
0.0
 20
0.0
 30
0.0
210
0.0
220
0.0
230
1.0
  2
SOLID
 70
     1
 71
     1
 91
        1
 92
        1
 93
        1
 72
     4
 94
        3
 73
     0
 74
     0
 95
       29
 96
       25
 40
0.0
 40
0.0
 40
0.0
 40
0.0
 40
1.0
 40
1.0
 40
1.0
 40
2.0
 40
2.0
 40
2.0
 40
3.0
 40
3.0
 40
3.0
 40
4.0
 40
4.0
 40
4.0
 40
5.0
 40
5.0
 40
5.0
 40
6.0
 40
6.0
 40
6.0
 40
7.0
 40
7.0
 40
7.0
 40
8.0
 40
8.0
 40
8.0
 40
8.0
 10
91.86467689760675
 20
-150.3308756134589
 10
91.86467689760675
 20
-150.3308756134589
 10
91.38029647238061
 20
-150.3308756134589
 10
91.38029647238061
 20
-150.3308756134589
 10
91.35273570849863
 20
-150.3308756134589
 10
91.03544241430711
 20
-150.3308756134589
 10
90.82391355151278
 20
-150.3563693200498
 10
90.82391355151278
 20
-150.3563693200498
 10
90.82391355151278
 20
-150.125547922538
 10
90.82391355151278
 20
-150.125547922538
 10
90.98256019860853
 20
-150.1489745718377
 10
91.17290172416858
 20
-150.1510416291289
 10
91.38029647238061
 20
-150.1510416291289
 10
91.38029647238061
 20
-150.1510416291289
 10
91.86467689760675
 20
-150.1510416291289
 10
91.86467689760675
 20
-150.1510416291289
 10
92.05088430858451
 20
-150.1510416291289
 10
92.23709171956226
 20
-150.1489745718377
 10
92.4210598184746
 20
-150.125547922538
 10
92.4210598184746
 20
-150.125547922538
 10
92.4210598184746
 20
-150.3563693200498
 10
92.4210598184746
 20
-150.3563693200498
 10
92.23709171956226
 20
-150.3329426707501
 10
91.98956160894706
 20
-150.3308756134589
 10
91.86467689760675
 20
-150.3308756134589
 97
        0
 97
        1
330
14C
 75
     2
 76
     1
 98
        1
 10
0.0
 20
0.0
450
        0
451
        0
460
0.0
461
0.0
452
        0
462
0.0
453
        0
470

  0
SPLINE
  5
14E
330
13C
100
AcDbEntity
  8
レイヤー 1
100
AcDbSpline
210
0.0
220
0.0
230
1.0
 70
     9
 71
     3
 72
    47
 73
    43
 74
     0
 42
0.0000000001
 43
0.0000000001
 40
0.0
 40
0.0
 40
0.0
 40
0.0
 40
1.0
 40
1.0
 40
1.0
 40
2.0
 40
2.0
 40
2.0
 40
3.0
 40
3.0
 40
3.0
 40
4.0
 40
4.0
 40
4.0
 40
5.0
 40
5.0
 40
5.0
 40
6.0
 40
6.0
 40
6.0
 40
7.0
 40
7.0
 40
7.0
 40
8.0
 40
8.0
 40
8.0
 40
9.0
 40
9.0
 40
9.0
 40
10.0
 40
10.0
 40
10.0
 40
11.0
 40
11.0
 40
11.0
 40
12.0
 40
12.0
 40
12.0
 40
13.0
 40
13.0
 40
13.0
 40
14.0
 40
14.0
 40
14.0
 40
14.0
 10
94.08486868307601
 20
-149.7365966422533
 30
0.0
 10
94.0151054994997
 20
-150.0156493765586
 30
0.0
 10
93.93896888927569
 20
-150.3201958174547
 30
0.0
 10
93.62580970966646
 20
-150.6523030222327
 30
0.0
 10
93.38895939505553
 20
-150.9020724449134
 30
0.0
 10
93.14349634173149
 20
-151.0016357044371
 30
0.0
 10
93.03773191033432
 20
-151.0436658693571
 30
0.0
 10
93.03773191033432
 20
-151.0436658693571
 30
0.0
 10
92.84308401541769
 20
-150.8617648277359
 30
0.0
 10
92.84308401541769
 20
-150.8617648277359
 30
0.0
 10
93.02929142639547
 20
-150.8152560386851
 30
0.0
 10
93.39102645234669
 20
-150.7222384605833
 30
0.0
 10
93.68713240930391
 20
-150.2271782393529
 30
0.0
 10
93.84801836846508
 20
-149.9605278487946
 30
0.0
 10
93.86059296698624
 20
-149.7872395458865
 30
0.0
 10
93.86920570569937
 20
-149.6962890250759
 30
0.0
 10
93.86920570569937
 20
-149.6962890250759
 30
0.0
 10
93.36346568846471
 20
-149.6962890250759
 30
0.0
 10
93.36346568846471
 20
-149.6962890250759
 30
0.0
 10
93.24512665854637
 20
-149.6962890250759
 30
0.0
 10
92.82413599024883
 20
-149.7152370502448
 30
0.0
 10
92.67169051502653
 20
-149.725916846249
 30
0.0
 10
92.67169051502653
 20
-149.725916846249
 30
0.0
 10
92.67169051502653
 20
-149.5164550407459
 30
0.0
 10
92.67169051502653
 20
-149.5164550407459
 30
0.0
 10
92.81345619424454
 20
-149.5292018940413
 30
0.0
 10
93.0906141260329
 20
-149.5333360086236
 30
0.0
 10
93.20705835343435
 20
-149.5333360086236
 30
0.0
 10
93.20705835343435
 20
-149.5333360086236
 30
0.0
 10
93.56241995273787
 20
-149.5333360086236
 30
0.0
 10
93.56241995273787
 20
-149.5333360086236
 30
0.0
 10
93.58980846184561
 20
-149.5333360086236
 30
0.0
 10
93.75069442100677
 20
-149.5312689513324
 30
0.0
 10
93.86059296698624
 20
-149.5164550407459
 30
0.0
 10
93.91778155204139
 20
-149.5102538688724
 30
0.0
 10
93.93466251991911
 20
-149.490961334155
 30
0.0
 10
93.95791691444456
 20
-149.4678791944038
 30
0.0
 10
93.95791691444456
 20
-149.4678791944038
 30
0.0
 10
94.14619138271346
 20
-149.6180853575608
 30
0.0
 10
94.14619138271346
 20
-149.6180853575608
 30
0.0
 10
94.13137747212688
 20
-149.6477131787339
 30
0.0
 10
94.12086993089687
 20
-149.6666612039027
 30
0.0
 10
94.08486868307601
 20
-149.7365966422533
 30
0.0
  0
HATCH
  5
14F
330
13C
100
AcDbEntity
  8
レイヤー 1
 62
    18
420
        0
440
 33554687
100
AcDbHatch
 10
0.0
 20
0.0
 30
0.0
210
0.0
220
0.0
230
1.0
  2
SOLID
 70
     1
 71
     1
 91
        1
 92
        1
 93
        1
 72
     4
 94
        3
 73
     0
 74
     0
 95
       47
 96
       43
 40
0.0
 40
0.0
 40
0.0
 40
0.0
 40
1.0
 40
1.0
 40
1.0
 40
2.0
 40
2.0
 40
2.0
 40
3.0
 40
3.0
 40
3.0
 40
4.0
 40
4.0
 40
4.0
 40
5.0
 40
5.0
 40
5.0
 40
6.0
 40
6.0
 40
6.0
 40
7.0
 40
7.0
 40
7.0
 40
8.0
 40
8.0
 40
8.0
 40
9.0
 40
9.0
 40
9.0
 40
10.0
 40
10.0
 40
10.0
 40
11.0
 40
11.0
 40
11.0
 40
12.0
 40
12.0
 40
12.0
 40
13.0
 40
13.0
 40
13.0
 40
14.0
 40
14.0
 40
14.0
 40
14.0
 10
94.08486868307601
 20
-149.7365966422533
 10
94.0151054994997
 20
-150.0156493765586
 10
93.93896888927569
 20
-150.3201958174547
 10
93.62580970966646
 20
-150.6523030222327
 10
93.38895939505553
 20
-150.9020724449134
 10
93.14349634173149
 20
-151.0016357044371
 10
93.03773191033432
 20
-151.0436658693571
 10
93.03773191033432
 20
-151.0436658693571
 10
92.84308401541769
 20
-150.8617648277359
 10
92.84308401541769
 20
-150.8617648277359
 10
93.02929142639547
 20
-150.8152560386851
 10
93.39102645234669
 20
-150.7222384605833
 10
93.68713240930391
 20
-150.2271782393529
 10
93.84801836846508
 20
-149.9605278487946
 10
93.86059296698624
 20
-149.7872395458865
 10
93.86920570569937
 20
-149.6962890250759
 10
93.86920570569937
 20
-149.6962890250759
 10
93.36346568846471
 20
-149.6962890250759
 10
93.36346568846471
 20
-149.6962890250759
 10
93.24512665854637
 20
-149.6962890250759
 10
92.82413599024883
 20
-149.7152370502448
 10
92.67169051502653
 20
-149.725916846249
 10
92.67169051502653
 20
-149.725916846249
 10
92.67169051502653
 20
-149.5164550407459
 10
92.67169051502653
 20
-149.5164550407459
 10
92.81345619424454
 20
-149.5292018940413
 10
93.0906141260329
 20
-149.5333360086236
 10
93.20705835343435
 20
-149.5333360086236
 10
93.20705835343435
 20
-149.5333360086236
 10
93.56241995273787
 20
-149.5333360086236
 10
93.56241995273787
 20
-149.5333360086236
 10
93.58980846184561
 20
-149.5333360086236
 10
93.75069442100677
 20
-149.5312689513324
 10
93.86059296698624
 20
-149.5164550407459
 10
93.91778155204139
 20
-149.5102538688724
 10
93.93466251991911
 20
-149.490961334155
 10
93.95791691444456
 20
-149.4678791944038
 10
93.95791691444456
 20
-149.4678791944038
 10
94.14619138271346
 20
-149.6180853575608
 10
94.14619138271346
 20
-149.6180853575608
 10
94.13137747212688
 20
-149.6477131787339
 10
94.12086993089687
 20
-149.6666612039027
 10
94.08486868307601
 20
-149.7365966422533
 97
        0
 97
        1
330
14E
 75
     2
 76
     1
 98
        1
 10
0.0
 20
0.0
450
        0
451
        0
460
0.0
461
0.0
452
        0
462
0.0
453
        0
470

  0
SPLINE
  5
150
330
13C
100
AcDbEntity
  8
レイヤー 1
100
AcDbSpline
210
0.0
220
0.0
230
1.0
 70
    11
 71
     3
 72
    17
 73
    13
 74
     0
 42
0.0000000001
 43
0.0000000001
 40
0.0
 40
0.0
 40
0.0
 40
0.0
 40
1.0
 40
1.0
 40
1.0
 40
2.0
 40
2.0
 40
2.0
 40
3.0
 40
3.0
 40
3.0
 40
4.0
 40
4.0
 40
4.0
 40
4.0
 10
94.47519800155481
 20
-149.518522098037
 30
0.0
 10
94.47519800155481
 20
-149.5777777403833
 30
0.0
 10
94.5217067906057
 20
-149.6242865294342
 30
0.0
 10
94.580962432952
 20
-149.6242865294342
 30
0.0
 10
94.64021807529828
 20
-149.6242865294342
 30
0.0
 10
94.68879392164032
 20
-149.5777777403833
 30
0.0
 10
94.68879392164032
 20
-149.518522098037
 30
0.0
 10
94.68879392164032
 20
-149.4592664556907
 30
0.0
 10
94.64021807529828
 20
-149.4106906093487
 30
0.0
 10
94.580962432952
 20
-149.4106906093487
 30
0.0
 10
94.5217067906057
 20
-149.4106906093487
 30
0.0
 10
94.47519800155481
 20
-149.4592664556907
 30
0.0
 10
94.47519800155481
 20
-149.518522098037
 30
0.0
  0
SPLINE
  5
151
330
13C
100
AcDbEntity
  8
レイヤー 1
100
AcDbSpline
210
0.0
220
0.0
230
1.0
 70
     9
 71
     3
 72
    17
 73
    13
 74
     0
 42
0.0000000001
 43
0.0000000001
 40
0.0
 40
0.0
 40
0.0
 40
0.0
 40
1.0
 40
1.0
 40
1.0
 40
2.0
 40
2.0
 40
2.0
 40
3.0
 40
3.0
 40
3.0
 40
4.0
 40
4.0
 40
4.0
 40
4.0
 10
94.79042423845518
 20
-149.518522098037
 30
0.0
 10
94.79042423845518
 20
-149.6328992681473
 30
0.0
 10
94.69723440557917
 20
-149.7279839035402
 30
0.0
 10
94.580962432952
 20
-149.7279839035402
 30
0.0
 10
94.46675751761596
 20
-149.7279839035402
 30
0.0
 10
94.3715006274488
 20
-149.6328992681473
 30
0.0
 10
94.3715006274488
 20
-149.518522098037
 30
0.0
 10
94.3715006274488
 20
-149.4020778706356
 30
0.0
 10
94.46675751761596
 20
-149.3090602925338
 30
0.0
 10
94.580962432952
 20
-149.3090602925338
 30
0.0
 10
94.69516734828802
 20
-149.3090602925338
 30
0.0
 10
94.79042423845518
 20
-149.4020778706356
 30
0.0
 10
94.79042423845518
 20
-149.518522098037
 30
0.0
  0
HATCH
  5
152
330
13C
100
AcDbEntity
  8
レイヤー 1
 62
    18
420
        0
440
 33554687
100
AcDbHatch
 10
0.0
 20
0.0
 30
0.0
210
0.0
220
0.0
230
1.0
  2
SOLID
 70
     1
 71
     1
 91
        2
 92
        1
 93
        1
 72
     4
 94
        3
 73
     0
 74
     0
 95
       17
 96
       13
 40
0.0
 40
0.0
 40
0.0
 40
0.0
 40
1.0
 40
1.0
 40
1.0
 40
2.0
 40
2.0
 40
2.0
 40
3.0
 40
3.0
 40
3.0
 40
4.0
 40
4.0
 40
4.0
 40
4.0
 10
94.47519800155481
 20
-149.518522098037
 10
94.47519800155481
 20
-149.5777777403833
 10
94.5217067906057
 20
-149.6242865294342
 10
94.580962432952
 20
-149.6242865294342
 10
94.64021807529828
 20
-149.6242865294342
 10
94.68879392164032
 20
-149.5777777403833
 10
94.68879392164032
 20
-149.518522098037
 10
94.68879392164032
 20
-149.4592664556907
 10
94.64021807529828
 20
-149.4106906093487
 10
94.580962432952
 20
-149.4106906093487
 10
94.5217067906057
 20
-149.4106906093487
 10
94.47519800155481
 20
-149.4592664556907
 10
94.47519800155481
 20
-149.518522098037
 97
        0
 97
        1
330
150
 92
        1
 93
        1
 72
     4
 94
        3
 73
     0
 74
     0
 95
       17
 96
       13
 40
0.0
 40
0.0
 40
0.0
 40
0.0
 40
1.0
 40
1.0
 40
1.0
 40
2.0
 40
2.0
 40
2.0
 40
3.0
 40
3.0
 40
3.0
 40
4.0
 40
4.0
 40
4.0
 40
4.0
 10
94.79042423845518
 20
-149.518522098037
 10
94.79042423845518
 20
-149.6328992681473
 10
94.69723440557917
 20
-149.7279839035402
 10
94.580962432952
 20
-149.7279839035402
 10
94.46675751761596
 20
-149.7279839035402
 10
94.3715006274488
 20
-149.6328992681473
 10
94.3715006274488
 20
-149.518522098037
 10
94.3715006274488
 20
-149.4020778706356
 10
94.46675751761596
 20
-149.3090602925338
 10
94.580962432952
 20
-149.3090602925338
 10
94.69516734828802
 20
-149.3090602925338
 10
94.79042423845518
 20
-149.4020778706356
 10
94.79042423845518
 20
-149.518522098037
 97
        0
 97
        1
330
151
 75
     2
 76
     1
 98
        1
 10
0.0
 20
0.0
450
        0
451
        0
460
0.0
461
0.0
452
        0
462
0.0
453
        0
470

  0
ENDBLK
  5
13F
330
13C
100
AcDbEntity
  8
0
100
AcDbBlockEnd
  0
ENDSEC
  0
SECTION
  2
ENTITIES
  0
INSERT
  5
7A
330
70
100
AcDbEntity
  8
レイヤー 1
100
AcDbBlockReference
  2
Block_0
 10
0.0
 20
0.0
 30
0.0
  0
ENDSEC
  0
SECTION
  2
OBJECTS
  0
DICTIONARY
  5
C
330
0
100
AcDbDictionary
281
     1
  3
ACAD_COLOR
350
63
  3
ACAD_DETAILVIEWSTYLE
350
6A
  3
ACAD_GROUP
350
D
  3
ACAD_LAYOUT
350
62
  3
ACAD_MATERIAL
350
10
  3
ACAD_MLEADERSTYLE
350
66
  3
ACAD_MLINESTYLE
350
5F
  3
ACAD_PLOTSETTINGS
350
61
  3
ACAD_PLOTSTYLENAME
350
E
  3
ACAD_SCALELIST
350
42
  3
ACAD_SECTIONVIEWSTYLE
350
68
  3
ACAD_TABLESTYLE
350
64
  3
ACAD_VISUALSTYLE
350
29
  3
ACDB_RECOMPOSE_DATA
350
15B
  3
AcDbVariableDictionary
350
153
  0
DICTIONARY
  5
63
102
{ACAD_REACTORS
330
C
102
}
330
C
100
AcDbDictionary
281
     1
  0
DICTIONARY
  5
6A
102
{ACAD_REACTORS
330
C
102
}
330
C
100
AcDbDictionary
281
     1
  3
Imperial24
350
6B
  0
DICTIONARY
  5
D
102
{ACAD_REACTORS
330
C
102
}
330
C
100
AcDbDictionary
281
     1
  0
DICTIONARY
  5
62
102
{ACAD_REACTORS
330
C
102
}
330
C
100
AcDbDictionary
281
     1
  3
Layout1
350
6F
  3
Layout2
350
77
  3
Model
350
73
  0
DICTIONARY
  5
10
102
{ACAD_REACTORS
330
C
102
}
330
C
100
AcDbDictionary
281
     1
  3
ByBlock
350
19
  3
ByLayer
350
11
  3
Global
350
21
  0
DICTIONARY
  5
66
102
{ACAD_REACTORS
330
C
102
}
330
C
100
AcDbDictionary
281
     1
  3
Standard
350
67
  0
DICTIONARY
  5
5F
102
{ACAD_REACTORS
330
C
102
}
330
C
100
AcDbDictionary
281
     1
  3
Standard
350
60
  0
DICTIONARY
  5
61
102
{ACAD_REACTORS
330
C
102
}
330
C
100
AcDbDictionary
281
     1
  0
ACDBDICTIONARYWDFLT
  5
E
102
{ACAD_REACTORS
330
C
102
}
330
C
100
AcDbDictionary
281
     1
  3
Normal
350
F
100
AcDbDictionaryWithDefault
340
F
  0
DICTIONARY
  5
42
102
{ACAD_REACTORS
330
C
102
}
330
C
100
AcDbDictionary
281
     1
  3
A0
350
43
  3
A1
350
44
  3
A2
350
45
  3
A3
350
46
  3
A4
350
47
  3
A5
350
48
  3
A6
350
49
  3
A7
350
4A
  3
A8
350
4B
  3
A9
350
4C
  3
B0
350
4D
  3
B1
350
4E
  3
B2
350
4F
  3
B3
350
50
  3
B4
350
51
  3
B5
350
52
  3
B6
350
53
  0
DICTIONARY
  5
68
102
{ACAD_REACTORS
330
C
102
}
330
C
100
AcDbDictionary
281
     1
  3
Imperial24
350
69
  0
DICTIONARY
  5
64
102
{ACAD_REACTORS
330
C
102
}
330
C
100
AcDbDictionary
281
     1
  3
Standard
350
65
  0
DICTIONARY
  5
29
102
{ACAD_REACTORS
330
C
102
}
330
C
100
AcDbDictionary
281
     1
  3
2dWireframe
350
2F
  3
Basic
350
2E
  3
Brighten
350
35
  3
ColorChange
350
39
  3
Conceptual
350
32
  3
Dim
350
34
  3
EdgeColorOff
350
41
  3
Facepattern
350
38
  3
Flat
350
2A
  3
FlatWithEdges
350
2B
  3
Gouraud
350
2C
  3
GouraudWithEdges
350
2D
  3
Hidden
350
31
  3
JitterOff
350
3F
  3
Linepattern
350
37
  3
OverhangOff
350
40
  3
Realistic
350
33
  3
Shaded
350
3E
  3
Shaded with edges
350
3D
  3
Shades of Gray
350
3A
  3
Sketchy
350
3B
  3
Thicken
350
36
  3
Wireframe
350
30
  3
X-Ray
350
3C
  0
XRECORD
  5
15B
102
{ACAD_REACTORS
330
C
102
}
330
C
100
AcDbXrecord
280
     1
 90
        1
330
65
  0
DICTIONARY
  5
153
102
{ACAD_REACTORS
330
C
102
}
330
C
100
AcDbDictionary
281
     1
  3
CANNOSCALE
350
158
  3
CMLEADERSTYLE
350
155
  3
CTABLESTYLE
350
154
  3
CVIEWDETAILSTYLE
350
156
  3
CVIEWSECTIONSTYLE
350
157
  0
ACDBDETAILVIEWSTYLE
  5
6B
102
{ACAD_XDICTIONARY
360
190
102
}
102
{ACAD_REACTORS
330
6A
102
}
330
6A
100
AcDbModelDocViewStyle
 70
     0
  3
Imperial24
290
     0
100
AcDbDetailViewStyle
 70
     0
 71
     0
 90
        3
 71
     1
340
55
 62
   256
 40
0.24
340
0
 62
   256
 40
0.24
300

 40
0.36
280
     3
 71
     2
340
5D
 90
       25
 62
   256
 71
     3
340
55
 62
   256
 40
0.24
 90
        1
 40
0.75
 90
        1
300
%<\AcVar ViewType \f "%tc1">% %<\AcVar ViewDetailId>%\PSCALE %<\AcVar ViewScale \f "%sn">%
 71
     4
340
5D
 90
       25
 62
   256
340
5D
 90
       25
 62
   256
280
     0
  0
LAYOUT
  5
6F
102
{ACAD_REACTORS
330
62
102
}
330
62
100
AcDbPlotSettings
  1

  2

  4

  6

 40
0.0
 41
0.0
 42
0.0
 43
0.0
 44
0.0
 45
0.0
 46
0.0
 47
0.0
 48
0.0
 49
0.0
140
0.0
141
0.0
142
1.0
143
1.0
 70
   688
 72
     0
 73
     0
 74
     5
  7

 75
    16
147
1.0
 76
     0
 77
     2
 78
   300
148
0.0
149
0.0
100
AcDbLayout
  1
Layout1
 70
     1
 71
     1
 10
0.0
 20
0.0
 11
12.0
 21
9.0
 12
0.0
 22
0.0
 32
0.0
 14
0.0
 24
0.0
 34
0.0
 15
0.0
 25
0.0
 35
0.0
146
0.0
 13
0.0
 23
0.0
 33
0.0
 16
1.0
 26
0.0
 36
0.0
 17
0.0
 27
1.0
 37
0.0
 76
     0
330
6C
  0
LAYOUT
  5
77
102
{ACAD_REACTORS
330
62
102
}
330
62
100
AcDbPlotSettings
  1

  2

  4

  6

 40
0.0
 41
0.0
 42
0.0
 43
0.0
 44
0.0
 45
0.0
 46
0.0
 47
0.0
 48
0.0
 49
0.0
140
0.0
141
0.0
142
1.0
143
1.0
 70
   688
 72
     0
 73
     0
 74
     5
  7

 75
    16
147
1.0
 76
     0
 77
     2
 78
   300
148
0.0
149
0.0
100
AcDbLayout
  1
Layout2
 70
     1
 71
     2
 10
0.0
 20
0.0
 11
12.0
 21
9.0
 12
0.0
 22
0.0
 32
0.0
 14
0.0
 24
0.0
 34
0.0
 15
0.0
 25
0.0
 35
0.0
146
0.0
 13
0.0
 23
0.0
 33
0.0
 16
1.0
 26
0.0
 36
0.0
 17
0.0
 27
1.0
 37
0.0
 76
     0
330
74
  0
LAYOUT
  5
73
102
{ACAD_REACTORS
330
62
102
}
330
62
100
AcDbPlotSettings
  1

  2

  4

  6

 40
0.0
 41
0.0
 42
0.0
 43
0.0
 44
0.0
 45
0.0
 46
0.0
 47
0.0
 48
0.0
 49
0.0
140
0.0
141
0.0
142
1.0
143
1.0
 70
  1712
 72
     0
 73
     0
 74
     0
  7

 75
     0
147
1.0
 76
     0
 77
     2
 78
   300
148
0.0
149
0.0
100
AcDbLayout
  1
Model
 70
     1
 71
     0
 10
0.0
 20
0.0
 11
12.0
 21
9.0
 12
0.0
 22
0.0
 32
0.0
 14
0.0
 24
0.0
 34
0.0
 15
0.0
 25
0.0
 35
0.0
146
0.0
 13
0.0
 23
0.0
 33
0.0
 16
1.0
 26
0.0
 36
0.0
 17
0.0
 27
1.0
 37
0.0
 76
     0
330
70
  0
MATERIAL
  5
19
102
{ACAD_XDICTIONARY
360
1A
102
}
102
{ACAD_REACTORS
330
10
102
}
330
10
100
AcDbMaterial
  1
ByBlock
 72
     0
 43
0.0208333333333333
 43
0.0
 43
0.0
 43
0.0
 43
0.0
 43
0.0208333333333333
 43
0.0
 43
0.0
 43
0.0
 43
0.0
 43
1.0
 43
0.0
 43
0.0
 43
0.0
 43
0.0
 43
1.0
 77
     0
 47
0.0208333333333333
 47
0.0
 47
0.0
 47
0.0
 47
0.0
 47
0.0208333333333333
 47
0.0
 47
0.0
 47
0.0
 47
0.0
 47
1.0
 47
0.0
 47
0.0
 47
0.0
 47
0.0
 47
1.0
171
     0
 49
0.0208333333333333
 49
0.0
 49
0.0
 49
0.0
 49
0.0
 49
0.0208333333333333
 49
0.0
 49
0.0
 49
0.0
 49
0.0
 49
1.0
 49
0.0
 49
0.0
 49
0.0
 49
0.0
 49
1.0
175
     0
142
0.0208333333333333
142
0.0
142
0.0
142
0.0
142
0.0
142
0.0208333333333333
142
0.0
142
0.0
142
0.0
142
0.0
142
1.0
142
0.0
142
0.0
142
0.0
142
0.0
142
1.0
179
     0
144
0.0208333333333333
144
0.0
144
0.0
144
0.0
144
0.0
144
0.0208333333333333
144
0.0
144
0.0
144
0.0
144
0.0
144
1.0
144
0.0
144
0.0
144
0.0
144
0.0
144
1.0
147
0.0208333333333333
147
0.0
147
0.0
147
0.0
147
0.0
147
0.0208333333333333
147
0.0
147
0.0
147
0.0
147
0.0
147
1.0
147
0.0
147
0.0
147
0.0
147
0.0
147
1.0
  0
MATERIAL
  5
11
102
{ACAD_XDICTIONARY
360
12
102
}
102
{ACAD_REACTORS
330
10
102
}
330
10
100
AcDbMaterial
  1
ByLayer
 72
     0
 43
0.0208333333333333
 43
0.0
 43
0.0
 43
0.0
 43
0.0
 43
0.0208333333333333
 43
0.0
 43
0.0
 43
0.0
 43
0.0
 43
1.0
 43
0.0
 43
0.0
 43
0.0
 43
0.0
 43
1.0
 77
     0
 47
0.0208333333333333
 47
0.0
 47
0.0
 47
0.0
 47
0.0
 47
0.0208333333333333
 47
0.0
 47
0.0
 47
0.0
 47
0.0
 47
1.0
 47
0.0
 47
0.0
 47
0.0
 47
0.0
 47
1.0
171
     0
 49
0.0208333333333333
 49
0.0
 49
0.0
 49
0.0
 49
0.0
 49
0.0208333333333333
 49
0.0
 49
0.0
 49
0.0
 49
0.0
 49
1.0
 49
0.0
 49
0.0
 49
0.0
 49
0.0
 49
1.0
175
     0
142
0.0208333333333333
142
0.0
142
0.0
142
0.0
142
0.0
142
0.0208333333333333
142
0.0
142
0.0
142
0.0
142
0.0
142
1.0
142
0.0
142
0.0
142
0.0
142
0.0
142
1.0
179
     0
144
0.0208333333333333
144
0.0
144
0.0
144
0.0
144
0.0
144
0.0208333333333333
144
0.0
144
0.0
144
0.0
144
0.0
144
1.0
144
0.0
144
0.0
144
0.0
144
0.0
144
1.0
147
0.0208333333333333
147
0.0
147
0.0
147
0.0
147
0.0
147
0.0208333333333333
147
0.0
147
0.0
147
0.0
147
0.0
147
1.0
147
0.0
147
0.0
147
0.0
147
0.0
147
1.0
  0
MATERIAL
  5
21
102
{ACAD_XDICTIONARY
360
22
102
}
102
{ACAD_REACTORS
330
10
102
}
330
10
100
AcDbMaterial
  1
Global
 72
     0
 43
0.0208333333333333
 43
0.0
 43
0.0
 43
0.0
 43
0.0
 43
0.0208333333333333
 43
0.0
 43
0.0
 43
0.0
 43
0.0
 43
1.0
 43
0.0
 43
0.0
 43
0.0
 43
0.0
 43
1.0
 77
     0
 47
0.0208333333333333
 47
0.0
 47
0.0
 47
0.0
 47
0.0
 47
0.0208333333333333
 47
0.0
 47
0.0
 47
0.0
 47
0.0
 47
1.0
 47
0.0
 47
0.0
 47
0.0
 47
0.0
 47
1.0
171
     0
 49
0.0208333333333333
 49
0.0
 49
0.0
 49
0.0
 49
0.0
 49
0.0208333333333333
 49
0.0
 49
0.0
 49
0.0
 49
0.0
 49
1.0
 49
0.0
 49
0.0
 49
0.0
 49
0.0
 49
1.0
175
     0
142
0.0208333333333333
142
0.0
142
0.0
142
0.0
142
0.0
142
0.0208333333333333
142
0.0
142
0.0
142
0.0
142
0.0
142
1.0
142
0.0
142
0.0
142
0.0
142
0.0
142
1.0
179
     0
144
0.0208333333333333
144
0.0
144
0.0
144
0.0
144
0.0
144
0.0208333333333333
144
0.0
144
0.0
144
0.0
144
0.0
144
1.0
144
0.0
144
0.0
144
0.0
144
0.0
144
1.0
147
0.0208333333333333
147
0.0
147
0.0
147
0.0
147
0.0
147
0.0208333333333333
147
0.0
147
0.0
147
0.0
147
0.0
147
1.0
147
0.0
147
0.0
147
0.0
147
0.0
147
1.0
  0
MLEADERSTYLE
  5
67
102
{ACAD_XDICTIONARY
360
18C
102
}
102
{ACAD_REACTORS
330
66
102
}
330
66
100
AcDbMLeaderStyle
179
     2
170
     2
171
     1
172
     0
 90
        2
 40
0.0
 41
0.0
173
     1
 91
-1056964608
340
5B
 92
       -2
290
     1
 42
0.09
291
     1
 43
0.36
  3
Standard
 44
0.18
300

342
55
174
     1
178
     6
175
     1
176
     0
 93
-1056964608
 45
0.18
292
     0
297
     0
 46
0.18
 94
-1056964608
 47
1.0
 49
1.0
140
1.0
293
     1
141
0.0
294
     1
177
     0
142
1.0
295
     0
296
     0
143
0.125
271
     0
272
     9
273
     9
  0
MLINESTYLE
  5
60
102
{ACAD_REACTORS
330
5F
102
}
330
5F
100
AcDbMlineStyle
  2
STANDARD
 70
     0
  3

 62
   256
 51
90.0
 52
90.0
 71
     2
 49
0.5
 62
   256
  6
BYLAYER
 49
-0.5
 62
   256
  6
BYLAYER
  0
ACDBPLACEHOLDER
  5
F
102
{ACAD_REACTORS
330
E
102
}
330
E
  0
SCALE
  5
43
102
{ACAD_REACTORS
330
42
102
}
330
42
100
AcDbScale
 70
     0
300
1:1
140
1.0
141
1.0
290
     1
  0
SCALE
  5
44
102
{ACAD_REACTORS
330
42
102
}
330
42
100
AcDbScale
 70
     0
300
1/128" = 1'-0"
140
0.0078125
141
12.0
290
     0
  0
SCALE
  5
45
102
{ACAD_REACTORS
330
42
102
}
330
42
100
AcDbScale
 70
     0
300
1/64" = 1'-0"
140
0.015625
141
12.0
290
     0
  0
SCALE
  5
46
102
{ACAD_REACTORS
330
42
102
}
330
42
100
AcDbScale
 70
     0
300
1/32" = 1'-0"
140
0.03125
141
12.0
290
     0
  0
SCALE
  5
47
102
{ACAD_REACTORS
330
42
102
}
330
42
100
AcDbScale
 70
     0
300
1/16" = 1'-0"
140
0.0625
141
12.0
290
     0
  0
SCALE
  5
48
102
{ACAD_REACTORS
330
42
102
}
330
42
100
AcDbScale
 70
     0
300
3/32" = 1'-0"
140
0.09375
141
12.0
290
     0
  0
SCALE
  5
49
102
{ACAD_REACTORS
330
42
102
}
330
42
100
AcDbScale
 70
     0
300
1/8" = 1'-0"
140
0.125
141
12.0
290
     0
  0
SCALE
  5
4A
102
{ACAD_REACTORS
330
42
102
}
330
42
100
AcDbScale
 70
     0
300
3/16" = 1'-0"
140
0.1875
141
12.0
290
     0
  0
SCALE
  5
4B
102
{ACAD_REACTORS
330
42
102
}
330
42
100
AcDbScale
 70
     0
300
1/4" = 1'-0"
140
0.25
141
12.0
290
     0
  0
SCALE
  5
4C
102
{ACAD_REACTORS
330
42
102
}
330
42
100
AcDbScale
 70
     0
300
3/8" = 1'-0"
140
0.375
141
12.0
290
     0
  0
SCALE
  5
4D
102
{ACAD_REACTORS
330
42
102
}
330
42
100
AcDbScale
 70
     0
300
1/2" = 1'-0"
140
0.5
141
12.0
290
     0
  0
SCALE
  5
4E
102
{ACAD_REACTORS
330
42
102
}
330
42
100
AcDbScale
 70
     0
300
3/4" = 1'-0"
140
0.75
141
12.0
290
     0
  0
SCALE
  5
4F
102
{ACAD_REACTORS
330
42
102
}
330
42
100
AcDbScale
 70
     0
300
1" = 1'-0"
140
1.0
141
12.0
290
     0
  0
SCALE
  5
50
102
{ACAD_REACTORS
330
42
102
}
330
42
100
AcDbScale
 70
     0
300
1-1/2" = 1'-0"
140
1.5
141
12.0
290
     0
  0
SCALE
  5
51
102
{ACAD_REACTORS
330
42
102
}
330
42
100
AcDbScale
 70
     0
300
3" = 1'-0"
140
3.0
141
12.0
290
     0
  0
SCALE
  5
52
102
{ACAD_REACTORS
330
42
102
}
330
42
100
AcDbScale
 70
     0
300
6" = 1'-0"
140
6.0
141
12.0
290
     0
  0
SCALE
  5
53
102
{ACAD_REACTORS
330
42
102
}
330
42
100
AcDbScale
 70
     0
300
1'-0" = 1'-0"
140
12.0
141
12.0
290
     0
  0
ACDBSECTIONVIEWSTYLE
  5
69
102
{ACAD_XDICTIONARY
360
18E
102
}
102
{ACAD_REACTORS
330
68
102
}
330
68
100
AcDbModelDocViewStyle
 70
     0
  3
Imperial24
290
     0
100
AcDbSectionViewStyle
 70
     0
 71
     0
 90
       78
 71
     1
340
55
 62
   256
 40
0.24
340
0
340
0
 62
   256
 40
0.24
300
I, O, Q, S, X, Z
 40
0.48
 90
        3
 40
0.18
 90
        1
 71
     2
340
5D
 90
       25
 62
   256
340
5D
 90
       50
 62
   256
 40
0.24
 40
0.0
 40
0.24
 71
     3
340
55
 62
   256
 40
0.24
 90
        1
 40
0.75
 90
        1
300
%<\AcVar ViewType \f "%tc1">% %<\AcVar ViewSectionStartId>%-%<\AcVar ViewSectionEndId>%\PSCALE %<\AcVar ViewScale \f "%sn">%
 71
     4
 62
   256
 62
   257
300
ANSI31
 40
1.0
 90
        0
290
     0
290
     0
 90
        6
 40
0.0
 40
1.570796326794896
 40
0.2617993877991494
 40
1.308996938995747
 40
-0.2617993877991494
 40
1.832595714594046
  0
TABLESTYLE
  5
65
102
{ACAD_XDICTIONARY
360
159
102
}
102
{ACAD_REACTORS
330
64
102
}
330
64
100
AcDbTableStyle
280
     0
  3
Standard
 70
     0
 71
     0
 40
0.06
 41
0.06
280
     0
281
     0
  7
Standard
140
0.18
170
     2
 62
     0
 63
     7
283
     0
 90
      512
 91
        0
  1

274
    -2
284
     1
 64
     0
275
    -2
285
     1
 65
     0
276
    -2
286
     1
 66
     0
277
    -2
287
     1
 67
     0
278
    -2
288
     1
 68
     0
279
    -2
289
     1
 69
     0
  7
Standard
140
0.25
170
     5
 62
     0
 63
     7
283
     0
 90
      512
 91
        0
  1

274
    -2
284
     1
 64
     0
275
    -2
285
     1
 65
     0
276
    -2
286
     1
 66
     0
277
    -2
287
     1
 67
     0
278
    -2
288
     1
 68
     0
279
    -2
289
     1
 69
     0
  7
Standard
140
0.18
170
     5
 62
     0
 63
     7
283
     0
 90
      512
 91
        0
  1

274
    -2
284
     1
 64
     0
275
    -2
285
     1
 65
     0
276
    -2
286
     1
 66
     0
277
    -2
287
     1
 67
     0
278
    -2
288
     1
 68
     0
279
    -2
289
     1
 69
     0
  0
VISUALSTYLE
  5
2F
102
{ACAD_XDICTIONARY
360
166
102
}
102
{ACAD_REACTORS
330
29
102
}
330
29
100
AcDbVisualStyle
  2
2dWireframe
 70
     4
177
     2
291
     0
 71
     0
176
     1
 72
     2
176
     1
 73
     0
176
     1
 90
        0
176
     1
 40
0.6
176
     1
 41
30.0
176
     1
 63
     7
421
 16777215
176
     1
 74
     1
176
     1
 91
        4
176
     1
 64
     7
176
     1
 65
   257
176
     1
 75
     1
176
     1
175
     1
176
     1
 42
1.0
176
     1
 92
        0
176
     1
 66
   257
176
     1
 43
1.0
176
     1
 76
     1
176
     1
 77
     6
176
     1
 78
     2
176
     1
 67
     7
176
     1
 79
     5
176
     1
170
     0
176
     1
171
     0
176
     1
290
     0
176
     1
 93
        1
176
     1
 44
0.0
176
     1
173
     0
176
     1
1001
ACAD
1000
AcDbSavedByObjectVersion
1070
     0
  0
VISUALSTYLE
  5
2E
102
{ACAD_XDICTIONARY
360
164
102
}
102
{ACAD_REACTORS
330
29
102
}
330
29
100
AcDbVisualStyle
  2
Basic
 70
     7
177
     2
291
     1
 71
     1
176
     1
 72
     0
176
     1
 73
     1
176
     1
 90
        0
176
     1
 40
0.6
176
     1
 41
30.0
176
     1
 63
     7
421
 16777215
176
     1
 74
     0
176
     1
 91
        4
176
     1
 64
     7
176
     1
 65
   257
176
     1
 75
     1
176
     1
175
     1
176
     1
 42
1.0
176
     1
 92
        8
176
     1
 66
     7
176
     1
 43
1.0
176
     1
 76
     1
176
     1
 77
     6
176
     1
 78
     2
176
     1
 67
     7
176
     1
 79
     5
176
     1
170
     0
176
     1
171
     0
176
     1
290
     0
176
     1
 93
        1
176
     1
 44
0.0
176
     1
173
     0
176
     1
1001
ACAD
1000
AcDbSavedByObjectVersion
1070
     0
  0
VISUALSTYLE
  5
35
102
{ACAD_XDICTIONARY
360
172
102
}
102
{ACAD_REACTORS
330
29
102
}
330
29
100
AcDbVisualStyle
  2
Brighten
 70
    12
177
     2
291
     1
 71
     2
176
     1
 72
     2
176
     1
 73
     0
176
     1
 90
        0
176
     1
 40
0.6
176
     1
 41
30.0
176
     1
 63
     7
421
 16777215
176
     1
 74
     1
176
     1
 91
        4
176
     1
 64
     7
176
     1
 65
   257
176
     1
 75
     1
176
     1
175
     1
176
     1
 42
1.0
176
     1
 92
        8
176
     1
 66
     7
176
     1
 43
1.0
176
     1
 76
     1
176
     1
 77
     6
176
     1
 78
     2
176
     1
 67
     7
176
     1
 79
     5
176
     1
170
     0
176
     1
171
     0
176
     1
290
     0
176
     1
 93
        1
176
     1
 44
50.0
176
     1
173
     0
176
     1
1001
ACAD
1000
AcDbSavedByObjectVersion
1070
     0
  0
VISUALSTYLE
  5
39
102
{ACAD_XDICTIONARY
360
17A
102
}
102
{ACAD_REACTORS
330
29
102
}
330
29
100
AcDbVisualStyle
  2
ColorChange
 70
    16
177
     2
291
     1
 71
     2
176
     1
 72
     2
176
     1
 73
     3
176
     1
 90
        0
176
     1
 40
0.6
176
     1
 41
30.0
176
     1
 63
     8
421
  8421504
176
     1
 74
     1
176
     1
 91
        4
176
     1
 64
     7
176
     1
 65
   257
176
     1
 75
     1
176
     1
175
     1
176
     1
 42
1.0
176
     1
 92
        8
176
     1
 66
     8
424
  8421504
176
     1
 43
1.0
176
     1
 76
     1
176
     1
 77
     6
176
     1
 78
     2
176
     1
 67
     7
176
     1
 79
     5
176
     1
170
     0
176
     1
171
     0
176
     1
290
     0
176
     1
 93
        1
176
     1
 44
0.0
176
     1
173
     0
176
     1
1001
ACAD
1000
AcDbSavedByObjectVersion
1070
     0
  0
VISUALSTYLE
  5
32
102
{ACAD_XDICTIONARY
360
16C
102
}
102
{ACAD_REACTORS
330
29
102
}
330
29
100
AcDbVisualStyle
  2
Conceptual
 70
     9
177
     2
291
     0
 71
     3
176
     1
 72
     2
176
     1
 73
     0
176
     1
 90
        0
176
     1
 40
0.6
176
     1
 41
30.0
176
     1
 63
     7
421
 16777215
176
     1
 74
     2
176
     1
 91
        2
176
     1
 64
     7
176
     1
 65
   257
176
     1
 75
     1
176
     1
175
     1
176
     1
 42
179.0
176
     1
 92
        8
176
     1
 66
     7
176
     1
 43
1.0
176
     1
 76
     1
176
     1
 77
     6
176
     1
 78
     2
176
     1
 67
     7
176
     1
 79
     3
176
     1
170
     0
176
     1
171
     0
176
     1
290
     0
176
     1
 93
        1
176
     1
 44
0.0
176
     1
173
     0
176
     1
1001
ACAD
1000
AcDbSavedByObjectVersion
1070
     0
  0
VISUALSTYLE
  5
34
102
{ACAD_XDICTIONARY
360
170
102
}
102
{ACAD_REACTORS
330
29
102
}
330
29
100
AcDbVisualStyle
  2
Dim
 70
    11
177
     2
291
     1
 71
     2
176
     1
 72
     2
176
     1
 73
     0
176
     1
 90
        0
176
     1
 40
0.6
176
     1
 41
30.0
176
     1
 63
     7
421
 16777215
176
     1
 74
     1
176
     1
 91
        4
176
     1
 64
     7
176
     1
 65
   257
176
     1
 75
     1
176
     1
175
     1
176
     1
 42
1.0
176
     1
 92
        8
176
     1
 66
     7
176
     1
 43
1.0
176
     1
 76
     1
176
     1
 77
     6
176
     1
 78
     2
176
     1
 67
     7
176
     1
 79
     5
176
     1
170
     0
176
     1
171
     0
176
     1
290
     0
176
     1
 93
        1
176
     1
 44
-50.0
176
     1
173
     0
176
     1
1001
ACAD
1000
AcDbSavedByObjectVersion
1070
     0
  0
VISUALSTYLE
  5
41
102
{ACAD_XDICTIONARY
360
18A
102
}
102
{ACAD_REACTORS
330
29
102
}
330
29
100
AcDbVisualStyle
  2
EdgeColorOff
 70
    22
177
     2
291
     1
 71
     2
176
     0
 72
     2
176
     0
 73
     0
176
     0
 90
        0
176
     0
 40
0.6
176
     0
 41
30.0
176
     0
 63
     7
421
 16777215
176
     0
 74
     1
176
     0
 91
        4
176
     0
 64
     7
176
     0
 65
   257
176
     0
 75
     1
176
     0
175
     1
176
     0
 42
1.0
176
     0
 92
        8
176
     2
 66
     7
176
     0
 43
1.0
176
     0
 76
     1
176
     0
 77
     6
176
     0
 78
     2
176
     0
 67
     7
176
     0
 79
     5
176
     0
170
     0
176
     0
171
     0
176
     0
290
     0
176
     0
 93
        1
176
     0
 44
0.0
176
     0
173
     0
176
     0
1001
ACAD
1000
AcDbSavedByObjectVersion
1070
     0
  0
VISUALSTYLE
  5
38
102
{ACAD_XDICTIONARY
360
178
102
}
102
{ACAD_REACTORS
330
29
102
}
330
29
100
AcDbVisualStyle
  2
Facepattern
 70
    15
177
     2
291
     1
 71
     2
176
     1
 72
     2
176
     1
 73
     0
176
     1
 90
        0
176
     1
 40
0.6
176
     1
 41
30.0
176
     1
 63
     7
421
 16777215
176
     1
 74
     1
176
     1
 91
        4
176
     1
 64
     7
176
     1
 65
   257
176
     1
 75
     1
176
     1
175
     1
176
     1
 42
1.0
176
     1
 92
        8
176
     1
 66
     7
176
     1
 43
1.0
176
     1
 76
     1
176
     1
 77
     6
176
     1
 78
     2
176
     1
 67
     7
176
     1
 79
     5
176
     1
170
     0
176
     1
171
     0
176
     1
290
     0
176
     1
 93
        1
176
     1
 44
0.0
176
     1
173
     0
176
     1
1001
ACAD
1000
AcDbSavedByObjectVersion
1070
     0
  0
VISUALSTYLE
  5
2A
102
{ACAD_XDICTIONARY
360
15C
102
}
102
{ACAD_REACTORS
330
29
102
}
330
29
100
AcDbVisualStyle
  2
Flat
 70
     0
177
     2
291
     1
 71
     2
176
     1
 72
     1
176
     1
 73
     1
176
     1
 90
        2
176
     1
 40
0.6
176
     1
 41
30.0
176
     1
 63
     7
421
 16777215
176
     1
 74
     0
176
     1
 91
        0
176
     1
 64
     7
176
     1
 65
   257
176
     1
 75
     1
176
     1
175
     1
176
     1
 42
1.0
176
     1
 92
        8
176
     1
 66
     7
176
     1
 43
1.0
176
     1
 76
     1
176
     1
 77
     6
176
     1
 78
     2
176
     1
 67
     7
176
     1
 79
     5
176
     1
170
     0
176
     1
171
     0
176
     1
290
     0
176
     1
 93
       13
176
     1
 44
0.0
176
     1
173
     0
176
     1
1001
ACAD
1000
AcDbSavedByObjectVersion
1070
     0
  0
VISUALSTYLE
  5
2B
102
{ACAD_XDICTIONARY
360
15E
102
}
102
{ACAD_REACTORS
330
29
102
}
330
29
100
AcDbVisualStyle
  2
FlatWithEdges
 70
     1
177
     2
291
     1
 71
     2
176
     1
 72
     1
176
     1
 73
     1
176
     1
 90
        2
176
     1
 40
0.6
176
     1
 41
30.0
176
     1
 63
     7
421
 16777215
176
     1
 74
     1
176
     1
 91
        0
176
     1
 64
     7
176
     1
 65
   257
176
     1
 75
     1
176
     1
175
     1
176
     1
 42
1.0
176
     1
 92
        0
176
     1
 66
   257
176
     1
 43
1.0
176
     1
 76
     1
176
     1
 77
     6
176
     1
 78
     2
176
     1
 67
     7
176
     1
 79
     5
176
     1
170
     0
176
     1
171
     0
176
     1
290
     0
176
     1
 93
       13
176
     1
 44
0.0
176
     1
173
     0
176
     1
1001
ACAD
1000
AcDbSavedByObjectVersion
1070
     0
  0
VISUALSTYLE
  5
2C
102
{ACAD_XDICTIONARY
360
160
102
}
102
{ACAD_REACTORS
330
29
102
}
330
29
100
AcDbVisualStyle
  2
Gouraud
 70
     2
177
     2
291
     1
 71
     2
176
     1
 72
     2
176
     1
 73
     1
176
     1
 90
        2
176
     1
 40
0.6
176
     1
 41
30.0
176
     1
 63
     7
421
 16777215
176
     1
 74
     0
176
     1
 91
        0
176
     1
 64
     7
176
     1
 65
   257
176
     1
 75
     1
176
     1
175
     1
176
     1
 42
1.0
176
     1
 92
        0
176
     1
 66
     7
176
     1
 43
1.0
176
     1
 76
     1
176
     1
 77
     6
176
     1
 78
     2
176
     1
 67
     7
176
     1
 79
     5
176
     1
170
     0
176
     1
171
     0
176
     1
290
     0
176
     1
 93
       13
176
     1
 44
0.0
176
     1
173
     0
176
     1
1001
ACAD
1000
AcDbSavedByObjectVersion
1070
     0
  0
VISUALSTYLE
  5
2D
102
{ACAD_XDICTIONARY
360
162
102
}
102
{ACAD_REACTORS
330
29
102
}
330
29
100
AcDbVisualStyle
  2
GouraudWithEdges
 70
     3
177
     2
291
     1
 71
     2
176
     1
 72
     2
176
     1
 73
     1
176
     1
 90
        2
176
     1
 40
0.6
176
     1
 41
30.0
176
     1
 63
     7
421
 16777215
176
     1
 74
     1
176
     1
 91
        0
176
     1
 64
     7
176
     1
 65
   257
176
     1
 75
     1
176
     1
175
     1
176
     1
 42
1.0
176
     1
 92
        0
176
     1
 66
   257
176
     1
 43
1.0
176
     1
 76
     1
176
     1
 77
     6
176
     1
 78
     2
176
     1
 67
     7
176
     1
 79
     5
176
     1
170
     0
176
     1
171
     0
176
     1
290
     0
176
     1
 93
       13
176
     1
 44
0.0
176
     1
173
     0
176
     1
1001
ACAD
1000
AcDbSavedByObjectVersion
1070
     0
  0
VISUALSTYLE
  5
31
102
{ACAD_XDICTIONARY
360
16A
102
}
102
{ACAD_REACTORS
330
29
102
}
330
29
100
AcDbVisualStyle
  2
Hidden
 70
     6
177
     2
291
     0
 71
     1
176
     1
 72
     2
176
     1
 73
     2
176
     1
 90
        0
176
     1
 40
0.6
176
     1
 41
30.0
176
     1
 63
     7
421
 16777215
176
     1
 74
     2
176
     1
 91
        2
176
     1
 64
     7
176
     1
 65
   257
176
     1
 75
     2
176
     1
175
     1
176
     1
 42
40.0
176
     1
 92
        0
176
     1
 66
   257
176
     1
 43
1.0
176
     1
 76
     1
176
     1
 77
     6
176
     1
 78
     2
176
     1
 67
     7
176
     1
 79
     3
176
     1
170
     0
176
     1
171
     0
176
     1
290
     0
176
     1
 93
        1
176
     1
 44
0.0
176
     1
173
     0
176
     1
1001
ACAD
1000
AcDbSavedByObjectVersion
1070
     0
  0
VISUALSTYLE
  5
3F
102
{ACAD_XDICTIONARY
360
186
102
}
102
{ACAD_REACTORS
330
29
102
}
330
29
100
AcDbVisualStyle
  2
JitterOff
 70
    20
177
     2
291
     1
 71
     2
176
     0
 72
     2
176
     0
 73
     0
176
     0
 90
        0
176
     0
 40
0.6
176
     0
 41
30.0
176
     0
 63
     7
421
 16777215
176
     0
 74
     1
176
     0
 91
        4
176
     0
 64
     7
176
     0
 65
   257
176
     0
 75
     1
176
     0
175
     1
176
     0
 42
1.0
176
     0
 92
       10
176
     2
 66
     7
176
     0
 43
1.0
176
     0
 76
     1
176
     0
 77
     6
176
     0
 78
     2
176
     0
 67
     7
176
     0
 79
     5
176
     0
170
     0
176
     0
171
     0
176
     0
290
     0
176
     0
 93
        1
176
     0
 44
0.0
176
     0
173
     0
176
     0
1001
ACAD
1000
AcDbSavedByObjectVersion
1070
     0
  0
VISUALSTYLE
  5
37
102
{ACAD_XDICTIONARY
360
176
102
}
102
{ACAD_REACTORS
330
29
102
}
330
29
100
AcDbVisualStyle
  2
Linepattern
 70
    14
177
     2
291
     1
 71
     2
176
     1
 72
     2
176
     1
 73
     0
176
     1
 90
        0
176
     1
 40
0.6
176
     1
 41
30.0
176
     1
 63
     7
421
 16777215
176
     1
 74
     1
176
     1
 91
        4
176
     1
 64
     7
176
     1
 65
   257
176
     1
 75
     7
176
     1
175
     7
176
     1
 42
1.0
176
     1
 92
        8
176
     1
 66
     7
176
     1
 43
1.0
176
     1
 76
     1
176
     1
 77
     6
176
     1
 78
     2
176
     1
 67
     7
176
     1
 79
     5
176
     1
170
     0
176
     1
171
     0
176
     1
290
     0
176
     1
 93
        1
176
     1
 44
0.0
176
     1
173
     0
176
     1
1001
ACAD
1000
AcDbSavedByObjectVersion
1070
     0
  0
VISUALSTYLE
  5
40
102
{ACAD_XDICTIONARY
360
188
102
}
102
{ACAD_REACTORS
330
29
102
}
330
29
100
AcDbVisualStyle
  2
OverhangOff
 70
    21
177
     2
291
     1
 71
     2
176
     0
 72
     2
176
     0
 73
     0
176
     0
 90
        0
176
     0
 40
0.6
176
     0
 41
30.0
176
     0
 63
     7
421
 16777215
176
     0
 74
     1
176
     0
 91
        4
176
     0
 64
     7
176
     0
 65
   257
176
     0
 75
     1
176
     0
175
     1
176
     0
 42
1.0
176
     0
 92
        9
176
     2
 66
     7
176
     0
 43
1.0
176
     0
 76
     1
176
     0
 77
     6
176
     0
 78
     2
176
     0
 67
     7
176
     0
 79
     5
176
     0
170
     0
176
     0
171
     0
176
     0
290
     0
176
     0
 93
        1
176
     0
 44
0.0
176
     0
173
     0
176
     0
1001
ACAD
1000
AcDbSavedByObjectVersion
1070
     0
  0
VISUALSTYLE
  5
33
102
{ACAD_XDICTIONARY
360
16E
102
}
102
{ACAD_REACTORS
330
29
102
}
330
29
100
AcDbVisualStyle
  2
Realistic
 70
     8
177
     2
291
     0
 71
     2
176
     1
 72
     3
176
     1
 73
     0
176
     1
 90
        2
176
     1
 40
0.6
176
     1
 41
30.0
176
     1
 63
     7
421
 16777215
176
     1
 74
     0
176
     1
 91
        0
176
     1
 64
     7
176
     1
 65
   257
176
     1
 75
     1
176
     1
175
     1
176
     1
 42
1.0
176
     1
 92
        8
176
     1
 66
   257
176
     1
 43
1.0
176
     1
 76
     1
176
     1
 77
     6
176
     1
 78
     2
176
     1
 67
     7
176
     1
 79
     3
176
     1
170
     0
176
     1
171
     0
176
     1
290
     0
176
     1
 93
       13
176
     1
 44
0.0
176
     1
173
     0
176
     1
1001
ACAD
1000
AcDbSavedByObjectVersion
1070
     0
  0
VISUALSTYLE
  5
3E
102
{ACAD_XDICTIONARY
360
184
102
}
102
{ACAD_REACTORS
330
29
102
}
330
29
100
AcDbVisualStyle
  2
Shaded
 70
    27
177
     2
291
     0
 71
     2
176
     1
 72
     2
176
     1
 73
     1
176
     1
 90
        2
176
     1
 40
0.6
176
     1
 41
30.0
176
     1
 63
     7
421
 16777215
176
     1
 74
     0
176
     1
 91
        4
176
     1
 64
     7
176
     1
 65
   257
176
     1
 75
     1
176
     1
175
     1
176
     1
 42
1.0
176
     1
 92
        8
176
     1
 66
   257
176
     1
 43
1.0
176
     1
 76
     1
176
     1
 77
     6
176
     1
 78
     2
176
     1
 67
     8
425
  7895160
176
     1
 79
     3
176
     1
170
     0
176
     1
171
     0
176
     1
290
     0
176
     1
 93
        5
176
     1
 44
0.0
176
     1
173
     0
176
     1
1001
ACAD
1000
AcDbSavedByObjectVersion
1070
     0
  0
VISUALSTYLE
  5
3D
102
{ACAD_XDICTIONARY
360
182
102
}
102
{ACAD_REACTORS
330
29
102
}
330
29
100
AcDbVisualStyle
  2
Shaded with edges
 70
    26
177
     2
291
     0
 71
     2
176
     1
 72
     2
176
     1
 73
     1
176
     1
 90
        2
176
     1
 40
0.6
176
     1
 41
30.0
176
     1
 63
     7
421
 16777215
176
     1
 74
     1
176
     1
 91
        2
176
     1
 64
     7
176
     1
 65
   257
176
     1
 75
     2
176
     1
175
     1
176
     1
 42
1.0
176
     1
 92
        8
176
     1
 66
   257
176
     1
 43
1.0
176
     1
 76
     1
176
     1
 77
     6
176
     1
 78
     2
176
     1
 67
     7
176
     1
 79
     3
176
     1
170
     0
176
     1
171
     0
176
     1
290
     0
176
     1
 93
        5
176
     1
 44
0.0
176
     1
173
     0
176
     1
1001
ACAD
1000
AcDbSavedByObjectVersion
1070
     0
  0
VISUALSTYLE
  5
3A
102
{ACAD_XDICTIONARY
360
17C
102
}
102
{ACAD_REACTORS
330
29
102
}
330
29
100
AcDbVisualStyle
  2
Shades of Gray
 70
    23
177
     2
291
     0
 71
     2
176
     1
 72
     2
176
     1
 73
     3
176
     1
 90
        0
176
     1
 40
0.6
176
     1
 41
30.0
176
     1
 63
     7
421
 16777215
176
     1
 74
     2
176
     1
 91
        2
176
     1
 64
     7
176
     1
 65
     7
176
     1
 75
     1
176
     1
175
     1
176
     1
 42
40.0
176
     1
 92
        8
176
     1
 66
     7
176
     1
 43
1.0
176
     1
 76
     1
176
     1
 77
     6
176
     1
 78
     2
176
     1
 67
     7
176
     1
 79
     3
176
     1
170
     0
176
     1
171
     0
176
     1
290
     0
176
     1
 93
        1
176
     1
 44
0.0
176
     1
173
     0
176
     1
1001
ACAD
1000
AcDbSavedByObjectVersion
1070
     0
  0
VISUALSTYLE
  5
3B
102
{ACAD_XDICTIONARY
360
17E
102
}
102
{ACAD_REACTORS
330
29
102
}
330
29
100
AcDbVisualStyle
  2
Sketchy
 70
    24
177
     2
291
     0
 71
     1
176
     1
 72
     2
176
     1
 73
     2
176
     1
 90
        0
176
     1
 40
0.6
176
     1
 41
30.0
176
     1
 63
     7
421
 16777215
176
     1
 74
     2
176
     1
 91
        2
176
     1
 64
     7
176
     1
 65
     7
176
     1
 75
     1
176
     1
175
     1
176
     1
 42
40.0
176
     1
 92
       11
176
     1
 66
     7
176
     1
 43
1.0
176
     1
 76
     1
176
     1
 77
     6
176
     1
 78
     2
176
     1
 67
     7
176
     1
 79
     6
176
     1
170
     0
176
     1
171
     0
176
     1
290
     0
176
     1
 93
        1
176
     1
 44
0.0
176
     1
173
     0
176
     1
1001
ACAD
1000
AcDbSavedByObjectVersion
1070
     0
  0
VISUALSTYLE
  5
36
102
{ACAD_XDICTIONARY
360
174
102
}
102
{ACAD_REACTORS
330
29
102
}
330
29
100
AcDbVisualStyle
  2
Thicken
 70
    13
177
     2
291
     1
 71
     2
176
     1
 72
     2
176
     1
 73
     0
176
     1
 90
        0
176
     1
 40
0.6
176
     1
 41
30.0
176
     1
 63
     7
421
 16777215
176
     1
 74
     1
176
     1
 91
        4
176
     1
 64
     7
176
     1
 65
   257
176
     1
 75
     1
176
     1
175
     1
176
     1
 42
1.0
176
     1
 92
       12
176
     1
 66
     7
176
     1
 43
1.0
176
     1
 76
     1
176
     1
 77
     6
176
     1
 78
     2
176
     1
 67
     7
176
     1
 79
     5
176
     1
170
     0
176
     1
171
     0
176
     1
290
     0
176
     1
 93
        1
176
     1
 44
0.0
176
     1
173
     0
176
     1
1001
ACAD
1000
AcDbSavedByObjectVersion
1070
     0
  0
VISUALSTYLE
  5
30
102
{ACAD_XDICTIONARY
360
168
102
}
102
{ACAD_REACTORS
330
29
102
}
330
29
100
AcDbVisualStyle
  2
Wireframe
 70
     5
177
     2
291
     0
 71
     0
176
     1
 72
     2
176
     1
 73
     0
176
     1
 90
        0
176
     1
 40
0.6
176
     1
 41
30.0
176
     1
 63
     7
421
 16777215
176
     1
 74
     1
176
     1
 91
        4
176
     1
 64
     7
176
     1
 65
   257
176
     1
 75
     1
176
     1
175
     1
176
     1
 42
1.0
176
     1
 92
        0
176
     1
 66
   257
176
     1
 43
1.0
176
     1
 76
     1
176
     1
 77
     6
176
     1
 78
     2
176
     1
 67
     7
176
     1
 79
     3
176
     1
170
     0
176
     1
171
     0
176
     1
290
     0
176
     1
 93
        1
176
     1
 44
0.0
176
     1
173
     0
176
     1
1001
ACAD
1000
AcDbSavedByObjectVersion
1070
     0
  0
VISUALSTYLE
  5
3C
102
{ACAD_XDICTIONARY
360
180
102
}
102
{ACAD_REACTORS
330
29
102
}
330
29
100
AcDbVisualStyle
  2
X-Ray
 70
    25
177
     2
291
     0
 71
     2
176
     1
 72
     2
176
     1
 73
     1
176
     1
 90
        1
176
     1
 40
0.5
176
     1
 41
30.0
176
     1
 63
     7
421
 16777215
176
     1
 74
     1
176
     1
 91
        0
176
     1
 64
     7
176
     1
 65
   257
176
     1
 75
     1
176
     1
175
     1
176
     1
 42
1.0
176
     1
 92
        8
176
     1
 66
     7
176
     1
 43
1.0
176
     1
 76
     1
176
     1
 77
     6
176
     1
 78
     2
176
     1
 67
     7
176
     1
 79
     3
176
     1
170
     0
176
     1
171
     0
176
     1
290
     0
176
     1
 93
       13
176
     1
 44
0.0
176
     1
173
     0
176
     1
1001
ACAD
1000
AcDbSavedByObjectVersion
1070
     0
  0
DICTIONARYVAR
  5
158
102
{ACAD_REACTORS
330
153
102
}
330
153
100
DictionaryVariables
280
     0
  1
1:1
  0
DICTIONARYVAR
  5
155
102
{ACAD_REACTORS
330
153
102
}
330
153
100
DictionaryVariables
280
     0
  1
STANDARD
  0
DICTIONARYVAR
  5
154
102
{ACAD_REACTORS
330
153
102
}
330
153
100
DictionaryVariables
280
     0
  1
STANDARD
  0
DICTIONARYVAR
  5
156
102
{ACAD_REACTORS
330
153
102
}
330
153
100
DictionaryVariables
280
     0
  1
Imperial24
  0
DICTIONARYVAR
  5
157
102
{ACAD_REACTORS
330
153
102
}
330
153
100
DictionaryVariables
280
     0
  1
Imperial24
  0
DICTIONARY
  5
190
330
6B
100
AcDbDictionary
280
     1
281
     1
  3
ACAD_XREC_ROUNDTRIP
360
191
  0
DICTIONARY
  5
1A
330
19
100
AcDbDictionary
280
     1
281
     1
  3
BUMPTILE
360
1C
  3
DIFFUSETILE
360
1B
  3
OPACITYTILE
360
1F
  3
REFLECTIONTILE
360
1E
  3
REFRACTIONTILE
360
20
  3
SPECULARTILE
360
1D
  0
DICTIONARY
  5
12
330
11
100
AcDbDictionary
280
     1
281
     1
  3
BUMPTILE
360
14
  3
DIFFUSETILE
360
13
  3
OPACITYTILE
360
17
  3
REFLECTIONTILE
360
16
  3
REFRACTIONTILE
360
18
  3
SPECULARTILE
360
15
  0
DICTIONARY
  5
22
330
21
100
AcDbDictionary
280
     1
281
     1
  3
BUMPTILE
360
24
  3
DIFFUSETILE
360
23
  3
OPACITYTILE
360
27
  3
REFLECTIONTILE
360
26
  3
REFRACTIONTILE
360
28
  3
SPECULARTILE
360
25
  0
DICTIONARY
  5
18C
330
67
100
AcDbDictionary
280
     1
281
     1
  3
ACAD_XREC_ROUNDTRIP
360
18D
  0
DICTIONARY
  5
18E
330
69
100
AcDbDictionary
280
     1
281
     1
  3
ACAD_XREC_ROUNDTRIP
360
18F
  0
DICTIONARY
  5
159
330
65
100
AcDbDictionary
280
     1
281
     1
  3
ACAD_ROUNDTRIP_2008_TABLESTYLE_CELLSTYLEMAP
360
15A
  0
DICTIONARY
  5
166
330
2F
100
AcDbDictionary
280
     1
281
     1
  3
ACAD_XREC_ROUNDTRIP
360
167
  0
DICTIONARY
  5
164
330
2E
100
AcDbDictionary
280
     1
281
     1
  3
ACAD_XREC_ROUNDTRIP
360
165
  0
DICTIONARY
  5
172
330
35
100
AcDbDictionary
280
     1
281
     1
  3
ACAD_XREC_ROUNDTRIP
360
173
  0
DICTIONARY
  5
17A
330
39
100
AcDbDictionary
280
     1
281
     1
  3
ACAD_XREC_ROUNDTRIP
360
17B
  0
DICTIONARY
  5
16C
330
32
100
AcDbDictionary
280
     1
281
     1
  3
ACAD_XREC_ROUNDTRIP
360
16D
  0
DICTIONARY
  5
170
330
34
100
AcDbDictionary
280
     1
281
     1
  3
ACAD_XREC_ROUNDTRIP
360
171
  0
DICTIONARY
  5
18A
330
41
100
AcDbDictionary
280
     1
281
     1
  3
ACAD_XREC_ROUNDTRIP
360
18B
  0
DICTIONARY
  5
178
330
38
100
AcDbDictionary
280
     1
281
     1
  3
ACAD_XREC_ROUNDTRIP
360
179
  0
DICTIONARY
  5
15C
330
2A
100
AcDbDictionary
280
     1
281
     1
  3
ACAD_XREC_ROUNDTRIP
360
15D
  0
DICTIONARY
  5
15E
330
2B
100
AcDbDictionary
280
     1
281
     1
  3
ACAD_XREC_ROUNDTRIP
360
15F
  0
DICTIONARY
  5
160
330
2C
100
AcDbDictionary
280
     1
281
     1
  3
ACAD_XREC_ROUNDTRIP
360
161
  0
DICTIONARY
  5
162
330
2D
100
AcDbDictionary
280
     1
281
     1
  3
ACAD_XREC_ROUNDTRIP
360
163
  0
DICTIONARY
  5
16A
330
31
100
AcDbDictionary
280
     1
281
     1
  3
ACAD_XREC_ROUNDTRIP
360
16B
  0
DICTIONARY
  5
186
330
3F
100
AcDbDictionary
280
     1
281
     1
  3
ACAD_XREC_ROUNDTRIP
360
187
  0
DICTIONARY
  5
176
330
37
100
AcDbDictionary
280
     1
281
     1
  3
ACAD_XREC_ROUNDTRIP
360
177
  0
DICTIONARY
  5
188
330
40
100
AcDbDictionary
280
     1
281
     1
  3
ACAD_XREC_ROUNDTRIP
360
189
  0
DICTIONARY
  5
16E
330
33
100
AcDbDictionary
280
     1
281
     1
  3
ACAD_XREC_ROUNDTRIP
360
16F
  0
DICTIONARY
  5
184
330
3E
100
AcDbDictionary
280
     1
281
     1
  3
ACAD_XREC_ROUNDTRIP
360
185
  0
DICTIONARY
  5
182
330
3D
100
AcDbDictionary
280
     1
281
     1
  3
ACAD_XREC_ROUNDTRIP
360
183
  0
DICTIONARY
  5
17C
330
3A
100
AcDbDictionary
280
     1
281
     1
  3
ACAD_XREC_ROUNDTRIP
360
17D
  0
DICTIONARY
  5
17E
330
3B
100
AcDbDictionary
280
     1
281
     1
  3
ACAD_XREC_ROUNDTRIP
360
17F
  0
DICTIONARY
  5
174
330
36
100
AcDbDictionary
280
     1
281
     1
  3
ACAD_XREC_ROUNDTRIP
360
175
  0
DICTIONARY
  5
168
330
30
100
AcDbDictionary
280
     1
281
     1
  3
ACAD_XREC_ROUNDTRIP
360
169
  0
DICTIONARY
  5
180
330
3C
100
AcDbDictionary
280
     1
281
     1
  3
ACAD_XREC_ROUNDTRIP
360
181
  0
XRECORD
  5
191
102
{ACAD_REACTORS
330
190
102
}
330
190
100
AcDbXrecord
280
     1
102
DISPLAYNAME
  1
Imperial24
102
FLAGS
 90
        0
  0
XRECORD
  5
1C
102
{ACAD_REACTORS
330
1A
102
}
330
1A
100
AcDbXrecord
280
     1
270
     1
271
     1
  0
XRECORD
  5
1B
102
{ACAD_REACTORS
330
1A
102
}
330
1A
100
AcDbXrecord
280
     1
270
     1
271
     1
  0
XRECORD
  5
1F
102
{ACAD_REACTORS
330
1A
102
}
330
1A
100
AcDbXrecord
280
     1
270
     1
271
     1
  0
XRECORD
  5
1E
102
{ACAD_REACTORS
330
1A
102
}
330
1A
100
AcDbXrecord
280
     1
270
     1
271
     1
  0
XRECORD
  5
20
102
{ACAD_REACTORS
330
1A
102
}
330
1A
100
AcDbXrecord
280
     1
270
     1
271
     1
  0
XRECORD
  5
1D
102
{ACAD_REACTORS
330
1A
102
}
330
1A
100
AcDbXrecord
280
     1
270
     1
271
     1
  0
XRECORD
  5
14
102
{ACAD_REACTORS
330
12
102
}
330
12
100
AcDbXrecord
280
     1
270
     1
271
     1
  0
XRECORD
  5
13
102
{ACAD_REACTORS
330
12
102
}
330
12
100
AcDbXrecord
280
     1
270
     1
271
     1
  0
XRECORD
  5
17
102
{ACAD_REACTORS
330
12
102
}
330
12
100
AcDbXrecord
280
     1
270
     1
271
     1
  0
XRECORD
  5
16
102
{ACAD_REACTORS
330
12
102
}
330
12
100
AcDbXrecord
280
     1
270
     1
271
     1
  0
XRECORD
  5
18
102
{ACAD_REACTORS
330
12
102
}
330
12
100
AcDbXrecord
280
     1
270
     1
271
     1
  0
XRECORD
  5
15
102
{ACAD_REACTORS
330
12
102
}
330
12
100
AcDbXrecord
280
     1
270
     1
271
     1
  0
XRECORD
  5
24
102
{ACAD_REACTORS
330
22
102
}
330
22
100
AcDbXrecord
280
     1
270
     1
271
     1
  0
XRECORD
  5
23
102
{ACAD_REACTORS
330
22
102
}
330
22
100
AcDbXrecord
280
     1
270
     1
271
     1
  0
XRECORD
  5
27
102
{ACAD_REACTORS
330
22
102
}
330
22
100
AcDbXrecord
280
     1
270
     1
271
     1
  0
XRECORD
  5
26
102
{ACAD_REACTORS
330
22
102
}
330
22
100
AcDbXrecord
280
     1
270
     1
271
     1
  0
XRECORD
  5
28
102
{ACAD_REACTORS
330
22
102
}
330
22
100
AcDbXrecord
280
     1
270
     1
271
     1
  0
XRECORD
  5
25
102
{ACAD_REACTORS
330
22
102
}
330
22
100
AcDbXrecord
280
     1
270
     1
271
     1
  0
XRECORD
  5
18D
102
{ACAD_REACTORS
330
18C
102
}
330
18C
100
AcDbXrecord
280
     1
102
ACAD_ROUNDTRIP_2012_MLEADER_STYLE
298
     1
  0
XRECORD
  5
18F
102
{ACAD_REACTORS
330
18E
102
}
330
18E
100
AcDbXrecord
280
     1
102
DISPLAYNAME
  1
Imperial24
102
FLAGS
 90
        0
  0
CELLSTYLEMAP
  5
15A
102
{ACAD_REACTORS
330
159
102
}
330
159
100
AcDbCellStyleMap
 90
        3
300
CELLSTYLE
  1
TABLEFORMAT_BEGIN
 90
        5
170
     1
 91
        0
 92
    32768
 62
   257
 93
        1
300
CONTENTFORMAT
  1
CONTENTFORMAT_BEGIN
 90
        0
 91
        0
 92
      512
 93
        0
300

 40
0.0
140
1.0
 94
        5
 62
     0
340
55
144
0.25
309
CONTENTFORMAT_END
171
     0
 94
        0
309
TABLEFORMAT_END
  1
CELLSTYLE_BEGIN
 90
        1
 91
        1
300
_TITLE
309
CELLSTYLE_END
300
CELLSTYLE
  1
TABLEFORMAT_BEGIN
 90
        5
170
     1
 91
        0
 92
        0
 62
   257
 93
        1
300
CONTENTFORMAT
  1
CONTENTFORMAT_BEGIN
 90
        0
 91
        0
 92
      512
 93
        0
300

 40
0.0
140
1.0
 94
        5
 62
     0
340
55
144
0.18
309
CONTENTFORMAT_END
171
     0
 94
        0
309
TABLEFORMAT_END
  1
CELLSTYLE_BEGIN
 90
        2
 91
        1
300
_HEADER
309
CELLSTYLE_END
300
CELLSTYLE
  1
TABLEFORMAT_BEGIN
 90
        5
170
     1
 91
        0
 92
        0
 62
   257
 93
        1
300
CONTENTFORMAT
  1
CONTENTFORMAT_BEGIN
 90
        0
 91
        0
 92
      512
 93
        0
300

 40
0.0
140
1.0
 94
        2
 62
     0
340
55
144
0.18
309
CONTENTFORMAT_END
171
     0
 94
        0
309
TABLEFORMAT_END
  1
CELLSTYLE_BEGIN
 90
        3
 91
        2
300
_DATA
309
CELLSTYLE_END
  0
XRECORD
  5
167
102
{ACAD_REACTORS
330
166
102
}
330
166
100
AcDbXrecord
280
     1
102
RTVSPost2010Prop28
280
     1
102
RTVSPost2010PropOp28
 70
     1
102
RTVSPost2010Prop29
280
     1
102
RTVSPost2010PropOp29
 70
     1
102
RTVSPost2010Prop30
280
     0
102
RTVSPost2010PropOp30
 70
     1
102
RTVSPost2010Prop31
280
     0
102
RTVSPost2010PropOp31
 70
     1
102
RTVSPost2010Prop32
280
     0
102
RTVSPost2010PropOp32
 70
     1
102
RTVSPost2010Prop33
280
     0
102
RTVSPost2010PropOp33
 70
     1
102
RTVSPost2010Prop34
280
     0
102
RTVSPost2010PropOp34
 70
     1
102
RTVSPost2010Prop35
280
     0
102
RTVSPost2010PropOp35
 70
     1
102
RTVSPost2010Prop36
280
     0
102
RTVSPost2010PropOp36
 70
     1
102
RTVSPost2010Prop37
 90
       50
102
RTVSPost2010PropOp37
 70
     1
102
RTVSPost2010Prop38
140
0.0
102
RTVSPost2010PropOp38
 70
     1
102
RTVSPost2010Prop39
140
1.0
102
RTVSPost2010PropOp39
 70
     1
102
RTVSPost2010Prop40
 90
        0
102
RTVSPost2010PropOp40
 70
     1
102
RTVSPost2010Prop41ColorIndex
 90
       18
102
RTVSPost2010Prop41ColorRGB
 90
        0
102
RTVSPost2010PropOp41
 70
     1
102
RTVSPost2010Prop42
 90
       50
102
RTVSPost2010PropOp42
 70
     1
102
RTVSPost2010Prop43
 90
        3
102
RTVSPost2010PropOp43
 70
     1
102
RTVSPost2010Prop44ColorIndex
 90
        5
102
RTVSPost2010Prop44ColorRGB
 90
      255
102
RTVSPost2010PropOp44
 70
     1
102
RTVSPost2010Prop45
280
     0
102
RTVSPost2010PropOp45
 70
     1
102
RTVSPost2010Prop46
 90
       50
102
RTVSPost2010PropOp46
 70
     1
102
RTVSPost2010Prop47
 90
       50
102
RTVSPost2010PropOp47
 70
     1
102
RTVSPost2010Prop48
 90
       50
102
RTVSPost2010PropOp48
 70
     1
102
RTVSPost2010Prop49
280
     0
102
RTVSPost2010PropOp49
 70
     1
102
RTVSPost2010Prop50
 90
       50
102
RTVSPost2010PropOp50
 70
     1
102
RTVSPost2010Prop51ColorIndex
 90
      256
102
RTVSPost2010Prop51ColorRGB
 90
-16777216
102
RTVSPost2010PropOp51
 70
     0
102
RTVSPost2010Prop52
140
1.0
102
RTVSPost2010PropOp52
 70
     0
102
RTVSPost2010Prop53
 90
        2
102
RTVSPost2010PropOp53
 70
     1
102
RTVSPost2010Prop54
  1
strokes_ogs.tif
102
RTVSPost2010PropOp54
 70
     1
102
RTVSPost2010Prop55
280
     0
102
RTVSPost2010PropOp55
 70
     1
102
RTVSPost2010Prop56
140
1.0
102
RTVSPost2010PropOp56
 70
     1
102
RTVSPost2010Prop57
140
1.0
102
RTVSPost2010PropOp57
 70
     1
  0
XRECORD
  5
165
102
{ACAD_REACTORS
330
164
102
}
330
164
100
AcDbXrecord
280
     1
102
RTVSPost2010Prop28
280
     0
102
RTVSPost2010PropOp28
 70
     1
102
RTVSPost2010Prop29
280
     1
102
RTVSPost2010PropOp29
 70
     1
102
RTVSPost2010Prop30
280
     1
102
RTVSPost2010PropOp30
 70
     1
102
RTVSPost2010Prop31
280
     0
102
RTVSPost2010PropOp31
 70
     1
102
RTVSPost2010Prop32
280
     0
102
RTVSPost2010PropOp32
 70
     1
102
RTVSPost2010Prop33
280
     0
102
RTVSPost2010PropOp33
 70
     1
102
RTVSPost2010Prop34
280
     0
102
RTVSPost2010PropOp34
 70
     1
102
RTVSPost2010Prop35
280
     0
102
RTVSPost2010PropOp35
 70
     1
102
RTVSPost2010Prop36
280
     0
102
RTVSPost2010PropOp36
 70
     1
102
RTVSPost2010Prop37
 90
       50
102
RTVSPost2010PropOp37
 70
     1
102
RTVSPost2010Prop38
140
0.0
102
RTVSPost2010PropOp38
 70
     1
102
RTVSPost2010Prop39
140
1.0
102
RTVSPost2010PropOp39
 70
     1
102
RTVSPost2010Prop40
 90
        0
102
RTVSPost2010PropOp40
 70
     1
102
RTVSPost2010Prop41ColorIndex
 90
       18
102
RTVSPost2010Prop41ColorRGB
 90
        0
102
RTVSPost2010PropOp41
 70
     1
102
RTVSPost2010Prop42
 90
       50
102
RTVSPost2010PropOp42
 70
     1
102
RTVSPost2010Prop43
 90
        3
102
RTVSPost2010PropOp43
 70
     1
102
RTVSPost2010Prop44ColorIndex
 90
        5
102
RTVSPost2010Prop44ColorRGB
 90
      255
102
RTVSPost2010PropOp44
 70
     1
102
RTVSPost2010Prop45
280
     0
102
RTVSPost2010PropOp45
 70
     1
102
RTVSPost2010Prop46
 90
       50
102
RTVSPost2010PropOp46
 70
     1
102
RTVSPost2010Prop47
 90
       50
102
RTVSPost2010PropOp47
 70
     1
102
RTVSPost2010Prop48
 90
       50
102
RTVSPost2010PropOp48
 70
     1
102
RTVSPost2010Prop49
280
     0
102
RTVSPost2010PropOp49
 70
     1
102
RTVSPost2010Prop50
 90
       50
102
RTVSPost2010PropOp50
 70
     1
102
RTVSPost2010Prop51ColorIndex
 90
      256
102
RTVSPost2010Prop51ColorRGB
 90
-16777216
102
RTVSPost2010PropOp51
 70
     0
102
RTVSPost2010Prop52
140
1.0
102
RTVSPost2010PropOp52
 70
     0
102
RTVSPost2010Prop53
 90
        2
102
RTVSPost2010PropOp53
 70
     1
102
RTVSPost2010Prop54
  1
strokes_ogs.tif
102
RTVSPost2010PropOp54
 70
     1
102
RTVSPost2010Prop55
280
     0
102
RTVSPost2010PropOp55
 70
     1
102
RTVSPost2010Prop56
140
1.0
102
RTVSPost2010PropOp56
 70
     1
102
RTVSPost2010Prop57
140
1.0
102
RTVSPost2010PropOp57
 70
     1
  0
XRECORD
  5
173
102
{ACAD_REACTORS
330
172
102
}
330
172
100
AcDbXrecord
280
     1
102
RTVSPost2010Prop28
280
     0
102
RTVSPost2010PropOp28
 70
     1
102
RTVSPost2010Prop29
280
     1
102
RTVSPost2010PropOp29
 70
     1
102
RTVSPost2010Prop30
280
     1
102
RTVSPost2010PropOp30
 70
     1
102
RTVSPost2010Prop31
280
     0
102
RTVSPost2010PropOp31
 70
     1
102
RTVSPost2010Prop32
280
     0
102
RTVSPost2010PropOp32
 70
     1
102
RTVSPost2010Prop33
280
     0
102
RTVSPost2010PropOp33
 70
     1
102
RTVSPost2010Prop34
280
     0
102
RTVSPost2010PropOp34
 70
     1
102
RTVSPost2010Prop35
280
     0
102
RTVSPost2010PropOp35
 70
     1
102
RTVSPost2010Prop36
280
     0
102
RTVSPost2010PropOp36
 70
     1
102
RTVSPost2010Prop37
 90
       50
102
RTVSPost2010PropOp37
 70
     1
102
RTVSPost2010Prop38
140
0.0
102
RTVSPost2010PropOp38
 70
     1
102
RTVSPost2010Prop39
140
1.0
102
RTVSPost2010PropOp39
 70
     1
102
RTVSPost2010Prop40
 90
        0
102
RTVSPost2010PropOp40
 70
     1
102
RTVSPost2010Prop41ColorIndex
 90
       18
102
RTVSPost2010Prop41ColorRGB
 90
        0
102
RTVSPost2010PropOp41
 70
     1
102
RTVSPost2010Prop42
 90
       50
102
RTVSPost2010PropOp42
 70
     1
102
RTVSPost2010Prop43
 90
        3
102
RTVSPost2010PropOp43
 70
     1
102
RTVSPost2010Prop44ColorIndex
 90
        5
102
RTVSPost2010Prop44ColorRGB
 90
      255
102
RTVSPost2010PropOp44
 70
     1
102
RTVSPost2010Prop45
280
     0
102
RTVSPost2010PropOp45
 70
     1
102
RTVSPost2010Prop46
 90
       50
102
RTVSPost2010PropOp46
 70
     1
102
RTVSPost2010Prop47
 90
       50
102
RTVSPost2010PropOp47
 70
     1
102
RTVSPost2010Prop48
 90
       50
102
RTVSPost2010PropOp48
 70
     1
102
RTVSPost2010Prop49
280
     0
102
RTVSPost2010PropOp49
 70
     1
102
RTVSPost2010Prop50
 90
       50
102
RTVSPost2010PropOp50
 70
     1
102
RTVSPost2010Prop51ColorIndex
 90
      256
102
RTVSPost2010Prop51ColorRGB
 90
-16777216
102
RTVSPost2010PropOp51
 70
     0
102
RTVSPost2010Prop52
140
1.0
102
RTVSPost2010PropOp52
 70
     0
102
RTVSPost2010Prop53
 90
        2
102
RTVSPost2010PropOp53
 70
     1
102
RTVSPost2010Prop54
  1
strokes_ogs.tif
102
RTVSPost2010PropOp54
 70
     1
102
RTVSPost2010Prop55
280
     0
102
RTVSPost2010PropOp55
 70
     1
102
RTVSPost2010Prop56
140
1.0
102
RTVSPost2010PropOp56
 70
     1
102
RTVSPost2010Prop57
140
1.0
102
RTVSPost2010PropOp57
 70
     1
  0
XRECORD
  5
17B
102
{ACAD_REACTORS
330
17A
102
}
330
17A
100
AcDbXrecord
280
     1
102
RTVSPost2010Prop28
280
     0
102
RTVSPost2010PropOp28
 70
     1
102
RTVSPost2010Prop29
280
     1
102
RTVSPost2010PropOp29
 70
     1
102
RTVSPost2010Prop30
280
     1
102
RTVSPost2010PropOp30
 70
     1
102
RTVSPost2010Prop31
280
     0
102
RTVSPost2010PropOp31
 70
     1
102
RTVSPost2010Prop32
280
     0
102
RTVSPost2010PropOp32
 70
     1
102
RTVSPost2010Prop33
280
     0
102
RTVSPost2010PropOp33
 70
     1
102
RTVSPost2010Prop34
280
     0
102
RTVSPost2010PropOp34
 70
     1
102
RTVSPost2010Prop35
280
     0
102
RTVSPost2010PropOp35
 70
     1
102
RTVSPost2010Prop36
280
     0
102
RTVSPost2010PropOp36
 70
     1
102
RTVSPost2010Prop37
 90
       50
102
RTVSPost2010PropOp37
 70
     1
102
RTVSPost2010Prop38
140
0.0
102
RTVSPost2010PropOp38
 70
     1
102
RTVSPost2010Prop39
140
1.0
102
RTVSPost2010PropOp39
 70
     1
102
RTVSPost2010Prop40
 90
        0
102
RTVSPost2010PropOp40
 70
     1
102
RTVSPost2010Prop41ColorIndex
 90
       18
102
RTVSPost2010Prop41ColorRGB
 90
        0
102
RTVSPost2010PropOp41
 70
     1
102
RTVSPost2010Prop42
 90
       50
102
RTVSPost2010PropOp42
 70
     1
102
RTVSPost2010Prop43
 90
        3
102
RTVSPost2010PropOp43
 70
     1
102
RTVSPost2010Prop44ColorIndex
 90
        5
102
RTVSPost2010Prop44ColorRGB
 90
      255
102
RTVSPost2010PropOp44
 70
     1
102
RTVSPost2010Prop45
280
     0
102
RTVSPost2010PropOp45
 70
     1
102
RTVSPost2010Prop46
 90
       50
102
RTVSPost2010PropOp46
 70
     1
102
RTVSPost2010Prop47
 90
       50
102
RTVSPost2010PropOp47
 70
     1
102
RTVSPost2010Prop48
 90
       50
102
RTVSPost2010PropOp48
 70
     1
102
RTVSPost2010Prop49
280
     0
102
RTVSPost2010PropOp49
 70
     1
102
RTVSPost2010Prop50
 90
       50
102
RTVSPost2010PropOp50
 70
     1
102
RTVSPost2010Prop51ColorIndex
 90
      256
102
RTVSPost2010Prop51ColorRGB
 90
-16777216
102
RTVSPost2010PropOp51
 70
     0
102
RTVSPost2010Prop52
140
1.0
102
RTVSPost2010PropOp52
 70
     0
102
RTVSPost2010Prop53
 90
        2
102
RTVSPost2010PropOp53
 70
     1
102
RTVSPost2010Prop54
  1
strokes_ogs.tif
102
RTVSPost2010PropOp54
 70
     1
102
RTVSPost2010Prop55
280
     0
102
RTVSPost2010PropOp55
 70
     1
102
RTVSPost2010Prop56
140
1.0
102
RTVSPost2010PropOp56
 70
     1
102
RTVSPost2010Prop57
140
1.0
102
RTVSPost2010PropOp57
 70
     1
  0
XRECORD
  5
16D
102
{ACAD_REACTORS
330
16C
102
}
330
16C
100
AcDbXrecord
280
     1
102
RTVSPost2010Prop28
280
     0
102
RTVSPost2010PropOp28
 70
     1
102
RTVSPost2010Prop29
280
     1
102
RTVSPost2010PropOp29
 70
     1
102
RTVSPost2010Prop30
280
     1
102
RTVSPost2010PropOp30
 70
     1
102
RTVSPost2010Prop31
280
     0
102
RTVSPost2010PropOp31
 70
     1
102
RTVSPost2010Prop32
280
     0
102
RTVSPost2010PropOp32
 70
     1
102
RTVSPost2010Prop33
280
     0
102
RTVSPost2010PropOp33
 70
     1
102
RTVSPost2010Prop34
280
     0
102
RTVSPost2010PropOp34
 70
     1
102
RTVSPost2010Prop35
280
     0
102
RTVSPost2010PropOp35
 70
     1
102
RTVSPost2010Prop36
280
     0
102
RTVSPost2010PropOp36
 70
     1
102
RTVSPost2010Prop37
 90
       50
102
RTVSPost2010PropOp37
 70
     1
102
RTVSPost2010Prop38
140
0.0
102
RTVSPost2010PropOp38
 70
     1
102
RTVSPost2010Prop39
140
1.0
102
RTVSPost2010PropOp39
 70
     1
102
RTVSPost2010Prop40
 90
        0
102
RTVSPost2010PropOp40
 70
     1
102
RTVSPost2010Prop41ColorIndex
 90
       18
102
RTVSPost2010Prop41ColorRGB
 90
        0
102
RTVSPost2010PropOp41
 70
     1
102
RTVSPost2010Prop42
 90
       50
102
RTVSPost2010PropOp42
 70
     1
102
RTVSPost2010Prop43
 90
        3
102
RTVSPost2010PropOp43
 70
     1
102
RTVSPost2010Prop44ColorIndex
 90
        5
102
RTVSPost2010Prop44ColorRGB
 90
      255
102
RTVSPost2010PropOp44
 70
     1
102
RTVSPost2010Prop45
280
     0
102
RTVSPost2010PropOp45
 70
     1
102
RTVSPost2010Prop46
 90
       50
102
RTVSPost2010PropOp46
 70
     1
102
RTVSPost2010Prop47
 90
       50
102
RTVSPost2010PropOp47
 70
     1
102
RTVSPost2010Prop48
 90
       50
102
RTVSPost2010PropOp48
 70
     1
102
RTVSPost2010Prop49
280
     0
102
RTVSPost2010PropOp49
 70
     1
102
RTVSPost2010Prop50
 90
       50
102
RTVSPost2010PropOp50
 70
     1
102
RTVSPost2010Prop51ColorIndex
 90
      256
102
RTVSPost2010Prop51ColorRGB
 90
-16777216
102
RTVSPost2010PropOp51
 70
     0
102
RTVSPost2010Prop52
140
1.0
102
RTVSPost2010PropOp52
 70
     0
102
RTVSPost2010Prop53
 90
        2
102
RTVSPost2010PropOp53
 70
     1
102
RTVSPost2010Prop54
  1
strokes_ogs.tif
102
RTVSPost2010PropOp54
 70
     1
102
RTVSPost2010Prop55
280
     0
102
RTVSPost2010PropOp55
 70
     1
102
RTVSPost2010Prop56
140
1.0
102
RTVSPost2010PropOp56
 70
     1
102
RTVSPost2010Prop57
140
1.0
102
RTVSPost2010PropOp57
 70
     1
  0
XRECORD
  5
171
102
{ACAD_REACTORS
330
170
102
}
330
170
100
AcDbXrecord
280
     1
102
RTVSPost2010Prop28
280
     0
102
RTVSPost2010PropOp28
 70
     1
102
RTVSPost2010Prop29
280
     1
102
RTVSPost2010PropOp29
 70
     1
102
RTVSPost2010Prop30
280
     1
102
RTVSPost2010PropOp30
 70
     1
102
RTVSPost2010Prop31
280
     0
102
RTVSPost2010PropOp31
 70
     1
102
RTVSPost2010Prop32
280
     0
102
RTVSPost2010PropOp32
 70
     1
102
RTVSPost2010Prop33
280
     0
102
RTVSPost2010PropOp33
 70
     1
102
RTVSPost2010Prop34
280
     0
102
RTVSPost2010PropOp34
 70
     1
102
RTVSPost2010Prop35
280
     0
102
RTVSPost2010PropOp35
 70
     1
102
RTVSPost2010Prop36
280
     0
102
RTVSPost2010PropOp36
 70
     1
102
RTVSPost2010Prop37
 90
       50
102
RTVSPost2010PropOp37
 70
     1
102
RTVSPost2010Prop38
140
0.0
102
RTVSPost2010PropOp38
 70
     1
102
RTVSPost2010Prop39
140
1.0
102
RTVSPost2010PropOp39
 70
     1
102
RTVSPost2010Prop40
 90
        0
102
RTVSPost2010PropOp40
 70
     1
102
RTVSPost2010Prop41ColorIndex
 90
       18
102
RTVSPost2010Prop41ColorRGB
 90
        0
102
RTVSPost2010PropOp41
 70
     1
102
RTVSPost2010Prop42
 90
       50
102
RTVSPost2010PropOp42
 70
     1
102
RTVSPost2010Prop43
 90
        3
102
RTVSPost2010PropOp43
 70
     1
102
RTVSPost2010Prop44ColorIndex
 90
        5
102
RTVSPost2010Prop44ColorRGB
 90
      255
102
RTVSPost2010PropOp44
 70
     1
102
RTVSPost2010Prop45
280
     0
102
RTVSPost2010PropOp45
 70
     1
102
RTVSPost2010Prop46
 90
       50
102
RTVSPost2010PropOp46
 70
     1
102
RTVSPost2010Prop47
 90
       50
102
RTVSPost2010PropOp47
 70
     1
102
RTVSPost2010Prop48
 90
       50
102
RTVSPost2010PropOp48
 70
     1
102
RTVSPost2010Prop49
280
     0
102
RTVSPost2010PropOp49
 70
     1
102
RTVSPost2010Prop50
 90
       50
102
RTVSPost2010PropOp50
 70
     1
102
RTVSPost2010Prop51ColorIndex
 90
      256
102
RTVSPost2010Prop51ColorRGB
 90
-16777216
102
RTVSPost2010PropOp51
 70
     0
102
RTVSPost2010Prop52
140
1.0
102
RTVSPost2010PropOp52
 70
     0
102
RTVSPost2010Prop53
 90
        2
102
RTVSPost2010PropOp53
 70
     1
102
RTVSPost2010Prop54
  1
strokes_ogs.tif
102
RTVSPost2010PropOp54
 70
     1
102
RTVSPost2010Prop55
280
     0
102
RTVSPost2010PropOp55
 70
     1
102
RTVSPost2010Prop56
140
1.0
102
RTVSPost2010PropOp56
 70
     1
102
RTVSPost2010Prop57
140
1.0
102
RTVSPost2010PropOp57
 70
     1
  0
XRECORD
  5
18B
102
{ACAD_REACTORS
330
18A
102
}
330
18A
100
AcDbXrecord
280
     1
102
RTVSPost2010Prop28
280
     0
102
RTVSPost2010PropOp28
 70
     0
102
RTVSPost2010Prop29
280
     1
102
RTVSPost2010PropOp29
 70
     0
102
RTVSPost2010Prop30
280
     1
102
RTVSPost2010PropOp30
 70
     0
102
RTVSPost2010Prop31
280
     0
102
RTVSPost2010PropOp31
 70
     0
102
RTVSPost2010Prop32
280
     0
102
RTVSPost2010PropOp32
 70
     0
102
RTVSPost2010Prop33
280
     0
102
RTVSPost2010PropOp33
 70
     0
102
RTVSPost2010Prop34
280
     0
102
RTVSPost2010PropOp34
 70
     0
102
RTVSPost2010Prop35
280
     0
102
RTVSPost2010PropOp35
 70
     0
102
RTVSPost2010Prop36
280
     0
102
RTVSPost2010PropOp36
 70
     0
102
RTVSPost2010Prop37
 90
       50
102
RTVSPost2010PropOp37
 70
     0
102
RTVSPost2010Prop38
140
0.0
102
RTVSPost2010PropOp38
 70
     0
102
RTVSPost2010Prop39
140
1.0
102
RTVSPost2010PropOp39
 70
     0
102
RTVSPost2010Prop40
 90
        0
102
RTVSPost2010PropOp40
 70
     0
102
RTVSPost2010Prop41ColorIndex
 90
       18
102
RTVSPost2010Prop41ColorRGB
 90
        0
102
RTVSPost2010PropOp41
 70
     0
102
RTVSPost2010Prop42
 90
       50
102
RTVSPost2010PropOp42
 70
     0
102
RTVSPost2010Prop43
 90
        3
102
RTVSPost2010PropOp43
 70
     0
102
RTVSPost2010Prop44ColorIndex
 90
        5
102
RTVSPost2010Prop44ColorRGB
 90
      255
102
RTVSPost2010PropOp44
 70
     0
102
RTVSPost2010Prop45
280
     0
102
RTVSPost2010PropOp45
 70
     0
102
RTVSPost2010Prop46
 90
       50
102
RTVSPost2010PropOp46
 70
     0
102
RTVSPost2010Prop47
 90
       50
102
RTVSPost2010PropOp47
 70
     0
102
RTVSPost2010Prop48
 90
       50
102
RTVSPost2010PropOp48
 70
     0
102
RTVSPost2010Prop49
280
     0
102
RTVSPost2010PropOp49
 70
     0
102
RTVSPost2010Prop50
 90
       50
102
RTVSPost2010PropOp50
 70
     0
102
RTVSPost2010Prop51ColorIndex
 90
      256
102
RTVSPost2010Prop51ColorRGB
 90
-16777216
102
RTVSPost2010PropOp51
 70
     0
102
RTVSPost2010Prop52
140
1.0
102
RTVSPost2010PropOp52
 70
     0
102
RTVSPost2010Prop53
 90
        2
102
RTVSPost2010PropOp53
 70
     0
102
RTVSPost2010Prop54
  1
strokes_ogs.tif
102
RTVSPost2010PropOp54
 70
     0
102
RTVSPost2010Prop55
280
     0
102
RTVSPost2010PropOp55
 70
     0
102
RTVSPost2010Prop56
140
1.0
102
RTVSPost2010PropOp56
 70
     0
102
RTVSPost2010Prop57
140
1.0
102
RTVSPost2010PropOp57
 70
     0
  0
XRECORD
  5
179
102
{ACAD_REACTORS
330
178
102
}
330
178
100
AcDbXrecord
280
     1
102
RTVSPost2010Prop28
280
     0
102
RTVSPost2010PropOp28
 70
     1
102
RTVSPost2010Prop29
280
     1
102
RTVSPost2010PropOp29
 70
     1
102
RTVSPost2010Prop30
280
     1
102
RTVSPost2010PropOp30
 70
     1
102
RTVSPost2010Prop31
280
     0
102
RTVSPost2010PropOp31
 70
     1
102
RTVSPost2010Prop32
280
     0
102
RTVSPost2010PropOp32
 70
     1
102
RTVSPost2010Prop33
280
     0
102
RTVSPost2010PropOp33
 70
     1
102
RTVSPost2010Prop34
280
     0
102
RTVSPost2010PropOp34
 70
     1
102
RTVSPost2010Prop35
280
     0
102
RTVSPost2010PropOp35
 70
     1
102
RTVSPost2010Prop36
280
     0
102
RTVSPost2010PropOp36
 70
     1
102
RTVSPost2010Prop37
 90
       50
102
RTVSPost2010PropOp37
 70
     1
102
RTVSPost2010Prop38
140
0.0
102
RTVSPost2010PropOp38
 70
     1
102
RTVSPost2010Prop39
140
1.0
102
RTVSPost2010PropOp39
 70
     1
102
RTVSPost2010Prop40
 90
        0
102
RTVSPost2010PropOp40
 70
     1
102
RTVSPost2010Prop41ColorIndex
 90
       18
102
RTVSPost2010Prop41ColorRGB
 90
        0
102
RTVSPost2010PropOp41
 70
     1
102
RTVSPost2010Prop42
 90
       50
102
RTVSPost2010PropOp42
 70
     1
102
RTVSPost2010Prop43
 90
        3
102
RTVSPost2010PropOp43
 70
     1
102
RTVSPost2010Prop44ColorIndex
 90
        5
102
RTVSPost2010Prop44ColorRGB
 90
      255
102
RTVSPost2010PropOp44
 70
     1
102
RTVSPost2010Prop45
280
     0
102
RTVSPost2010PropOp45
 70
     1
102
RTVSPost2010Prop46
 90
       50
102
RTVSPost2010PropOp46
 70
     1
102
RTVSPost2010Prop47
 90
       50
102
RTVSPost2010PropOp47
 70
     1
102
RTVSPost2010Prop48
 90
       50
102
RTVSPost2010PropOp48
 70
     1
102
RTVSPost2010Prop49
280
     0
102
RTVSPost2010PropOp49
 70
     1
102
RTVSPost2010Prop50
 90
       50
102
RTVSPost2010PropOp50
 70
     1
102
RTVSPost2010Prop51ColorIndex
 90
      256
102
RTVSPost2010Prop51ColorRGB
 90
-16777216
102
RTVSPost2010PropOp51
 70
     0
102
RTVSPost2010Prop52
140
1.0
102
RTVSPost2010PropOp52
 70
     0
102
RTVSPost2010Prop53
 90
        2
102
RTVSPost2010PropOp53
 70
     1
102
RTVSPost2010Prop54
  1
strokes_ogs.tif
102
RTVSPost2010PropOp54
 70
     1
102
RTVSPost2010Prop55
280
     0
102
RTVSPost2010PropOp55
 70
     1
102
RTVSPost2010Prop56
140
1.0
102
RTVSPost2010PropOp56
 70
     1
102
RTVSPost2010Prop57
140
1.0
102
RTVSPost2010PropOp57
 70
     1
  0
XRECORD
  5
15D
102
{ACAD_REACTORS
330
15C
102
}
330
15C
100
AcDbXrecord
280
     1
102
RTVSPost2010Prop28
280
     0
102
RTVSPost2010PropOp28
 70
     1
102
RTVSPost2010Prop29
280
     1
102
RTVSPost2010PropOp29
 70
     1
102
RTVSPost2010Prop30
280
     1
102
RTVSPost2010PropOp30
 70
     1
102
RTVSPost2010Prop31
280
     0
102
RTVSPost2010PropOp31
 70
     1
102
RTVSPost2010Prop32
280
     0
102
RTVSPost2010PropOp32
 70
     1
102
RTVSPost2010Prop33
280
     0
102
RTVSPost2010PropOp33
 70
     1
102
RTVSPost2010Prop34
280
     0
102
RTVSPost2010PropOp34
 70
     1
102
RTVSPost2010Prop35
280
     0
102
RTVSPost2010PropOp35
 70
     1
102
RTVSPost2010Prop36
280
     0
102
RTVSPost2010PropOp36
 70
     1
102
RTVSPost2010Prop37
 90
       50
102
RTVSPost2010PropOp37
 70
     1
102
RTVSPost2010Prop38
140
0.0
102
RTVSPost2010PropOp38
 70
     1
102
RTVSPost2010Prop39
140
1.0
102
RTVSPost2010PropOp39
 70
     1
102
RTVSPost2010Prop40
 90
        0
102
RTVSPost2010PropOp40
 70
     1
102
RTVSPost2010Prop41ColorIndex
 90
       18
102
RTVSPost2010Prop41ColorRGB
 90
        0
102
RTVSPost2010PropOp41
 70
     1
102
RTVSPost2010Prop42
 90
       50
102
RTVSPost2010PropOp42
 70
     1
102
RTVSPost2010Prop43
 90
        3
102
RTVSPost2010PropOp43
 70
     1
102
RTVSPost2010Prop44ColorIndex
 90
        5
102
RTVSPost2010Prop44ColorRGB
 90
      255
102
RTVSPost2010PropOp44
 70
     1
102
RTVSPost2010Prop45
280
     0
102
RTVSPost2010PropOp45
 70
     1
102
RTVSPost2010Prop46
 90
       50
102
RTVSPost2010PropOp46
 70
     1
102
RTVSPost2010Prop47
 90
       50
102
RTVSPost2010PropOp47
 70
     1
102
RTVSPost2010Prop48
 90
       50
102
RTVSPost2010PropOp48
 70
     1
102
RTVSPost2010Prop49
280
     0
102
RTVSPost2010PropOp49
 70
     1
102
RTVSPost2010Prop50
 90
       50
102
RTVSPost2010PropOp50
 70
     1
102
RTVSPost2010Prop51ColorIndex
 90
      256
102
RTVSPost2010Prop51ColorRGB
 90
-16777216
102
RTVSPost2010PropOp51
 70
     0
102
RTVSPost2010Prop52
140
1.0
102
RTVSPost2010PropOp52
 70
     0
102
RTVSPost2010Prop53
 90
        2
102
RTVSPost2010PropOp53
 70
     1
102
RTVSPost2010Prop54
  1
strokes_ogs.tif
102
RTVSPost2010PropOp54
 70
     1
102
RTVSPost2010Prop55
280
     0
102
RTVSPost2010PropOp55
 70
     1
102
RTVSPost2010Prop56
140
1.0
102
RTVSPost2010PropOp56
 70
     1
102
RTVSPost2010Prop57
140
1.0
102
RTVSPost2010PropOp57
 70
     1
  0
XRECORD
  5
15F
102
{ACAD_REACTORS
330
15E
102
}
330
15E
100
AcDbXrecord
280
     1
102
RTVSPost2010Prop28
280
     0
102
RTVSPost2010PropOp28
 70
     1
102
RTVSPost2010Prop29
280
     1
102
RTVSPost2010PropOp29
 70
     1
102
RTVSPost2010Prop30
280
     1
102
RTVSPost2010PropOp30
 70
     1
102
RTVSPost2010Prop31
280
     0
102
RTVSPost2010PropOp31
 70
     1
102
RTVSPost2010Prop32
280
     0
102
RTVSPost2010PropOp32
 70
     1
102
RTVSPost2010Prop33
280
     0
102
RTVSPost2010PropOp33
 70
     1
102
RTVSPost2010Prop34
280
     0
102
RTVSPost2010PropOp34
 70
     1
102
RTVSPost2010Prop35
280
     0
102
RTVSPost2010PropOp35
 70
     1
102
RTVSPost2010Prop36
280
     0
102
RTVSPost2010PropOp36
 70
     1
102
RTVSPost2010Prop37
 90
       50
102
RTVSPost2010PropOp37
 70
     1
102
RTVSPost2010Prop38
140
0.0
102
RTVSPost2010PropOp38
 70
     1
102
RTVSPost2010Prop39
140
1.0
102
RTVSPost2010PropOp39
 70
     1
102
RTVSPost2010Prop40
 90
        0
102
RTVSPost2010PropOp40
 70
     1
102
RTVSPost2010Prop41ColorIndex
 90
       18
102
RTVSPost2010Prop41ColorRGB
 90
        0
102
RTVSPost2010PropOp41
 70
     1
102
RTVSPost2010Prop42
 90
       50
102
RTVSPost2010PropOp42
 70
     1
102
RTVSPost2010Prop43
 90
        3
102
RTVSPost2010PropOp43
 70
     1
102
RTVSPost2010Prop44ColorIndex
 90
        5
102
RTVSPost2010Prop44ColorRGB
 90
      255
102
RTVSPost2010PropOp44
 70
     1
102
RTVSPost2010Prop45
280
     0
102
RTVSPost2010PropOp45
 70
     1
102
RTVSPost2010Prop46
 90
       50
102
RTVSPost2010PropOp46
 70
     1
102
RTVSPost2010Prop47
 90
       50
102
RTVSPost2010PropOp47
 70
     1
102
RTVSPost2010Prop48
 90
       50
102
RTVSPost2010PropOp48
 70
     1
102
RTVSPost2010Prop49
280
     0
102
RTVSPost2010PropOp49
 70
     1
102
RTVSPost2010Prop50
 90
       50
102
RTVSPost2010PropOp50
 70
     1
102
RTVSPost2010Prop51ColorIndex
 90
      256
102
RTVSPost2010Prop51ColorRGB
 90
-16777216
102
RTVSPost2010PropOp51
 70
     0
102
RTVSPost2010Prop52
140
1.0
102
RTVSPost2010PropOp52
 70
     0
102
RTVSPost2010Prop53
 90
        2
102
RTVSPost2010PropOp53
 70
     1
102
RTVSPost2010Prop54
  1
strokes_ogs.tif
102
RTVSPost2010PropOp54
 70
     1
102
RTVSPost2010Prop55
280
     0
102
RTVSPost2010PropOp55
 70
     1
102
RTVSPost2010Prop56
140
1.0
102
RTVSPost2010PropOp56
 70
     1
102
RTVSPost2010Prop57
140
1.0
102
RTVSPost2010PropOp57
 70
     1
  0
XRECORD
  5
161
102
{ACAD_REACTORS
330
160
102
}
330
160
100
AcDbXrecord
280
     1
102
RTVSPost2010Prop28
280
     0
102
RTVSPost2010PropOp28
 70
     1
102
RTVSPost2010Prop29
280
     1
102
RTVSPost2010PropOp29
 70
     1
102
RTVSPost2010Prop30
280
     1
102
RTVSPost2010PropOp30
 70
     1
102
RTVSPost2010Prop31
280
     0
102
RTVSPost2010PropOp31
 70
     1
102
RTVSPost2010Prop32
280
     0
102
RTVSPost2010PropOp32
 70
     1
102
RTVSPost2010Prop33
280
     0
102
RTVSPost2010PropOp33
 70
     1
102
RTVSPost2010Prop34
280
     0
102
RTVSPost2010PropOp34
 70
     1
102
RTVSPost2010Prop35
280
     0
102
RTVSPost2010PropOp35
 70
     1
102
RTVSPost2010Prop36
280
     0
102
RTVSPost2010PropOp36
 70
     1
102
RTVSPost2010Prop37
 90
       50
102
RTVSPost2010PropOp37
 70
     1
102
RTVSPost2010Prop38
140
0.0
102
RTVSPost2010PropOp38
 70
     1
102
RTVSPost2010Prop39
140
1.0
102
RTVSPost2010PropOp39
 70
     1
102
RTVSPost2010Prop40
 90
        0
102
RTVSPost2010PropOp40
 70
     1
102
RTVSPost2010Prop41ColorIndex
 90
       18
102
RTVSPost2010Prop41ColorRGB
 90
        0
102
RTVSPost2010PropOp41
 70
     1
102
RTVSPost2010Prop42
 90
       50
102
RTVSPost2010PropOp42
 70
     1
102
RTVSPost2010Prop43
 90
        3
102
RTVSPost2010PropOp43
 70
     1
102
RTVSPost2010Prop44ColorIndex
 90
        5
102
RTVSPost2010Prop44ColorRGB
 90
      255
102
RTVSPost2010PropOp44
 70
     1
102
RTVSPost2010Prop45
280
     0
102
RTVSPost2010PropOp45
 70
     1
102
RTVSPost2010Prop46
 90
       50
102
RTVSPost2010PropOp46
 70
     1
102
RTVSPost2010Prop47
 90
       50
102
RTVSPost2010PropOp47
 70
     1
102
RTVSPost2010Prop48
 90
       50
102
RTVSPost2010PropOp48
 70
     1
102
RTVSPost2010Prop49
280
     0
102
RTVSPost2010PropOp49
 70
     1
102
RTVSPost2010Prop50
 90
       50
102
RTVSPost2010PropOp50
 70
     1
102
RTVSPost2010Prop51ColorIndex
 90
      256
102
RTVSPost2010Prop51ColorRGB
 90
-16777216
102
RTVSPost2010PropOp51
 70
     0
102
RTVSPost2010Prop52
140
1.0
102
RTVSPost2010PropOp52
 70
     0
102
RTVSPost2010Prop53
 90
        2
102
RTVSPost2010PropOp53
 70
     1
102
RTVSPost2010Prop54
  1
strokes_ogs.tif
102
RTVSPost2010PropOp54
 70
     1
102
RTVSPost2010Prop55
280
     0
102
RTVSPost2010PropOp55
 70
     1
102
RTVSPost2010Prop56
140
1.0
102
RTVSPost2010PropOp56
 70
     1
102
RTVSPost2010Prop57
140
1.0
102
RTVSPost2010PropOp57
 70
     1
  0
XRECORD
  5
163
102
{ACAD_REACTORS
330
162
102
}
330
162
100
AcDbXrecord
280
     1
102
RTVSPost2010Prop28
280
     0
102
RTVSPost2010PropOp28
 70
     1
102
RTVSPost2010Prop29
280
     1
102
RTVSPost2010PropOp29
 70
     1
102
RTVSPost2010Prop30
280
     1
102
RTVSPost2010PropOp30
 70
     1
102
RTVSPost2010Prop31
280
     0
102
RTVSPost2010PropOp31
 70
     1
102
RTVSPost2010Prop32
280
     0
102
RTVSPost2010PropOp32
 70
     1
102
RTVSPost2010Prop33
280
     0
102
RTVSPost2010PropOp33
 70
     1
102
RTVSPost2010Prop34
280
     0
102
RTVSPost2010PropOp34
 70
     1
102
RTVSPost2010Prop35
280
     0
102
RTVSPost2010PropOp35
 70
     1
102
RTVSPost2010Prop36
280
     0
102
RTVSPost2010PropOp36
 70
     1
102
RTVSPost2010Prop37
 90
       50
102
RTVSPost2010PropOp37
 70
     1
102
RTVSPost2010Prop38
140
0.0
102
RTVSPost2010PropOp38
 70
     1
102
RTVSPost2010Prop39
140
1.0
102
RTVSPost2010PropOp39
 70
     1
102
RTVSPost2010Prop40
 90
        0
102
RTVSPost2010PropOp40
 70
     1
102
RTVSPost2010Prop41ColorIndex
 90
       18
102
RTVSPost2010Prop41ColorRGB
 90
        0
102
RTVSPost2010PropOp41
 70
     1
102
RTVSPost2010Prop42
 90
       50
102
RTVSPost2010PropOp42
 70
     1
102
RTVSPost2010Prop43
 90
        3
102
RTVSPost2010PropOp43
 70
     1
102
RTVSPost2010Prop44ColorIndex
 90
        5
102
RTVSPost2010Prop44ColorRGB
 90
      255
102
RTVSPost2010PropOp44
 70
     1
102
RTVSPost2010Prop45
280
     0
102
RTVSPost2010PropOp45
 70
     1
102
RTVSPost2010Prop46
 90
       50
102
RTVSPost2010PropOp46
 70
     1
102
RTVSPost2010Prop47
 90
       50
102
RTVSPost2010PropOp47
 70
     1
102
RTVSPost2010Prop48
 90
       50
102
RTVSPost2010PropOp48
 70
     1
102
RTVSPost2010Prop49
280
     0
102
RTVSPost2010PropOp49
 70
     1
102
RTVSPost2010Prop50
 90
       50
102
RTVSPost2010PropOp50
 70
     1
102
RTVSPost2010Prop51ColorIndex
 90
      256
102
RTVSPost2010Prop51ColorRGB
 90
-16777216
102
RTVSPost2010PropOp51
 70
     0
102
RTVSPost2010Prop52
140
1.0
102
RTVSPost2010PropOp52
 70
     0
102
RTVSPost2010Prop53
 90
        2
102
RTVSPost2010PropOp53
 70
     1
102
RTVSPost2010Prop54
  1
strokes_ogs.tif
102
RTVSPost2010PropOp54
 70
     1
102
RTVSPost2010Prop55
280
     0
102
RTVSPost2010PropOp55
 70
     1
102
RTVSPost2010Prop56
140
1.0
102
RTVSPost2010PropOp56
 70
     1
102
RTVSPost2010Prop57
140
1.0
102
RTVSPost2010PropOp57
 70
     1
  0
XRECORD
  5
16B
102
{ACAD_REACTORS
330
16A
102
}
330
16A
100
AcDbXrecord
280
     1
102
RTVSPost2010Prop28
280
     0
102
RTVSPost2010PropOp28
 70
     1
102
RTVSPost2010Prop29
280
     1
102
RTVSPost2010PropOp29
 70
     1
102
RTVSPost2010Prop30
280
     1
102
RTVSPost2010PropOp30
 70
     1
102
RTVSPost2010Prop31
280
     0
102
RTVSPost2010PropOp31
 70
     1
102
RTVSPost2010Prop32
280
     0
102
RTVSPost2010PropOp32
 70
     1
102
RTVSPost2010Prop33
280
     0
102
RTVSPost2010PropOp33
 70
     1
102
RTVSPost2010Prop34
280
     0
102
RTVSPost2010PropOp34
 70
     1
102
RTVSPost2010Prop35
280
     0
102
RTVSPost2010PropOp35
 70
     1
102
RTVSPost2010Prop36
280
     0
102
RTVSPost2010PropOp36
 70
     1
102
RTVSPost2010Prop37
 90
       50
102
RTVSPost2010PropOp37
 70
     1
102
RTVSPost2010Prop38
140
0.0
102
RTVSPost2010PropOp38
 70
     1
102
RTVSPost2010Prop39
140
1.0
102
RTVSPost2010PropOp39
 70
     1
102
RTVSPost2010Prop40
 90
        0
102
RTVSPost2010PropOp40
 70
     1
102
RTVSPost2010Prop41ColorIndex
 90
       18
102
RTVSPost2010Prop41ColorRGB
 90
        0
102
RTVSPost2010PropOp41
 70
     1
102
RTVSPost2010Prop42
 90
       50
102
RTVSPost2010PropOp42
 70
     1
102
RTVSPost2010Prop43
 90
        3
102
RTVSPost2010PropOp43
 70
     1
102
RTVSPost2010Prop44ColorIndex
 90
        5
102
RTVSPost2010Prop44ColorRGB
 90
      255
102
RTVSPost2010PropOp44
 70
     1
102
RTVSPost2010Prop45
280
     0
102
RTVSPost2010PropOp45
 70
     1
102
RTVSPost2010Prop46
 90
       50
102
RTVSPost2010PropOp46
 70
     1
102
RTVSPost2010Prop47
 90
       50
102
RTVSPost2010PropOp47
 70
     1
102
RTVSPost2010Prop48
 90
       50
102
RTVSPost2010PropOp48
 70
     1
102
RTVSPost2010Prop49
280
     0
102
RTVSPost2010PropOp49
 70
     1
102
RTVSPost2010Prop50
 90
       50
102
RTVSPost2010PropOp50
 70
     1
102
RTVSPost2010Prop51ColorIndex
 90
      256
102
RTVSPost2010Prop51ColorRGB
 90
-16777216
102
RTVSPost2010PropOp51
 70
     0
102
RTVSPost2010Prop52
140
1.0
102
RTVSPost2010PropOp52
 70
     0
102
RTVSPost2010Prop53
 90
        2
102
RTVSPost2010PropOp53
 70
     1
102
RTVSPost2010Prop54
  1
strokes_ogs.tif
102
RTVSPost2010PropOp54
 70
     1
102
RTVSPost2010Prop55
280
     0
102
RTVSPost2010PropOp55
 70
     1
102
RTVSPost2010Prop56
140
1.0
102
RTVSPost2010PropOp56
 70
     1
102
RTVSPost2010Prop57
140
1.0
102
RTVSPost2010PropOp57
 70
     1
  0
XRECORD
  5
187
102
{ACAD_REACTORS
330
186
102
}
330
186
100
AcDbXrecord
280
     1
102
RTVSPost2010Prop28
280
     0
102
RTVSPost2010PropOp28
 70
     0
102
RTVSPost2010Prop29
280
     1
102
RTVSPost2010PropOp29
 70
     0
102
RTVSPost2010Prop30
280
     1
102
RTVSPost2010PropOp30
 70
     0
102
RTVSPost2010Prop31
280
     0
102
RTVSPost2010PropOp31
 70
     0
102
RTVSPost2010Prop32
280
     0
102
RTVSPost2010PropOp32
 70
     0
102
RTVSPost2010Prop33
280
     0
102
RTVSPost2010PropOp33
 70
     0
102
RTVSPost2010Prop34
280
     0
102
RTVSPost2010PropOp34
 70
     0
102
RTVSPost2010Prop35
280
     0
102
RTVSPost2010PropOp35
 70
     0
102
RTVSPost2010Prop36
280
     0
102
RTVSPost2010PropOp36
 70
     0
102
RTVSPost2010Prop37
 90
       50
102
RTVSPost2010PropOp37
 70
     0
102
RTVSPost2010Prop38
140
0.0
102
RTVSPost2010PropOp38
 70
     0
102
RTVSPost2010Prop39
140
1.0
102
RTVSPost2010PropOp39
 70
     0
102
RTVSPost2010Prop40
 90
        0
102
RTVSPost2010PropOp40
 70
     0
102
RTVSPost2010Prop41ColorIndex
 90
       18
102
RTVSPost2010Prop41ColorRGB
 90
        0
102
RTVSPost2010PropOp41
 70
     0
102
RTVSPost2010Prop42
 90
       50
102
RTVSPost2010PropOp42
 70
     0
102
RTVSPost2010Prop43
 90
        3
102
RTVSPost2010PropOp43
 70
     0
102
RTVSPost2010Prop44ColorIndex
 90
        5
102
RTVSPost2010Prop44ColorRGB
 90
      255
102
RTVSPost2010PropOp44
 70
     0
102
RTVSPost2010Prop45
280
     0
102
RTVSPost2010PropOp45
 70
     0
102
RTVSPost2010Prop46
 90
       50
102
RTVSPost2010PropOp46
 70
     0
102
RTVSPost2010Prop47
 90
       50
102
RTVSPost2010PropOp47
 70
     0
102
RTVSPost2010Prop48
 90
       50
102
RTVSPost2010PropOp48
 70
     0
102
RTVSPost2010Prop49
280
     0
102
RTVSPost2010PropOp49
 70
     0
102
RTVSPost2010Prop50
 90
       50
102
RTVSPost2010PropOp50
 70
     0
102
RTVSPost2010Prop51ColorIndex
 90
      256
102
RTVSPost2010Prop51ColorRGB
 90
-16777216
102
RTVSPost2010PropOp51
 70
     0
102
RTVSPost2010Prop52
140
1.0
102
RTVSPost2010PropOp52
 70
     0
102
RTVSPost2010Prop53
 90
        2
102
RTVSPost2010PropOp53
 70
     0
102
RTVSPost2010Prop54
  1
strokes_ogs.tif
102
RTVSPost2010PropOp54
 70
     0
102
RTVSPost2010Prop55
280
     0
102
RTVSPost2010PropOp55
 70
     0
102
RTVSPost2010Prop56
140
1.0
102
RTVSPost2010PropOp56
 70
     0
102
RTVSPost2010Prop57
140
1.0
102
RTVSPost2010PropOp57
 70
     0
  0
XRECORD
  5
177
102
{ACAD_REACTORS
330
176
102
}
330
176
100
AcDbXrecord
280
     1
102
RTVSPost2010Prop28
280
     0
102
RTVSPost2010PropOp28
 70
     1
102
RTVSPost2010Prop29
280
     1
102
RTVSPost2010PropOp29
 70
     1
102
RTVSPost2010Prop30
280
     1
102
RTVSPost2010PropOp30
 70
     1
102
RTVSPost2010Prop31
280
     0
102
RTVSPost2010PropOp31
 70
     1
102
RTVSPost2010Prop32
280
     0
102
RTVSPost2010PropOp32
 70
     1
102
RTVSPost2010Prop33
280
     0
102
RTVSPost2010PropOp33
 70
     1
102
RTVSPost2010Prop34
280
     0
102
RTVSPost2010PropOp34
 70
     1
102
RTVSPost2010Prop35
280
     0
102
RTVSPost2010PropOp35
 70
     1
102
RTVSPost2010Prop36
280
     0
102
RTVSPost2010PropOp36
 70
     1
102
RTVSPost2010Prop37
 90
       50
102
RTVSPost2010PropOp37
 70
     1
102
RTVSPost2010Prop38
140
0.0
102
RTVSPost2010PropOp38
 70
     1
102
RTVSPost2010Prop39
140
1.0
102
RTVSPost2010PropOp39
 70
     1
102
RTVSPost2010Prop40
 90
        0
102
RTVSPost2010PropOp40
 70
     1
102
RTVSPost2010Prop41ColorIndex
 90
       18
102
RTVSPost2010Prop41ColorRGB
 90
        0
102
RTVSPost2010PropOp41
 70
     1
102
RTVSPost2010Prop42
 90
       50
102
RTVSPost2010PropOp42
 70
     1
102
RTVSPost2010Prop43
 90
        3
102
RTVSPost2010PropOp43
 70
     1
102
RTVSPost2010Prop44ColorIndex
 90
        5
102
RTVSPost2010Prop44ColorRGB
 90
      255
102
RTVSPost2010PropOp44
 70
     1
102
RTVSPost2010Prop45
280
     0
102
RTVSPost2010PropOp45
 70
     1
102
RTVSPost2010Prop46
 90
       50
102
RTVSPost2010PropOp46
 70
     1
102
RTVSPost2010Prop47
 90
       50
102
RTVSPost2010PropOp47
 70
     1
102
RTVSPost2010Prop48
 90
       50
102
RTVSPost2010PropOp48
 70
     1
102
RTVSPost2010Prop49
280
     0
102
RTVSPost2010PropOp49
 70
     1
102
RTVSPost2010Prop50
 90
       50
102
RTVSPost2010PropOp50
 70
     1
102
RTVSPost2010Prop51ColorIndex
 90
      256
102
RTVSPost2010Prop51ColorRGB
 90
-16777216
102
RTVSPost2010PropOp51
 70
     0
102
RTVSPost2010Prop52
140
1.0
102
RTVSPost2010PropOp52
 70
     0
102
RTVSPost2010Prop53
 90
        2
102
RTVSPost2010PropOp53
 70
     1
102
RTVSPost2010Prop54
  1
strokes_ogs.tif
102
RTVSPost2010PropOp54
 70
     1
102
RTVSPost2010Prop55
280
     0
102
RTVSPost2010PropOp55
 70
     1
102
RTVSPost2010Prop56
140
1.0
102
RTVSPost2010PropOp56
 70
     1
102
RTVSPost2010Prop57
140
1.0
102
RTVSPost2010PropOp57
 70
     1
  0
XRECORD
  5
189
102
{ACAD_REACTORS
330
188
102
}
330
188
100
AcDbXrecord
280
     1
102
RTVSPost2010Prop28
280
     0
102
RTVSPost2010PropOp28
 70
     0
102
RTVSPost2010Prop29
280
     1
102
RTVSPost2010PropOp29
 70
     0
102
RTVSPost2010Prop30
280
     1
102
RTVSPost2010PropOp30
 70
     0
102
RTVSPost2010Prop31
280
     0
102
RTVSPost2010PropOp31
 70
     0
102
RTVSPost2010Prop32
280
     0
102
RTVSPost2010PropOp32
 70
     0
102
RTVSPost2010Prop33
280
     0
102
RTVSPost2010PropOp33
 70
     0
102
RTVSPost2010Prop34
280
     0
102
RTVSPost2010PropOp34
 70
     0
102
RTVSPost2010Prop35
280
     0
102
RTVSPost2010PropOp35
 70
     0
102
RTVSPost2010Prop36
280
     0
102
RTVSPost2010PropOp36
 70
     0
102
RTVSPost2010Prop37
 90
       50
102
RTVSPost2010PropOp37
 70
     0
102
RTVSPost2010Prop38
140
0.0
102
RTVSPost2010PropOp38
 70
     0
102
RTVSPost2010Prop39
140
1.0
102
RTVSPost2010PropOp39
 70
     0
102
RTVSPost2010Prop40
 90
        0
102
RTVSPost2010PropOp40
 70
     0
102
RTVSPost2010Prop41ColorIndex
 90
       18
102
RTVSPost2010Prop41ColorRGB
 90
        0
102
RTVSPost2010PropOp41
 70
     0
102
RTVSPost2010Prop42
 90
       50
102
RTVSPost2010PropOp42
 70
     0
102
RTVSPost2010Prop43
 90
        3
102
RTVSPost2010PropOp43
 70
     0
102
RTVSPost2010Prop44ColorIndex
 90
        5
102
RTVSPost2010Prop44ColorRGB
 90
      255
102
RTVSPost2010PropOp44
 70
     0
102
RTVSPost2010Prop45
280
     0
102
RTVSPost2010PropOp45
 70
     0
102
RTVSPost2010Prop46
 90
       50
102
RTVSPost2010PropOp46
 70
     0
102
RTVSPost2010Prop47
 90
       50
102
RTVSPost2010PropOp47
 70
     0
102
RTVSPost2010Prop48
 90
       50
102
RTVSPost2010PropOp48
 70
     0
102
RTVSPost2010Prop49
280
     0
102
RTVSPost2010PropOp49
 70
     0
102
RTVSPost2010Prop50
 90
       50
102
RTVSPost2010PropOp50
 70
     0
102
RTVSPost2010Prop51ColorIndex
 90
      256
102
RTVSPost2010Prop51ColorRGB
 90
-16777216
102
RTVSPost2010PropOp51
 70
     0
102
RTVSPost2010Prop52
140
1.0
102
RTVSPost2010PropOp52
 70
     0
102
RTVSPost2010Prop53
 90
        2
102
RTVSPost2010PropOp53
 70
     0
102
RTVSPost2010Prop54
  1
strokes_ogs.tif
102
RTVSPost2010PropOp54
 70
     0
102
RTVSPost2010Prop55
280
     0
102
RTVSPost2010PropOp55
 70
     0
102
RTVSPost2010Prop56
140
1.0
102
RTVSPost2010PropOp56
 70
     0
102
RTVSPost2010Prop57
140
1.0
102
RTVSPost2010PropOp57
 70
     0
  0
XRECORD
  5
16F
102
{ACAD_REACTORS
330
16E
102
}
330
16E
100
AcDbXrecord
280
     1
102
RTVSPost2010Prop28
280
     0
102
RTVSPost2010PropOp28
 70
     1
102
RTVSPost2010Prop29
280
     1
102
RTVSPost2010PropOp29
 70
     1
102
RTVSPost2010Prop30
280
     1
102
RTVSPost2010PropOp30
 70
     1
102
RTVSPost2010Prop31
280
     0
102
RTVSPost2010PropOp31
 70
     1
102
RTVSPost2010Prop32
280
     0
102
RTVSPost2010PropOp32
 70
     1
102
RTVSPost2010Prop33
280
     0
102
RTVSPost2010PropOp33
 70
     1
102
RTVSPost2010Prop34
280
     0
102
RTVSPost2010PropOp34
 70
     1
102
RTVSPost2010Prop35
280
     0
102
RTVSPost2010PropOp35
 70
     1
102
RTVSPost2010Prop36
280
     0
102
RTVSPost2010PropOp36
 70
     1
102
RTVSPost2010Prop37
 90
       50
102
RTVSPost2010PropOp37
 70
     1
102
RTVSPost2010Prop38
140
0.0
102
RTVSPost2010PropOp38
 70
     1
102
RTVSPost2010Prop39
140
1.0
102
RTVSPost2010PropOp39
 70
     1
102
RTVSPost2010Prop40
 90
        0
102
RTVSPost2010PropOp40
 70
     1
102
RTVSPost2010Prop41ColorIndex
 90
       18
102
RTVSPost2010Prop41ColorRGB
 90
        0
102
RTVSPost2010PropOp41
 70
     1
102
RTVSPost2010Prop42
 90
       50
102
RTVSPost2010PropOp42
 70
     1
102
RTVSPost2010Prop43
 90
        3
102
RTVSPost2010PropOp43
 70
     1
102
RTVSPost2010Prop44ColorIndex
 90
        5
102
RTVSPost2010Prop44ColorRGB
 90
      255
102
RTVSPost2010PropOp44
 70
     1
102
RTVSPost2010Prop45
280
     0
102
RTVSPost2010PropOp45
 70
     1
102
RTVSPost2010Prop46
 90
       50
102
RTVSPost2010PropOp46
 70
     1
102
RTVSPost2010Prop47
 90
       50
102
RTVSPost2010PropOp47
 70
     1
102
RTVSPost2010Prop48
 90
       50
102
RTVSPost2010PropOp48
 70
     1
102
RTVSPost2010Prop49
280
     0
102
RTVSPost2010PropOp49
 70
     1
102
RTVSPost2010Prop50
 90
       50
102
RTVSPost2010PropOp50
 70
     1
102
RTVSPost2010Prop51ColorIndex
 90
      256
102
RTVSPost2010Prop51ColorRGB
 90
-16777216
102
RTVSPost2010PropOp51
 70
     0
102
RTVSPost2010Prop52
140
1.0
102
RTVSPost2010PropOp52
 70
     0
102
RTVSPost2010Prop53
 90
        2
102
RTVSPost2010PropOp53
 70
     1
102
RTVSPost2010Prop54
  1
strokes_ogs.tif
102
RTVSPost2010PropOp54
 70
     1
102
RTVSPost2010Prop55
280
     0
102
RTVSPost2010PropOp55
 70
     1
102
RTVSPost2010Prop56
140
1.0
102
RTVSPost2010PropOp56
 70
     1
102
RTVSPost2010Prop57
140
1.0
102
RTVSPost2010PropOp57
 70
     1
  0
XRECORD
  5
185
102
{ACAD_REACTORS
330
184
102
}
330
184
100
AcDbXrecord
280
     1
102
RTVSPost2010Prop28
280
     0
102
RTVSPost2010PropOp28
 70
     1
102
RTVSPost2010Prop29
280
     1
102
RTVSPost2010PropOp29
 70
     1
102
RTVSPost2010Prop30
280
     1
102
RTVSPost2010PropOp30
 70
     1
102
RTVSPost2010Prop31
280
     0
102
RTVSPost2010PropOp31
 70
     1
102
RTVSPost2010Prop32
280
     0
102
RTVSPost2010PropOp32
 70
     1
102
RTVSPost2010Prop33
280
     0
102
RTVSPost2010PropOp33
 70
     1
102
RTVSPost2010Prop34
280
     0
102
RTVSPost2010PropOp34
 70
     1
102
RTVSPost2010Prop35
280
     0
102
RTVSPost2010PropOp35
 70
     1
102
RTVSPost2010Prop36
280
     0
102
RTVSPost2010PropOp36
 70
     1
102
RTVSPost2010Prop37
 90
       50
102
RTVSPost2010PropOp37
 70
     1
102
RTVSPost2010Prop38
140
0.0
102
RTVSPost2010PropOp38
 70
     1
102
RTVSPost2010Prop39
140
1.0
102
RTVSPost2010PropOp39
 70
     1
102
RTVSPost2010Prop40
 90
        0
102
RTVSPost2010PropOp40
 70
     1
102
RTVSPost2010Prop41ColorIndex
 90
       18
102
RTVSPost2010Prop41ColorRGB
 90
        0
102
RTVSPost2010PropOp41
 70
     1
102
RTVSPost2010Prop42
 90
       50
102
RTVSPost2010PropOp42
 70
     1
102
RTVSPost2010Prop43
 90
        3
102
RTVSPost2010PropOp43
 70
     1
102
RTVSPost2010Prop44ColorIndex
 90
        5
102
RTVSPost2010Prop44ColorRGB
 90
      255
102
RTVSPost2010PropOp44
 70
     1
102
RTVSPost2010Prop45
280
     0
102
RTVSPost2010PropOp45
 70
     1
102
RTVSPost2010Prop46
 90
       50
102
RTVSPost2010PropOp46
 70
     1
102
RTVSPost2010Prop47
 90
       50
102
RTVSPost2010PropOp47
 70
     1
102
RTVSPost2010Prop48
 90
       50
102
RTVSPost2010PropOp48
 70
     1
102
RTVSPost2010Prop49
280
     0
102
RTVSPost2010PropOp49
 70
     1
102
RTVSPost2010Prop50
 90
       50
102
RTVSPost2010PropOp50
 70
     1
102
RTVSPost2010Prop51ColorIndex
 90
      256
102
RTVSPost2010Prop51ColorRGB
 90
-16777216
102
RTVSPost2010PropOp51
 70
     0
102
RTVSPost2010Prop52
140
1.0
102
RTVSPost2010PropOp52
 70
     0
102
RTVSPost2010Prop53
 90
        2
102
RTVSPost2010PropOp53
 70
     1
102
RTVSPost2010Prop54
  1
strokes_ogs.tif
102
RTVSPost2010PropOp54
 70
     1
102
RTVSPost2010Prop55
280
     0
102
RTVSPost2010PropOp55
 70
     1
102
RTVSPost2010Prop56
140
1.0
102
RTVSPost2010PropOp56
 70
     1
102
RTVSPost2010Prop57
140
1.0
102
RTVSPost2010PropOp57
 70
     1
  0
XRECORD
  5
183
102
{ACAD_REACTORS
330
182
102
}
330
182
100
AcDbXrecord
280
     1
102
RTVSPost2010Prop28
280
     0
102
RTVSPost2010PropOp28
 70
     1
102
RTVSPost2010Prop29
280
     1
102
RTVSPost2010PropOp29
 70
     1
102
RTVSPost2010Prop30
280
     1
102
RTVSPost2010PropOp30
 70
     1
102
RTVSPost2010Prop31
280
     0
102
RTVSPost2010PropOp31
 70
     1
102
RTVSPost2010Prop32
280
     0
102
RTVSPost2010PropOp32
 70
     1
102
RTVSPost2010Prop33
280
     0
102
RTVSPost2010PropOp33
 70
     1
102
RTVSPost2010Prop34
280
     0
102
RTVSPost2010PropOp34
 70
     1
102
RTVSPost2010Prop35
280
     0
102
RTVSPost2010PropOp35
 70
     1
102
RTVSPost2010Prop36
280
     0
102
RTVSPost2010PropOp36
 70
     1
102
RTVSPost2010Prop37
 90
       50
102
RTVSPost2010PropOp37
 70
     1
102
RTVSPost2010Prop38
140
0.0
102
RTVSPost2010PropOp38
 70
     1
102
RTVSPost2010Prop39
140
1.0
102
RTVSPost2010PropOp39
 70
     1
102
RTVSPost2010Prop40
 90
        0
102
RTVSPost2010PropOp40
 70
     1
102
RTVSPost2010Prop41ColorIndex
 90
       18
102
RTVSPost2010Prop41ColorRGB
 90
        0
102
RTVSPost2010PropOp41
 70
     1
102
RTVSPost2010Prop42
 90
       50
102
RTVSPost2010PropOp42
 70
     1
102
RTVSPost2010Prop43
 90
        3
102
RTVSPost2010PropOp43
 70
     1
102
RTVSPost2010Prop44ColorIndex
 90
        5
102
RTVSPost2010Prop44ColorRGB
 90
      255
102
RTVSPost2010PropOp44
 70
     1
102
RTVSPost2010Prop45
280
     0
102
RTVSPost2010PropOp45
 70
     1
102
RTVSPost2010Prop46
 90
       50
102
RTVSPost2010PropOp46
 70
     1
102
RTVSPost2010Prop47
 90
       50
102
RTVSPost2010PropOp47
 70
     1
102
RTVSPost2010Prop48
 90
       50
102
RTVSPost2010PropOp48
 70
     1
102
RTVSPost2010Prop49
280
     0
102
RTVSPost2010PropOp49
 70
     1
102
RTVSPost2010Prop50
 90
       50
102
RTVSPost2010PropOp50
 70
     1
102
RTVSPost2010Prop51ColorIndex
 90
      256
102
RTVSPost2010Prop51ColorRGB
 90
-16777216
102
RTVSPost2010PropOp51
 70
     0
102
RTVSPost2010Prop52
140
1.0
102
RTVSPost2010PropOp52
 70
     0
102
RTVSPost2010Prop53
 90
        2
102
RTVSPost2010PropOp53
 70
     1
102
RTVSPost2010Prop54
  1
strokes_ogs.tif
102
RTVSPost2010PropOp54
 70
     1
102
RTVSPost2010Prop55
280
     0
102
RTVSPost2010PropOp55
 70
     1
102
RTVSPost2010Prop56
140
1.0
102
RTVSPost2010PropOp56
 70
     1
102
RTVSPost2010Prop57
140
1.0
102
RTVSPost2010PropOp57
 70
     1
  0
XRECORD
  5
17D
102
{ACAD_REACTORS
330
17C
102
}
330
17C
100
AcDbXrecord
280
     1
102
RTVSPost2010Prop28
280
     0
102
RTVSPost2010PropOp28
 70
     1
102
RTVSPost2010Prop29
280
     1
102
RTVSPost2010PropOp29
 70
     1
102
RTVSPost2010Prop30
280
     1
102
RTVSPost2010PropOp30
 70
     1
102
RTVSPost2010Prop31
280
     0
102
RTVSPost2010PropOp31
 70
     1
102
RTVSPost2010Prop32
280
     0
102
RTVSPost2010PropOp32
 70
     1
102
RTVSPost2010Prop33
280
     0
102
RTVSPost2010PropOp33
 70
     1
102
RTVSPost2010Prop34
280
     0
102
RTVSPost2010PropOp34
 70
     1
102
RTVSPost2010Prop35
280
     0
102
RTVSPost2010PropOp35
 70
     1
102
RTVSPost2010Prop36
280
     0
102
RTVSPost2010PropOp36
 70
     1
102
RTVSPost2010Prop37
 90
       50
102
RTVSPost2010PropOp37
 70
     1
102
RTVSPost2010Prop38
140
0.0
102
RTVSPost2010PropOp38
 70
     1
102
RTVSPost2010Prop39
140
1.0
102
RTVSPost2010PropOp39
 70
     1
102
RTVSPost2010Prop40
 90
        0
102
RTVSPost2010PropOp40
 70
     1
102
RTVSPost2010Prop41ColorIndex
 90
       18
102
RTVSPost2010Prop41ColorRGB
 90
        0
102
RTVSPost2010PropOp41
 70
     1
102
RTVSPost2010Prop42
 90
       50
102
RTVSPost2010PropOp42
 70
     1
102
RTVSPost2010Prop43
 90
        3
102
RTVSPost2010PropOp43
 70
     1
102
RTVSPost2010Prop44ColorIndex
 90
        5
102
RTVSPost2010Prop44ColorRGB
 90
      255
102
RTVSPost2010PropOp44
 70
     1
102
RTVSPost2010Prop45
280
     0
102
RTVSPost2010PropOp45
 70
     1
102
RTVSPost2010Prop46
 90
       50
102
RTVSPost2010PropOp46
 70
     1
102
RTVSPost2010Prop47
 90
       50
102
RTVSPost2010PropOp47
 70
     1
102
RTVSPost2010Prop48
 90
       50
102
RTVSPost2010PropOp48
 70
     1
102
RTVSPost2010Prop49
280
     0
102
RTVSPost2010PropOp49
 70
     1
102
RTVSPost2010Prop50
 90
       50
102
RTVSPost2010PropOp50
 70
     1
102
RTVSPost2010Prop51ColorIndex
 90
      256
102
RTVSPost2010Prop51ColorRGB
 90
-16777216
102
RTVSPost2010PropOp51
 70
     0
102
RTVSPost2010Prop52
140
1.0
102
RTVSPost2010PropOp52
 70
     0
102
RTVSPost2010Prop53
 90
        2
102
RTVSPost2010PropOp53
 70
     1
102
RTVSPost2010Prop54
  1
strokes_ogs.tif
102
RTVSPost2010PropOp54
 70
     1
102
RTVSPost2010Prop55
280
     0
102
RTVSPost2010PropOp55
 70
     1
102
RTVSPost2010Prop56
140
1.0
102
RTVSPost2010PropOp56
 70
     1
102
RTVSPost2010Prop57
140
1.0
102
RTVSPost2010PropOp57
 70
     1
  0
XRECORD
  5
17F
102
{ACAD_REACTORS
330
17E
102
}
330
17E
100
AcDbXrecord
280
     1
102
RTVSPost2010Prop28
280
     0
102
RTVSPost2010PropOp28
 70
     1
102
RTVSPost2010Prop29
280
     1
102
RTVSPost2010PropOp29
 70
     1
102
RTVSPost2010Prop30
280
     1
102
RTVSPost2010PropOp30
 70
     1
102
RTVSPost2010Prop31
280
     0
102
RTVSPost2010PropOp31
 70
     1
102
RTVSPost2010Prop32
280
     0
102
RTVSPost2010PropOp32
 70
     1
102
RTVSPost2010Prop33
280
     0
102
RTVSPost2010PropOp33
 70
     1
102
RTVSPost2010Prop34
280
     0
102
RTVSPost2010PropOp34
 70
     1
102
RTVSPost2010Prop35
280
     0
102
RTVSPost2010PropOp35
 70
     1
102
RTVSPost2010Prop36
280
     0
102
RTVSPost2010PropOp36
 70
     1
102
RTVSPost2010Prop37
 90
       50
102
RTVSPost2010PropOp37
 70
     1
102
RTVSPost2010Prop38
140
0.0
102
RTVSPost2010PropOp38
 70
     1
102
RTVSPost2010Prop39
140
1.0
102
RTVSPost2010PropOp39
 70
     1
102
RTVSPost2010Prop40
 90
        0
102
RTVSPost2010PropOp40
 70
     1
102
RTVSPost2010Prop41ColorIndex
 90
       18
102
RTVSPost2010Prop41ColorRGB
 90
        0
102
RTVSPost2010PropOp41
 70
     1
102
RTVSPost2010Prop42
 90
       50
102
RTVSPost2010PropOp42
 70
     1
102
RTVSPost2010Prop43
 90
        3
102
RTVSPost2010PropOp43
 70
     1
102
RTVSPost2010Prop44ColorIndex
 90
        5
102
RTVSPost2010Prop44ColorRGB
 90
      255
102
RTVSPost2010PropOp44
 70
     1
102
RTVSPost2010Prop45
280
     0
102
RTVSPost2010PropOp45
 70
     1
102
RTVSPost2010Prop46
 90
       50
102
RTVSPost2010PropOp46
 70
     1
102
RTVSPost2010Prop47
 90
       50
102
RTVSPost2010PropOp47
 70
     1
102
RTVSPost2010Prop48
 90
       50
102
RTVSPost2010PropOp48
 70
     1
102
RTVSPost2010Prop49
280
     0
102
RTVSPost2010PropOp49
 70
     1
102
RTVSPost2010Prop50
 90
       50
102
RTVSPost2010PropOp50
 70
     1
102
RTVSPost2010Prop51ColorIndex
 90
      256
102
RTVSPost2010Prop51ColorRGB
 90
-16777216
102
RTVSPost2010PropOp51
 70
     0
102
RTVSPost2010Prop52
140
1.0
102
RTVSPost2010PropOp52
 70
     0
102
RTVSPost2010Prop53
 90
        2
102
RTVSPost2010PropOp53
 70
     1
102
RTVSPost2010Prop54
  1
strokes_ogs.tif
102
RTVSPost2010PropOp54
 70
     1
102
RTVSPost2010Prop55
280
     0
102
RTVSPost2010PropOp55
 70
     1
102
RTVSPost2010Prop56
140
1.0
102
RTVSPost2010PropOp56
 70
     1
102
RTVSPost2010Prop57
140
1.0
102
RTVSPost2010PropOp57
 70
     1
  0
XRECORD
  5
175
102
{ACAD_REACTORS
330
174
102
}
330
174
100
AcDbXrecord
280
     1
102
RTVSPost2010Prop28
280
     0
102
RTVSPost2010PropOp28
 70
     1
102
RTVSPost2010Prop29
280
     1
102
RTVSPost2010PropOp29
 70
     1
102
RTVSPost2010Prop30
280
     1
102
RTVSPost2010PropOp30
 70
     1
102
RTVSPost2010Prop31
280
     0
102
RTVSPost2010PropOp31
 70
     1
102
RTVSPost2010Prop32
280
     0
102
RTVSPost2010PropOp32
 70
     1
102
RTVSPost2010Prop33
280
     0
102
RTVSPost2010PropOp33
 70
     1
102
RTVSPost2010Prop34
280
     0
102
RTVSPost2010PropOp34
 70
     1
102
RTVSPost2010Prop35
280
     0
102
RTVSPost2010PropOp35
 70
     1
102
RTVSPost2010Prop36
280
     0
102
RTVSPost2010PropOp36
 70
     1
102
RTVSPost2010Prop37
 90
       50
102
RTVSPost2010PropOp37
 70
     1
102
RTVSPost2010Prop38
140
0.0
102
RTVSPost2010PropOp38
 70
     1
102
RTVSPost2010Prop39
140
1.0
102
RTVSPost2010PropOp39
 70
     1
102
RTVSPost2010Prop40
 90
        0
102
RTVSPost2010PropOp40
 70
     1
102
RTVSPost2010Prop41ColorIndex
 90
       18
102
RTVSPost2010Prop41ColorRGB
 90
        0
102
RTVSPost2010PropOp41
 70
     1
102
RTVSPost2010Prop42
 90
       50
102
RTVSPost2010PropOp42
 70
     1
102
RTVSPost2010Prop43
 90
        3
102
RTVSPost2010PropOp43
 70
     1
102
RTVSPost2010Prop44ColorIndex
 90
        5
102
RTVSPost2010Prop44ColorRGB
 90
      255
102
RTVSPost2010PropOp44
 70
     1
102
RTVSPost2010Prop45
280
     0
102
RTVSPost2010PropOp45
 70
     1
102
RTVSPost2010Prop46
 90
       50
102
RTVSPost2010PropOp46
 70
     1
102
RTVSPost2010Prop47
 90
       50
102
RTVSPost2010PropOp47
 70
     1
102
RTVSPost2010Prop48
 90
       50
102
RTVSPost2010PropOp48
 70
     1
102
RTVSPost2010Prop49
280
     0
102
RTVSPost2010PropOp49
 70
     1
102
RTVSPost2010Prop50
 90
       50
102
RTVSPost2010PropOp50
 70
     1
102
RTVSPost2010Prop51ColorIndex
 90
      256
102
RTVSPost2010Prop51ColorRGB
 90
-16777216
102
RTVSPost2010PropOp51
 70
     0
102
RTVSPost2010Prop52
140
1.0
102
RTVSPost2010PropOp52
 70
     0
102
RTVSPost2010Prop53
 90
        2
102
RTVSPost2010PropOp53
 70
     1
102
RTVSPost2010Prop54
  1
strokes_ogs.tif
102
RTVSPost2010PropOp54
 70
     1
102
RTVSPost2010Prop55
280
     0
102
RTVSPost2010PropOp55
 70
     1
102
RTVSPost2010Prop56
140
1.0
102
RTVSPost2010PropOp56
 70
     1
102
RTVSPost2010Prop57
140
1.0
102
RTVSPost2010PropOp57
 70
     1
  0
XRECORD
  5
169
102
{ACAD_REACTORS
330
168
102
}
330
168
100
AcDbXrecord
280
     1
102
RTVSPost2010Prop28
280
     0
102
RTVSPost2010PropOp28
 70
     1
102
RTVSPost2010Prop29
280
     1
102
RTVSPost2010PropOp29
 70
     1
102
RTVSPost2010Prop30
280
     1
102
RTVSPost2010PropOp30
 70
     1
102
RTVSPost2010Prop31
280
     0
102
RTVSPost2010PropOp31
 70
     1
102
RTVSPost2010Prop32
280
     0
102
RTVSPost2010PropOp32
 70
     1
102
RTVSPost2010Prop33
280
     0
102
RTVSPost2010PropOp33
 70
     1
102
RTVSPost2010Prop34
280
     0
102
RTVSPost2010PropOp34
 70
     1
102
RTVSPost2010Prop35
280
     0
102
RTVSPost2010PropOp35
 70
     1
102
RTVSPost2010Prop36
280
     0
102
RTVSPost2010PropOp36
 70
     1
102
RTVSPost2010Prop37
 90
       50
102
RTVSPost2010PropOp37
 70
     1
102
RTVSPost2010Prop38
140
0.0
102
RTVSPost2010PropOp38
 70
     1
102
RTVSPost2010Prop39
140
1.0
102
RTVSPost2010PropOp39
 70
     1
102
RTVSPost2010Prop40
 90
        0
102
RTVSPost2010PropOp40
 70
     1
102
RTVSPost2010Prop41ColorIndex
 90
       18
102
RTVSPost2010Prop41ColorRGB
 90
        0
102
RTVSPost2010PropOp41
 70
     1
102
RTVSPost2010Prop42
 90
       50
102
RTVSPost2010PropOp42
 70
     1
102
RTVSPost2010Prop43
 90
        3
102
RTVSPost2010PropOp43
 70
     1
102
RTVSPost2010Prop44ColorIndex
 90
        5
102
RTVSPost2010Prop44ColorRGB
 90
      255
102
RTVSPost2010PropOp44
 70
     1
102
RTVSPost2010Prop45
280
     0
102
RTVSPost2010PropOp45
 70
     1
102
RTVSPost2010Prop46
 90
       50
102
RTVSPost2010PropOp46
 70
     1
102
RTVSPost2010Prop47
 90
       50
102
RTVSPost2010PropOp47
 70
     1
102
RTVSPost2010Prop48
 90
       50
102
RTVSPost2010PropOp48
 70
     1
102
RTVSPost2010Prop49
280
     0
102
RTVSPost2010PropOp49
 70
     1
102
RTVSPost2010Prop50
 90
       50
102
RTVSPost2010PropOp50
 70
     1
102
RTVSPost2010Prop51ColorIndex
 90
      256
102
RTVSPost2010Prop51ColorRGB
 90
-16777216
102
RTVSPost2010PropOp51
 70
     0
102
RTVSPost2010Prop52
140
1.0
102
RTVSPost2010PropOp52
 70
     0
102
RTVSPost2010Prop53
 90
        2
102
RTVSPost2010PropOp53
 70
     1
102
RTVSPost2010Prop54
  1
strokes_ogs.tif
102
RTVSPost2010PropOp54
 70
     1
102
RTVSPost2010Prop55
280
     0
102
RTVSPost2010PropOp55
 70
     1
102
RTVSPost2010Prop56
140
1.0
102
RTVSPost2010PropOp56
 70
     1
102
RTVSPost2010Prop57
140
1.0
102
RTVSPost2010PropOp57
 70
     1
  0
XRECORD
  5
181
102
{ACAD_REACTORS
330
180
102
}
330
180
100
AcDbXrecord
280
     1
102
RTVSPost2010Prop28
280
     0
102
RTVSPost2010PropOp28
 70
     1
102
RTVSPost2010Prop29
280
     1
102
RTVSPost2010PropOp29
 70
     1
102
RTVSPost2010Prop30
280
     1
102
RTVSPost2010PropOp30
 70
     1
102
RTVSPost2010Prop31
280
     0
102
RTVSPost2010PropOp31
 70
     1
102
RTVSPost2010Prop32
280
     0
102
RTVSPost2010PropOp32
 70
     1
102
RTVSPost2010Prop33
280
     0
102
RTVSPost2010PropOp33
 70
     1
102
RTVSPost2010Prop34
280
     0
102
RTVSPost2010PropOp34
 70
     1
102
RTVSPost2010Prop35
280
     0
102
RTVSPost2010PropOp35
 70
     1
102
RTVSPost2010Prop36
280
     0
102
RTVSPost2010PropOp36
 70
     1
102
RTVSPost2010Prop37
 90
       50
102
RTVSPost2010PropOp37
 70
     1
102
RTVSPost2010Prop38
140
0.0
102
RTVSPost2010PropOp38
 70
     1
102
RTVSPost2010Prop39
140
1.0
102
RTVSPost2010PropOp39
 70
     1
102
RTVSPost2010Prop40
 90
        0
102
RTVSPost2010PropOp40
 70
     1
102
RTVSPost2010Prop41ColorIndex
 90
       18
102
RTVSPost2010Prop41ColorRGB
 90
        0
102
RTVSPost2010PropOp41
 70
     1
102
RTVSPost2010Prop42
 90
       50
102
RTVSPost2010PropOp42
 70
     1
102
RTVSPost2010Prop43
 90
        3
102
RTVSPost2010PropOp43
 70
     1
102
RTVSPost2010Prop44ColorIndex
 90
        5
102
RTVSPost2010Prop44ColorRGB
 90
      255
102
RTVSPost2010PropOp44
 70
     1
102
RTVSPost2010Prop45
280
     0
102
RTVSPost2010PropOp45
 70
     1
102
RTVSPost2010Prop46
 90
       50
102
RTVSPost2010PropOp46
 70
     1
102
RTVSPost2010Prop47
 90
       50
102
RTVSPost2010PropOp47
 70
     1
102
RTVSPost2010Prop48
 90
       50
102
RTVSPost2010PropOp48
 70
     1
102
RTVSPost2010Prop49
280
     0
102
RTVSPost2010PropOp49
 70
     1
102
RTVSPost2010Prop50
 90
       50
102
RTVSPost2010PropOp50
 70
     1
102
RTVSPost2010Prop51ColorIndex
 90
      256
102
RTVSPost2010Prop51ColorRGB
 90
-16777216
102
RTVSPost2010PropOp51
 70
     0
102
RTVSPost2010Prop52
140
1.0
102
RTVSPost2010PropOp52
 70
     0
102
RTVSPost2010Prop53
 90
        2
102
RTVSPost2010PropOp53
 70
     1
102
RTVSPost2010Prop54
  1
strokes_ogs.tif
102
RTVSPost2010PropOp54
 70
     1
102
RTVSPost2010Prop55
280
     0
102
RTVSPost2010PropOp55
 70
     1
102
RTVSPost2010Prop56
140
1.0
102
RTVSPost2010PropOp56
 70
     1
102
RTVSPost2010Prop57
140
1.0
102
RTVSPost2010PropOp57
 70
     1
  0
ENDSEC
  0
EOF
