  0
SECTION
  2
HEADER
  9
$ACADVER
  1
AC1024
  9
$ACADMAINTVER
 70
   226
  9
$DWGCODEPAGE
  3
ANSI_932
  9
$INSBASE
 10
0.0
 20
0.0
 30
0.0
  9
$EXTMIN
 10
1.000000000000000E+20
 20
1.000000000000000E+20
 30
1.000000000000000E+20
  9
$EXTMAX
 10
-1.000000000000000E+20
 20
-1.000000000000000E+20
 30
-1.000000000000000E+20
  9
$LIMMIN
 10
0.0
 20
0.0
  9
$LIMMAX
 10
12.0
 20
9.0
  9
$ORTHOMODE
 70
     0
  9
$REGENMODE
 70
     1
  9
$FILLMODE
 70
     1
  9
$QTEXTMODE
 70
     0
  9
$MIRRTEXT
 70
     0
  9
$LTSCALE
 40
1.0
  9
$ATTMODE
 70
     1
  9
$TEXTSIZE
 40
0.2
  9
$TRACEWID
 40
0.05
  9
$TEXTSTYLE
  7
Standard
  9
$CLAYER
  8
0
  9
$CELTYPE
  6
ByLayer
  9
$CECOLOR
 62
   256
  9
$CELTSCALE
 40
1.0
  9
$DISPSILH
 70
     0
  9
$DIMSCALE
 40
1.0
  9
$DIMASZ
 40
0.18
  9
$DIMEXO
 40
0.0625
  9
$DIMDLI
 40
0.38
  9
$DIMRND
 40
0.0
  9
$DIMDLE
 40
0.0
  9
$DIMEXE
 40
0.18
  9
$DIMTP
 40
0.0
  9
$DIMTM
 40
0.0
  9
$DIMTXT
 40
0.18
  9
$DIMCEN
 40
0.09
  9
$DIMTSZ
 40
0.0
  9
$DIMTOL
 70
     0
  9
$DIMLIM
 70
     0
  9
$DIMTIH
 70
     1
  9
$DIMTOH
 70
     1
  9
$DIMSE1
 70
     0
  9
$DIMSE2
 70
     0
  9
$DIMTAD
 70
     0
  9
$DIMZIN
 70
     0
  9
$DIMBLK
  1

  9
$DIMASO
 70
     1
  9
$DIMSHO
 70
     1
  9
$DIMPOST
  1

  9
$DIMAPOST
  1

  9
$DIMALT
 70
     0
  9
$DIMALTD
 70
     2
  9
$DIMALTF
 40
25.4
  9
$DIMLFAC
 40
1.0
  9
$DIMTOFL
 70
     0
  9
$DIMTVP
 40
0.0
  9
$DIMTIX
 70
     0
  9
$DIMSOXD
 70
     0
  9
$DIMSAH
 70
     0
  9
$DIMBLK1
  1

  9
$DIMBLK2
  1

  9
$DIMSTYLE
  2
Standard
  9
$DIMCLRD
 70
     0
  9
$DIMCLRE
 70
     0
  9
$DIMCLRT
 70
     0
  9
$DIMTFAC
 40
1.0
  9
$DIMGAP
 40
0.09
  9
$DIMJUST
 70
     0
  9
$DIMSD1
 70
     0
  9
$DIMSD2
 70
     0
  9
$DIMTOLJ
 70
     1
  9
$DIMTZIN
 70
     0
  9
$DIMALTZ
 70
     0
  9
$DIMALTTZ
 70
     0
  9
$DIMUPT
 70
     0
  9
$DIMDEC
 70
     4
  9
$DIMTDEC
 70
     4
  9
$DIMALTU
 70
     2
  9
$DIMALTTD
 70
     2
  9
$DIMTXSTY
  7
Standard
  9
$DIMAUNIT
 70
     0
  9
$DIMADEC
 70
     0
  9
$DIMALTRND
 40
0.0
  9
$DIMAZIN
 70
     0
  9
$DIMDSEP
 70
    46
  9
$DIMATFIT
 70
     3
  9
$DIMFRAC
 70
     0
  9
$DIMLDRBLK
  1

  9
$DIMLUNIT
 70
     2
  9
$DIMLWD
 70
    -2
  9
$DIMLWE
 70
    -2
  9
$DIMTMOVE
 70
     0
  9
$DIMFXL
 40
1.0
  9
$DIMFXLON
 70
     0
  9
$DIMJOGANG
 40
0.7853981633974483
  9
$DIMTFILL
 70
     0
  9
$DIMTFILLCLR
 70
     0
  9
$DIMARCSYM
 70
     0
  9
$DIMLTYPE
  6

  9
$DIMLTEX1
  6

  9
$DIMLTEX2
  6

  9
$DIMTXTDIRECTION
 70
     0
  9
$LUNITS
 70
     2
  9
$LUPREC
 70
     4
  9
$SKETCHINC
 40
0.1
  9
$FILLETRAD
 40
0.0
  9
$AUNITS
 70
     0
  9
$AUPREC
 70
     0
  9
$MENU
  1
.
  9
$ELEVATION
 40
0.0
  9
$PELEVATION
 40
0.0
  9
$THICKNESS
 40
0.0
  9
$LIMCHECK
 70
     0
  9
$CHAMFERA
 40
0.0
  9
$CHAMFERB
 40
0.0
  9
$CHAMFERC
 40
0.0
  9
$CHAMFERD
 40
0.0
  9
$SKPOLY
 70
     0
  9
$TDCREATE
 40
2459569.489247686
  9
$TDUCREATE
 40
2459569.114247686
  9
$TDUPDATE
 40
2459569.489247686
  9
$TDUUPDATE
 40
2459569.114247686
  9
$TDINDWG
 40
0.0000115741
  9
$TDUSRTIMER
 40
0.0000115741
  9
$USRTIMER
 70
     1
  9
$ANGBASE
 50
0.0
  9
$ANGDIR
 70
     0
  9
$PDMODE
 70
     0
  9
$PDSIZE
 40
0.0
  9
$PLINEWID
 40
0.0
  9
$SPLFRAME
 70
     0
  9
$SPLINETYPE
 70
     6
  9
$SPLINESEGS
 70
     8
  9
$HANDSEED
  5
16B
  9
$SURFTAB1
 70
     6
  9
$SURFTAB2
 70
     6
  9
$SURFTYPE
 70
     6
  9
$SURFU
 70
     6
  9
$SURFV
 70
     6
  9
$UCSBASE
  2

  9
$UCSNAME
  2

  9
$UCSORG
 10
0.0
 20
0.0
 30
0.0
  9
$UCSXDIR
 10
1.0
 20
0.0
 30
0.0
  9
$UCSYDIR
 10
0.0
 20
1.0
 30
0.0
  9
$UCSORTHOREF
  2

  9
$UCSORTHOVIEW
 70
     0
  9
$UCSORGTOP
 10
0.0
 20
0.0
 30
0.0
  9
$UCSORGBOTTOM
 10
0.0
 20
0.0
 30
0.0
  9
$UCSORGLEFT
 10
0.0
 20
0.0
 30
0.0
  9
$UCSORGRIGHT
 10
0.0
 20
0.0
 30
0.0
  9
$UCSORGFRONT
 10
0.0
 20
0.0
 30
0.0
  9
$UCSORGBACK
 10
0.0
 20
0.0
 30
0.0
  9
$PUCSBASE
  2

  9
$PUCSNAME
  2

  9
$PUCSORG
 10
0.0
 20
0.0
 30
0.0
  9
$PUCSXDIR
 10
1.0
 20
0.0
 30
0.0
  9
$PUCSYDIR
 10
0.0
 20
1.0
 30
0.0
  9
$PUCSORTHOREF
  2

  9
$PUCSORTHOVIEW
 70
     0
  9
$PUCSORGTOP
 10
0.0
 20
0.0
 30
0.0
  9
$PUCSORGBOTTOM
 10
0.0
 20
0.0
 30
0.0
  9
$PUCSORGLEFT
 10
0.0
 20
0.0
 30
0.0
  9
$PUCSORGRIGHT
 10
0.0
 20
0.0
 30
0.0
  9
$PUCSORGFRONT
 10
0.0
 20
0.0
 30
0.0
  9
$PUCSORGBACK
 10
0.0
 20
0.0
 30
0.0
  9
$USERI1
 70
     0
  9
$USERI2
 70
     0
  9
$USERI3
 70
     0
  9
$USERI4
 70
     0
  9
$USERI5
 70
     0
  9
$USERR1
 40
0.0
  9
$USERR2
 40
0.0
  9
$USERR3
 40
0.0
  9
$USERR4
 40
0.0
  9
$USERR5
 40
0.0
  9
$WORLDVIEW
 70
     1
  9
$SHADEDGE
 70
     3
  9
$SHADEDIF
 70
    70
  9
$TILEMODE
 70
     1
  9
$MAXACTVP
 70
    64
  9
$PINSBASE
 10
0.0
 20
0.0
 30
0.0
  9
$PLIMCHECK
 70
     0
  9
$PEXTMIN
 10
1.000000000000000E+20
 20
1.000000000000000E+20
 30
1.000000000000000E+20
  9
$PEXTMAX
 10
-1.000000000000000E+20
 20
-1.000000000000000E+20
 30
-1.000000000000000E+20
  9
$PLIMMIN
 10
0.0
 20
0.0
  9
$PLIMMAX
 10
12.0
 20
9.0
  9
$UNITMODE
 70
     0
  9
$VISRETAIN
 70
     1
  9
$PLINEGEN
 70
     0
  9
$PSLTSCALE
 70
     1
  9
$TREEDEPTH
 70
  3020
  9
$CMLSTYLE
  2
Standard
  9
$CMLJUST
 70
     0
  9
$CMLSCALE
 40
1.0
  9
$PROXYGRAPHICS
 70
     1
  9
$MEASUREMENT
 70
     0
  9
$CELWEIGHT
370
    -1
  9
$ENDCAPS
280
     0
  9
$JOINSTYLE
280
     0
  9
$LWDISPLAY
290
     1
  9
$INSUNITS
 70
     4
  9
$HYPERLINKBASE
  1

  9
$STYLESHEET
  1

  9
$XEDIT
290
     1
  9
$CEPSNTYPE
380
     0
  9
$PSTYLEMODE
290
     1
  9
$FINGERPRINTGUID
  2
{9969BD26-CBF4-CD47-982A-56FDA66DF719}
  9
$VERSIONGUID
  2
{6CDCAE50-8C43-C24F-8AE9-EC9817C4120B}
  9
$EXTNAMES
290
     1
  9
$PSVPSCALE
 40
0.0
  9
$OLESTARTUP
290
     0
  9
$SORTENTS
280
   127
  9
$INDEXCTL
280
     0
  9
$HIDETEXT
280
     1
  9
$XCLIPFRAME
280
     2
  9
$HALOGAP
280
     0
  9
$OBSCOLOR
 70
   257
  9
$OBSLTYPE
280
     0
  9
$INTERSECTIONDISPLAY
280
     0
  9
$INTERSECTIONCOLOR
 70
   257
  9
$DIMASSOC
280
     2
  9
$PROJECTNAME
  1

  9
$CAMERADISPLAY
290
     0
  9
$LENSLENGTH
 40
50.0
  9
$CAMERAHEIGHT
 40
0.0
  9
$STEPSPERSEC
 40
2.0
  9
$STEPSIZE
 40
6.0
  9
$3DDWFPREC
 40
2.0
  9
$PSOLWIDTH
 40
0.25
  9
$PSOLHEIGHT
 40
4.0
  9
$LOFTANG1
 40
1.570796326794896
  9
$LOFTANG2
 40
1.570796326794896
  9
$LOFTMAG1
 40
0.0
  9
$LOFTMAG2
 40
0.0
  9
$LOFTPARAM
 70
     7
  9
$LOFTNORMALS
280
     1
  9
$LATITUDE
 40
37.795
  9
$LONGITUDE
 40
-122.394
  9
$NORTHDIRECTION
 40
0.0
  9
$TIMEZONE
 70
 -8000
  9
$LIGHTGLYPHDISPLAY
280
     1
  9
$TILEMODELIGHTSYNCH
280
     1
  9
$CMATERIAL
347
11
  9
$SOLIDHIST
280
     0
  9
$SHOWHIST
280
     1
  9
$DWFFRAME
280
     2
  9
$DGNFRAME
280
     0
  9
$REALWORLDSCALE
290
     1
  9
$INTERFERECOLOR
 62
     1
  9
$INTERFEREOBJVS
345
33
  9
$INTERFEREVPVS
346
30
  9
$CSHADOW
280
     0
  9
$SHADOWPLANELOCATION
 40
0.0
  0
ENDSEC
  0
SECTION
  2
CLASSES
  0
CLASS
  1
ACDBDICTIONARYWDFLT
  2
AcDbDictionaryWithDefault
  3
ObjectDBX Classes
 90
        0
 91
        1
280
     0
281
     0
  0
CLASS
  1
MATERIAL
  2
AcDbMaterial
  3
ObjectDBX Classes
 90
     1153
 91
        3
280
     0
281
     0
  0
CLASS
  1
VISUALSTYLE
  2
AcDbVisualStyle
  3
ObjectDBX Classes
 90
     4095
 91
       24
280
     0
281
     0
  0
CLASS
  1
SCALE
  2
AcDbScale
  3
ObjectDBX Classes
 90
     1153
 91
       17
280
     0
281
     0
  0
CLASS
  1
TABLESTYLE
  2
AcDbTableStyle
  3
ObjectDBX Classes
 90
     4095
 91
        1
280
     0
281
     0
  0
CLASS
  1
MLEADERSTYLE
  2
AcDbMLeaderStyle
  3
ACDB_MLEADERSTYLE_CLASS
 90
     4095
 91
        1
280
     0
281
     0
  0
CLASS
  1
ACDBSECTIONVIEWSTYLE
  2
AcDbSectionViewStyle
  3
ObjectDBX Classes
 90
     1025
 91
        1
280
     0
281
     0
  0
CLASS
  1
ACDBDETAILVIEWSTYLE
  2
AcDbDetailViewStyle
  3
ObjectDBX Classes
 90
     1025
 91
        1
280
     0
281
     0
  0
CLASS
  1
DICTIONARYVAR
  2
AcDbDictionaryVar
  3
ObjectDBX Classes
 90
        0
 91
        5
280
     0
281
     0
  0
CLASS
  1
CELLSTYLEMAP
  2
AcDbCellStyleMap
  3
ObjectDBX Classes
 90
     1152
 91
        1
280
     0
281
     0
  0
ENDSEC
  0
SECTION
  2
TABLES
  0
TABLE
  2
VPORT
  5
8
330
0
100
AcDbSymbolTable
 70
     1
  0
VPORT
  5
57
330
8
100
AcDbSymbolTableRecord
100
AcDbViewportTableRecord
  2
*Active
 70
     0
 10
0.0
 20
0.0
 11
1.0
 21
1.0
 12
0.0
 22
0.0
 13
0.0
 23
0.0
 14
1.0
 24
1.0
 15
0.0
 25
0.0
 16
0.0
 26
0.0
 36
1.0
 17
104.9999999737534
 27
-148.4999999628701
 37
0.0
 40
302.939999924255
 41
0.7070707070707534
 42
50.0
 43
0.0
 44
0.0
 50
0.0
 51
0.0
 71
     0
 72
   100
 73
     1
 74
     0
 75
     1
 76
     0
 77
     0
 78
     0
281
     0
 65
     1
110
0.0
120
0.0
130
0.0
111
1.0
121
0.0
131
0.0
112
0.0
122
1.0
132
0.0
 79
     0
146
0.0
 60
     3
 61
     5
292
     1
282
     1
141
0.0
142
0.0
 63
   250
421
  3355443
  0
ENDTAB
  0
TABLE
  2
LTYPE
  5
5
330
0
100
AcDbSymbolTable
 70
     2
  0
LTYPE
  5
5B
330
5
100
AcDbSymbolTableRecord
100
AcDbLinetypeTableRecord
  2
ByBlock
 70
     0
  3

 72
    65
 73
     0
 40
0.0
  0
LTYPE
  5
5C
330
5
100
AcDbSymbolTableRecord
100
AcDbLinetypeTableRecord
  2
ByLayer
 70
     0
  3

 72
    65
 73
     0
 40
0.0
  0
LTYPE
  5
5D
330
5
100
AcDbSymbolTableRecord
100
AcDbLinetypeTableRecord
  2
Continuous
 70
     0
  3
Solid line
 72
    65
 73
     0
 40
0.0
  0
LTYPE
  5
105
330
5
100
AcDbSymbolTableRecord
100
AcDbLinetypeTableRecord
  2
AI-Linetype-0
 70
     0
  3
Adobe Illustrator Linetype No. 0
 72
    65
 73
     2
 40
1.411111110758333
 49
0.7055555553791667
 74
     0
 49
-0.7055555553791667
 74
     0
  0
ENDTAB
  0
TABLE
  2
LAYER
  5
2
330
0
100
AcDbSymbolTable
 70
     2
  0
LAYER
  5
54
330
2
100
AcDbSymbolTableRecord
100
AcDbLayerTableRecord
  2
0
 70
     0
 62
     7
  6
Continuous
370
    -3
390
F
347
21
  0
LAYER
  5
78
330
2
100
AcDbSymbolTableRecord
100
AcDbLayerTableRecord
  2
レイヤー 1
 70
     0
 62
     7
  6
Continuous
370
     0
390
F
347
21
  0
ENDTAB
  0
TABLE
  2
STYLE
  5
3
330
0
100
AcDbSymbolTable
 70
     2
  0
STYLE
  5
55
330
3
100
AcDbSymbolTableRecord
100
AcDbTextStyleTableRecord
  2
Standard
 70
     0
 40
0.0
 41
1.0
 50
0.0
 71
     0
 42
0.2
  3
txt
  4

  0
STYLE
  5
5A
330
3
100
AcDbSymbolTableRecord
100
AcDbTextStyleTableRecord
  2
Annotative
 70
     0
 40
0.0
 41
1.0
 50
0.0
 71
     0
 42
0.2
  3
txt
  4

1001
AcadAnnotative
1000
AnnotativeData
1002
{
1070
     1
1070
     1
1002
}
  0
ENDTAB
  0
TABLE
  2
VIEW
  5
6
330
0
100
AcDbSymbolTable
 70
     0
  0
ENDTAB
  0
TABLE
  2
UCS
  5
7
330
0
100
AcDbSymbolTable
 70
     0
  0
ENDTAB
  0
TABLE
  2
APPID
  5
9
330
0
100
AcDbSymbolTable
 70
     2
  0
APPID
  5
56
330
9
100
AcDbSymbolTableRecord
100
AcDbRegAppTableRecord
  2
ACAD
 70
     0
  0
APPID
  5
5E
330
9
100
AcDbSymbolTableRecord
100
AcDbRegAppTableRecord
  2
AcadAnnotative
 70
     0
  0
ENDTAB
  0
TABLE
  2
DIMSTYLE
  5
A
330
0
100
AcDbSymbolTable
 70
     2
100
AcDbDimStyleTable
 71
     0
  0
DIMSTYLE
105
58
330
A
100
AcDbSymbolTableRecord
100
AcDbDimStyleTableRecord
  2
Standard
 70
     0
340
55
  0
DIMSTYLE
105
59
330
A
100
AcDbSymbolTableRecord
100
AcDbDimStyleTableRecord
  2
Annotative
 70
     0
340
55
1001
AcadAnnotative
1000
AnnotativeData
1002
{
1070
     1
1070
     1
1002
}
  0
ENDTAB
  0
TABLE
  2
BLOCK_RECORD
  5
1
330
0
100
AcDbSymbolTable
 70
    15
  0
BLOCK_RECORD
  5
70
330
1
100
AcDbSymbolTableRecord
100
AcDbBlockTableRecord
  2
*Model_Space
340
73
 70
     0
280
     1
281
     0
  0
BLOCK_RECORD
  5
6C
330
1
100
AcDbSymbolTableRecord
100
AcDbBlockTableRecord
  2
*Paper_Space
340
6F
 70
     0
280
     1
281
     0
  0
BLOCK_RECORD
  5
74
330
1
100
AcDbSymbolTableRecord
100
AcDbBlockTableRecord
  2
*Paper_Space0
340
77
 70
     0
280
     1
281
     0
  0
BLOCK_RECORD
  5
B5
330
1
100
AcDbSymbolTableRecord
100
AcDbBlockTableRecord
  2
Block_0
340
0
102
{BLKREFS
331
B6
102
}
 70
     0
280
     1
281
     0
  0
BLOCK_RECORD
  5
B9
330
1
100
AcDbSymbolTableRecord
100
AcDbBlockTableRecord
  2
Block_1
340
0
102
{BLKREFS
331
BA
102
}
 70
     0
280
     1
281
     0
  0
BLOCK_RECORD
  5
C6
330
1
100
AcDbSymbolTableRecord
100
AcDbBlockTableRecord
  2
Block_2
340
0
102
{BLKREFS
331
C7
102
}
 70
     0
280
     1
281
     0
  0
BLOCK_RECORD
  5
CA
330
1
100
AcDbSymbolTableRecord
100
AcDbBlockTableRecord
  2
Block_3
340
0
102
{BLKREFS
331
CB
102
}
 70
     0
280
     1
281
     0
  0
BLOCK_RECORD
  5
D4
330
1
100
AcDbSymbolTableRecord
100
AcDbBlockTableRecord
  2
Block_4
340
0
102
{BLKREFS
331
D5
102
}
 70
     0
280
     1
281
     0
  0
BLOCK_RECORD
  5
DF
330
1
100
AcDbSymbolTableRecord
100
AcDbBlockTableRecord
  2
Block_5
340
0
102
{BLKREFS
331
E0
102
}
 70
     0
280
     1
281
     0
  0
BLOCK_RECORD
  5
E3
330
1
100
AcDbSymbolTableRecord
100
AcDbBlockTableRecord
  2
Block_6
340
0
102
{BLKREFS
331
E4
102
}
 70
     0
280
     1
281
     0
  0
BLOCK_RECORD
  5
F0
330
1
100
AcDbSymbolTableRecord
100
AcDbBlockTableRecord
  2
Block_7
340
0
102
{BLKREFS
331
F1
102
}
 70
     0
280
     1
281
     0
  0
BLOCK_RECORD
  5
F4
330
1
100
AcDbSymbolTableRecord
100
AcDbBlockTableRecord
  2
Block_8
340
0
102
{BLKREFS
331
F5
102
}
 70
     0
280
     1
281
     0
  0
BLOCK_RECORD
  5
FE
330
1
100
AcDbSymbolTableRecord
100
AcDbBlockTableRecord
  2
Block_9
340
0
102
{BLKREFS
331
FF
102
}
 70
     0
280
     1
281
     0
  0
BLOCK_RECORD
  5
106
330
1
100
AcDbSymbolTableRecord
100
AcDbBlockTableRecord
  2
Block_10
340
0
102
{BLKREFS
331
107
102
}
 70
     0
280
     1
281
     0
  0
BLOCK_RECORD
  5
10A
330
1
100
AcDbSymbolTableRecord
100
AcDbBlockTableRecord
  2
Block_11
340
0
102
{BLKREFS
331
10B
102
}
 70
     0
280
     1
281
     0
  0
BLOCK_RECORD
  5
111
330
1
100
AcDbSymbolTableRecord
100
AcDbBlockTableRecord
  2
Block_12
340
0
102
{BLKREFS
331
112
102
}
 70
     0
280
     1
281
     0
  0
BLOCK_RECORD
  5
115
330
1
100
AcDbSymbolTableRecord
100
AcDbBlockTableRecord
  2
Block_13
340
0
102
{BLKREFS
331
116
102
}
 70
     0
280
     1
281
     0
  0
ENDTAB
  0
ENDSEC
  0
SECTION
  2
BLOCKS
  0
BLOCK
  5
71
330
70
100
AcDbEntity
  8
0
100
AcDbBlockBegin
  2
*Model_Space
 70
     0
 10
0.0
 20
0.0
 30
0.0
  3
*Model_Space
  1

  0
ENDBLK
  5
72
330
70
100
AcDbEntity
  8
0
100
AcDbBlockEnd
  0
BLOCK
  5
6D
330
6C
100
AcDbEntity
 67
     1
  8
0
100
AcDbBlockBegin
  2
*Paper_Space
 70
     0
 10
0.0
 20
0.0
 30
0.0
  3
*Paper_Space
  1

  0
ENDBLK
  5
6E
330
6C
100
AcDbEntity
 67
     1
  8
0
100
AcDbBlockEnd
  0
BLOCK
  5
75
330
74
100
AcDbEntity
 67
     1
  8
0
100
AcDbBlockBegin
  2
*Paper_Space0
 70
     0
 10
0.0
 20
0.0
 30
0.0
  3
*Paper_Space0
  1

  0
ENDBLK
  5
76
330
74
100
AcDbEntity
 67
     1
  8
0
100
AcDbBlockEnd
  0
BLOCK
  5
B7
330
B5
100
AcDbEntity
  8
0
100
AcDbBlockBegin
  2
Block_0
 70
     0
 10
0.0
 20
0.0
 30
0.0
  3
Block_0
  1

  0
INSERT
  5
BA
330
B5
100
AcDbEntity
  8
レイヤー 1
100
AcDbBlockReference
  2
Block_1
 10
0.0
 20
0.0
 30
0.0
  0
ENDBLK
  5
B8
330
B5
100
AcDbEntity
  8
0
100
AcDbBlockEnd
  0
BLOCK
  5
BB
330
B9
100
AcDbEntity
  8
0
100
AcDbBlockBegin
  2
Block_1
 70
     0
 10
0.0
 20
0.0
 30
0.0
  3
Block_1
  1

  0
SPLINE
  5
BD
330
B9
100
AcDbEntity
  8
レイヤー 1
100
AcDbSpline
210
0.0
220
0.0
230
1.0
 70
     9
 71
     3
 72
    17
 73
    13
 74
     0
 42
0.0000000001
 43
0.0000000001
 40
0.0
 40
0.0
 40
0.0
 40
0.0
 40
1.0
 40
1.0
 40
1.0
 40
2.0
 40
2.0
 40
2.0
 40
3.0
 40
3.0
 40
3.0
 40
4.0
 40
4.0
 40
4.0
 40
4.0
 10
87.54142657316673
 20
-146.5416150892326
 30
0.0
 10
87.54142657316673
 20
-146.7913845119132
 30
0.0
 10
87.82478567682852
 20
-146.8378933009641
 30
0.0
 10
88.16963973490203
 20
-146.8378933009641
 30
0.0
 10
88.48917234115896
 20
-146.8378933009641
 30
0.0
 10
88.79802515141161
 20
-146.801719798369
 30
0.0
 10
88.79802515141161
 20
-146.5416150892326
 30
0.0
 10
88.79802515141161
 20
-146.2939127238432
 30
0.0
 10
88.5165608502667
 20
-146.2453368775011
 30
0.0
 10
88.16963973490203
 20
-146.2453368775011
 30
0.0
 10
87.85027938341938
 20
-146.2453368775011
 30
0.0
 10
87.54142657316673
 20
-146.2835774373874
 30
0.0
 10
87.54142657316673
 20
-146.5416150892326
 30
0.0
  0
SPLINE
  5
BE
330
B9
100
AcDbEntity
  8
レイヤー 1
100
AcDbSpline
210
0.0
220
0.0
230
1.0
 70
     9
 71
     3
 72
    29
 73
    25
 74
     0
 42
0.0000000001
 43
0.0000000001
 40
0.0
 40
0.0
 40
0.0
 40
0.0
 40
1.0
 40
1.0
 40
1.0
 40
2.0
 40
2.0
 40
2.0
 40
3.0
 40
3.0
 40
3.0
 40
4.0
 40
4.0
 40
4.0
 40
5.0
 40
5.0
 40
5.0
 40
6.0
 40
6.0
 40
6.0
 40
7.0
 40
7.0
 40
7.0
 40
8.0
 40
8.0
 40
8.0
 40
8.0
 10
88.7640909608819
 20
-146.1437065606863
 30
0.0
 10
88.97355276638508
 20
-146.2518825589231
 30
0.0
 10
88.99267304632822
 20
-146.4251708618312
 30
0.0
 10
88.99267304632822
 20
-146.5416150892326
 30
0.0
 10
88.99267304632822
 20
-146.7025010483938
 30
0.0
 10
88.94616425727734
 20
-146.8440944728376
 30
0.0
 10
88.7640909608819
 20
-146.9391791082305
 30
0.0
 10
88.56961532073954
 20
-147.0428764823365
 30
0.0
 10
88.33259275135436
 20
-147.0621690170539
 30
0.0
 10
88.16963973490203
 20
-147.0621690170539
 30
0.0
 10
88.02580699839285
 20
-147.0621690170539
 30
0.0
 10
87.77414277319534
 20
-147.0449435396276
 30
0.0
 10
87.57518850892218
 20
-146.9391791082305
 30
0.0
 10
87.3721001300667
 20
-146.8313476195421
 30
0.0
 10
87.34884573554126
 20
-146.670461660381
 30
0.0
 10
87.34884573554126
 20
-146.5416150892326
 30
0.0
 10
87.34884573554126
 20
-146.3827961873626
 30
0.0
 10
87.393287467301
 20
-146.2391357056277
 30
0.0
 10
87.57518850892218
 20
-146.1437065606863
 30
0.0
 10
87.76776934654764
 20
-146.0444878107111
 30
0.0
 10
87.99617917721972
 20
-146.0210611614114
 30
0.0
 10
88.16963973490203
 20
-146.0210611614114
 30
0.0
 10
88.34103323529323
 20
-146.0210611614114
 30
0.0
 10
88.57168237803071
 20
-146.0424207534199
 30
0.0
 10
88.7640909608819
 20
-146.1437065606863
 30
0.0
  0
HATCH
  5
BF
330
B9
100
AcDbEntity
  8
レイヤー 1
 62
   250
420
  2299925
440
 33554687
100
AcDbHatch
 10
0.0
 20
0.0
 30
0.0
210
0.0
220
0.0
230
1.0
  2
SOLID
 70
     1
 71
     1
 91
        2
 92
        1
 93
        1
 72
     4
 94
        3
 73
     0
 74
     0
 95
       17
 96
       13
 40
0.0
 40
0.0
 40
0.0
 40
0.0
 40
1.0
 40
1.0
 40
1.0
 40
2.0
 40
2.0
 40
2.0
 40
3.0
 40
3.0
 40
3.0
 40
4.0
 40
4.0
 40
4.0
 40
4.0
 10
87.54142657316673
 20
-146.5416150892326
 10
87.54142657316673
 20
-146.7913845119132
 10
87.82478567682852
 20
-146.8378933009641
 10
88.16963973490203
 20
-146.8378933009641
 10
88.48917234115896
 20
-146.8378933009641
 10
88.79802515141161
 20
-146.801719798369
 10
88.79802515141161
 20
-146.5416150892326
 10
88.79802515141161
 20
-146.2939127238432
 10
88.5165608502667
 20
-146.2453368775011
 10
88.16963973490203
 20
-146.2453368775011
 10
87.85027938341938
 20
-146.2453368775011
 10
87.54142657316673
 20
-146.2835774373874
 10
87.54142657316673
 20
-146.5416150892326
 97
        0
 97
        1
330
BD
 92
        1
 93
        1
 72
     4
 94
        3
 73
     0
 74
     0
 95
       29
 96
       25
 40
0.0
 40
0.0
 40
0.0
 40
0.0
 40
1.0
 40
1.0
 40
1.0
 40
2.0
 40
2.0
 40
2.0
 40
3.0
 40
3.0
 40
3.0
 40
4.0
 40
4.0
 40
4.0
 40
5.0
 40
5.0
 40
5.0
 40
6.0
 40
6.0
 40
6.0
 40
7.0
 40
7.0
 40
7.0
 40
8.0
 40
8.0
 40
8.0
 40
8.0
 10
88.7640909608819
 20
-146.1437065606863
 10
88.97355276638508
 20
-146.2518825589231
 10
88.99267304632822
 20
-146.4251708618312
 10
88.99267304632822
 20
-146.5416150892326
 10
88.99267304632822
 20
-146.7025010483938
 10
88.94616425727734
 20
-146.8440944728376
 10
88.7640909608819
 20
-146.9391791082305
 10
88.56961532073954
 20
-147.0428764823365
 10
88.33259275135436
 20
-147.0621690170539
 10
88.16963973490203
 20
-147.0621690170539
 10
88.02580699839285
 20
-147.0621690170539
 10
87.77414277319534
 20
-147.0449435396276
 10
87.57518850892218
 20
-146.9391791082305
 10
87.3721001300667
 20
-146.8313476195421
 10
87.34884573554126
 20
-146.670461660381
 10
87.34884573554126
 20
-146.5416150892326
 10
87.34884573554126
 20
-146.3827961873626
 10
87.393287467301
 20
-146.2391357056277
 10
87.57518850892218
 20
-146.1437065606863
 10
87.76776934654764
 20
-146.0444878107111
 10
87.99617917721972
 20
-146.0210611614114
 10
88.16963973490203
 20
-146.0210611614114
 10
88.34103323529323
 20
-146.0210611614114
 10
88.57168237803071
 20
-146.0424207534199
 10
88.7640909608819
 20
-146.1437065606863
 97
        0
 97
        1
330
BE
 75
     2
 76
     1
 98
        1
 10
0.0
 20
0.0
450
        0
451
        0
460
0.0
461
0.0
452
        0
462
0.0
453
        0
470

  0
SPLINE
  5
C0
330
B9
100
AcDbEntity
  8
レイヤー 1
100
AcDbSpline
210
0.0
220
0.0
230
1.0
 70
    11
 71
     3
 72
    17
 73
    13
 74
     0
 42
0.0000000001
 43
0.0000000001
 40
0.0
 40
0.0
 40
0.0
 40
0.0
 40
1.0
 40
1.0
 40
1.0
 40
2.0
 40
2.0
 40
2.0
 40
3.0
 40
3.0
 40
3.0
 40
4.0
 40
4.0
 40
4.0
 40
4.0
 10
88.94185788792078
 20
-145.8047091649377
 30
0.0
 10
88.94185788792078
 20
-145.8047091649377
 30
0.0
 10
88.69019366272329
 20
-145.8047091649377
 30
0.0
 10
88.69019366272329
 20
-145.8047091649377
 30
0.0
 10
88.69019366272329
 20
-145.8047091649377
 30
0.0
 10
88.69019366272329
 20
-145.5528726849659
 30
0.0
 10
88.69019366272329
 20
-145.5528726849659
 30
0.0
 10
88.69019366272329
 20
-145.5528726849659
 30
0.0
 10
88.94185788792078
 20
-145.5528726849659
 30
0.0
 10
88.94185788792078
 20
-145.5528726849659
 30
0.0
 10
88.94185788792078
 20
-145.5528726849659
 30
0.0
 10
88.94185788792078
 20
-145.8047091649377
 30
0.0
 10
88.94185788792078
 20
-145.8047091649377
 30
0.0
  0
HATCH
  5
C1
330
B9
100
AcDbEntity
  8
レイヤー 1
 62
   250
420
  2299925
440
 33554687
100
AcDbHatch
 10
0.0
 20
0.0
 30
0.0
210
0.0
220
0.0
230
1.0
  2
SOLID
 70
     1
 71
     1
 91
        1
 92
        1
 93
        1
 72
     4
 94
        3
 73
     0
 74
     0
 95
       17
 96
       13
 40
0.0
 40
0.0
 40
0.0
 40
0.0
 40
1.0
 40
1.0
 40
1.0
 40
2.0
 40
2.0
 40
2.0
 40
3.0
 40
3.0
 40
3.0
 40
4.0
 40
4.0
 40
4.0
 40
4.0
 10
88.94185788792078
 20
-145.8047091649377
 10
88.94185788792078
 20
-145.8047091649377
 10
88.69019366272329
 20
-145.8047091649377
 10
88.69019366272329
 20
-145.8047091649377
 10
88.69019366272329
 20
-145.8047091649377
 10
88.69019366272329
 20
-145.5528726849659
 10
88.69019366272329
 20
-145.5528726849659
 10
88.69019366272329
 20
-145.5528726849659
 10
88.94185788792078
 20
-145.5528726849659
 10
88.94185788792078
 20
-145.5528726849659
 10
88.94185788792078
 20
-145.5528726849659
 10
88.94185788792078
 20
-145.8047091649377
 10
88.94185788792078
 20
-145.8047091649377
 97
        0
 97
        1
330
C0
 75
     2
 76
     1
 98
        1
 10
0.0
 20
0.0
450
        0
451
        0
460
0.0
461
0.0
452
        0
462
0.0
453
        0
470

  0
SPLINE
  5
C2
330
B9
100
AcDbEntity
  8
レイヤー 1
100
AcDbSpline
210
0.0
220
0.0
230
1.0
 70
     9
 71
     3
 72
    53
 73
    49
 74
     0
 42
0.0000000001
 43
0.0000000001
 40
0.0
 40
0.0
 40
0.0
 40
0.0
 40
1.0
 40
1.0
 40
1.0
 40
2.0
 40
2.0
 40
2.0
 40
3.0
 40
3.0
 40
3.0
 40
4.0
 40
4.0
 40
4.0
 40
5.0
 40
5.0
 40
5.0
 40
6.0
 40
6.0
 40
6.0
 40
7.0
 40
7.0
 40
7.0
 40
8.0
 40
8.0
 40
8.0
 40
9.0
 40
9.0
 40
9.0
 40
10.0
 40
10.0
 40
10.0
 40
11.0
 40
11.0
 40
11.0
 40
12.0
 40
12.0
 40
12.0
 40
13.0
 40
13.0
 40
13.0
 40
14.0
 40
14.0
 40
14.0
 40
15.0
 40
15.0
 40
15.0
 40
16.0
 40
16.0
 40
16.0
 40
16.0
 10
88.99267304632822
 20
-144.8356038049369
 30
0.0
 10
88.99267304632822
 20
-144.9138074724521
 30
0.0
 10
88.97579207845049
 20
-145.0154377892669
 30
0.0
 10
88.91223006674763
 20
-145.1170681060818
 30
0.0
 10
88.8021592659939
 20
-145.2903564089899
 30
0.0
 10
88.67107338278016
 20
-145.3117160009985
 30
0.0
 10
88.56324189409184
 20
-145.3306640261673
 30
0.0
 10
88.56324189409184
 20
-145.3306640261673
 30
0.0
 10
88.56324189409184
 20
-145.1084553673687
 30
0.0
 10
88.56324189409184
 20
-145.1084553673687
 30
0.0
 10
88.76202390359074
 20
-145.0536783491532
 30
0.0
 10
88.79165172476389
 20
-144.9265543257475
 30
0.0
 10
88.79165172476389
 20
-144.8335367476458
 30
0.0
 10
88.79165172476389
 20
-144.6940103804932
 30
0.0
 10
88.69226072001444
 20
-144.5417371600451
 30
0.0
 10
88.45954451998581
 20
-144.5417371600451
 30
0.0
 10
88.20357392543176
 20
-144.5417371600451
 30
0.0
 10
88.13381074185544
 20
-144.7215711443751
 30
0.0
 10
88.13381074185544
 20
-144.8421494863589
 30
0.0
 10
88.13381074185544
 20
-144.8738443648232
 30
0.0
 10
88.13381074185544
 20
-145.0154377892669
 30
0.0
 10
88.26282956777804
 20
-145.1043212527864
 30
0.0
 10
88.26282956777804
 20
-145.1043212527864
 30
0.0
 10
88.24370928783491
 20
-145.2800211225341
 30
0.0
 10
88.24370928783491
 20
-145.2800211225341
 30
0.0
 10
88.24370928783491
 20
-145.2800211225341
 30
0.0
 10
87.39759383665754
 20
-145.1594427805504
 30
0.0
 10
87.39759383665754
 20
-145.1594427805504
 30
0.0
 10
87.39759383665754
 20
-145.1594427805504
 30
0.0
 10
87.39759383665754
 20
-144.3808512008839
 30
0.0
 10
87.39759383665754
 20
-144.3808512008839
 30
0.0
 10
87.39759383665754
 20
-144.3808512008839
 30
0.0
 10
87.59224173157416
 20
-144.3808512008839
 30
0.0
 10
87.59224173157416
 20
-144.3808512008839
 30
0.0
 10
87.59224173157416
 20
-144.3808512008839
 30
0.0
 10
87.59224173157416
 20
-144.9964897640981
 30
0.0
 10
87.59224173157416
 20
-144.9964897640981
 30
0.0
 10
87.59224173157416
 20
-144.9964897640981
 30
0.0
 10
88.01529945716284
 20
-145.0619465783178
 30
0.0
 10
88.01529945716284
 20
-145.0619465783178
 30
0.0
 10
87.98136526663313
 20
-145.0006238786804
 30
0.0
 10
87.94122990422996
 20
-144.9182860965829
 30
0.0
 10
87.94122990422996
 20
-144.7997748118903
 30
0.0
 10
87.94122990422996
 20
-144.5458712746274
 30
0.0
 10
88.12743731520773
 20
-144.3088487052422
 30
0.0
 10
88.44042424004268
 20
-144.3088487052422
 30
0.0
 10
88.75788978900844
 20
-144.3088487052422
 30
0.0
 10
88.99267304632822
 20
-144.533124421332
 30
0.0
 10
88.99267304632822
 20
-144.8356038049369
 30
0.0
  0
HATCH
  5
C3
330
B9
100
AcDbEntity
  8
レイヤー 1
 62
   250
420
  2299925
440
 33554687
100
AcDbHatch
 10
0.0
 20
0.0
 30
0.0
210
0.0
220
0.0
230
1.0
  2
SOLID
 70
     1
 71
     1
 91
        1
 92
        1
 93
        1
 72
     4
 94
        3
 73
     0
 74
     0
 95
       53
 96
       49
 40
0.0
 40
0.0
 40
0.0
 40
0.0
 40
1.0
 40
1.0
 40
1.0
 40
2.0
 40
2.0
 40
2.0
 40
3.0
 40
3.0
 40
3.0
 40
4.0
 40
4.0
 40
4.0
 40
5.0
 40
5.0
 40
5.0
 40
6.0
 40
6.0
 40
6.0
 40
7.0
 40
7.0
 40
7.0
 40
8.0
 40
8.0
 40
8.0
 40
9.0
 40
9.0
 40
9.0
 40
10.0
 40
10.0
 40
10.0
 40
11.0
 40
11.0
 40
11.0
 40
12.0
 40
12.0
 40
12.0
 40
13.0
 40
13.0
 40
13.0
 40
14.0
 40
14.0
 40
14.0
 40
15.0
 40
15.0
 40
15.0
 40
16.0
 40
16.0
 40
16.0
 40
16.0
 10
88.99267304632822
 20
-144.8356038049369
 10
88.99267304632822
 20
-144.9138074724521
 10
88.97579207845049
 20
-145.0154377892669
 10
88.91223006674763
 20
-145.1170681060818
 10
88.8021592659939
 20
-145.2903564089899
 10
88.67107338278016
 20
-145.3117160009985
 10
88.56324189409184
 20
-145.3306640261673
 10
88.56324189409184
 20
-145.3306640261673
 10
88.56324189409184
 20
-145.1084553673687
 10
88.56324189409184
 20
-145.1084553673687
 10
88.76202390359074
 20
-145.0536783491532
 10
88.79165172476389
 20
-144.9265543257475
 10
88.79165172476389
 20
-144.8335367476458
 10
88.79165172476389
 20
-144.6940103804932
 10
88.69226072001444
 20
-144.5417371600451
 10
88.45954451998581
 20
-144.5417371600451
 10
88.20357392543176
 20
-144.5417371600451
 10
88.13381074185544
 20
-144.7215711443751
 10
88.13381074185544
 20
-144.8421494863589
 10
88.13381074185544
 20
-144.8738443648232
 10
88.13381074185544
 20
-145.0154377892669
 10
88.26282956777804
 20
-145.1043212527864
 10
88.26282956777804
 20
-145.1043212527864
 10
88.24370928783491
 20
-145.2800211225341
 10
88.24370928783491
 20
-145.2800211225341
 10
88.24370928783491
 20
-145.2800211225341
 10
87.39759383665754
 20
-145.1594427805504
 10
87.39759383665754
 20
-145.1594427805504
 10
87.39759383665754
 20
-145.1594427805504
 10
87.39759383665754
 20
-144.3808512008839
 10
87.39759383665754
 20
-144.3808512008839
 10
87.39759383665754
 20
-144.3808512008839
 10
87.59224173157416
 20
-144.3808512008839
 10
87.59224173157416
 20
-144.3808512008839
 10
87.59224173157416
 20
-144.3808512008839
 10
87.59224173157416
 20
-144.9964897640981
 10
87.59224173157416
 20
-144.9964897640981
 10
87.59224173157416
 20
-144.9964897640981
 10
88.01529945716284
 20
-145.0619465783178
 10
88.01529945716284
 20
-145.0619465783178
 10
87.98136526663313
 20
-145.0006238786804
 10
87.94122990422996
 20
-144.9182860965829
 10
87.94122990422996
 20
-144.7997748118903
 10
87.94122990422996
 20
-144.5458712746274
 10
88.12743731520773
 20
-144.3088487052422
 10
88.44042424004268
 20
-144.3088487052422
 10
88.75788978900844
 20
-144.3088487052422
 10
88.99267304632822
 20
-144.533124421332
 10
88.99267304632822
 20
-144.8356038049369
 97
        0
 97
        1
330
C2
 75
     2
 76
     1
 98
        1
 10
0.0
 20
0.0
450
        0
451
        0
460
0.0
461
0.0
452
        0
462
0.0
453
        0
470

  0
ENDBLK
  5
BC
330
B9
100
AcDbEntity
  8
0
100
AcDbBlockEnd
  0
BLOCK
  5
C8
330
C6
100
AcDbEntity
  8
0
100
AcDbBlockBegin
  2
Block_2
 70
     0
 10
0.0
 20
0.0
 30
0.0
  3
Block_2
  1

  0
INSERT
  5
CB
330
C6
100
AcDbEntity
  8
レイヤー 1
100
AcDbBlockReference
  2
Block_3
 10
0.0
 20
0.0
 30
0.0
  0
ENDBLK
  5
C9
330
C6
100
AcDbEntity
  8
0
100
AcDbBlockEnd
  0
BLOCK
  5
CC
330
CA
100
AcDbEntity
  8
0
100
AcDbBlockBegin
  2
Block_3
 70
     0
 10
0.0
 20
0.0
 30
0.0
  3
Block_3
  1

  0
SPLINE
  5
CE
330
CA
100
AcDbEntity
  8
レイヤー 1
100
AcDbSpline
210
0.0
220
0.0
230
1.0
 70
     9
 71
     3
 72
    44
 73
    40
 74
     0
 42
0.0000000001
 43
0.0000000001
 40
0.0
 40
0.0
 40
0.0
 40
0.0
 40
1.0
 40
1.0
 40
1.0
 40
2.0
 40
2.0
 40
2.0
 40
3.0
 40
3.0
 40
3.0
 40
4.0
 40
4.0
 40
4.0
 40
5.0
 40
5.0
 40
5.0
 40
6.0
 40
6.0
 40
6.0
 40
7.0
 40
7.0
 40
7.0
 40
8.0
 40
8.0
 40
8.0
 40
9.0
 40
9.0
 40
9.0
 40
10.0
 40
10.0
 40
10.0
 40
11.0
 40
11.0
 40
11.0
 40
12.0
 40
12.0
 40
12.0
 40
13.0
 40
13.0
 40
13.0
 40
13.0
 10
104.3905273176523
 20
-139.3720268748792
 30
0.0
 10
104.1726250282103
 20
-139.530673521975
 30
0.0
 10
104.0794351953343
 20
-139.6047430749078
 30
0.0
 10
104.0308593489923
 20
-139.748575811417
 30
0.0
 10
104.0308593489923
 20
-139.748575811417
 30
0.0
 10
104.8092786738845
 20
-139.748575811417
 30
0.0
 10
104.8092786738845
 20
-139.748575811417
 30
0.0
 10
104.8092786738845
 20
-139.748575811417
 30
0.0
 10
104.8092786738845
 20
-139.9537312475636
 30
0.0
 10
104.8092786738845
 20
-139.9537312475636
 30
0.0
 10
104.8092786738845
 20
-139.9537312475636
 30
0.0
 10
103.7812621810859
 20
-139.9537312475636
 30
0.0
 10
103.7812621810859
 20
-139.9537312475636
 30
0.0
 10
103.8129570595502
 20
-139.5961303361947
 30
0.0
 10
103.87841387377
 20
-139.5179266686795
 30
0.0
 10
104.2635755490209
 20
-139.2195813996569
 30
0.0
 10
104.519546143575
 20
-139.020799390158
 30
0.0
 10
104.5850029577947
 20
-138.9531032638728
 30
0.0
 10
104.5850029577947
 20
-138.8156439540113
 30
0.0
 10
104.5850029577947
 20
-138.6971326693188
 30
0.0
 10
104.5131727169273
 20
-138.5658745313307
 30
0.0
 10
104.3164577647195
 20
-138.5658745313307
 30
0.0
 10
104.0561808008088
 20
-138.5658745313307
 30
0.0
 10
104.04774031687
 20
-138.7965236740682
 30
0.0
 10
104.0434339475134
 20
-138.9129679014696
 30
0.0
 10
104.0434339475134
 20
-138.9129679014696
 30
0.0
 10
103.8193304861979
 20
-138.9129679014696
 30
0.0
 10
103.8193304861979
 20
-138.9129679014696
 30
0.0
 10
103.8277709701368
 20
-138.7860161328382
 30
0.0
 10
103.8382785113668
 20
-138.6738782747933
 30
0.0
 10
103.9187214909474
 20
-138.5553669901007
 30
0.0
 10
104.0286200369268
 20
-138.3946532857138
 30
0.0
 10
104.2148274479046
 20
-138.3607190951841
 30
0.0
 10
104.331271675306
 20
-138.3607190951841
 30
0.0
 10
104.6084296070944
 20
-138.3607190951841
 30
0.0
 10
104.8156521005322
 20
-138.5448594488707
 30
0.0
 10
104.8156521005322
 20
-138.8177110113025
 30
0.0
 10
104.8156521005322
 20
-139.0461208419746
 30
0.0
 10
104.699380127905
 20
-139.1456841014983
 30
0.0
 10
104.3905273176523
 20
-139.3720268748792
 30
0.0
  0
HATCH
  5
CF
330
CA
100
AcDbEntity
  8
レイヤー 1
 62
   250
420
  2299925
440
 33554687
100
AcDbHatch
 10
0.0
 20
0.0
 30
0.0
210
0.0
220
0.0
230
1.0
  2
SOLID
 70
     1
 71
     1
 91
        1
 92
        1
 93
        1
 72
     4
 94
        3
 73
     0
 74
     0
 95
       44
 96
       40
 40
0.0
 40
0.0
 40
0.0
 40
0.0
 40
1.0
 40
1.0
 40
1.0
 40
2.0
 40
2.0
 40
2.0
 40
3.0
 40
3.0
 40
3.0
 40
4.0
 40
4.0
 40
4.0
 40
5.0
 40
5.0
 40
5.0
 40
6.0
 40
6.0
 40
6.0
 40
7.0
 40
7.0
 40
7.0
 40
8.0
 40
8.0
 40
8.0
 40
9.0
 40
9.0
 40
9.0
 40
10.0
 40
10.0
 40
10.0
 40
11.0
 40
11.0
 40
11.0
 40
12.0
 40
12.0
 40
12.0
 40
13.0
 40
13.0
 40
13.0
 40
13.0
 10
104.3905273176523
 20
-139.3720268748792
 10
104.1726250282103
 20
-139.530673521975
 10
104.0794351953343
 20
-139.6047430749078
 10
104.0308593489923
 20
-139.748575811417
 10
104.0308593489923
 20
-139.748575811417
 10
104.8092786738845
 20
-139.748575811417
 10
104.8092786738845
 20
-139.748575811417
 10
104.8092786738845
 20
-139.748575811417
 10
104.8092786738845
 20
-139.9537312475636
 10
104.8092786738845
 20
-139.9537312475636
 10
104.8092786738845
 20
-139.9537312475636
 10
103.7812621810859
 20
-139.9537312475636
 10
103.7812621810859
 20
-139.9537312475636
 10
103.8129570595502
 20
-139.5961303361947
 10
103.87841387377
 20
-139.5179266686795
 10
104.2635755490209
 20
-139.2195813996569
 10
104.519546143575
 20
-139.020799390158
 10
104.5850029577947
 20
-138.9531032638728
 10
104.5850029577947
 20
-138.8156439540113
 10
104.5850029577947
 20
-138.6971326693188
 10
104.5131727169273
 20
-138.5658745313307
 10
104.3164577647195
 20
-138.5658745313307
 10
104.0561808008088
 20
-138.5658745313307
 10
104.04774031687
 20
-138.7965236740682
 10
104.0434339475134
 20
-138.9129679014696
 10
104.0434339475134
 20
-138.9129679014696
 10
103.8193304861979
 20
-138.9129679014696
 10
103.8193304861979
 20
-138.9129679014696
 10
103.8277709701368
 20
-138.7860161328382
 10
103.8382785113668
 20
-138.6738782747933
 10
103.9187214909474
 20
-138.5553669901007
 10
104.0286200369268
 20
-138.3946532857138
 10
104.2148274479046
 20
-138.3607190951841
 10
104.331271675306
 20
-138.3607190951841
 10
104.6084296070944
 20
-138.3607190951841
 10
104.8156521005322
 20
-138.5448594488707
 10
104.8156521005322
 20
-138.8177110113025
 10
104.8156521005322
 20
-139.0461208419746
 10
104.699380127905
 20
-139.1456841014983
 10
104.3905273176523
 20
-139.3720268748792
 97
        0
 97
        1
330
CE
 75
     2
 76
     1
 98
        1
 10
0.0
 20
0.0
450
        0
451
        0
460
0.0
461
0.0
452
        0
462
0.0
453
        0
470

  0
SPLINE
  5
D0
330
CA
100
AcDbEntity
  8
レイヤー 1
100
AcDbSpline
210
0.0
220
0.0
230
1.0
 70
    11
 71
     3
 72
    26
 73
    22
 74
     0
 42
0.0000000001
 43
0.0000000001
 40
0.0
 40
0.0
 40
0.0
 40
0.0
 40
1.0
 40
1.0
 40
1.0
 40
2.0
 40
2.0
 40
2.0
 40
3.0
 40
3.0
 40
3.0
 40
4.0
 40
4.0
 40
4.0
 40
5.0
 40
5.0
 40
5.0
 40
6.0
 40
6.0
 40
6.0
 40
7.0
 40
7.0
 40
7.0
 40
7.0
 10
105.4256062561957
 20
-139.9537312475636
 30
0.0
 10
105.4256062561957
 20
-139.9537312475636
 30
0.0
 10
105.4256062561957
 20
-138.8494058897668
 30
0.0
 10
105.4256062561957
 20
-138.8494058897668
 30
0.0
 10
105.4256062561957
 20
-138.8494058897668
 30
0.0
 10
105.0955661087087
 20
-138.8494058897668
 30
0.0
 10
105.0955661087087
 20
-138.8494058897668
 30
0.0
 10
105.0955661087087
 20
-138.8494058897668
 30
0.0
 10
105.0955661087087
 20
-138.7012667839011
 30
0.0
 10
105.0955661087087
 20
-138.7012667839011
 30
0.0
 10
105.4276733134868
 20
-138.6866251280887
 30
0.0
 10
105.4741821025377
 20
-138.5236721116364
 30
0.0
 10
105.5036376689366
 20
-138.4094671963004
 30
0.0
 10
105.5036376689366
 20
-138.4094671963004
 30
0.0
 10
105.6497097175112
 20
-138.4094671963004
 30
0.0
 10
105.6497097175112
 20
-138.4094671963004
 30
0.0
 10
105.6497097175112
 20
-138.4094671963004
 30
0.0
 10
105.6497097175112
 20
-139.9537312475636
 30
0.0
 10
105.6497097175112
 20
-139.9537312475636
 30
0.0
 10
105.6497097175112
 20
-139.9537312475636
 30
0.0
 10
105.4256062561957
 20
-139.9537312475636
 30
0.0
 10
105.4256062561957
 20
-139.9537312475636
 30
0.0
  0
HATCH
  5
D1
330
CA
100
AcDbEntity
  8
レイヤー 1
 62
   250
420
  2299925
440
 33554687
100
AcDbHatch
 10
0.0
 20
0.0
 30
0.0
210
0.0
220
0.0
230
1.0
  2
SOLID
 70
     1
 71
     1
 91
        1
 92
        1
 93
        1
 72
     4
 94
        3
 73
     0
 74
     0
 95
       26
 96
       22
 40
0.0
 40
0.0
 40
0.0
 40
0.0
 40
1.0
 40
1.0
 40
1.0
 40
2.0
 40
2.0
 40
2.0
 40
3.0
 40
3.0
 40
3.0
 40
4.0
 40
4.0
 40
4.0
 40
5.0
 40
5.0
 40
5.0
 40
6.0
 40
6.0
 40
6.0
 40
7.0
 40
7.0
 40
7.0
 40
7.0
 10
105.4256062561957
 20
-139.9537312475636
 10
105.4256062561957
 20
-139.9537312475636
 10
105.4256062561957
 20
-138.8494058897668
 10
105.4256062561957
 20
-138.8494058897668
 10
105.4256062561957
 20
-138.8494058897668
 10
105.0955661087087
 20
-138.8494058897668
 10
105.0955661087087
 20
-138.8494058897668
 10
105.0955661087087
 20
-138.8494058897668
 10
105.0955661087087
 20
-138.7012667839011
 10
105.0955661087087
 20
-138.7012667839011
 10
105.4276733134868
 20
-138.6866251280887
 10
105.4741821025377
 20
-138.5236721116364
 10
105.5036376689366
 20
-138.4094671963004
 10
105.5036376689366
 20
-138.4094671963004
 10
105.6497097175112
 20
-138.4094671963004
 10
105.6497097175112
 20
-138.4094671963004
 10
105.6497097175112
 20
-138.4094671963004
 10
105.6497097175112
 20
-139.9537312475636
 10
105.6497097175112
 20
-139.9537312475636
 10
105.6497097175112
 20
-139.9537312475636
 10
105.4256062561957
 20
-139.9537312475636
 10
105.4256062561957
 20
-139.9537312475636
 97
        0
 97
        1
330
D0
 75
     2
 76
     1
 98
        1
 10
0.0
 20
0.0
450
        0
451
        0
460
0.0
461
0.0
452
        0
462
0.0
453
        0
470

  0
ENDBLK
  5
CD
330
CA
100
AcDbEntity
  8
0
100
AcDbBlockEnd
  0
BLOCK
  5
D6
330
D4
100
AcDbEntity
  8
0
100
AcDbBlockBegin
  2
Block_4
 70
     0
 10
0.0
 20
0.0
 30
0.0
  3
Block_4
  1

  0
SPLINE
  5
D8
330
D4
100
AcDbEntity
  8
レイヤー 1
100
AcDbSpline
210
0.0
220
0.0
230
1.0
 70
     9
 71
     3
 72
    17
 73
    13
 74
     0
 42
0.0000000001
 43
0.0000000001
 40
0.0
 40
0.0
 40
0.0
 40
0.0
 40
1.0
 40
1.0
 40
1.0
 40
2.0
 40
2.0
 40
2.0
 40
3.0
 40
3.0
 40
3.0
 40
4.0
 40
4.0
 40
4.0
 40
4.0
 10
88.93203936578784
 20
-149.9281439512332
 30
0.0
 10
88.93203936578784
 20
-150.0718044329682
 30
0.0
 10
89.01868351724186
 20
-150.2244221629647
 30
0.0
 10
89.22177189609733
 20
-150.2244221629647
 30
0.0
 10
89.42692733224395
 20
-150.2244221629647
 30
0.0
 10
89.52855764905883
 20
-150.097298139559
 30
0.0
 10
89.52855764905883
 20
-149.9281439512332
 30
0.0
 10
89.52855764905883
 20
-149.7421087950297
 30
0.0
 10
89.40591224978394
 20
-149.6318657395017
 30
0.0
 10
89.22814532274506
 20
-149.6318657395017
 30
0.0
 10
89.00593666394644
 20
-149.6318657395017
 30
0.0
 10
88.93203936578784
 20
-149.7948187559541
 30
0.0
 10
88.93203936578784
 20
-149.9281439512332
 30
0.0
  0
SPLINE
  5
D9
330
D4
100
AcDbEntity
  8
レイヤー 1
100
AcDbSpline
210
0.0
220
0.0
230
1.0
 70
     9
 71
     3
 72
    17
 73
    13
 74
     0
 42
0.0000000001
 43
0.0000000001
 40
0.0
 40
0.0
 40
0.0
 40
0.0
 40
1.0
 40
1.0
 40
1.0
 40
2.0
 40
2.0
 40
2.0
 40
3.0
 40
3.0
 40
3.0
 40
4.0
 40
4.0
 40
4.0
 40
4.0
 10
88.27195907081396
 20
-149.9281439512332
 30
0.0
 10
88.27195907081396
 20
-150.0931640249767
 30
0.0
 10
88.36704370620685
 20
-150.1779133739138
 30
0.0
 10
88.50243595877717
 20
-150.1779133739138
 30
0.0
 10
88.62525361282633
 20
-150.1779133739138
 30
0.0
 10
88.74376489751893
 20
-150.1059108782721
 30
0.0
 10
88.74376489751893
 20
-149.9281439512332
 30
0.0
 10
88.74376489751893
 20
-149.7503770241943
 30
0.0
 10
88.62525361282633
 20
-149.6783745285526
 30
0.0
 10
88.50243595877717
 20
-149.6783745285526
 30
0.0
 10
88.36704370620685
 20
-149.6783745285526
 30
0.0
 10
88.27195907081396
 20
-149.7651909347809
 30
0.0
 10
88.27195907081396
 20
-149.9281439512332
 30
0.0
  0
SPLINE
  5
DA
330
D4
100
AcDbEntity
  8
レイヤー 1
100
AcDbSpline
210
0.0
220
0.0
230
1.0
 70
     9
 71
     3
 72
    29
 73
    25
 74
     0
 42
0.0000000001
 43
0.0000000001
 40
0.0
 40
0.0
 40
0.0
 40
0.0
 40
1.0
 40
1.0
 40
1.0
 40
2.0
 40
2.0
 40
2.0
 40
3.0
 40
3.0
 40
3.0
 40
4.0
 40
4.0
 40
4.0
 40
5.0
 40
5.0
 40
5.0
 40
6.0
 40
6.0
 40
6.0
 40
7.0
 40
7.0
 40
7.0
 40
8.0
 40
8.0
 40
8.0
 40
8.0
 10
89.72320554397546
 20
-149.9281439512332
 30
0.0
 10
89.72320554397546
 20
-150.1947943417915
 30
0.0
 10
89.58557397933972
 20
-150.4486978790545
 30
0.0
 10
89.23658580668393
 20
-150.4486978790545
 30
0.0
 10
88.98061521212985
 20
-150.4486978790545
 30
0.0
 10
88.8853583219627
 20
-150.3067599450622
 30
0.0
 10
88.82403562232523
 20
-150.200995513665
 30
0.0
 10
88.76477997997895
 20
-150.3257079702311
 30
0.0
 10
88.65057506464292
 20
-150.4018445804551
 30
0.0
 10
88.48986136025601
 20
-150.4018445804551
 30
0.0
 10
88.2147704857588
 20
-150.4018445804551
 30
0.0
 10
88.0793782331885
 20
-150.2030625709562
 30
0.0
 10
88.0793782331885
 20
-149.9281439512332
 30
0.0
 10
88.0793782331885
 20
-149.6446125927972
 30
0.0
 10
88.22321096969767
 20
-149.4540988124628
 30
0.0
 10
88.48986136025601
 20
-149.4540988124628
 30
0.0
 10
88.65057506464292
 20
-149.4540988124628
 30
0.0
 10
88.76477997997895
 20
-149.5326469895266
 30
0.0
 10
88.82403562232523
 20
-149.6573594460926
 30
0.0
 10
88.87485078073268
 20
-149.5684759825732
 30
0.0
 10
88.97010767089984
 20
-149.4096570807031
 30
0.0
 10
89.23245169210161
 20
-149.4096570807031
 30
0.0
 10
89.606761316574
 20
-149.4096570807031
 30
0.0
 10
89.72320554397546
 20
-149.6890543245569
 30
0.0
 10
89.72320554397546
 20
-149.9281439512332
 30
0.0
  0
HATCH
  5
DB
330
D4
100
AcDbEntity
  8
レイヤー 1
 62
   250
420
  2299925
440
 33554687
100
AcDbHatch
 10
0.0
 20
0.0
 30
0.0
210
0.0
220
0.0
230
1.0
  2
SOLID
 70
     1
 71
     1
 91
        3
 92
        1
 93
        1
 72
     4
 94
        3
 73
     0
 74
     0
 95
       17
 96
       13
 40
0.0
 40
0.0
 40
0.0
 40
0.0
 40
1.0
 40
1.0
 40
1.0
 40
2.0
 40
2.0
 40
2.0
 40
3.0
 40
3.0
 40
3.0
 40
4.0
 40
4.0
 40
4.0
 40
4.0
 10
88.93203936578784
 20
-149.9281439512332
 10
88.93203936578784
 20
-150.0718044329682
 10
89.01868351724186
 20
-150.2244221629647
 10
89.22177189609733
 20
-150.2244221629647
 10
89.42692733224395
 20
-150.2244221629647
 10
89.52855764905883
 20
-150.097298139559
 10
89.52855764905883
 20
-149.9281439512332
 10
89.52855764905883
 20
-149.7421087950297
 10
89.40591224978394
 20
-149.6318657395017
 10
89.22814532274506
 20
-149.6318657395017
 10
89.00593666394644
 20
-149.6318657395017
 10
88.93203936578784
 20
-149.7948187559541
 10
88.93203936578784
 20
-149.9281439512332
 97
        0
 97
        1
330
D8
 92
        1
 93
        1
 72
     4
 94
        3
 73
     0
 74
     0
 95
       17
 96
       13
 40
0.0
 40
0.0
 40
0.0
 40
0.0
 40
1.0
 40
1.0
 40
1.0
 40
2.0
 40
2.0
 40
2.0
 40
3.0
 40
3.0
 40
3.0
 40
4.0
 40
4.0
 40
4.0
 40
4.0
 10
88.27195907081396
 20
-149.9281439512332
 10
88.27195907081396
 20
-150.0931640249767
 10
88.36704370620685
 20
-150.1779133739138
 10
88.50243595877717
 20
-150.1779133739138
 10
88.62525361282633
 20
-150.1779133739138
 10
88.74376489751893
 20
-150.1059108782721
 10
88.74376489751893
 20
-149.9281439512332
 10
88.74376489751893
 20
-149.7503770241943
 10
88.62525361282633
 20
-149.6783745285526
 10
88.50243595877717
 20
-149.6783745285526
 10
88.36704370620685
 20
-149.6783745285526
 10
88.27195907081396
 20
-149.7651909347809
 10
88.27195907081396
 20
-149.9281439512332
 97
        0
 97
        1
330
D9
 92
        1
 93
        1
 72
     4
 94
        3
 73
     0
 74
     0
 95
       29
 96
       25
 40
0.0
 40
0.0
 40
0.0
 40
0.0
 40
1.0
 40
1.0
 40
1.0
 40
2.0
 40
2.0
 40
2.0
 40
3.0
 40
3.0
 40
3.0
 40
4.0
 40
4.0
 40
4.0
 40
5.0
 40
5.0
 40
5.0
 40
6.0
 40
6.0
 40
6.0
 40
7.0
 40
7.0
 40
7.0
 40
8.0
 40
8.0
 40
8.0
 40
8.0
 10
89.72320554397546
 20
-149.9281439512332
 10
89.72320554397546
 20
-150.1947943417915
 10
89.58557397933972
 20
-150.4486978790545
 10
89.23658580668393
 20
-150.4486978790545
 10
88.98061521212985
 20
-150.4486978790545
 10
88.8853583219627
 20
-150.3067599450622
 10
88.82403562232523
 20
-150.200995513665
 10
88.76477997997895
 20
-150.3257079702311
 10
88.65057506464292
 20
-150.4018445804551
 10
88.48986136025601
 20
-150.4018445804551
 10
88.2147704857588
 20
-150.4018445804551
 10
88.0793782331885
 20
-150.2030625709562
 10
88.0793782331885
 20
-149.9281439512332
 10
88.0793782331885
 20
-149.6446125927972
 10
88.22321096969767
 20
-149.4540988124628
 10
88.48986136025601
 20
-149.4540988124628
 10
88.65057506464292
 20
-149.4540988124628
 10
88.76477997997895
 20
-149.5326469895266
 10
88.82403562232523
 20
-149.6573594460926
 10
88.87485078073268
 20
-149.5684759825732
 10
88.97010767089984
 20
-149.4096570807031
 10
89.23245169210161
 20
-149.4096570807031
 10
89.606761316574
 20
-149.4096570807031
 10
89.72320554397546
 20
-149.6890543245569
 10
89.72320554397546
 20
-149.9281439512332
 97
        0
 97
        1
330
DA
 75
     2
 76
     1
 98
        1
 10
0.0
 20
0.0
450
        0
451
        0
460
0.0
461
0.0
452
        0
462
0.0
453
        0
470

  0
ENDBLK
  5
D7
330
D4
100
AcDbEntity
  8
0
100
AcDbBlockEnd
  0
BLOCK
  5
E1
330
DF
100
AcDbEntity
  8
0
100
AcDbBlockBegin
  2
Block_5
 70
     0
 10
0.0
 20
0.0
 30
0.0
  3
Block_5
  1

  0
INSERT
  5
E4
330
DF
100
AcDbEntity
  8
レイヤー 1
100
AcDbBlockReference
  2
Block_6
 10
0.0
 20
0.0
 30
0.0
  0
ENDBLK
  5
E2
330
DF
100
AcDbEntity
  8
0
100
AcDbBlockEnd
  0
BLOCK
  5
E5
330
E3
100
AcDbEntity
  8
0
100
AcDbBlockBegin
  2
Block_6
 70
     0
 10
0.0
 20
0.0
 30
0.0
  3
Block_6
  1

  0
SPLINE
  5
E7
330
E3
100
AcDbEntity
  8
レイヤー 1
100
AcDbSpline
210
0.0
220
0.0
230
1.0
 70
    11
 71
     3
 72
    26
 73
    22
 74
     0
 42
0.0000000001
 43
0.0000000001
 40
0.0
 40
0.0
 40
0.0
 40
0.0
 40
1.0
 40
1.0
 40
1.0
 40
2.0
 40
2.0
 40
2.0
 40
3.0
 40
3.0
 40
3.0
 40
4.0
 40
4.0
 40
4.0
 40
5.0
 40
5.0
 40
5.0
 40
6.0
 40
6.0
 40
6.0
 40
7.0
 40
7.0
 40
7.0
 40
7.0
 10
122.249557803639
 20
-139.9528699736923
 30
0.0
 10
122.249557803639
 20
-139.9528699736923
 30
0.0
 10
122.249557803639
 20
-138.8485446158955
 30
0.0
 10
122.249557803639
 20
-138.8485446158955
 30
0.0
 10
122.249557803639
 20
-138.8485446158955
 30
0.0
 10
121.919517656152
 20
-138.8485446158955
 30
0.0
 10
121.919517656152
 20
-138.8485446158955
 30
0.0
 10
121.919517656152
 20
-138.8485446158955
 30
0.0
 10
121.919517656152
 20
-138.700577764804
 30
0.0
 10
121.919517656152
 20
-138.700577764804
 30
0.0
 10
122.2516248609301
 20
-138.6857638542174
 30
0.0
 10
122.298133649981
 20
-138.5228108377651
 30
0.0
 10
122.3277614711542
 20
-138.4086059224291
 30
0.0
 10
122.3277614711542
 20
-138.4086059224291
 30
0.0
 10
122.4738335197288
 20
-138.4086059224291
 30
0.0
 10
122.4738335197288
 20
-138.4086059224291
 30
0.0
 10
122.4738335197288
 20
-138.4086059224291
 30
0.0
 10
122.4738335197288
 20
-139.9528699736923
 30
0.0
 10
122.4738335197288
 20
-139.9528699736923
 30
0.0
 10
122.4738335197288
 20
-139.9528699736923
 30
0.0
 10
122.249557803639
 20
-139.9528699736923
 30
0.0
 10
122.249557803639
 20
-139.9528699736923
 30
0.0
  0
HATCH
  5
E8
330
E3
100
AcDbEntity
  8
レイヤー 1
 62
   250
420
  2299925
440
 33554687
100
AcDbHatch
 10
0.0
 20
0.0
 30
0.0
210
0.0
220
0.0
230
1.0
  2
SOLID
 70
     1
 71
     1
 91
        1
 92
        1
 93
        1
 72
     4
 94
        3
 73
     0
 74
     0
 95
       26
 96
       22
 40
0.0
 40
0.0
 40
0.0
 40
0.0
 40
1.0
 40
1.0
 40
1.0
 40
2.0
 40
2.0
 40
2.0
 40
3.0
 40
3.0
 40
3.0
 40
4.0
 40
4.0
 40
4.0
 40
5.0
 40
5.0
 40
5.0
 40
6.0
 40
6.0
 40
6.0
 40
7.0
 40
7.0
 40
7.0
 40
7.0
 10
122.249557803639
 20
-139.9528699736923
 10
122.249557803639
 20
-139.9528699736923
 10
122.249557803639
 20
-138.8485446158955
 10
122.249557803639
 20
-138.8485446158955
 10
122.249557803639
 20
-138.8485446158955
 10
121.919517656152
 20
-138.8485446158955
 10
121.919517656152
 20
-138.8485446158955
 10
121.919517656152
 20
-138.8485446158955
 10
121.919517656152
 20
-138.700577764804
 10
121.919517656152
 20
-138.700577764804
 10
122.2516248609301
 20
-138.6857638542174
 10
122.298133649981
 20
-138.5228108377651
 10
122.3277614711542
 20
-138.4086059224291
 10
122.3277614711542
 20
-138.4086059224291
 10
122.4738335197288
 20
-138.4086059224291
 10
122.4738335197288
 20
-138.4086059224291
 10
122.4738335197288
 20
-138.4086059224291
 10
122.4738335197288
 20
-139.9528699736923
 10
122.4738335197288
 20
-139.9528699736923
 10
122.4738335197288
 20
-139.9528699736923
 10
122.249557803639
 20
-139.9528699736923
 10
122.249557803639
 20
-139.9528699736923
 97
        0
 97
        1
330
E7
 75
     2
 76
     1
 98
        1
 10
0.0
 20
0.0
450
        0
451
        0
460
0.0
461
0.0
452
        0
462
0.0
453
        0
470

  0
SPLINE
  5
E9
330
E3
100
AcDbEntity
  8
レイヤー 1
100
AcDbSpline
210
0.0
220
0.0
230
1.0
 70
     9
 71
     3
 72
    53
 73
    49
 74
     0
 42
0.0000000001
 43
0.0000000001
 40
0.0
 40
0.0
 40
0.0
 40
0.0
 40
1.0
 40
1.0
 40
1.0
 40
2.0
 40
2.0
 40
2.0
 40
3.0
 40
3.0
 40
3.0
 40
4.0
 40
4.0
 40
4.0
 40
5.0
 40
5.0
 40
5.0
 40
6.0
 40
6.0
 40
6.0
 40
7.0
 40
7.0
 40
7.0
 40
8.0
 40
8.0
 40
8.0
 40
9.0
 40
9.0
 40
9.0
 40
10.0
 40
10.0
 40
10.0
 40
11.0
 40
11.0
 40
11.0
 40
12.0
 40
12.0
 40
12.0
 40
13.0
 40
13.0
 40
13.0
 40
14.0
 40
14.0
 40
14.0
 40
15.0
 40
15.0
 40
15.0
 40
16.0
 40
16.0
 40
16.0
 40
16.0
 10
123.4560302425735
 20
-140.0036851320997
 30
0.0
 10
123.3778265750583
 20
-140.0036851320997
 30
0.0
 10
123.2761962582434
 20
-139.9866319094478
 30
0.0
 10
123.1745659414286
 20
-139.9232421525192
 30
0.0
 10
123.0012776385205
 20
-139.8131713517654
 30
0.0
 10
122.979918046512
 20
-139.6820854685517
 30
0.0
 10
122.9609700213431
 20
-139.5742539798634
 30
0.0
 10
122.9609700213431
 20
-139.5742539798634
 30
0.0
 10
123.1831786801417
 20
-139.5742539798634
 30
0.0
 10
123.1831786801417
 20
-139.5742539798634
 30
0.0
 10
123.2379556983572
 20
-139.7730359893623
 30
0.0
 10
123.3650797217629
 20
-139.8026638105354
 30
0.0
 10
123.4580972998646
 20
-139.8026638105354
 30
0.0
 10
123.5976236670172
 20
-139.8026638105354
 30
0.0
 10
123.7498968874653
 20
-139.703272805786
 30
0.0
 10
123.7498968874653
 20
-139.4705566057574
 30
0.0
 10
123.7498968874653
 20
-139.2145860112033
 30
0.0
 10
123.5700629031352
 20
-139.144822827627
 30
0.0
 10
123.4494845611515
 20
-139.144822827627
 30
0.0
 10
123.4177896826872
 20
-139.144822827627
 30
0.0
 10
123.2761962582434
 20
-139.144822827627
 30
0.0
 10
123.187312794724
 20
-139.2738416535496
 30
0.0
 10
123.187312794724
 20
-139.2738416535496
 30
0.0
 10
123.0116129249762
 20
-139.2547213736064
 30
0.0
 10
123.0116129249762
 20
-139.2547213736064
 30
0.0
 10
123.0116129249762
 20
-139.2547213736064
 30
0.0
 10
123.13219126696
 20
-138.4086059224291
 30
0.0
 10
123.13219126696
 20
-138.4086059224291
 30
0.0
 10
123.13219126696
 20
-138.4086059224291
 30
0.0
 10
123.9107828466265
 20
-138.4086059224291
 30
0.0
 10
123.9107828466265
 20
-138.4086059224291
 30
0.0
 10
123.9107828466265
 20
-138.4086059224291
 30
0.0
 10
123.9107828466265
 20
-138.6032538173457
 30
0.0
 10
123.9107828466265
 20
-138.6032538173457
 30
0.0
 10
123.9107828466265
 20
-138.6032538173457
 30
0.0
 10
123.2951442834123
 20
-138.6032538173457
 30
0.0
 10
123.2951442834123
 20
-138.6032538173457
 30
0.0
 10
123.2951442834123
 20
-138.6032538173457
 30
0.0
 10
123.2296874691926
 20
-139.0263115429344
 30
0.0
 10
123.2296874691926
 20
-139.0263115429344
 30
0.0
 10
123.29101016883
 20
-138.9923773524047
 30
0.0
 10
123.3733479509275
 20
-138.9522419900015
 30
0.0
 10
123.4918592356201
 20
-138.9522419900015
 30
0.0
 10
123.745762772883
 20
-138.9522419900015
 30
0.0
 10
123.9827853422682
 20
-139.1384494009793
 30
0.0
 10
123.9827853422682
 20
-139.4514363258142
 30
0.0
 10
123.9827853422682
 20
-139.76890187478
 30
0.0
 10
123.7585096261784
 20
-140.0036851320997
 30
0.0
 10
123.4560302425735
 20
-140.0036851320997
 30
0.0
  0
HATCH
  5
EA
330
E3
100
AcDbEntity
  8
レイヤー 1
 62
   250
420
  2299925
440
 33554687
100
AcDbHatch
 10
0.0
 20
0.0
 30
0.0
210
0.0
220
0.0
230
1.0
  2
SOLID
 70
     1
 71
     1
 91
        1
 92
        1
 93
        1
 72
     4
 94
        3
 73
     0
 74
     0
 95
       53
 96
       49
 40
0.0
 40
0.0
 40
0.0
 40
0.0
 40
1.0
 40
1.0
 40
1.0
 40
2.0
 40
2.0
 40
2.0
 40
3.0
 40
3.0
 40
3.0
 40
4.0
 40
4.0
 40
4.0
 40
5.0
 40
5.0
 40
5.0
 40
6.0
 40
6.0
 40
6.0
 40
7.0
 40
7.0
 40
7.0
 40
8.0
 40
8.0
 40
8.0
 40
9.0
 40
9.0
 40
9.0
 40
10.0
 40
10.0
 40
10.0
 40
11.0
 40
11.0
 40
11.0
 40
12.0
 40
12.0
 40
12.0
 40
13.0
 40
13.0
 40
13.0
 40
14.0
 40
14.0
 40
14.0
 40
15.0
 40
15.0
 40
15.0
 40
16.0
 40
16.0
 40
16.0
 40
16.0
 10
123.4560302425735
 20
-140.0036851320997
 10
123.3778265750583
 20
-140.0036851320997
 10
123.2761962582434
 20
-139.9866319094478
 10
123.1745659414286
 20
-139.9232421525192
 10
123.0012776385205
 20
-139.8131713517654
 10
122.979918046512
 20
-139.6820854685517
 10
122.9609700213431
 20
-139.5742539798634
 10
122.9609700213431
 20
-139.5742539798634
 10
123.1831786801417
 20
-139.5742539798634
 10
123.1831786801417
 20
-139.5742539798634
 10
123.2379556983572
 20
-139.7730359893623
 10
123.3650797217629
 20
-139.8026638105354
 10
123.4580972998646
 20
-139.8026638105354
 10
123.5976236670172
 20
-139.8026638105354
 10
123.7498968874653
 20
-139.703272805786
 10
123.7498968874653
 20
-139.4705566057574
 10
123.7498968874653
 20
-139.2145860112033
 10
123.5700629031352
 20
-139.144822827627
 10
123.4494845611515
 20
-139.144822827627
 10
123.4177896826872
 20
-139.144822827627
 10
123.2761962582434
 20
-139.144822827627
 10
123.187312794724
 20
-139.2738416535496
 10
123.187312794724
 20
-139.2738416535496
 10
123.0116129249762
 20
-139.2547213736064
 10
123.0116129249762
 20
-139.2547213736064
 10
123.0116129249762
 20
-139.2547213736064
 10
123.13219126696
 20
-138.4086059224291
 10
123.13219126696
 20
-138.4086059224291
 10
123.13219126696
 20
-138.4086059224291
 10
123.9107828466265
 20
-138.4086059224291
 10
123.9107828466265
 20
-138.4086059224291
 10
123.9107828466265
 20
-138.4086059224291
 10
123.9107828466265
 20
-138.6032538173457
 10
123.9107828466265
 20
-138.6032538173457
 10
123.9107828466265
 20
-138.6032538173457
 10
123.2951442834123
 20
-138.6032538173457
 10
123.2951442834123
 20
-138.6032538173457
 10
123.2951442834123
 20
-138.6032538173457
 10
123.2296874691926
 20
-139.0263115429344
 10
123.2296874691926
 20
-139.0263115429344
 10
123.29101016883
 20
-138.9923773524047
 10
123.3733479509275
 20
-138.9522419900015
 10
123.4918592356201
 20
-138.9522419900015
 10
123.745762772883
 20
-138.9522419900015
 10
123.9827853422682
 20
-139.1384494009793
 10
123.9827853422682
 20
-139.4514363258142
 10
123.9827853422682
 20
-139.76890187478
 10
123.7585096261784
 20
-140.0036851320997
 10
123.4560302425735
 20
-140.0036851320997
 97
        0
 97
        1
330
E9
 75
     2
 76
     1
 98
        1
 10
0.0
 20
0.0
450
        0
451
        0
460
0.0
461
0.0
452
        0
462
0.0
453
        0
470

  0
ENDBLK
  5
E6
330
E3
100
AcDbEntity
  8
0
100
AcDbBlockEnd
  0
BLOCK
  5
F2
330
F0
100
AcDbEntity
  8
0
100
AcDbBlockBegin
  2
Block_7
 70
     0
 10
0.0
 20
0.0
 30
0.0
  3
Block_7
  1

  0
INSERT
  5
F5
330
F0
100
AcDbEntity
  8
レイヤー 1
100
AcDbBlockReference
  2
Block_8
 10
0.0
 20
0.0
 30
0.0
  0
ENDBLK
  5
F3
330
F0
100
AcDbEntity
  8
0
100
AcDbBlockEnd
  0
BLOCK
  5
F6
330
F4
100
AcDbEntity
  8
0
100
AcDbBlockBegin
  2
Block_8
 70
     0
 10
0.0
 20
0.0
 30
0.0
  3
Block_8
  1

  0
SPLINE
  5
F8
330
F4
100
AcDbEntity
  8
レイヤー 1
100
AcDbSpline
210
0.0
220
0.0
230
1.0
 70
    11
 71
     3
 72
    26
 73
    22
 74
     0
 42
0.0000000001
 43
0.0000000001
 40
0.0
 40
0.0
 40
0.0
 40
0.0
 40
1.0
 40
1.0
 40
1.0
 40
2.0
 40
2.0
 40
2.0
 40
3.0
 40
3.0
 40
3.0
 40
4.0
 40
4.0
 40
4.0
 40
5.0
 40
5.0
 40
5.0
 40
6.0
 40
6.0
 40
6.0
 40
7.0
 40
7.0
 40
7.0
 40
7.0
 10
122.249557803639
 20
-157.329587091744
 30
0.0
 10
122.249557803639
 20
-157.329587091744
 30
0.0
 10
122.249557803639
 20
-156.2254339887214
 30
0.0
 10
122.249557803639
 20
-156.2254339887214
 30
0.0
 10
122.249557803639
 20
-156.2254339887214
 30
0.0
 10
121.919517656152
 20
-156.2254339887214
 30
0.0
 10
121.919517656152
 20
-156.2254339887214
 30
0.0
 10
121.919517656152
 20
-156.2254339887214
 30
0.0
 10
121.919517656152
 20
-156.0772948828557
 30
0.0
 10
121.919517656152
 20
-156.0772948828557
 30
0.0
 10
122.2516248609301
 20
-156.0624809722691
 30
0.0
 10
122.298133649981
 20
-155.8995279558168
 30
0.0
 10
122.3277614711542
 20
-155.7851507857065
 30
0.0
 10
122.3277614711542
 20
-155.7851507857065
 30
0.0
 10
122.4738335197288
 20
-155.7851507857065
 30
0.0
 10
122.4738335197288
 20
-155.7851507857065
 30
0.0
 10
122.4738335197288
 20
-155.7851507857065
 30
0.0
 10
122.4738335197288
 20
-157.329587091744
 30
0.0
 10
122.4738335197288
 20
-157.329587091744
 30
0.0
 10
122.4738335197288
 20
-157.329587091744
 30
0.0
 10
122.249557803639
 20
-157.329587091744
 30
0.0
 10
122.249557803639
 20
-157.329587091744
 30
0.0
  0
HATCH
  5
F9
330
F4
100
AcDbEntity
  8
レイヤー 1
 62
   250
420
  2299925
440
 33554687
100
AcDbHatch
 10
0.0
 20
0.0
 30
0.0
210
0.0
220
0.0
230
1.0
  2
SOLID
 70
     1
 71
     1
 91
        1
 92
        1
 93
        1
 72
     4
 94
        3
 73
     0
 74
     0
 95
       26
 96
       22
 40
0.0
 40
0.0
 40
0.0
 40
0.0
 40
1.0
 40
1.0
 40
1.0
 40
2.0
 40
2.0
 40
2.0
 40
3.0
 40
3.0
 40
3.0
 40
4.0
 40
4.0
 40
4.0
 40
5.0
 40
5.0
 40
5.0
 40
6.0
 40
6.0
 40
6.0
 40
7.0
 40
7.0
 40
7.0
 40
7.0
 10
122.249557803639
 20
-157.329587091744
 10
122.249557803639
 20
-157.329587091744
 10
122.249557803639
 20
-156.2254339887214
 10
122.249557803639
 20
-156.2254339887214
 10
122.249557803639
 20
-156.2254339887214
 10
121.919517656152
 20
-156.2254339887214
 10
121.919517656152
 20
-156.2254339887214
 10
121.919517656152
 20
-156.2254339887214
 10
121.919517656152
 20
-156.0772948828557
 10
121.919517656152
 20
-156.0772948828557
 10
122.2516248609301
 20
-156.0624809722691
 10
122.298133649981
 20
-155.8995279558168
 10
122.3277614711542
 20
-155.7851507857065
 10
122.3277614711542
 20
-155.7851507857065
 10
122.4738335197288
 20
-155.7851507857065
 10
122.4738335197288
 20
-155.7851507857065
 10
122.4738335197288
 20
-155.7851507857065
 10
122.4738335197288
 20
-157.329587091744
 10
122.4738335197288
 20
-157.329587091744
 10
122.4738335197288
 20
-157.329587091744
 10
122.249557803639
 20
-157.329587091744
 10
122.249557803639
 20
-157.329587091744
 97
        0
 97
        1
330
F8
 75
     2
 76
     1
 98
        1
 10
0.0
 20
0.0
450
        0
451
        0
460
0.0
461
0.0
452
        0
462
0.0
453
        0
470

  0
SPLINE
  5
FA
330
F4
100
AcDbEntity
  8
レイヤー 1
100
AcDbSpline
210
0.0
220
0.0
230
1.0
 70
     9
 71
     3
 72
    26
 73
    22
 74
     0
 42
0.0000000001
 43
0.0000000001
 40
0.0
 40
0.0
 40
0.0
 40
0.0
 40
1.0
 40
1.0
 40
1.0
 40
2.0
 40
2.0
 40
2.0
 40
3.0
 40
3.0
 40
3.0
 40
4.0
 40
4.0
 40
4.0
 40
5.0
 40
5.0
 40
5.0
 40
6.0
 40
6.0
 40
6.0
 40
7.0
 40
7.0
 40
7.0
 40
7.0
 10
123.3860948042229
 20
-157.329587091744
 30
0.0
 10
123.3860948042229
 20
-157.329587091744
 30
0.0
 10
123.1490722348377
 20
-157.329587091744
 30
0.0
 10
123.1490722348377
 20
-157.329587091744
 30
0.0
 10
123.1745659414286
 20
-157.0205620267171
 30
0.0
 10
123.367146779054
 20
-156.5024196657355
 30
0.0
 10
123.773323536765
 20
-155.9966796485008
 30
0.0
 10
123.773323536765
 20
-155.9966796485008
 30
0.0
 10
122.9354763147522
 20
-155.9966796485008
 30
0.0
 10
122.9354763147522
 20
-155.9966796485008
 30
0.0
 10
122.9354763147522
 20
-155.9966796485008
 30
0.0
 10
122.9354763147522
 20
-155.7851507857065
 30
0.0
 10
122.9354763147522
 20
-155.7851507857065
 30
0.0
 10
122.9354763147522
 20
-155.7851507857065
 30
0.0
 10
124.0103461061502
 20
-155.7851507857065
 30
0.0
 10
124.0103461061502
 20
-155.7851507857065
 30
0.0
 10
124.0103461061502
 20
-155.7851507857065
 30
0.0
 10
124.0103461061502
 20
-155.9966796485008
 30
0.0
 10
124.0103461061502
 20
-155.9966796485008
 30
0.0
 10
123.6865071305367
 20
-156.2867566883588
 30
0.0
 10
123.4198567399783
 20
-156.8789686022733
 30
0.0
 10
123.3860948042229
 20
-157.329587091744
 30
0.0
  0
HATCH
  5
FB
330
F4
100
AcDbEntity
  8
レイヤー 1
 62
   250
420
  2299925
440
 33554687
100
AcDbHatch
 10
0.0
 20
0.0
 30
0.0
210
0.0
220
0.0
230
1.0
  2
SOLID
 70
     1
 71
     1
 91
        1
 92
        1
 93
        1
 72
     4
 94
        3
 73
     0
 74
     0
 95
       26
 96
       22
 40
0.0
 40
0.0
 40
0.0
 40
0.0
 40
1.0
 40
1.0
 40
1.0
 40
2.0
 40
2.0
 40
2.0
 40
3.0
 40
3.0
 40
3.0
 40
4.0
 40
4.0
 40
4.0
 40
5.0
 40
5.0
 40
5.0
 40
6.0
 40
6.0
 40
6.0
 40
7.0
 40
7.0
 40
7.0
 40
7.0
 10
123.3860948042229
 20
-157.329587091744
 10
123.3860948042229
 20
-157.329587091744
 10
123.1490722348377
 20
-157.329587091744
 10
123.1490722348377
 20
-157.329587091744
 10
123.1745659414286
 20
-157.0205620267171
 10
123.367146779054
 20
-156.5024196657355
 10
123.773323536765
 20
-155.9966796485008
 10
123.773323536765
 20
-155.9966796485008
 10
122.9354763147522
 20
-155.9966796485008
 10
122.9354763147522
 20
-155.9966796485008
 10
122.9354763147522
 20
-155.9966796485008
 10
122.9354763147522
 20
-155.7851507857065
 10
122.9354763147522
 20
-155.7851507857065
 10
122.9354763147522
 20
-155.7851507857065
 10
124.0103461061502
 20
-155.7851507857065
 10
124.0103461061502
 20
-155.7851507857065
 10
124.0103461061502
 20
-155.7851507857065
 10
124.0103461061502
 20
-155.9966796485008
 10
124.0103461061502
 20
-155.9966796485008
 10
123.6865071305367
 20
-156.2867566883588
 10
123.4198567399783
 20
-156.8789686022733
 10
123.3860948042229
 20
-157.329587091744
 97
        0
 97
        1
330
FA
 75
     2
 76
     1
 98
        1
 10
0.0
 20
0.0
450
        0
451
        0
460
0.0
461
0.0
452
        0
462
0.0
453
        0
470

  0
ENDBLK
  5
F7
330
F4
100
AcDbEntity
  8
0
100
AcDbBlockEnd
  0
BLOCK
  5
100
330
FE
100
AcDbEntity
  8
0
100
AcDbBlockBegin
  2
Block_9
 70
     0
 10
0.0
 20
0.0
 30
0.0
  3
Block_9
  1

  0
SPLINE
  5
102
330
FE
100
AcDbEntity
  8
レイヤー 1
100
AcDbSpline
210
0.0
220
0.0
230
1.0
 70
    11
 71
     3
 72
    26
 73
    22
 74
     0
 42
0.0000000001
 43
0.0000000001
 40
0.0
 40
0.0
 40
0.0
 40
0.0
 40
1.0
 40
1.0
 40
1.0
 40
2.0
 40
2.0
 40
2.0
 40
3.0
 40
3.0
 40
3.0
 40
4.0
 40
4.0
 40
4.0
 40
5.0
 40
5.0
 40
5.0
 40
6.0
 40
6.0
 40
6.0
 40
7.0
 40
7.0
 40
7.0
 40
7.0
 10
133.288677267025
 20
-149.3063042161456
 30
0.0
 10
133.288677267025
 20
-149.3063042161456
 30
0.0
 10
133.288677267025
 20
-148.2021511131231
 30
0.0
 10
133.288677267025
 20
-148.2021511131231
 30
0.0
 10
133.288677267025
 20
-148.2021511131231
 30
0.0
 10
132.9586371195381
 20
-148.2021511131231
 30
0.0
 10
132.9586371195381
 20
-148.2021511131231
 30
0.0
 10
132.9586371195381
 20
-148.2021511131231
 30
0.0
 10
132.9586371195381
 20
-148.0540120072573
 30
0.0
 10
132.9586371195381
 20
-148.0540120072573
 30
0.0
 10
133.2907443243162
 20
-148.039370351445
 30
0.0
 10
133.3372531133671
 20
-147.8764173349927
 30
0.0
 10
133.3668809345402
 20
-147.7622124196566
 30
0.0
 10
133.3668809345402
 20
-147.7622124196566
 30
0.0
 10
133.5129529831148
 20
-147.7622124196566
 30
0.0
 10
133.5129529831148
 20
-147.7622124196566
 30
0.0
 10
133.5129529831148
 20
-147.7622124196566
 30
0.0
 10
133.5129529831148
 20
-149.3063042161456
 30
0.0
 10
133.5129529831148
 20
-149.3063042161456
 30
0.0
 10
133.5129529831148
 20
-149.3063042161456
 30
0.0
 10
133.288677267025
 20
-149.3063042161456
 30
0.0
 10
133.288677267025
 20
-149.3063042161456
 30
0.0
  0
HATCH
  5
103
330
FE
100
AcDbEntity
  8
レイヤー 1
 62
   250
420
  2299925
440
 33554687
100
AcDbHatch
 10
0.0
 20
0.0
 30
0.0
210
0.0
220
0.0
230
1.0
  2
SOLID
 70
     1
 71
     1
 91
        1
 92
        1
 93
        1
 72
     4
 94
        3
 73
     0
 74
     0
 95
       26
 96
       22
 40
0.0
 40
0.0
 40
0.0
 40
0.0
 40
1.0
 40
1.0
 40
1.0
 40
2.0
 40
2.0
 40
2.0
 40
3.0
 40
3.0
 40
3.0
 40
4.0
 40
4.0
 40
4.0
 40
5.0
 40
5.0
 40
5.0
 40
6.0
 40
6.0
 40
6.0
 40
7.0
 40
7.0
 40
7.0
 40
7.0
 10
133.288677267025
 20
-149.3063042161456
 10
133.288677267025
 20
-149.3063042161456
 10
133.288677267025
 20
-148.2021511131231
 10
133.288677267025
 20
-148.2021511131231
 10
133.288677267025
 20
-148.2021511131231
 10
132.9586371195381
 20
-148.2021511131231
 10
132.9586371195381
 20
-148.2021511131231
 10
132.9586371195381
 20
-148.2021511131231
 10
132.9586371195381
 20
-148.0540120072573
 10
132.9586371195381
 20
-148.0540120072573
 10
133.2907443243162
 20
-148.039370351445
 10
133.3372531133671
 20
-147.8764173349927
 10
133.3668809345402
 20
-147.7622124196566
 10
133.3668809345402
 20
-147.7622124196566
 10
133.5129529831148
 20
-147.7622124196566
 10
133.5129529831148
 20
-147.7622124196566
 10
133.5129529831148
 20
-147.7622124196566
 10
133.5129529831148
 20
-149.3063042161456
 10
133.5129529831148
 20
-149.3063042161456
 10
133.5129529831148
 20
-149.3063042161456
 10
133.288677267025
 20
-149.3063042161456
 10
133.288677267025
 20
-149.3063042161456
 97
        0
 97
        1
330
102
 75
     2
 76
     1
 98
        1
 10
0.0
 20
0.0
450
        0
451
        0
460
0.0
461
0.0
452
        0
462
0.0
453
        0
470

  0
ENDBLK
  5
101
330
FE
100
AcDbEntity
  8
0
100
AcDbBlockEnd
  0
BLOCK
  5
108
330
106
100
AcDbEntity
  8
0
100
AcDbBlockBegin
  2
Block_10
 70
     0
 10
0.0
 20
0.0
 30
0.0
  3
Block_10
  1

  0
INSERT
  5
10B
330
106
100
AcDbEntity
  8
レイヤー 1
100
AcDbBlockReference
  2
Block_11
 10
0.0
 20
0.0
 30
0.0
  0
INSERT
  5
112
330
106
100
AcDbEntity
  8
レイヤー 1
100
AcDbBlockReference
  2
Block_12
 10
0.0
 20
0.0
 30
0.0
  0
ENDBLK
  5
109
330
106
100
AcDbEntity
  8
0
100
AcDbBlockEnd
  0
BLOCK
  5
10C
330
10A
100
AcDbEntity
  8
0
100
AcDbBlockBegin
  2
Block_11
 70
     0
 10
0.0
 20
0.0
 30
0.0
  3
Block_11
  1

  0
LINE
  5
10E
330
10A
100
AcDbEntity
  8
レイヤー 1
 62
    18
420
        0
370
     9
100
AcDbLine
 10
98.64285842013805
 20
-146.9319085632999
 30
0.0
 11
99.45417673277324
 21
-147.5168846742647
 31
0.0
  0
LINE
  5
10F
330
10A
100
AcDbEntity
  8
レイヤー 1
 62
    18
420
        0
370
     9
100
AcDbLine
 10
98.64285842013805
 20
-146.9319085632999
 30
0.0
 11
101.2204644654889
 21
-150.0890227291777
 31
0.0
  0
LINE
  5
110
330
10A
100
AcDbEntity
  8
レイヤー 1
 62
    18
420
        0
370
     9
100
AcDbLine
 10
98.64285842013805
 20
-146.9319085632999
 30
0.0
 11
99.05317424300335
 21
-147.8441918964055
 31
0.0
  0
ENDBLK
  5
10D
330
10A
100
AcDbEntity
  8
0
100
AcDbBlockEnd
  0
BLOCK
  5
113
330
111
100
AcDbEntity
  8
0
100
AcDbBlockBegin
  2
Block_12
 70
     0
 10
0.0
 20
0.0
 30
0.0
  3
Block_12
  1

  0
INSERT
  5
116
330
111
100
AcDbEntity
  8
レイヤー 1
100
AcDbBlockReference
  2
Block_13
 10
0.0
 20
0.0
 30
0.0
  0
ENDBLK
  5
114
330
111
100
AcDbEntity
  8
0
100
AcDbBlockEnd
  0
BLOCK
  5
117
330
115
100
AcDbEntity
  8
0
100
AcDbBlockBegin
  2
Block_13
 70
     0
 10
0.0
 20
0.0
 30
0.0
  3
Block_13
  1

  0
SPLINE
  5
119
330
115
100
AcDbEntity
  8
レイヤー 1
100
AcDbSpline
210
0.0
220
0.0
230
1.0
 70
     9
 71
     3
 72
    17
 73
    13
 74
     0
 42
0.0000000001
 43
0.0000000001
 40
0.0
 40
0.0
 40
0.0
 40
0.0
 40
1.0
 40
1.0
 40
1.0
 40
2.0
 40
2.0
 40
2.0
 40
3.0
 40
3.0
 40
3.0
 40
4.0
 40
4.0
 40
4.0
 40
4.0
 10
102.886915393115
 20
-150.5368923234769
 30
0.0
 10
102.8700344252373
 20
-150.56652014465
 30
0.0
 10
102.8192192668299
 20
-150.6595377227518
 30
0.0
 10
102.8087117255999
 20
-150.6784857479206
 30
0.0
 10
102.9990532511599
 20
-150.7377413902669
 30
0.0
 10
103.0202405883942
 20
-150.7442870716889
 30
0.0
 10
103.0922430840359
 20
-150.7715033260224
 30
0.0
 10
103.1471923570257
 20
-150.6850314293426
 30
0.0
 10
103.1704467515511
 20
-150.6109618764097
 30
0.0
 10
103.1852606621377
 20
-150.5368923234769
 30
0.0
 10
103.1852606621377
 20
-150.5368923234769
 30
0.0
 10
102.886915393115
 20
-150.5368923234769
 30
0.0
 10
102.886915393115
 20
-150.5368923234769
 30
0.0
  0
SPLINE
  5
11A
330
115
100
AcDbEntity
  8
レイヤー 1
100
AcDbSpline
210
0.0
220
0.0
230
1.0
 70
    11
 71
     3
 72
    20
 73
    16
 74
     0
 42
0.0000000001
 43
0.0000000001
 40
0.0
 40
0.0
 40
0.0
 40
0.0
 40
1.0
 40
1.0
 40
1.0
 40
2.0
 40
2.0
 40
2.0
 40
3.0
 40
3.0
 40
3.0
 40
4.0
 40
4.0
 40
4.0
 40
5.0
 40
5.0
 40
5.0
 40
5.0
 10
102.8235256361865
 20
-149.6862982481687
 30
0.0
 10
102.8235256361865
 20
-149.6862982481687
 30
0.0
 10
102.7918307577222
 20
-149.6862982481687
 30
0.0
 10
102.7918307577222
 20
-149.6862982481687
 30
0.0
 10
102.838339546773
 20
-149.7858615076924
 30
0.0
 10
102.8700344252373
 20
-149.8661322324987
 30
0.0
 10
102.903968615767
 20
-149.9932562559044
 30
0.0
 10
102.903968615767
 20
-149.9932562559044
 30
0.0
 10
103.1111911092048
 20
-149.9932562559044
 30
0.0
 10
103.1111911092048
 20
-149.9932562559044
 30
0.0
 10
103.1428859876691
 20
-149.9002386778027
 30
0.0
 10
103.1661403821946
 20
-149.8154893288655
 30
0.0
 10
103.1895670314943
 20
-149.6862982481687
 30
0.0
 10
103.1895670314943
 20
-149.6862982481687
 30
0.0
 10
102.8235256361865
 20
-149.6862982481687
 30
0.0
 10
102.8235256361865
 20
-149.6862982481687
 30
0.0
  0
SPLINE
  5
11B
330
115
100
AcDbEntity
  8
レイヤー 1
100
AcDbSpline
210
0.0
220
0.0
230
1.0
 70
     9
 71
     3
 72
   242
 73
   238
 74
     0
 42
0.0000000001
 43
0.0000000001
 40
0.0
 40
0.0
 40
0.0
 40
0.0
 40
1.0
 40
1.0
 40
1.0
 40
2.0
 40
2.0
 40
2.0
 40
3.0
 40
3.0
 40
3.0
 40
4.0
 40
4.0
 40
4.0
 40
5.0
 40
5.0
 40
5.0
 40
6.0
 40
6.0
 40
6.0
 40
7.0
 40
7.0
 40
7.0
 40
8.0
 40
8.0
 40
8.0
 40
9.0
 40
9.0
 40
9.0
 40
10.0
 40
10.0
 40
10.0
 40
11.0
 40
11.0
 40
11.0
 40
12.0
 40
12.0
 40
12.0
 40
13.0
 40
13.0
 40
13.0
 40
14.0
 40
14.0
 40
14.0
 40
15.0
 40
15.0
 40
15.0
 40
16.0
 40
16.0
 40
16.0
 40
17.0
 40
17.0
 40
17.0
 40
18.0
 40
18.0
 40
18.0
 40
19.0
 40
19.0
 40
19.0
 40
20.0
 40
20.0
 40
20.0
 40
21.0
 40
21.0
 40
21.0
 40
22.0
 40
22.0
 40
22.0
 40
23.0
 40
23.0
 40
23.0
 40
24.0
 40
24.0
 40
24.0
 40
25.0
 40
25.0
 40
25.0
 40
26.0
 40
26.0
 40
26.0
 40
27.0
 40
27.0
 40
27.0
 40
28.0
 40
28.0
 40
28.0
 40
29.0
 40
29.0
 40
29.0
 40
30.0
 40
30.0
 40
30.0
 40
31.0
 40
31.0
 40
31.0
 40
32.0
 40
32.0
 40
32.0
 40
33.0
 40
33.0
 40
33.0
 40
34.0
 40
34.0
 40
34.0
 40
35.0
 40
35.0
 40
35.0
 40
36.0
 40
36.0
 40
36.0
 40
37.0
 40
37.0
 40
37.0
 40
38.0
 40
38.0
 40
38.0
 40
39.0
 40
39.0
 40
39.0
 40
40.0
 40
40.0
 40
40.0
 40
41.0
 40
41.0
 40
41.0
 40
42.0
 40
42.0
 40
42.0
 40
43.0
 40
43.0
 40
43.0
 40
44.0
 40
44.0
 40
44.0
 40
45.0
 40
45.0
 40
45.0
 40
46.0
 40
46.0
 40
46.0
 40
47.0
 40
47.0
 40
47.0
 40
48.0
 40
48.0
 40
48.0
 40
49.0
 40
49.0
 40
49.0
 40
50.0
 40
50.0
 40
50.0
 40
51.0
 40
51.0
 40
51.0
 40
52.0
 40
52.0
 40
52.0
 40
53.0
 40
53.0
 40
53.0
 40
54.0
 40
54.0
 40
54.0
 40
55.0
 40
55.0
 40
55.0
 40
56.0
 40
56.0
 40
56.0
 40
57.0
 40
57.0
 40
57.0
 40
58.0
 40
58.0
 40
58.0
 40
59.0
 40
59.0
 40
59.0
 40
60.0
 40
60.0
 40
60.0
 40
61.0
 40
61.0
 40
61.0
 40
62.0
 40
62.0
 40
62.0
 40
63.0
 40
63.0
 40
63.0
 40
64.0
 40
64.0
 40
64.0
 40
65.0
 40
65.0
 40
65.0
 40
66.0
 40
66.0
 40
66.0
 40
67.0
 40
67.0
 40
67.0
 40
68.0
 40
68.0
 40
68.0
 40
69.0
 40
69.0
 40
69.0
 40
70.0
 40
70.0
 40
70.0
 40
71.0
 40
71.0
 40
71.0
 40
72.0
 40
72.0
 40
72.0
 40
73.0
 40
73.0
 40
73.0
 40
74.0
 40
74.0
 40
74.0
 40
75.0
 40
75.0
 40
75.0
 40
76.0
 40
76.0
 40
76.0
 40
77.0
 40
77.0
 40
77.0
 40
78.0
 40
78.0
 40
78.0
 40
79.0
 40
79.0
 40
79.0
 40
79.0
 10
103.4517387979218
 20
-150.1517306482259
 30
0.0
 10
103.4517387979218
 20
-150.1517306482259
 30
0.0
 10
103.1980075154331
 20
-150.1517306482259
 30
0.0
 10
103.1980075154331
 20
-150.1517306482259
 30
0.0
 10
103.1980075154331
 20
-150.1517306482259
 30
0.0
 10
102.9208495836448
 20
-150.1517306482259
 30
0.0
 10
102.9208495836448
 20
-150.1517306482259
 30
0.0
 10
102.9208495836448
 20
-150.1517306482259
 30
0.0
 10
103.0478013522762
 20
-150.1941053226945
 30
0.0
 10
103.0478013522762
 20
-150.1941053226945
 30
0.0
 10
103.0583088935062
 20
-150.1982394372768
 30
0.0
 10
103.0710557468017
 20
-150.2047851186988
 30
0.0
 10
103.0710557468017
 20
-150.2175319719942
 30
0.0
 10
103.0710557468017
 20
-150.2385470544543
 30
0.0
 10
103.0393608683374
 20
-150.2447482263277
 30
0.0
 10
103.0181735311031
 20
-150.2492268504585
 30
0.0
 10
103.0074937350988
 20
-150.2723089902097
 30
0.0
 10
102.9778659139257
 20
-150.338110313978
 30
0.0
 10
102.9589178887568
 20
-150.3825520457377
 30
0.0
 10
102.9589178887568
 20
-150.3825520457377
 30
0.0
 10
103.2297023938974
 20
-150.3825520457377
 30
0.0
 10
103.2297023938974
 20
-150.3825520457377
 30
0.0
 10
103.320652914708
 20
-150.3825520457377
 30
0.0
 10
103.5173678669158
 20
-150.3780734216068
 30
0.0
 10
103.6591335461338
 20
-150.3698051924422
 30
0.0
 10
103.6591335461338
 20
-150.3698051924422
 30
0.0
 10
103.6591335461338
 20
-150.5475721194811
 30
0.0
 10
103.6591335461338
 20
-150.5475721194811
 30
0.0
 10
103.5766235092621
 20
-150.5430934953503
 30
0.0
 10
103.5554361720278
 20
-150.5430934953503
 30
0.0
 10
103.3756021876977
 20
-150.538959380768
 30
0.0
 10
103.3439073092335
 20
-150.6932996585072
 30
0.0
 10
103.2994655774737
 20
-150.7739148928621
 30
0.0
 10
103.255023845714
 20
-150.8435058216641
 30
0.0
 10
103.3756021876977
 20
-150.9027614640104
 30
0.0
 10
103.4813666190949
 20
-150.9706298450698
 30
0.0
 10
103.5850639932009
 20
-151.0529676271673
 30
0.0
 10
103.5850639932009
 20
-151.0529676271673
 30
0.0
 10
103.4665527085083
 20
-151.2200547582019
 30
0.0
 10
103.4665527085083
 20
-151.2200547582019
 30
0.0
 10
103.4432983139829
 20
-151.2011067330331
 30
0.0
 10
103.4307237154617
 20
-151.1924939943199
 30
0.0
 10
103.3185858574169
 20
-151.1080891549313
 30
0.0
 10
103.2698377563006
 20
-151.069848595045
 30
0.0
 10
103.2105821139543
 20
-151.0340196019984
 30
0.0
 10
103.130311389148
 20
-150.9895778702387
 30
0.0
 10
102.9187825263536
 20
-151.1756130264422
 30
0.0
 10
102.7134548354327
 20
-151.1990396757419
 30
0.0
 10
102.4237223051232
 20
-151.228667496915
 30
0.0
 10
102.4237223051232
 20
-151.228667496915
 30
0.0
 10
102.3200249310172
 20
-151.048833512585
 30
0.0
 10
102.3200249310172
 20
-151.048833512585
 30
0.0
 10
102.6373182252087
 20
-151.0446993980027
 30
0.0
 10
102.8128458401822
 20
-151.0192056914119
 30
0.0
 10
102.9652913154045
 20
-150.9093071454324
 30
0.0
 10
102.8467800307119
 20
-150.8583197322507
 30
0.0
 10
102.7578965671924
 20
-150.8307589683687
 30
0.0
 10
102.7218953193716
 20
-150.8183566246218
 30
0.0
 10
102.7029472942027
 20
-150.8455728789552
 30
0.0
 10
102.6881333836161
 20
-150.8648654136726
 30
0.0
 10
102.6605726197342
 20
-150.8986273494281
 30
0.0
 10
102.6605726197342
 20
-150.8986273494281
 30
0.0
 10
102.4638576675264
 20
-150.8159450577821
 30
0.0
 10
102.4638576675264
 20
-150.8159450577821
 30
0.0
 10
102.5463677043981
 20
-150.7356743329758
 30
0.0
 10
102.6076904040356
 20
-150.6405896975829
 30
0.0
 10
102.6648789890907
 20
-150.538959380768
 30
0.0
 10
102.4743652087564
 20
-150.5430934953503
 30
0.0
 10
102.4533501262964
 20
-150.5430934953503
 30
0.0
 10
102.3708400894246
 20
-150.5475721194811
 30
0.0
 10
102.3708400894246
 20
-150.5475721194811
 30
0.0
 10
102.3708400894246
 20
-150.3698051924422
 30
0.0
 10
102.3708400894246
 20
-150.3698051924422
 30
0.0
 10
102.5103664565772
 20
-150.3760063643157
 30
0.0
 10
102.7198282620805
 20
-150.380140478898
 30
0.0
 10
102.745149713897
 20
-150.380140478898
 30
0.0
 10
102.762202936549
 20
-150.3463785431426
 30
0.0
 10
102.8171522095387
 20
-150.2258002011588
 30
0.0
 10
102.8362724894819
 20
-150.1517306482259
 30
0.0
 10
102.8171522095387
 20
-150.1517306482259
 30
0.0
 10
102.6393852824999
 20
-150.1582763296479
 30
0.0
 10
102.4447373875832
 20
-150.1710231829433
 30
0.0
 10
102.4447373875832
 20
-150.1710231829433
 30
0.0
 10
102.4447373875832
 20
-150.304003868674
 30
0.0
 10
102.4447373875832
 20
-150.304003868674
 30
0.0
 10
102.3961615412412
 20
-150.3294975752648
 30
0.0
 10
102.3369058988949
 20
-150.3611924537291
 30
0.0
 10
102.2035807036157
 20
-150.4269937774974
 30
0.0
 10
102.2035807036157
 20
-150.4269937774974
 30
0.0
 10
102.2035807036157
 20
-150.5727213165235
 30
0.0
 10
102.2035807036157
 20
-150.5727213165235
 30
0.0
 10
102.2035807036157
 20
-150.5727213165235
 30
0.0
 10
102.2035807036157
 20
-151.0402207738719
 30
0.0
 10
102.2035807036157
 20
-151.0402207738719
 30
0.0
 10
102.2035807036157
 20
-151.1673447972776
 30
0.0
 10
102.1677517105691
 20
-151.2266004396239
 30
0.0
 10
101.8842203521331
 20
-151.2179877009108
 30
0.0
 10
101.8842203521331
 20
-151.2179877009108
 30
0.0
 10
101.7805229780271
 20
-151.0105929526987
 30
0.0
 10
101.7805229780271
 20
-151.0105929526987
 30
0.0
 10
101.8440849897299
 20
-151.0233398059942
 30
0.0
 10
101.892660836072
 20
-151.0274739205765
 30
0.0
 10
101.9327961984751
 20
-151.0274739205765
 30
0.0
 10
102.0091050634734
 20
-151.0274739205765
 30
0.0
 10
102.0196126047034
 20
-151.0043917808253
 30
0.0
 10
102.0196126047034
 20
-150.9389349666055
 30
0.0
 10
102.0196126047034
 20
-150.9389349666055
 30
0.0
 10
102.0196126047034
 20
-150.5093315595949
 30
0.0
 10
102.0196126047034
 20
-150.5093315595949
 30
0.0
 10
101.9222886572451
 20
-150.5496391767723
 30
0.0
 10
101.9054076893674
 20
-150.5558403486458
 30
0.0
 10
101.8588989003165
 20
-150.5747883738146
 30
0.0
 10
101.8545925309599
 20
-150.5961479658232
 30
0.0
 10
101.8502861616034
 20
-150.6257757869963
 30
0.0
 10
101.8313381364345
 20
-150.6257757869963
 30
0.0
 10
101.8228976524957
 20
-150.6257757869963
 30
0.0
 10
101.8122178564914
 20
-150.621641672414
 30
0.0
 10
101.8060166846179
 20
-150.5982150231143
 30
0.0
 10
101.8060166846179
 20
-150.5982150231143
 30
0.0
 10
101.7531344689193
 20
-150.4056341854889
 30
0.0
 10
101.7531344689193
 20
-150.4056341854889
 30
0.0
 10
101.8990342627197
 20
-150.359125396438
 30
0.0
 10
101.9646633317137
 20
-150.3360432566868
 30
0.0
 10
102.0196126047034
 20
-150.3146836646783
 30
0.0
 10
102.0196126047034
 20
-150.3146836646783
 30
0.0
 10
102.0196126047034
 20
-149.9023057350939
 30
0.0
 10
102.0196126047034
 20
-149.9023057350939
 30
0.0
 10
102.0196126047034
 20
-149.9023057350939
 30
0.0
 10
101.9667303890048
 20
-149.9023057350939
 30
0.0
 10
101.9667303890048
 20
-149.9023057350939
 30
0.0
 10
101.9667303890048
 20
-149.9023057350939
 30
0.0
 10
101.8885267214897
 20
-149.9023057350939
 30
0.0
 10
101.8885267214897
 20
-149.9023057350939
 30
0.0
 10
101.8208305952045
 20
-149.9023057350939
 30
0.0
 10
101.8122178564914
 20
-149.9023057350939
 30
0.0
 10
101.7763888634448
 20
-149.9085069069673
 30
0.0
 10
101.7763888634448
 20
-149.9085069069673
 30
0.0
 10
101.7763888634448
 20
-149.7138590120507
 30
0.0
 10
101.7763888634448
 20
-149.7138590120507
 30
0.0
 10
101.8037773725525
 20
-149.7204046934727
 30
0.0
 10
101.8122178564914
 20
-149.7204046934727
 30
0.0
 10
101.882153294842
 20
-149.7204046934727
 30
0.0
 10
101.882153294842
 20
-149.7204046934727
 30
0.0
 10
102.0153062353468
 20
-149.7204046934727
 30
0.0
 10
102.0153062353468
 20
-149.7204046934727
 30
0.0
 10
102.0153062353468
 20
-149.6504692551221
 30
0.0
 10
102.0153062353468
 20
-149.5677869634761
 30
0.0
 10
102.0132391780557
 20
-149.5636528488938
 30
0.0
 10
102.0047986941168
 20
-149.3838188645637
 30
0.0
 10
102.0047986941168
 20
-149.3648708393949
 30
0.0
 10
102.0027316368257
 20
-149.318362050344
 30
0.0
 10
102.0027316368257
 20
-149.318362050344
 30
0.0
 10
102.2183946142023
 20
-149.3266302795086
 30
0.0
 10
102.2183946142023
 20
-149.3266302795086
 30
0.0
 10
102.2290744102066
 20
-149.3266302795086
 30
0.0
 10
102.2502617474409
 20
-149.3290418463483
 30
0.0
 10
102.2502617474409
 20
-149.345922814226
 30
0.0
 10
102.2502617474409
 20
-149.3648708393949
 30
0.0
 10
102.2354478368543
 20
-149.3755506353991
 30
0.0
 10
102.2099541302635
 20
-149.394498660568
 30
0.0
 10
102.2099541302635
 20
-149.4451415642012
 30
0.0
 10
102.2035807036157
 20
-149.6735513948733
 30
0.0
 10
102.2058200156812
 20
-149.7204046934727
 30
0.0
 10
102.3348388416038
 20
-149.7204046934727
 30
0.0
 10
102.3475856948992
 20
-149.7204046934727
 30
0.0
 10
102.4447373875832
 20
-149.7117919547595
 30
0.0
 10
102.4447373875832
 20
-149.7117919547595
 30
0.0
 10
102.4447373875832
 20
-149.9064398496761
 30
0.0
 10
102.4447373875832
 20
-149.9064398496761
 30
0.0
 10
102.4066690824712
 20
-149.904372792385
 30
0.0
 10
102.3389729561861
 20
-149.9002386778027
 30
0.0
 10
102.2035807036157
 20
-149.9023057350939
 30
0.0
 10
102.2035807036157
 20
-149.9023057350939
 30
0.0
 10
102.2035807036157
 20
-150.2406141117454
 30
0.0
 10
102.2035807036157
 20
-150.2406141117454
 30
0.0
 10
102.2587022313798
 20
-150.2175319719942
 30
0.0
 10
102.3241590455995
 20
-150.1899712081122
 30
0.0
 10
102.3729071467158
 20
-150.1665445588125
 30
0.0
 10
102.3729071467158
 20
-150.1665445588125
 30
0.0
 10
102.3729071467158
 20
-149.9887776317736
 30
0.0
 10
102.3729071467158
 20
-149.9887776317736
 30
0.0
 10
102.4871120620518
 20
-150.001524485069
 30
0.0
 10
102.6056233467444
 20
-150.001524485069
 30
0.0
 10
102.7218953193716
 20
-150.001524485069
 30
0.0
 10
102.6986409248461
 20
-149.9064398496761
 30
0.0
 10
102.6712524157384
 20
-149.8237575580301
 30
0.0
 10
102.6076904040356
 20
-149.6907768722995
 30
0.0
 10
102.5632486722758
 20
-149.6928439295906
 30
0.0
 10
102.4807386354041
 20
-149.696978044173
 30
0.0
 10
102.4426703302921
 20
-149.6990451014641
 30
0.0
 10
102.4426703302921
 20
-149.6990451014641
 30
0.0
 10
102.4426703302921
 20
-149.5192111171341
 30
0.0
 10
102.4426703302921
 20
-149.5192111171341
 30
0.0
 10
102.5675550416324
 20
-149.5278238558472
 30
0.0
 10
102.7410155993147
 20
-149.5319579704295
 30
0.0
 10
102.8235256361865
 20
-149.5319579704295
 30
0.0
 10
102.8235256361865
 20
-149.5319579704295
 30
0.0
 10
102.9060356730582
 20
-149.5319579704295
 30
0.0
 10
102.9060356730582
 20
-149.5319579704295
 30
0.0
 10
102.9060356730582
 20
-149.3690049539772
 30
0.0
 10
102.9060356730582
 20
-149.3586696675214
 30
0.0
 10
102.903968615767
 20
-149.3035481397574
 30
0.0
 10
102.903968615767
 20
-149.3035481397574
 30
0.0
 10
103.1280720770825
 20
-149.3290418463483
 30
0.0
 10
103.1280720770825
 20
-149.3290418463483
 30
0.0
 10
103.1323784464391
 20
-149.3290418463483
 30
0.0
 10
103.1535657836734
 20
-149.3311089036394
 30
0.0
 10
103.1535657836734
 20
-149.3479898715172
 30
0.0
 10
103.1535657836734
 20
-149.3628037821037
 30
0.0
 10
103.1428859876691
 20
-149.3710720112683
 30
0.0
 10
103.1154974785614
 20
-149.3858859218549
 30
0.0
 10
103.1091240519137
 20
-149.4516872456232
 30
0.0
 10
103.1070569946225
 20
-149.4727023280832
 30
0.0
 10
103.1070569946225
 20
-149.5319579704295
 30
0.0
 10
103.1070569946225
 20
-149.5319579704295
 30
0.0
 10
103.2021416300154
 20
-149.5319579704295
 30
0.0
 10
103.2021416300154
 20
-149.5319579704295
 30
0.0
 10
103.2846516668872
 20
-149.5319579704295
 30
0.0
 10
103.4581122245695
 20
-149.5278238558472
 30
0.0
 10
103.5829969359098
 20
-149.5192111171341
 30
0.0
 10
103.5829969359098
 20
-149.5192111171341
 30
0.0
 10
103.5829969359098
 20
-149.6990451014641
 30
0.0
 10
103.5829969359098
 20
-149.6990451014641
 30
0.0
 10
103.5533691147366
 20
-149.696978044173
 30
0.0
 10
103.434857830044
 20
-149.6928439295906
 30
0.0
 10
103.3947224676409
 20
-149.6907768722995
 30
0.0
 10
103.3799085570543
 20
-149.7414197759327
 30
0.0
 10
103.3459743665246
 20
-149.8533853792033
 30
0.0
 10
103.2805175523048
 20
-149.9932562559044
 30
0.0
 10
103.3227199719992
 20
-149.9932562559044
 30
0.0
 10
103.5998779037875
 20
-149.973963721187
 30
0.0
 10
103.661200603425
 20
-149.9718966638959
 30
0.0
 10
103.661200603425
 20
-149.9718966638959
 30
0.0
 10
103.661200603425
 20
-150.1562092723568
 30
0.0
 10
103.661200603425
 20
-150.1562092723568
 30
0.0
 10
103.6315727822518
 20
-150.1562092723568
 30
0.0
 10
103.6146918143741
 20
-150.1517306482259
 30
0.0
 10
103.4517387979218
 20
-150.1517306482259
 30
0.0
  0
HATCH
  5
11C
330
115
100
AcDbEntity
  8
レイヤー 1
 62
    18
420
        0
440
 33554687
100
AcDbHatch
 10
0.0
 20
0.0
 30
0.0
210
0.0
220
0.0
230
1.0
  2
SOLID
 70
     1
 71
     1
 91
        3
 92
        1
 93
        1
 72
     4
 94
        3
 73
     0
 74
     0
 95
       17
 96
       13
 40
0.0
 40
0.0
 40
0.0
 40
0.0
 40
1.0
 40
1.0
 40
1.0
 40
2.0
 40
2.0
 40
2.0
 40
3.0
 40
3.0
 40
3.0
 40
4.0
 40
4.0
 40
4.0
 40
4.0
 10
102.886915393115
 20
-150.5368923234769
 10
102.8700344252373
 20
-150.56652014465
 10
102.8192192668299
 20
-150.6595377227518
 10
102.8087117255999
 20
-150.6784857479206
 10
102.9990532511599
 20
-150.7377413902669
 10
103.0202405883942
 20
-150.7442870716889
 10
103.0922430840359
 20
-150.7715033260224
 10
103.1471923570257
 20
-150.6850314293426
 10
103.1704467515511
 20
-150.6109618764097
 10
103.1852606621377
 20
-150.5368923234769
 10
103.1852606621377
 20
-150.5368923234769
 10
102.886915393115
 20
-150.5368923234769
 10
102.886915393115
 20
-150.5368923234769
 97
        0
 97
        1
330
119
 92
        1
 93
        1
 72
     4
 94
        3
 73
     0
 74
     0
 95
       20
 96
       16
 40
0.0
 40
0.0
 40
0.0
 40
0.0
 40
1.0
 40
1.0
 40
1.0
 40
2.0
 40
2.0
 40
2.0
 40
3.0
 40
3.0
 40
3.0
 40
4.0
 40
4.0
 40
4.0
 40
5.0
 40
5.0
 40
5.0
 40
5.0
 10
102.8235256361865
 20
-149.6862982481687
 10
102.8235256361865
 20
-149.6862982481687
 10
102.7918307577222
 20
-149.6862982481687
 10
102.7918307577222
 20
-149.6862982481687
 10
102.838339546773
 20
-149.7858615076924
 10
102.8700344252373
 20
-149.8661322324987
 10
102.903968615767
 20
-149.9932562559044
 10
102.903968615767
 20
-149.9932562559044
 10
103.1111911092048
 20
-149.9932562559044
 10
103.1111911092048
 20
-149.9932562559044
 10
103.1428859876691
 20
-149.9002386778027
 10
103.1661403821946
 20
-149.8154893288655
 10
103.1895670314943
 20
-149.6862982481687
 10
103.1895670314943
 20
-149.6862982481687
 10
102.8235256361865
 20
-149.6862982481687
 10
102.8235256361865
 20
-149.6862982481687
 97
        0
 97
        1
330
11A
 92
        1
 93
        1
 72
     4
 94
        3
 73
     0
 74
     0
 95
      242
 96
      238
 40
0.0
 40
0.0
 40
0.0
 40
0.0
 40
1.0
 40
1.0
 40
1.0
 40
2.0
 40
2.0
 40
2.0
 40
3.0
 40
3.0
 40
3.0
 40
4.0
 40
4.0
 40
4.0
 40
5.0
 40
5.0
 40
5.0
 40
6.0
 40
6.0
 40
6.0
 40
7.0
 40
7.0
 40
7.0
 40
8.0
 40
8.0
 40
8.0
 40
9.0
 40
9.0
 40
9.0
 40
10.0
 40
10.0
 40
10.0
 40
11.0
 40
11.0
 40
11.0
 40
12.0
 40
12.0
 40
12.0
 40
13.0
 40
13.0
 40
13.0
 40
14.0
 40
14.0
 40
14.0
 40
15.0
 40
15.0
 40
15.0
 40
16.0
 40
16.0
 40
16.0
 40
17.0
 40
17.0
 40
17.0
 40
18.0
 40
18.0
 40
18.0
 40
19.0
 40
19.0
 40
19.0
 40
20.0
 40
20.0
 40
20.0
 40
21.0
 40
21.0
 40
21.0
 40
22.0
 40
22.0
 40
22.0
 40
23.0
 40
23.0
 40
23.0
 40
24.0
 40
24.0
 40
24.0
 40
25.0
 40
25.0
 40
25.0
 40
26.0
 40
26.0
 40
26.0
 40
27.0
 40
27.0
 40
27.0
 40
28.0
 40
28.0
 40
28.0
 40
29.0
 40
29.0
 40
29.0
 40
30.0
 40
30.0
 40
30.0
 40
31.0
 40
31.0
 40
31.0
 40
32.0
 40
32.0
 40
32.0
 40
33.0
 40
33.0
 40
33.0
 40
34.0
 40
34.0
 40
34.0
 40
35.0
 40
35.0
 40
35.0
 40
36.0
 40
36.0
 40
36.0
 40
37.0
 40
37.0
 40
37.0
 40
38.0
 40
38.0
 40
38.0
 40
39.0
 40
39.0
 40
39.0
 40
40.0
 40
40.0
 40
40.0
 40
41.0
 40
41.0
 40
41.0
 40
42.0
 40
42.0
 40
42.0
 40
43.0
 40
43.0
 40
43.0
 40
44.0
 40
44.0
 40
44.0
 40
45.0
 40
45.0
 40
45.0
 40
46.0
 40
46.0
 40
46.0
 40
47.0
 40
47.0
 40
47.0
 40
48.0
 40
48.0
 40
48.0
 40
49.0
 40
49.0
 40
49.0
 40
50.0
 40
50.0
 40
50.0
 40
51.0
 40
51.0
 40
51.0
 40
52.0
 40
52.0
 40
52.0
 40
53.0
 40
53.0
 40
53.0
 40
54.0
 40
54.0
 40
54.0
 40
55.0
 40
55.0
 40
55.0
 40
56.0
 40
56.0
 40
56.0
 40
57.0
 40
57.0
 40
57.0
 40
58.0
 40
58.0
 40
58.0
 40
59.0
 40
59.0
 40
59.0
 40
60.0
 40
60.0
 40
60.0
 40
61.0
 40
61.0
 40
61.0
 40
62.0
 40
62.0
 40
62.0
 40
63.0
 40
63.0
 40
63.0
 40
64.0
 40
64.0
 40
64.0
 40
65.0
 40
65.0
 40
65.0
 40
66.0
 40
66.0
 40
66.0
 40
67.0
 40
67.0
 40
67.0
 40
68.0
 40
68.0
 40
68.0
 40
69.0
 40
69.0
 40
69.0
 40
70.0
 40
70.0
 40
70.0
 40
71.0
 40
71.0
 40
71.0
 40
72.0
 40
72.0
 40
72.0
 40
73.0
 40
73.0
 40
73.0
 40
74.0
 40
74.0
 40
74.0
 40
75.0
 40
75.0
 40
75.0
 40
76.0
 40
76.0
 40
76.0
 40
77.0
 40
77.0
 40
77.0
 40
78.0
 40
78.0
 40
78.0
 40
79.0
 40
79.0
 40
79.0
 40
79.0
 10
103.4517387979218
 20
-150.1517306482259
 10
103.4517387979218
 20
-150.1517306482259
 10
103.1980075154331
 20
-150.1517306482259
 10
103.1980075154331
 20
-150.1517306482259
 10
103.1980075154331
 20
-150.1517306482259
 10
102.9208495836448
 20
-150.1517306482259
 10
102.9208495836448
 20
-150.1517306482259
 10
102.9208495836448
 20
-150.1517306482259
 10
103.0478013522762
 20
-150.1941053226945
 10
103.0478013522762
 20
-150.1941053226945
 10
103.0583088935062
 20
-150.1982394372768
 10
103.0710557468017
 20
-150.2047851186988
 10
103.0710557468017
 20
-150.2175319719942
 10
103.0710557468017
 20
-150.2385470544543
 10
103.0393608683374
 20
-150.2447482263277
 10
103.0181735311031
 20
-150.2492268504585
 10
103.0074937350988
 20
-150.2723089902097
 10
102.9778659139257
 20
-150.338110313978
 10
102.9589178887568
 20
-150.3825520457377
 10
102.9589178887568
 20
-150.3825520457377
 10
103.2297023938974
 20
-150.3825520457377
 10
103.2297023938974
 20
-150.3825520457377
 10
103.320652914708
 20
-150.3825520457377
 10
103.5173678669158
 20
-150.3780734216068
 10
103.6591335461338
 20
-150.3698051924422
 10
103.6591335461338
 20
-150.3698051924422
 10
103.6591335461338
 20
-150.5475721194811
 10
103.6591335461338
 20
-150.5475721194811
 10
103.5766235092621
 20
-150.5430934953503
 10
103.5554361720278
 20
-150.5430934953503
 10
103.3756021876977
 20
-150.538959380768
 10
103.3439073092335
 20
-150.6932996585072
 10
103.2994655774737
 20
-150.7739148928621
 10
103.255023845714
 20
-150.8435058216641
 10
103.3756021876977
 20
-150.9027614640104
 10
103.4813666190949
 20
-150.9706298450698
 10
103.5850639932009
 20
-151.0529676271673
 10
103.5850639932009
 20
-151.0529676271673
 10
103.4665527085083
 20
-151.2200547582019
 10
103.4665527085083
 20
-151.2200547582019
 10
103.4432983139829
 20
-151.2011067330331
 10
103.4307237154617
 20
-151.1924939943199
 10
103.3185858574169
 20
-151.1080891549313
 10
103.2698377563006
 20
-151.069848595045
 10
103.2105821139543
 20
-151.0340196019984
 10
103.130311389148
 20
-150.9895778702387
 10
102.9187825263536
 20
-151.1756130264422
 10
102.7134548354327
 20
-151.1990396757419
 10
102.4237223051232
 20
-151.228667496915
 10
102.4237223051232
 20
-151.228667496915
 10
102.3200249310172
 20
-151.048833512585
 10
102.3200249310172
 20
-151.048833512585
 10
102.6373182252087
 20
-151.0446993980027
 10
102.8128458401822
 20
-151.0192056914119
 10
102.9652913154045
 20
-150.9093071454324
 10
102.8467800307119
 20
-150.8583197322507
 10
102.7578965671924
 20
-150.8307589683687
 10
102.7218953193716
 20
-150.8183566246218
 10
102.7029472942027
 20
-150.8455728789552
 10
102.6881333836161
 20
-150.8648654136726
 10
102.6605726197342
 20
-150.8986273494281
 10
102.6605726197342
 20
-150.8986273494281
 10
102.4638576675264
 20
-150.8159450577821
 10
102.4638576675264
 20
-150.8159450577821
 10
102.5463677043981
 20
-150.7356743329758
 10
102.6076904040356
 20
-150.6405896975829
 10
102.6648789890907
 20
-150.538959380768
 10
102.4743652087564
 20
-150.5430934953503
 10
102.4533501262964
 20
-150.5430934953503
 10
102.3708400894246
 20
-150.5475721194811
 10
102.3708400894246
 20
-150.5475721194811
 10
102.3708400894246
 20
-150.3698051924422
 10
102.3708400894246
 20
-150.3698051924422
 10
102.5103664565772
 20
-150.3760063643157
 10
102.7198282620805
 20
-150.380140478898
 10
102.745149713897
 20
-150.380140478898
 10
102.762202936549
 20
-150.3463785431426
 10
102.8171522095387
 20
-150.2258002011588
 10
102.8362724894819
 20
-150.1517306482259
 10
102.8171522095387
 20
-150.1517306482259
 10
102.6393852824999
 20
-150.1582763296479
 10
102.4447373875832
 20
-150.1710231829433
 10
102.4447373875832
 20
-150.1710231829433
 10
102.4447373875832
 20
-150.304003868674
 10
102.4447373875832
 20
-150.304003868674
 10
102.3961615412412
 20
-150.3294975752648
 10
102.3369058988949
 20
-150.3611924537291
 10
102.2035807036157
 20
-150.4269937774974
 10
102.2035807036157
 20
-150.4269937774974
 10
102.2035807036157
 20
-150.5727213165235
 10
102.2035807036157
 20
-150.5727213165235
 10
102.2035807036157
 20
-150.5727213165235
 10
102.2035807036157
 20
-151.0402207738719
 10
102.2035807036157
 20
-151.0402207738719
 10
102.2035807036157
 20
-151.1673447972776
 10
102.1677517105691
 20
-151.2266004396239
 10
101.8842203521331
 20
-151.2179877009108
 10
101.8842203521331
 20
-151.2179877009108
 10
101.7805229780271
 20
-151.0105929526987
 10
101.7805229780271
 20
-151.0105929526987
 10
101.8440849897299
 20
-151.0233398059942
 10
101.892660836072
 20
-151.0274739205765
 10
101.9327961984751
 20
-151.0274739205765
 10
102.0091050634734
 20
-151.0274739205765
 10
102.0196126047034
 20
-151.0043917808253
 10
102.0196126047034
 20
-150.9389349666055
 10
102.0196126047034
 20
-150.9389349666055
 10
102.0196126047034
 20
-150.5093315595949
 10
102.0196126047034
 20
-150.5093315595949
 10
101.9222886572451
 20
-150.5496391767723
 10
101.9054076893674
 20
-150.5558403486458
 10
101.8588989003165
 20
-150.5747883738146
 10
101.8545925309599
 20
-150.5961479658232
 10
101.8502861616034
 20
-150.6257757869963
 10
101.8313381364345
 20
-150.6257757869963
 10
101.8228976524957
 20
-150.6257757869963
 10
101.8122178564914
 20
-150.621641672414
 10
101.8060166846179
 20
-150.5982150231143
 10
101.8060166846179
 20
-150.5982150231143
 10
101.7531344689193
 20
-150.4056341854889
 10
101.7531344689193
 20
-150.4056341854889
 10
101.8990342627197
 20
-150.359125396438
 10
101.9646633317137
 20
-150.3360432566868
 10
102.0196126047034
 20
-150.3146836646783
 10
102.0196126047034
 20
-150.3146836646783
 10
102.0196126047034
 20
-149.9023057350939
 10
102.0196126047034
 20
-149.9023057350939
 10
102.0196126047034
 20
-149.9023057350939
 10
101.9667303890048
 20
-149.9023057350939
 10
101.9667303890048
 20
-149.9023057350939
 10
101.9667303890048
 20
-149.9023057350939
 10
101.8885267214897
 20
-149.9023057350939
 10
101.8885267214897
 20
-149.9023057350939
 10
101.8208305952045
 20
-149.9023057350939
 10
101.8122178564914
 20
-149.9023057350939
 10
101.7763888634448
 20
-149.9085069069673
 10
101.7763888634448
 20
-149.9085069069673
 10
101.7763888634448
 20
-149.7138590120507
 10
101.7763888634448
 20
-149.7138590120507
 10
101.8037773725525
 20
-149.7204046934727
 10
101.8122178564914
 20
-149.7204046934727
 10
101.882153294842
 20
-149.7204046934727
 10
101.882153294842
 20
-149.7204046934727
 10
102.0153062353468
 20
-149.7204046934727
 10
102.0153062353468
 20
-149.7204046934727
 10
102.0153062353468
 20
-149.6504692551221
 10
102.0153062353468
 20
-149.5677869634761
 10
102.0132391780557
 20
-149.5636528488938
 10
102.0047986941168
 20
-149.3838188645637
 10
102.0047986941168
 20
-149.3648708393949
 10
102.0027316368257
 20
-149.318362050344
 10
102.0027316368257
 20
-149.318362050344
 10
102.2183946142023
 20
-149.3266302795086
 10
102.2183946142023
 20
-149.3266302795086
 10
102.2290744102066
 20
-149.3266302795086
 10
102.2502617474409
 20
-149.3290418463483
 10
102.2502617474409
 20
-149.345922814226
 10
102.2502617474409
 20
-149.3648708393949
 10
102.2354478368543
 20
-149.3755506353991
 10
102.2099541302635
 20
-149.394498660568
 10
102.2099541302635
 20
-149.4451415642012
 10
102.2035807036157
 20
-149.6735513948733
 10
102.2058200156812
 20
-149.7204046934727
 10
102.3348388416038
 20
-149.7204046934727
 10
102.3475856948992
 20
-149.7204046934727
 10
102.4447373875832
 20
-149.7117919547595
 10
102.4447373875832
 20
-149.7117919547595
 10
102.4447373875832
 20
-149.9064398496761
 10
102.4447373875832
 20
-149.9064398496761
 10
102.4066690824712
 20
-149.904372792385
 10
102.3389729561861
 20
-149.9002386778027
 10
102.2035807036157
 20
-149.9023057350939
 10
102.2035807036157
 20
-149.9023057350939
 10
102.2035807036157
 20
-150.2406141117454
 10
102.2035807036157
 20
-150.2406141117454
 10
102.2587022313798
 20
-150.2175319719942
 10
102.3241590455995
 20
-150.1899712081122
 10
102.3729071467158
 20
-150.1665445588125
 10
102.3729071467158
 20
-150.1665445588125
 10
102.3729071467158
 20
-149.9887776317736
 10
102.3729071467158
 20
-149.9887776317736
 10
102.4871120620518
 20
-150.001524485069
 10
102.6056233467444
 20
-150.001524485069
 10
102.7218953193716
 20
-150.001524485069
 10
102.6986409248461
 20
-149.9064398496761
 10
102.6712524157384
 20
-149.8237575580301
 10
102.6076904040356
 20
-149.6907768722995
 10
102.5632486722758
 20
-149.6928439295906
 10
102.4807386354041
 20
-149.696978044173
 10
102.4426703302921
 20
-149.6990451014641
 10
102.4426703302921
 20
-149.6990451014641
 10
102.4426703302921
 20
-149.5192111171341
 10
102.4426703302921
 20
-149.5192111171341
 10
102.5675550416324
 20
-149.5278238558472
 10
102.7410155993147
 20
-149.5319579704295
 10
102.8235256361865
 20
-149.5319579704295
 10
102.8235256361865
 20
-149.5319579704295
 10
102.9060356730582
 20
-149.5319579704295
 10
102.9060356730582
 20
-149.5319579704295
 10
102.9060356730582
 20
-149.3690049539772
 10
102.9060356730582
 20
-149.3586696675214
 10
102.903968615767
 20
-149.3035481397574
 10
102.903968615767
 20
-149.3035481397574
 10
103.1280720770825
 20
-149.3290418463483
 10
103.1280720770825
 20
-149.3290418463483
 10
103.1323784464391
 20
-149.3290418463483
 10
103.1535657836734
 20
-149.3311089036394
 10
103.1535657836734
 20
-149.3479898715172
 10
103.1535657836734
 20
-149.3628037821037
 10
103.1428859876691
 20
-149.3710720112683
 10
103.1154974785614
 20
-149.3858859218549
 10
103.1091240519137
 20
-149.4516872456232
 10
103.1070569946225
 20
-149.4727023280832
 10
103.1070569946225
 20
-149.5319579704295
 10
103.1070569946225
 20
-149.5319579704295
 10
103.2021416300154
 20
-149.5319579704295
 10
103.2021416300154
 20
-149.5319579704295
 10
103.2846516668872
 20
-149.5319579704295
 10
103.4581122245695
 20
-149.5278238558472
 10
103.5829969359098
 20
-149.5192111171341
 10
103.5829969359098
 20
-149.5192111171341
 10
103.5829969359098
 20
-149.6990451014641
 10
103.5829969359098
 20
-149.6990451014641
 10
103.5533691147366
 20
-149.696978044173
 10
103.434857830044
 20
-149.6928439295906
 10
103.3947224676409
 20
-149.6907768722995
 10
103.3799085570543
 20
-149.7414197759327
 10
103.3459743665246
 20
-149.8533853792033
 10
103.2805175523048
 20
-149.9932562559044
 10
103.3227199719992
 20
-149.9932562559044
 10
103.5998779037875
 20
-149.973963721187
 10
103.661200603425
 20
-149.9718966638959
 10
103.661200603425
 20
-149.9718966638959
 10
103.661200603425
 20
-150.1562092723568
 10
103.661200603425
 20
-150.1562092723568
 10
103.6315727822518
 20
-150.1562092723568
 10
103.6146918143741
 20
-150.1517306482259
 10
103.4517387979218
 20
-150.1517306482259
 97
        0
 97
        1
330
11B
 75
     2
 76
     1
 98
        1
 10
0.0
 20
0.0
450
        0
451
        0
460
0.0
461
0.0
452
        0
462
0.0
453
        0
470

  0
SPLINE
  5
11D
330
115
100
AcDbEntity
  8
レイヤー 1
100
AcDbSpline
210
0.0
220
0.0
230
1.0
 70
    11
 71
     3
 72
    17
 73
    13
 74
     0
 42
0.0000000001
 43
0.0000000001
 40
0.0
 40
0.0
 40
0.0
 40
0.0
 40
1.0
 40
1.0
 40
1.0
 40
2.0
 40
2.0
 40
2.0
 40
3.0
 40
3.0
 40
3.0
 40
4.0
 40
4.0
 40
4.0
 40
4.0
 10
105.3083007549229
 20
-150.9513373103524
 30
0.0
 10
105.3083007549229
 20
-150.9513373103524
 30
0.0
 10
104.6017116708982
 20
-150.9513373103524
 30
0.0
 10
104.6017116708982
 20
-150.9513373103524
 30
0.0
 10
104.6017116708982
 20
-150.9513373103524
 30
0.0
 10
104.6017116708982
 20
-151.0657144804627
 30
0.0
 10
104.6017116708982
 20
-151.0657144804627
 30
0.0
 10
104.6017116708982
 20
-151.0657144804627
 30
0.0
 10
105.3083007549229
 20
-151.0657144804627
 30
0.0
 10
105.3083007549229
 20
-151.0657144804627
 30
0.0
 10
105.3083007549229
 20
-151.0657144804627
 30
0.0
 10
105.3083007549229
 20
-150.9513373103524
 30
0.0
 10
105.3083007549229
 20
-150.9513373103524
 30
0.0
  0
SPLINE
  5
11E
330
115
100
AcDbEntity
  8
レイヤー 1
100
AcDbSpline
210
0.0
220
0.0
230
1.0
 70
    11
 71
     3
 72
    17
 73
    13
 74
     0
 42
0.0000000001
 43
0.0000000001
 40
0.0
 40
0.0
 40
0.0
 40
0.0
 40
1.0
 40
1.0
 40
1.0
 40
2.0
 40
2.0
 40
2.0
 40
3.0
 40
3.0
 40
3.0
 40
4.0
 40
4.0
 40
4.0
 40
4.0
 10
105.3083007549229
 20
-150.7081135690938
 30
0.0
 10
105.3083007549229
 20
-150.7081135690938
 30
0.0
 10
104.6017116708982
 20
-150.7081135690938
 30
0.0
 10
104.6017116708982
 20
-150.7081135690938
 30
0.0
 10
104.6017116708982
 20
-150.7081135690938
 30
0.0
 10
104.6017116708982
 20
-150.8224907392041
 30
0.0
 10
104.6017116708982
 20
-150.8224907392041
 30
0.0
 10
104.6017116708982
 20
-150.8224907392041
 30
0.0
 10
105.3083007549229
 20
-150.8224907392041
 30
0.0
 10
105.3083007549229
 20
-150.8224907392041
 30
0.0
 10
105.3083007549229
 20
-150.8224907392041
 30
0.0
 10
105.3083007549229
 20
-150.7081135690938
 30
0.0
 10
105.3083007549229
 20
-150.7081135690938
 30
0.0
  0
SPLINE
  5
11F
330
115
100
AcDbEntity
  8
レイヤー 1
100
AcDbSpline
210
0.0
220
0.0
230
1.0
 70
    11
 71
     3
 72
    17
 73
    13
 74
     0
 42
0.0000000001
 43
0.0000000001
 40
0.0
 40
0.0
 40
0.0
 40
0.0
 40
1.0
 40
1.0
 40
1.0
 40
2.0
 40
2.0
 40
2.0
 40
3.0
 40
3.0
 40
3.0
 40
4.0
 40
4.0
 40
4.0
 40
4.0
 10
105.3083007549229
 20
-150.4755696238394
 30
0.0
 10
105.3083007549229
 20
-150.4755696238394
 30
0.0
 10
104.6017116708982
 20
-150.4755696238394
 30
0.0
 10
104.6017116708982
 20
-150.4755696238394
 30
0.0
 10
104.6017116708982
 20
-150.4755696238394
 30
0.0
 10
104.6017116708982
 20
-150.5834011125278
 30
0.0
 10
104.6017116708982
 20
-150.5834011125278
 30
0.0
 10
104.6017116708982
 20
-150.5834011125278
 30
0.0
 10
105.3083007549229
 20
-150.5834011125278
 30
0.0
 10
105.3083007549229
 20
-150.5834011125278
 30
0.0
 10
105.3083007549229
 20
-150.5834011125278
 30
0.0
 10
105.3083007549229
 20
-150.4755696238394
 30
0.0
 10
105.3083007549229
 20
-150.4755696238394
 30
0.0
  0
SPLINE
  5
120
330
115
100
AcDbEntity
  8
レイヤー 1
100
AcDbSpline
210
0.0
220
0.0
230
1.0
 70
     9
 71
     3
 72
   203
 73
   199
 74
     0
 42
0.0000000001
 43
0.0000000001
 40
0.0
 40
0.0
 40
0.0
 40
0.0
 40
1.0
 40
1.0
 40
1.0
 40
2.0
 40
2.0
 40
2.0
 40
3.0
 40
3.0
 40
3.0
 40
4.0
 40
4.0
 40
4.0
 40
5.0
 40
5.0
 40
5.0
 40
6.0
 40
6.0
 40
6.0
 40
7.0
 40
7.0
 40
7.0
 40
8.0
 40
8.0
 40
8.0
 40
9.0
 40
9.0
 40
9.0
 40
10.0
 40
10.0
 40
10.0
 40
11.0
 40
11.0
 40
11.0
 40
12.0
 40
12.0
 40
12.0
 40
13.0
 40
13.0
 40
13.0
 40
14.0
 40
14.0
 40
14.0
 40
15.0
 40
15.0
 40
15.0
 40
16.0
 40
16.0
 40
16.0
 40
17.0
 40
17.0
 40
17.0
 40
18.0
 40
18.0
 40
18.0
 40
19.0
 40
19.0
 40
19.0
 40
20.0
 40
20.0
 40
20.0
 40
21.0
 40
21.0
 40
21.0
 40
22.0
 40
22.0
 40
22.0
 40
23.0
 40
23.0
 40
23.0
 40
24.0
 40
24.0
 40
24.0
 40
25.0
 40
25.0
 40
25.0
 40
26.0
 40
26.0
 40
26.0
 40
27.0
 40
27.0
 40
27.0
 40
28.0
 40
28.0
 40
28.0
 40
29.0
 40
29.0
 40
29.0
 40
30.0
 40
30.0
 40
30.0
 40
31.0
 40
31.0
 40
31.0
 40
32.0
 40
32.0
 40
32.0
 40
33.0
 40
33.0
 40
33.0
 40
34.0
 40
34.0
 40
34.0
 40
35.0
 40
35.0
 40
35.0
 40
36.0
 40
36.0
 40
36.0
 40
37.0
 40
37.0
 40
37.0
 40
38.0
 40
38.0
 40
38.0
 40
39.0
 40
39.0
 40
39.0
 40
40.0
 40
40.0
 40
40.0
 40
41.0
 40
41.0
 40
41.0
 40
42.0
 40
42.0
 40
42.0
 40
43.0
 40
43.0
 40
43.0
 40
44.0
 40
44.0
 40
44.0
 40
45.0
 40
45.0
 40
45.0
 40
46.0
 40
46.0
 40
46.0
 40
47.0
 40
47.0
 40
47.0
 40
48.0
 40
48.0
 40
48.0
 40
49.0
 40
49.0
 40
49.0
 40
50.0
 40
50.0
 40
50.0
 40
51.0
 40
51.0
 40
51.0
 40
52.0
 40
52.0
 40
52.0
 40
53.0
 40
53.0
 40
53.0
 40
54.0
 40
54.0
 40
54.0
 40
55.0
 40
55.0
 40
55.0
 40
56.0
 40
56.0
 40
56.0
 40
57.0
 40
57.0
 40
57.0
 40
58.0
 40
58.0
 40
58.0
 40
59.0
 40
59.0
 40
59.0
 40
60.0
 40
60.0
 40
60.0
 40
61.0
 40
61.0
 40
61.0
 40
62.0
 40
62.0
 40
62.0
 40
63.0
 40
63.0
 40
63.0
 40
64.0
 40
64.0
 40
64.0
 40
65.0
 40
65.0
 40
65.0
 40
66.0
 40
66.0
 40
66.0
 40
66.0
 10
105.1432806811794
 20
-150.2195990292854
 30
0.0
 10
105.1432806811794
 20
-150.2195990292854
 30
0.0
 10
104.5848307030204
 20
-150.2195990292854
 30
0.0
 10
104.5848307030204
 20
-150.2195990292854
 30
0.0
 10
104.5741509070162
 20
-150.2640407610451
 30
0.0
 10
104.5657104230773
 20
-150.2957356395094
 30
0.0
 10
104.5529635697819
 20
-150.3336316898471
 30
0.0
 10
104.5784572763727
 20
-150.3336316898471
 30
0.0
 10
104.5932711869593
 20
-150.3360432566868
 30
0.0
 10
104.599644613607
 20
-150.3360432566868
 30
0.0
 10
104.599644613607
 20
-150.3360432566868
 30
0.0
 10
104.7879190818759
 20
-150.3360432566868
 30
0.0
 10
104.7879190818759
 20
-150.3360432566868
 30
0.0
 10
104.7879190818759
 20
-150.3360432566868
 30
0.0
 10
105.1622287063483
 20
-150.3360432566868
 30
0.0
 10
105.1622287063483
 20
-150.3360432566868
 30
0.0
 10
105.2130438647558
 20
-150.3360432566868
 30
0.0
 10
105.4964029684176
 20
-150.3232964033914
 30
0.0
 10
105.5284423564304
 20
-150.3232964033914
 30
0.0
 10
105.5260307895907
 20
-150.3508571672734
 30
0.0
 10
105.5239637322995
 20
-150.3698051924422
 30
0.0
 10
105.5239637322995
 20
-150.3994330136154
 30
0.0
 10
105.5218966750084
 20
-150.4311278920797
 30
0.0
 10
105.5218966750084
 20
-150.56652014465
 30
0.0
 10
105.5218966750084
 20
-150.594080908532
 30
0.0
 10
105.5218966750084
 20
-150.594080908532
 30
0.0
 10
105.5218966750084
 20
-150.8393717070818
 30
0.0
 10
105.5218966750084
 20
-150.8393717070818
 30
0.0
 10
105.5218966750084
 20
-150.8838134388415
 30
0.0
 10
105.5260307895907
 20
-151.0805283910493
 30
0.0
 10
105.5305094137215
 20
-151.2328016114973
 30
0.0
 10
105.5305094137215
 20
-151.2328016114973
 30
0.0
 10
105.3039943855663
 20
-151.2328016114973
 30
0.0
 10
105.3039943855663
 20
-151.2328016114973
 30
0.0
 10
105.3039943855663
 20
-151.2328016114973
 30
0.0
 10
105.3062336976318
 20
-151.1990396757419
 30
0.0
 10
105.3062336976318
 20
-151.1990396757419
 30
0.0
 10
105.3062336976318
 20
-151.1990396757419
 30
0.0
 10
104.6037787281893
 20
-151.1990396757419
 30
0.0
 10
104.6037787281893
 20
-151.1990396757419
 30
0.0
 10
104.6037787281893
 20
-151.1990396757419
 30
0.0
 10
104.6058457854805
 20
-151.2328016114973
 30
0.0
 10
104.6058457854805
 20
-151.2328016114973
 30
0.0
 10
104.6058457854805
 20
-151.2328016114973
 30
0.0
 10
104.3879434960384
 20
-151.2328016114973
 30
0.0
 10
104.3879434960384
 20
-151.2328016114973
 30
0.0
 10
104.392249865395
 20
-151.1776800837334
 30
0.0
 10
104.392249865395
 20
-151.1652777399864
 30
0.0
 10
104.3986232920427
 20
-151.0509005698762
 30
0.0
 10
104.4006903493338
 20
-151.0233398059942
 30
0.0
 10
104.402757406625
 20
-150.890014610715
 30
0.0
 10
104.402757406625
 20
-150.8710665855461
 30
0.0
 10
104.402757406625
 20
-150.8710665855461
 30
0.0
 10
104.402757406625
 20
-150.6681504614649
 30
0.0
 10
104.402757406625
 20
-150.6681504614649
 30
0.0
 10
104.2632310394724
 20
-150.917575374597
 30
0.0
 10
104.0939045963723
 20
-151.048833512585
 30
0.0
 10
103.9881401649752
 20
-151.1142903268047
 30
0.0
 10
103.9881401649752
 20
-151.1142903268047
 30
0.0
 10
103.8146796072928
 20
-150.9747639596521
 30
0.0
 10
103.8146796072928
 20
-150.9747639596521
 30
0.0
 10
103.9035630708123
 20
-150.924121056019
 30
0.0
 10
104.0473958073215
 20
-150.8373046497906
 30
0.0
 10
104.1848551171829
 20
-150.642656754874
 30
0.0
 10
104.2759778927678
 20
-150.5155327314683
 30
0.0
 10
104.3414347069875
 20
-150.3718722497334
 30
0.0
 10
104.3753688975173
 20
-150.2195990292854
 30
0.0
 10
104.1467868120709
 20
-150.2216660865765
 30
0.0
 10
103.9669528277409
 20
-150.22786725845
 30
0.0
 10
103.871868192348
 20
-150.2299343157411
 30
0.0
 10
103.871868192348
 20
-150.2299343157411
 30
0.0
 10
103.871868192348
 20
-150.0525118982507
 30
0.0
 10
103.871868192348
 20
-150.0525118982507
 30
0.0
 10
104.0685831445558
 20
-150.0587130701242
 30
0.0
 10
104.3521145029918
 20
-150.0628471847065
 30
0.0
 10
104.5023206661487
 20
-150.0628471847065
 30
0.0
 10
104.5023206661487
 20
-150.0628471847065
 30
0.0
 10
104.7159165862342
 20
-150.0628471847065
 30
0.0
 10
104.7159165862342
 20
-150.0628471847065
 30
0.0
 10
104.7159165862342
 20
-150.0628471847065
 30
0.0
 10
104.7159165862342
 20
-149.9550156960182
 30
0.0
 10
104.7159165862342
 20
-149.9550156960182
 30
0.0
 10
104.7159165862342
 20
-149.9550156960182
 30
0.0
 10
104.5700167924339
 20
-149.9550156960182
 30
0.0
 10
104.5700167924339
 20
-149.9550156960182
 30
0.0
 10
104.4006903493338
 20
-149.9550156960182
 30
0.0
 10
104.2315361610081
 20
-149.9591498106005
 30
0.0
 10
104.0642767751992
 20
-149.9656954920224
 30
0.0
 10
104.0642767751992
 20
-149.9656954920224
 30
0.0
 10
104.0642767751992
 20
-149.7944742464055
 30
0.0
 10
104.0642767751992
 20
-149.7944742464055
 30
0.0
 10
104.2187893077126
 20
-149.8048095328613
 30
0.0
 10
104.4049967186904
 20
-149.8048095328613
 30
0.0
 10
104.5700167924339
 20
-149.8048095328613
 30
0.0
 10
104.5700167924339
 20
-149.8048095328613
 30
0.0
 10
104.7159165862342
 20
-149.8048095328613
 30
0.0
 10
104.7159165862342
 20
-149.8048095328613
 30
0.0
 10
104.7159165862342
 20
-149.8048095328613
 30
0.0
 10
104.7159165862342
 20
-149.6862982481687
 30
0.0
 10
104.7159165862342
 20
-149.6862982481687
 30
0.0
 10
104.7159165862342
 20
-149.6862982481687
 30
0.0
 10
104.5848307030204
 20
-149.6862982481687
 30
0.0
 10
104.5848307030204
 20
-149.6862982481687
 30
0.0
 10
104.5381496591953
 20
-149.6862982481687
 30
0.0
 10
104.3350612803398
 20
-149.6949109868818
 30
0.0
 10
104.2928588606455
 20
-149.6949109868818
 30
0.0
 10
104.08977048179
 20
-149.6990451014641
 30
0.0
 10
104.013633871566
 20
-149.7011121587553
 30
0.0
 10
103.9352579492766
 20
-149.7031792160464
 30
0.0
 10
103.9352579492766
 20
-149.7031792160464
 30
0.0
 10
103.9352579492766
 20
-149.5192111171341
 30
0.0
 10
103.9352579492766
 20
-149.5192111171341
 30
0.0
 10
104.0494628646126
 20
-149.5278238558472
 30
0.0
 10
104.0939045963723
 20
-149.5278238558472
 30
0.0
 10
104.4768269595579
 20
-149.5360920850118
 30
0.0
 10
104.4134372026293
 20
-149.4410074496189
 30
0.0
 10
104.3858764387473
 20
-149.4134466857369
 30
0.0
 10
104.3498751909264
 20
-149.3776176926903
 30
0.0
 10
104.3498751909264
 20
-149.3776176926903
 30
0.0
 10
104.5255750606741
 20
-149.2949354010443
 30
0.0
 10
104.5255750606741
 20
-149.2949354010443
 30
0.0
 10
104.5657104230773
 20
-149.3311089036394
 30
0.0
 10
104.610152154837
 20
-149.373483578108
 30
0.0
 10
104.6842217077699
 20
-149.4833821240875
 30
0.0
 10
104.6842217077699
 20
-149.4833821240875
 30
0.0
 10
104.5700167924339
 20
-149.5385036518515
 30
0.0
 10
104.5700167924339
 20
-149.5385036518515
 30
0.0
 10
104.5700167924339
 20
-149.5385036518515
 30
0.0
 10
104.5805243336639
 20
-149.5385036518515
 30
0.0
 10
104.5805243336639
 20
-149.5385036518515
 30
0.0
 10
104.5805243336639
 20
-149.5385036518515
 30
0.0
 10
105.102973064002
 20
-149.5385036518515
 30
0.0
 10
105.102973064002
 20
-149.5385036518515
 30
0.0
 10
105.102973064002
 20
-149.5385036518515
 30
0.0
 10
105.0078884286091
 20
-149.4940619200917
 30
0.0
 10
105.0078884286091
 20
-149.4940619200917
 30
0.0
 10
105.0354491924911
 20
-149.4558213602055
 30
0.0
 10
105.092465522772
 20
-149.3755506353991
 30
0.0
 10
105.1072794333586
 20
-149.3014810824663
 30
0.0
 10
105.1072794333586
 20
-149.3014810824663
 30
0.0
 10
105.3208753534441
 20
-149.3648708393949
 30
0.0
 10
105.3208753534441
 20
-149.3648708393949
 30
0.0
 10
105.3294880921572
 20
-149.366937896686
 30
0.0
 10
105.3505031746172
 20
-149.3776176926903
 30
0.0
 10
105.3505031746172
 20
-149.3986327751503
 30
0.0
 10
105.3505031746172
 20
-149.4368733350366
 30
0.0
 10
105.2850463603975
 20
-149.4368733350366
 30
0.0
 10
105.2659260804543
 20
-149.4368733350366
 30
0.0
 10
105.2554185392243
 20
-149.4558213602055
 30
0.0
 10
105.2321641446989
 20
-149.4961289773829
 30
0.0
 10
105.2025363235257
 20
-149.5360920850118
 30
0.0
 10
105.6021673998147
 20
-149.5298909131383
 30
0.0
 10
105.6317952209879
 20
-149.5278238558472
 30
0.0
 10
105.7079318312119
 20
-149.5212781744252
 30
0.0
 10
105.7079318312119
 20
-149.5212781744252
 30
0.0
 10
105.7079318312119
 20
-149.7031792160464
 30
0.0
 10
105.7079318312119
 20
-149.7031792160464
 30
0.0
 10
105.688983806043
 20
-149.7031792160464
 30
0.0
 10
105.6638346090007
 20
-149.7011121587553
 30
0.0
 10
105.4436930074932
 20
-149.6928439295906
 30
0.0
 10
105.3928778490858
 20
-149.6907768722995
 30
0.0
 10
105.1729085023526
 20
-149.6862982481687
 30
0.0
 10
105.1284667705929
 20
-149.6862982481687
 30
0.0
 10
105.1284667705929
 20
-149.6862982481687
 30
0.0
 10
104.912631538442
 20
-149.6862982481687
 30
0.0
 10
104.912631538442
 20
-149.6862982481687
 30
0.0
 10
104.912631538442
 20
-149.6862982481687
 30
0.0
 10
104.912631538442
 20
-149.8048095328613
 30
0.0
 10
104.912631538442
 20
-149.8048095328613
 30
0.0
 10
104.912631538442
 20
-149.8048095328613
 30
0.0
 10
105.0860920961243
 20
-149.8048095328613
 30
0.0
 10
105.0860920961243
 20
-149.8048095328613
 30
0.0
 10
105.2490451125766
 20
-149.8048095328613
 30
0.0
 10
105.4393866381367
 20
-149.8048095328613
 30
0.0
 10
105.5959662279413
 20
-149.7944742464055
 30
0.0
 10
105.5959662279413
 20
-149.7944742464055
 30
0.0
 10
105.5959662279413
 20
-149.9656954920224
 30
0.0
 10
105.5959662279413
 20
-149.9656954920224
 30
0.0
 10
105.3865044224381
 20
-149.9570827533093
 30
0.0
 10
105.1897894702303
 20
-149.9550156960182
 30
0.0
 10
105.0860920961243
 20
-149.9550156960182
 30
0.0
 10
105.0860920961243
 20
-149.9550156960182
 30
0.0
 10
104.912631538442
 20
-149.9550156960182
 30
0.0
 10
104.912631538442
 20
-149.9550156960182
 30
0.0
 10
104.912631538442
 20
-149.9550156960182
 30
0.0
 10
104.912631538442
 20
-150.0628471847065
 30
0.0
 10
104.912631538442
 20
-150.0628471847065
 30
0.0
 10
104.912631538442
 20
-150.0628471847065
 30
0.0
 10
105.1432806811794
 20
-150.0628471847065
 30
0.0
 10
105.1432806811794
 20
-150.0628471847065
 30
0.0
 10
105.2766058764586
 20
-150.0628471847065
 30
0.0
 10
105.564271349477
 20
-150.0587130701242
 30
0.0
 10
105.7737331549801
 20
-150.0525118982507
 30
0.0
 10
105.7737331549801
 20
-150.0525118982507
 30
0.0
 10
105.7737331549801
 20
-150.2299343157411
 30
0.0
 10
105.7737331549801
 20
-150.2299343157411
 30
0.0
 10
105.5811523173547
 20
-150.2237331438677
 30
0.0
 10
105.2679931377455
 20
-150.2195990292854
 30
0.0
 10
105.1432806811794
 20
-150.2195990292854
 30
0.0
  0
HATCH
  5
121
330
115
100
AcDbEntity
  8
レイヤー 1
 62
    18
420
        0
440
 33554687
100
AcDbHatch
 10
0.0
 20
0.0
 30
0.0
210
0.0
220
0.0
230
1.0
  2
SOLID
 70
     1
 71
     1
 91
        4
 92
        1
 93
        1
 72
     4
 94
        3
 73
     0
 74
     0
 95
       17
 96
       13
 40
0.0
 40
0.0
 40
0.0
 40
0.0
 40
1.0
 40
1.0
 40
1.0
 40
2.0
 40
2.0
 40
2.0
 40
3.0
 40
3.0
 40
3.0
 40
4.0
 40
4.0
 40
4.0
 40
4.0
 10
105.3083007549229
 20
-150.9513373103524
 10
105.3083007549229
 20
-150.9513373103524
 10
104.6017116708982
 20
-150.9513373103524
 10
104.6017116708982
 20
-150.9513373103524
 10
104.6017116708982
 20
-150.9513373103524
 10
104.6017116708982
 20
-151.0657144804627
 10
104.6017116708982
 20
-151.0657144804627
 10
104.6017116708982
 20
-151.0657144804627
 10
105.3083007549229
 20
-151.0657144804627
 10
105.3083007549229
 20
-151.0657144804627
 10
105.3083007549229
 20
-151.0657144804627
 10
105.3083007549229
 20
-150.9513373103524
 10
105.3083007549229
 20
-150.9513373103524
 97
        0
 97
        1
330
11D
 92
        1
 93
        1
 72
     4
 94
        3
 73
     0
 74
     0
 95
       17
 96
       13
 40
0.0
 40
0.0
 40
0.0
 40
0.0
 40
1.0
 40
1.0
 40
1.0
 40
2.0
 40
2.0
 40
2.0
 40
3.0
 40
3.0
 40
3.0
 40
4.0
 40
4.0
 40
4.0
 40
4.0
 10
105.3083007549229
 20
-150.7081135690938
 10
105.3083007549229
 20
-150.7081135690938
 10
104.6017116708982
 20
-150.7081135690938
 10
104.6017116708982
 20
-150.7081135690938
 10
104.6017116708982
 20
-150.7081135690938
 10
104.6017116708982
 20
-150.8224907392041
 10
104.6017116708982
 20
-150.8224907392041
 10
104.6017116708982
 20
-150.8224907392041
 10
105.3083007549229
 20
-150.8224907392041
 10
105.3083007549229
 20
-150.8224907392041
 10
105.3083007549229
 20
-150.8224907392041
 10
105.3083007549229
 20
-150.7081135690938
 10
105.3083007549229
 20
-150.7081135690938
 97
        0
 97
        1
330
11E
 92
        1
 93
        1
 72
     4
 94
        3
 73
     0
 74
     0
 95
       17
 96
       13
 40
0.0
 40
0.0
 40
0.0
 40
0.0
 40
1.0
 40
1.0
 40
1.0
 40
2.0
 40
2.0
 40
2.0
 40
3.0
 40
3.0
 40
3.0
 40
4.0
 40
4.0
 40
4.0
 40
4.0
 10
105.3083007549229
 20
-150.4755696238394
 10
105.3083007549229
 20
-150.4755696238394
 10
104.6017116708982
 20
-150.4755696238394
 10
104.6017116708982
 20
-150.4755696238394
 10
104.6017116708982
 20
-150.4755696238394
 10
104.6017116708982
 20
-150.5834011125278
 10
104.6017116708982
 20
-150.5834011125278
 10
104.6017116708982
 20
-150.5834011125278
 10
105.3083007549229
 20
-150.5834011125278
 10
105.3083007549229
 20
-150.5834011125278
 10
105.3083007549229
 20
-150.5834011125278
 10
105.3083007549229
 20
-150.4755696238394
 10
105.3083007549229
 20
-150.4755696238394
 97
        0
 97
        1
330
11F
 92
        1
 93
        1
 72
     4
 94
        3
 73
     0
 74
     0
 95
      203
 96
      199
 40
0.0
 40
0.0
 40
0.0
 40
0.0
 40
1.0
 40
1.0
 40
1.0
 40
2.0
 40
2.0
 40
2.0
 40
3.0
 40
3.0
 40
3.0
 40
4.0
 40
4.0
 40
4.0
 40
5.0
 40
5.0
 40
5.0
 40
6.0
 40
6.0
 40
6.0
 40
7.0
 40
7.0
 40
7.0
 40
8.0
 40
8.0
 40
8.0
 40
9.0
 40
9.0
 40
9.0
 40
10.0
 40
10.0
 40
10.0
 40
11.0
 40
11.0
 40
11.0
 40
12.0
 40
12.0
 40
12.0
 40
13.0
 40
13.0
 40
13.0
 40
14.0
 40
14.0
 40
14.0
 40
15.0
 40
15.0
 40
15.0
 40
16.0
 40
16.0
 40
16.0
 40
17.0
 40
17.0
 40
17.0
 40
18.0
 40
18.0
 40
18.0
 40
19.0
 40
19.0
 40
19.0
 40
20.0
 40
20.0
 40
20.0
 40
21.0
 40
21.0
 40
21.0
 40
22.0
 40
22.0
 40
22.0
 40
23.0
 40
23.0
 40
23.0
 40
24.0
 40
24.0
 40
24.0
 40
25.0
 40
25.0
 40
25.0
 40
26.0
 40
26.0
 40
26.0
 40
27.0
 40
27.0
 40
27.0
 40
28.0
 40
28.0
 40
28.0
 40
29.0
 40
29.0
 40
29.0
 40
30.0
 40
30.0
 40
30.0
 40
31.0
 40
31.0
 40
31.0
 40
32.0
 40
32.0
 40
32.0
 40
33.0
 40
33.0
 40
33.0
 40
34.0
 40
34.0
 40
34.0
 40
35.0
 40
35.0
 40
35.0
 40
36.0
 40
36.0
 40
36.0
 40
37.0
 40
37.0
 40
37.0
 40
38.0
 40
38.0
 40
38.0
 40
39.0
 40
39.0
 40
39.0
 40
40.0
 40
40.0
 40
40.0
 40
41.0
 40
41.0
 40
41.0
 40
42.0
 40
42.0
 40
42.0
 40
43.0
 40
43.0
 40
43.0
 40
44.0
 40
44.0
 40
44.0
 40
45.0
 40
45.0
 40
45.0
 40
46.0
 40
46.0
 40
46.0
 40
47.0
 40
47.0
 40
47.0
 40
48.0
 40
48.0
 40
48.0
 40
49.0
 40
49.0
 40
49.0
 40
50.0
 40
50.0
 40
50.0
 40
51.0
 40
51.0
 40
51.0
 40
52.0
 40
52.0
 40
52.0
 40
53.0
 40
53.0
 40
53.0
 40
54.0
 40
54.0
 40
54.0
 40
55.0
 40
55.0
 40
55.0
 40
56.0
 40
56.0
 40
56.0
 40
57.0
 40
57.0
 40
57.0
 40
58.0
 40
58.0
 40
58.0
 40
59.0
 40
59.0
 40
59.0
 40
60.0
 40
60.0
 40
60.0
 40
61.0
 40
61.0
 40
61.0
 40
62.0
 40
62.0
 40
62.0
 40
63.0
 40
63.0
 40
63.0
 40
64.0
 40
64.0
 40
64.0
 40
65.0
 40
65.0
 40
65.0
 40
66.0
 40
66.0
 40
66.0
 40
66.0
 10
105.1432806811794
 20
-150.2195990292854
 10
105.1432806811794
 20
-150.2195990292854
 10
104.5848307030204
 20
-150.2195990292854
 10
104.5848307030204
 20
-150.2195990292854
 10
104.5741509070162
 20
-150.2640407610451
 10
104.5657104230773
 20
-150.2957356395094
 10
104.5529635697819
 20
-150.3336316898471
 10
104.5784572763727
 20
-150.3336316898471
 10
104.5932711869593
 20
-150.3360432566868
 10
104.599644613607
 20
-150.3360432566868
 10
104.599644613607
 20
-150.3360432566868
 10
104.7879190818759
 20
-150.3360432566868
 10
104.7879190818759
 20
-150.3360432566868
 10
104.7879190818759
 20
-150.3360432566868
 10
105.1622287063483
 20
-150.3360432566868
 10
105.1622287063483
 20
-150.3360432566868
 10
105.2130438647558
 20
-150.3360432566868
 10
105.4964029684176
 20
-150.3232964033914
 10
105.5284423564304
 20
-150.3232964033914
 10
105.5260307895907
 20
-150.3508571672734
 10
105.5239637322995
 20
-150.3698051924422
 10
105.5239637322995
 20
-150.3994330136154
 10
105.5218966750084
 20
-150.4311278920797
 10
105.5218966750084
 20
-150.56652014465
 10
105.5218966750084
 20
-150.594080908532
 10
105.5218966750084
 20
-150.594080908532
 10
105.5218966750084
 20
-150.8393717070818
 10
105.5218966750084
 20
-150.8393717070818
 10
105.5218966750084
 20
-150.8838134388415
 10
105.5260307895907
 20
-151.0805283910493
 10
105.5305094137215
 20
-151.2328016114973
 10
105.5305094137215
 20
-151.2328016114973
 10
105.3039943855663
 20
-151.2328016114973
 10
105.3039943855663
 20
-151.2328016114973
 10
105.3039943855663
 20
-151.2328016114973
 10
105.3062336976318
 20
-151.1990396757419
 10
105.3062336976318
 20
-151.1990396757419
 10
105.3062336976318
 20
-151.1990396757419
 10
104.6037787281893
 20
-151.1990396757419
 10
104.6037787281893
 20
-151.1990396757419
 10
104.6037787281893
 20
-151.1990396757419
 10
104.6058457854805
 20
-151.2328016114973
 10
104.6058457854805
 20
-151.2328016114973
 10
104.6058457854805
 20
-151.2328016114973
 10
104.3879434960384
 20
-151.2328016114973
 10
104.3879434960384
 20
-151.2328016114973
 10
104.392249865395
 20
-151.1776800837334
 10
104.392249865395
 20
-151.1652777399864
 10
104.3986232920427
 20
-151.0509005698762
 10
104.4006903493338
 20
-151.0233398059942
 10
104.402757406625
 20
-150.890014610715
 10
104.402757406625
 20
-150.8710665855461
 10
104.402757406625
 20
-150.8710665855461
 10
104.402757406625
 20
-150.6681504614649
 10
104.402757406625
 20
-150.6681504614649
 10
104.2632310394724
 20
-150.917575374597
 10
104.0939045963723
 20
-151.048833512585
 10
103.9881401649752
 20
-151.1142903268047
 10
103.9881401649752
 20
-151.1142903268047
 10
103.8146796072928
 20
-150.9747639596521
 10
103.8146796072928
 20
-150.9747639596521
 10
103.9035630708123
 20
-150.924121056019
 10
104.0473958073215
 20
-150.8373046497906
 10
104.1848551171829
 20
-150.642656754874
 10
104.2759778927678
 20
-150.5155327314683
 10
104.3414347069875
 20
-150.3718722497334
 10
104.3753688975173
 20
-150.2195990292854
 10
104.1467868120709
 20
-150.2216660865765
 10
103.9669528277409
 20
-150.22786725845
 10
103.871868192348
 20
-150.2299343157411
 10
103.871868192348
 20
-150.2299343157411
 10
103.871868192348
 20
-150.0525118982507
 10
103.871868192348
 20
-150.0525118982507
 10
104.0685831445558
 20
-150.0587130701242
 10
104.3521145029918
 20
-150.0628471847065
 10
104.5023206661487
 20
-150.0628471847065
 10
104.5023206661487
 20
-150.0628471847065
 10
104.7159165862342
 20
-150.0628471847065
 10
104.7159165862342
 20
-150.0628471847065
 10
104.7159165862342
 20
-150.0628471847065
 10
104.7159165862342
 20
-149.9550156960182
 10
104.7159165862342
 20
-149.9550156960182
 10
104.7159165862342
 20
-149.9550156960182
 10
104.5700167924339
 20
-149.9550156960182
 10
104.5700167924339
 20
-149.9550156960182
 10
104.4006903493338
 20
-149.9550156960182
 10
104.2315361610081
 20
-149.9591498106005
 10
104.0642767751992
 20
-149.9656954920224
 10
104.0642767751992
 20
-149.9656954920224
 10
104.0642767751992
 20
-149.7944742464055
 10
104.0642767751992
 20
-149.7944742464055
 10
104.2187893077126
 20
-149.8048095328613
 10
104.4049967186904
 20
-149.8048095328613
 10
104.5700167924339
 20
-149.8048095328613
 10
104.5700167924339
 20
-149.8048095328613
 10
104.7159165862342
 20
-149.8048095328613
 10
104.7159165862342
 20
-149.8048095328613
 10
104.7159165862342
 20
-149.8048095328613
 10
104.7159165862342
 20
-149.6862982481687
 10
104.7159165862342
 20
-149.6862982481687
 10
104.7159165862342
 20
-149.6862982481687
 10
104.5848307030204
 20
-149.6862982481687
 10
104.5848307030204
 20
-149.6862982481687
 10
104.5381496591953
 20
-149.6862982481687
 10
104.3350612803398
 20
-149.6949109868818
 10
104.2928588606455
 20
-149.6949109868818
 10
104.08977048179
 20
-149.6990451014641
 10
104.013633871566
 20
-149.7011121587553
 10
103.9352579492766
 20
-149.7031792160464
 10
103.9352579492766
 20
-149.7031792160464
 10
103.9352579492766
 20
-149.5192111171341
 10
103.9352579492766
 20
-149.5192111171341
 10
104.0494628646126
 20
-149.5278238558472
 10
104.0939045963723
 20
-149.5278238558472
 10
104.4768269595579
 20
-149.5360920850118
 10
104.4134372026293
 20
-149.4410074496189
 10
104.3858764387473
 20
-149.4134466857369
 10
104.3498751909264
 20
-149.3776176926903
 10
104.3498751909264
 20
-149.3776176926903
 10
104.5255750606741
 20
-149.2949354010443
 10
104.5255750606741
 20
-149.2949354010443
 10
104.5657104230773
 20
-149.3311089036394
 10
104.610152154837
 20
-149.373483578108
 10
104.6842217077699
 20
-149.4833821240875
 10
104.6842217077699
 20
-149.4833821240875
 10
104.5700167924339
 20
-149.5385036518515
 10
104.5700167924339
 20
-149.5385036518515
 10
104.5700167924339
 20
-149.5385036518515
 10
104.5805243336639
 20
-149.5385036518515
 10
104.5805243336639
 20
-149.5385036518515
 10
104.5805243336639
 20
-149.5385036518515
 10
105.102973064002
 20
-149.5385036518515
 10
105.102973064002
 20
-149.5385036518515
 10
105.102973064002
 20
-149.5385036518515
 10
105.0078884286091
 20
-149.4940619200917
 10
105.0078884286091
 20
-149.4940619200917
 10
105.0354491924911
 20
-149.4558213602055
 10
105.092465522772
 20
-149.3755506353991
 10
105.1072794333586
 20
-149.3014810824663
 10
105.1072794333586
 20
-149.3014810824663
 10
105.3208753534441
 20
-149.3648708393949
 10
105.3208753534441
 20
-149.3648708393949
 10
105.3294880921572
 20
-149.366937896686
 10
105.3505031746172
 20
-149.3776176926903
 10
105.3505031746172
 20
-149.3986327751503
 10
105.3505031746172
 20
-149.4368733350366
 10
105.2850463603975
 20
-149.4368733350366
 10
105.2659260804543
 20
-149.4368733350366
 10
105.2554185392243
 20
-149.4558213602055
 10
105.2321641446989
 20
-149.4961289773829
 10
105.2025363235257
 20
-149.5360920850118
 10
105.6021673998147
 20
-149.5298909131383
 10
105.6317952209879
 20
-149.5278238558472
 10
105.7079318312119
 20
-149.5212781744252
 10
105.7079318312119
 20
-149.5212781744252
 10
105.7079318312119
 20
-149.7031792160464
 10
105.7079318312119
 20
-149.7031792160464
 10
105.688983806043
 20
-149.7031792160464
 10
105.6638346090007
 20
-149.7011121587553
 10
105.4436930074932
 20
-149.6928439295906
 10
105.3928778490858
 20
-149.6907768722995
 10
105.1729085023526
 20
-149.6862982481687
 10
105.1284667705929
 20
-149.6862982481687
 10
105.1284667705929
 20
-149.6862982481687
 10
104.912631538442
 20
-149.6862982481687
 10
104.912631538442
 20
-149.6862982481687
 10
104.912631538442
 20
-149.6862982481687
 10
104.912631538442
 20
-149.8048095328613
 10
104.912631538442
 20
-149.8048095328613
 10
104.912631538442
 20
-149.8048095328613
 10
105.0860920961243
 20
-149.8048095328613
 10
105.0860920961243
 20
-149.8048095328613
 10
105.2490451125766
 20
-149.8048095328613
 10
105.4393866381367
 20
-149.8048095328613
 10
105.5959662279413
 20
-149.7944742464055
 10
105.5959662279413
 20
-149.7944742464055
 10
105.5959662279413
 20
-149.9656954920224
 10
105.5959662279413
 20
-149.9656954920224
 10
105.3865044224381
 20
-149.9570827533093
 10
105.1897894702303
 20
-149.9550156960182
 10
105.0860920961243
 20
-149.9550156960182
 10
105.0860920961243
 20
-149.9550156960182
 10
104.912631538442
 20
-149.9550156960182
 10
104.912631538442
 20
-149.9550156960182
 10
104.912631538442
 20
-149.9550156960182
 10
104.912631538442
 20
-150.0628471847065
 10
104.912631538442
 20
-150.0628471847065
 10
104.912631538442
 20
-150.0628471847065
 10
105.1432806811794
 20
-150.0628471847065
 10
105.1432806811794
 20
-150.0628471847065
 10
105.2766058764586
 20
-150.0628471847065
 10
105.564271349477
 20
-150.0587130701242
 10
105.7737331549801
 20
-150.0525118982507
 10
105.7737331549801
 20
-150.0525118982507
 10
105.7737331549801
 20
-150.2299343157411
 10
105.7737331549801
 20
-150.2299343157411
 10
105.5811523173547
 20
-150.2237331438677
 10
105.2679931377455
 20
-150.2195990292854
 10
105.1432806811794
 20
-150.2195990292854
 97
        0
 97
        1
330
120
 75
     2
 76
     1
 98
        1
 10
0.0
 20
0.0
450
        0
451
        0
460
0.0
461
0.0
452
        0
462
0.0
453
        0
470

  0
SPLINE
  5
122
330
115
100
AcDbEntity
  8
レイヤー 1
100
AcDbSpline
210
0.0
220
0.0
230
1.0
 70
     9
 71
     3
 72
    29
 73
    25
 74
     0
 42
0.0000000001
 43
0.0000000001
 40
0.0
 40
0.0
 40
0.0
 40
0.0
 40
1.0
 40
1.0
 40
1.0
 40
2.0
 40
2.0
 40
2.0
 40
3.0
 40
3.0
 40
3.0
 40
4.0
 40
4.0
 40
4.0
 40
5.0
 40
5.0
 40
5.0
 40
6.0
 40
6.0
 40
6.0
 40
7.0
 40
7.0
 40
7.0
 40
8.0
 40
8.0
 40
8.0
 40
8.0
 10
107.0187906633494
 20
-149.6673502229998
 30
0.0
 10
107.0187906633494
 20
-149.6673502229998
 30
0.0
 10
106.6653238665628
 20
-149.6673502229998
 30
0.0
 10
106.6653238665628
 20
-149.6673502229998
 30
0.0
 10
106.5533582632922
 20
-149.6673502229998
 30
0.0
 10
106.4138318961396
 20
-149.6735513948733
 30
0.0
 10
106.3056558979027
 20
-149.6862982481687
 30
0.0
 10
106.3056558979027
 20
-149.6862982481687
 30
0.0
 10
106.3056558979027
 20
-149.4516872456232
 30
0.0
 10
106.3056558979027
 20
-149.4516872456232
 30
0.0
 10
106.4241671825953
 20
-149.4665011562098
 30
0.0
 10
106.6084797910562
 20
-149.470635270792
 30
0.0
 10
106.6653238665628
 20
-149.470635270792
 30
0.0
 10
106.6653238665628
 20
-149.470635270792
 30
0.0
 10
107.0187906633494
 20
-149.470635270792
 30
0.0
 10
107.0187906633494
 20
-149.470635270792
 30
0.0
 10
107.0377386885183
 20
-149.470635270792
 30
0.0
 10
107.2409993221481
 20
-149.470635270792
 30
0.0
 10
107.3825927465918
 20
-149.4516872456232
 30
0.0
 10
107.3825927465918
 20
-149.4516872456232
 30
0.0
 10
107.3825927465918
 20
-149.6862982481687
 30
0.0
 10
107.3825927465918
 20
-149.6862982481687
 30
0.0
 10
107.2261854115615
 20
-149.6673502229998
 30
0.0
 10
107.0356716312272
 20
-149.6673502229998
 30
0.0
 10
107.0187906633494
 20
-149.6673502229998
 30
0.0
  0
SPLINE
  5
123
330
115
100
AcDbEntity
  8
レイヤー 1
100
AcDbSpline
210
0.0
220
0.0
230
1.0
 70
     9
 71
     3
 72
    47
 73
    43
 74
     0
 42
0.0000000001
 43
0.0000000001
 40
0.0
 40
0.0
 40
0.0
 40
0.0
 40
1.0
 40
1.0
 40
1.0
 40
2.0
 40
2.0
 40
2.0
 40
3.0
 40
3.0
 40
3.0
 40
4.0
 40
4.0
 40
4.0
 40
5.0
 40
5.0
 40
5.0
 40
6.0
 40
6.0
 40
6.0
 40
7.0
 40
7.0
 40
7.0
 40
8.0
 40
8.0
 40
8.0
 40
9.0
 40
9.0
 40
9.0
 40
10.0
 40
10.0
 40
10.0
 40
11.0
 40
11.0
 40
11.0
 40
12.0
 40
12.0
 40
12.0
 40
13.0
 40
13.0
 40
13.0
 40
14.0
 40
14.0
 40
14.0
 40
14.0
 10
107.1204209801643
 20
-150.1961723799857
 30
0.0
 10
107.1204209801643
 20
-150.1961723799857
 30
0.0
 10
107.0187906633494
 20
-150.1961723799857
 30
0.0
 10
107.0187906633494
 20
-150.1961723799857
 30
0.0
 10
107.0187906633494
 20
-150.282988786214
 30
0.0
 10
106.9974310713409
 20
-150.6722845760472
 30
0.0
 10
106.8007161191331
 20
-150.8924261775547
 30
0.0
 10
106.6484428986851
 20
-151.0615803658804
 30
0.0
 10
106.4410481504731
 20
-151.1311712946825
 30
0.0
 10
106.3566433110844
 20
-151.1587320585645
 30
0.0
 10
106.3566433110844
 20
-151.1587320585645
 30
0.0
 10
106.1619954161678
 20
-150.9916449275299
 30
0.0
 10
106.1619954161678
 20
-150.9916449275299
 30
0.0
 10
106.2591471088519
 20
-150.9788980742344
 30
0.0
 10
106.4348469785996
 20
-150.9558159344832
 30
0.0
 10
106.6229491920942
 20
-150.7673692114401
 30
0.0
 10
106.6970187450271
 20
-150.6953667157984
 30
0.0
 10
106.8007161191331
 20
-150.5558403486458
 30
0.0
 10
106.8007161191331
 20
-150.1961723799857
 30
0.0
 10
106.8007161191331
 20
-150.1961723799857
 30
0.0
 10
106.5702392311699
 20
-150.1961723799857
 30
0.0
 10
106.5702392311699
 20
-150.1961723799857
 30
0.0
 10
106.3842040749664
 20
-150.1961723799857
 30
0.0
 10
106.1978244092144
 20
-150.2006510041165
 30
0.0
 10
106.0117892530109
 20
-150.2151204051545
 30
0.0
 10
106.0117892530109
 20
-150.2151204051545
 30
0.0
 10
106.0117892530109
 20
-149.9953233131956
 30
0.0
 10
106.0117892530109
 20
-149.9953233131956
 30
0.0
 10
106.1998914665056
 20
-150.0101372237821
 30
0.0
 10
106.4854898822328
 20
-150.0142713383645
 30
0.0
 10
106.5702392311699
 20
-150.0142713383645
 30
0.0
 10
106.5702392311699
 20
-150.0142713383645
 30
0.0
 10
107.1204209801643
 20
-150.0142713383645
 30
0.0
 10
107.1204209801643
 20
-150.0142713383645
 30
0.0
 10
107.1393690053332
 20
-150.0142713383645
 30
0.0
 10
107.4566622995247
 20
-150.0142713383645
 30
0.0
 10
107.6850721301968
 20
-149.9953233131956
 30
0.0
 10
107.6850721301968
 20
-149.9953233131956
 30
0.0
 10
107.6850721301968
 20
-150.2151204051545
 30
0.0
 10
107.6850721301968
 20
-150.2151204051545
 30
0.0
 10
107.4969699167021
 20
-150.2006510041165
 30
0.0
 10
107.308523193659
 20
-150.1961723799857
 30
0.0
 10
107.1204209801643
 20
-150.1961723799857
 30
0.0
  0
HATCH
  5
124
330
115
100
AcDbEntity
  8
レイヤー 1
 62
    18
420
        0
440
 33554687
100
AcDbHatch
 10
0.0
 20
0.0
 30
0.0
210
0.0
220
0.0
230
1.0
  2
SOLID
 70
     1
 71
     1
 91
        2
 92
        1
 93
        1
 72
     4
 94
        3
 73
     0
 74
     0
 95
       29
 96
       25
 40
0.0
 40
0.0
 40
0.0
 40
0.0
 40
1.0
 40
1.0
 40
1.0
 40
2.0
 40
2.0
 40
2.0
 40
3.0
 40
3.0
 40
3.0
 40
4.0
 40
4.0
 40
4.0
 40
5.0
 40
5.0
 40
5.0
 40
6.0
 40
6.0
 40
6.0
 40
7.0
 40
7.0
 40
7.0
 40
8.0
 40
8.0
 40
8.0
 40
8.0
 10
107.0187906633494
 20
-149.6673502229998
 10
107.0187906633494
 20
-149.6673502229998
 10
106.6653238665628
 20
-149.6673502229998
 10
106.6653238665628
 20
-149.6673502229998
 10
106.5533582632922
 20
-149.6673502229998
 10
106.4138318961396
 20
-149.6735513948733
 10
106.3056558979027
 20
-149.6862982481687
 10
106.3056558979027
 20
-149.6862982481687
 10
106.3056558979027
 20
-149.4516872456232
 10
106.3056558979027
 20
-149.4516872456232
 10
106.4241671825953
 20
-149.4665011562098
 10
106.6084797910562
 20
-149.470635270792
 10
106.6653238665628
 20
-149.470635270792
 10
106.6653238665628
 20
-149.470635270792
 10
107.0187906633494
 20
-149.470635270792
 10
107.0187906633494
 20
-149.470635270792
 10
107.0377386885183
 20
-149.470635270792
 10
107.2409993221481
 20
-149.470635270792
 10
107.3825927465918
 20
-149.4516872456232
 10
107.3825927465918
 20
-149.4516872456232
 10
107.3825927465918
 20
-149.6862982481687
 10
107.3825927465918
 20
-149.6862982481687
 10
107.2261854115615
 20
-149.6673502229998
 10
107.0356716312272
 20
-149.6673502229998
 10
107.0187906633494
 20
-149.6673502229998
 97
        0
 97
        1
330
122
 92
        1
 93
        1
 72
     4
 94
        3
 73
     0
 74
     0
 95
       47
 96
       43
 40
0.0
 40
0.0
 40
0.0
 40
0.0
 40
1.0
 40
1.0
 40
1.0
 40
2.0
 40
2.0
 40
2.0
 40
3.0
 40
3.0
 40
3.0
 40
4.0
 40
4.0
 40
4.0
 40
5.0
 40
5.0
 40
5.0
 40
6.0
 40
6.0
 40
6.0
 40
7.0
 40
7.0
 40
7.0
 40
8.0
 40
8.0
 40
8.0
 40
9.0
 40
9.0
 40
9.0
 40
10.0
 40
10.0
 40
10.0
 40
11.0
 40
11.0
 40
11.0
 40
12.0
 40
12.0
 40
12.0
 40
13.0
 40
13.0
 40
13.0
 40
14.0
 40
14.0
 40
14.0
 40
14.0
 10
107.1204209801643
 20
-150.1961723799857
 10
107.1204209801643
 20
-150.1961723799857
 10
107.0187906633494
 20
-150.1961723799857
 10
107.0187906633494
 20
-150.1961723799857
 10
107.0187906633494
 20
-150.282988786214
 10
106.9974310713409
 20
-150.6722845760472
 10
106.8007161191331
 20
-150.8924261775547
 10
106.6484428986851
 20
-151.0615803658804
 10
106.4410481504731
 20
-151.1311712946825
 10
106.3566433110844
 20
-151.1587320585645
 10
106.3566433110844
 20
-151.1587320585645
 10
106.1619954161678
 20
-150.9916449275299
 10
106.1619954161678
 20
-150.9916449275299
 10
106.2591471088519
 20
-150.9788980742344
 10
106.4348469785996
 20
-150.9558159344832
 10
106.6229491920942
 20
-150.7673692114401
 10
106.6970187450271
 20
-150.6953667157984
 10
106.8007161191331
 20
-150.5558403486458
 10
106.8007161191331
 20
-150.1961723799857
 10
106.8007161191331
 20
-150.1961723799857
 10
106.5702392311699
 20
-150.1961723799857
 10
106.5702392311699
 20
-150.1961723799857
 10
106.3842040749664
 20
-150.1961723799857
 10
106.1978244092144
 20
-150.2006510041165
 10
106.0117892530109
 20
-150.2151204051545
 10
106.0117892530109
 20
-150.2151204051545
 10
106.0117892530109
 20
-149.9953233131956
 10
106.0117892530109
 20
-149.9953233131956
 10
106.1998914665056
 20
-150.0101372237821
 10
106.4854898822328
 20
-150.0142713383645
 10
106.5702392311699
 20
-150.0142713383645
 10
106.5702392311699
 20
-150.0142713383645
 10
107.1204209801643
 20
-150.0142713383645
 10
107.1204209801643
 20
-150.0142713383645
 10
107.1393690053332
 20
-150.0142713383645
 10
107.4566622995247
 20
-150.0142713383645
 10
107.6850721301968
 20
-149.9953233131956
 10
107.6850721301968
 20
-149.9953233131956
 10
107.6850721301968
 20
-150.2151204051545
 10
107.6850721301968
 20
-150.2151204051545
 10
107.4969699167021
 20
-150.2006510041165
 10
107.308523193659
 20
-150.1961723799857
 10
107.1204209801643
 20
-150.1961723799857
 97
        0
 97
        1
330
123
 75
     2
 76
     1
 98
        1
 10
0.0
 20
0.0
450
        0
451
        0
460
0.0
461
0.0
452
        0
462
0.0
453
        0
470

  0
SPLINE
  5
125
330
115
100
AcDbEntity
  8
レイヤー 1
100
AcDbSpline
210
0.0
220
0.0
230
1.0
 70
     9
 71
     3
 72
    29
 73
    25
 74
     0
 42
0.0000000001
 43
0.0000000001
 40
0.0
 40
0.0
 40
0.0
 40
0.0
 40
1.0
 40
1.0
 40
1.0
 40
2.0
 40
2.0
 40
2.0
 40
3.0
 40
3.0
 40
3.0
 40
4.0
 40
4.0
 40
4.0
 40
5.0
 40
5.0
 40
5.0
 40
6.0
 40
6.0
 40
6.0
 40
7.0
 40
7.0
 40
7.0
 40
8.0
 40
8.0
 40
8.0
 40
8.0
 10
108.9659586316127
 20
-150.359125396438
 30
0.0
 10
108.9659586316127
 20
-150.359125396438
 30
0.0
 10
108.4815782063865
 20
-150.359125396438
 30
0.0
 10
108.4815782063865
 20
-150.359125396438
 30
0.0
 10
108.4540174425045
 20
-150.359125396438
 30
0.0
 10
108.136724148313
 20
-150.359125396438
 30
0.0
 10
107.9251952855187
 20
-150.3846191030288
 30
0.0
 10
107.9251952855187
 20
-150.3846191030288
 30
0.0
 10
107.9251952855187
 20
-150.1537977055171
 30
0.0
 10
107.9251952855187
 20
-150.1537977055171
 30
0.0
 10
108.0840141873887
 20
-150.1772243548168
 30
0.0
 10
108.2741834581745
 20
-150.179291412108
 30
0.0
 10
108.4815782063865
 20
-150.179291412108
 30
0.0
 10
108.4815782063865
 20
-150.179291412108
 30
0.0
 10
108.9659586316127
 20
-150.179291412108
 30
0.0
 10
108.9659586316127
 20
-150.179291412108
 30
0.0
 10
109.1523382973647
 20
-150.179291412108
 30
0.0
 10
109.3383734535682
 20
-150.1772243548168
 30
0.0
 10
109.5223415524805
 20
-150.1537977055171
 30
0.0
 10
109.5223415524805
 20
-150.1537977055171
 30
0.0
 10
109.5223415524805
 20
-150.3846191030288
 30
0.0
 10
109.5223415524805
 20
-150.3846191030288
 30
0.0
 10
109.3383734535682
 20
-150.3611924537291
 30
0.0
 10
109.0910155977272
 20
-150.359125396438
 30
0.0
 10
108.9659586316127
 20
-150.359125396438
 30
0.0
  0
HATCH
  5
126
330
115
100
AcDbEntity
  8
レイヤー 1
 62
    18
420
        0
440
 33554687
100
AcDbHatch
 10
0.0
 20
0.0
 30
0.0
210
0.0
220
0.0
230
1.0
  2
SOLID
 70
     1
 71
     1
 91
        1
 92
        1
 93
        1
 72
     4
 94
        3
 73
     0
 74
     0
 95
       29
 96
       25
 40
0.0
 40
0.0
 40
0.0
 40
0.0
 40
1.0
 40
1.0
 40
1.0
 40
2.0
 40
2.0
 40
2.0
 40
3.0
 40
3.0
 40
3.0
 40
4.0
 40
4.0
 40
4.0
 40
5.0
 40
5.0
 40
5.0
 40
6.0
 40
6.0
 40
6.0
 40
7.0
 40
7.0
 40
7.0
 40
8.0
 40
8.0
 40
8.0
 40
8.0
 10
108.9659586316127
 20
-150.359125396438
 10
108.9659586316127
 20
-150.359125396438
 10
108.4815782063865
 20
-150.359125396438
 10
108.4815782063865
 20
-150.359125396438
 10
108.4540174425045
 20
-150.359125396438
 10
108.136724148313
 20
-150.359125396438
 10
107.9251952855187
 20
-150.3846191030288
 10
107.9251952855187
 20
-150.3846191030288
 10
107.9251952855187
 20
-150.1537977055171
 10
107.9251952855187
 20
-150.1537977055171
 10
108.0840141873887
 20
-150.1772243548168
 10
108.2741834581745
 20
-150.179291412108
 10
108.4815782063865
 20
-150.179291412108
 10
108.4815782063865
 20
-150.179291412108
 10
108.9659586316127
 20
-150.179291412108
 10
108.9659586316127
 20
-150.179291412108
 10
109.1523382973647
 20
-150.179291412108
 10
109.3383734535682
 20
-150.1772243548168
 10
109.5223415524805
 20
-150.1537977055171
 10
109.5223415524805
 20
-150.1537977055171
 10
109.5223415524805
 20
-150.3846191030288
 10
109.5223415524805
 20
-150.3846191030288
 10
109.3383734535682
 20
-150.3611924537291
 10
109.0910155977272
 20
-150.359125396438
 10
108.9659586316127
 20
-150.359125396438
 97
        0
 97
        1
330
125
 75
     2
 76
     1
 98
        1
 10
0.0
 20
0.0
450
        0
451
        0
460
0.0
461
0.0
452
        0
462
0.0
453
        0
470

  0
SPLINE
  5
127
330
115
100
AcDbEntity
  8
レイヤー 1
100
AcDbSpline
210
0.0
220
0.0
230
1.0
 70
     9
 71
     3
 72
    47
 73
    43
 74
     0
 42
0.0000000001
 43
0.0000000001
 40
0.0
 40
0.0
 40
0.0
 40
0.0
 40
1.0
 40
1.0
 40
1.0
 40
2.0
 40
2.0
 40
2.0
 40
3.0
 40
3.0
 40
3.0
 40
4.0
 40
4.0
 40
4.0
 40
5.0
 40
5.0
 40
5.0
 40
6.0
 40
6.0
 40
6.0
 40
7.0
 40
7.0
 40
7.0
 40
8.0
 40
8.0
 40
8.0
 40
9.0
 40
9.0
 40
9.0
 40
10.0
 40
10.0
 40
10.0
 40
11.0
 40
11.0
 40
11.0
 40
12.0
 40
12.0
 40
12.0
 40
13.0
 40
13.0
 40
13.0
 40
14.0
 40
14.0
 40
14.0
 40
14.0
 10
111.1863226718562
 20
-149.7648464252324
 30
0.0
 10
111.1163872335056
 20
-150.0438991595376
 30
0.0
 10
111.0402506232816
 20
-150.3484456004337
 30
0.0
 10
110.7270914436724
 20
-150.6805528052118
 30
0.0
 10
110.4900688742872
 20
-150.9303222278924
 30
0.0
 10
110.2447780757374
 20
-151.0298854874161
 30
0.0
 10
110.1390136443402
 20
-151.0719156523362
 30
0.0
 10
110.1390136443402
 20
-151.0719156523362
 30
0.0
 10
109.9443657494236
 20
-150.890014610715
 30
0.0
 10
109.9443657494236
 20
-150.890014610715
 30
0.0
 10
110.1304009056271
 20
-150.8435058216641
 30
0.0
 10
110.4924804411269
 20
-150.7504882435624
 30
0.0
 10
110.7884141433098
 20
-150.255428022332
 30
0.0
 10
110.949300102471
 20
-149.9887776317736
 30
0.0
 10
110.9620469557664
 20
-149.8154893288655
 30
0.0
 10
110.970315184931
 20
-149.724538808055
 30
0.0
 10
110.970315184931
 20
-149.724538808055
 30
0.0
 10
110.4649196772449
 20
-149.724538808055
 30
0.0
 10
110.4649196772449
 20
-149.724538808055
 30
0.0
 10
110.3464083925523
 20
-149.724538808055
 30
0.0
 10
109.9254177242547
 20
-149.7434868332238
 30
0.0
 10
109.7731445038067
 20
-149.7541666292281
 30
0.0
 10
109.7731445038067
 20
-149.7541666292281
 30
0.0
 10
109.7731445038067
 20
-149.5447048237249
 30
0.0
 10
109.7731445038067
 20
-149.5447048237249
 30
0.0
 10
109.9147379282505
 20
-149.5574516770203
 30
0.0
 10
110.1920681148131
 20
-149.5615857916026
 30
0.0
 10
110.308167832666
 20
-149.5615857916026
 30
0.0
 10
110.308167832666
 20
-149.5615857916026
 30
0.0
 10
110.6637016867438
 20
-149.5615857916026
 30
0.0
 10
110.6637016867438
 20
-149.5615857916026
 30
0.0
 10
110.6912624506258
 20
-149.5615857916026
 30
0.0
 10
110.8518039002384
 20
-149.5595187343115
 30
0.0
 10
110.9620469557664
 20
-149.5447048237249
 30
0.0
 10
111.0192355408216
 20
-149.5385036518515
 30
0.0
 10
111.0361165086993
 20
-149.5192111171341
 30
0.0
 10
111.0591986484505
 20
-149.4961289773829
 30
0.0
 10
111.0591986484505
 20
-149.4961289773829
 30
0.0
 10
111.2476453714936
 20
-149.6463351405398
 30
0.0
 10
111.2476453714936
 20
-149.6463351405398
 30
0.0
 10
111.2328314609071
 20
-149.6759629617129
 30
0.0
 10
111.2221516649028
 20
-149.6949109868818
 30
0.0
 10
111.1863226718562
 20
-149.7648464252324
 30
0.0
  0
HATCH
  5
128
330
115
100
AcDbEntity
  8
レイヤー 1
 62
    18
420
        0
440
 33554687
100
AcDbHatch
 10
0.0
 20
0.0
 30
0.0
210
0.0
220
0.0
230
1.0
  2
SOLID
 70
     1
 71
     1
 91
        1
 92
        1
 93
        1
 72
     4
 94
        3
 73
     0
 74
     0
 95
       47
 96
       43
 40
0.0
 40
0.0
 40
0.0
 40
0.0
 40
1.0
 40
1.0
 40
1.0
 40
2.0
 40
2.0
 40
2.0
 40
3.0
 40
3.0
 40
3.0
 40
4.0
 40
4.0
 40
4.0
 40
5.0
 40
5.0
 40
5.0
 40
6.0
 40
6.0
 40
6.0
 40
7.0
 40
7.0
 40
7.0
 40
8.0
 40
8.0
 40
8.0
 40
9.0
 40
9.0
 40
9.0
 40
10.0
 40
10.0
 40
10.0
 40
11.0
 40
11.0
 40
11.0
 40
12.0
 40
12.0
 40
12.0
 40
13.0
 40
13.0
 40
13.0
 40
14.0
 40
14.0
 40
14.0
 40
14.0
 10
111.1863226718562
 20
-149.7648464252324
 10
111.1163872335056
 20
-150.0438991595376
 10
111.0402506232816
 20
-150.3484456004337
 10
110.7270914436724
 20
-150.6805528052118
 10
110.4900688742872
 20
-150.9303222278924
 10
110.2447780757374
 20
-151.0298854874161
 10
110.1390136443402
 20
-151.0719156523362
 10
110.1390136443402
 20
-151.0719156523362
 10
109.9443657494236
 20
-150.890014610715
 10
109.9443657494236
 20
-150.890014610715
 10
110.1304009056271
 20
-150.8435058216641
 10
110.4924804411269
 20
-150.7504882435624
 10
110.7884141433098
 20
-150.255428022332
 10
110.949300102471
 20
-149.9887776317736
 10
110.9620469557664
 20
-149.8154893288655
 10
110.970315184931
 20
-149.724538808055
 10
110.970315184931
 20
-149.724538808055
 10
110.4649196772449
 20
-149.724538808055
 10
110.4649196772449
 20
-149.724538808055
 10
110.3464083925523
 20
-149.724538808055
 10
109.9254177242547
 20
-149.7434868332238
 10
109.7731445038067
 20
-149.7541666292281
 10
109.7731445038067
 20
-149.7541666292281
 10
109.7731445038067
 20
-149.5447048237249
 10
109.7731445038067
 20
-149.5447048237249
 10
109.9147379282505
 20
-149.5574516770203
 10
110.1920681148131
 20
-149.5615857916026
 10
110.308167832666
 20
-149.5615857916026
 10
110.308167832666
 20
-149.5615857916026
 10
110.6637016867438
 20
-149.5615857916026
 10
110.6637016867438
 20
-149.5615857916026
 10
110.6912624506258
 20
-149.5615857916026
 10
110.8518039002384
 20
-149.5595187343115
 10
110.9620469557664
 20
-149.5447048237249
 10
111.0192355408216
 20
-149.5385036518515
 10
111.0361165086993
 20
-149.5192111171341
 10
111.0591986484505
 20
-149.4961289773829
 10
111.0591986484505
 20
-149.4961289773829
 10
111.2476453714936
 20
-149.6463351405398
 10
111.2476453714936
 20
-149.6463351405398
 10
111.2328314609071
 20
-149.6759629617129
 10
111.2221516649028
 20
-149.6949109868818
 10
111.1863226718562
 20
-149.7648464252324
 97
        0
 97
        1
330
127
 75
     2
 76
     1
 98
        1
 10
0.0
 20
0.0
450
        0
451
        0
460
0.0
461
0.0
452
        0
462
0.0
453
        0
470

  0
SPLINE
  5
129
330
115
100
AcDbEntity
  8
レイヤー 1
100
AcDbSpline
210
0.0
220
0.0
230
1.0
 70
    11
 71
     3
 72
    17
 73
    13
 74
     0
 42
0.0000000001
 43
0.0000000001
 40
0.0
 40
0.0
 40
0.0
 40
0.0
 40
1.0
 40
1.0
 40
1.0
 40
2.0
 40
2.0
 40
2.0
 40
3.0
 40
3.0
 40
3.0
 40
4.0
 40
4.0
 40
4.0
 40
4.0
 10
111.5763074807865
 20
-149.5467718810161
 30
0.0
 10
111.5763074807865
 20
-149.6060275233624
 30
0.0
 10
111.6231607793858
 20
-149.6525363124133
 30
0.0
 10
111.6824164217322
 20
-149.6525363124133
 30
0.0
 10
111.7413275545299
 20
-149.6525363124133
 30
0.0
 10
111.7902479104205
 20
-149.6060275233624
 30
0.0
 10
111.7902479104205
 20
-149.5467718810161
 30
0.0
 10
111.7902479104205
 20
-149.4875162386698
 30
0.0
 10
111.7413275545299
 20
-149.4389403923277
 30
0.0
 10
111.6824164217322
 20
-149.4389403923277
 30
0.0
 10
111.6231607793858
 20
-149.4389403923277
 30
0.0
 10
111.5763074807865
 20
-149.4875162386698
 30
0.0
 10
111.5763074807865
 20
-149.5467718810161
 30
0.0
  0
SPLINE
  5
12A
330
115
100
AcDbEntity
  8
レイヤー 1
100
AcDbSpline
210
0.0
220
0.0
230
1.0
 70
     9
 71
     3
 72
    17
 73
    13
 74
     0
 42
0.0000000001
 43
0.0000000001
 40
0.0
 40
0.0
 40
0.0
 40
0.0
 40
1.0
 40
1.0
 40
1.0
 40
2.0
 40
2.0
 40
2.0
 40
3.0
 40
3.0
 40
3.0
 40
4.0
 40
4.0
 40
4.0
 40
4.0
 10
111.8915337176868
 20
-149.5467718810161
 30
0.0
 10
111.8915337176868
 20
-149.6611490511264
 30
0.0
 10
111.7985161395851
 20
-149.7562336865193
 30
0.0
 10
111.6824164217322
 20
-149.7562336865193
 30
0.0
 10
111.5680392516219
 20
-149.7562336865193
 30
0.0
 10
111.472954616229
 20
-149.6611490511264
 30
0.0
 10
111.472954616229
 20
-149.5467718810161
 30
0.0
 10
111.472954616229
 20
-149.4303276536146
 30
0.0
 10
111.5680392516219
 20
-149.3373100755129
 30
0.0
 10
111.6824164217322
 20
-149.3373100755129
 30
0.0
 10
111.7964490822939
 20
-149.3373100755129
 30
0.0
 10
111.8915337176868
 20
-149.4303276536146
 30
0.0
 10
111.8915337176868
 20
-149.5467718810161
 30
0.0
  0
HATCH
  5
12B
330
115
100
AcDbEntity
  8
レイヤー 1
 62
    18
420
        0
440
 33554687
100
AcDbHatch
 10
0.0
 20
0.0
 30
0.0
210
0.0
220
0.0
230
1.0
  2
SOLID
 70
     1
 71
     1
 91
        2
 92
        1
 93
        1
 72
     4
 94
        3
 73
     0
 74
     0
 95
       17
 96
       13
 40
0.0
 40
0.0
 40
0.0
 40
0.0
 40
1.0
 40
1.0
 40
1.0
 40
2.0
 40
2.0
 40
2.0
 40
3.0
 40
3.0
 40
3.0
 40
4.0
 40
4.0
 40
4.0
 40
4.0
 10
111.5763074807865
 20
-149.5467718810161
 10
111.5763074807865
 20
-149.6060275233624
 10
111.6231607793858
 20
-149.6525363124133
 10
111.6824164217322
 20
-149.6525363124133
 10
111.7413275545299
 20
-149.6525363124133
 10
111.7902479104205
 20
-149.6060275233624
 10
111.7902479104205
 20
-149.5467718810161
 10
111.7902479104205
 20
-149.4875162386698
 10
111.7413275545299
 20
-149.4389403923277
 10
111.6824164217322
 20
-149.4389403923277
 10
111.6231607793858
 20
-149.4389403923277
 10
111.5763074807865
 20
-149.4875162386698
 10
111.5763074807865
 20
-149.5467718810161
 97
        0
 97
        1
330
129
 92
        1
 93
        1
 72
     4
 94
        3
 73
     0
 74
     0
 95
       17
 96
       13
 40
0.0
 40
0.0
 40
0.0
 40
0.0
 40
1.0
 40
1.0
 40
1.0
 40
2.0
 40
2.0
 40
2.0
 40
3.0
 40
3.0
 40
3.0
 40
4.0
 40
4.0
 40
4.0
 40
4.0
 10
111.8915337176868
 20
-149.5467718810161
 10
111.8915337176868
 20
-149.6611490511264
 10
111.7985161395851
 20
-149.7562336865193
 10
111.6824164217322
 20
-149.7562336865193
 10
111.5680392516219
 20
-149.7562336865193
 10
111.472954616229
 20
-149.6611490511264
 10
111.472954616229
 20
-149.5467718810161
 10
111.472954616229
 20
-149.4303276536146
 10
111.5680392516219
 20
-149.3373100755129
 10
111.6824164217322
 20
-149.3373100755129
 10
111.7964490822939
 20
-149.3373100755129
 10
111.8915337176868
 20
-149.4303276536146
 10
111.8915337176868
 20
-149.5467718810161
 97
        0
 97
        1
330
12A
 75
     2
 76
     1
 98
        1
 10
0.0
 20
0.0
450
        0
451
        0
460
0.0
461
0.0
452
        0
462
0.0
453
        0
470

  0
ENDBLK
  5
118
330
115
100
AcDbEntity
  8
0
100
AcDbBlockEnd
  0
ENDSEC
  0
SECTION
  2
ENTITIES
  0
LWPOLYLINE
  5
79
330
70
100
AcDbEntity
  8
レイヤー 1
 62
   250
420
  2299925
370
     9
100
AcDbPolyline
 90
        1
 70
     0
 43
0.0
 10
73.82925047377812
 20
-150.073147729181
  0
LINE
  5
7A
330
70
100
AcDbEntity
  8
レイヤー 1
 62
   250
420
  2299925
370
    25
100
AcDbLine
 10
131.3873069787832
 20
-153.9275271726621
 30
0.0
 11
114.3874713517928
 21
-153.9275271726621
 31
0.0
  0
LINE
  5
7B
330
70
100
AcDbEntity
  8
レイヤー 1
 62
   250
420
  2299925
370
    25
100
AcDbLine
 10
94.3859243620748
 20
-145.4278052303425
 30
0.0
 11
94.3859243620748
 21
-145.9280088413287
 31
0.0
  0
LINE
  5
7C
330
70
100
AcDbEntity
  8
レイヤー 1
 62
   250
420
  2299925
370
    25
100
AcDbLine
 10
114.3874713517928
 20
-145.9280088413287
 30
0.0
 11
94.3859243620748
 21
-145.9280088413287
 31
0.0
  0
LINE
  5
7D
330
70
100
AcDbEntity
  8
レイヤー 1
 62
   250
420
  2299925
370
    25
100
AcDbLine
 10
94.3859243620748
 20
-145.4278052303425
 30
0.0
 11
94.89992157118386
 21
-145.8098635635805
 31
0.0
  0
LINE
  5
7E
330
70
100
AcDbEntity
  8
レイヤー 1
 62
   250
420
  2299925
370
    25
100
AcDbLine
 10
94.89992157118386
 20
-145.8098635635805
 30
0.0
 11
95.38499100325315
 21
-145.392315785907
 31
0.0
  0
LINE
  5
7F
330
70
100
AcDbEntity
  8
レイヤー 1
 62
   250
420
  2299925
370
    25
100
AcDbLine
 10
95.89902349013909
 20
-145.7743741191453
 30
0.0
 11
96.38476319996907
 21
-145.3564735636938
 31
0.0
  0
LINE
  5
80
330
70
100
AcDbEntity
  8
レイヤー 1
 62
   250
420
  2299925
370
    25
100
AcDbLine
 10
95.38499100325315
 20
-145.392315785907
 30
0.0
 11
95.89902349013909
 21
-145.7743741191453
 31
0.0
  0
LINE
  5
81
330
70
100
AcDbEntity
  8
レイヤー 1
 62
   250
420
  2299925
370
    25
100
AcDbLine
 10
96.38476319996907
 20
-145.3564735636938
 30
0.0
 11
96.89879568685501
 21
-145.7385318969321
 31
0.0
  0
LINE
  5
82
330
70
100
AcDbEntity
  8
レイヤー 1
 62
   250
420
  2299925
370
    25
100
AcDbLine
 10
96.89879568685501
 20
-145.7385318969321
 30
0.0
 11
97.3838651189243
 21
-145.3209841192583
 31
0.0
  0
LINE
  5
83
330
70
100
AcDbEntity
  8
レイヤー 1
 62
   250
420
  2299925
370
    25
100
AcDbLine
 10
97.3838651189243
 20
-145.3209841192583
 30
0.0
 11
97.89786232803336
 21
-145.702724952496
 31
0.0
  0
LINE
  5
84
330
70
100
AcDbEntity
  8
レイヤー 1
 62
   250
420
  2299925
370
    25
100
AcDbLine
 10
97.89786232803336
 20
-145.702724952496
 30
0.0
 11
98.38328453787143
 21
-145.2851771748225
 31
0.0
  0
LINE
  5
85
330
70
100
AcDbEntity
  8
レイヤー 1
 62
   250
420
  2299925
370
    25
100
AcDbLine
 10
98.38328453787143
 20
-145.2851771748225
 30
0.0
 11
98.89728174698049
 21
-145.6668827302828
 31
0.0
  0
LINE
  5
86
330
70
100
AcDbEntity
  8
レイヤー 1
 62
   250
420
  2299925
370
    25
100
AcDbLine
 10
98.89728174698049
 20
-145.6668827302828
 30
0.0
 11
99.38270395681856
 21
-145.2493349526093
 31
0.0
  0
LINE
  5
87
330
70
100
AcDbEntity
  8
レイヤー 1
 62
   250
420
  2299925
370
    25
100
AcDbLine
 10
99.38270395681856
 20
-145.2493349526093
 30
0.0
 11
99.89670116592762
 21
-145.6313932858473
 31
0.0
  0
LINE
  5
88
330
70
100
AcDbEntity
  8
レイヤー 1
 62
   250
420
  2299925
370
    25
100
AcDbLine
 10
99.89670116592762
 20
-145.6313932858473
 30
0.0
 11
100.3821233757657
 21
-145.2138455081738
 31
0.0
  0
LINE
  5
89
330
70
100
AcDbEntity
  8
レイヤー 1
 62
   250
420
  2299925
370
    25
100
AcDbLine
 10
100.3821233757657
 20
-145.2138455081738
 30
0.0
 11
100.895767807106
 21
-145.5959038414118
 31
0.0
  0
LINE
  5
8A
330
70
100
AcDbEntity
  8
レイヤー 1
 62
   250
420
  2299925
370
    25
100
AcDbLine
 10
100.895767807106
 20
-145.5959038414118
 30
0.0
 11
101.3815427947128
 21
-145.1780385637387
 31
0.0
  0
LINE
  5
8B
330
70
100
AcDbEntity
  8
レイヤー 1
 62
   250
420
  2299925
370
    25
100
AcDbLine
 10
101.8955400038222
 20
-145.5600968969761
 30
0.0
 11
102.3806094358915
 21
-145.1425491193023
 31
0.0
  0
LINE
  5
8C
330
70
100
AcDbEntity
  8
レイヤー 1
 62
   250
420
  2299925
370
    25
100
AcDbLine
 10
101.3815427947128
 20
-145.1780385637387
 30
0.0
 11
101.8955400038222
 21
-145.5600968969761
 31
0.0
  0
LINE
  5
8D
330
70
100
AcDbEntity
  8
レイヤー 1
 62
   250
420
  2299925
370
    25
100
AcDbLine
 10
102.3806094358915
 20
-145.1425491193023
 30
0.0
 11
102.8946419227771
 21
-145.5242546747628
 31
0.0
  0
LINE
  5
8E
330
70
100
AcDbEntity
  8
レイヤー 1
 62
   250
420
  2299925
370
    25
100
AcDbLine
 10
102.8946419227771
 20
-145.5242546747628
 30
0.0
 11
103.380381632607
 21
-145.1067068970897
 31
0.0
  0
LINE
  5
8F
330
70
100
AcDbEntity
  8
レイヤー 1
 62
   250
420
  2299925
370
    25
100
AcDbLine
 10
103.8943788417161
 20
-145.4884124525496
 30
0.0
 11
104.3794482737854
 21
-145.0708999526543
 31
0.0
  0
LINE
  5
90
330
70
100
AcDbEntity
  8
レイヤー 1
 62
   250
420
  2299925
370
    25
100
AcDbLine
 10
103.380381632607
 20
-145.1067068970897
 30
0.0
 11
103.8943788417161
 21
-145.4884124525496
 31
0.0
  0
LINE
  5
91
330
70
100
AcDbEntity
  8
レイヤー 1
 62
   250
420
  2299925
370
    25
100
AcDbLine
 10
104.8934807606713
 20
-145.4529582858916
 30
0.0
 11
105.3792204705013
 21
-145.0354105082188
 31
0.0
  0
LINE
  5
92
330
70
100
AcDbEntity
  8
レイヤー 1
 62
   250
420
  2299925
370
    25
100
AcDbLine
 10
104.3794482737854
 20
-145.0708999526543
 30
0.0
 11
104.8934807606713
 21
-145.4529582858916
 31
0.0
  0
LINE
  5
93
330
70
100
AcDbEntity
  8
レイヤー 1
 62
   250
420
  2299925
370
    25
100
AcDbLine
 10
105.3792204705013
 20
-145.0354105082188
 30
0.0
 11
105.8932529573873
 21
-145.4174688414561
 31
0.0
  0
LINE
  5
94
330
70
100
AcDbEntity
  8
レイヤー 1
 62
   250
420
  2299925
370
    25
100
AcDbLine
 10
105.8932529573873
 20
-145.4174688414561
 30
0.0
 11
106.3783223894566
 21
-144.9995682860055
 31
0.0
  0
LINE
  5
95
330
70
100
AcDbEntity
  8
レイヤー 1
 62
   250
420
  2299925
370
    25
100
AcDbLine
 10
106.3783223894566
 20
-144.9995682860055
 30
0.0
 11
106.8923195985656
 21
-145.3816266192429
 31
0.0
  0
LINE
  5
96
330
70
100
AcDbEntity
  8
レイヤー 1
 62
   250
420
  2299925
370
    25
100
AcDbLine
 10
106.8923195985656
 20
-145.3816266192429
 30
0.0
 11
107.3773890306349
 21
-144.9640788415694
 31
0.0
  0
LINE
  5
97
330
70
100
AcDbEntity
  8
レイヤー 1
 62
   250
420
  2299925
370
    25
100
AcDbLine
 10
107.3773890306349
 20
-144.9640788415694
 30
0.0
 11
107.891386239744
 21
-145.3458196748078
 31
0.0
  0
LINE
  5
98
330
70
100
AcDbEntity
  8
レイヤー 1
 62
   250
420
  2299925
370
    25
100
AcDbLine
 10
107.891386239744
 20
-145.3458196748078
 30
0.0
 11
108.3771612273508
 21
-144.9282718971346
 31
0.0
  0
LINE
  5
99
330
70
100
AcDbEntity
  8
レイヤー 1
 62
   250
420
  2299925
370
    25
100
AcDbLine
 10
108.3771612273508
 20
-144.9282718971346
 30
0.0
 11
108.8911584364599
 21
-145.3099774525945
 31
0.0
  0
LINE
  5
9A
330
70
100
AcDbEntity
  8
レイヤー 1
 62
   250
420
  2299925
370
    25
100
AcDbLine
 10
108.8911584364599
 20
-145.3099774525945
 30
0.0
 11
109.3762278685292
 21
-144.8924296749214
 31
0.0
  0
LINE
  5
9B
330
70
100
AcDbEntity
  8
レイヤー 1
 62
   250
420
  2299925
370
    25
100
AcDbLine
 10
109.3762278685292
 20
-144.8924296749214
 30
0.0
 11
109.8902250776382
 21
-145.2744880081591
 31
0.0
  0
LINE
  5
9C
330
70
100
AcDbEntity
  8
レイヤー 1
 62
   250
420
  2299925
370
    25
100
AcDbLine
 10
109.8902250776382
 20
-145.2744880081591
 30
0.0
 11
110.3760000652451
 21
-144.8569402304856
 31
0.0
  0
LINE
  5
9D
330
70
100
AcDbEntity
  8
レイヤー 1
 62
   250
420
  2299925
370
    25
100
AcDbLine
 10
110.3760000652451
 20
-144.8569402304856
 30
0.0
 11
110.8899972743541
 21
-145.2389985637232
 31
0.0
  0
LINE
  5
9E
330
70
100
AcDbEntity
  8
レイヤー 1
 62
   250
420
  2299925
370
    25
100
AcDbLine
 10
110.8899972743541
 20
-145.2389985637232
 30
0.0
 11
111.3750667064234
 21
-144.8210980082723
 31
0.0
  0
LINE
  5
9F
330
70
100
AcDbEntity
  8
レイヤー 1
 62
   250
420
  2299925
370
    25
100
AcDbLine
 10
111.3750667064234
 20
-144.8210980082723
 30
0.0
 11
111.8890639155325
 21
-145.2031916192878
 31
0.0
  0
LINE
  5
A0
330
70
100
AcDbEntity
  8
レイヤー 1
 62
   250
420
  2299925
370
    25
100
AcDbLine
 10
111.8890639155325
 20
-145.2031916192878
 30
0.0
 11
112.3748389031393
 21
-144.7856438416143
 31
0.0
  0
LINE
  5
A1
330
70
100
AcDbEntity
  8
レイヤー 1
 62
   250
420
  2299925
370
    25
100
AcDbLine
 10
112.3748389031393
 20
-144.7856438416143
 30
0.0
 11
112.8888361122484
 21
-145.1673493970746
 31
0.0
  0
LINE
  5
A2
330
70
100
AcDbEntity
  8
レイヤー 1
 62
   250
420
  2299925
370
    25
100
AcDbLine
 10
112.8888361122484
 20
-145.1673493970746
 30
0.0
 11
113.3739055443177
 21
-144.7498016194011
 31
0.0
  0
LINE
  5
A3
330
70
100
AcDbEntity
  8
レイヤー 1
 62
   250
420
  2299925
370
    25
100
AcDbLine
 10
113.3739055443177
 20
-144.7498016194011
 30
0.0
 11
113.8879380312036
 21
-145.1315071748614
 31
0.0
  0
LINE
  5
A4
330
70
100
AcDbEntity
  8
レイヤー 1
 62
   250
420
  2299925
370
    25
100
AcDbLine
 10
113.8879380312036
 20
-145.1315071748614
 30
0.0
 11
114.3736777410336
 21
-144.7139593971878
 31
0.0
  0
LINE
  5
A5
330
70
100
AcDbEntity
  8
レイヤー 1
 62
   250
420
  2299925
370
    25
100
AcDbLine
 10
114.4476749502516
 20
-144.6657346749777
 30
0.0
 11
115.3872435485087
 21
-144.6657346749777
 31
0.0
  0
LINE
  5
A6
330
70
100
AcDbEntity
  8
レイヤー 1
 62
   250
420
  2299925
370
    25
100
AcDbLine
 10
115.3872435485087
 20
-144.6657346749777
 30
0.0
 11
115.3872435485087
 21
-152.9277549506902
 31
0.0
  0
LINE
  5
A7
330
70
100
AcDbEntity
  8
レイヤー 1
 62
   250
420
  2299925
370
    25
100
AcDbLine
 10
114.3874713517928
 20
-145.9280088413287
 30
0.0
 11
114.3874713517928
 21
-153.9275271726621
 31
0.0
  0
LINE
  5
A8
330
70
100
AcDbEntity
  8
レイヤー 1
 62
   250
420
  2299925
370
    25
100
AcDbLine
 10
130.3868645043066
 20
-152.9277549506902
 30
0.0
 11
115.3872435485087
 21
-152.9277549506902
 31
0.0
  0
LINE
  5
A9
330
70
100
AcDbEntity
  8
レイヤー 1
 62
   250
420
  2299925
370
    25
100
AcDbLine
 10
130.3868645864287
 20
-144.6657346749777
 30
0.0
 11
130.3868645864287
 21
-152.9277549506902
 31
0.0
  0
LINE
  5
AA
330
70
100
AcDbEntity
  8
レイヤー 1
 62
   250
420
  2299925
370
    25
100
AcDbLine
 10
131.3873070609053
 20
-144.6657346749777
 30
0.0
 11
131.3873070609053
 21
-153.9275271726621
 31
0.0
  0
SPLINE
  5
AB
330
70
100
AcDbEntity
  8
レイヤー 1
 62
   250
420
  2299925
370
     9
100
AcDbSpline
210
0.0
220
0.0
230
1.0
 70
     9
 71
     3
 72
    17
 73
    13
 74
     0
 42
0.0000000001
 43
0.0000000001
 40
0.0
 40
0.0
 40
0.0
 40
0.0
 40
1.0
 40
1.0
 40
1.0
 40
2.0
 40
2.0
 40
2.0
 40
3.0
 40
3.0
 40
3.0
 40
4.0
 40
4.0
 40
4.0
 40
4.0
 10
94.48583102619265
 20
-140.6659755093111
 30
0.0
 10
94.48583102619265
 20
-140.6105188426578
 30
0.0
 10
94.44106352733475
 20
-140.5657160648917
 30
0.0
 10
94.3859243620748
 20
-140.5657160648917
 30
0.0
 10
94.33082047459173
 20
-140.5657160648917
 30
0.0
 10
94.28601769795697
 20
-140.6105188426578
 30
0.0
 10
94.28601769795697
 20
-140.6659755093111
 30
0.0
 10
94.28601769795697
 20
-140.7211146759635
 30
0.0
 10
94.33082047459173
 20
-140.7658821759528
 30
0.0
 10
94.3859243620748
 20
-140.7658821759528
 30
0.0
 10
94.44106352733475
 20
-140.7658821759528
 30
0.0
 10
94.48583102619265
 20
-140.7211146759635
 30
0.0
 10
94.48583102619265
 20
-140.6659755093111
 30
0.0
  0
SPLINE
  5
AC
330
70
100
AcDbEntity
  8
レイヤー 1
 62
   250
420
  2299925
370
     9
100
AcDbSpline
210
0.0
220
0.0
230
1.0
 70
     9
 71
     3
 72
    17
 73
    13
 74
     0
 42
0.0000000001
 43
0.0000000001
 40
0.0
 40
0.0
 40
0.0
 40
0.0
 40
1.0
 40
1.0
 40
1.0
 40
2.0
 40
2.0
 40
2.0
 40
3.0
 40
3.0
 40
3.0
 40
4.0
 40
4.0
 40
4.0
 40
4.0
 10
90.48607196156865
 20
-145.4278052303425
 30
0.0
 10
90.48607196156865
 20
-145.3726660636901
 30
0.0
 10
90.44130446271045
 20
-145.3278985637008
 30
0.0
 10
90.38581251968173
 20
-145.3278985637008
 30
0.0
 10
90.33070863219895
 20
-145.3278985637008
 30
0.0
 10
90.28590585556388
 20
-145.3726660636901
 30
0.0
 10
90.28590585556388
 20
-145.4278052303425
 30
0.0
 10
90.28590585556388
 20
-145.4829091192181
 30
0.0
 10
90.33070863219895
 20
-145.5277118969841
 30
0.0
 10
90.38581251968173
 20
-145.5277118969841
 30
0.0
 10
90.44130446271045
 20
-145.5277118969841
 30
0.0
 10
90.48607196156865
 20
-145.4829091192181
 30
0.0
 10
90.48607196156865
 20
-145.4278052303425
 30
0.0
  0
SPLINE
  5
AD
330
70
100
AcDbEntity
  8
レイヤー 1
 62
   250
420
  2299925
370
     9
100
AcDbSpline
210
0.0
220
0.0
230
1.0
 70
     9
 71
     3
 72
    17
 73
    13
 74
     0
 42
0.0000000001
 43
0.0000000001
 40
0.0
 40
0.0
 40
0.0
 40
0.0
 40
1.0
 40
1.0
 40
1.0
 40
2.0
 40
2.0
 40
2.0
 40
3.0
 40
3.0
 40
3.0
 40
4.0
 40
4.0
 40
4.0
 40
4.0
 10
90.48607196156865
 20
-145.9280088413287
 30
0.0
 10
90.48607196156865
 20
-145.8729049524538
 30
0.0
 10
90.44130446271045
 20
-145.828102174687
 30
0.0
 10
90.38581251968173
 20
-145.828102174687
 30
0.0
 10
90.33070863219895
 20
-145.828102174687
 30
0.0
 10
90.28590585556388
 20
-145.8729049524538
 30
0.0
 10
90.28590585556388
 20
-145.9280088413287
 30
0.0
 10
90.28590585556388
 20
-145.9831480079818
 30
0.0
 10
90.33070863219895
 20
-146.0279155079703
 30
0.0
 10
90.38581251968173
 20
-146.0279155079703
 30
0.0
 10
90.44130446271045
 20
-146.0279155079703
 30
0.0
 10
90.48607196156865
 20
-145.9831480079818
 30
0.0
 10
90.48607196156865
 20
-145.9280088413287
 30
0.0
  0
SPLINE
  5
AE
330
70
100
AcDbEntity
  8
レイヤー 1
 62
   250
420
  2299925
370
     9
100
AcDbSpline
210
0.0
220
0.0
230
1.0
 70
     9
 71
     3
 72
    17
 73
    13
 74
     0
 42
0.0000000001
 43
0.0000000001
 40
0.0
 40
0.0
 40
0.0
 40
0.0
 40
1.0
 40
1.0
 40
1.0
 40
2.0
 40
2.0
 40
2.0
 40
3.0
 40
3.0
 40
3.0
 40
4.0
 40
4.0
 40
4.0
 40
4.0
 10
90.48607196156865
 20
-153.9275271726621
 30
0.0
 10
90.48607196156865
 20
-153.8724232837866
 30
0.0
 10
90.44130446271045
 20
-153.8276205060198
 30
0.0
 10
90.38581251968173
 20
-153.8276205060198
 30
0.0
 10
90.33070863219895
 20
-153.8276205060198
 30
0.0
 10
90.28590585556388
 20
-153.8724232837866
 30
0.0
 10
90.28590585556388
 20
-153.9275271726621
 30
0.0
 10
90.28590585556388
 20
-153.9826663393146
 30
0.0
 10
90.33070863219895
 20
-154.0274338393044
 30
0.0
 10
90.38581251968173
 20
-154.0274338393044
 30
0.0
 10
90.44130446271045
 20
-154.0274338393044
 30
0.0
 10
90.48607196156865
 20
-153.9826663393146
 30
0.0
 10
90.48607196156865
 20
-153.9275271726621
 30
0.0
  0
SPLINE
  5
AF
330
70
100
AcDbEntity
  8
レイヤー 1
 62
   250
420
  2299925
370
     9
100
AcDbSpline
210
0.0
220
0.0
230
1.0
 70
     9
 71
     3
 72
    17
 73
    13
 74
     0
 42
0.0000000001
 43
0.0000000001
 40
0.0
 40
0.0
 40
0.0
 40
0.0
 40
1.0
 40
1.0
 40
1.0
 40
2.0
 40
2.0
 40
2.0
 40
3.0
 40
3.0
 40
3.0
 40
4.0
 40
4.0
 40
4.0
 40
4.0
 10
115.4871502126265
 20
-140.6659755093111
 30
0.0
 10
115.4871502126265
 20
-140.6105188426578
 30
0.0
 10
115.4423474359918
 20
-140.5657160648917
 30
0.0
 10
115.3872435485087
 20
-140.5657160648917
 30
0.0
 10
115.3321043832488
 20
-140.5657160648917
 30
0.0
 10
115.2873368843909
 20
-140.6105188426578
 30
0.0
 10
115.2873368843909
 20
-140.6659755093111
 30
0.0
 10
115.2873368843909
 20
-140.7211146759635
 30
0.0
 10
115.3321043832488
 20
-140.7658821759528
 30
0.0
 10
115.3872435485087
 20
-140.7658821759528
 30
0.0
 10
115.4423474359918
 20
-140.7658821759528
 30
0.0
 10
115.4871502126265
 20
-140.7211146759635
 30
0.0
 10
115.4871502126265
 20
-140.6659755093111
 30
0.0
  0
SPLINE
  5
B0
330
70
100
AcDbEntity
  8
レイヤー 1
 62
   250
420
  2299925
370
     9
100
AcDbSpline
210
0.0
220
0.0
230
1.0
 70
     9
 71
     3
 72
    17
 73
    13
 74
     0
 42
0.0000000001
 43
0.0000000001
 40
0.0
 40
0.0
 40
0.0
 40
0.0
 40
1.0
 40
1.0
 40
1.0
 40
2.0
 40
2.0
 40
2.0
 40
3.0
 40
3.0
 40
3.0
 40
4.0
 40
4.0
 40
4.0
 40
4.0
 10
130.4867712505465
 20
-140.6659755093111
 30
0.0
 10
130.4867712505465
 20
-140.6105188426578
 30
0.0
 10
130.4420037516887
 20
-140.5657160648917
 30
0.0
 10
130.3868645864287
 20
-140.5657160648917
 30
0.0
 10
130.3317606989456
 20
-140.5657160648917
 30
0.0
 10
130.2869579223109
 20
-140.6105188426578
 30
0.0
 10
130.2869579223109
 20
-140.6659755093111
 30
0.0
 10
130.2869579223109
 20
-140.7211146759635
 30
0.0
 10
130.3317606989456
 20
-140.7658821759528
 30
0.0
 10
130.3868645864287
 20
-140.7658821759528
 30
0.0
 10
130.4420037516887
 20
-140.7658821759528
 30
0.0
 10
130.4867712505465
 20
-140.7211146759635
 30
0.0
 10
130.4867712505465
 20
-140.6659755093111
 30
0.0
  0
LINE
  5
B1
330
70
100
AcDbEntity
  8
レイヤー 1
 62
   250
420
  2299925
370
     9
100
AcDbLine
 10
90.38581251968173
 20
-145.4278052303425
 30
0.0
 11
90.38581251968173
 21
-140.1700757872128
 31
0.0
  0
LINE
  5
B2
330
70
100
AcDbEntity
  8
レイヤー 1
 62
   250
420
  2299925
370
     9
100
AcDbLine
 10
90.38581251968173
 20
-145.4278052303425
 30
0.0
 11
90.38581251968173
 21
-145.9280088413287
 31
0.0
  0
LINE
  5
B3
330
70
100
AcDbEntity
  8
レイヤー 1
 62
   250
420
  2299925
370
     9
100
AcDbLine
 10
91.84585387132186
 20
-145.4278052303425
 30
0.0
 11
89.38572282297391
 21
-145.4278052303425
 31
0.0
  0
LINE
  5
B4
330
70
100
AcDbEntity
  8
レイヤー 1
 62
   250
420
  2299925
370
     9
100
AcDbLine
 10
91.84585387132186
 20
-145.9280088413287
 30
0.0
 11
89.38572282297391
 21
-145.9280088413287
 31
0.0
  0
INSERT
  5
B6
330
70
100
AcDbEntity
  8
レイヤー 1
100
AcDbBlockReference
  2
Block_0
 10
0.0
 20
0.0
 30
0.0
  0
LINE
  5
C4
330
70
100
AcDbEntity
  8
レイヤー 1
 62
   250
420
  2299925
370
     9
100
AcDbLine
 10
94.3859243620748
 20
-140.6659755093111
 30
0.0
 11
115.3872435485087
 21
-140.6659755093111
 31
0.0
  0
LINE
  5
C5
330
70
100
AcDbEntity
  8
レイヤー 1
 62
   250
420
  2299925
370
     9
100
AcDbLine
 10
94.3859243620748
 20
-142.8880874532
 30
0.0
 11
94.3859243620748
 21
-139.6660621762275
 31
0.0
  0
INSERT
  5
C7
330
70
100
AcDbEntity
  8
レイヤー 1
100
AcDbBlockReference
  2
Block_2
 10
0.0
 20
0.0
 30
0.0
  0
LINE
  5
D2
330
70
100
AcDbEntity
  8
レイヤー 1
 62
   250
420
  2299925
370
     9
100
AcDbLine
 10
90.38581251968173
 20
-145.9280088413287
 30
0.0
 11
90.38581251968173
 21
-153.9275271726621
 31
0.0
  0
LINE
  5
D3
330
70
100
AcDbEntity
  8
レイヤー 1
 62
   250
420
  2299925
370
     9
100
AcDbLine
 10
111.8477536388086
 20
-153.9275271726621
 30
0.0
 11
89.38572282297391
 21
-153.9275271726621
 31
0.0
  0
INSERT
  5
D5
330
70
100
AcDbEntity
  8
レイヤー 1
100
AcDbBlockReference
  2
Block_4
 10
0.0
 20
0.0
 30
0.0
  0
LINE
  5
DC
330
70
100
AcDbEntity
  8
レイヤー 1
 62
   250
420
  2299925
370
     9
100
AcDbLine
 10
115.3872435485087
 20
-140.6659755093111
 30
0.0
 11
130.3868645043066
 21
-140.6659755093111
 31
0.0
  0
LINE
  5
DD
330
70
100
AcDbEntity
  8
レイヤー 1
 62
   250
420
  2299925
370
     9
100
AcDbLine
 10
115.3872435485087
 20
-142.1260168978348
 30
0.0
 11
115.3872435485087
 21
-139.6660621762275
 31
0.0
  0
LINE
  5
DE
330
70
100
AcDbEntity
  8
レイヤー 1
 62
   250
420
  2299925
370
     9
100
AcDbLine
 10
130.3868645864287
 20
-142.1260168978348
 30
0.0
 11
130.3868645864287
 21
-139.6660621762275
 31
0.0
  0
INSERT
  5
E0
330
70
100
AcDbEntity
  8
レイヤー 1
100
AcDbBlockReference
  2
Block_5
 10
0.0
 20
0.0
 30
0.0
  0
SPLINE
  5
EB
330
70
100
AcDbEntity
  8
レイヤー 1
 62
   250
420
  2299925
370
     9
100
AcDbSpline
210
0.0
220
0.0
230
1.0
 70
     9
 71
     3
 72
    17
 73
    13
 74
     0
 42
0.0000000001
 43
0.0000000001
 40
0.0
 40
0.0
 40
0.0
 40
0.0
 40
1.0
 40
1.0
 40
1.0
 40
2.0
 40
2.0
 40
2.0
 40
3.0
 40
3.0
 40
3.0
 40
4.0
 40
4.0
 40
4.0
 40
4.0
 10
114.4873780159106
 20
-158.0409866160777
 30
0.0
 10
114.4873780159106
 20
-157.9858474494252
 30
0.0
 10
114.441907648467
 20
-157.9410799494366
 30
0.0
 10
114.3867657962553
 20
-157.9410799494366
 30
0.0
 10
114.3316619087722
 20
-157.9410799494366
 30
0.0
 10
114.2868591321374
 20
-157.9858474494252
 30
0.0
 10
114.2868591321374
 20
-158.0409866160777
 30
0.0
 10
114.2868591321374
 20
-158.0960905049532
 30
0.0
 10
114.3316619087722
 20
-158.1408932827199
 30
0.0
 10
114.3867657962553
 20
-158.1408932827199
 30
0.0
 10
114.441907648467
 20
-158.1408932827199
 30
0.0
 10
114.4873780159106
 20
-158.0960905049532
 30
0.0
 10
114.4873780159106
 20
-158.0409866160777
 30
0.0
  0
CIRCLE
  5
EC
330
70
100
AcDbEntity
  8
レイヤー 1
 62
   250
420
  2299925
370
     9
100
AcDbCircle
 10
131.3873070609053
 20
-158.040986616078
 30
0.0
 40
0.0999066653795761
  0
LINE
  5
ED
330
70
100
AcDbEntity
  8
レイヤー 1
 62
   250
420
  2299925
370
     9
100
AcDbLine
 10
131.3873069787832
 20
-158.0409866160777
 30
0.0
 11
114.3867657962553
 21
-158.0409866160777
 31
0.0
  0
LINE
  5
EE
330
70
100
AcDbEntity
  8
レイヤー 1
 62
   250
420
  2299925
370
     9
100
AcDbLine
 10
131.3873070609053
 20
-156.5809452275539
 30
0.0
 11
131.3873070609053
 21
-159.0414291158282
 31
0.0
  0
LINE
  5
EF
330
70
100
AcDbEntity
  8
レイヤー 1
 62
   250
420
  2299925
370
     9
100
AcDbLine
 10
114.3867657962553
 20
-156.5809452275539
 30
0.0
 11
114.3867657962553
 21
-159.0414291158282
 31
0.0
  0
INSERT
  5
F1
330
70
100
AcDbEntity
  8
レイヤー 1
100
AcDbBlockReference
  2
Block_7
 10
0.0
 20
0.0
 30
0.0
  0
LINE
  5
FC
330
70
100
AcDbEntity
  8
レイヤー 1
 62
   250
420
  2299925
370
    25
100
AcDbLine
 10
131.3873070609053
 20
-144.6657346749777
 30
0.0
 11
130.3868645864287
 21
-144.6657346749777
 31
0.0
  0
LINE
  5
FD
330
70
100
AcDbEntity
  8
レイヤー 1
 62
   250
420
  2299925
370
     9
100
AcDbLine
 10
128.3287590833798
 20
-150.073147729181
 30
0.0
 11
136.328982768166
 21
-150.073147729181
 31
0.0
  0
INSERT
  5
FF
330
70
100
AcDbEntity
  8
レイヤー 1
100
AcDbBlockReference
  2
Block_9
 10
0.0
 20
0.0
 30
0.0
  0
LINE
  5
104
330
70
100
AcDbEntity
  8
レイヤー 1
  6
AI-Linetype-0
 62
   154
420
    23468
370
    25
100
AcDbLine
 10
94.3859243620748
 20
-146.8034268966653
 30
0.0
 11
104.3856571625159
 21
-146.8034268966653
 31
0.0
  0
INSERT
  5
107
330
70
100
AcDbEntity
  8
レイヤー 1
100
AcDbBlockReference
  2
Block_10
 10
0.0
 20
0.0
 30
0.0
  0
ENDSEC
  0
SECTION
  2
OBJECTS
  0
DICTIONARY
  5
C
330
0
100
AcDbDictionary
281
     1
  3
ACAD_COLOR
350
63
  3
ACAD_DETAILVIEWSTYLE
350
6A
  3
ACAD_GROUP
350
D
  3
ACAD_LAYOUT
350
62
  3
ACAD_MATERIAL
350
10
  3
ACAD_MLEADERSTYLE
350
66
  3
ACAD_MLINESTYLE
350
5F
  3
ACAD_PLOTSETTINGS
350
61
  3
ACAD_PLOTSTYLENAME
350
E
  3
ACAD_SCALELIST
350
42
  3
ACAD_SECTIONVIEWSTYLE
350
68
  3
ACAD_TABLESTYLE
350
64
  3
ACAD_VISUALSTYLE
350
29
  3
ACDB_RECOMPOSE_DATA
350
134
  3
AcDbVariableDictionary
350
12C
  0
DICTIONARY
  5
63
102
{ACAD_REACTORS
330
C
102
}
330
C
100
AcDbDictionary
281
     1
  0
DICTIONARY
  5
6A
102
{ACAD_REACTORS
330
C
102
}
330
C
100
AcDbDictionary
281
     1
  3
Imperial24
350
6B
  0
DICTIONARY
  5
D
102
{ACAD_REACTORS
330
C
102
}
330
C
100
AcDbDictionary
281
     1
  0
DICTIONARY
  5
62
102
{ACAD_REACTORS
330
C
102
}
330
C
100
AcDbDictionary
281
     1
  3
Layout1
350
6F
  3
Layout2
350
77
  3
Model
350
73
  0
DICTIONARY
  5
10
102
{ACAD_REACTORS
330
C
102
}
330
C
100
AcDbDictionary
281
     1
  3
ByBlock
350
19
  3
ByLayer
350
11
  3
Global
350
21
  0
DICTIONARY
  5
66
102
{ACAD_REACTORS
330
C
102
}
330
C
100
AcDbDictionary
281
     1
  3
Standard
350
67
  0
DICTIONARY
  5
5F
102
{ACAD_REACTORS
330
C
102
}
330
C
100
AcDbDictionary
281
     1
  3
Standard
350
60
  0
DICTIONARY
  5
61
102
{ACAD_REACTORS
330
C
102
}
330
C
100
AcDbDictionary
281
     1
  0
ACDBDICTIONARYWDFLT
  5
E
102
{ACAD_REACTORS
330
C
102
}
330
C
100
AcDbDictionary
281
     1
  3
Normal
350
F
100
AcDbDictionaryWithDefault
340
F
  0
DICTIONARY
  5
42
102
{ACAD_REACTORS
330
C
102
}
330
C
100
AcDbDictionary
281
     1
  3
A0
350
43
  3
A1
350
44
  3
A2
350
45
  3
A3
350
46
  3
A4
350
47
  3
A5
350
48
  3
A6
350
49
  3
A7
350
4A
  3
A8
350
4B
  3
A9
350
4C
  3
B0
350
4D
  3
B1
350
4E
  3
B2
350
4F
  3
B3
350
50
  3
B4
350
51
  3
B5
350
52
  3
B6
350
53
  0
DICTIONARY
  5
68
102
{ACAD_REACTORS
330
C
102
}
330
C
100
AcDbDictionary
281
     1
  3
Imperial24
350
69
  0
DICTIONARY
  5
64
102
{ACAD_REACTORS
330
C
102
}
330
C
100
AcDbDictionary
281
     1
  3
Standard
350
65
  0
DICTIONARY
  5
29
102
{ACAD_REACTORS
330
C
102
}
330
C
100
AcDbDictionary
281
     1
  3
2dWireframe
350
2F
  3
Basic
350
2E
  3
Brighten
350
35
  3
ColorChange
350
39
  3
Conceptual
350
32
  3
Dim
350
34
  3
EdgeColorOff
350
41
  3
Facepattern
350
38
  3
Flat
350
2A
  3
FlatWithEdges
350
2B
  3
Gouraud
350
2C
  3
GouraudWithEdges
350
2D
  3
Hidden
350
31
  3
JitterOff
350
3F
  3
Linepattern
350
37
  3
OverhangOff
350
40
  3
Realistic
350
33
  3
Shaded
350
3E
  3
Shaded with edges
350
3D
  3
Shades of Gray
350
3A
  3
Sketchy
350
3B
  3
Thicken
350
36
  3
Wireframe
350
30
  3
X-Ray
350
3C
  0
XRECORD
  5
134
102
{ACAD_REACTORS
330
C
102
}
330
C
100
AcDbXrecord
280
     1
 90
        1
330
65
  0
DICTIONARY
  5
12C
102
{ACAD_REACTORS
330
C
102
}
330
C
100
AcDbDictionary
281
     1
  3
CANNOSCALE
350
131
  3
CMLEADERSTYLE
350
12E
  3
CTABLESTYLE
350
12D
  3
CVIEWDETAILSTYLE
350
12F
  3
CVIEWSECTIONSTYLE
350
130
  0
ACDBDETAILVIEWSTYLE
  5
6B
102
{ACAD_XDICTIONARY
360
169
102
}
102
{ACAD_REACTORS
330
6A
102
}
330
6A
100
AcDbModelDocViewStyle
 70
     0
  3
Imperial24
290
     0
100
AcDbDetailViewStyle
 70
     0
 71
     0
 90
        3
 71
     1
340
55
 62
   256
 40
0.24
340
0
 62
   256
 40
0.24
300

 40
0.36
280
     3
 71
     2
340
5D
 90
       25
 62
   256
 71
     3
340
55
 62
   256
 40
0.24
 90
        1
 40
0.75
 90
        1
300
%<\AcVar ViewType \f "%tc1">% %<\AcVar ViewDetailId>%\PSCALE %<\AcVar ViewScale \f "%sn">%
 71
     4
340
5D
 90
       25
 62
   256
340
5D
 90
       25
 62
   256
280
     0
  0
LAYOUT
  5
6F
102
{ACAD_REACTORS
330
62
102
}
330
62
100
AcDbPlotSettings
  1

  2

  4

  6

 40
0.0
 41
0.0
 42
0.0
 43
0.0
 44
0.0
 45
0.0
 46
0.0
 47
0.0
 48
0.0
 49
0.0
140
0.0
141
0.0
142
1.0
143
1.0
 70
   688
 72
     0
 73
     0
 74
     5
  7

 75
    16
147
1.0
 76
     0
 77
     2
 78
   300
148
0.0
149
0.0
100
AcDbLayout
  1
Layout1
 70
     1
 71
     1
 10
0.0
 20
0.0
 11
12.0
 21
9.0
 12
0.0
 22
0.0
 32
0.0
 14
0.0
 24
0.0
 34
0.0
 15
0.0
 25
0.0
 35
0.0
146
0.0
 13
0.0
 23
0.0
 33
0.0
 16
1.0
 26
0.0
 36
0.0
 17
0.0
 27
1.0
 37
0.0
 76
     0
330
6C
  0
LAYOUT
  5
77
102
{ACAD_REACTORS
330
62
102
}
330
62
100
AcDbPlotSettings
  1

  2

  4

  6

 40
0.0
 41
0.0
 42
0.0
 43
0.0
 44
0.0
 45
0.0
 46
0.0
 47
0.0
 48
0.0
 49
0.0
140
0.0
141
0.0
142
1.0
143
1.0
 70
   688
 72
     0
 73
     0
 74
     5
  7

 75
    16
147
1.0
 76
     0
 77
     2
 78
   300
148
0.0
149
0.0
100
AcDbLayout
  1
Layout2
 70
     1
 71
     2
 10
0.0
 20
0.0
 11
12.0
 21
9.0
 12
0.0
 22
0.0
 32
0.0
 14
0.0
 24
0.0
 34
0.0
 15
0.0
 25
0.0
 35
0.0
146
0.0
 13
0.0
 23
0.0
 33
0.0
 16
1.0
 26
0.0
 36
0.0
 17
0.0
 27
1.0
 37
0.0
 76
     0
330
74
  0
LAYOUT
  5
73
102
{ACAD_REACTORS
330
62
102
}
330
62
100
AcDbPlotSettings
  1

  2

  4

  6

 40
0.0
 41
0.0
 42
0.0
 43
0.0
 44
0.0
 45
0.0
 46
0.0
 47
0.0
 48
0.0
 49
0.0
140
0.0
141
0.0
142
1.0
143
1.0
 70
  1712
 72
     0
 73
     0
 74
     0
  7

 75
     0
147
1.0
 76
     0
 77
     2
 78
   300
148
0.0
149
0.0
100
AcDbLayout
  1
Model
 70
     1
 71
     0
 10
0.0
 20
0.0
 11
12.0
 21
9.0
 12
0.0
 22
0.0
 32
0.0
 14
0.0
 24
0.0
 34
0.0
 15
0.0
 25
0.0
 35
0.0
146
0.0
 13
0.0
 23
0.0
 33
0.0
 16
1.0
 26
0.0
 36
0.0
 17
0.0
 27
1.0
 37
0.0
 76
     0
330
70
  0
MATERIAL
  5
19
102
{ACAD_XDICTIONARY
360
1A
102
}
102
{ACAD_REACTORS
330
10
102
}
330
10
100
AcDbMaterial
  1
ByBlock
 72
     0
 43
0.0208333333333333
 43
0.0
 43
0.0
 43
0.0
 43
0.0
 43
0.0208333333333333
 43
0.0
 43
0.0
 43
0.0
 43
0.0
 43
1.0
 43
0.0
 43
0.0
 43
0.0
 43
0.0
 43
1.0
 77
     0
 47
0.0208333333333333
 47
0.0
 47
0.0
 47
0.0
 47
0.0
 47
0.0208333333333333
 47
0.0
 47
0.0
 47
0.0
 47
0.0
 47
1.0
 47
0.0
 47
0.0
 47
0.0
 47
0.0
 47
1.0
171
     0
 49
0.0208333333333333
 49
0.0
 49
0.0
 49
0.0
 49
0.0
 49
0.0208333333333333
 49
0.0
 49
0.0
 49
0.0
 49
0.0
 49
1.0
 49
0.0
 49
0.0
 49
0.0
 49
0.0
 49
1.0
175
     0
142
0.0208333333333333
142
0.0
142
0.0
142
0.0
142
0.0
142
0.0208333333333333
142
0.0
142
0.0
142
0.0
142
0.0
142
1.0
142
0.0
142
0.0
142
0.0
142
0.0
142
1.0
179
     0
144
0.0208333333333333
144
0.0
144
0.0
144
0.0
144
0.0
144
0.0208333333333333
144
0.0
144
0.0
144
0.0
144
0.0
144
1.0
144
0.0
144
0.0
144
0.0
144
0.0
144
1.0
147
0.0208333333333333
147
0.0
147
0.0
147
0.0
147
0.0
147
0.0208333333333333
147
0.0
147
0.0
147
0.0
147
0.0
147
1.0
147
0.0
147
0.0
147
0.0
147
0.0
147
1.0
  0
MATERIAL
  5
11
102
{ACAD_XDICTIONARY
360
12
102
}
102
{ACAD_REACTORS
330
10
102
}
330
10
100
AcDbMaterial
  1
ByLayer
 72
     0
 43
0.0208333333333333
 43
0.0
 43
0.0
 43
0.0
 43
0.0
 43
0.0208333333333333
 43
0.0
 43
0.0
 43
0.0
 43
0.0
 43
1.0
 43
0.0
 43
0.0
 43
0.0
 43
0.0
 43
1.0
 77
     0
 47
0.0208333333333333
 47
0.0
 47
0.0
 47
0.0
 47
0.0
 47
0.0208333333333333
 47
0.0
 47
0.0
 47
0.0
 47
0.0
 47
1.0
 47
0.0
 47
0.0
 47
0.0
 47
0.0
 47
1.0
171
     0
 49
0.0208333333333333
 49
0.0
 49
0.0
 49
0.0
 49
0.0
 49
0.0208333333333333
 49
0.0
 49
0.0
 49
0.0
 49
0.0
 49
1.0
 49
0.0
 49
0.0
 49
0.0
 49
0.0
 49
1.0
175
     0
142
0.0208333333333333
142
0.0
142
0.0
142
0.0
142
0.0
142
0.0208333333333333
142
0.0
142
0.0
142
0.0
142
0.0
142
1.0
142
0.0
142
0.0
142
0.0
142
0.0
142
1.0
179
     0
144
0.0208333333333333
144
0.0
144
0.0
144
0.0
144
0.0
144
0.0208333333333333
144
0.0
144
0.0
144
0.0
144
0.0
144
1.0
144
0.0
144
0.0
144
0.0
144
0.0
144
1.0
147
0.0208333333333333
147
0.0
147
0.0
147
0.0
147
0.0
147
0.0208333333333333
147
0.0
147
0.0
147
0.0
147
0.0
147
1.0
147
0.0
147
0.0
147
0.0
147
0.0
147
1.0
  0
MATERIAL
  5
21
102
{ACAD_XDICTIONARY
360
22
102
}
102
{ACAD_REACTORS
330
10
102
}
330
10
100
AcDbMaterial
  1
Global
 72
     0
 43
0.0208333333333333
 43
0.0
 43
0.0
 43
0.0
 43
0.0
 43
0.0208333333333333
 43
0.0
 43
0.0
 43
0.0
 43
0.0
 43
1.0
 43
0.0
 43
0.0
 43
0.0
 43
0.0
 43
1.0
 77
     0
 47
0.0208333333333333
 47
0.0
 47
0.0
 47
0.0
 47
0.0
 47
0.0208333333333333
 47
0.0
 47
0.0
 47
0.0
 47
0.0
 47
1.0
 47
0.0
 47
0.0
 47
0.0
 47
0.0
 47
1.0
171
     0
 49
0.0208333333333333
 49
0.0
 49
0.0
 49
0.0
 49
0.0
 49
0.0208333333333333
 49
0.0
 49
0.0
 49
0.0
 49
0.0
 49
1.0
 49
0.0
 49
0.0
 49
0.0
 49
0.0
 49
1.0
175
     0
142
0.0208333333333333
142
0.0
142
0.0
142
0.0
142
0.0
142
0.0208333333333333
142
0.0
142
0.0
142
0.0
142
0.0
142
1.0
142
0.0
142
0.0
142
0.0
142
0.0
142
1.0
179
     0
144
0.0208333333333333
144
0.0
144
0.0
144
0.0
144
0.0
144
0.0208333333333333
144
0.0
144
0.0
144
0.0
144
0.0
144
1.0
144
0.0
144
0.0
144
0.0
144
0.0
144
1.0
147
0.0208333333333333
147
0.0
147
0.0
147
0.0
147
0.0
147
0.0208333333333333
147
0.0
147
0.0
147
0.0
147
0.0
147
1.0
147
0.0
147
0.0
147
0.0
147
0.0
147
1.0
  0
MLEADERSTYLE
  5
67
102
{ACAD_XDICTIONARY
360
165
102
}
102
{ACAD_REACTORS
330
66
102
}
330
66
100
AcDbMLeaderStyle
179
     2
170
     2
171
     1
172
     0
 90
        2
 40
0.0
 41
0.0
173
     1
 91
-1056964608
340
5B
 92
       -2
290
     1
 42
0.09
291
     1
 43
0.36
  3
Standard
 44
0.18
300

342
55
174
     1
178
     6
175
     1
176
     0
 93
-1056964608
 45
0.18
292
     0
297
     0
 46
0.18
 94
-1056964608
 47
1.0
 49
1.0
140
1.0
293
     1
141
0.0
294
     1
177
     0
142
1.0
295
     0
296
     0
143
0.125
271
     0
272
     9
273
     9
  0
MLINESTYLE
  5
60
102
{ACAD_REACTORS
330
5F
102
}
330
5F
100
AcDbMlineStyle
  2
STANDARD
 70
     0
  3

 62
   256
 51
90.0
 52
90.0
 71
     2
 49
0.5
 62
   256
  6
BYLAYER
 49
-0.5
 62
   256
  6
BYLAYER
  0
ACDBPLACEHOLDER
  5
F
102
{ACAD_REACTORS
330
E
102
}
330
E
  0
SCALE
  5
43
102
{ACAD_REACTORS
330
42
102
}
330
42
100
AcDbScale
 70
     0
300
1:1
140
1.0
141
1.0
290
     1
  0
SCALE
  5
44
102
{ACAD_REACTORS
330
42
102
}
330
42
100
AcDbScale
 70
     0
300
1/128" = 1'-0"
140
0.0078125
141
12.0
290
     0
  0
SCALE
  5
45
102
{ACAD_REACTORS
330
42
102
}
330
42
100
AcDbScale
 70
     0
300
1/64" = 1'-0"
140
0.015625
141
12.0
290
     0
  0
SCALE
  5
46
102
{ACAD_REACTORS
330
42
102
}
330
42
100
AcDbScale
 70
     0
300
1/32" = 1'-0"
140
0.03125
141
12.0
290
     0
  0
SCALE
  5
47
102
{ACAD_REACTORS
330
42
102
}
330
42
100
AcDbScale
 70
     0
300
1/16" = 1'-0"
140
0.0625
141
12.0
290
     0
  0
SCALE
  5
48
102
{ACAD_REACTORS
330
42
102
}
330
42
100
AcDbScale
 70
     0
300
3/32" = 1'-0"
140
0.09375
141
12.0
290
     0
  0
SCALE
  5
49
102
{ACAD_REACTORS
330
42
102
}
330
42
100
AcDbScale
 70
     0
300
1/8" = 1'-0"
140
0.125
141
12.0
290
     0
  0
SCALE
  5
4A
102
{ACAD_REACTORS
330
42
102
}
330
42
100
AcDbScale
 70
     0
300
3/16" = 1'-0"
140
0.1875
141
12.0
290
     0
  0
SCALE
  5
4B
102
{ACAD_REACTORS
330
42
102
}
330
42
100
AcDbScale
 70
     0
300
1/4" = 1'-0"
140
0.25
141
12.0
290
     0
  0
SCALE
  5
4C
102
{ACAD_REACTORS
330
42
102
}
330
42
100
AcDbScale
 70
     0
300
3/8" = 1'-0"
140
0.375
141
12.0
290
     0
  0
SCALE
  5
4D
102
{ACAD_REACTORS
330
42
102
}
330
42
100
AcDbScale
 70
     0
300
1/2" = 1'-0"
140
0.5
141
12.0
290
     0
  0
SCALE
  5
4E
102
{ACAD_REACTORS
330
42
102
}
330
42
100
AcDbScale
 70
     0
300
3/4" = 1'-0"
140
0.75
141
12.0
290
     0
  0
SCALE
  5
4F
102
{ACAD_REACTORS
330
42
102
}
330
42
100
AcDbScale
 70
     0
300
1" = 1'-0"
140
1.0
141
12.0
290
     0
  0
SCALE
  5
50
102
{ACAD_REACTORS
330
42
102
}
330
42
100
AcDbScale
 70
     0
300
1-1/2" = 1'-0"
140
1.5
141
12.0
290
     0
  0
SCALE
  5
51
102
{ACAD_REACTORS
330
42
102
}
330
42
100
AcDbScale
 70
     0
300
3" = 1'-0"
140
3.0
141
12.0
290
     0
  0
SCALE
  5
52
102
{ACAD_REACTORS
330
42
102
}
330
42
100
AcDbScale
 70
     0
300
6" = 1'-0"
140
6.0
141
12.0
290
     0
  0
SCALE
  5
53
102
{ACAD_REACTORS
330
42
102
}
330
42
100
AcDbScale
 70
     0
300
1'-0" = 1'-0"
140
12.0
141
12.0
290
     0
  0
ACDBSECTIONVIEWSTYLE
  5
69
102
{ACAD_XDICTIONARY
360
167
102
}
102
{ACAD_REACTORS
330
68
102
}
330
68
100
AcDbModelDocViewStyle
 70
     0
  3
Imperial24
290
     0
100
AcDbSectionViewStyle
 70
     0
 71
     0
 90
       78
 71
     1
340
55
 62
   256
 40
0.24
340
0
340
0
 62
   256
 40
0.24
300
I, O, Q, S, X, Z
 40
0.48
 90
        3
 40
0.18
 90
        1
 71
     2
340
5D
 90
       25
 62
   256
340
5D
 90
       50
 62
   256
 40
0.24
 40
0.0
 40
0.24
 71
     3
340
55
 62
   256
 40
0.24
 90
        1
 40
0.75
 90
        1
300
%<\AcVar ViewType \f "%tc1">% %<\AcVar ViewSectionStartId>%-%<\AcVar ViewSectionEndId>%\PSCALE %<\AcVar ViewScale \f "%sn">%
 71
     4
 62
   256
 62
   257
300
ANSI31
 40
1.0
 90
        0
290
     0
290
     0
 90
        6
 40
0.0
 40
1.570796326794896
 40
0.2617993877991494
 40
1.308996938995747
 40
-0.2617993877991494
 40
1.832595714594046
  0
TABLESTYLE
  5
65
102
{ACAD_XDICTIONARY
360
132
102
}
102
{ACAD_REACTORS
330
64
102
}
330
64
100
AcDbTableStyle
280
     0
  3
Standard
 70
     0
 71
     0
 40
0.06
 41
0.06
280
     0
281
     0
  7
Standard
140
0.18
170
     2
 62
     0
 63
     7
283
     0
 90
      512
 91
        0
  1

274
    -2
284
     1
 64
     0
275
    -2
285
     1
 65
     0
276
    -2
286
     1
 66
     0
277
    -2
287
     1
 67
     0
278
    -2
288
     1
 68
     0
279
    -2
289
     1
 69
     0
  7
Standard
140
0.25
170
     5
 62
     0
 63
     7
283
     0
 90
      512
 91
        0
  1

274
    -2
284
     1
 64
     0
275
    -2
285
     1
 65
     0
276
    -2
286
     1
 66
     0
277
    -2
287
     1
 67
     0
278
    -2
288
     1
 68
     0
279
    -2
289
     1
 69
     0
  7
Standard
140
0.18
170
     5
 62
     0
 63
     7
283
     0
 90
      512
 91
        0
  1

274
    -2
284
     1
 64
     0
275
    -2
285
     1
 65
     0
276
    -2
286
     1
 66
     0
277
    -2
287
     1
 67
     0
278
    -2
288
     1
 68
     0
279
    -2
289
     1
 69
     0
  0
VISUALSTYLE
  5
2F
102
{ACAD_XDICTIONARY
360
13F
102
}
102
{ACAD_REACTORS
330
29
102
}
330
29
100
AcDbVisualStyle
  2
2dWireframe
 70
     4
177
     2
291
     0
 71
     0
176
     1
 72
     2
176
     1
 73
     0
176
     1
 90
        0
176
     1
 40
0.6
176
     1
 41
30.0
176
     1
 63
     7
421
 16777215
176
     1
 74
     1
176
     1
 91
        4
176
     1
 64
     7
176
     1
 65
   257
176
     1
 75
     1
176
     1
175
     1
176
     1
 42
1.0
176
     1
 92
        0
176
     1
 66
   257
176
     1
 43
1.0
176
     1
 76
     1
176
     1
 77
     6
176
     1
 78
     2
176
     1
 67
     7
176
     1
 79
     5
176
     1
170
     0
176
     1
171
     0
176
     1
290
     0
176
     1
 93
        1
176
     1
 44
0.0
176
     1
173
     0
176
     1
1001
ACAD
1000
AcDbSavedByObjectVersion
1070
     0
  0
VISUALSTYLE
  5
2E
102
{ACAD_XDICTIONARY
360
13D
102
}
102
{ACAD_REACTORS
330
29
102
}
330
29
100
AcDbVisualStyle
  2
Basic
 70
     7
177
     2
291
     1
 71
     1
176
     1
 72
     0
176
     1
 73
     1
176
     1
 90
        0
176
     1
 40
0.6
176
     1
 41
30.0
176
     1
 63
     7
421
 16777215
176
     1
 74
     0
176
     1
 91
        4
176
     1
 64
     7
176
     1
 65
   257
176
     1
 75
     1
176
     1
175
     1
176
     1
 42
1.0
176
     1
 92
        8
176
     1
 66
     7
176
     1
 43
1.0
176
     1
 76
     1
176
     1
 77
     6
176
     1
 78
     2
176
     1
 67
     7
176
     1
 79
     5
176
     1
170
     0
176
     1
171
     0
176
     1
290
     0
176
     1
 93
        1
176
     1
 44
0.0
176
     1
173
     0
176
     1
1001
ACAD
1000
AcDbSavedByObjectVersion
1070
     0
  0
VISUALSTYLE
  5
35
102
{ACAD_XDICTIONARY
360
14B
102
}
102
{ACAD_REACTORS
330
29
102
}
330
29
100
AcDbVisualStyle
  2
Brighten
 70
    12
177
     2
291
     1
 71
     2
176
     1
 72
     2
176
     1
 73
     0
176
     1
 90
        0
176
     1
 40
0.6
176
     1
 41
30.0
176
     1
 63
     7
421
 16777215
176
     1
 74
     1
176
     1
 91
        4
176
     1
 64
     7
176
     1
 65
   257
176
     1
 75
     1
176
     1
175
     1
176
     1
 42
1.0
176
     1
 92
        8
176
     1
 66
     7
176
     1
 43
1.0
176
     1
 76
     1
176
     1
 77
     6
176
     1
 78
     2
176
     1
 67
     7
176
     1
 79
     5
176
     1
170
     0
176
     1
171
     0
176
     1
290
     0
176
     1
 93
        1
176
     1
 44
50.0
176
     1
173
     0
176
     1
1001
ACAD
1000
AcDbSavedByObjectVersion
1070
     0
  0
VISUALSTYLE
  5
39
102
{ACAD_XDICTIONARY
360
153
102
}
102
{ACAD_REACTORS
330
29
102
}
330
29
100
AcDbVisualStyle
  2
ColorChange
 70
    16
177
     2
291
     1
 71
     2
176
     1
 72
     2
176
     1
 73
     3
176
     1
 90
        0
176
     1
 40
0.6
176
     1
 41
30.0
176
     1
 63
     8
421
  8421504
176
     1
 74
     1
176
     1
 91
        4
176
     1
 64
     7
176
     1
 65
   257
176
     1
 75
     1
176
     1
175
     1
176
     1
 42
1.0
176
     1
 92
        8
176
     1
 66
     8
424
  8421504
176
     1
 43
1.0
176
     1
 76
     1
176
     1
 77
     6
176
     1
 78
     2
176
     1
 67
     7
176
     1
 79
     5
176
     1
170
     0
176
     1
171
     0
176
     1
290
     0
176
     1
 93
        1
176
     1
 44
0.0
176
     1
173
     0
176
     1
1001
ACAD
1000
AcDbSavedByObjectVersion
1070
     0
  0
VISUALSTYLE
  5
32
102
{ACAD_XDICTIONARY
360
145
102
}
102
{ACAD_REACTORS
330
29
102
}
330
29
100
AcDbVisualStyle
  2
Conceptual
 70
     9
177
     2
291
     0
 71
     3
176
     1
 72
     2
176
     1
 73
     0
176
     1
 90
        0
176
     1
 40
0.6
176
     1
 41
30.0
176
     1
 63
     7
421
 16777215
176
     1
 74
     2
176
     1
 91
        2
176
     1
 64
     7
176
     1
 65
   257
176
     1
 75
     1
176
     1
175
     1
176
     1
 42
179.0
176
     1
 92
        8
176
     1
 66
     7
176
     1
 43
1.0
176
     1
 76
     1
176
     1
 77
     6
176
     1
 78
     2
176
     1
 67
     7
176
     1
 79
     3
176
     1
170
     0
176
     1
171
     0
176
     1
290
     0
176
     1
 93
        1
176
     1
 44
0.0
176
     1
173
     0
176
     1
1001
ACAD
1000
AcDbSavedByObjectVersion
1070
     0
  0
VISUALSTYLE
  5
34
102
{ACAD_XDICTIONARY
360
149
102
}
102
{ACAD_REACTORS
330
29
102
}
330
29
100
AcDbVisualStyle
  2
Dim
 70
    11
177
     2
291
     1
 71
     2
176
     1
 72
     2
176
     1
 73
     0
176
     1
 90
        0
176
     1
 40
0.6
176
     1
 41
30.0
176
     1
 63
     7
421
 16777215
176
     1
 74
     1
176
     1
 91
        4
176
     1
 64
     7
176
     1
 65
   257
176
     1
 75
     1
176
     1
175
     1
176
     1
 42
1.0
176
     1
 92
        8
176
     1
 66
     7
176
     1
 43
1.0
176
     1
 76
     1
176
     1
 77
     6
176
     1
 78
     2
176
     1
 67
     7
176
     1
 79
     5
176
     1
170
     0
176
     1
171
     0
176
     1
290
     0
176
     1
 93
        1
176
     1
 44
-50.0
176
     1
173
     0
176
     1
1001
ACAD
1000
AcDbSavedByObjectVersion
1070
     0
  0
VISUALSTYLE
  5
41
102
{ACAD_XDICTIONARY
360
163
102
}
102
{ACAD_REACTORS
330
29
102
}
330
29
100
AcDbVisualStyle
  2
EdgeColorOff
 70
    22
177
     2
291
     1
 71
     2
176
     0
 72
     2
176
     0
 73
     0
176
     0
 90
        0
176
     0
 40
0.6
176
     0
 41
30.0
176
     0
 63
     7
421
 16777215
176
     0
 74
     1
176
     0
 91
        4
176
     0
 64
     7
176
     0
 65
   257
176
     0
 75
     1
176
     0
175
     1
176
     0
 42
1.0
176
     0
 92
        8
176
     2
 66
     7
176
     0
 43
1.0
176
     0
 76
     1
176
     0
 77
     6
176
     0
 78
     2
176
     0
 67
     7
176
     0
 79
     5
176
     0
170
     0
176
     0
171
     0
176
     0
290
     0
176
     0
 93
        1
176
     0
 44
0.0
176
     0
173
     0
176
     0
1001
ACAD
1000
AcDbSavedByObjectVersion
1070
     0
  0
VISUALSTYLE
  5
38
102
{ACAD_XDICTIONARY
360
151
102
}
102
{ACAD_REACTORS
330
29
102
}
330
29
100
AcDbVisualStyle
  2
Facepattern
 70
    15
177
     2
291
     1
 71
     2
176
     1
 72
     2
176
     1
 73
     0
176
     1
 90
        0
176
     1
 40
0.6
176
     1
 41
30.0
176
     1
 63
     7
421
 16777215
176
     1
 74
     1
176
     1
 91
        4
176
     1
 64
     7
176
     1
 65
   257
176
     1
 75
     1
176
     1
175
     1
176
     1
 42
1.0
176
     1
 92
        8
176
     1
 66
     7
176
     1
 43
1.0
176
     1
 76
     1
176
     1
 77
     6
176
     1
 78
     2
176
     1
 67
     7
176
     1
 79
     5
176
     1
170
     0
176
     1
171
     0
176
     1
290
     0
176
     1
 93
        1
176
     1
 44
0.0
176
     1
173
     0
176
     1
1001
ACAD
1000
AcDbSavedByObjectVersion
1070
     0
  0
VISUALSTYLE
  5
2A
102
{ACAD_XDICTIONARY
360
135
102
}
102
{ACAD_REACTORS
330
29
102
}
330
29
100
AcDbVisualStyle
  2
Flat
 70
     0
177
     2
291
     1
 71
     2
176
     1
 72
     1
176
     1
 73
     1
176
     1
 90
        2
176
     1
 40
0.6
176
     1
 41
30.0
176
     1
 63
     7
421
 16777215
176
     1
 74
     0
176
     1
 91
        0
176
     1
 64
     7
176
     1
 65
   257
176
     1
 75
     1
176
     1
175
     1
176
     1
 42
1.0
176
     1
 92
        8
176
     1
 66
     7
176
     1
 43
1.0
176
     1
 76
     1
176
     1
 77
     6
176
     1
 78
     2
176
     1
 67
     7
176
     1
 79
     5
176
     1
170
     0
176
     1
171
     0
176
     1
290
     0
176
     1
 93
       13
176
     1
 44
0.0
176
     1
173
     0
176
     1
1001
ACAD
1000
AcDbSavedByObjectVersion
1070
     0
  0
VISUALSTYLE
  5
2B
102
{ACAD_XDICTIONARY
360
137
102
}
102
{ACAD_REACTORS
330
29
102
}
330
29
100
AcDbVisualStyle
  2
FlatWithEdges
 70
     1
177
     2
291
     1
 71
     2
176
     1
 72
     1
176
     1
 73
     1
176
     1
 90
        2
176
     1
 40
0.6
176
     1
 41
30.0
176
     1
 63
     7
421
 16777215
176
     1
 74
     1
176
     1
 91
        0
176
     1
 64
     7
176
     1
 65
   257
176
     1
 75
     1
176
     1
175
     1
176
     1
 42
1.0
176
     1
 92
        0
176
     1
 66
   257
176
     1
 43
1.0
176
     1
 76
     1
176
     1
 77
     6
176
     1
 78
     2
176
     1
 67
     7
176
     1
 79
     5
176
     1
170
     0
176
     1
171
     0
176
     1
290
     0
176
     1
 93
       13
176
     1
 44
0.0
176
     1
173
     0
176
     1
1001
ACAD
1000
AcDbSavedByObjectVersion
1070
     0
  0
VISUALSTYLE
  5
2C
102
{ACAD_XDICTIONARY
360
139
102
}
102
{ACAD_REACTORS
330
29
102
}
330
29
100
AcDbVisualStyle
  2
Gouraud
 70
     2
177
     2
291
     1
 71
     2
176
     1
 72
     2
176
     1
 73
     1
176
     1
 90
        2
176
     1
 40
0.6
176
     1
 41
30.0
176
     1
 63
     7
421
 16777215
176
     1
 74
     0
176
     1
 91
        0
176
     1
 64
     7
176
     1
 65
   257
176
     1
 75
     1
176
     1
175
     1
176
     1
 42
1.0
176
     1
 92
        0
176
     1
 66
     7
176
     1
 43
1.0
176
     1
 76
     1
176
     1
 77
     6
176
     1
 78
     2
176
     1
 67
     7
176
     1
 79
     5
176
     1
170
     0
176
     1
171
     0
176
     1
290
     0
176
     1
 93
       13
176
     1
 44
0.0
176
     1
173
     0
176
     1
1001
ACAD
1000
AcDbSavedByObjectVersion
1070
     0
  0
VISUALSTYLE
  5
2D
102
{ACAD_XDICTIONARY
360
13B
102
}
102
{ACAD_REACTORS
330
29
102
}
330
29
100
AcDbVisualStyle
  2
GouraudWithEdges
 70
     3
177
     2
291
     1
 71
     2
176
     1
 72
     2
176
     1
 73
     1
176
     1
 90
        2
176
     1
 40
0.6
176
     1
 41
30.0
176
     1
 63
     7
421
 16777215
176
     1
 74
     1
176
     1
 91
        0
176
     1
 64
     7
176
     1
 65
   257
176
     1
 75
     1
176
     1
175
     1
176
     1
 42
1.0
176
     1
 92
        0
176
     1
 66
   257
176
     1
 43
1.0
176
     1
 76
     1
176
     1
 77
     6
176
     1
 78
     2
176
     1
 67
     7
176
     1
 79
     5
176
     1
170
     0
176
     1
171
     0
176
     1
290
     0
176
     1
 93
       13
176
     1
 44
0.0
176
     1
173
     0
176
     1
1001
ACAD
1000
AcDbSavedByObjectVersion
1070
     0
  0
VISUALSTYLE
  5
31
102
{ACAD_XDICTIONARY
360
143
102
}
102
{ACAD_REACTORS
330
29
102
}
330
29
100
AcDbVisualStyle
  2
Hidden
 70
     6
177
     2
291
     0
 71
     1
176
     1
 72
     2
176
     1
 73
     2
176
     1
 90
        0
176
     1
 40
0.6
176
     1
 41
30.0
176
     1
 63
     7
421
 16777215
176
     1
 74
     2
176
     1
 91
        2
176
     1
 64
     7
176
     1
 65
   257
176
     1
 75
     2
176
     1
175
     1
176
     1
 42
40.0
176
     1
 92
        0
176
     1
 66
   257
176
     1
 43
1.0
176
     1
 76
     1
176
     1
 77
     6
176
     1
 78
     2
176
     1
 67
     7
176
     1
 79
     3
176
     1
170
     0
176
     1
171
     0
176
     1
290
     0
176
     1
 93
        1
176
     1
 44
0.0
176
     1
173
     0
176
     1
1001
ACAD
1000
AcDbSavedByObjectVersion
1070
     0
  0
VISUALSTYLE
  5
3F
102
{ACAD_XDICTIONARY
360
15F
102
}
102
{ACAD_REACTORS
330
29
102
}
330
29
100
AcDbVisualStyle
  2
JitterOff
 70
    20
177
     2
291
     1
 71
     2
176
     0
 72
     2
176
     0
 73
     0
176
     0
 90
        0
176
     0
 40
0.6
176
     0
 41
30.0
176
     0
 63
     7
421
 16777215
176
     0
 74
     1
176
     0
 91
        4
176
     0
 64
     7
176
     0
 65
   257
176
     0
 75
     1
176
     0
175
     1
176
     0
 42
1.0
176
     0
 92
       10
176
     2
 66
     7
176
     0
 43
1.0
176
     0
 76
     1
176
     0
 77
     6
176
     0
 78
     2
176
     0
 67
     7
176
     0
 79
     5
176
     0
170
     0
176
     0
171
     0
176
     0
290
     0
176
     0
 93
        1
176
     0
 44
0.0
176
     0
173
     0
176
     0
1001
ACAD
1000
AcDbSavedByObjectVersion
1070
     0
  0
VISUALSTYLE
  5
37
102
{ACAD_XDICTIONARY
360
14F
102
}
102
{ACAD_REACTORS
330
29
102
}
330
29
100
AcDbVisualStyle
  2
Linepattern
 70
    14
177
     2
291
     1
 71
     2
176
     1
 72
     2
176
     1
 73
     0
176
     1
 90
        0
176
     1
 40
0.6
176
     1
 41
30.0
176
     1
 63
     7
421
 16777215
176
     1
 74
     1
176
     1
 91
        4
176
     1
 64
     7
176
     1
 65
   257
176
     1
 75
     7
176
     1
175
     7
176
     1
 42
1.0
176
     1
 92
        8
176
     1
 66
     7
176
     1
 43
1.0
176
     1
 76
     1
176
     1
 77
     6
176
     1
 78
     2
176
     1
 67
     7
176
     1
 79
     5
176
     1
170
     0
176
     1
171
     0
176
     1
290
     0
176
     1
 93
        1
176
     1
 44
0.0
176
     1
173
     0
176
     1
1001
ACAD
1000
AcDbSavedByObjectVersion
1070
     0
  0
VISUALSTYLE
  5
40
102
{ACAD_XDICTIONARY
360
161
102
}
102
{ACAD_REACTORS
330
29
102
}
330
29
100
AcDbVisualStyle
  2
OverhangOff
 70
    21
177
     2
291
     1
 71
     2
176
     0
 72
     2
176
     0
 73
     0
176
     0
 90
        0
176
     0
 40
0.6
176
     0
 41
30.0
176
     0
 63
     7
421
 16777215
176
     0
 74
     1
176
     0
 91
        4
176
     0
 64
     7
176
     0
 65
   257
176
     0
 75
     1
176
     0
175
     1
176
     0
 42
1.0
176
     0
 92
        9
176
     2
 66
     7
176
     0
 43
1.0
176
     0
 76
     1
176
     0
 77
     6
176
     0
 78
     2
176
     0
 67
     7
176
     0
 79
     5
176
     0
170
     0
176
     0
171
     0
176
     0
290
     0
176
     0
 93
        1
176
     0
 44
0.0
176
     0
173
     0
176
     0
1001
ACAD
1000
AcDbSavedByObjectVersion
1070
     0
  0
VISUALSTYLE
  5
33
102
{ACAD_XDICTIONARY
360
147
102
}
102
{ACAD_REACTORS
330
29
102
}
330
29
100
AcDbVisualStyle
  2
Realistic
 70
     8
177
     2
291
     0
 71
     2
176
     1
 72
     3
176
     1
 73
     0
176
     1
 90
        2
176
     1
 40
0.6
176
     1
 41
30.0
176
     1
 63
     7
421
 16777215
176
     1
 74
     0
176
     1
 91
        0
176
     1
 64
     7
176
     1
 65
   257
176
     1
 75
     1
176
     1
175
     1
176
     1
 42
1.0
176
     1
 92
        8
176
     1
 66
   257
176
     1
 43
1.0
176
     1
 76
     1
176
     1
 77
     6
176
     1
 78
     2
176
     1
 67
     7
176
     1
 79
     3
176
     1
170
     0
176
     1
171
     0
176
     1
290
     0
176
     1
 93
       13
176
     1
 44
0.0
176
     1
173
     0
176
     1
1001
ACAD
1000
AcDbSavedByObjectVersion
1070
     0
  0
VISUALSTYLE
  5
3E
102
{ACAD_XDICTIONARY
360
15D
102
}
102
{ACAD_REACTORS
330
29
102
}
330
29
100
AcDbVisualStyle
  2
Shaded
 70
    27
177
     2
291
     0
 71
     2
176
     1
 72
     2
176
     1
 73
     1
176
     1
 90
        2
176
     1
 40
0.6
176
     1
 41
30.0
176
     1
 63
     7
421
 16777215
176
     1
 74
     0
176
     1
 91
        4
176
     1
 64
     7
176
     1
 65
   257
176
     1
 75
     1
176
     1
175
     1
176
     1
 42
1.0
176
     1
 92
        8
176
     1
 66
   257
176
     1
 43
1.0
176
     1
 76
     1
176
     1
 77
     6
176
     1
 78
     2
176
     1
 67
     8
425
  7895160
176
     1
 79
     3
176
     1
170
     0
176
     1
171
     0
176
     1
290
     0
176
     1
 93
        5
176
     1
 44
0.0
176
     1
173
     0
176
     1
1001
ACAD
1000
AcDbSavedByObjectVersion
1070
     0
  0
VISUALSTYLE
  5
3D
102
{ACAD_XDICTIONARY
360
15B
102
}
102
{ACAD_REACTORS
330
29
102
}
330
29
100
AcDbVisualStyle
  2
Shaded with edges
 70
    26
177
     2
291
     0
 71
     2
176
     1
 72
     2
176
     1
 73
     1
176
     1
 90
        2
176
     1
 40
0.6
176
     1
 41
30.0
176
     1
 63
     7
421
 16777215
176
     1
 74
     1
176
     1
 91
        2
176
     1
 64
     7
176
     1
 65
   257
176
     1
 75
     2
176
     1
175
     1
176
     1
 42
1.0
176
     1
 92
        8
176
     1
 66
   257
176
     1
 43
1.0
176
     1
 76
     1
176
     1
 77
     6
176
     1
 78
     2
176
     1
 67
     7
176
     1
 79
     3
176
     1
170
     0
176
     1
171
     0
176
     1
290
     0
176
     1
 93
        5
176
     1
 44
0.0
176
     1
173
     0
176
     1
1001
ACAD
1000
AcDbSavedByObjectVersion
1070
     0
  0
VISUALSTYLE
  5
3A
102
{ACAD_XDICTIONARY
360
155
102
}
102
{ACAD_REACTORS
330
29
102
}
330
29
100
AcDbVisualStyle
  2
Shades of Gray
 70
    23
177
     2
291
     0
 71
     2
176
     1
 72
     2
176
     1
 73
     3
176
     1
 90
        0
176
     1
 40
0.6
176
     1
 41
30.0
176
     1
 63
     7
421
 16777215
176
     1
 74
     2
176
     1
 91
        2
176
     1
 64
     7
176
     1
 65
     7
176
     1
 75
     1
176
     1
175
     1
176
     1
 42
40.0
176
     1
 92
        8
176
     1
 66
     7
176
     1
 43
1.0
176
     1
 76
     1
176
     1
 77
     6
176
     1
 78
     2
176
     1
 67
     7
176
     1
 79
     3
176
     1
170
     0
176
     1
171
     0
176
     1
290
     0
176
     1
 93
        1
176
     1
 44
0.0
176
     1
173
     0
176
     1
1001
ACAD
1000
AcDbSavedByObjectVersion
1070
     0
  0
VISUALSTYLE
  5
3B
102
{ACAD_XDICTIONARY
360
157
102
}
102
{ACAD_REACTORS
330
29
102
}
330
29
100
AcDbVisualStyle
  2
Sketchy
 70
    24
177
     2
291
     0
 71
     1
176
     1
 72
     2
176
     1
 73
     2
176
     1
 90
        0
176
     1
 40
0.6
176
     1
 41
30.0
176
     1
 63
     7
421
 16777215
176
     1
 74
     2
176
     1
 91
        2
176
     1
 64
     7
176
     1
 65
     7
176
     1
 75
     1
176
     1
175
     1
176
     1
 42
40.0
176
     1
 92
       11
176
     1
 66
     7
176
     1
 43
1.0
176
     1
 76
     1
176
     1
 77
     6
176
     1
 78
     2
176
     1
 67
     7
176
     1
 79
     6
176
     1
170
     0
176
     1
171
     0
176
     1
290
     0
176
     1
 93
        1
176
     1
 44
0.0
176
     1
173
     0
176
     1
1001
ACAD
1000
AcDbSavedByObjectVersion
1070
     0
  0
VISUALSTYLE
  5
36
102
{ACAD_XDICTIONARY
360
14D
102
}
102
{ACAD_REACTORS
330
29
102
}
330
29
100
AcDbVisualStyle
  2
Thicken
 70
    13
177
     2
291
     1
 71
     2
176
     1
 72
     2
176
     1
 73
     0
176
     1
 90
        0
176
     1
 40
0.6
176
     1
 41
30.0
176
     1
 63
     7
421
 16777215
176
     1
 74
     1
176
     1
 91
        4
176
     1
 64
     7
176
     1
 65
   257
176
     1
 75
     1
176
     1
175
     1
176
     1
 42
1.0
176
     1
 92
       12
176
     1
 66
     7
176
     1
 43
1.0
176
     1
 76
     1
176
     1
 77
     6
176
     1
 78
     2
176
     1
 67
     7
176
     1
 79
     5
176
     1
170
     0
176
     1
171
     0
176
     1
290
     0
176
     1
 93
        1
176
     1
 44
0.0
176
     1
173
     0
176
     1
1001
ACAD
1000
AcDbSavedByObjectVersion
1070
     0
  0
VISUALSTYLE
  5
30
102
{ACAD_XDICTIONARY
360
141
102
}
102
{ACAD_REACTORS
330
29
102
}
330
29
100
AcDbVisualStyle
  2
Wireframe
 70
     5
177
     2
291
     0
 71
     0
176
     1
 72
     2
176
     1
 73
     0
176
     1
 90
        0
176
     1
 40
0.6
176
     1
 41
30.0
176
     1
 63
     7
421
 16777215
176
     1
 74
     1
176
     1
 91
        4
176
     1
 64
     7
176
     1
 65
   257
176
     1
 75
     1
176
     1
175
     1
176
     1
 42
1.0
176
     1
 92
        0
176
     1
 66
   257
176
     1
 43
1.0
176
     1
 76
     1
176
     1
 77
     6
176
     1
 78
     2
176
     1
 67
     7
176
     1
 79
     3
176
     1
170
     0
176
     1
171
     0
176
     1
290
     0
176
     1
 93
        1
176
     1
 44
0.0
176
     1
173
     0
176
     1
1001
ACAD
1000
AcDbSavedByObjectVersion
1070
     0
  0
VISUALSTYLE
  5
3C
102
{ACAD_XDICTIONARY
360
159
102
}
102
{ACAD_REACTORS
330
29
102
}
330
29
100
AcDbVisualStyle
  2
X-Ray
 70
    25
177
     2
291
     0
 71
     2
176
     1
 72
     2
176
     1
 73
     1
176
     1
 90
        1
176
     1
 40
0.5
176
     1
 41
30.0
176
     1
 63
     7
421
 16777215
176
     1
 74
     1
176
     1
 91
        0
176
     1
 64
     7
176
     1
 65
   257
176
     1
 75
     1
176
     1
175
     1
176
     1
 42
1.0
176
     1
 92
        8
176
     1
 66
     7
176
     1
 43
1.0
176
     1
 76
     1
176
     1
 77
     6
176
     1
 78
     2
176
     1
 67
     7
176
     1
 79
     3
176
     1
170
     0
176
     1
171
     0
176
     1
290
     0
176
     1
 93
       13
176
     1
 44
0.0
176
     1
173
     0
176
     1
1001
ACAD
1000
AcDbSavedByObjectVersion
1070
     0
  0
DICTIONARYVAR
  5
131
102
{ACAD_REACTORS
330
12C
102
}
330
12C
100
DictionaryVariables
280
     0
  1
1:1
  0
DICTIONARYVAR
  5
12E
102
{ACAD_REACTORS
330
12C
102
}
330
12C
100
DictionaryVariables
280
     0
  1
STANDARD
  0
DICTIONARYVAR
  5
12D
102
{ACAD_REACTORS
330
12C
102
}
330
12C
100
DictionaryVariables
280
     0
  1
STANDARD
  0
DICTIONARYVAR
  5
12F
102
{ACAD_REACTORS
330
12C
102
}
330
12C
100
DictionaryVariables
280
     0
  1
Imperial24
  0
DICTIONARYVAR
  5
130
102
{ACAD_REACTORS
330
12C
102
}
330
12C
100
DictionaryVariables
280
     0
  1
Imperial24
  0
DICTIONARY
  5
169
330
6B
100
AcDbDictionary
280
     1
281
     1
  3
ACAD_XREC_ROUNDTRIP
360
16A
  0
DICTIONARY
  5
1A
330
19
100
AcDbDictionary
280
     1
281
     1
  3
BUMPTILE
360
1C
  3
DIFFUSETILE
360
1B
  3
OPACITYTILE
360
1F
  3
REFLECTIONTILE
360
1E
  3
REFRACTIONTILE
360
20
  3
SPECULARTILE
360
1D
  0
DICTIONARY
  5
12
330
11
100
AcDbDictionary
280
     1
281
     1
  3
BUMPTILE
360
14
  3
DIFFUSETILE
360
13
  3
OPACITYTILE
360
17
  3
REFLECTIONTILE
360
16
  3
REFRACTIONTILE
360
18
  3
SPECULARTILE
360
15
  0
DICTIONARY
  5
22
330
21
100
AcDbDictionary
280
     1
281
     1
  3
BUMPTILE
360
24
  3
DIFFUSETILE
360
23
  3
OPACITYTILE
360
27
  3
REFLECTIONTILE
360
26
  3
REFRACTIONTILE
360
28
  3
SPECULARTILE
360
25
  0
DICTIONARY
  5
165
330
67
100
AcDbDictionary
280
     1
281
     1
  3
ACAD_XREC_ROUNDTRIP
360
166
  0
DICTIONARY
  5
167
330
69
100
AcDbDictionary
280
     1
281
     1
  3
ACAD_XREC_ROUNDTRIP
360
168
  0
DICTIONARY
  5
132
330
65
100
AcDbDictionary
280
     1
281
     1
  3
ACAD_ROUNDTRIP_2008_TABLESTYLE_CELLSTYLEMAP
360
133
  0
DICTIONARY
  5
13F
330
2F
100
AcDbDictionary
280
     1
281
     1
  3
ACAD_XREC_ROUNDTRIP
360
140
  0
DICTIONARY
  5
13D
330
2E
100
AcDbDictionary
280
     1
281
     1
  3
ACAD_XREC_ROUNDTRIP
360
13E
  0
DICTIONARY
  5
14B
330
35
100
AcDbDictionary
280
     1
281
     1
  3
ACAD_XREC_ROUNDTRIP
360
14C
  0
DICTIONARY
  5
153
330
39
100
AcDbDictionary
280
     1
281
     1
  3
ACAD_XREC_ROUNDTRIP
360
154
  0
DICTIONARY
  5
145
330
32
100
AcDbDictionary
280
     1
281
     1
  3
ACAD_XREC_ROUNDTRIP
360
146
  0
DICTIONARY
  5
149
330
34
100
AcDbDictionary
280
     1
281
     1
  3
ACAD_XREC_ROUNDTRIP
360
14A
  0
DICTIONARY
  5
163
330
41
100
AcDbDictionary
280
     1
281
     1
  3
ACAD_XREC_ROUNDTRIP
360
164
  0
DICTIONARY
  5
151
330
38
100
AcDbDictionary
280
     1
281
     1
  3
ACAD_XREC_ROUNDTRIP
360
152
  0
DICTIONARY
  5
135
330
2A
100
AcDbDictionary
280
     1
281
     1
  3
ACAD_XREC_ROUNDTRIP
360
136
  0
DICTIONARY
  5
137
330
2B
100
AcDbDictionary
280
     1
281
     1
  3
ACAD_XREC_ROUNDTRIP
360
138
  0
DICTIONARY
  5
139
330
2C
100
AcDbDictionary
280
     1
281
     1
  3
ACAD_XREC_ROUNDTRIP
360
13A
  0
DICTIONARY
  5
13B
330
2D
100
AcDbDictionary
280
     1
281
     1
  3
ACAD_XREC_ROUNDTRIP
360
13C
  0
DICTIONARY
  5
143
330
31
100
AcDbDictionary
280
     1
281
     1
  3
ACAD_XREC_ROUNDTRIP
360
144
  0
DICTIONARY
  5
15F
330
3F
100
AcDbDictionary
280
     1
281
     1
  3
ACAD_XREC_ROUNDTRIP
360
160
  0
DICTIONARY
  5
14F
330
37
100
AcDbDictionary
280
     1
281
     1
  3
ACAD_XREC_ROUNDTRIP
360
150
  0
DICTIONARY
  5
161
330
40
100
AcDbDictionary
280
     1
281
     1
  3
ACAD_XREC_ROUNDTRIP
360
162
  0
DICTIONARY
  5
147
330
33
100
AcDbDictionary
280
     1
281
     1
  3
ACAD_XREC_ROUNDTRIP
360
148
  0
DICTIONARY
  5
15D
330
3E
100
AcDbDictionary
280
     1
281
     1
  3
ACAD_XREC_ROUNDTRIP
360
15E
  0
DICTIONARY
  5
15B
330
3D
100
AcDbDictionary
280
     1
281
     1
  3
ACAD_XREC_ROUNDTRIP
360
15C
  0
DICTIONARY
  5
155
330
3A
100
AcDbDictionary
280
     1
281
     1
  3
ACAD_XREC_ROUNDTRIP
360
156
  0
DICTIONARY
  5
157
330
3B
100
AcDbDictionary
280
     1
281
     1
  3
ACAD_XREC_ROUNDTRIP
360
158
  0
DICTIONARY
  5
14D
330
36
100
AcDbDictionary
280
     1
281
     1
  3
ACAD_XREC_ROUNDTRIP
360
14E
  0
DICTIONARY
  5
141
330
30
100
AcDbDictionary
280
     1
281
     1
  3
ACAD_XREC_ROUNDTRIP
360
142
  0
DICTIONARY
  5
159
330
3C
100
AcDbDictionary
280
     1
281
     1
  3
ACAD_XREC_ROUNDTRIP
360
15A
  0
XRECORD
  5
16A
102
{ACAD_REACTORS
330
169
102
}
330
169
100
AcDbXrecord
280
     1
102
DISPLAYNAME
  1
Imperial24
102
FLAGS
 90
        0
  0
XRECORD
  5
1C
102
{ACAD_REACTORS
330
1A
102
}
330
1A
100
AcDbXrecord
280
     1
270
     1
271
     1
  0
XRECORD
  5
1B
102
{ACAD_REACTORS
330
1A
102
}
330
1A
100
AcDbXrecord
280
     1
270
     1
271
     1
  0
XRECORD
  5
1F
102
{ACAD_REACTORS
330
1A
102
}
330
1A
100
AcDbXrecord
280
     1
270
     1
271
     1
  0
XRECORD
  5
1E
102
{ACAD_REACTORS
330
1A
102
}
330
1A
100
AcDbXrecord
280
     1
270
     1
271
     1
  0
XRECORD
  5
20
102
{ACAD_REACTORS
330
1A
102
}
330
1A
100
AcDbXrecord
280
     1
270
     1
271
     1
  0
XRECORD
  5
1D
102
{ACAD_REACTORS
330
1A
102
}
330
1A
100
AcDbXrecord
280
     1
270
     1
271
     1
  0
XRECORD
  5
14
102
{ACAD_REACTORS
330
12
102
}
330
12
100
AcDbXrecord
280
     1
270
     1
271
     1
  0
XRECORD
  5
13
102
{ACAD_REACTORS
330
12
102
}
330
12
100
AcDbXrecord
280
     1
270
     1
271
     1
  0
XRECORD
  5
17
102
{ACAD_REACTORS
330
12
102
}
330
12
100
AcDbXrecord
280
     1
270
     1
271
     1
  0
XRECORD
  5
16
102
{ACAD_REACTORS
330
12
102
}
330
12
100
AcDbXrecord
280
     1
270
     1
271
     1
  0
XRECORD
  5
18
102
{ACAD_REACTORS
330
12
102
}
330
12
100
AcDbXrecord
280
     1
270
     1
271
     1
  0
XRECORD
  5
15
102
{ACAD_REACTORS
330
12
102
}
330
12
100
AcDbXrecord
280
     1
270
     1
271
     1
  0
XRECORD
  5
24
102
{ACAD_REACTORS
330
22
102
}
330
22
100
AcDbXrecord
280
     1
270
     1
271
     1
  0
XRECORD
  5
23
102
{ACAD_REACTORS
330
22
102
}
330
22
100
AcDbXrecord
280
     1
270
     1
271
     1
  0
XRECORD
  5
27
102
{ACAD_REACTORS
330
22
102
}
330
22
100
AcDbXrecord
280
     1
270
     1
271
     1
  0
XRECORD
  5
26
102
{ACAD_REACTORS
330
22
102
}
330
22
100
AcDbXrecord
280
     1
270
     1
271
     1
  0
XRECORD
  5
28
102
{ACAD_REACTORS
330
22
102
}
330
22
100
AcDbXrecord
280
     1
270
     1
271
     1
  0
XRECORD
  5
25
102
{ACAD_REACTORS
330
22
102
}
330
22
100
AcDbXrecord
280
     1
270
     1
271
     1
  0
XRECORD
  5
166
102
{ACAD_REACTORS
330
165
102
}
330
165
100
AcDbXrecord
280
     1
102
ACAD_ROUNDTRIP_2012_MLEADER_STYLE
298
     1
  0
XRECORD
  5
168
102
{ACAD_REACTORS
330
167
102
}
330
167
100
AcDbXrecord
280
     1
102
DISPLAYNAME
  1
Imperial24
102
FLAGS
 90
        0
  0
CELLSTYLEMAP
  5
133
102
{ACAD_REACTORS
330
132
102
}
330
132
100
AcDbCellStyleMap
 90
        3
300
CELLSTYLE
  1
TABLEFORMAT_BEGIN
 90
        5
170
     1
 91
        0
 92
    32768
 62
   257
 93
        1
300
CONTENTFORMAT
  1
CONTENTFORMAT_BEGIN
 90
        0
 91
        0
 92
      512
 93
        0
300

 40
0.0
140
1.0
 94
        5
 62
     0
340
55
144
0.25
309
CONTENTFORMAT_END
171
     0
 94
        0
309
TABLEFORMAT_END
  1
CELLSTYLE_BEGIN
 90
        1
 91
        1
300
_TITLE
309
CELLSTYLE_END
300
CELLSTYLE
  1
TABLEFORMAT_BEGIN
 90
        5
170
     1
 91
        0
 92
        0
 62
   257
 93
        1
300
CONTENTFORMAT
  1
CONTENTFORMAT_BEGIN
 90
        0
 91
        0
 92
      512
 93
        0
300

 40
0.0
140
1.0
 94
        5
 62
     0
340
55
144
0.18
309
CONTENTFORMAT_END
171
     0
 94
        0
309
TABLEFORMAT_END
  1
CELLSTYLE_BEGIN
 90
        2
 91
        1
300
_HEADER
309
CELLSTYLE_END
300
CELLSTYLE
  1
TABLEFORMAT_BEGIN
 90
        5
170
     1
 91
        0
 92
        0
 62
   257
 93
        1
300
CONTENTFORMAT
  1
CONTENTFORMAT_BEGIN
 90
        0
 91
        0
 92
      512
 93
        0
300

 40
0.0
140
1.0
 94
        2
 62
     0
340
55
144
0.18
309
CONTENTFORMAT_END
171
     0
 94
        0
309
TABLEFORMAT_END
  1
CELLSTYLE_BEGIN
 90
        3
 91
        2
300
_DATA
309
CELLSTYLE_END
  0
XRECORD
  5
140
102
{ACAD_REACTORS
330
13F
102
}
330
13F
100
AcDbXrecord
280
     1
102
RTVSPost2010Prop28
280
     1
102
RTVSPost2010PropOp28
 70
     1
102
RTVSPost2010Prop29
280
     1
102
RTVSPost2010PropOp29
 70
     1
102
RTVSPost2010Prop30
280
     0
102
RTVSPost2010PropOp30
 70
     1
102
RTVSPost2010Prop31
280
     0
102
RTVSPost2010PropOp31
 70
     1
102
RTVSPost2010Prop32
280
     0
102
RTVSPost2010PropOp32
 70
     1
102
RTVSPost2010Prop33
280
     0
102
RTVSPost2010PropOp33
 70
     1
102
RTVSPost2010Prop34
280
     0
102
RTVSPost2010PropOp34
 70
     1
102
RTVSPost2010Prop35
280
     0
102
RTVSPost2010PropOp35
 70
     1
102
RTVSPost2010Prop36
280
     0
102
RTVSPost2010PropOp36
 70
     1
102
RTVSPost2010Prop37
 90
       50
102
RTVSPost2010PropOp37
 70
     1
102
RTVSPost2010Prop38
140
0.0
102
RTVSPost2010PropOp38
 70
     1
102
RTVSPost2010Prop39
140
1.0
102
RTVSPost2010PropOp39
 70
     1
102
RTVSPost2010Prop40
 90
        0
102
RTVSPost2010PropOp40
 70
     1
102
RTVSPost2010Prop41ColorIndex
 90
       18
102
RTVSPost2010Prop41ColorRGB
 90
        0
102
RTVSPost2010PropOp41
 70
     1
102
RTVSPost2010Prop42
 90
       50
102
RTVSPost2010PropOp42
 70
     1
102
RTVSPost2010Prop43
 90
        3
102
RTVSPost2010PropOp43
 70
     1
102
RTVSPost2010Prop44ColorIndex
 90
        5
102
RTVSPost2010Prop44ColorRGB
 90
      255
102
RTVSPost2010PropOp44
 70
     1
102
RTVSPost2010Prop45
280
     0
102
RTVSPost2010PropOp45
 70
     1
102
RTVSPost2010Prop46
 90
       50
102
RTVSPost2010PropOp46
 70
     1
102
RTVSPost2010Prop47
 90
       50
102
RTVSPost2010PropOp47
 70
     1
102
RTVSPost2010Prop48
 90
       50
102
RTVSPost2010PropOp48
 70
     1
102
RTVSPost2010Prop49
280
     0
102
RTVSPost2010PropOp49
 70
     1
102
RTVSPost2010Prop50
 90
       50
102
RTVSPost2010PropOp50
 70
     1
102
RTVSPost2010Prop51ColorIndex
 90
      256
102
RTVSPost2010Prop51ColorRGB
 90
-16777216
102
RTVSPost2010PropOp51
 70
     0
102
RTVSPost2010Prop52
140
1.0
102
RTVSPost2010PropOp52
 70
     0
102
RTVSPost2010Prop53
 90
        2
102
RTVSPost2010PropOp53
 70
     1
102
RTVSPost2010Prop54
  1
strokes_ogs.tif
102
RTVSPost2010PropOp54
 70
     1
102
RTVSPost2010Prop55
280
     0
102
RTVSPost2010PropOp55
 70
     1
102
RTVSPost2010Prop56
140
1.0
102
RTVSPost2010PropOp56
 70
     1
102
RTVSPost2010Prop57
140
1.0
102
RTVSPost2010PropOp57
 70
     1
  0
XRECORD
  5
13E
102
{ACAD_REACTORS
330
13D
102
}
330
13D
100
AcDbXrecord
280
     1
102
RTVSPost2010Prop28
280
     0
102
RTVSPost2010PropOp28
 70
     1
102
RTVSPost2010Prop29
280
     1
102
RTVSPost2010PropOp29
 70
     1
102
RTVSPost2010Prop30
280
     1
102
RTVSPost2010PropOp30
 70
     1
102
RTVSPost2010Prop31
280
     0
102
RTVSPost2010PropOp31
 70
     1
102
RTVSPost2010Prop32
280
     0
102
RTVSPost2010PropOp32
 70
     1
102
RTVSPost2010Prop33
280
     0
102
RTVSPost2010PropOp33
 70
     1
102
RTVSPost2010Prop34
280
     0
102
RTVSPost2010PropOp34
 70
     1
102
RTVSPost2010Prop35
280
     0
102
RTVSPost2010PropOp35
 70
     1
102
RTVSPost2010Prop36
280
     0
102
RTVSPost2010PropOp36
 70
     1
102
RTVSPost2010Prop37
 90
       50
102
RTVSPost2010PropOp37
 70
     1
102
RTVSPost2010Prop38
140
0.0
102
RTVSPost2010PropOp38
 70
     1
102
RTVSPost2010Prop39
140
1.0
102
RTVSPost2010PropOp39
 70
     1
102
RTVSPost2010Prop40
 90
        0
102
RTVSPost2010PropOp40
 70
     1
102
RTVSPost2010Prop41ColorIndex
 90
       18
102
RTVSPost2010Prop41ColorRGB
 90
        0
102
RTVSPost2010PropOp41
 70
     1
102
RTVSPost2010Prop42
 90
       50
102
RTVSPost2010PropOp42
 70
     1
102
RTVSPost2010Prop43
 90
        3
102
RTVSPost2010PropOp43
 70
     1
102
RTVSPost2010Prop44ColorIndex
 90
        5
102
RTVSPost2010Prop44ColorRGB
 90
      255
102
RTVSPost2010PropOp44
 70
     1
102
RTVSPost2010Prop45
280
     0
102
RTVSPost2010PropOp45
 70
     1
102
RTVSPost2010Prop46
 90
       50
102
RTVSPost2010PropOp46
 70
     1
102
RTVSPost2010Prop47
 90
       50
102
RTVSPost2010PropOp47
 70
     1
102
RTVSPost2010Prop48
 90
       50
102
RTVSPost2010PropOp48
 70
     1
102
RTVSPost2010Prop49
280
     0
102
RTVSPost2010PropOp49
 70
     1
102
RTVSPost2010Prop50
 90
       50
102
RTVSPost2010PropOp50
 70
     1
102
RTVSPost2010Prop51ColorIndex
 90
      256
102
RTVSPost2010Prop51ColorRGB
 90
-16777216
102
RTVSPost2010PropOp51
 70
     0
102
RTVSPost2010Prop52
140
1.0
102
RTVSPost2010PropOp52
 70
     0
102
RTVSPost2010Prop53
 90
        2
102
RTVSPost2010PropOp53
 70
     1
102
RTVSPost2010Prop54
  1
strokes_ogs.tif
102
RTVSPost2010PropOp54
 70
     1
102
RTVSPost2010Prop55
280
     0
102
RTVSPost2010PropOp55
 70
     1
102
RTVSPost2010Prop56
140
1.0
102
RTVSPost2010PropOp56
 70
     1
102
RTVSPost2010Prop57
140
1.0
102
RTVSPost2010PropOp57
 70
     1
  0
XRECORD
  5
14C
102
{ACAD_REACTORS
330
14B
102
}
330
14B
100
AcDbXrecord
280
     1
102
RTVSPost2010Prop28
280
     0
102
RTVSPost2010PropOp28
 70
     1
102
RTVSPost2010Prop29
280
     1
102
RTVSPost2010PropOp29
 70
     1
102
RTVSPost2010Prop30
280
     1
102
RTVSPost2010PropOp30
 70
     1
102
RTVSPost2010Prop31
280
     0
102
RTVSPost2010PropOp31
 70
     1
102
RTVSPost2010Prop32
280
     0
102
RTVSPost2010PropOp32
 70
     1
102
RTVSPost2010Prop33
280
     0
102
RTVSPost2010PropOp33
 70
     1
102
RTVSPost2010Prop34
280
     0
102
RTVSPost2010PropOp34
 70
     1
102
RTVSPost2010Prop35
280
     0
102
RTVSPost2010PropOp35
 70
     1
102
RTVSPost2010Prop36
280
     0
102
RTVSPost2010PropOp36
 70
     1
102
RTVSPost2010Prop37
 90
       50
102
RTVSPost2010PropOp37
 70
     1
102
RTVSPost2010Prop38
140
0.0
102
RTVSPost2010PropOp38
 70
     1
102
RTVSPost2010Prop39
140
1.0
102
RTVSPost2010PropOp39
 70
     1
102
RTVSPost2010Prop40
 90
        0
102
RTVSPost2010PropOp40
 70
     1
102
RTVSPost2010Prop41ColorIndex
 90
       18
102
RTVSPost2010Prop41ColorRGB
 90
        0
102
RTVSPost2010PropOp41
 70
     1
102
RTVSPost2010Prop42
 90
       50
102
RTVSPost2010PropOp42
 70
     1
102
RTVSPost2010Prop43
 90
        3
102
RTVSPost2010PropOp43
 70
     1
102
RTVSPost2010Prop44ColorIndex
 90
        5
102
RTVSPost2010Prop44ColorRGB
 90
      255
102
RTVSPost2010PropOp44
 70
     1
102
RTVSPost2010Prop45
280
     0
102
RTVSPost2010PropOp45
 70
     1
102
RTVSPost2010Prop46
 90
       50
102
RTVSPost2010PropOp46
 70
     1
102
RTVSPost2010Prop47
 90
       50
102
RTVSPost2010PropOp47
 70
     1
102
RTVSPost2010Prop48
 90
       50
102
RTVSPost2010PropOp48
 70
     1
102
RTVSPost2010Prop49
280
     0
102
RTVSPost2010PropOp49
 70
     1
102
RTVSPost2010Prop50
 90
       50
102
RTVSPost2010PropOp50
 70
     1
102
RTVSPost2010Prop51ColorIndex
 90
      256
102
RTVSPost2010Prop51ColorRGB
 90
-16777216
102
RTVSPost2010PropOp51
 70
     0
102
RTVSPost2010Prop52
140
1.0
102
RTVSPost2010PropOp52
 70
     0
102
RTVSPost2010Prop53
 90
        2
102
RTVSPost2010PropOp53
 70
     1
102
RTVSPost2010Prop54
  1
strokes_ogs.tif
102
RTVSPost2010PropOp54
 70
     1
102
RTVSPost2010Prop55
280
     0
102
RTVSPost2010PropOp55
 70
     1
102
RTVSPost2010Prop56
140
1.0
102
RTVSPost2010PropOp56
 70
     1
102
RTVSPost2010Prop57
140
1.0
102
RTVSPost2010PropOp57
 70
     1
  0
XRECORD
  5
154
102
{ACAD_REACTORS
330
153
102
}
330
153
100
AcDbXrecord
280
     1
102
RTVSPost2010Prop28
280
     0
102
RTVSPost2010PropOp28
 70
     1
102
RTVSPost2010Prop29
280
     1
102
RTVSPost2010PropOp29
 70
     1
102
RTVSPost2010Prop30
280
     1
102
RTVSPost2010PropOp30
 70
     1
102
RTVSPost2010Prop31
280
     0
102
RTVSPost2010PropOp31
 70
     1
102
RTVSPost2010Prop32
280
     0
102
RTVSPost2010PropOp32
 70
     1
102
RTVSPost2010Prop33
280
     0
102
RTVSPost2010PropOp33
 70
     1
102
RTVSPost2010Prop34
280
     0
102
RTVSPost2010PropOp34
 70
     1
102
RTVSPost2010Prop35
280
     0
102
RTVSPost2010PropOp35
 70
     1
102
RTVSPost2010Prop36
280
     0
102
RTVSPost2010PropOp36
 70
     1
102
RTVSPost2010Prop37
 90
       50
102
RTVSPost2010PropOp37
 70
     1
102
RTVSPost2010Prop38
140
0.0
102
RTVSPost2010PropOp38
 70
     1
102
RTVSPost2010Prop39
140
1.0
102
RTVSPost2010PropOp39
 70
     1
102
RTVSPost2010Prop40
 90
        0
102
RTVSPost2010PropOp40
 70
     1
102
RTVSPost2010Prop41ColorIndex
 90
       18
102
RTVSPost2010Prop41ColorRGB
 90
        0
102
RTVSPost2010PropOp41
 70
     1
102
RTVSPost2010Prop42
 90
       50
102
RTVSPost2010PropOp42
 70
     1
102
RTVSPost2010Prop43
 90
        3
102
RTVSPost2010PropOp43
 70
     1
102
RTVSPost2010Prop44ColorIndex
 90
        5
102
RTVSPost2010Prop44ColorRGB
 90
      255
102
RTVSPost2010PropOp44
 70
     1
102
RTVSPost2010Prop45
280
     0
102
RTVSPost2010PropOp45
 70
     1
102
RTVSPost2010Prop46
 90
       50
102
RTVSPost2010PropOp46
 70
     1
102
RTVSPost2010Prop47
 90
       50
102
RTVSPost2010PropOp47
 70
     1
102
RTVSPost2010Prop48
 90
       50
102
RTVSPost2010PropOp48
 70
     1
102
RTVSPost2010Prop49
280
     0
102
RTVSPost2010PropOp49
 70
     1
102
RTVSPost2010Prop50
 90
       50
102
RTVSPost2010PropOp50
 70
     1
102
RTVSPost2010Prop51ColorIndex
 90
      256
102
RTVSPost2010Prop51ColorRGB
 90
-16777216
102
RTVSPost2010PropOp51
 70
     0
102
RTVSPost2010Prop52
140
1.0
102
RTVSPost2010PropOp52
 70
     0
102
RTVSPost2010Prop53
 90
        2
102
RTVSPost2010PropOp53
 70
     1
102
RTVSPost2010Prop54
  1
strokes_ogs.tif
102
RTVSPost2010PropOp54
 70
     1
102
RTVSPost2010Prop55
280
     0
102
RTVSPost2010PropOp55
 70
     1
102
RTVSPost2010Prop56
140
1.0
102
RTVSPost2010PropOp56
 70
     1
102
RTVSPost2010Prop57
140
1.0
102
RTVSPost2010PropOp57
 70
     1
  0
XRECORD
  5
146
102
{ACAD_REACTORS
330
145
102
}
330
145
100
AcDbXrecord
280
     1
102
RTVSPost2010Prop28
280
     0
102
RTVSPost2010PropOp28
 70
     1
102
RTVSPost2010Prop29
280
     1
102
RTVSPost2010PropOp29
 70
     1
102
RTVSPost2010Prop30
280
     1
102
RTVSPost2010PropOp30
 70
     1
102
RTVSPost2010Prop31
280
     0
102
RTVSPost2010PropOp31
 70
     1
102
RTVSPost2010Prop32
280
     0
102
RTVSPost2010PropOp32
 70
     1
102
RTVSPost2010Prop33
280
     0
102
RTVSPost2010PropOp33
 70
     1
102
RTVSPost2010Prop34
280
     0
102
RTVSPost2010PropOp34
 70
     1
102
RTVSPost2010Prop35
280
     0
102
RTVSPost2010PropOp35
 70
     1
102
RTVSPost2010Prop36
280
     0
102
RTVSPost2010PropOp36
 70
     1
102
RTVSPost2010Prop37
 90
       50
102
RTVSPost2010PropOp37
 70
     1
102
RTVSPost2010Prop38
140
0.0
102
RTVSPost2010PropOp38
 70
     1
102
RTVSPost2010Prop39
140
1.0
102
RTVSPost2010PropOp39
 70
     1
102
RTVSPost2010Prop40
 90
        0
102
RTVSPost2010PropOp40
 70
     1
102
RTVSPost2010Prop41ColorIndex
 90
       18
102
RTVSPost2010Prop41ColorRGB
 90
        0
102
RTVSPost2010PropOp41
 70
     1
102
RTVSPost2010Prop42
 90
       50
102
RTVSPost2010PropOp42
 70
     1
102
RTVSPost2010Prop43
 90
        3
102
RTVSPost2010PropOp43
 70
     1
102
RTVSPost2010Prop44ColorIndex
 90
        5
102
RTVSPost2010Prop44ColorRGB
 90
      255
102
RTVSPost2010PropOp44
 70
     1
102
RTVSPost2010Prop45
280
     0
102
RTVSPost2010PropOp45
 70
     1
102
RTVSPost2010Prop46
 90
       50
102
RTVSPost2010PropOp46
 70
     1
102
RTVSPost2010Prop47
 90
       50
102
RTVSPost2010PropOp47
 70
     1
102
RTVSPost2010Prop48
 90
       50
102
RTVSPost2010PropOp48
 70
     1
102
RTVSPost2010Prop49
280
     0
102
RTVSPost2010PropOp49
 70
     1
102
RTVSPost2010Prop50
 90
       50
102
RTVSPost2010PropOp50
 70
     1
102
RTVSPost2010Prop51ColorIndex
 90
      256
102
RTVSPost2010Prop51ColorRGB
 90
-16777216
102
RTVSPost2010PropOp51
 70
     0
102
RTVSPost2010Prop52
140
1.0
102
RTVSPost2010PropOp52
 70
     0
102
RTVSPost2010Prop53
 90
        2
102
RTVSPost2010PropOp53
 70
     1
102
RTVSPost2010Prop54
  1
strokes_ogs.tif
102
RTVSPost2010PropOp54
 70
     1
102
RTVSPost2010Prop55
280
     0
102
RTVSPost2010PropOp55
 70
     1
102
RTVSPost2010Prop56
140
1.0
102
RTVSPost2010PropOp56
 70
     1
102
RTVSPost2010Prop57
140
1.0
102
RTVSPost2010PropOp57
 70
     1
  0
XRECORD
  5
14A
102
{ACAD_REACTORS
330
149
102
}
330
149
100
AcDbXrecord
280
     1
102
RTVSPost2010Prop28
280
     0
102
RTVSPost2010PropOp28
 70
     1
102
RTVSPost2010Prop29
280
     1
102
RTVSPost2010PropOp29
 70
     1
102
RTVSPost2010Prop30
280
     1
102
RTVSPost2010PropOp30
 70
     1
102
RTVSPost2010Prop31
280
     0
102
RTVSPost2010PropOp31
 70
     1
102
RTVSPost2010Prop32
280
     0
102
RTVSPost2010PropOp32
 70
     1
102
RTVSPost2010Prop33
280
     0
102
RTVSPost2010PropOp33
 70
     1
102
RTVSPost2010Prop34
280
     0
102
RTVSPost2010PropOp34
 70
     1
102
RTVSPost2010Prop35
280
     0
102
RTVSPost2010PropOp35
 70
     1
102
RTVSPost2010Prop36
280
     0
102
RTVSPost2010PropOp36
 70
     1
102
RTVSPost2010Prop37
 90
       50
102
RTVSPost2010PropOp37
 70
     1
102
RTVSPost2010Prop38
140
0.0
102
RTVSPost2010PropOp38
 70
     1
102
RTVSPost2010Prop39
140
1.0
102
RTVSPost2010PropOp39
 70
     1
102
RTVSPost2010Prop40
 90
        0
102
RTVSPost2010PropOp40
 70
     1
102
RTVSPost2010Prop41ColorIndex
 90
       18
102
RTVSPost2010Prop41ColorRGB
 90
        0
102
RTVSPost2010PropOp41
 70
     1
102
RTVSPost2010Prop42
 90
       50
102
RTVSPost2010PropOp42
 70
     1
102
RTVSPost2010Prop43
 90
        3
102
RTVSPost2010PropOp43
 70
     1
102
RTVSPost2010Prop44ColorIndex
 90
        5
102
RTVSPost2010Prop44ColorRGB
 90
      255
102
RTVSPost2010PropOp44
 70
     1
102
RTVSPost2010Prop45
280
     0
102
RTVSPost2010PropOp45
 70
     1
102
RTVSPost2010Prop46
 90
       50
102
RTVSPost2010PropOp46
 70
     1
102
RTVSPost2010Prop47
 90
       50
102
RTVSPost2010PropOp47
 70
     1
102
RTVSPost2010Prop48
 90
       50
102
RTVSPost2010PropOp48
 70
     1
102
RTVSPost2010Prop49
280
     0
102
RTVSPost2010PropOp49
 70
     1
102
RTVSPost2010Prop50
 90
       50
102
RTVSPost2010PropOp50
 70
     1
102
RTVSPost2010Prop51ColorIndex
 90
      256
102
RTVSPost2010Prop51ColorRGB
 90
-16777216
102
RTVSPost2010PropOp51
 70
     0
102
RTVSPost2010Prop52
140
1.0
102
RTVSPost2010PropOp52
 70
     0
102
RTVSPost2010Prop53
 90
        2
102
RTVSPost2010PropOp53
 70
     1
102
RTVSPost2010Prop54
  1
strokes_ogs.tif
102
RTVSPost2010PropOp54
 70
     1
102
RTVSPost2010Prop55
280
     0
102
RTVSPost2010PropOp55
 70
     1
102
RTVSPost2010Prop56
140
1.0
102
RTVSPost2010PropOp56
 70
     1
102
RTVSPost2010Prop57
140
1.0
102
RTVSPost2010PropOp57
 70
     1
  0
XRECORD
  5
164
102
{ACAD_REACTORS
330
163
102
}
330
163
100
AcDbXrecord
280
     1
102
RTVSPost2010Prop28
280
     0
102
RTVSPost2010PropOp28
 70
     0
102
RTVSPost2010Prop29
280
     1
102
RTVSPost2010PropOp29
 70
     0
102
RTVSPost2010Prop30
280
     1
102
RTVSPost2010PropOp30
 70
     0
102
RTVSPost2010Prop31
280
     0
102
RTVSPost2010PropOp31
 70
     0
102
RTVSPost2010Prop32
280
     0
102
RTVSPost2010PropOp32
 70
     0
102
RTVSPost2010Prop33
280
     0
102
RTVSPost2010PropOp33
 70
     0
102
RTVSPost2010Prop34
280
     0
102
RTVSPost2010PropOp34
 70
     0
102
RTVSPost2010Prop35
280
     0
102
RTVSPost2010PropOp35
 70
     0
102
RTVSPost2010Prop36
280
     0
102
RTVSPost2010PropOp36
 70
     0
102
RTVSPost2010Prop37
 90
       50
102
RTVSPost2010PropOp37
 70
     0
102
RTVSPost2010Prop38
140
0.0
102
RTVSPost2010PropOp38
 70
     0
102
RTVSPost2010Prop39
140
1.0
102
RTVSPost2010PropOp39
 70
     0
102
RTVSPost2010Prop40
 90
        0
102
RTVSPost2010PropOp40
 70
     0
102
RTVSPost2010Prop41ColorIndex
 90
       18
102
RTVSPost2010Prop41ColorRGB
 90
        0
102
RTVSPost2010PropOp41
 70
     0
102
RTVSPost2010Prop42
 90
       50
102
RTVSPost2010PropOp42
 70
     0
102
RTVSPost2010Prop43
 90
        3
102
RTVSPost2010PropOp43
 70
     0
102
RTVSPost2010Prop44ColorIndex
 90
        5
102
RTVSPost2010Prop44ColorRGB
 90
      255
102
RTVSPost2010PropOp44
 70
     0
102
RTVSPost2010Prop45
280
     0
102
RTVSPost2010PropOp45
 70
     0
102
RTVSPost2010Prop46
 90
       50
102
RTVSPost2010PropOp46
 70
     0
102
RTVSPost2010Prop47
 90
       50
102
RTVSPost2010PropOp47
 70
     0
102
RTVSPost2010Prop48
 90
       50
102
RTVSPost2010PropOp48
 70
     0
102
RTVSPost2010Prop49
280
     0
102
RTVSPost2010PropOp49
 70
     0
102
RTVSPost2010Prop50
 90
       50
102
RTVSPost2010PropOp50
 70
     0
102
RTVSPost2010Prop51ColorIndex
 90
      256
102
RTVSPost2010Prop51ColorRGB
 90
-16777216
102
RTVSPost2010PropOp51
 70
     0
102
RTVSPost2010Prop52
140
1.0
102
RTVSPost2010PropOp52
 70
     0
102
RTVSPost2010Prop53
 90
        2
102
RTVSPost2010PropOp53
 70
     0
102
RTVSPost2010Prop54
  1
strokes_ogs.tif
102
RTVSPost2010PropOp54
 70
     0
102
RTVSPost2010Prop55
280
     0
102
RTVSPost2010PropOp55
 70
     0
102
RTVSPost2010Prop56
140
1.0
102
RTVSPost2010PropOp56
 70
     0
102
RTVSPost2010Prop57
140
1.0
102
RTVSPost2010PropOp57
 70
     0
  0
XRECORD
  5
152
102
{ACAD_REACTORS
330
151
102
}
330
151
100
AcDbXrecord
280
     1
102
RTVSPost2010Prop28
280
     0
102
RTVSPost2010PropOp28
 70
     1
102
RTVSPost2010Prop29
280
     1
102
RTVSPost2010PropOp29
 70
     1
102
RTVSPost2010Prop30
280
     1
102
RTVSPost2010PropOp30
 70
     1
102
RTVSPost2010Prop31
280
     0
102
RTVSPost2010PropOp31
 70
     1
102
RTVSPost2010Prop32
280
     0
102
RTVSPost2010PropOp32
 70
     1
102
RTVSPost2010Prop33
280
     0
102
RTVSPost2010PropOp33
 70
     1
102
RTVSPost2010Prop34
280
     0
102
RTVSPost2010PropOp34
 70
     1
102
RTVSPost2010Prop35
280
     0
102
RTVSPost2010PropOp35
 70
     1
102
RTVSPost2010Prop36
280
     0
102
RTVSPost2010PropOp36
 70
     1
102
RTVSPost2010Prop37
 90
       50
102
RTVSPost2010PropOp37
 70
     1
102
RTVSPost2010Prop38
140
0.0
102
RTVSPost2010PropOp38
 70
     1
102
RTVSPost2010Prop39
140
1.0
102
RTVSPost2010PropOp39
 70
     1
102
RTVSPost2010Prop40
 90
        0
102
RTVSPost2010PropOp40
 70
     1
102
RTVSPost2010Prop41ColorIndex
 90
       18
102
RTVSPost2010Prop41ColorRGB
 90
        0
102
RTVSPost2010PropOp41
 70
     1
102
RTVSPost2010Prop42
 90
       50
102
RTVSPost2010PropOp42
 70
     1
102
RTVSPost2010Prop43
 90
        3
102
RTVSPost2010PropOp43
 70
     1
102
RTVSPost2010Prop44ColorIndex
 90
        5
102
RTVSPost2010Prop44ColorRGB
 90
      255
102
RTVSPost2010PropOp44
 70
     1
102
RTVSPost2010Prop45
280
     0
102
RTVSPost2010PropOp45
 70
     1
102
RTVSPost2010Prop46
 90
       50
102
RTVSPost2010PropOp46
 70
     1
102
RTVSPost2010Prop47
 90
       50
102
RTVSPost2010PropOp47
 70
     1
102
RTVSPost2010Prop48
 90
       50
102
RTVSPost2010PropOp48
 70
     1
102
RTVSPost2010Prop49
280
     0
102
RTVSPost2010PropOp49
 70
     1
102
RTVSPost2010Prop50
 90
       50
102
RTVSPost2010PropOp50
 70
     1
102
RTVSPost2010Prop51ColorIndex
 90
      256
102
RTVSPost2010Prop51ColorRGB
 90
-16777216
102
RTVSPost2010PropOp51
 70
     0
102
RTVSPost2010Prop52
140
1.0
102
RTVSPost2010PropOp52
 70
     0
102
RTVSPost2010Prop53
 90
        2
102
RTVSPost2010PropOp53
 70
     1
102
RTVSPost2010Prop54
  1
strokes_ogs.tif
102
RTVSPost2010PropOp54
 70
     1
102
RTVSPost2010Prop55
280
     0
102
RTVSPost2010PropOp55
 70
     1
102
RTVSPost2010Prop56
140
1.0
102
RTVSPost2010PropOp56
 70
     1
102
RTVSPost2010Prop57
140
1.0
102
RTVSPost2010PropOp57
 70
     1
  0
XRECORD
  5
136
102
{ACAD_REACTORS
330
135
102
}
330
135
100
AcDbXrecord
280
     1
102
RTVSPost2010Prop28
280
     0
102
RTVSPost2010PropOp28
 70
     1
102
RTVSPost2010Prop29
280
     1
102
RTVSPost2010PropOp29
 70
     1
102
RTVSPost2010Prop30
280
     1
102
RTVSPost2010PropOp30
 70
     1
102
RTVSPost2010Prop31
280
     0
102
RTVSPost2010PropOp31
 70
     1
102
RTVSPost2010Prop32
280
     0
102
RTVSPost2010PropOp32
 70
     1
102
RTVSPost2010Prop33
280
     0
102
RTVSPost2010PropOp33
 70
     1
102
RTVSPost2010Prop34
280
     0
102
RTVSPost2010PropOp34
 70
     1
102
RTVSPost2010Prop35
280
     0
102
RTVSPost2010PropOp35
 70
     1
102
RTVSPost2010Prop36
280
     0
102
RTVSPost2010PropOp36
 70
     1
102
RTVSPost2010Prop37
 90
       50
102
RTVSPost2010PropOp37
 70
     1
102
RTVSPost2010Prop38
140
0.0
102
RTVSPost2010PropOp38
 70
     1
102
RTVSPost2010Prop39
140
1.0
102
RTVSPost2010PropOp39
 70
     1
102
RTVSPost2010Prop40
 90
        0
102
RTVSPost2010PropOp40
 70
     1
102
RTVSPost2010Prop41ColorIndex
 90
       18
102
RTVSPost2010Prop41ColorRGB
 90
        0
102
RTVSPost2010PropOp41
 70
     1
102
RTVSPost2010Prop42
 90
       50
102
RTVSPost2010PropOp42
 70
     1
102
RTVSPost2010Prop43
 90
        3
102
RTVSPost2010PropOp43
 70
     1
102
RTVSPost2010Prop44ColorIndex
 90
        5
102
RTVSPost2010Prop44ColorRGB
 90
      255
102
RTVSPost2010PropOp44
 70
     1
102
RTVSPost2010Prop45
280
     0
102
RTVSPost2010PropOp45
 70
     1
102
RTVSPost2010Prop46
 90
       50
102
RTVSPost2010PropOp46
 70
     1
102
RTVSPost2010Prop47
 90
       50
102
RTVSPost2010PropOp47
 70
     1
102
RTVSPost2010Prop48
 90
       50
102
RTVSPost2010PropOp48
 70
     1
102
RTVSPost2010Prop49
280
     0
102
RTVSPost2010PropOp49
 70
     1
102
RTVSPost2010Prop50
 90
       50
102
RTVSPost2010PropOp50
 70
     1
102
RTVSPost2010Prop51ColorIndex
 90
      256
102
RTVSPost2010Prop51ColorRGB
 90
-16777216
102
RTVSPost2010PropOp51
 70
     0
102
RTVSPost2010Prop52
140
1.0
102
RTVSPost2010PropOp52
 70
     0
102
RTVSPost2010Prop53
 90
        2
102
RTVSPost2010PropOp53
 70
     1
102
RTVSPost2010Prop54
  1
strokes_ogs.tif
102
RTVSPost2010PropOp54
 70
     1
102
RTVSPost2010Prop55
280
     0
102
RTVSPost2010PropOp55
 70
     1
102
RTVSPost2010Prop56
140
1.0
102
RTVSPost2010PropOp56
 70
     1
102
RTVSPost2010Prop57
140
1.0
102
RTVSPost2010PropOp57
 70
     1
  0
XRECORD
  5
138
102
{ACAD_REACTORS
330
137
102
}
330
137
100
AcDbXrecord
280
     1
102
RTVSPost2010Prop28
280
     0
102
RTVSPost2010PropOp28
 70
     1
102
RTVSPost2010Prop29
280
     1
102
RTVSPost2010PropOp29
 70
     1
102
RTVSPost2010Prop30
280
     1
102
RTVSPost2010PropOp30
 70
     1
102
RTVSPost2010Prop31
280
     0
102
RTVSPost2010PropOp31
 70
     1
102
RTVSPost2010Prop32
280
     0
102
RTVSPost2010PropOp32
 70
     1
102
RTVSPost2010Prop33
280
     0
102
RTVSPost2010PropOp33
 70
     1
102
RTVSPost2010Prop34
280
     0
102
RTVSPost2010PropOp34
 70
     1
102
RTVSPost2010Prop35
280
     0
102
RTVSPost2010PropOp35
 70
     1
102
RTVSPost2010Prop36
280
     0
102
RTVSPost2010PropOp36
 70
     1
102
RTVSPost2010Prop37
 90
       50
102
RTVSPost2010PropOp37
 70
     1
102
RTVSPost2010Prop38
140
0.0
102
RTVSPost2010PropOp38
 70
     1
102
RTVSPost2010Prop39
140
1.0
102
RTVSPost2010PropOp39
 70
     1
102
RTVSPost2010Prop40
 90
        0
102
RTVSPost2010PropOp40
 70
     1
102
RTVSPost2010Prop41ColorIndex
 90
       18
102
RTVSPost2010Prop41ColorRGB
 90
        0
102
RTVSPost2010PropOp41
 70
     1
102
RTVSPost2010Prop42
 90
       50
102
RTVSPost2010PropOp42
 70
     1
102
RTVSPost2010Prop43
 90
        3
102
RTVSPost2010PropOp43
 70
     1
102
RTVSPost2010Prop44ColorIndex
 90
        5
102
RTVSPost2010Prop44ColorRGB
 90
      255
102
RTVSPost2010PropOp44
 70
     1
102
RTVSPost2010Prop45
280
     0
102
RTVSPost2010PropOp45
 70
     1
102
RTVSPost2010Prop46
 90
       50
102
RTVSPost2010PropOp46
 70
     1
102
RTVSPost2010Prop47
 90
       50
102
RTVSPost2010PropOp47
 70
     1
102
RTVSPost2010Prop48
 90
       50
102
RTVSPost2010PropOp48
 70
     1
102
RTVSPost2010Prop49
280
     0
102
RTVSPost2010PropOp49
 70
     1
102
RTVSPost2010Prop50
 90
       50
102
RTVSPost2010PropOp50
 70
     1
102
RTVSPost2010Prop51ColorIndex
 90
      256
102
RTVSPost2010Prop51ColorRGB
 90
-16777216
102
RTVSPost2010PropOp51
 70
     0
102
RTVSPost2010Prop52
140
1.0
102
RTVSPost2010PropOp52
 70
     0
102
RTVSPost2010Prop53
 90
        2
102
RTVSPost2010PropOp53
 70
     1
102
RTVSPost2010Prop54
  1
strokes_ogs.tif
102
RTVSPost2010PropOp54
 70
     1
102
RTVSPost2010Prop55
280
     0
102
RTVSPost2010PropOp55
 70
     1
102
RTVSPost2010Prop56
140
1.0
102
RTVSPost2010PropOp56
 70
     1
102
RTVSPost2010Prop57
140
1.0
102
RTVSPost2010PropOp57
 70
     1
  0
XRECORD
  5
13A
102
{ACAD_REACTORS
330
139
102
}
330
139
100
AcDbXrecord
280
     1
102
RTVSPost2010Prop28
280
     0
102
RTVSPost2010PropOp28
 70
     1
102
RTVSPost2010Prop29
280
     1
102
RTVSPost2010PropOp29
 70
     1
102
RTVSPost2010Prop30
280
     1
102
RTVSPost2010PropOp30
 70
     1
102
RTVSPost2010Prop31
280
     0
102
RTVSPost2010PropOp31
 70
     1
102
RTVSPost2010Prop32
280
     0
102
RTVSPost2010PropOp32
 70
     1
102
RTVSPost2010Prop33
280
     0
102
RTVSPost2010PropOp33
 70
     1
102
RTVSPost2010Prop34
280
     0
102
RTVSPost2010PropOp34
 70
     1
102
RTVSPost2010Prop35
280
     0
102
RTVSPost2010PropOp35
 70
     1
102
RTVSPost2010Prop36
280
     0
102
RTVSPost2010PropOp36
 70
     1
102
RTVSPost2010Prop37
 90
       50
102
RTVSPost2010PropOp37
 70
     1
102
RTVSPost2010Prop38
140
0.0
102
RTVSPost2010PropOp38
 70
     1
102
RTVSPost2010Prop39
140
1.0
102
RTVSPost2010PropOp39
 70
     1
102
RTVSPost2010Prop40
 90
        0
102
RTVSPost2010PropOp40
 70
     1
102
RTVSPost2010Prop41ColorIndex
 90
       18
102
RTVSPost2010Prop41ColorRGB
 90
        0
102
RTVSPost2010PropOp41
 70
     1
102
RTVSPost2010Prop42
 90
       50
102
RTVSPost2010PropOp42
 70
     1
102
RTVSPost2010Prop43
 90
        3
102
RTVSPost2010PropOp43
 70
     1
102
RTVSPost2010Prop44ColorIndex
 90
        5
102
RTVSPost2010Prop44ColorRGB
 90
      255
102
RTVSPost2010PropOp44
 70
     1
102
RTVSPost2010Prop45
280
     0
102
RTVSPost2010PropOp45
 70
     1
102
RTVSPost2010Prop46
 90
       50
102
RTVSPost2010PropOp46
 70
     1
102
RTVSPost2010Prop47
 90
       50
102
RTVSPost2010PropOp47
 70
     1
102
RTVSPost2010Prop48
 90
       50
102
RTVSPost2010PropOp48
 70
     1
102
RTVSPost2010Prop49
280
     0
102
RTVSPost2010PropOp49
 70
     1
102
RTVSPost2010Prop50
 90
       50
102
RTVSPost2010PropOp50
 70
     1
102
RTVSPost2010Prop51ColorIndex
 90
      256
102
RTVSPost2010Prop51ColorRGB
 90
-16777216
102
RTVSPost2010PropOp51
 70
     0
102
RTVSPost2010Prop52
140
1.0
102
RTVSPost2010PropOp52
 70
     0
102
RTVSPost2010Prop53
 90
        2
102
RTVSPost2010PropOp53
 70
     1
102
RTVSPost2010Prop54
  1
strokes_ogs.tif
102
RTVSPost2010PropOp54
 70
     1
102
RTVSPost2010Prop55
280
     0
102
RTVSPost2010PropOp55
 70
     1
102
RTVSPost2010Prop56
140
1.0
102
RTVSPost2010PropOp56
 70
     1
102
RTVSPost2010Prop57
140
1.0
102
RTVSPost2010PropOp57
 70
     1
  0
XRECORD
  5
13C
102
{ACAD_REACTORS
330
13B
102
}
330
13B
100
AcDbXrecord
280
     1
102
RTVSPost2010Prop28
280
     0
102
RTVSPost2010PropOp28
 70
     1
102
RTVSPost2010Prop29
280
     1
102
RTVSPost2010PropOp29
 70
     1
102
RTVSPost2010Prop30
280
     1
102
RTVSPost2010PropOp30
 70
     1
102
RTVSPost2010Prop31
280
     0
102
RTVSPost2010PropOp31
 70
     1
102
RTVSPost2010Prop32
280
     0
102
RTVSPost2010PropOp32
 70
     1
102
RTVSPost2010Prop33
280
     0
102
RTVSPost2010PropOp33
 70
     1
102
RTVSPost2010Prop34
280
     0
102
RTVSPost2010PropOp34
 70
     1
102
RTVSPost2010Prop35
280
     0
102
RTVSPost2010PropOp35
 70
     1
102
RTVSPost2010Prop36
280
     0
102
RTVSPost2010PropOp36
 70
     1
102
RTVSPost2010Prop37
 90
       50
102
RTVSPost2010PropOp37
 70
     1
102
RTVSPost2010Prop38
140
0.0
102
RTVSPost2010PropOp38
 70
     1
102
RTVSPost2010Prop39
140
1.0
102
RTVSPost2010PropOp39
 70
     1
102
RTVSPost2010Prop40
 90
        0
102
RTVSPost2010PropOp40
 70
     1
102
RTVSPost2010Prop41ColorIndex
 90
       18
102
RTVSPost2010Prop41ColorRGB
 90
        0
102
RTVSPost2010PropOp41
 70
     1
102
RTVSPost2010Prop42
 90
       50
102
RTVSPost2010PropOp42
 70
     1
102
RTVSPost2010Prop43
 90
        3
102
RTVSPost2010PropOp43
 70
     1
102
RTVSPost2010Prop44ColorIndex
 90
        5
102
RTVSPost2010Prop44ColorRGB
 90
      255
102
RTVSPost2010PropOp44
 70
     1
102
RTVSPost2010Prop45
280
     0
102
RTVSPost2010PropOp45
 70
     1
102
RTVSPost2010Prop46
 90
       50
102
RTVSPost2010PropOp46
 70
     1
102
RTVSPost2010Prop47
 90
       50
102
RTVSPost2010PropOp47
 70
     1
102
RTVSPost2010Prop48
 90
       50
102
RTVSPost2010PropOp48
 70
     1
102
RTVSPost2010Prop49
280
     0
102
RTVSPost2010PropOp49
 70
     1
102
RTVSPost2010Prop50
 90
       50
102
RTVSPost2010PropOp50
 70
     1
102
RTVSPost2010Prop51ColorIndex
 90
      256
102
RTVSPost2010Prop51ColorRGB
 90
-16777216
102
RTVSPost2010PropOp51
 70
     0
102
RTVSPost2010Prop52
140
1.0
102
RTVSPost2010PropOp52
 70
     0
102
RTVSPost2010Prop53
 90
        2
102
RTVSPost2010PropOp53
 70
     1
102
RTVSPost2010Prop54
  1
strokes_ogs.tif
102
RTVSPost2010PropOp54
 70
     1
102
RTVSPost2010Prop55
280
     0
102
RTVSPost2010PropOp55
 70
     1
102
RTVSPost2010Prop56
140
1.0
102
RTVSPost2010PropOp56
 70
     1
102
RTVSPost2010Prop57
140
1.0
102
RTVSPost2010PropOp57
 70
     1
  0
XRECORD
  5
144
102
{ACAD_REACTORS
330
143
102
}
330
143
100
AcDbXrecord
280
     1
102
RTVSPost2010Prop28
280
     0
102
RTVSPost2010PropOp28
 70
     1
102
RTVSPost2010Prop29
280
     1
102
RTVSPost2010PropOp29
 70
     1
102
RTVSPost2010Prop30
280
     1
102
RTVSPost2010PropOp30
 70
     1
102
RTVSPost2010Prop31
280
     0
102
RTVSPost2010PropOp31
 70
     1
102
RTVSPost2010Prop32
280
     0
102
RTVSPost2010PropOp32
 70
     1
102
RTVSPost2010Prop33
280
     0
102
RTVSPost2010PropOp33
 70
     1
102
RTVSPost2010Prop34
280
     0
102
RTVSPost2010PropOp34
 70
     1
102
RTVSPost2010Prop35
280
     0
102
RTVSPost2010PropOp35
 70
     1
102
RTVSPost2010Prop36
280
     0
102
RTVSPost2010PropOp36
 70
     1
102
RTVSPost2010Prop37
 90
       50
102
RTVSPost2010PropOp37
 70
     1
102
RTVSPost2010Prop38
140
0.0
102
RTVSPost2010PropOp38
 70
     1
102
RTVSPost2010Prop39
140
1.0
102
RTVSPost2010PropOp39
 70
     1
102
RTVSPost2010Prop40
 90
        0
102
RTVSPost2010PropOp40
 70
     1
102
RTVSPost2010Prop41ColorIndex
 90
       18
102
RTVSPost2010Prop41ColorRGB
 90
        0
102
RTVSPost2010PropOp41
 70
     1
102
RTVSPost2010Prop42
 90
       50
102
RTVSPost2010PropOp42
 70
     1
102
RTVSPost2010Prop43
 90
        3
102
RTVSPost2010PropOp43
 70
     1
102
RTVSPost2010Prop44ColorIndex
 90
        5
102
RTVSPost2010Prop44ColorRGB
 90
      255
102
RTVSPost2010PropOp44
 70
     1
102
RTVSPost2010Prop45
280
     0
102
RTVSPost2010PropOp45
 70
     1
102
RTVSPost2010Prop46
 90
       50
102
RTVSPost2010PropOp46
 70
     1
102
RTVSPost2010Prop47
 90
       50
102
RTVSPost2010PropOp47
 70
     1
102
RTVSPost2010Prop48
 90
       50
102
RTVSPost2010PropOp48
 70
     1
102
RTVSPost2010Prop49
280
     0
102
RTVSPost2010PropOp49
 70
     1
102
RTVSPost2010Prop50
 90
       50
102
RTVSPost2010PropOp50
 70
     1
102
RTVSPost2010Prop51ColorIndex
 90
      256
102
RTVSPost2010Prop51ColorRGB
 90
-16777216
102
RTVSPost2010PropOp51
 70
     0
102
RTVSPost2010Prop52
140
1.0
102
RTVSPost2010PropOp52
 70
     0
102
RTVSPost2010Prop53
 90
        2
102
RTVSPost2010PropOp53
 70
     1
102
RTVSPost2010Prop54
  1
strokes_ogs.tif
102
RTVSPost2010PropOp54
 70
     1
102
RTVSPost2010Prop55
280
     0
102
RTVSPost2010PropOp55
 70
     1
102
RTVSPost2010Prop56
140
1.0
102
RTVSPost2010PropOp56
 70
     1
102
RTVSPost2010Prop57
140
1.0
102
RTVSPost2010PropOp57
 70
     1
  0
XRECORD
  5
160
102
{ACAD_REACTORS
330
15F
102
}
330
15F
100
AcDbXrecord
280
     1
102
RTVSPost2010Prop28
280
     0
102
RTVSPost2010PropOp28
 70
     0
102
RTVSPost2010Prop29
280
     1
102
RTVSPost2010PropOp29
 70
     0
102
RTVSPost2010Prop30
280
     1
102
RTVSPost2010PropOp30
 70
     0
102
RTVSPost2010Prop31
280
     0
102
RTVSPost2010PropOp31
 70
     0
102
RTVSPost2010Prop32
280
     0
102
RTVSPost2010PropOp32
 70
     0
102
RTVSPost2010Prop33
280
     0
102
RTVSPost2010PropOp33
 70
     0
102
RTVSPost2010Prop34
280
     0
102
RTVSPost2010PropOp34
 70
     0
102
RTVSPost2010Prop35
280
     0
102
RTVSPost2010PropOp35
 70
     0
102
RTVSPost2010Prop36
280
     0
102
RTVSPost2010PropOp36
 70
     0
102
RTVSPost2010Prop37
 90
       50
102
RTVSPost2010PropOp37
 70
     0
102
RTVSPost2010Prop38
140
0.0
102
RTVSPost2010PropOp38
 70
     0
102
RTVSPost2010Prop39
140
1.0
102
RTVSPost2010PropOp39
 70
     0
102
RTVSPost2010Prop40
 90
        0
102
RTVSPost2010PropOp40
 70
     0
102
RTVSPost2010Prop41ColorIndex
 90
       18
102
RTVSPost2010Prop41ColorRGB
 90
        0
102
RTVSPost2010PropOp41
 70
     0
102
RTVSPost2010Prop42
 90
       50
102
RTVSPost2010PropOp42
 70
     0
102
RTVSPost2010Prop43
 90
        3
102
RTVSPost2010PropOp43
 70
     0
102
RTVSPost2010Prop44ColorIndex
 90
        5
102
RTVSPost2010Prop44ColorRGB
 90
      255
102
RTVSPost2010PropOp44
 70
     0
102
RTVSPost2010Prop45
280
     0
102
RTVSPost2010PropOp45
 70
     0
102
RTVSPost2010Prop46
 90
       50
102
RTVSPost2010PropOp46
 70
     0
102
RTVSPost2010Prop47
 90
       50
102
RTVSPost2010PropOp47
 70
     0
102
RTVSPost2010Prop48
 90
       50
102
RTVSPost2010PropOp48
 70
     0
102
RTVSPost2010Prop49
280
     0
102
RTVSPost2010PropOp49
 70
     0
102
RTVSPost2010Prop50
 90
       50
102
RTVSPost2010PropOp50
 70
     0
102
RTVSPost2010Prop51ColorIndex
 90
      256
102
RTVSPost2010Prop51ColorRGB
 90
-16777216
102
RTVSPost2010PropOp51
 70
     0
102
RTVSPost2010Prop52
140
1.0
102
RTVSPost2010PropOp52
 70
     0
102
RTVSPost2010Prop53
 90
        2
102
RTVSPost2010PropOp53
 70
     0
102
RTVSPost2010Prop54
  1
strokes_ogs.tif
102
RTVSPost2010PropOp54
 70
     0
102
RTVSPost2010Prop55
280
     0
102
RTVSPost2010PropOp55
 70
     0
102
RTVSPost2010Prop56
140
1.0
102
RTVSPost2010PropOp56
 70
     0
102
RTVSPost2010Prop57
140
1.0
102
RTVSPost2010PropOp57
 70
     0
  0
XRECORD
  5
150
102
{ACAD_REACTORS
330
14F
102
}
330
14F
100
AcDbXrecord
280
     1
102
RTVSPost2010Prop28
280
     0
102
RTVSPost2010PropOp28
 70
     1
102
RTVSPost2010Prop29
280
     1
102
RTVSPost2010PropOp29
 70
     1
102
RTVSPost2010Prop30
280
     1
102
RTVSPost2010PropOp30
 70
     1
102
RTVSPost2010Prop31
280
     0
102
RTVSPost2010PropOp31
 70
     1
102
RTVSPost2010Prop32
280
     0
102
RTVSPost2010PropOp32
 70
     1
102
RTVSPost2010Prop33
280
     0
102
RTVSPost2010PropOp33
 70
     1
102
RTVSPost2010Prop34
280
     0
102
RTVSPost2010PropOp34
 70
     1
102
RTVSPost2010Prop35
280
     0
102
RTVSPost2010PropOp35
 70
     1
102
RTVSPost2010Prop36
280
     0
102
RTVSPost2010PropOp36
 70
     1
102
RTVSPost2010Prop37
 90
       50
102
RTVSPost2010PropOp37
 70
     1
102
RTVSPost2010Prop38
140
0.0
102
RTVSPost2010PropOp38
 70
     1
102
RTVSPost2010Prop39
140
1.0
102
RTVSPost2010PropOp39
 70
     1
102
RTVSPost2010Prop40
 90
        0
102
RTVSPost2010PropOp40
 70
     1
102
RTVSPost2010Prop41ColorIndex
 90
       18
102
RTVSPost2010Prop41ColorRGB
 90
        0
102
RTVSPost2010PropOp41
 70
     1
102
RTVSPost2010Prop42
 90
       50
102
RTVSPost2010PropOp42
 70
     1
102
RTVSPost2010Prop43
 90
        3
102
RTVSPost2010PropOp43
 70
     1
102
RTVSPost2010Prop44ColorIndex
 90
        5
102
RTVSPost2010Prop44ColorRGB
 90
      255
102
RTVSPost2010PropOp44
 70
     1
102
RTVSPost2010Prop45
280
     0
102
RTVSPost2010PropOp45
 70
     1
102
RTVSPost2010Prop46
 90
       50
102
RTVSPost2010PropOp46
 70
     1
102
RTVSPost2010Prop47
 90
       50
102
RTVSPost2010PropOp47
 70
     1
102
RTVSPost2010Prop48
 90
       50
102
RTVSPost2010PropOp48
 70
     1
102
RTVSPost2010Prop49
280
     0
102
RTVSPost2010PropOp49
 70
     1
102
RTVSPost2010Prop50
 90
       50
102
RTVSPost2010PropOp50
 70
     1
102
RTVSPost2010Prop51ColorIndex
 90
      256
102
RTVSPost2010Prop51ColorRGB
 90
-16777216
102
RTVSPost2010PropOp51
 70
     0
102
RTVSPost2010Prop52
140
1.0
102
RTVSPost2010PropOp52
 70
     0
102
RTVSPost2010Prop53
 90
        2
102
RTVSPost2010PropOp53
 70
     1
102
RTVSPost2010Prop54
  1
strokes_ogs.tif
102
RTVSPost2010PropOp54
 70
     1
102
RTVSPost2010Prop55
280
     0
102
RTVSPost2010PropOp55
 70
     1
102
RTVSPost2010Prop56
140
1.0
102
RTVSPost2010PropOp56
 70
     1
102
RTVSPost2010Prop57
140
1.0
102
RTVSPost2010PropOp57
 70
     1
  0
XRECORD
  5
162
102
{ACAD_REACTORS
330
161
102
}
330
161
100
AcDbXrecord
280
     1
102
RTVSPost2010Prop28
280
     0
102
RTVSPost2010PropOp28
 70
     0
102
RTVSPost2010Prop29
280
     1
102
RTVSPost2010PropOp29
 70
     0
102
RTVSPost2010Prop30
280
     1
102
RTVSPost2010PropOp30
 70
     0
102
RTVSPost2010Prop31
280
     0
102
RTVSPost2010PropOp31
 70
     0
102
RTVSPost2010Prop32
280
     0
102
RTVSPost2010PropOp32
 70
     0
102
RTVSPost2010Prop33
280
     0
102
RTVSPost2010PropOp33
 70
     0
102
RTVSPost2010Prop34
280
     0
102
RTVSPost2010PropOp34
 70
     0
102
RTVSPost2010Prop35
280
     0
102
RTVSPost2010PropOp35
 70
     0
102
RTVSPost2010Prop36
280
     0
102
RTVSPost2010PropOp36
 70
     0
102
RTVSPost2010Prop37
 90
       50
102
RTVSPost2010PropOp37
 70
     0
102
RTVSPost2010Prop38
140
0.0
102
RTVSPost2010PropOp38
 70
     0
102
RTVSPost2010Prop39
140
1.0
102
RTVSPost2010PropOp39
 70
     0
102
RTVSPost2010Prop40
 90
        0
102
RTVSPost2010PropOp40
 70
     0
102
RTVSPost2010Prop41ColorIndex
 90
       18
102
RTVSPost2010Prop41ColorRGB
 90
        0
102
RTVSPost2010PropOp41
 70
     0
102
RTVSPost2010Prop42
 90
       50
102
RTVSPost2010PropOp42
 70
     0
102
RTVSPost2010Prop43
 90
        3
102
RTVSPost2010PropOp43
 70
     0
102
RTVSPost2010Prop44ColorIndex
 90
        5
102
RTVSPost2010Prop44ColorRGB
 90
      255
102
RTVSPost2010PropOp44
 70
     0
102
RTVSPost2010Prop45
280
     0
102
RTVSPost2010PropOp45
 70
     0
102
RTVSPost2010Prop46
 90
       50
102
RTVSPost2010PropOp46
 70
     0
102
RTVSPost2010Prop47
 90
       50
102
RTVSPost2010PropOp47
 70
     0
102
RTVSPost2010Prop48
 90
       50
102
RTVSPost2010PropOp48
 70
     0
102
RTVSPost2010Prop49
280
     0
102
RTVSPost2010PropOp49
 70
     0
102
RTVSPost2010Prop50
 90
       50
102
RTVSPost2010PropOp50
 70
     0
102
RTVSPost2010Prop51ColorIndex
 90
      256
102
RTVSPost2010Prop51ColorRGB
 90
-16777216
102
RTVSPost2010PropOp51
 70
     0
102
RTVSPost2010Prop52
140
1.0
102
RTVSPost2010PropOp52
 70
     0
102
RTVSPost2010Prop53
 90
        2
102
RTVSPost2010PropOp53
 70
     0
102
RTVSPost2010Prop54
  1
strokes_ogs.tif
102
RTVSPost2010PropOp54
 70
     0
102
RTVSPost2010Prop55
280
     0
102
RTVSPost2010PropOp55
 70
     0
102
RTVSPost2010Prop56
140
1.0
102
RTVSPost2010PropOp56
 70
     0
102
RTVSPost2010Prop57
140
1.0
102
RTVSPost2010PropOp57
 70
     0
  0
XRECORD
  5
148
102
{ACAD_REACTORS
330
147
102
}
330
147
100
AcDbXrecord
280
     1
102
RTVSPost2010Prop28
280
     0
102
RTVSPost2010PropOp28
 70
     1
102
RTVSPost2010Prop29
280
     1
102
RTVSPost2010PropOp29
 70
     1
102
RTVSPost2010Prop30
280
     1
102
RTVSPost2010PropOp30
 70
     1
102
RTVSPost2010Prop31
280
     0
102
RTVSPost2010PropOp31
 70
     1
102
RTVSPost2010Prop32
280
     0
102
RTVSPost2010PropOp32
 70
     1
102
RTVSPost2010Prop33
280
     0
102
RTVSPost2010PropOp33
 70
     1
102
RTVSPost2010Prop34
280
     0
102
RTVSPost2010PropOp34
 70
     1
102
RTVSPost2010Prop35
280
     0
102
RTVSPost2010PropOp35
 70
     1
102
RTVSPost2010Prop36
280
     0
102
RTVSPost2010PropOp36
 70
     1
102
RTVSPost2010Prop37
 90
       50
102
RTVSPost2010PropOp37
 70
     1
102
RTVSPost2010Prop38
140
0.0
102
RTVSPost2010PropOp38
 70
     1
102
RTVSPost2010Prop39
140
1.0
102
RTVSPost2010PropOp39
 70
     1
102
RTVSPost2010Prop40
 90
        0
102
RTVSPost2010PropOp40
 70
     1
102
RTVSPost2010Prop41ColorIndex
 90
       18
102
RTVSPost2010Prop41ColorRGB
 90
        0
102
RTVSPost2010PropOp41
 70
     1
102
RTVSPost2010Prop42
 90
       50
102
RTVSPost2010PropOp42
 70
     1
102
RTVSPost2010Prop43
 90
        3
102
RTVSPost2010PropOp43
 70
     1
102
RTVSPost2010Prop44ColorIndex
 90
        5
102
RTVSPost2010Prop44ColorRGB
 90
      255
102
RTVSPost2010PropOp44
 70
     1
102
RTVSPost2010Prop45
280
     0
102
RTVSPost2010PropOp45
 70
     1
102
RTVSPost2010Prop46
 90
       50
102
RTVSPost2010PropOp46
 70
     1
102
RTVSPost2010Prop47
 90
       50
102
RTVSPost2010PropOp47
 70
     1
102
RTVSPost2010Prop48
 90
       50
102
RTVSPost2010PropOp48
 70
     1
102
RTVSPost2010Prop49
280
     0
102
RTVSPost2010PropOp49
 70
     1
102
RTVSPost2010Prop50
 90
       50
102
RTVSPost2010PropOp50
 70
     1
102
RTVSPost2010Prop51ColorIndex
 90
      256
102
RTVSPost2010Prop51ColorRGB
 90
-16777216
102
RTVSPost2010PropOp51
 70
     0
102
RTVSPost2010Prop52
140
1.0
102
RTVSPost2010PropOp52
 70
     0
102
RTVSPost2010Prop53
 90
        2
102
RTVSPost2010PropOp53
 70
     1
102
RTVSPost2010Prop54
  1
strokes_ogs.tif
102
RTVSPost2010PropOp54
 70
     1
102
RTVSPost2010Prop55
280
     0
102
RTVSPost2010PropOp55
 70
     1
102
RTVSPost2010Prop56
140
1.0
102
RTVSPost2010PropOp56
 70
     1
102
RTVSPost2010Prop57
140
1.0
102
RTVSPost2010PropOp57
 70
     1
  0
XRECORD
  5
15E
102
{ACAD_REACTORS
330
15D
102
}
330
15D
100
AcDbXrecord
280
     1
102
RTVSPost2010Prop28
280
     0
102
RTVSPost2010PropOp28
 70
     1
102
RTVSPost2010Prop29
280
     1
102
RTVSPost2010PropOp29
 70
     1
102
RTVSPost2010Prop30
280
     1
102
RTVSPost2010PropOp30
 70
     1
102
RTVSPost2010Prop31
280
     0
102
RTVSPost2010PropOp31
 70
     1
102
RTVSPost2010Prop32
280
     0
102
RTVSPost2010PropOp32
 70
     1
102
RTVSPost2010Prop33
280
     0
102
RTVSPost2010PropOp33
 70
     1
102
RTVSPost2010Prop34
280
     0
102
RTVSPost2010PropOp34
 70
     1
102
RTVSPost2010Prop35
280
     0
102
RTVSPost2010PropOp35
 70
     1
102
RTVSPost2010Prop36
280
     0
102
RTVSPost2010PropOp36
 70
     1
102
RTVSPost2010Prop37
 90
       50
102
RTVSPost2010PropOp37
 70
     1
102
RTVSPost2010Prop38
140
0.0
102
RTVSPost2010PropOp38
 70
     1
102
RTVSPost2010Prop39
140
1.0
102
RTVSPost2010PropOp39
 70
     1
102
RTVSPost2010Prop40
 90
        0
102
RTVSPost2010PropOp40
 70
     1
102
RTVSPost2010Prop41ColorIndex
 90
       18
102
RTVSPost2010Prop41ColorRGB
 90
        0
102
RTVSPost2010PropOp41
 70
     1
102
RTVSPost2010Prop42
 90
       50
102
RTVSPost2010PropOp42
 70
     1
102
RTVSPost2010Prop43
 90
        3
102
RTVSPost2010PropOp43
 70
     1
102
RTVSPost2010Prop44ColorIndex
 90
        5
102
RTVSPost2010Prop44ColorRGB
 90
      255
102
RTVSPost2010PropOp44
 70
     1
102
RTVSPost2010Prop45
280
     0
102
RTVSPost2010PropOp45
 70
     1
102
RTVSPost2010Prop46
 90
       50
102
RTVSPost2010PropOp46
 70
     1
102
RTVSPost2010Prop47
 90
       50
102
RTVSPost2010PropOp47
 70
     1
102
RTVSPost2010Prop48
 90
       50
102
RTVSPost2010PropOp48
 70
     1
102
RTVSPost2010Prop49
280
     0
102
RTVSPost2010PropOp49
 70
     1
102
RTVSPost2010Prop50
 90
       50
102
RTVSPost2010PropOp50
 70
     1
102
RTVSPost2010Prop51ColorIndex
 90
      256
102
RTVSPost2010Prop51ColorRGB
 90
-16777216
102
RTVSPost2010PropOp51
 70
     0
102
RTVSPost2010Prop52
140
1.0
102
RTVSPost2010PropOp52
 70
     0
102
RTVSPost2010Prop53
 90
        2
102
RTVSPost2010PropOp53
 70
     1
102
RTVSPost2010Prop54
  1
strokes_ogs.tif
102
RTVSPost2010PropOp54
 70
     1
102
RTVSPost2010Prop55
280
     0
102
RTVSPost2010PropOp55
 70
     1
102
RTVSPost2010Prop56
140
1.0
102
RTVSPost2010PropOp56
 70
     1
102
RTVSPost2010Prop57
140
1.0
102
RTVSPost2010PropOp57
 70
     1
  0
XRECORD
  5
15C
102
{ACAD_REACTORS
330
15B
102
}
330
15B
100
AcDbXrecord
280
     1
102
RTVSPost2010Prop28
280
     0
102
RTVSPost2010PropOp28
 70
     1
102
RTVSPost2010Prop29
280
     1
102
RTVSPost2010PropOp29
 70
     1
102
RTVSPost2010Prop30
280
     1
102
RTVSPost2010PropOp30
 70
     1
102
RTVSPost2010Prop31
280
     0
102
RTVSPost2010PropOp31
 70
     1
102
RTVSPost2010Prop32
280
     0
102
RTVSPost2010PropOp32
 70
     1
102
RTVSPost2010Prop33
280
     0
102
RTVSPost2010PropOp33
 70
     1
102
RTVSPost2010Prop34
280
     0
102
RTVSPost2010PropOp34
 70
     1
102
RTVSPost2010Prop35
280
     0
102
RTVSPost2010PropOp35
 70
     1
102
RTVSPost2010Prop36
280
     0
102
RTVSPost2010PropOp36
 70
     1
102
RTVSPost2010Prop37
 90
       50
102
RTVSPost2010PropOp37
 70
     1
102
RTVSPost2010Prop38
140
0.0
102
RTVSPost2010PropOp38
 70
     1
102
RTVSPost2010Prop39
140
1.0
102
RTVSPost2010PropOp39
 70
     1
102
RTVSPost2010Prop40
 90
        0
102
RTVSPost2010PropOp40
 70
     1
102
RTVSPost2010Prop41ColorIndex
 90
       18
102
RTVSPost2010Prop41ColorRGB
 90
        0
102
RTVSPost2010PropOp41
 70
     1
102
RTVSPost2010Prop42
 90
       50
102
RTVSPost2010PropOp42
 70
     1
102
RTVSPost2010Prop43
 90
        3
102
RTVSPost2010PropOp43
 70
     1
102
RTVSPost2010Prop44ColorIndex
 90
        5
102
RTVSPost2010Prop44ColorRGB
 90
      255
102
RTVSPost2010PropOp44
 70
     1
102
RTVSPost2010Prop45
280
     0
102
RTVSPost2010PropOp45
 70
     1
102
RTVSPost2010Prop46
 90
       50
102
RTVSPost2010PropOp46
 70
     1
102
RTVSPost2010Prop47
 90
       50
102
RTVSPost2010PropOp47
 70
     1
102
RTVSPost2010Prop48
 90
       50
102
RTVSPost2010PropOp48
 70
     1
102
RTVSPost2010Prop49
280
     0
102
RTVSPost2010PropOp49
 70
     1
102
RTVSPost2010Prop50
 90
       50
102
RTVSPost2010PropOp50
 70
     1
102
RTVSPost2010Prop51ColorIndex
 90
      256
102
RTVSPost2010Prop51ColorRGB
 90
-16777216
102
RTVSPost2010PropOp51
 70
     0
102
RTVSPost2010Prop52
140
1.0
102
RTVSPost2010PropOp52
 70
     0
102
RTVSPost2010Prop53
 90
        2
102
RTVSPost2010PropOp53
 70
     1
102
RTVSPost2010Prop54
  1
strokes_ogs.tif
102
RTVSPost2010PropOp54
 70
     1
102
RTVSPost2010Prop55
280
     0
102
RTVSPost2010PropOp55
 70
     1
102
RTVSPost2010Prop56
140
1.0
102
RTVSPost2010PropOp56
 70
     1
102
RTVSPost2010Prop57
140
1.0
102
RTVSPost2010PropOp57
 70
     1
  0
XRECORD
  5
156
102
{ACAD_REACTORS
330
155
102
}
330
155
100
AcDbXrecord
280
     1
102
RTVSPost2010Prop28
280
     0
102
RTVSPost2010PropOp28
 70
     1
102
RTVSPost2010Prop29
280
     1
102
RTVSPost2010PropOp29
 70
     1
102
RTVSPost2010Prop30
280
     1
102
RTVSPost2010PropOp30
 70
     1
102
RTVSPost2010Prop31
280
     0
102
RTVSPost2010PropOp31
 70
     1
102
RTVSPost2010Prop32
280
     0
102
RTVSPost2010PropOp32
 70
     1
102
RTVSPost2010Prop33
280
     0
102
RTVSPost2010PropOp33
 70
     1
102
RTVSPost2010Prop34
280
     0
102
RTVSPost2010PropOp34
 70
     1
102
RTVSPost2010Prop35
280
     0
102
RTVSPost2010PropOp35
 70
     1
102
RTVSPost2010Prop36
280
     0
102
RTVSPost2010PropOp36
 70
     1
102
RTVSPost2010Prop37
 90
       50
102
RTVSPost2010PropOp37
 70
     1
102
RTVSPost2010Prop38
140
0.0
102
RTVSPost2010PropOp38
 70
     1
102
RTVSPost2010Prop39
140
1.0
102
RTVSPost2010PropOp39
 70
     1
102
RTVSPost2010Prop40
 90
        0
102
RTVSPost2010PropOp40
 70
     1
102
RTVSPost2010Prop41ColorIndex
 90
       18
102
RTVSPost2010Prop41ColorRGB
 90
        0
102
RTVSPost2010PropOp41
 70
     1
102
RTVSPost2010Prop42
 90
       50
102
RTVSPost2010PropOp42
 70
     1
102
RTVSPost2010Prop43
 90
        3
102
RTVSPost2010PropOp43
 70
     1
102
RTVSPost2010Prop44ColorIndex
 90
        5
102
RTVSPost2010Prop44ColorRGB
 90
      255
102
RTVSPost2010PropOp44
 70
     1
102
RTVSPost2010Prop45
280
     0
102
RTVSPost2010PropOp45
 70
     1
102
RTVSPost2010Prop46
 90
       50
102
RTVSPost2010PropOp46
 70
     1
102
RTVSPost2010Prop47
 90
       50
102
RTVSPost2010PropOp47
 70
     1
102
RTVSPost2010Prop48
 90
       50
102
RTVSPost2010PropOp48
 70
     1
102
RTVSPost2010Prop49
280
     0
102
RTVSPost2010PropOp49
 70
     1
102
RTVSPost2010Prop50
 90
       50
102
RTVSPost2010PropOp50
 70
     1
102
RTVSPost2010Prop51ColorIndex
 90
      256
102
RTVSPost2010Prop51ColorRGB
 90
-16777216
102
RTVSPost2010PropOp51
 70
     0
102
RTVSPost2010Prop52
140
1.0
102
RTVSPost2010PropOp52
 70
     0
102
RTVSPost2010Prop53
 90
        2
102
RTVSPost2010PropOp53
 70
     1
102
RTVSPost2010Prop54
  1
strokes_ogs.tif
102
RTVSPost2010PropOp54
 70
     1
102
RTVSPost2010Prop55
280
     0
102
RTVSPost2010PropOp55
 70
     1
102
RTVSPost2010Prop56
140
1.0
102
RTVSPost2010PropOp56
 70
     1
102
RTVSPost2010Prop57
140
1.0
102
RTVSPost2010PropOp57
 70
     1
  0
XRECORD
  5
158
102
{ACAD_REACTORS
330
157
102
}
330
157
100
AcDbXrecord
280
     1
102
RTVSPost2010Prop28
280
     0
102
RTVSPost2010PropOp28
 70
     1
102
RTVSPost2010Prop29
280
     1
102
RTVSPost2010PropOp29
 70
     1
102
RTVSPost2010Prop30
280
     1
102
RTVSPost2010PropOp30
 70
     1
102
RTVSPost2010Prop31
280
     0
102
RTVSPost2010PropOp31
 70
     1
102
RTVSPost2010Prop32
280
     0
102
RTVSPost2010PropOp32
 70
     1
102
RTVSPost2010Prop33
280
     0
102
RTVSPost2010PropOp33
 70
     1
102
RTVSPost2010Prop34
280
     0
102
RTVSPost2010PropOp34
 70
     1
102
RTVSPost2010Prop35
280
     0
102
RTVSPost2010PropOp35
 70
     1
102
RTVSPost2010Prop36
280
     0
102
RTVSPost2010PropOp36
 70
     1
102
RTVSPost2010Prop37
 90
       50
102
RTVSPost2010PropOp37
 70
     1
102
RTVSPost2010Prop38
140
0.0
102
RTVSPost2010PropOp38
 70
     1
102
RTVSPost2010Prop39
140
1.0
102
RTVSPost2010PropOp39
 70
     1
102
RTVSPost2010Prop40
 90
        0
102
RTVSPost2010PropOp40
 70
     1
102
RTVSPost2010Prop41ColorIndex
 90
       18
102
RTVSPost2010Prop41ColorRGB
 90
        0
102
RTVSPost2010PropOp41
 70
     1
102
RTVSPost2010Prop42
 90
       50
102
RTVSPost2010PropOp42
 70
     1
102
RTVSPost2010Prop43
 90
        3
102
RTVSPost2010PropOp43
 70
     1
102
RTVSPost2010Prop44ColorIndex
 90
        5
102
RTVSPost2010Prop44ColorRGB
 90
      255
102
RTVSPost2010PropOp44
 70
     1
102
RTVSPost2010Prop45
280
     0
102
RTVSPost2010PropOp45
 70
     1
102
RTVSPost2010Prop46
 90
       50
102
RTVSPost2010PropOp46
 70
     1
102
RTVSPost2010Prop47
 90
       50
102
RTVSPost2010PropOp47
 70
     1
102
RTVSPost2010Prop48
 90
       50
102
RTVSPost2010PropOp48
 70
     1
102
RTVSPost2010Prop49
280
     0
102
RTVSPost2010PropOp49
 70
     1
102
RTVSPost2010Prop50
 90
       50
102
RTVSPost2010PropOp50
 70
     1
102
RTVSPost2010Prop51ColorIndex
 90
      256
102
RTVSPost2010Prop51ColorRGB
 90
-16777216
102
RTVSPost2010PropOp51
 70
     0
102
RTVSPost2010Prop52
140
1.0
102
RTVSPost2010PropOp52
 70
     0
102
RTVSPost2010Prop53
 90
        2
102
RTVSPost2010PropOp53
 70
     1
102
RTVSPost2010Prop54
  1
strokes_ogs.tif
102
RTVSPost2010PropOp54
 70
     1
102
RTVSPost2010Prop55
280
     0
102
RTVSPost2010PropOp55
 70
     1
102
RTVSPost2010Prop56
140
1.0
102
RTVSPost2010PropOp56
 70
     1
102
RTVSPost2010Prop57
140
1.0
102
RTVSPost2010PropOp57
 70
     1
  0
XRECORD
  5
14E
102
{ACAD_REACTORS
330
14D
102
}
330
14D
100
AcDbXrecord
280
     1
102
RTVSPost2010Prop28
280
     0
102
RTVSPost2010PropOp28
 70
     1
102
RTVSPost2010Prop29
280
     1
102
RTVSPost2010PropOp29
 70
     1
102
RTVSPost2010Prop30
280
     1
102
RTVSPost2010PropOp30
 70
     1
102
RTVSPost2010Prop31
280
     0
102
RTVSPost2010PropOp31
 70
     1
102
RTVSPost2010Prop32
280
     0
102
RTVSPost2010PropOp32
 70
     1
102
RTVSPost2010Prop33
280
     0
102
RTVSPost2010PropOp33
 70
     1
102
RTVSPost2010Prop34
280
     0
102
RTVSPost2010PropOp34
 70
     1
102
RTVSPost2010Prop35
280
     0
102
RTVSPost2010PropOp35
 70
     1
102
RTVSPost2010Prop36
280
     0
102
RTVSPost2010PropOp36
 70
     1
102
RTVSPost2010Prop37
 90
       50
102
RTVSPost2010PropOp37
 70
     1
102
RTVSPost2010Prop38
140
0.0
102
RTVSPost2010PropOp38
 70
     1
102
RTVSPost2010Prop39
140
1.0
102
RTVSPost2010PropOp39
 70
     1
102
RTVSPost2010Prop40
 90
        0
102
RTVSPost2010PropOp40
 70
     1
102
RTVSPost2010Prop41ColorIndex
 90
       18
102
RTVSPost2010Prop41ColorRGB
 90
        0
102
RTVSPost2010PropOp41
 70
     1
102
RTVSPost2010Prop42
 90
       50
102
RTVSPost2010PropOp42
 70
     1
102
RTVSPost2010Prop43
 90
        3
102
RTVSPost2010PropOp43
 70
     1
102
RTVSPost2010Prop44ColorIndex
 90
        5
102
RTVSPost2010Prop44ColorRGB
 90
      255
102
RTVSPost2010PropOp44
 70
     1
102
RTVSPost2010Prop45
280
     0
102
RTVSPost2010PropOp45
 70
     1
102
RTVSPost2010Prop46
 90
       50
102
RTVSPost2010PropOp46
 70
     1
102
RTVSPost2010Prop47
 90
       50
102
RTVSPost2010PropOp47
 70
     1
102
RTVSPost2010Prop48
 90
       50
102
RTVSPost2010PropOp48
 70
     1
102
RTVSPost2010Prop49
280
     0
102
RTVSPost2010PropOp49
 70
     1
102
RTVSPost2010Prop50
 90
       50
102
RTVSPost2010PropOp50
 70
     1
102
RTVSPost2010Prop51ColorIndex
 90
      256
102
RTVSPost2010Prop51ColorRGB
 90
-16777216
102
RTVSPost2010PropOp51
 70
     0
102
RTVSPost2010Prop52
140
1.0
102
RTVSPost2010PropOp52
 70
     0
102
RTVSPost2010Prop53
 90
        2
102
RTVSPost2010PropOp53
 70
     1
102
RTVSPost2010Prop54
  1
strokes_ogs.tif
102
RTVSPost2010PropOp54
 70
     1
102
RTVSPost2010Prop55
280
     0
102
RTVSPost2010PropOp55
 70
     1
102
RTVSPost2010Prop56
140
1.0
102
RTVSPost2010PropOp56
 70
     1
102
RTVSPost2010Prop57
140
1.0
102
RTVSPost2010PropOp57
 70
     1
  0
XRECORD
  5
142
102
{ACAD_REACTORS
330
141
102
}
330
141
100
AcDbXrecord
280
     1
102
RTVSPost2010Prop28
280
     0
102
RTVSPost2010PropOp28
 70
     1
102
RTVSPost2010Prop29
280
     1
102
RTVSPost2010PropOp29
 70
     1
102
RTVSPost2010Prop30
280
     1
102
RTVSPost2010PropOp30
 70
     1
102
RTVSPost2010Prop31
280
     0
102
RTVSPost2010PropOp31
 70
     1
102
RTVSPost2010Prop32
280
     0
102
RTVSPost2010PropOp32
 70
     1
102
RTVSPost2010Prop33
280
     0
102
RTVSPost2010PropOp33
 70
     1
102
RTVSPost2010Prop34
280
     0
102
RTVSPost2010PropOp34
 70
     1
102
RTVSPost2010Prop35
280
     0
102
RTVSPost2010PropOp35
 70
     1
102
RTVSPost2010Prop36
280
     0
102
RTVSPost2010PropOp36
 70
     1
102
RTVSPost2010Prop37
 90
       50
102
RTVSPost2010PropOp37
 70
     1
102
RTVSPost2010Prop38
140
0.0
102
RTVSPost2010PropOp38
 70
     1
102
RTVSPost2010Prop39
140
1.0
102
RTVSPost2010PropOp39
 70
     1
102
RTVSPost2010Prop40
 90
        0
102
RTVSPost2010PropOp40
 70
     1
102
RTVSPost2010Prop41ColorIndex
 90
       18
102
RTVSPost2010Prop41ColorRGB
 90
        0
102
RTVSPost2010PropOp41
 70
     1
102
RTVSPost2010Prop42
 90
       50
102
RTVSPost2010PropOp42
 70
     1
102
RTVSPost2010Prop43
 90
        3
102
RTVSPost2010PropOp43
 70
     1
102
RTVSPost2010Prop44ColorIndex
 90
        5
102
RTVSPost2010Prop44ColorRGB
 90
      255
102
RTVSPost2010PropOp44
 70
     1
102
RTVSPost2010Prop45
280
     0
102
RTVSPost2010PropOp45
 70
     1
102
RTVSPost2010Prop46
 90
       50
102
RTVSPost2010PropOp46
 70
     1
102
RTVSPost2010Prop47
 90
       50
102
RTVSPost2010PropOp47
 70
     1
102
RTVSPost2010Prop48
 90
       50
102
RTVSPost2010PropOp48
 70
     1
102
RTVSPost2010Prop49
280
     0
102
RTVSPost2010PropOp49
 70
     1
102
RTVSPost2010Prop50
 90
       50
102
RTVSPost2010PropOp50
 70
     1
102
RTVSPost2010Prop51ColorIndex
 90
      256
102
RTVSPost2010Prop51ColorRGB
 90
-16777216
102
RTVSPost2010PropOp51
 70
     0
102
RTVSPost2010Prop52
140
1.0
102
RTVSPost2010PropOp52
 70
     0
102
RTVSPost2010Prop53
 90
        2
102
RTVSPost2010PropOp53
 70
     1
102
RTVSPost2010Prop54
  1
strokes_ogs.tif
102
RTVSPost2010PropOp54
 70
     1
102
RTVSPost2010Prop55
280
     0
102
RTVSPost2010PropOp55
 70
     1
102
RTVSPost2010Prop56
140
1.0
102
RTVSPost2010PropOp56
 70
     1
102
RTVSPost2010Prop57
140
1.0
102
RTVSPost2010PropOp57
 70
     1
  0
XRECORD
  5
15A
102
{ACAD_REACTORS
330
159
102
}
330
159
100
AcDbXrecord
280
     1
102
RTVSPost2010Prop28
280
     0
102
RTVSPost2010PropOp28
 70
     1
102
RTVSPost2010Prop29
280
     1
102
RTVSPost2010PropOp29
 70
     1
102
RTVSPost2010Prop30
280
     1
102
RTVSPost2010PropOp30
 70
     1
102
RTVSPost2010Prop31
280
     0
102
RTVSPost2010PropOp31
 70
     1
102
RTVSPost2010Prop32
280
     0
102
RTVSPost2010PropOp32
 70
     1
102
RTVSPost2010Prop33
280
     0
102
RTVSPost2010PropOp33
 70
     1
102
RTVSPost2010Prop34
280
     0
102
RTVSPost2010PropOp34
 70
     1
102
RTVSPost2010Prop35
280
     0
102
RTVSPost2010PropOp35
 70
     1
102
RTVSPost2010Prop36
280
     0
102
RTVSPost2010PropOp36
 70
     1
102
RTVSPost2010Prop37
 90
       50
102
RTVSPost2010PropOp37
 70
     1
102
RTVSPost2010Prop38
140
0.0
102
RTVSPost2010PropOp38
 70
     1
102
RTVSPost2010Prop39
140
1.0
102
RTVSPost2010PropOp39
 70
     1
102
RTVSPost2010Prop40
 90
        0
102
RTVSPost2010PropOp40
 70
     1
102
RTVSPost2010Prop41ColorIndex
 90
       18
102
RTVSPost2010Prop41ColorRGB
 90
        0
102
RTVSPost2010PropOp41
 70
     1
102
RTVSPost2010Prop42
 90
       50
102
RTVSPost2010PropOp42
 70
     1
102
RTVSPost2010Prop43
 90
        3
102
RTVSPost2010PropOp43
 70
     1
102
RTVSPost2010Prop44ColorIndex
 90
        5
102
RTVSPost2010Prop44ColorRGB
 90
      255
102
RTVSPost2010PropOp44
 70
     1
102
RTVSPost2010Prop45
280
     0
102
RTVSPost2010PropOp45
 70
     1
102
RTVSPost2010Prop46
 90
       50
102
RTVSPost2010PropOp46
 70
     1
102
RTVSPost2010Prop47
 90
       50
102
RTVSPost2010PropOp47
 70
     1
102
RTVSPost2010Prop48
 90
       50
102
RTVSPost2010PropOp48
 70
     1
102
RTVSPost2010Prop49
280
     0
102
RTVSPost2010PropOp49
 70
     1
102
RTVSPost2010Prop50
 90
       50
102
RTVSPost2010PropOp50
 70
     1
102
RTVSPost2010Prop51ColorIndex
 90
      256
102
RTVSPost2010Prop51ColorRGB
 90
-16777216
102
RTVSPost2010PropOp51
 70
     0
102
RTVSPost2010Prop52
140
1.0
102
RTVSPost2010PropOp52
 70
     0
102
RTVSPost2010Prop53
 90
        2
102
RTVSPost2010PropOp53
 70
     1
102
RTVSPost2010Prop54
  1
strokes_ogs.tif
102
RTVSPost2010PropOp54
 70
     1
102
RTVSPost2010Prop55
280
     0
102
RTVSPost2010PropOp55
 70
     1
102
RTVSPost2010Prop56
140
1.0
102
RTVSPost2010PropOp56
 70
     1
102
RTVSPost2010Prop57
140
1.0
102
RTVSPost2010PropOp57
 70
     1
  0
ENDSEC
  0
EOF
