  0
SECTION
  2
HEADER
  9
$ACADVER
  1
AC1024
  9
$ACADMAINTVER
 70
   226
  9
$DWGCODEPAGE
  3
ANSI_932
  9
$INSBASE
 10
0.0
 20
0.0
 30
0.0
  9
$EXTMIN
 10
1.000000000000000E+20
 20
1.000000000000000E+20
 30
1.000000000000000E+20
  9
$EXTMAX
 10
-1.000000000000000E+20
 20
-1.000000000000000E+20
 30
-1.000000000000000E+20
  9
$LIMMIN
 10
0.0
 20
0.0
  9
$LIMMAX
 10
12.0
 20
9.0
  9
$ORTHOMODE
 70
     0
  9
$REGENMODE
 70
     1
  9
$FILLMODE
 70
     1
  9
$QTEXTMODE
 70
     0
  9
$MIRRTEXT
 70
     0
  9
$LTSCALE
 40
1.0
  9
$ATTMODE
 70
     1
  9
$TEXTSIZE
 40
0.2
  9
$TRACEWID
 40
0.05
  9
$TEXTSTYLE
  7
Standard
  9
$CLAYER
  8
0
  9
$CELTYPE
  6
ByLayer
  9
$CECOLOR
 62
   256
  9
$CELTSCALE
 40
1.0
  9
$DISPSILH
 70
     0
  9
$DIMSCALE
 40
1.0
  9
$DIMASZ
 40
0.18
  9
$DIMEXO
 40
0.0625
  9
$DIMDLI
 40
0.38
  9
$DIMRND
 40
0.0
  9
$DIMDLE
 40
0.0
  9
$DIMEXE
 40
0.18
  9
$DIMTP
 40
0.0
  9
$DIMTM
 40
0.0
  9
$DIMTXT
 40
0.18
  9
$DIMCEN
 40
0.09
  9
$DIMTSZ
 40
0.0
  9
$DIMTOL
 70
     0
  9
$DIMLIM
 70
     0
  9
$DIMTIH
 70
     1
  9
$DIMTOH
 70
     1
  9
$DIMSE1
 70
     0
  9
$DIMSE2
 70
     0
  9
$DIMTAD
 70
     0
  9
$DIMZIN
 70
     0
  9
$DIMBLK
  1

  9
$DIMASO
 70
     1
  9
$DIMSHO
 70
     1
  9
$DIMPOST
  1

  9
$DIMAPOST
  1

  9
$DIMALT
 70
     0
  9
$DIMALTD
 70
     2
  9
$DIMALTF
 40
25.4
  9
$DIMLFAC
 40
1.0
  9
$DIMTOFL
 70
     0
  9
$DIMTVP
 40
0.0
  9
$DIMTIX
 70
     0
  9
$DIMSOXD
 70
     0
  9
$DIMSAH
 70
     0
  9
$DIMBLK1
  1

  9
$DIMBLK2
  1

  9
$DIMSTYLE
  2
Standard
  9
$DIMCLRD
 70
     0
  9
$DIMCLRE
 70
     0
  9
$DIMCLRT
 70
     0
  9
$DIMTFAC
 40
1.0
  9
$DIMGAP
 40
0.09
  9
$DIMJUST
 70
     0
  9
$DIMSD1
 70
     0
  9
$DIMSD2
 70
     0
  9
$DIMTOLJ
 70
     1
  9
$DIMTZIN
 70
     0
  9
$DIMALTZ
 70
     0
  9
$DIMALTTZ
 70
     0
  9
$DIMUPT
 70
     0
  9
$DIMDEC
 70
     4
  9
$DIMTDEC
 70
     4
  9
$DIMALTU
 70
     2
  9
$DIMALTTD
 70
     2
  9
$DIMTXSTY
  7
Standard
  9
$DIMAUNIT
 70
     0
  9
$DIMADEC
 70
     0
  9
$DIMALTRND
 40
0.0
  9
$DIMAZIN
 70
     0
  9
$DIMDSEP
 70
    46
  9
$DIMATFIT
 70
     3
  9
$DIMFRAC
 70
     0
  9
$DIMLDRBLK
  1

  9
$DIMLUNIT
 70
     2
  9
$DIMLWD
 70
    -2
  9
$DIMLWE
 70
    -2
  9
$DIMTMOVE
 70
     0
  9
$DIMFXL
 40
1.0
  9
$DIMFXLON
 70
     0
  9
$DIMJOGANG
 40
0.7853981633974483
  9
$DIMTFILL
 70
     0
  9
$DIMTFILLCLR
 70
     0
  9
$DIMARCSYM
 70
     0
  9
$DIMLTYPE
  6

  9
$DIMLTEX1
  6

  9
$DIMLTEX2
  6

  9
$DIMTXTDIRECTION
 70
     0
  9
$LUNITS
 70
     2
  9
$LUPREC
 70
     4
  9
$SKETCHINC
 40
0.1
  9
$FILLETRAD
 40
0.0
  9
$AUNITS
 70
     0
  9
$AUPREC
 70
     0
  9
$MENU
  1
.
  9
$ELEVATION
 40
0.0
  9
$PELEVATION
 40
0.0
  9
$THICKNESS
 40
0.0
  9
$LIMCHECK
 70
     0
  9
$CHAMFERA
 40
0.0
  9
$CHAMFERB
 40
0.0
  9
$CHAMFERC
 40
0.0
  9
$CHAMFERD
 40
0.0
  9
$SKPOLY
 70
     0
  9
$TDCREATE
 40
2459569.489247686
  9
$TDUCREATE
 40
2459569.114247686
  9
$TDUPDATE
 40
2459569.489247686
  9
$TDUUPDATE
 40
2459569.114247686
  9
$TDINDWG
 40
0.0000000000
  9
$TDUSRTIMER
 40
0.0000000000
  9
$USRTIMER
 70
     1
  9
$ANGBASE
 50
0.0
  9
$ANGDIR
 70
     0
  9
$PDMODE
 70
     0
  9
$PDSIZE
 40
0.0
  9
$PLINEWID
 40
0.0
  9
$SPLFRAME
 70
     0
  9
$SPLINETYPE
 70
     6
  9
$SPLINESEGS
 70
     8
  9
$HANDSEED
  5
193
  9
$SURFTAB1
 70
     6
  9
$SURFTAB2
 70
     6
  9
$SURFTYPE
 70
     6
  9
$SURFU
 70
     6
  9
$SURFV
 70
     6
  9
$UCSBASE
  2

  9
$UCSNAME
  2

  9
$UCSORG
 10
0.0
 20
0.0
 30
0.0
  9
$UCSXDIR
 10
1.0
 20
0.0
 30
0.0
  9
$UCSYDIR
 10
0.0
 20
1.0
 30
0.0
  9
$UCSORTHOREF
  2

  9
$UCSORTHOVIEW
 70
     0
  9
$UCSORGTOP
 10
0.0
 20
0.0
 30
0.0
  9
$UCSORGBOTTOM
 10
0.0
 20
0.0
 30
0.0
  9
$UCSORGLEFT
 10
0.0
 20
0.0
 30
0.0
  9
$UCSORGRIGHT
 10
0.0
 20
0.0
 30
0.0
  9
$UCSORGFRONT
 10
0.0
 20
0.0
 30
0.0
  9
$UCSORGBACK
 10
0.0
 20
0.0
 30
0.0
  9
$PUCSBASE
  2

  9
$PUCSNAME
  2

  9
$PUCSORG
 10
0.0
 20
0.0
 30
0.0
  9
$PUCSXDIR
 10
1.0
 20
0.0
 30
0.0
  9
$PUCSYDIR
 10
0.0
 20
1.0
 30
0.0
  9
$PUCSORTHOREF
  2

  9
$PUCSORTHOVIEW
 70
     0
  9
$PUCSORGTOP
 10
0.0
 20
0.0
 30
0.0
  9
$PUCSORGBOTTOM
 10
0.0
 20
0.0
 30
0.0
  9
$PUCSORGLEFT
 10
0.0
 20
0.0
 30
0.0
  9
$PUCSORGRIGHT
 10
0.0
 20
0.0
 30
0.0
  9
$PUCSORGFRONT
 10
0.0
 20
0.0
 30
0.0
  9
$PUCSORGBACK
 10
0.0
 20
0.0
 30
0.0
  9
$USERI1
 70
     0
  9
$USERI2
 70
     0
  9
$USERI3
 70
     0
  9
$USERI4
 70
     0
  9
$USERI5
 70
     0
  9
$USERR1
 40
0.0
  9
$USERR2
 40
0.0
  9
$USERR3
 40
0.0
  9
$USERR4
 40
0.0
  9
$USERR5
 40
0.0
  9
$WORLDVIEW
 70
     1
  9
$SHADEDGE
 70
     3
  9
$SHADEDIF
 70
    70
  9
$TILEMODE
 70
     1
  9
$MAXACTVP
 70
    64
  9
$PINSBASE
 10
0.0
 20
0.0
 30
0.0
  9
$PLIMCHECK
 70
     0
  9
$PEXTMIN
 10
1.000000000000000E+20
 20
1.000000000000000E+20
 30
1.000000000000000E+20
  9
$PEXTMAX
 10
-1.000000000000000E+20
 20
-1.000000000000000E+20
 30
-1.000000000000000E+20
  9
$PLIMMIN
 10
0.0
 20
0.0
  9
$PLIMMAX
 10
12.0
 20
9.0
  9
$UNITMODE
 70
     0
  9
$VISRETAIN
 70
     1
  9
$PLINEGEN
 70
     0
  9
$PSLTSCALE
 70
     1
  9
$TREEDEPTH
 70
  3020
  9
$CMLSTYLE
  2
Standard
  9
$CMLJUST
 70
     0
  9
$CMLSCALE
 40
1.0
  9
$PROXYGRAPHICS
 70
     1
  9
$MEASUREMENT
 70
     0
  9
$CELWEIGHT
370
    -1
  9
$ENDCAPS
280
     0
  9
$JOINSTYLE
280
     0
  9
$LWDISPLAY
290
     1
  9
$INSUNITS
 70
     4
  9
$HYPERLINKBASE
  1

  9
$STYLESHEET
  1

  9
$XEDIT
290
     1
  9
$CEPSNTYPE
380
     0
  9
$PSTYLEMODE
290
     1
  9
$FINGERPRINTGUID
  2
{BDC816A5-F6D4-634F-9BD4-9674CF0AB2CC}
  9
$VERSIONGUID
  2
{A6DC4905-867E-C545-B7CC-9C830C5BA27A}
  9
$EXTNAMES
290
     1
  9
$PSVPSCALE
 40
0.0
  9
$OLESTARTUP
290
     0
  9
$SORTENTS
280
   127
  9
$INDEXCTL
280
     0
  9
$HIDETEXT
280
     1
  9
$XCLIPFRAME
280
     2
  9
$HALOGAP
280
     0
  9
$OBSCOLOR
 70
   257
  9
$OBSLTYPE
280
     0
  9
$INTERSECTIONDISPLAY
280
     0
  9
$INTERSECTIONCOLOR
 70
   257
  9
$DIMASSOC
280
     2
  9
$PROJECTNAME
  1

  9
$CAMERADISPLAY
290
     0
  9
$LENSLENGTH
 40
50.0
  9
$CAMERAHEIGHT
 40
0.0
  9
$STEPSPERSEC
 40
2.0
  9
$STEPSIZE
 40
6.0
  9
$3DDWFPREC
 40
2.0
  9
$PSOLWIDTH
 40
0.25
  9
$PSOLHEIGHT
 40
4.0
  9
$LOFTANG1
 40
1.570796326794896
  9
$LOFTANG2
 40
1.570796326794896
  9
$LOFTMAG1
 40
0.0
  9
$LOFTMAG2
 40
0.0
  9
$LOFTPARAM
 70
     7
  9
$LOFTNORMALS
280
     1
  9
$LATITUDE
 40
37.795
  9
$LONGITUDE
 40
-122.394
  9
$NORTHDIRECTION
 40
0.0
  9
$TIMEZONE
 70
 -8000
  9
$LIGHTGLYPHDISPLAY
280
     1
  9
$TILEMODELIGHTSYNCH
280
     1
  9
$CMATERIAL
347
11
  9
$SOLIDHIST
280
     0
  9
$SHOWHIST
280
     1
  9
$DWFFRAME
280
     2
  9
$DGNFRAME
280
     0
  9
$REALWORLDSCALE
290
     1
  9
$INTERFERECOLOR
 62
     1
  9
$INTERFEREOBJVS
345
33
  9
$INTERFEREVPVS
346
30
  9
$CSHADOW
280
     0
  9
$SHADOWPLANELOCATION
 40
0.0
  0
ENDSEC
  0
SECTION
  2
CLASSES
  0
CLASS
  1
ACDBDICTIONARYWDFLT
  2
AcDbDictionaryWithDefault
  3
ObjectDBX Classes
 90
        0
 91
        1
280
     0
281
     0
  0
CLASS
  1
MATERIAL
  2
AcDbMaterial
  3
ObjectDBX Classes
 90
     1153
 91
        3
280
     0
281
     0
  0
CLASS
  1
VISUALSTYLE
  2
AcDbVisualStyle
  3
ObjectDBX Classes
 90
     4095
 91
       24
280
     0
281
     0
  0
CLASS
  1
SCALE
  2
AcDbScale
  3
ObjectDBX Classes
 90
     1153
 91
       17
280
     0
281
     0
  0
CLASS
  1
TABLESTYLE
  2
AcDbTableStyle
  3
ObjectDBX Classes
 90
     4095
 91
        1
280
     0
281
     0
  0
CLASS
  1
MLEADERSTYLE
  2
AcDbMLeaderStyle
  3
ACDB_MLEADERSTYLE_CLASS
 90
     4095
 91
        1
280
     0
281
     0
  0
CLASS
  1
ACDBSECTIONVIEWSTYLE
  2
AcDbSectionViewStyle
  3
ObjectDBX Classes
 90
     1025
 91
        1
280
     0
281
     0
  0
CLASS
  1
ACDBDETAILVIEWSTYLE
  2
AcDbDetailViewStyle
  3
ObjectDBX Classes
 90
     1025
 91
        1
280
     0
281
     0
  0
CLASS
  1
DICTIONARYVAR
  2
AcDbDictionaryVar
  3
ObjectDBX Classes
 90
        0
 91
        5
280
     0
281
     0
  0
CLASS
  1
CELLSTYLEMAP
  2
AcDbCellStyleMap
  3
ObjectDBX Classes
 90
     1152
 91
        1
280
     0
281
     0
  0
ENDSEC
  0
SECTION
  2
TABLES
  0
TABLE
  2
VPORT
  5
8
330
0
100
AcDbSymbolTable
 70
     1
  0
VPORT
  5
57
330
8
100
AcDbSymbolTableRecord
100
AcDbViewportTableRecord
  2
*Active
 70
     0
 10
0.0
 20
0.0
 11
1.0
 21
1.0
 12
0.0
 22
0.0
 13
0.0
 23
0.0
 14
1.0
 24
1.0
 15
0.0
 25
0.0
 16
0.0
 26
0.0
 36
1.0
 17
104.9999999737534
 27
-148.4999999628701
 37
0.0
 40
302.939999924255
 41
0.7070707070707534
 42
50.0
 43
0.0
 44
0.0
 50
0.0
 51
0.0
 71
     0
 72
   100
 73
     1
 74
     0
 75
     1
 76
     0
 77
     0
 78
     0
281
     0
 65
     1
110
0.0
120
0.0
130
0.0
111
1.0
121
0.0
131
0.0
112
0.0
122
1.0
132
0.0
 79
     0
146
0.0
 60
     3
 61
     5
292
     1
282
     1
141
0.0
142
0.0
 63
   250
421
  3355443
  0
ENDTAB
  0
TABLE
  2
LTYPE
  5
5
330
0
100
AcDbSymbolTable
 70
     2
  0
LTYPE
  5
5B
330
5
100
AcDbSymbolTableRecord
100
AcDbLinetypeTableRecord
  2
ByBlock
 70
     0
  3

 72
    65
 73
     0
 40
0.0
  0
LTYPE
  5
5C
330
5
100
AcDbSymbolTableRecord
100
AcDbLinetypeTableRecord
  2
ByLayer
 70
     0
  3

 72
    65
 73
     0
 40
0.0
  0
LTYPE
  5
5D
330
5
100
AcDbSymbolTableRecord
100
AcDbLinetypeTableRecord
  2
Continuous
 70
     0
  3
Solid line
 72
    65
 73
     0
 40
0.0
  0
LTYPE
  5
12D
330
5
100
AcDbSymbolTableRecord
100
AcDbLinetypeTableRecord
  2
AI-Linetype-0
 70
     0
  3
Adobe Illustrator Linetype No. 0
 72
    65
 73
     2
 40
1.411111110758333
 49
0.7055555553791667
 74
     0
 49
-0.7055555553791667
 74
     0
  0
ENDTAB
  0
TABLE
  2
LAYER
  5
2
330
0
100
AcDbSymbolTable
 70
     2
  0
LAYER
  5
54
330
2
100
AcDbSymbolTableRecord
100
AcDbLayerTableRecord
  2
0
 70
     0
 62
     7
  6
Continuous
370
    -3
390
F
347
21
  0
LAYER
  5
78
330
2
100
AcDbSymbolTableRecord
100
AcDbLayerTableRecord
  2
レイヤー 1
 70
     0
 62
     7
  6
Continuous
370
     0
390
F
347
21
  0
ENDTAB
  0
TABLE
  2
STYLE
  5
3
330
0
100
AcDbSymbolTable
 70
     2
  0
STYLE
  5
55
330
3
100
AcDbSymbolTableRecord
100
AcDbTextStyleTableRecord
  2
Standard
 70
     0
 40
0.0
 41
1.0
 50
0.0
 71
     0
 42
0.2
  3
txt
  4

  0
STYLE
  5
5A
330
3
100
AcDbSymbolTableRecord
100
AcDbTextStyleTableRecord
  2
Annotative
 70
     0
 40
0.0
 41
1.0
 50
0.0
 71
     0
 42
0.2
  3
txt
  4

1001
AcadAnnotative
1000
AnnotativeData
1002
{
1070
     1
1070
     1
1002
}
  0
ENDTAB
  0
TABLE
  2
VIEW
  5
6
330
0
100
AcDbSymbolTable
 70
     0
  0
ENDTAB
  0
TABLE
  2
UCS
  5
7
330
0
100
AcDbSymbolTable
 70
     0
  0
ENDTAB
  0
TABLE
  2
APPID
  5
9
330
0
100
AcDbSymbolTable
 70
     2
  0
APPID
  5
56
330
9
100
AcDbSymbolTableRecord
100
AcDbRegAppTableRecord
  2
ACAD
 70
     0
  0
APPID
  5
5E
330
9
100
AcDbSymbolTableRecord
100
AcDbRegAppTableRecord
  2
AcadAnnotative
 70
     0
  0
ENDTAB
  0
TABLE
  2
DIMSTYLE
  5
A
330
0
100
AcDbSymbolTable
 70
     2
100
AcDbDimStyleTable
 71
     0
  0
DIMSTYLE
105
58
330
A
100
AcDbSymbolTableRecord
100
AcDbDimStyleTableRecord
  2
Standard
 70
     0
340
55
  0
DIMSTYLE
105
59
330
A
100
AcDbSymbolTableRecord
100
AcDbDimStyleTableRecord
  2
Annotative
 70
     0
340
55
1001
AcadAnnotative
1000
AnnotativeData
1002
{
1070
     1
1070
     1
1002
}
  0
ENDTAB
  0
TABLE
  2
BLOCK_RECORD
  5
1
330
0
100
AcDbSymbolTable
 70
    17
  0
BLOCK_RECORD
  5
70
330
1
100
AcDbSymbolTableRecord
100
AcDbBlockTableRecord
  2
*Model_Space
340
73
 70
     0
280
     1
281
     0
  0
BLOCK_RECORD
  5
6C
330
1
100
AcDbSymbolTableRecord
100
AcDbBlockTableRecord
  2
*Paper_Space
340
6F
 70
     0
280
     1
281
     0
  0
BLOCK_RECORD
  5
74
330
1
100
AcDbSymbolTableRecord
100
AcDbBlockTableRecord
  2
*Paper_Space0
340
77
 70
     0
280
     1
281
     0
  0
BLOCK_RECORD
  5
79
330
1
100
AcDbSymbolTableRecord
100
AcDbBlockTableRecord
  2
Block_0
340
0
102
{BLKREFS
331
7A
102
}
 70
     0
280
     1
281
     0
  0
BLOCK_RECORD
  5
B8
330
1
100
AcDbSymbolTableRecord
100
AcDbBlockTableRecord
  2
Block_1
340
0
102
{BLKREFS
331
B9
102
}
 70
     0
280
     1
281
     0
  0
BLOCK_RECORD
  5
BC
330
1
100
AcDbSymbolTableRecord
100
AcDbBlockTableRecord
  2
Block_2
340
0
102
{BLKREFS
331
BD
102
}
 70
     0
280
     1
281
     0
  0
BLOCK_RECORD
  5
C9
330
1
100
AcDbSymbolTableRecord
100
AcDbBlockTableRecord
  2
Block_3
340
0
102
{BLKREFS
331
CA
102
}
 70
     0
280
     1
281
     0
  0
BLOCK_RECORD
  5
CD
330
1
100
AcDbSymbolTableRecord
100
AcDbBlockTableRecord
  2
Block_4
340
0
102
{BLKREFS
331
CE
102
}
 70
     0
280
     1
281
     0
  0
BLOCK_RECORD
  5
D7
330
1
100
AcDbSymbolTableRecord
100
AcDbBlockTableRecord
  2
Block_5
340
0
102
{BLKREFS
331
D8
102
}
 70
     0
280
     1
281
     0
  0
BLOCK_RECORD
  5
E2
330
1
100
AcDbSymbolTableRecord
100
AcDbBlockTableRecord
  2
Block_6
340
0
102
{BLKREFS
331
E3
102
}
 70
     0
280
     1
281
     0
  0
BLOCK_RECORD
  5
E6
330
1
100
AcDbSymbolTableRecord
100
AcDbBlockTableRecord
  2
Block_7
340
0
102
{BLKREFS
331
E7
102
}
 70
     0
280
     1
281
     0
  0
BLOCK_RECORD
  5
F4
330
1
100
AcDbSymbolTableRecord
100
AcDbBlockTableRecord
  2
Block_8
340
0
102
{BLKREFS
331
F5
102
}
 70
     0
280
     1
281
     0
  0
BLOCK_RECORD
  5
F8
330
1
100
AcDbSymbolTableRecord
100
AcDbBlockTableRecord
  2
Block_9
340
0
102
{BLKREFS
331
F9
102
}
 70
     0
280
     1
281
     0
  0
BLOCK_RECORD
  5
102
330
1
100
AcDbSymbolTableRecord
100
AcDbBlockTableRecord
  2
Block_10
340
0
102
{BLKREFS
331
103
102
}
 70
     0
280
     1
281
     0
  0
BLOCK_RECORD
  5
108
330
1
100
AcDbSymbolTableRecord
100
AcDbBlockTableRecord
  2
Block_11
340
0
102
{BLKREFS
331
109
102
}
 70
     0
280
     1
281
     0
  0
BLOCK_RECORD
  5
12E
330
1
100
AcDbSymbolTableRecord
100
AcDbBlockTableRecord
  2
Block_12
340
0
102
{BLKREFS
331
12F
102
}
 70
     0
280
     1
281
     0
  0
BLOCK_RECORD
  5
132
330
1
100
AcDbSymbolTableRecord
100
AcDbBlockTableRecord
  2
Block_13
340
0
102
{BLKREFS
331
133
102
}
 70
     0
280
     1
281
     0
  0
BLOCK_RECORD
  5
139
330
1
100
AcDbSymbolTableRecord
100
AcDbBlockTableRecord
  2
Block_14
340
0
102
{BLKREFS
331
13A
102
}
 70
     0
280
     1
281
     0
  0
BLOCK_RECORD
  5
13D
330
1
100
AcDbSymbolTableRecord
100
AcDbBlockTableRecord
  2
Block_15
340
0
102
{BLKREFS
331
13E
102
}
 70
     0
280
     1
281
     0
  0
ENDTAB
  0
ENDSEC
  0
SECTION
  2
BLOCKS
  0
BLOCK
  5
71
330
70
100
AcDbEntity
  8
0
100
AcDbBlockBegin
  2
*Model_Space
 70
     0
 10
0.0
 20
0.0
 30
0.0
  3
*Model_Space
  1

  0
ENDBLK
  5
72
330
70
100
AcDbEntity
  8
0
100
AcDbBlockEnd
  0
BLOCK
  5
6D
330
6C
100
AcDbEntity
 67
     1
  8
0
100
AcDbBlockBegin
  2
*Paper_Space
 70
     0
 10
0.0
 20
0.0
 30
0.0
  3
*Paper_Space
  1

  0
ENDBLK
  5
6E
330
6C
100
AcDbEntity
 67
     1
  8
0
100
AcDbBlockEnd
  0
BLOCK
  5
75
330
74
100
AcDbEntity
 67
     1
  8
0
100
AcDbBlockBegin
  2
*Paper_Space0
 70
     0
 10
0.0
 20
0.0
 30
0.0
  3
*Paper_Space0
  1

  0
ENDBLK
  5
76
330
74
100
AcDbEntity
 67
     1
  8
0
100
AcDbBlockEnd
  0
BLOCK
  5
7B
330
79
100
AcDbEntity
  8
0
100
AcDbBlockBegin
  2
Block_0
 70
     0
 10
0.0
 20
0.0
 30
0.0
  3
Block_0
  1

  0
LINE
  5
7D
330
79
100
AcDbEntity
  8
レイヤー 1
 62
   250
420
  2299925
370
    25
100
AcDbLine
 10
111.7861411457995
 20
-153.9281213913443
 30
0.0
 11
99.78630551755827
 21
-153.9281213913443
 31
0.0
  0
LINE
  5
7E
330
79
100
AcDbEntity
  8
レイヤー 1
 62
   250
420
  2299925
370
    25
100
AcDbLine
 10
79.78475852784024
 20
-145.4276938934695
 30
0.0
 11
79.78475852784024
 21
-145.9279327822332
 31
0.0
  0
LINE
  5
7F
330
79
100
AcDbEntity
  8
レイヤー 1
 62
   250
420
  2299925
370
    25
100
AcDbLine
 10
99.78630551755827
 20
-145.9279327822332
 30
0.0
 11
79.78475852784024
 21
-145.9279327822332
 31
0.0
  0
LINE
  5
80
330
79
100
AcDbEntity
  8
レイヤー 1
 62
   250
420
  2299925
370
    25
100
AcDbLine
 10
79.78475852784024
 20
-145.4276938934695
 30
0.0
 11
80.2987557369493
 21
-145.8101050044846
 31
0.0
  0
LINE
  5
81
330
79
100
AcDbEntity
  8
レイヤー 1
 62
   250
420
  2299925
370
    25
100
AcDbLine
 10
80.2987557369493
 20
-145.8101050044846
 30
0.0
 11
80.78382516901891
 21
-145.3925572268111
 31
0.0
  0
LINE
  5
82
330
79
100
AcDbEntity
  8
レイヤー 1
 62
   250
420
  2299925
370
    25
100
AcDbLine
 10
81.29785765590453
 20
-145.7742980600495
 30
0.0
 11
81.78359736573449
 21
-145.356750282376
 31
0.0
  0
LINE
  5
83
330
79
100
AcDbEntity
  8
レイヤー 1
 62
   250
420
  2299925
370
    25
100
AcDbLine
 10
80.78382516901891
 20
-145.3925572268111
 30
0.0
 11
81.29785765590453
 21
-145.7742980600495
 31
0.0
  0
LINE
  5
84
330
79
100
AcDbEntity
  8
レイヤー 1
 62
   250
420
  2299925
370
    25
100
AcDbLine
 10
81.78359736573449
 20
-145.356750282376
 30
0.0
 11
82.29762985262043
 21
-145.7384558378363
 31
0.0
  0
LINE
  5
85
330
79
100
AcDbEntity
  8
レイヤー 1
 62
   250
420
  2299925
370
    25
100
AcDbLine
 10
82.29762985262043
 20
-145.7384558378363
 30
0.0
 11
82.78269928468972
 21
-145.3209080601631
 31
0.0
  0
LINE
  5
86
330
79
100
AcDbEntity
  8
レイヤー 1
 62
   250
420
  2299925
370
    25
100
AcDbLine
 10
82.78269928468972
 20
-145.3209080601631
 30
0.0
 11
83.29669649379878
 21
-145.702613615623
 31
0.0
  0
LINE
  5
87
330
79
100
AcDbEntity
  8
レイヤー 1
 62
   250
420
  2299925
370
    25
100
AcDbLine
 10
83.29669649379878
 20
-145.702613615623
 30
0.0
 11
83.78211870363685
 21
-145.2850658379495
 31
0.0
  0
LINE
  5
88
330
79
100
AcDbEntity
  8
レイヤー 1
 62
   250
420
  2299925
370
    25
100
AcDbLine
 10
83.78211870363685
 20
-145.2850658379495
 30
0.0
 11
84.29611591274591
 21
-145.6668066711873
 31
0.0
  0
LINE
  5
89
330
79
100
AcDbEntity
  8
レイヤー 1
 62
   250
420
  2299925
370
    25
100
AcDbLine
 10
84.29611591274591
 20
-145.6668066711873
 30
0.0
 11
84.78153812258399
 21
-145.2492588935138
 31
0.0
  0
LINE
  5
8A
330
79
100
AcDbEntity
  8
レイヤー 1
 62
   250
420
  2299925
370
    25
100
AcDbLine
 10
84.78153812258399
 20
-145.2492588935138
 30
0.0
 11
85.29553533169305
 21
-145.6316700045296
 31
0.0
  0
LINE
  5
8B
330
79
100
AcDbEntity
  8
レイヤー 1
 62
   250
420
  2299925
370
    25
100
AcDbLine
 10
85.29553533169305
 20
-145.6316700045296
 30
0.0
 11
85.78095754153112
 21
-145.214122226856
 31
0.0
  0
LINE
  5
8C
330
79
100
AcDbEntity
  8
レイヤー 1
 62
   250
420
  2299925
370
    25
100
AcDbLine
 10
85.78095754153112
 20
-145.214122226856
 30
0.0
 11
86.29460197287141
 21
-145.5958277823163
 31
0.0
  0
LINE
  5
8D
330
79
100
AcDbEntity
  8
レイヤー 1
 62
   250
420
  2299925
370
    25
100
AcDbLine
 10
86.29460197287141
 20
-145.5958277823163
 30
0.0
 11
86.78037696047825
 21
-145.1782800046428
 31
0.0
  0
LINE
  5
8E
330
79
100
AcDbEntity
  8
レイヤー 1
 62
   250
420
  2299925
370
    25
100
AcDbLine
 10
87.29437416958765
 20
-145.559985560103
 30
0.0
 11
87.77944360165692
 21
-145.1424730602071
 31
0.0
  0
LINE
  5
8F
330
79
100
AcDbEntity
  8
レイヤー 1
 62
   250
420
  2299925
370
    25
100
AcDbLine
 10
86.78037696047825
 20
-145.1782800046428
 30
0.0
 11
87.29437416958765
 21
-145.559985560103
 31
0.0
  0
LINE
  5
90
330
79
100
AcDbEntity
  8
レイヤー 1
 62
   250
420
  2299925
370
    25
100
AcDbLine
 10
87.77944360165692
 20
-145.1424730602071
 30
0.0
 11
88.29347608854254
 21
-145.5241786156673
 31
0.0
  0
LINE
  5
91
330
79
100
AcDbEntity
  8
レイヤー 1
 62
   250
420
  2299925
370
    25
100
AcDbLine
 10
88.29347608854254
 20
-145.5241786156673
 30
0.0
 11
88.77921579837252
 21
-145.1066308379938
 31
0.0
  0
LINE
  5
92
330
79
100
AcDbEntity
  8
レイヤー 1
 62
   250
420
  2299925
370
    25
100
AcDbLine
 10
89.29321300748158
 20
-145.4883363934541
 30
0.0
 11
89.77828243955086
 21
-145.0707886157806
 31
0.0
  0
LINE
  5
93
330
79
100
AcDbEntity
  8
レイヤー 1
 62
   250
420
  2299925
370
    25
100
AcDbLine
 10
88.77921579837252
 20
-145.1066308379938
 30
0.0
 11
89.29321300748158
 21
-145.4883363934541
 31
0.0
  0
LINE
  5
94
330
79
100
AcDbEntity
  8
レイヤー 1
 62
   250
420
  2299925
370
    25
100
AcDbLine
 10
90.29231492643649
 20
-145.4531997267967
 30
0.0
 11
90.77805463626678
 21
-145.0356519491228
 31
0.0
  0
LINE
  5
95
330
79
100
AcDbEntity
  8
レイヤー 1
 62
   250
420
  2299925
370
    25
100
AcDbLine
 10
89.77828243955086
 20
-145.0707886157806
 30
0.0
 11
90.29231492643649
 21
-145.4531997267967
 31
0.0
  0
LINE
  5
96
330
79
100
AcDbEntity
  8
レイヤー 1
 62
   250
420
  2299925
370
    25
100
AcDbLine
 10
90.77805463626678
 20
-145.0356519491228
 30
0.0
 11
91.29208712315271
 21
-145.4173575045831
 31
0.0
  0
LINE
  5
97
330
79
100
AcDbEntity
  8
レイヤー 1
 62
   250
420
  2299925
370
    25
100
AcDbLine
 10
91.29208712315271
 20
-145.4173575045831
 30
0.0
 11
91.77715655522201
 21
-144.9998450046871
 31
0.0
  0
LINE
  5
98
330
79
100
AcDbEntity
  8
レイヤー 1
 62
   250
420
  2299925
370
    25
100
AcDbLine
 10
91.77715655522201
 20
-144.9998450046871
 30
0.0
 11
92.29115376433107
 21
-145.3815505601474
 31
0.0
  0
LINE
  5
99
330
79
100
AcDbEntity
  8
レイヤー 1
 62
   250
420
  2299925
370
    25
100
AcDbLine
 10
92.29115376433107
 20
-145.3815505601474
 30
0.0
 11
92.77622319640036
 21
-144.9640027824739
 31
0.0
  0
LINE
  5
9A
330
79
100
AcDbEntity
  8
レイヤー 1
 62
   250
420
  2299925
370
    25
100
AcDbLine
 10
92.77622319640036
 20
-144.9640027824739
 30
0.0
 11
93.29022040550942
 21
-145.3457083379341
 31
0.0
  0
LINE
  5
9B
330
79
100
AcDbEntity
  8
レイヤー 1
 62
   250
420
  2299925
370
    25
100
AcDbLine
 10
93.29022040550942
 20
-145.3457083379341
 30
0.0
 11
93.77599539311628
 21
-144.9281605602606
 31
0.0
  0
LINE
  5
9C
330
79
100
AcDbEntity
  8
レイヤー 1
 62
   250
420
  2299925
370
    25
100
AcDbLine
 10
93.77599539311628
 20
-144.9281605602606
 30
0.0
 11
94.28999260222566
 21
-145.3099013934984
 31
0.0
  0
LINE
  5
9D
330
79
100
AcDbEntity
  8
レイヤー 1
 62
   250
420
  2299925
370
    25
100
AcDbLine
 10
94.28999260222566
 20
-145.3099013934984
 30
0.0
 11
94.77506203429461
 21
-144.8923536158255
 31
0.0
  0
LINE
  5
9E
330
79
100
AcDbEntity
  8
レイヤー 1
 62
   250
420
  2299925
370
    25
100
AcDbLine
 10
94.77506203429461
 20
-144.8923536158255
 30
0.0
 11
95.28905924340369
 21
-145.2747647268407
 31
0.0
  0
LINE
  5
9F
330
79
100
AcDbEntity
  8
レイヤー 1
 62
   250
420
  2299925
370
    25
100
AcDbLine
 10
95.28905924340369
 20
-145.2747647268407
 30
0.0
 11
95.77483423101053
 21
-144.8572169491672
 31
0.0
  0
LINE
  5
A0
330
79
100
AcDbEntity
  8
レイヤー 1
 62
   250
420
  2299925
370
    25
100
AcDbLine
 10
95.77483423101053
 20
-144.8572169491672
 30
0.0
 11
96.28883144011959
 21
-145.2389225046274
 31
0.0
  0
LINE
  5
A1
330
79
100
AcDbEntity
  8
レイヤー 1
 62
   250
420
  2299925
370
    25
100
AcDbLine
 10
96.28883144011959
 20
-145.2389225046274
 30
0.0
 11
96.77390087218856
 21
-144.8213747269539
 31
0.0
  0
LINE
  5
A2
330
79
100
AcDbEntity
  8
レイヤー 1
 62
   250
420
  2299925
370
    25
100
AcDbLine
 10
96.77390087218856
 20
-144.8213747269539
 30
0.0
 11
97.28789808129826
 21
-145.2030802824142
 31
0.0
  0
LINE
  5
A3
330
79
100
AcDbEntity
  8
レイヤー 1
 62
   250
420
  2299925
370
    25
100
AcDbLine
 10
97.28789808129826
 20
-145.2030802824142
 30
0.0
 11
97.77367306890511
 21
-144.7855325047407
 31
0.0
  0
LINE
  5
A4
330
79
100
AcDbEntity
  8
レイヤー 1
 62
   250
420
  2299925
370
    25
100
AcDbLine
 10
97.77367306890511
 20
-144.7855325047407
 30
0.0
 11
98.28767027801385
 21
-145.1672733379791
 31
0.0
  0
LINE
  5
A5
330
79
100
AcDbEntity
  8
レイヤー 1
 62
   250
420
  2299925
370
    25
100
AcDbLine
 10
98.28767027801385
 20
-145.1672733379791
 30
0.0
 11
98.77273971008314
 21
-144.7497255603056
 31
0.0
  0
LINE
  5
A6
330
79
100
AcDbEntity
  8
レイヤー 1
 62
   250
420
  2299925
370
    25
100
AcDbLine
 10
98.77273971008314
 20
-144.7497255603056
 30
0.0
 11
99.28677219696908
 21
-145.1314311157658
 31
0.0
  0
LINE
  5
A7
330
79
100
AcDbEntity
  8
レイヤー 1
 62
   250
420
  2299925
370
    25
100
AcDbLine
 10
99.28677219696908
 20
-145.1314311157658
 30
0.0
 11
99.77251190679906
 21
-144.7138833380923
 31
0.0
  0
LINE
  5
A8
330
79
100
AcDbEntity
  8
レイヤー 1
 62
   250
420
  2299925
370
    25
100
AcDbLine
 10
99.84650911601706
 20
-144.6656586158819
 30
0.0
 11
100.7860777142741
 21
-144.6656586158819
 31
0.0
  0
LINE
  5
A9
330
79
100
AcDbEntity
  8
レイヤー 1
 62
   250
420
  2299925
370
    25
100
AcDbLine
 10
100.7860777142741
 20
-144.6656586158819
 30
0.0
 11
100.7860777142741
 21
-152.9276788915944
 31
0.0
  0
LINE
  5
AA
330
79
100
AcDbEntity
  8
レイヤー 1
 62
   250
420
  2299925
370
    25
100
AcDbLine
 10
99.78630551755827
 20
-145.9279327822332
 30
0.0
 11
99.78630551755827
 21
-153.9281213913443
 31
0.0
  0
LINE
  5
AB
330
79
100
AcDbEntity
  8
レイヤー 1
 62
   250
420
  2299925
370
    25
100
AcDbLine
 10
110.7856986713229
 20
-152.9276788915944
 30
0.0
 11
100.7860777142741
 21
-152.9276788915944
 31
0.0
  0
LINE
  5
AC
330
79
100
AcDbEntity
  8
レイヤー 1
 62
   250
420
  2299925
370
    25
100
AcDbLine
 10
110.7856987825845
 20
-144.6656586158819
 30
0.0
 11
110.7856987825845
 21
-152.9276788915944
 31
0.0
  0
LINE
  5
AD
330
79
100
AcDbEntity
  8
レイヤー 1
 62
   250
420
  2299925
370
    25
100
AcDbLine
 10
111.7861412570611
 20
-144.6656586158819
 30
0.0
 11
111.7861412570611
 21
-153.9281213913443
 31
0.0
  0
CIRCLE
  5
AE
330
79
100
AcDbEntity
  8
レイヤー 1
 62
   250
420
  2299925
370
     9
100
AcDbCircle
 10
79.78475852784024
 20
-140.6658994502155
 30
0.0
 40
0.0999066653799771
  0
SPLINE
  5
AF
330
79
100
AcDbEntity
  8
レイヤー 1
 62
   250
420
  2299925
370
     9
100
AcDbSpline
210
0.0
220
0.0
230
1.0
 70
     9
 71
     3
 72
    17
 73
    13
 74
     0
 42
0.0000000001
 43
0.0000000001
 40
0.0
 40
0.0
 40
0.0
 40
0.0
 40
1.0
 40
1.0
 40
1.0
 40
2.0
 40
2.0
 40
2.0
 40
3.0
 40
3.0
 40
3.0
 40
4.0
 40
4.0
 40
4.0
 40
4.0
 10
75.88490612733408
 20
-145.4276938934695
 30
0.0
 10
75.88490612733408
 20
-145.3725900045939
 30
0.0
 10
75.84013862847587
 20
-145.3277872268278
 30
0.0
 10
75.78464668544715
 20
-145.3277872268278
 30
0.0
 10
75.7295427979644
 20
-145.3277872268278
 30
0.0
 10
75.68474002132932
 20
-145.3725900045939
 30
0.0
 10
75.68474002132932
 20
-145.4276938934695
 30
0.0
 10
75.68474002132932
 20
-145.4828330601219
 30
0.0
 10
75.7295427979644
 20
-145.5276005601111
 30
0.0
 10
75.78464668544715
 20
-145.5276005601111
 30
0.0
 10
75.84013862847587
 20
-145.5276005601111
 30
0.0
 10
75.88490612733408
 20
-145.4828330601219
 30
0.0
 10
75.88490612733408
 20
-145.4276938934695
 30
0.0
  0
SPLINE
  5
B0
330
79
100
AcDbEntity
  8
レイヤー 1
 62
   250
420
  2299925
370
     9
100
AcDbSpline
210
0.0
220
0.0
230
1.0
 70
     9
 71
     3
 72
    17
 73
    13
 74
     0
 42
0.0000000001
 43
0.0000000001
 40
0.0
 40
0.0
 40
0.0
 40
0.0
 40
1.0
 40
1.0
 40
1.0
 40
2.0
 40
2.0
 40
2.0
 40
3.0
 40
3.0
 40
3.0
 40
4.0
 40
4.0
 40
4.0
 40
4.0
 10
75.88490612733408
 20
-145.9279327822332
 30
0.0
 10
75.88490612733408
 20
-145.8728288933583
 30
0.0
 10
75.84013862847587
 20
-145.8280261155919
 30
0.0
 10
75.78464668544715
 20
-145.8280261155919
 30
0.0
 10
75.7295427979644
 20
-145.8280261155919
 30
0.0
 10
75.68474002132932
 20
-145.8728288933583
 30
0.0
 10
75.68474002132932
 20
-145.9279327822332
 30
0.0
 10
75.68474002132932
 20
-145.9830719488863
 30
0.0
 10
75.7295427979644
 20
-146.0278394488748
 30
0.0
 10
75.78464668544715
 20
-146.0278394488748
 30
0.0
 10
75.84013862847587
 20
-146.0278394488748
 30
0.0
 10
75.88490612733408
 20
-145.9830719488863
 30
0.0
 10
75.88490612733408
 20
-145.9279327822332
 30
0.0
  0
SPLINE
  5
B1
330
79
100
AcDbEntity
  8
レイヤー 1
 62
   250
420
  2299925
370
     9
100
AcDbSpline
210
0.0
220
0.0
230
1.0
 70
     9
 71
     3
 72
    17
 73
    13
 74
     0
 42
0.0000000001
 43
0.0000000001
 40
0.0
 40
0.0
 40
0.0
 40
0.0
 40
1.0
 40
1.0
 40
1.0
 40
2.0
 40
2.0
 40
2.0
 40
3.0
 40
3.0
 40
3.0
 40
4.0
 40
4.0
 40
4.0
 40
4.0
 10
75.88490612733408
 20
-153.9281213913443
 30
0.0
 10
75.88490612733408
 20
-153.8730175024694
 30
0.0
 10
75.84013862847587
 20
-153.8282147247027
 30
0.0
 10
75.78464668544715
 20
-153.8282147247027
 30
0.0
 10
75.7295427979644
 20
-153.8282147247027
 30
0.0
 10
75.68474002132932
 20
-153.8730175024694
 30
0.0
 10
75.68474002132932
 20
-153.9281213913443
 30
0.0
 10
75.68474002132932
 20
-153.9832605579974
 30
0.0
 10
75.7295427979644
 20
-154.0280633357635
 30
0.0
 10
75.78464668544715
 20
-154.0280633357635
 30
0.0
 10
75.84013862847587
 20
-154.0280633357635
 30
0.0
 10
75.88490612733408
 20
-153.9832605579974
 30
0.0
 10
75.88490612733408
 20
-153.9281213913443
 30
0.0
  0
CIRCLE
  5
B2
330
79
100
AcDbEntity
  8
レイヤー 1
 62
   250
420
  2299925
370
     9
100
AcDbCircle
 10
100.7860777142742
 20
-140.6658994502155
 30
0.0
 40
0.0999066653800172
  0
CIRCLE
  5
B3
330
79
100
AcDbEntity
  8
レイヤー 1
 62
   250
420
  2299925
370
     9
100
AcDbCircle
 10
110.7856987825845
 20
-140.6658994502155
 30
0.0
 40
0.0999066653799771
  0
LINE
  5
B4
330
79
100
AcDbEntity
  8
レイヤー 1
 62
   250
420
  2299925
370
     9
100
AcDbLine
 10
75.78464668544715
 20
-145.4276938934695
 30
0.0
 11
75.78464668544715
 21
-140.1697880614505
 31
0.0
  0
LINE
  5
B5
330
79
100
AcDbEntity
  8
レイヤー 1
 62
   250
420
  2299925
370
     9
100
AcDbLine
 10
75.78464668544715
 20
-145.4276938934695
 30
0.0
 11
75.78464668544715
 21
-145.9279327822332
 31
0.0
  0
LINE
  5
B6
330
79
100
AcDbEntity
  8
レイヤー 1
 62
   250
420
  2299925
370
     9
100
AcDbLine
 10
77.24468803708728
 20
-145.4276938934695
 30
0.0
 11
74.78455698873934
 21
-145.4276938934695
 31
0.0
  0
LINE
  5
B7
330
79
100
AcDbEntity
  8
レイヤー 1
 62
   250
420
  2299925
370
     9
100
AcDbLine
 10
77.24468803708728
 20
-145.9279327822332
 30
0.0
 11
74.78455698873934
 21
-145.9279327822332
 31
0.0
  0
INSERT
  5
B9
330
79
100
AcDbEntity
  8
レイヤー 1
100
AcDbBlockReference
  2
Block_1
 10
0.0
 20
0.0
 30
0.0
  0
LINE
  5
C7
330
79
100
AcDbEntity
  8
レイヤー 1
 62
   250
420
  2299925
370
     9
100
AcDbLine
 10
79.78475852784024
 20
-140.6658994502156
 30
0.0
 11
100.7860777142741
 21
-140.6658994502156
 31
0.0
  0
LINE
  5
C8
330
79
100
AcDbEntity
  8
レイヤー 1
 62
   250
420
  2299925
370
     9
100
AcDbLine
 10
79.78475852784024
 20
-142.8879761163263
 30
0.0
 11
79.78475852784024
 21
-139.6661272282431
 31
0.0
  0
INSERT
  5
CA
330
79
100
AcDbEntity
  8
レイヤー 1
100
AcDbBlockReference
  2
Block_3
 10
0.0
 20
0.0
 30
0.0
  0
LINE
  5
D5
330
79
100
AcDbEntity
  8
レイヤー 1
 62
   250
420
  2299925
370
     9
100
AcDbLine
 10
75.78464668544715
 20
-145.9279327822332
 30
0.0
 11
75.78464668544715
 21
-153.9281213913443
 31
0.0
  0
LINE
  5
D6
330
79
100
AcDbEntity
  8
レイヤー 1
 62
   250
420
  2299925
370
     9
100
AcDbLine
 10
97.24658780457408
 20
-153.9281213913443
 30
0.0
 11
74.78455698873934
 21
-153.9281213913443
 31
0.0
  0
INSERT
  5
D8
330
79
100
AcDbEntity
  8
レイヤー 1
100
AcDbBlockReference
  2
Block_5
 10
0.0
 20
0.0
 30
0.0
  0
LINE
  5
DF
330
79
100
AcDbEntity
  8
レイヤー 1
 62
   250
420
  2299925
370
     9
100
AcDbLine
 10
100.7860777142741
 20
-140.6658994502156
 30
0.0
 11
110.7856986713229
 21
-140.6658994502156
 31
0.0
  0
LINE
  5
E0
330
79
100
AcDbEntity
  8
レイヤー 1
 62
   250
420
  2299925
370
     9
100
AcDbLine
 10
100.7860777142741
 20
-142.1259408387393
 30
0.0
 11
100.7860777142741
 21
-139.6661272282431
 31
0.0
  0
LINE
  5
E1
330
79
100
AcDbEntity
  8
レイヤー 1
 62
   250
420
  2299925
370
     9
100
AcDbLine
 10
110.7856987825845
 20
-142.1259408387393
 30
0.0
 11
110.7856987825845
 21
-139.6661272282431
 31
0.0
  0
INSERT
  5
E3
330
79
100
AcDbEntity
  8
レイヤー 1
100
AcDbBlockReference
  2
Block_6
 10
0.0
 20
0.0
 30
0.0
  0
SPLINE
  5
EF
330
79
100
AcDbEntity
  8
レイヤー 1
 62
   250
420
  2299925
370
     9
100
AcDbSpline
210
0.0
220
0.0
230
1.0
 70
     9
 71
     3
 72
    17
 73
    13
 74
     0
 42
0.0000000001
 43
0.0000000001
 40
0.0
 40
0.0
 40
0.0
 40
0.0
 40
1.0
 40
1.0
 40
1.0
 40
2.0
 40
2.0
 40
2.0
 40
3.0
 40
3.0
 40
3.0
 40
4.0
 40
4.0
 40
4.0
 40
4.0
 10
99.8862121816761
 20
-158.0415808347605
 30
0.0
 10
99.8862121816761
 20
-157.9864769458849
 30
0.0
 10
99.84074181423238
 20
-157.9416741681188
 30
0.0
 10
99.78559996202072
 20
-157.9416741681188
 30
0.0
 10
99.73049607453765
 20
-157.9416741681188
 30
0.0
 10
99.68569329790287
 20
-157.9864769458849
 30
0.0
 10
99.68569329790287
 20
-158.0415808347605
 30
0.0
 10
99.68569329790287
 20
-158.0967200014129
 30
0.0
 10
99.73049607453765
 20
-158.1414875014021
 30
0.0
 10
99.78559996202072
 20
-158.1414875014021
 30
0.0
 10
99.84074181423238
 20
-158.1414875014021
 30
0.0
 10
99.8862121816761
 20
-158.0967200014129
 30
0.0
 10
99.8862121816761
 20
-158.0415808347605
 30
0.0
  0
CIRCLE
  5
F0
330
79
100
AcDbEntity
  8
レイヤー 1
 62
   250
420
  2299925
370
     9
100
AcDbCircle
 10
111.7861412570611
 20
-158.0415808347605
 30
0.0
 40
0.0999066653797365
  0
LINE
  5
F1
330
79
100
AcDbEntity
  8
レイヤー 1
 62
   250
420
  2299925
370
     9
100
AcDbLine
 10
111.7861411457995
 20
-158.0415808347605
 30
0.0
 11
99.78559996202072
 21
-158.0415808347605
 31
0.0
  0
LINE
  5
F2
330
79
100
AcDbEntity
  8
レイヤー 1
 62
   250
420
  2299925
370
     9
100
AcDbLine
 10
111.7861412570611
 20
-156.5815394462368
 30
0.0
 11
111.7861412570611
 21
-159.0413530567324
 31
0.0
  0
LINE
  5
F3
330
79
100
AcDbEntity
  8
レイヤー 1
 62
   250
420
  2299925
370
     9
100
AcDbLine
 10
99.78559996202072
 20
-156.5815394462368
 30
0.0
 11
99.78559996202072
 21
-159.0413530567324
 31
0.0
  0
INSERT
  5
F5
330
79
100
AcDbEntity
  8
レイヤー 1
100
AcDbBlockReference
  2
Block_8
 10
0.0
 20
0.0
 30
0.0
  0
LINE
  5
100
330
79
100
AcDbEntity
  8
レイヤー 1
 62
   250
420
  2299925
370
    25
100
AcDbLine
 10
111.7861412570611
 20
-144.6656586158819
 30
0.0
 11
110.7856987825845
 21
-144.6656586158819
 31
0.0
  0
LINE
  5
101
330
79
100
AcDbEntity
  8
レイヤー 1
 62
   250
420
  2299925
370
     9
100
AcDbLine
 10
108.7275932795356
 20
-150.0730716700858
 30
0.0
 11
116.7278169643218
 21
-150.0730716700858
 31
0.0
  0
INSERT
  5
103
330
79
100
AcDbEntity
  8
レイヤー 1
100
AcDbBlockReference
  2
Block_10
 10
0.0
 20
0.0
 30
0.0
  0
INSERT
  5
109
330
79
100
AcDbEntity
  8
レイヤー 1
100
AcDbBlockReference
  2
Block_11
 10
0.0
 20
0.0
 30
0.0
  0
LINE
  5
12C
330
79
100
AcDbEntity
  8
レイヤー 1
  6
AI-Linetype-0
 62
   154
420
    23468
370
    25
100
AcDbLine
 10
79.78475852784024
 20
-146.8036683375694
 30
0.0
 11
89.78449132828137
 21
-146.8036683375694
 31
0.0
  0
INSERT
  5
12F
330
79
100
AcDbEntity
  8
レイヤー 1
100
AcDbBlockReference
  2
Block_12
 10
0.0
 20
0.0
 30
0.0
  0
ENDBLK
  5
7C
330
79
100
AcDbEntity
  8
0
100
AcDbBlockEnd
  0
BLOCK
  5
BA
330
B8
100
AcDbEntity
  8
0
100
AcDbBlockBegin
  2
Block_1
 70
     0
 10
0.0
 20
0.0
 30
0.0
  3
Block_1
  1

  0
INSERT
  5
BD
330
B8
100
AcDbEntity
  8
レイヤー 1
100
AcDbBlockReference
  2
Block_2
 10
0.0
 20
0.0
 30
0.0
  0
ENDBLK
  5
BB
330
B8
100
AcDbEntity
  8
0
100
AcDbBlockEnd
  0
BLOCK
  5
BE
330
BC
100
AcDbEntity
  8
0
100
AcDbBlockBegin
  2
Block_2
 70
     0
 10
0.0
 20
0.0
 30
0.0
  3
Block_2
  1

  0
SPLINE
  5
C0
330
BC
100
AcDbEntity
  8
レイヤー 1
100
AcDbSpline
210
0.0
220
0.0
230
1.0
 70
     9
 71
     3
 72
    17
 73
    13
 74
     0
 42
0.0000000001
 43
0.0000000001
 40
0.0
 40
0.0
 40
0.0
 40
0.0
 40
1.0
 40
1.0
 40
1.0
 40
2.0
 40
2.0
 40
2.0
 40
3.0
 40
3.0
 40
3.0
 40
4.0
 40
4.0
 40
4.0
 40
4.0
 10
72.94025063280661
 20
-146.5419595987811
 30
0.0
 10
72.94025063280661
 20
-146.7917290214618
 30
0.0
 10
73.22360973646841
 20
-146.8382378105127
 30
0.0
 10
73.56846379454191
 20
-146.8382378105127
 30
0.0
 10
73.88799640079884
 20
-146.8382378105127
 30
0.0
 10
74.19684921105148
 20
-146.8020643079175
 30
0.0
 10
74.19684921105148
 20
-146.5419595987811
 30
0.0
 10
74.19684921105148
 20
-146.2942572333917
 30
0.0
 10
73.91538490990658
 20
-146.2456813870497
 30
0.0
 10
73.56846379454191
 20
-146.2456813870497
 30
0.0
 10
73.24910344305926
 20
-146.2456813870497
 30
0.0
 10
72.94025063280661
 20
-146.2839219469359
 30
0.0
 10
72.94025063280661
 20
-146.5419595987811
 30
0.0
  0
SPLINE
  5
C1
330
BC
100
AcDbEntity
  8
レイヤー 1
100
AcDbSpline
210
0.0
220
0.0
230
1.0
 70
     9
 71
     3
 72
    29
 73
    25
 74
     0
 42
0.0000000001
 43
0.0000000001
 40
0.0
 40
0.0
 40
0.0
 40
0.0
 40
1.0
 40
1.0
 40
1.0
 40
2.0
 40
2.0
 40
2.0
 40
3.0
 40
3.0
 40
3.0
 40
4.0
 40
4.0
 40
4.0
 40
5.0
 40
5.0
 40
5.0
 40
6.0
 40
6.0
 40
6.0
 40
7.0
 40
7.0
 40
7.0
 40
8.0
 40
8.0
 40
8.0
 40
8.0
 10
74.16291502052178
 20
-146.1440510702348
 30
0.0
 10
74.37237682602496
 20
-146.2522270684717
 30
0.0
 10
74.3914971059681
 20
-146.4255153713797
 30
0.0
 10
74.3914971059681
 20
-146.5419595987811
 30
0.0
 10
74.3914971059681
 20
-146.7028455579423
 30
0.0
 10
74.34498831691723
 20
-146.8444389823861
 30
0.0
 10
74.16291502052178
 20
-146.939523617779
 30
0.0
 10
73.96843938037942
 20
-147.043220991885
 30
0.0
 10
73.73141681099423
 20
-147.0625135266024
 30
0.0
 10
73.56846379454191
 20
-147.0625135266024
 30
0.0
 10
73.42463105803273
 20
-147.0625135266024
 30
0.0
 10
73.17296683283522
 20
-147.0452880491762
 30
0.0
 10
72.97401256856206
 20
-146.939523617779
 30
0.0
 10
72.77092418970657
 20
-146.8316921290907
 30
0.0
 10
72.74766979518114
 20
-146.6708061699295
 30
0.0
 10
72.74766979518114
 20
-146.5419595987811
 30
0.0
 10
72.74766979518114
 20
-146.3831406969111
 30
0.0
 10
72.79211152694085
 20
-146.2394802151762
 30
0.0
 10
72.97401256856206
 20
-146.1440510702348
 30
0.0
 10
73.16659340618752
 20
-146.0448323202596
 30
0.0
 10
73.39500323685958
 20
-146.0214056709599
 30
0.0
 10
73.56846379454191
 20
-146.0214056709599
 30
0.0
 10
73.73985729493309
 20
-146.0214056709599
 30
0.0
 10
73.97050643767056
 20
-146.0427652629685
 30
0.0
 10
74.16291502052178
 20
-146.1440510702348
 30
0.0
  0
HATCH
  5
C2
330
BC
100
AcDbEntity
  8
レイヤー 1
 62
   250
420
  2299925
440
 33554687
100
AcDbHatch
 10
0.0
 20
0.0
 30
0.0
210
0.0
220
0.0
230
1.0
  2
SOLID
 70
     1
 71
     1
 91
        2
 92
        1
 93
        1
 72
     4
 94
        3
 73
     0
 74
     0
 95
       17
 96
       13
 40
0.0
 40
0.0
 40
0.0
 40
0.0
 40
1.0
 40
1.0
 40
1.0
 40
2.0
 40
2.0
 40
2.0
 40
3.0
 40
3.0
 40
3.0
 40
4.0
 40
4.0
 40
4.0
 40
4.0
 10
72.94025063280661
 20
-146.5419595987811
 10
72.94025063280661
 20
-146.7917290214618
 10
73.22360973646841
 20
-146.8382378105127
 10
73.56846379454191
 20
-146.8382378105127
 10
73.88799640079884
 20
-146.8382378105127
 10
74.19684921105148
 20
-146.8020643079175
 10
74.19684921105148
 20
-146.5419595987811
 10
74.19684921105148
 20
-146.2942572333917
 10
73.91538490990658
 20
-146.2456813870497
 10
73.56846379454191
 20
-146.2456813870497
 10
73.24910344305926
 20
-146.2456813870497
 10
72.94025063280661
 20
-146.2839219469359
 10
72.94025063280661
 20
-146.5419595987811
 97
        0
 97
        1
330
C0
 92
        1
 93
        1
 72
     4
 94
        3
 73
     0
 74
     0
 95
       29
 96
       25
 40
0.0
 40
0.0
 40
0.0
 40
0.0
 40
1.0
 40
1.0
 40
1.0
 40
2.0
 40
2.0
 40
2.0
 40
3.0
 40
3.0
 40
3.0
 40
4.0
 40
4.0
 40
4.0
 40
5.0
 40
5.0
 40
5.0
 40
6.0
 40
6.0
 40
6.0
 40
7.0
 40
7.0
 40
7.0
 40
8.0
 40
8.0
 40
8.0
 40
8.0
 10
74.16291502052178
 20
-146.1440510702348
 10
74.37237682602496
 20
-146.2522270684717
 10
74.3914971059681
 20
-146.4255153713797
 10
74.3914971059681
 20
-146.5419595987811
 10
74.3914971059681
 20
-146.7028455579423
 10
74.34498831691723
 20
-146.8444389823861
 10
74.16291502052178
 20
-146.939523617779
 10
73.96843938037942
 20
-147.043220991885
 10
73.73141681099423
 20
-147.0625135266024
 10
73.56846379454191
 20
-147.0625135266024
 10
73.42463105803273
 20
-147.0625135266024
 10
73.17296683283522
 20
-147.0452880491762
 10
72.97401256856206
 20
-146.939523617779
 10
72.77092418970657
 20
-146.8316921290907
 10
72.74766979518114
 20
-146.6708061699295
 10
72.74766979518114
 20
-146.5419595987811
 10
72.74766979518114
 20
-146.3831406969111
 10
72.79211152694085
 20
-146.2394802151762
 10
72.97401256856206
 20
-146.1440510702348
 10
73.16659340618752
 20
-146.0448323202596
 10
73.39500323685958
 20
-146.0214056709599
 10
73.56846379454191
 20
-146.0214056709599
 10
73.73985729493309
 20
-146.0214056709599
 10
73.97050643767056
 20
-146.0427652629685
 10
74.16291502052178
 20
-146.1440510702348
 97
        0
 97
        1
330
C1
 75
     2
 76
     1
 98
        1
 10
0.0
 20
0.0
450
        0
451
        0
460
0.0
461
0.0
452
        0
462
0.0
453
        0
470

  0
SPLINE
  5
C3
330
BC
100
AcDbEntity
  8
レイヤー 1
100
AcDbSpline
210
0.0
220
0.0
230
1.0
 70
    11
 71
     3
 72
    17
 73
    13
 74
     0
 42
0.0000000001
 43
0.0000000001
 40
0.0
 40
0.0
 40
0.0
 40
0.0
 40
1.0
 40
1.0
 40
1.0
 40
2.0
 40
2.0
 40
2.0
 40
3.0
 40
3.0
 40
3.0
 40
4.0
 40
4.0
 40
4.0
 40
4.0
 10
74.34068194756067
 20
-145.8050536744862
 30
0.0
 10
74.34068194756067
 20
-145.8050536744862
 30
0.0
 10
74.08901772236316
 20
-145.8050536744862
 30
0.0
 10
74.08901772236316
 20
-145.8050536744862
 30
0.0
 10
74.08901772236316
 20
-145.8050536744862
 30
0.0
 10
74.08901772236316
 20
-145.5532171945145
 30
0.0
 10
74.08901772236316
 20
-145.5532171945145
 30
0.0
 10
74.08901772236316
 20
-145.5532171945145
 30
0.0
 10
74.34068194756067
 20
-145.5532171945145
 30
0.0
 10
74.34068194756067
 20
-145.5532171945145
 30
0.0
 10
74.34068194756067
 20
-145.5532171945145
 30
0.0
 10
74.34068194756067
 20
-145.8050536744862
 30
0.0
 10
74.34068194756067
 20
-145.8050536744862
 30
0.0
  0
HATCH
  5
C4
330
BC
100
AcDbEntity
  8
レイヤー 1
 62
   250
420
  2299925
440
 33554687
100
AcDbHatch
 10
0.0
 20
0.0
 30
0.0
210
0.0
220
0.0
230
1.0
  2
SOLID
 70
     1
 71
     1
 91
        1
 92
        1
 93
        1
 72
     4
 94
        3
 73
     0
 74
     0
 95
       17
 96
       13
 40
0.0
 40
0.0
 40
0.0
 40
0.0
 40
1.0
 40
1.0
 40
1.0
 40
2.0
 40
2.0
 40
2.0
 40
3.0
 40
3.0
 40
3.0
 40
4.0
 40
4.0
 40
4.0
 40
4.0
 10
74.34068194756067
 20
-145.8050536744862
 10
74.34068194756067
 20
-145.8050536744862
 10
74.08901772236316
 20
-145.8050536744862
 10
74.08901772236316
 20
-145.8050536744862
 10
74.08901772236316
 20
-145.8050536744862
 10
74.08901772236316
 20
-145.5532171945145
 10
74.08901772236316
 20
-145.5532171945145
 10
74.08901772236316
 20
-145.5532171945145
 10
74.34068194756067
 20
-145.5532171945145
 10
74.34068194756067
 20
-145.5532171945145
 10
74.34068194756067
 20
-145.5532171945145
 10
74.34068194756067
 20
-145.8050536744862
 10
74.34068194756067
 20
-145.8050536744862
 97
        0
 97
        1
330
C3
 75
     2
 76
     1
 98
        1
 10
0.0
 20
0.0
450
        0
451
        0
460
0.0
461
0.0
452
        0
462
0.0
453
        0
470

  0
SPLINE
  5
C5
330
BC
100
AcDbEntity
  8
レイヤー 1
100
AcDbSpline
210
0.0
220
0.0
230
1.0
 70
     9
 71
     3
 72
    53
 73
    49
 74
     0
 42
0.0000000001
 43
0.0000000001
 40
0.0
 40
0.0
 40
0.0
 40
0.0
 40
1.0
 40
1.0
 40
1.0
 40
2.0
 40
2.0
 40
2.0
 40
3.0
 40
3.0
 40
3.0
 40
4.0
 40
4.0
 40
4.0
 40
5.0
 40
5.0
 40
5.0
 40
6.0
 40
6.0
 40
6.0
 40
7.0
 40
7.0
 40
7.0
 40
8.0
 40
8.0
 40
8.0
 40
9.0
 40
9.0
 40
9.0
 40
10.0
 40
10.0
 40
10.0
 40
11.0
 40
11.0
 40
11.0
 40
12.0
 40
12.0
 40
12.0
 40
13.0
 40
13.0
 40
13.0
 40
14.0
 40
14.0
 40
14.0
 40
15.0
 40
15.0
 40
15.0
 40
16.0
 40
16.0
 40
16.0
 40
16.0
 10
74.3914971059681
 20
-144.8359483144854
 30
0.0
 10
74.3914971059681
 20
-144.9141519820006
 30
0.0
 10
74.37461613809038
 20
-145.0157822988155
 30
0.0
 10
74.31105412638752
 20
-145.1174126156304
 30
0.0
 10
74.20098332563378
 20
-145.2907009185384
 30
0.0
 10
74.06989744242003
 20
-145.312060510547
 30
0.0
 10
73.96206595373171
 20
-145.3310085357158
 30
0.0
 10
73.96206595373171
 20
-145.3310085357158
 30
0.0
 10
73.96206595373171
 20
-145.1087998769172
 30
0.0
 10
73.96206595373171
 20
-145.1087998769172
 30
0.0
 10
74.16084796323062
 20
-145.0540228587018
 30
0.0
 10
74.19047578440377
 20
-144.9268988352961
 30
0.0
 10
74.19047578440377
 20
-144.8338812571943
 30
0.0
 10
74.19047578440377
 20
-144.6943548900417
 30
0.0
 10
74.09108477965431
 20
-144.5420816695936
 30
0.0
 10
73.85836857962569
 20
-144.5420816695936
 30
0.0
 10
73.60239798507163
 20
-144.5420816695936
 30
0.0
 10
73.53263480149532
 20
-144.7219156539237
 30
0.0
 10
73.53263480149532
 20
-144.8424939959074
 30
0.0
 10
73.53263480149532
 20
-144.8741888743717
 30
0.0
 10
73.53263480149532
 20
-145.0157822988155
 30
0.0
 10
73.66165362741792
 20
-145.1046657623349
 30
0.0
 10
73.66165362741792
 20
-145.1046657623349
 30
0.0
 10
73.64253334747478
 20
-145.2803656320827
 30
0.0
 10
73.64253334747478
 20
-145.2803656320827
 30
0.0
 10
73.64253334747478
 20
-145.2803656320827
 30
0.0
 10
72.79641789629742
 20
-145.159787290099
 30
0.0
 10
72.79641789629742
 20
-145.159787290099
 30
0.0
 10
72.79641789629742
 20
-145.159787290099
 30
0.0
 10
72.79641789629742
 20
-144.3811957104325
 30
0.0
 10
72.79641789629742
 20
-144.3811957104325
 30
0.0
 10
72.79641789629742
 20
-144.3811957104325
 30
0.0
 10
72.99106579121404
 20
-144.3811957104325
 30
0.0
 10
72.99106579121404
 20
-144.3811957104325
 30
0.0
 10
72.99106579121404
 20
-144.3811957104325
 30
0.0
 10
72.99106579121404
 20
-144.9968342736466
 30
0.0
 10
72.99106579121404
 20
-144.9968342736466
 30
0.0
 10
72.99106579121404
 20
-144.9968342736466
 30
0.0
 10
73.41412351680272
 20
-145.0622910878664
 30
0.0
 10
73.41412351680272
 20
-145.0622910878664
 30
0.0
 10
73.38018932627301
 20
-145.0009683882289
 30
0.0
 10
73.34005396386984
 20
-144.9186306061315
 30
0.0
 10
73.34005396386984
 20
-144.8001193214389
 30
0.0
 10
73.34005396386984
 20
-144.5462157841759
 30
0.0
 10
73.52626137484761
 20
-144.3091932147907
 30
0.0
 10
73.83924829968255
 20
-144.3091932147907
 30
0.0
 10
74.15671384864833
 20
-144.3091932147907
 30
0.0
 10
74.3914971059681
 20
-144.5334689308805
 30
0.0
 10
74.3914971059681
 20
-144.8359483144854
 30
0.0
  0
HATCH
  5
C6
330
BC
100
AcDbEntity
  8
レイヤー 1
 62
   250
420
  2299925
440
 33554687
100
AcDbHatch
 10
0.0
 20
0.0
 30
0.0
210
0.0
220
0.0
230
1.0
  2
SOLID
 70
     1
 71
     1
 91
        1
 92
        1
 93
        1
 72
     4
 94
        3
 73
     0
 74
     0
 95
       53
 96
       49
 40
0.0
 40
0.0
 40
0.0
 40
0.0
 40
1.0
 40
1.0
 40
1.0
 40
2.0
 40
2.0
 40
2.0
 40
3.0
 40
3.0
 40
3.0
 40
4.0
 40
4.0
 40
4.0
 40
5.0
 40
5.0
 40
5.0
 40
6.0
 40
6.0
 40
6.0
 40
7.0
 40
7.0
 40
7.0
 40
8.0
 40
8.0
 40
8.0
 40
9.0
 40
9.0
 40
9.0
 40
10.0
 40
10.0
 40
10.0
 40
11.0
 40
11.0
 40
11.0
 40
12.0
 40
12.0
 40
12.0
 40
13.0
 40
13.0
 40
13.0
 40
14.0
 40
14.0
 40
14.0
 40
15.0
 40
15.0
 40
15.0
 40
16.0
 40
16.0
 40
16.0
 40
16.0
 10
74.3914971059681
 20
-144.8359483144854
 10
74.3914971059681
 20
-144.9141519820006
 10
74.37461613809038
 20
-145.0157822988155
 10
74.31105412638752
 20
-145.1174126156304
 10
74.20098332563378
 20
-145.2907009185384
 10
74.06989744242003
 20
-145.312060510547
 10
73.96206595373171
 20
-145.3310085357158
 10
73.96206595373171
 20
-145.3310085357158
 10
73.96206595373171
 20
-145.1087998769172
 10
73.96206595373171
 20
-145.1087998769172
 10
74.16084796323062
 20
-145.0540228587018
 10
74.19047578440377
 20
-144.9268988352961
 10
74.19047578440377
 20
-144.8338812571943
 10
74.19047578440377
 20
-144.6943548900417
 10
74.09108477965431
 20
-144.5420816695936
 10
73.85836857962569
 20
-144.5420816695936
 10
73.60239798507163
 20
-144.5420816695936
 10
73.53263480149532
 20
-144.7219156539237
 10
73.53263480149532
 20
-144.8424939959074
 10
73.53263480149532
 20
-144.8741888743717
 10
73.53263480149532
 20
-145.0157822988155
 10
73.66165362741792
 20
-145.1046657623349
 10
73.66165362741792
 20
-145.1046657623349
 10
73.64253334747478
 20
-145.2803656320827
 10
73.64253334747478
 20
-145.2803656320827
 10
73.64253334747478
 20
-145.2803656320827
 10
72.79641789629742
 20
-145.159787290099
 10
72.79641789629742
 20
-145.159787290099
 10
72.79641789629742
 20
-145.159787290099
 10
72.79641789629742
 20
-144.3811957104325
 10
72.79641789629742
 20
-144.3811957104325
 10
72.79641789629742
 20
-144.3811957104325
 10
72.99106579121404
 20
-144.3811957104325
 10
72.99106579121404
 20
-144.3811957104325
 10
72.99106579121404
 20
-144.3811957104325
 10
72.99106579121404
 20
-144.9968342736466
 10
72.99106579121404
 20
-144.9968342736466
 10
72.99106579121404
 20
-144.9968342736466
 10
73.41412351680272
 20
-145.0622910878664
 10
73.41412351680272
 20
-145.0622910878664
 10
73.38018932627301
 20
-145.0009683882289
 10
73.34005396386984
 20
-144.9186306061315
 10
73.34005396386984
 20
-144.8001193214389
 10
73.34005396386984
 20
-144.5462157841759
 10
73.52626137484761
 20
-144.3091932147907
 10
73.83924829968255
 20
-144.3091932147907
 10
74.15671384864833
 20
-144.3091932147907
 10
74.3914971059681
 20
-144.5334689308805
 10
74.3914971059681
 20
-144.8359483144854
 97
        0
 97
        1
330
C5
 75
     2
 76
     1
 98
        1
 10
0.0
 20
0.0
450
        0
451
        0
460
0.0
461
0.0
452
        0
462
0.0
453
        0
470

  0
ENDBLK
  5
BF
330
BC
100
AcDbEntity
  8
0
100
AcDbBlockEnd
  0
BLOCK
  5
CB
330
C9
100
AcDbEntity
  8
0
100
AcDbBlockBegin
  2
Block_3
 70
     0
 10
0.0
 20
0.0
 30
0.0
  3
Block_3
  1

  0
INSERT
  5
CE
330
C9
100
AcDbEntity
  8
レイヤー 1
100
AcDbBlockReference
  2
Block_4
 10
0.0
 20
0.0
 30
0.0
  0
ENDBLK
  5
CC
330
C9
100
AcDbEntity
  8
0
100
AcDbBlockEnd
  0
BLOCK
  5
CF
330
CD
100
AcDbEntity
  8
0
100
AcDbBlockBegin
  2
Block_4
 70
     0
 10
0.0
 20
0.0
 30
0.0
  3
Block_4
  1

  0
SPLINE
  5
D1
330
CD
100
AcDbEntity
  8
レイヤー 1
100
AcDbSpline
210
0.0
220
0.0
230
1.0
 70
     9
 71
     3
 72
    44
 73
    40
 74
     0
 42
0.0000000001
 43
0.0000000001
 40
0.0
 40
0.0
 40
0.0
 40
0.0
 40
1.0
 40
1.0
 40
1.0
 40
2.0
 40
2.0
 40
2.0
 40
3.0
 40
3.0
 40
3.0
 40
4.0
 40
4.0
 40
4.0
 40
5.0
 40
5.0
 40
5.0
 40
6.0
 40
6.0
 40
6.0
 40
7.0
 40
7.0
 40
7.0
 40
8.0
 40
8.0
 40
8.0
 40
9.0
 40
9.0
 40
9.0
 40
10.0
 40
10.0
 40
10.0
 40
11.0
 40
11.0
 40
11.0
 40
12.0
 40
12.0
 40
12.0
 40
13.0
 40
13.0
 40
13.0
 40
13.0
 10
89.78935137729225
 20
-139.3723713844277
 30
0.0
 10
89.5714490878502
 20
-139.5310180315235
 30
0.0
 10
89.47825925497419
 20
-139.6050875844563
 30
0.0
 10
89.42968340863217
 20
-139.7489203209655
 30
0.0
 10
89.42968340863217
 20
-139.7489203209655
 30
0.0
 10
90.20810273352436
 20
-139.7489203209655
 30
0.0
 10
90.20810273352436
 20
-139.7489203209655
 30
0.0
 10
90.20810273352436
 20
-139.7489203209655
 30
0.0
 10
90.20810273352436
 20
-139.9540757571122
 30
0.0
 10
90.20810273352436
 20
-139.9540757571122
 30
0.0
 10
90.20810273352436
 20
-139.9540757571122
 30
0.0
 10
89.18008624072582
 20
-139.9540757571122
 30
0.0
 10
89.18008624072582
 20
-139.9540757571122
 30
0.0
 10
89.21178111919012
 20
-139.5964748457432
 30
0.0
 10
89.27723793340986
 20
-139.5182711782281
 30
0.0
 10
89.66239960866079
 20
-139.2199259092054
 30
0.0
 10
89.91837020321487
 20
-139.0211438997065
 30
0.0
 10
89.9838270174346
 20
-138.9534477734214
 30
0.0
 10
89.9838270174346
 20
-138.8159884635599
 30
0.0
 10
89.9838270174346
 20
-138.6974771788673
 30
0.0
 10
89.91199677656714
 20
-138.5662190408792
 30
0.0
 10
89.71528182435937
 20
-138.5662190408792
 30
0.0
 10
89.45500486044876
 20
-138.5662190408792
 30
0.0
 10
89.44656437650989
 20
-138.7968681836167
 30
0.0
 10
89.44225800715333
 20
-138.9133124110182
 30
0.0
 10
89.44225800715333
 20
-138.9133124110182
 30
0.0
 10
89.21815454583782
 20
-138.9133124110182
 30
0.0
 10
89.21815454583782
 20
-138.9133124110182
 30
0.0
 10
89.22659502977669
 20
-138.7863606423867
 30
0.0
 10
89.23710257100671
 20
-138.6742227843418
 30
0.0
 10
89.31754555058729
 20
-138.5557114996492
 30
0.0
 10
89.42744409656675
 20
-138.3949977952623
 30
0.0
 10
89.61365150754451
 20
-138.3610636047326
 30
0.0
 10
89.73009573494595
 20
-138.3610636047326
 30
0.0
 10
90.0072536667343
 20
-138.3610636047326
 30
0.0
 10
90.21447616017209
 20
-138.5452039584192
 30
0.0
 10
90.21447616017209
 20
-138.818055520851
 30
0.0
 10
90.21447616017209
 20
-139.0464653515231
 30
0.0
 10
90.0982041875449
 20
-139.1460286110468
 30
0.0
 10
89.78935137729225
 20
-139.3723713844277
 30
0.0
  0
HATCH
  5
D2
330
CD
100
AcDbEntity
  8
レイヤー 1
 62
   250
420
  2299925
440
 33554687
100
AcDbHatch
 10
0.0
 20
0.0
 30
0.0
210
0.0
220
0.0
230
1.0
  2
SOLID
 70
     1
 71
     1
 91
        1
 92
        1
 93
        1
 72
     4
 94
        3
 73
     0
 74
     0
 95
       44
 96
       40
 40
0.0
 40
0.0
 40
0.0
 40
0.0
 40
1.0
 40
1.0
 40
1.0
 40
2.0
 40
2.0
 40
2.0
 40
3.0
 40
3.0
 40
3.0
 40
4.0
 40
4.0
 40
4.0
 40
5.0
 40
5.0
 40
5.0
 40
6.0
 40
6.0
 40
6.0
 40
7.0
 40
7.0
 40
7.0
 40
8.0
 40
8.0
 40
8.0
 40
9.0
 40
9.0
 40
9.0
 40
10.0
 40
10.0
 40
10.0
 40
11.0
 40
11.0
 40
11.0
 40
12.0
 40
12.0
 40
12.0
 40
13.0
 40
13.0
 40
13.0
 40
13.0
 10
89.78935137729225
 20
-139.3723713844277
 10
89.5714490878502
 20
-139.5310180315235
 10
89.47825925497419
 20
-139.6050875844563
 10
89.42968340863217
 20
-139.7489203209655
 10
89.42968340863217
 20
-139.7489203209655
 10
90.20810273352436
 20
-139.7489203209655
 10
90.20810273352436
 20
-139.7489203209655
 10
90.20810273352436
 20
-139.7489203209655
 10
90.20810273352436
 20
-139.9540757571122
 10
90.20810273352436
 20
-139.9540757571122
 10
90.20810273352436
 20
-139.9540757571122
 10
89.18008624072582
 20
-139.9540757571122
 10
89.18008624072582
 20
-139.9540757571122
 10
89.21178111919012
 20
-139.5964748457432
 10
89.27723793340986
 20
-139.5182711782281
 10
89.66239960866079
 20
-139.2199259092054
 10
89.91837020321487
 20
-139.0211438997065
 10
89.9838270174346
 20
-138.9534477734214
 10
89.9838270174346
 20
-138.8159884635599
 10
89.9838270174346
 20
-138.6974771788673
 10
89.91199677656714
 20
-138.5662190408792
 10
89.71528182435937
 20
-138.5662190408792
 10
89.45500486044876
 20
-138.5662190408792
 10
89.44656437650989
 20
-138.7968681836167
 10
89.44225800715333
 20
-138.9133124110182
 10
89.44225800715333
 20
-138.9133124110182
 10
89.21815454583782
 20
-138.9133124110182
 10
89.21815454583782
 20
-138.9133124110182
 10
89.22659502977669
 20
-138.7863606423867
 10
89.23710257100671
 20
-138.6742227843418
 10
89.31754555058729
 20
-138.5557114996492
 10
89.42744409656675
 20
-138.3949977952623
 10
89.61365150754451
 20
-138.3610636047326
 10
89.73009573494595
 20
-138.3610636047326
 10
90.0072536667343
 20
-138.3610636047326
 10
90.21447616017209
 20
-138.5452039584192
 10
90.21447616017209
 20
-138.818055520851
 10
90.21447616017209
 20
-139.0464653515231
 10
90.0982041875449
 20
-139.1460286110468
 10
89.78935137729225
 20
-139.3723713844277
 97
        0
 97
        1
330
D1
 75
     2
 76
     1
 98
        1
 10
0.0
 20
0.0
450
        0
451
        0
460
0.0
461
0.0
452
        0
462
0.0
453
        0
470

  0
SPLINE
  5
D3
330
CD
100
AcDbEntity
  8
レイヤー 1
100
AcDbSpline
210
0.0
220
0.0
230
1.0
 70
    11
 71
     3
 72
    26
 73
    22
 74
     0
 42
0.0000000001
 43
0.0000000001
 40
0.0
 40
0.0
 40
0.0
 40
0.0
 40
1.0
 40
1.0
 40
1.0
 40
2.0
 40
2.0
 40
2.0
 40
3.0
 40
3.0
 40
3.0
 40
4.0
 40
4.0
 40
4.0
 40
5.0
 40
5.0
 40
5.0
 40
6.0
 40
6.0
 40
6.0
 40
7.0
 40
7.0
 40
7.0
 40
7.0
 10
90.82443031583556
 20
-139.9540757571122
 30
0.0
 10
90.82443031583556
 20
-139.9540757571122
 30
0.0
 10
90.82443031583556
 20
-138.8497503993153
 30
0.0
 10
90.82443031583556
 20
-138.8497503993153
 30
0.0
 10
90.82443031583556
 20
-138.8497503993153
 30
0.0
 10
90.49439016834863
 20
-138.8497503993153
 30
0.0
 10
90.49439016834863
 20
-138.8497503993153
 30
0.0
 10
90.49439016834863
 20
-138.8497503993153
 30
0.0
 10
90.49439016834863
 20
-138.7016112934496
 30
0.0
 10
90.49439016834863
 20
-138.7016112934496
 30
0.0
 10
90.82649737312671
 20
-138.6869696376373
 30
0.0
 10
90.87300616217758
 20
-138.524016621185
 30
0.0
 10
90.90263398335073
 20
-138.4098117058489
 30
0.0
 10
90.90263398335073
 20
-138.4098117058489
 30
0.0
 10
91.04870603192534
 20
-138.4098117058489
 30
0.0
 10
91.04870603192534
 20
-138.4098117058489
 30
0.0
 10
91.04870603192534
 20
-138.4098117058489
 30
0.0
 10
91.04870603192534
 20
-139.9540757571122
 30
0.0
 10
91.04870603192534
 20
-139.9540757571122
 30
0.0
 10
91.04870603192534
 20
-139.9540757571122
 30
0.0
 10
90.82443031583556
 20
-139.9540757571122
 30
0.0
 10
90.82443031583556
 20
-139.9540757571122
 30
0.0
  0
HATCH
  5
D4
330
CD
100
AcDbEntity
  8
レイヤー 1
 62
   250
420
  2299925
440
 33554687
100
AcDbHatch
 10
0.0
 20
0.0
 30
0.0
210
0.0
220
0.0
230
1.0
  2
SOLID
 70
     1
 71
     1
 91
        1
 92
        1
 93
        1
 72
     4
 94
        3
 73
     0
 74
     0
 95
       26
 96
       22
 40
0.0
 40
0.0
 40
0.0
 40
0.0
 40
1.0
 40
1.0
 40
1.0
 40
2.0
 40
2.0
 40
2.0
 40
3.0
 40
3.0
 40
3.0
 40
4.0
 40
4.0
 40
4.0
 40
5.0
 40
5.0
 40
5.0
 40
6.0
 40
6.0
 40
6.0
 40
7.0
 40
7.0
 40
7.0
 40
7.0
 10
90.82443031583556
 20
-139.9540757571122
 10
90.82443031583556
 20
-139.9540757571122
 10
90.82443031583556
 20
-138.8497503993153
 10
90.82443031583556
 20
-138.8497503993153
 10
90.82443031583556
 20
-138.8497503993153
 10
90.49439016834863
 20
-138.8497503993153
 10
90.49439016834863
 20
-138.8497503993153
 10
90.49439016834863
 20
-138.8497503993153
 10
90.49439016834863
 20
-138.7016112934496
 10
90.49439016834863
 20
-138.7016112934496
 10
90.82649737312671
 20
-138.6869696376373
 10
90.87300616217758
 20
-138.524016621185
 10
90.90263398335073
 20
-138.4098117058489
 10
90.90263398335073
 20
-138.4098117058489
 10
91.04870603192534
 20
-138.4098117058489
 10
91.04870603192534
 20
-138.4098117058489
 10
91.04870603192534
 20
-138.4098117058489
 10
91.04870603192534
 20
-139.9540757571122
 10
91.04870603192534
 20
-139.9540757571122
 10
91.04870603192534
 20
-139.9540757571122
 10
90.82443031583556
 20
-139.9540757571122
 10
90.82443031583556
 20
-139.9540757571122
 97
        0
 97
        1
330
D3
 75
     2
 76
     1
 98
        1
 10
0.0
 20
0.0
450
        0
451
        0
460
0.0
461
0.0
452
        0
462
0.0
453
        0
470

  0
ENDBLK
  5
D0
330
CD
100
AcDbEntity
  8
0
100
AcDbBlockEnd
  0
BLOCK
  5
D9
330
D7
100
AcDbEntity
  8
0
100
AcDbBlockBegin
  2
Block_5
 70
     0
 10
0.0
 20
0.0
 30
0.0
  3
Block_5
  1

  0
SPLINE
  5
DB
330
D7
100
AcDbEntity
  8
レイヤー 1
100
AcDbSpline
210
0.0
220
0.0
230
1.0
 70
     9
 71
     3
 72
    17
 73
    13
 74
     0
 42
0.0000000001
 43
0.0000000001
 40
0.0
 40
0.0
 40
0.0
 40
0.0
 40
1.0
 40
1.0
 40
1.0
 40
2.0
 40
2.0
 40
2.0
 40
3.0
 40
3.0
 40
3.0
 40
4.0
 40
4.0
 40
4.0
 40
4.0
 10
74.33086342542771
 20
-149.9281439512332
 30
0.0
 10
74.33086342542771
 20
-150.0718044329682
 30
0.0
 10
74.41750757688173
 20
-150.2244221629647
 30
0.0
 10
74.62059595573721
 20
-150.2244221629647
 30
0.0
 10
74.82575139188384
 20
-150.2244221629647
 30
0.0
 10
74.92738170869872
 20
-150.097298139559
 30
0.0
 10
74.92738170869872
 20
-149.9281439512332
 30
0.0
 10
74.92738170869872
 20
-149.7421087950297
 30
0.0
 10
74.80473630942381
 20
-149.6318657395017
 30
0.0
 10
74.62696938238493
 20
-149.6318657395017
 30
0.0
 10
74.40476072358631
 20
-149.6318657395017
 30
0.0
 10
74.33086342542771
 20
-149.7948187559541
 30
0.0
 10
74.33086342542771
 20
-149.9281439512332
 30
0.0
  0
SPLINE
  5
DC
330
D7
100
AcDbEntity
  8
レイヤー 1
100
AcDbSpline
210
0.0
220
0.0
230
1.0
 70
     9
 71
     3
 72
    17
 73
    13
 74
     0
 42
0.0000000001
 43
0.0000000001
 40
0.0
 40
0.0
 40
0.0
 40
0.0
 40
1.0
 40
1.0
 40
1.0
 40
2.0
 40
2.0
 40
2.0
 40
3.0
 40
3.0
 40
3.0
 40
4.0
 40
4.0
 40
4.0
 40
4.0
 10
73.67078313045384
 20
-149.9281439512332
 30
0.0
 10
73.67078313045384
 20
-150.0931640249767
 30
0.0
 10
73.76586776584673
 20
-150.1779133739138
 30
0.0
 10
73.90126001841704
 20
-150.1779133739138
 30
0.0
 10
74.02407767246621
 20
-150.1779133739138
 30
0.0
 10
74.14258895715881
 20
-150.1059108782721
 30
0.0
 10
74.14258895715881
 20
-149.9281439512332
 30
0.0
 10
74.14258895715881
 20
-149.7503770241943
 30
0.0
 10
74.02407767246621
 20
-149.6783745285526
 30
0.0
 10
73.90126001841704
 20
-149.6783745285526
 30
0.0
 10
73.76586776584673
 20
-149.6783745285526
 30
0.0
 10
73.67078313045384
 20
-149.7651909347809
 30
0.0
 10
73.67078313045384
 20
-149.9281439512332
 30
0.0
  0
SPLINE
  5
DD
330
D7
100
AcDbEntity
  8
レイヤー 1
100
AcDbSpline
210
0.0
220
0.0
230
1.0
 70
     9
 71
     3
 72
    29
 73
    25
 74
     0
 42
0.0000000001
 43
0.0000000001
 40
0.0
 40
0.0
 40
0.0
 40
0.0
 40
1.0
 40
1.0
 40
1.0
 40
2.0
 40
2.0
 40
2.0
 40
3.0
 40
3.0
 40
3.0
 40
4.0
 40
4.0
 40
4.0
 40
5.0
 40
5.0
 40
5.0
 40
6.0
 40
6.0
 40
6.0
 40
7.0
 40
7.0
 40
7.0
 40
8.0
 40
8.0
 40
8.0
 40
8.0
 10
75.12202960361533
 20
-149.9281439512332
 30
0.0
 10
75.12202960361533
 20
-150.1947943417915
 30
0.0
 10
74.98439803897959
 20
-150.4486978790545
 30
0.0
 10
74.63540986632378
 20
-150.4486978790545
 30
0.0
 10
74.37943927176973
 20
-150.4486978790545
 30
0.0
 10
74.28418238160256
 20
-150.3067599450622
 30
0.0
 10
74.22285968196511
 20
-150.200995513665
 30
0.0
 10
74.16360403961881
 20
-150.3257079702311
 30
0.0
 10
74.04939912428279
 20
-150.4018445804551
 30
0.0
 10
73.88868541989589
 20
-150.4018445804551
 30
0.0
 10
73.61359454539869
 20
-150.4018445804551
 30
0.0
 10
73.47820229282837
 20
-150.2030625709562
 30
0.0
 10
73.47820229282837
 20
-149.9281439512332
 30
0.0
 10
73.47820229282837
 20
-149.6446125927972
 30
0.0
 10
73.62203502933756
 20
-149.4540988124628
 30
0.0
 10
73.88868541989589
 20
-149.4540988124628
 30
0.0
 10
74.04939912428279
 20
-149.4540988124628
 30
0.0
 10
74.16360403961881
 20
-149.5326469895266
 30
0.0
 10
74.22285968196511
 20
-149.6573594460926
 30
0.0
 10
74.27367484037254
 20
-149.5684759825732
 30
0.0
 10
74.36893173053971
 20
-149.4096570807031
 30
0.0
 10
74.63110349696723
 20
-149.4096570807031
 30
0.0
 10
75.00558537621389
 20
-149.4096570807031
 30
0.0
 10
75.12202960361533
 20
-149.6890543245569
 30
0.0
 10
75.12202960361533
 20
-149.9281439512332
 30
0.0
  0
HATCH
  5
DE
330
D7
100
AcDbEntity
  8
レイヤー 1
 62
   250
420
  2299925
440
 33554687
100
AcDbHatch
 10
0.0
 20
0.0
 30
0.0
210
0.0
220
0.0
230
1.0
  2
SOLID
 70
     1
 71
     1
 91
        3
 92
        1
 93
        1
 72
     4
 94
        3
 73
     0
 74
     0
 95
       17
 96
       13
 40
0.0
 40
0.0
 40
0.0
 40
0.0
 40
1.0
 40
1.0
 40
1.0
 40
2.0
 40
2.0
 40
2.0
 40
3.0
 40
3.0
 40
3.0
 40
4.0
 40
4.0
 40
4.0
 40
4.0
 10
74.33086342542771
 20
-149.9281439512332
 10
74.33086342542771
 20
-150.0718044329682
 10
74.41750757688173
 20
-150.2244221629647
 10
74.62059595573721
 20
-150.2244221629647
 10
74.82575139188384
 20
-150.2244221629647
 10
74.92738170869872
 20
-150.097298139559
 10
74.92738170869872
 20
-149.9281439512332
 10
74.92738170869872
 20
-149.7421087950297
 10
74.80473630942381
 20
-149.6318657395017
 10
74.62696938238493
 20
-149.6318657395017
 10
74.40476072358631
 20
-149.6318657395017
 10
74.33086342542771
 20
-149.7948187559541
 10
74.33086342542771
 20
-149.9281439512332
 97
        0
 97
        1
330
DB
 92
        1
 93
        1
 72
     4
 94
        3
 73
     0
 74
     0
 95
       17
 96
       13
 40
0.0
 40
0.0
 40
0.0
 40
0.0
 40
1.0
 40
1.0
 40
1.0
 40
2.0
 40
2.0
 40
2.0
 40
3.0
 40
3.0
 40
3.0
 40
4.0
 40
4.0
 40
4.0
 40
4.0
 10
73.67078313045384
 20
-149.9281439512332
 10
73.67078313045384
 20
-150.0931640249767
 10
73.76586776584673
 20
-150.1779133739138
 10
73.90126001841704
 20
-150.1779133739138
 10
74.02407767246621
 20
-150.1779133739138
 10
74.14258895715881
 20
-150.1059108782721
 10
74.14258895715881
 20
-149.9281439512332
 10
74.14258895715881
 20
-149.7503770241943
 10
74.02407767246621
 20
-149.6783745285526
 10
73.90126001841704
 20
-149.6783745285526
 10
73.76586776584673
 20
-149.6783745285526
 10
73.67078313045384
 20
-149.7651909347809
 10
73.67078313045384
 20
-149.9281439512332
 97
        0
 97
        1
330
DC
 92
        1
 93
        1
 72
     4
 94
        3
 73
     0
 74
     0
 95
       29
 96
       25
 40
0.0
 40
0.0
 40
0.0
 40
0.0
 40
1.0
 40
1.0
 40
1.0
 40
2.0
 40
2.0
 40
2.0
 40
3.0
 40
3.0
 40
3.0
 40
4.0
 40
4.0
 40
4.0
 40
5.0
 40
5.0
 40
5.0
 40
6.0
 40
6.0
 40
6.0
 40
7.0
 40
7.0
 40
7.0
 40
8.0
 40
8.0
 40
8.0
 40
8.0
 10
75.12202960361533
 20
-149.9281439512332
 10
75.12202960361533
 20
-150.1947943417915
 10
74.98439803897959
 20
-150.4486978790545
 10
74.63540986632378
 20
-150.4486978790545
 10
74.37943927176973
 20
-150.4486978790545
 10
74.28418238160256
 20
-150.3067599450622
 10
74.22285968196511
 20
-150.200995513665
 10
74.16360403961881
 20
-150.3257079702311
 10
74.04939912428279
 20
-150.4018445804551
 10
73.88868541989589
 20
-150.4018445804551
 10
73.61359454539869
 20
-150.4018445804551
 10
73.47820229282837
 20
-150.2030625709562
 10
73.47820229282837
 20
-149.9281439512332
 10
73.47820229282837
 20
-149.6446125927972
 10
73.62203502933756
 20
-149.4540988124628
 10
73.88868541989589
 20
-149.4540988124628
 10
74.04939912428279
 20
-149.4540988124628
 10
74.16360403961881
 20
-149.5326469895266
 10
74.22285968196511
 20
-149.6573594460926
 10
74.27367484037254
 20
-149.5684759825732
 10
74.36893173053971
 20
-149.4096570807031
 10
74.63110349696723
 20
-149.4096570807031
 10
75.00558537621389
 20
-149.4096570807031
 10
75.12202960361533
 20
-149.6890543245569
 10
75.12202960361533
 20
-149.9281439512332
 97
        0
 97
        1
330
DD
 75
     2
 76
     1
 98
        1
 10
0.0
 20
0.0
450
        0
451
        0
460
0.0
461
0.0
452
        0
462
0.0
453
        0
470

  0
ENDBLK
  5
DA
330
D7
100
AcDbEntity
  8
0
100
AcDbBlockEnd
  0
BLOCK
  5
E4
330
E2
100
AcDbEntity
  8
0
100
AcDbBlockBegin
  2
Block_6
 70
     0
 10
0.0
 20
0.0
 30
0.0
  3
Block_6
  1

  0
INSERT
  5
E7
330
E2
100
AcDbEntity
  8
レイヤー 1
100
AcDbBlockReference
  2
Block_7
 10
0.0
 20
0.0
 30
0.0
  0
ENDBLK
  5
E5
330
E2
100
AcDbEntity
  8
0
100
AcDbBlockEnd
  0
BLOCK
  5
E8
330
E6
100
AcDbEntity
  8
0
100
AcDbBlockBegin
  2
Block_7
 70
     0
 10
0.0
 20
0.0
 30
0.0
  3
Block_7
  1

  0
SPLINE
  5
EA
330
E6
100
AcDbEntity
  8
レイヤー 1
100
AcDbSpline
210
0.0
220
0.0
230
1.0
 70
    11
 71
     3
 72
    26
 73
    22
 74
     0
 42
0.0000000001
 43
0.0000000001
 40
0.0
 40
0.0
 40
0.0
 40
0.0
 40
1.0
 40
1.0
 40
1.0
 40
2.0
 40
2.0
 40
2.0
 40
3.0
 40
3.0
 40
3.0
 40
4.0
 40
4.0
 40
4.0
 40
5.0
 40
5.0
 40
5.0
 40
6.0
 40
6.0
 40
6.0
 40
7.0
 40
7.0
 40
7.0
 40
7.0
 10
105.1481038148588
 20
-139.952697718918
 30
0.0
 10
105.1481038148588
 20
-139.952697718918
 30
0.0
 10
105.1481038148588
 20
-138.8483723611212
 30
0.0
 10
105.1481038148588
 20
-138.8483723611212
 30
0.0
 10
105.1481038148588
 20
-138.8483723611212
 30
0.0
 10
104.8180636673718
 20
-138.8483723611212
 30
0.0
 10
104.8180636673718
 20
-138.8483723611212
 30
0.0
 10
104.8180636673718
 20
-138.8483723611212
 30
0.0
 10
104.8180636673718
 20
-138.7002332552555
 30
0.0
 10
104.8180636673718
 20
-138.7002332552555
 30
0.0
 10
105.1501708721499
 20
-138.6855915994432
 30
0.0
 10
105.1966796612008
 20
-138.5226385829908
 30
0.0
 10
105.226307482374
 20
-138.4084336676548
 30
0.0
 10
105.226307482374
 20
-138.4084336676548
 30
0.0
 10
105.3722072761743
 20
-138.4084336676548
 30
0.0
 10
105.3722072761743
 20
-138.4084336676548
 30
0.0
 10
105.3722072761743
 20
-138.4084336676548
 30
0.0
 10
105.3722072761743
 20
-139.952697718918
 30
0.0
 10
105.3722072761743
 20
-139.952697718918
 30
0.0
 10
105.3722072761743
 20
-139.952697718918
 30
0.0
 10
105.1481038148588
 20
-139.952697718918
 30
0.0
 10
105.1481038148588
 20
-139.952697718918
 30
0.0
  0
HATCH
  5
EB
330
E6
100
AcDbEntity
  8
レイヤー 1
 62
   250
420
  2299925
440
 33554687
100
AcDbHatch
 10
0.0
 20
0.0
 30
0.0
210
0.0
220
0.0
230
1.0
  2
SOLID
 70
     1
 71
     1
 91
        1
 92
        1
 93
        1
 72
     4
 94
        3
 73
     0
 74
     0
 95
       26
 96
       22
 40
0.0
 40
0.0
 40
0.0
 40
0.0
 40
1.0
 40
1.0
 40
1.0
 40
2.0
 40
2.0
 40
2.0
 40
3.0
 40
3.0
 40
3.0
 40
4.0
 40
4.0
 40
4.0
 40
5.0
 40
5.0
 40
5.0
 40
6.0
 40
6.0
 40
6.0
 40
7.0
 40
7.0
 40
7.0
 40
7.0
 10
105.1481038148588
 20
-139.952697718918
 10
105.1481038148588
 20
-139.952697718918
 10
105.1481038148588
 20
-138.8483723611212
 10
105.1481038148588
 20
-138.8483723611212
 10
105.1481038148588
 20
-138.8483723611212
 10
104.8180636673718
 20
-138.8483723611212
 10
104.8180636673718
 20
-138.8483723611212
 10
104.8180636673718
 20
-138.8483723611212
 10
104.8180636673718
 20
-138.7002332552555
 10
104.8180636673718
 20
-138.7002332552555
 10
105.1501708721499
 20
-138.6855915994432
 10
105.1966796612008
 20
-138.5226385829908
 10
105.226307482374
 20
-138.4084336676548
 10
105.226307482374
 20
-138.4084336676548
 10
105.3722072761743
 20
-138.4084336676548
 10
105.3722072761743
 20
-138.4084336676548
 10
105.3722072761743
 20
-138.4084336676548
 10
105.3722072761743
 20
-139.952697718918
 10
105.3722072761743
 20
-139.952697718918
 10
105.3722072761743
 20
-139.952697718918
 10
105.1481038148588
 20
-139.952697718918
 10
105.1481038148588
 20
-139.952697718918
 97
        0
 97
        1
330
EA
 75
     2
 76
     1
 98
        1
 10
0.0
 20
0.0
450
        0
451
        0
460
0.0
461
0.0
452
        0
462
0.0
453
        0
470

  0
SPLINE
  5
EC
330
E6
100
AcDbEntity
  8
レイヤー 1
100
AcDbSpline
210
0.0
220
0.0
230
1.0
 70
     9
 71
     3
 72
    17
 73
    13
 74
     0
 42
0.0000000001
 43
0.0000000001
 40
0.0
 40
0.0
 40
0.0
 40
0.0
 40
1.0
 40
1.0
 40
1.0
 40
2.0
 40
2.0
 40
2.0
 40
3.0
 40
3.0
 40
3.0
 40
4.0
 40
4.0
 40
4.0
 40
4.0
 10
106.3735242789622
 20
-138.552266404164
 30
0.0
 10
106.1240993658301
 20
-138.552266404164
 30
0.0
 10
106.0772460672307
 20
-138.8356255078258
 30
0.0
 10
106.0772460672307
 20
-139.1804795658993
 30
0.0
 10
106.0772460672307
 20
-139.5000121721562
 30
0.0
 10
106.1134195698258
 20
-139.8088649824089
 30
0.0
 10
106.3735242789622
 20
-139.8088649824089
 30
0.0
 10
106.6212266443516
 20
-139.8088649824089
 30
0.0
 10
106.6698024906936
 20
-139.527400681264
 30
0.0
 10
106.6698024906936
 20
-139.1804795658993
 30
0.0
 10
106.6698024906936
 20
-138.8611192144167
 30
0.0
 10
106.6315619308074
 20
-138.552266404164
 30
0.0
 10
106.3735242789622
 20
-138.552266404164
 30
0.0
  0
SPLINE
  5
ED
330
E6
100
AcDbEntity
  8
レイヤー 1
100
AcDbSpline
210
0.0
220
0.0
230
1.0
 70
     9
 71
     3
 72
    29
 73
    25
 74
     0
 42
0.0000000001
 43
0.0000000001
 40
0.0
 40
0.0
 40
0.0
 40
0.0
 40
1.0
 40
1.0
 40
1.0
 40
2.0
 40
2.0
 40
2.0
 40
3.0
 40
3.0
 40
3.0
 40
4.0
 40
4.0
 40
4.0
 40
5.0
 40
5.0
 40
5.0
 40
6.0
 40
6.0
 40
6.0
 40
7.0
 40
7.0
 40
7.0
 40
8.0
 40
8.0
 40
8.0
 40
8.0
 10
106.7714328075085
 20
-139.7749307918792
 30
0.0
 10
106.6632568092717
 20
-139.9843925973824
 30
0.0
 10
106.4899685063636
 20
-140.0035128773255
 30
0.0
 10
106.3735242789622
 20
-140.0035128773255
 30
0.0
 10
106.212638319801
 20
-140.0035128773255
 30
0.0
 10
106.0710448953572
 20
-139.9570040882746
 30
0.0
 10
105.9759602599643
 20
-139.7749307918792
 30
0.0
 10
105.8722628858583
 20
-139.5804551517368
 30
0.0
 10
105.8533148606894
 20
-139.3434325823516
 30
0.0
 10
105.8533148606894
 20
-139.1804795658993
 30
0.0
 10
105.8533148606894
 20
-139.0366468293901
 30
0.0
 10
105.8701958285672
 20
-138.7849826041926
 30
0.0
 10
105.9759602599643
 20
-138.5860283399194
 30
0.0
 10
106.0837917486527
 20
-138.382939961064
 30
0.0
 10
106.2446777078138
 20
-138.3596855665385
 30
0.0
 10
106.3735242789622
 20
-138.3596855665385
 30
0.0
 10
106.5323431808322
 20
-138.3596855665385
 30
0.0
 10
106.6760036625671
 20
-138.4041272982982
 30
0.0
 10
106.7714328075085
 20
-138.5860283399194
 30
0.0
 10
106.8706515574837
 20
-138.7786091775449
 30
0.0
 10
106.8940782067834
 20
-139.007019008217
 30
0.0
 10
106.8940782067834
 20
-139.1804795658993
 30
0.0
 10
106.8940782067834
 20
-139.3518730662905
 30
0.0
 10
106.8727186147748
 20
-139.582522209028
 30
0.0
 10
106.7714328075085
 20
-139.7749307918792
 30
0.0
  0
HATCH
  5
EE
330
E6
100
AcDbEntity
  8
レイヤー 1
 62
   250
420
  2299925
440
 33554687
100
AcDbHatch
 10
0.0
 20
0.0
 30
0.0
210
0.0
220
0.0
230
1.0
  2
SOLID
 70
     1
 71
     1
 91
        2
 92
        1
 93
        1
 72
     4
 94
        3
 73
     0
 74
     0
 95
       17
 96
       13
 40
0.0
 40
0.0
 40
0.0
 40
0.0
 40
1.0
 40
1.0
 40
1.0
 40
2.0
 40
2.0
 40
2.0
 40
3.0
 40
3.0
 40
3.0
 40
4.0
 40
4.0
 40
4.0
 40
4.0
 10
106.3735242789622
 20
-138.552266404164
 10
106.1240993658301
 20
-138.552266404164
 10
106.0772460672307
 20
-138.8356255078258
 10
106.0772460672307
 20
-139.1804795658993
 10
106.0772460672307
 20
-139.5000121721562
 10
106.1134195698258
 20
-139.8088649824089
 10
106.3735242789622
 20
-139.8088649824089
 10
106.6212266443516
 20
-139.8088649824089
 10
106.6698024906936
 20
-139.527400681264
 10
106.6698024906936
 20
-139.1804795658993
 10
106.6698024906936
 20
-138.8611192144167
 10
106.6315619308074
 20
-138.552266404164
 10
106.3735242789622
 20
-138.552266404164
 97
        0
 97
        1
330
EC
 92
        1
 93
        1
 72
     4
 94
        3
 73
     0
 74
     0
 95
       29
 96
       25
 40
0.0
 40
0.0
 40
0.0
 40
0.0
 40
1.0
 40
1.0
 40
1.0
 40
2.0
 40
2.0
 40
2.0
 40
3.0
 40
3.0
 40
3.0
 40
4.0
 40
4.0
 40
4.0
 40
5.0
 40
5.0
 40
5.0
 40
6.0
 40
6.0
 40
6.0
 40
7.0
 40
7.0
 40
7.0
 40
8.0
 40
8.0
 40
8.0
 40
8.0
 10
106.7714328075085
 20
-139.7749307918792
 10
106.6632568092717
 20
-139.9843925973824
 10
106.4899685063636
 20
-140.0035128773255
 10
106.3735242789622
 20
-140.0035128773255
 10
106.212638319801
 20
-140.0035128773255
 10
106.0710448953572
 20
-139.9570040882746
 10
105.9759602599643
 20
-139.7749307918792
 10
105.8722628858583
 20
-139.5804551517368
 10
105.8533148606894
 20
-139.3434325823516
 10
105.8533148606894
 20
-139.1804795658993
 10
105.8533148606894
 20
-139.0366468293901
 10
105.8701958285672
 20
-138.7849826041926
 10
105.9759602599643
 20
-138.5860283399194
 10
106.0837917486527
 20
-138.382939961064
 10
106.2446777078138
 20
-138.3596855665385
 10
106.3735242789622
 20
-138.3596855665385
 10
106.5323431808322
 20
-138.3596855665385
 10
106.6760036625671
 20
-138.4041272982982
 10
106.7714328075085
 20
-138.5860283399194
 10
106.8706515574837
 20
-138.7786091775449
 10
106.8940782067834
 20
-139.007019008217
 10
106.8940782067834
 20
-139.1804795658993
 10
106.8940782067834
 20
-139.3518730662905
 10
106.8727186147748
 20
-139.582522209028
 10
106.7714328075085
 20
-139.7749307918792
 97
        0
 97
        1
330
ED
 75
     2
 76
     1
 98
        1
 10
0.0
 20
0.0
450
        0
451
        0
460
0.0
461
0.0
452
        0
462
0.0
453
        0
470

  0
ENDBLK
  5
E9
330
E6
100
AcDbEntity
  8
0
100
AcDbBlockEnd
  0
BLOCK
  5
F6
330
F4
100
AcDbEntity
  8
0
100
AcDbBlockBegin
  2
Block_8
 70
     0
 10
0.0
 20
0.0
 30
0.0
  3
Block_8
  1

  0
INSERT
  5
F9
330
F4
100
AcDbEntity
  8
レイヤー 1
100
AcDbBlockReference
  2
Block_9
 10
0.0
 20
0.0
 30
0.0
  0
ENDBLK
  5
F7
330
F4
100
AcDbEntity
  8
0
100
AcDbBlockEnd
  0
BLOCK
  5
FA
330
F8
100
AcDbEntity
  8
0
100
AcDbBlockBegin
  2
Block_9
 70
     0
 10
0.0
 20
0.0
 30
0.0
  3
Block_9
  1

  0
SPLINE
  5
FC
330
F8
100
AcDbEntity
  8
レイヤー 1
100
AcDbSpline
210
0.0
220
0.0
230
1.0
 70
    11
 71
     3
 72
    26
 73
    22
 74
     0
 42
0.0000000001
 43
0.0000000001
 40
0.0
 40
0.0
 40
0.0
 40
0.0
 40
1.0
 40
1.0
 40
1.0
 40
2.0
 40
2.0
 40
2.0
 40
3.0
 40
3.0
 40
3.0
 40
4.0
 40
4.0
 40
4.0
 40
5.0
 40
5.0
 40
5.0
 40
6.0
 40
6.0
 40
6.0
 40
7.0
 40
7.0
 40
7.0
 40
7.0
 10
105.1486205791816
 20
-157.3299316012925
 30
0.0
 10
105.1486205791816
 20
-157.3299316012925
 30
0.0
 10
105.1486205791816
 20
-156.2257784982699
 30
0.0
 10
105.1486205791816
 20
-156.2257784982699
 30
0.0
 10
105.1486205791816
 20
-156.2257784982699
 30
0.0
 10
104.8185804316946
 20
-156.2257784982699
 30
0.0
 10
104.8185804316946
 20
-156.2257784982699
 30
0.0
 10
104.8185804316946
 20
-156.2257784982699
 30
0.0
 10
104.8185804316946
 20
-156.0776393924042
 30
0.0
 10
104.8185804316946
 20
-156.0776393924042
 30
0.0
 10
105.1506876364727
 20
-156.0628254818176
 30
0.0
 10
105.1971964255236
 20
-155.8998724653653
 30
0.0
 10
105.2268242466967
 20
-155.785495295255
 30
0.0
 10
105.2268242466967
 20
-155.785495295255
 30
0.0
 10
105.3728962952713
 20
-155.785495295255
 30
0.0
 10
105.3728962952713
 20
-155.785495295255
 30
0.0
 10
105.3728962952713
 20
-155.785495295255
 30
0.0
 10
105.3728962952713
 20
-157.3299316012925
 30
0.0
 10
105.3728962952713
 20
-157.3299316012925
 30
0.0
 10
105.3728962952713
 20
-157.3299316012925
 30
0.0
 10
105.1486205791816
 20
-157.3299316012925
 30
0.0
 10
105.1486205791816
 20
-157.3299316012925
 30
0.0
  0
HATCH
  5
FD
330
F8
100
AcDbEntity
  8
レイヤー 1
 62
   250
420
  2299925
440
 33554687
100
AcDbHatch
 10
0.0
 20
0.0
 30
0.0
210
0.0
220
0.0
230
1.0
  2
SOLID
 70
     1
 71
     1
 91
        1
 92
        1
 93
        1
 72
     4
 94
        3
 73
     0
 74
     0
 95
       26
 96
       22
 40
0.0
 40
0.0
 40
0.0
 40
0.0
 40
1.0
 40
1.0
 40
1.0
 40
2.0
 40
2.0
 40
2.0
 40
3.0
 40
3.0
 40
3.0
 40
4.0
 40
4.0
 40
4.0
 40
5.0
 40
5.0
 40
5.0
 40
6.0
 40
6.0
 40
6.0
 40
7.0
 40
7.0
 40
7.0
 40
7.0
 10
105.1486205791816
 20
-157.3299316012925
 10
105.1486205791816
 20
-157.3299316012925
 10
105.1486205791816
 20
-156.2257784982699
 10
105.1486205791816
 20
-156.2257784982699
 10
105.1486205791816
 20
-156.2257784982699
 10
104.8185804316946
 20
-156.2257784982699
 10
104.8185804316946
 20
-156.2257784982699
 10
104.8185804316946
 20
-156.2257784982699
 10
104.8185804316946
 20
-156.0776393924042
 10
104.8185804316946
 20
-156.0776393924042
 10
105.1506876364727
 20
-156.0628254818176
 10
105.1971964255236
 20
-155.8998724653653
 10
105.2268242466967
 20
-155.785495295255
 10
105.2268242466967
 20
-155.785495295255
 10
105.3728962952713
 20
-155.785495295255
 10
105.3728962952713
 20
-155.785495295255
 10
105.3728962952713
 20
-155.785495295255
 10
105.3728962952713
 20
-157.3299316012925
 10
105.3728962952713
 20
-157.3299316012925
 10
105.3728962952713
 20
-157.3299316012925
 10
105.1486205791816
 20
-157.3299316012925
 10
105.1486205791816
 20
-157.3299316012925
 97
        0
 97
        1
330
FC
 75
     2
 76
     1
 98
        1
 10
0.0
 20
0.0
450
        0
451
        0
460
0.0
461
0.0
452
        0
462
0.0
453
        0
470

  0
SPLINE
  5
FE
330
F8
100
AcDbEntity
  8
レイヤー 1
100
AcDbSpline
210
0.0
220
0.0
230
1.0
 70
     9
 71
     3
 72
    44
 73
    40
 74
     0
 42
0.0000000001
 43
0.0000000001
 40
0.0
 40
0.0
 40
0.0
 40
0.0
 40
1.0
 40
1.0
 40
1.0
 40
2.0
 40
2.0
 40
2.0
 40
3.0
 40
3.0
 40
3.0
 40
4.0
 40
4.0
 40
4.0
 40
5.0
 40
5.0
 40
5.0
 40
6.0
 40
6.0
 40
6.0
 40
7.0
 40
7.0
 40
7.0
 40
8.0
 40
8.0
 40
8.0
 40
9.0
 40
9.0
 40
9.0
 40
10.0
 40
10.0
 40
10.0
 40
11.0
 40
11.0
 40
11.0
 40
12.0
 40
12.0
 40
12.0
 40
13.0
 40
13.0
 40
13.0
 40
13.0
 10
106.4668863666124
 20
-156.7480549738338
 30
0.0
 10
106.2491563319446
 20
-156.9068738757038
 30
0.0
 10
106.1561387538429
 20
-156.9809434286367
 30
0.0
 10
106.1072183979523
 20
-157.1246039103716
 30
0.0
 10
106.1072183979523
 20
-157.1246039103716
 30
0.0
 10
106.8858099776188
 20
-157.1246039103716
 30
0.0
 10
106.8858099776188
 20
-157.1246039103716
 30
0.0
 10
106.8858099776188
 20
-157.1246039103716
 30
0.0
 10
106.8858099776188
 20
-157.3299316012925
 30
0.0
 10
106.8858099776188
 20
-157.3299316012925
 30
0.0
 10
106.8858099776188
 20
-157.3299316012925
 30
0.0
 10
105.8577934848202
 20
-157.3299316012925
 30
0.0
 10
105.8577934848202
 20
-157.3299316012925
 30
0.0
 10
105.8894883632846
 20
-156.9723306899236
 30
0.0
 10
105.9549451775043
 20
-156.8941270224084
 30
0.0
 10
106.3401068527552
 20
-156.5957817533857
 30
0.0
 10
106.5960774473093
 20
-156.3969997438868
 30
0.0
 10
106.661534261529
 20
-156.3291313628274
 30
0.0
 10
106.661534261529
 20
-156.191672052966
 30
0.0
 10
106.661534261529
 20
-156.0731607682734
 30
0.0
 10
106.5895317658873
 20
-155.9422471398339
 30
0.0
 10
106.3928168136796
 20
-155.9422471398339
 30
0.0
 10
106.1327121045432
 20
-155.9422471398339
 30
0.0
 10
106.1240993658301
 20
-156.1727240277971
 30
0.0
 10
106.1199652512478
 20
-156.2891682551985
 30
0.0
 10
106.1199652512478
 20
-156.2891682551985
 30
0.0
 10
105.895689535158
 20
-156.2891682551985
 30
0.0
 10
105.895689535158
 20
-156.2891682551985
 30
0.0
 10
105.9043022738711
 20
-156.1620442317928
 30
0.0
 10
105.9149820698754
 20
-156.0500786285222
 30
0.0
 10
105.9952527946817
 20
-155.9315673438296
 30
0.0
 10
106.1051513406612
 20
-155.7706813846684
 30
0.0
 10
106.2915310064132
 20
-155.736919448913
 30
0.0
 10
106.4076307242661
 20
-155.736919448913
 30
0.0
 10
106.6849609108287
 20
-155.736919448913
 30
0.0
 10
106.8923556590408
 20
-155.9208875478253
 30
0.0
 10
106.8923556590408
 20
-156.1937391102571
 30
0.0
 10
106.8923556590408
 20
-156.4224934504777
 30
0.0
 10
106.7759114316393
 20
-156.5217122004529
 30
0.0
 10
106.4668863666124
 20
-156.7480549738338
 30
0.0
  0
HATCH
  5
FF
330
F8
100
AcDbEntity
  8
レイヤー 1
 62
   250
420
  2299925
440
 33554687
100
AcDbHatch
 10
0.0
 20
0.0
 30
0.0
210
0.0
220
0.0
230
1.0
  2
SOLID
 70
     1
 71
     1
 91
        1
 92
        1
 93
        1
 72
     4
 94
        3
 73
     0
 74
     0
 95
       44
 96
       40
 40
0.0
 40
0.0
 40
0.0
 40
0.0
 40
1.0
 40
1.0
 40
1.0
 40
2.0
 40
2.0
 40
2.0
 40
3.0
 40
3.0
 40
3.0
 40
4.0
 40
4.0
 40
4.0
 40
5.0
 40
5.0
 40
5.0
 40
6.0
 40
6.0
 40
6.0
 40
7.0
 40
7.0
 40
7.0
 40
8.0
 40
8.0
 40
8.0
 40
9.0
 40
9.0
 40
9.0
 40
10.0
 40
10.0
 40
10.0
 40
11.0
 40
11.0
 40
11.0
 40
12.0
 40
12.0
 40
12.0
 40
13.0
 40
13.0
 40
13.0
 40
13.0
 10
106.4668863666124
 20
-156.7480549738338
 10
106.2491563319446
 20
-156.9068738757038
 10
106.1561387538429
 20
-156.9809434286367
 10
106.1072183979523
 20
-157.1246039103716
 10
106.1072183979523
 20
-157.1246039103716
 10
106.8858099776188
 20
-157.1246039103716
 10
106.8858099776188
 20
-157.1246039103716
 10
106.8858099776188
 20
-157.1246039103716
 10
106.8858099776188
 20
-157.3299316012925
 10
106.8858099776188
 20
-157.3299316012925
 10
106.8858099776188
 20
-157.3299316012925
 10
105.8577934848202
 20
-157.3299316012925
 10
105.8577934848202
 20
-157.3299316012925
 10
105.8894883632846
 20
-156.9723306899236
 10
105.9549451775043
 20
-156.8941270224084
 10
106.3401068527552
 20
-156.5957817533857
 10
106.5960774473093
 20
-156.3969997438868
 10
106.661534261529
 20
-156.3291313628274
 10
106.661534261529
 20
-156.191672052966
 10
106.661534261529
 20
-156.0731607682734
 10
106.5895317658873
 20
-155.9422471398339
 10
106.3928168136796
 20
-155.9422471398339
 10
106.1327121045432
 20
-155.9422471398339
 10
106.1240993658301
 20
-156.1727240277971
 10
106.1199652512478
 20
-156.2891682551985
 10
106.1199652512478
 20
-156.2891682551985
 10
105.895689535158
 20
-156.2891682551985
 10
105.895689535158
 20
-156.2891682551985
 10
105.9043022738711
 20
-156.1620442317928
 10
105.9149820698754
 20
-156.0500786285222
 10
105.9952527946817
 20
-155.9315673438296
 10
106.1051513406612
 20
-155.7706813846684
 10
106.2915310064132
 20
-155.736919448913
 10
106.4076307242661
 20
-155.736919448913
 10
106.6849609108287
 20
-155.736919448913
 10
106.8923556590408
 20
-155.9208875478253
 10
106.8923556590408
 20
-156.1937391102571
 10
106.8923556590408
 20
-156.4224934504777
 10
106.7759114316393
 20
-156.5217122004529
 10
106.4668863666124
 20
-156.7480549738338
 97
        0
 97
        1
330
FE
 75
     2
 76
     1
 98
        1
 10
0.0
 20
0.0
450
        0
451
        0
460
0.0
461
0.0
452
        0
462
0.0
453
        0
470

  0
ENDBLK
  5
FB
330
F8
100
AcDbEntity
  8
0
100
AcDbBlockEnd
  0
BLOCK
  5
104
330
102
100
AcDbEntity
  8
0
100
AcDbBlockBegin
  2
Block_10
 70
     0
 10
0.0
 20
0.0
 30
0.0
  3
Block_10
  1

  0
SPLINE
  5
106
330
102
100
AcDbEntity
  8
レイヤー 1
100
AcDbSpline
210
0.0
220
0.0
230
1.0
 70
    11
 71
     3
 72
    26
 73
    22
 74
     0
 42
0.0000000001
 43
0.0000000001
 40
0.0
 40
0.0
 40
0.0
 40
0.0
 40
1.0
 40
1.0
 40
1.0
 40
2.0
 40
2.0
 40
2.0
 40
3.0
 40
3.0
 40
3.0
 40
4.0
 40
4.0
 40
4.0
 40
5.0
 40
5.0
 40
5.0
 40
6.0
 40
6.0
 40
6.0
 40
7.0
 40
7.0
 40
7.0
 40
7.0
 10
113.6878065036961
 20
-149.3069932352427
 30
0.0
 10
113.6878065036961
 20
-149.3069932352427
 30
0.0
 10
113.6878065036961
 20
-148.2024956226716
 30
0.0
 10
113.6878065036961
 20
-148.2024956226716
 30
0.0
 10
113.6878065036961
 20
-148.2024956226716
 30
0.0
 10
113.3577663562091
 20
-148.2024956226716
 30
0.0
 10
113.3577663562091
 20
-148.2024956226716
 30
0.0
 10
113.3577663562091
 20
-148.2024956226716
 30
0.0
 10
113.3577663562091
 20
-148.0543565168058
 30
0.0
 10
113.3577663562091
 20
-148.0543565168058
 30
0.0
 10
113.6898735609872
 20
-148.0397148609935
 30
0.0
 10
113.7363823500381
 20
-147.8767618445412
 30
0.0
 10
113.7660101712113
 20
-147.7625569292052
 30
0.0
 10
113.7660101712113
 20
-147.7625569292052
 30
0.0
 10
113.9120822197859
 20
-147.7625569292052
 30
0.0
 10
113.9120822197859
 20
-147.7625569292052
 30
0.0
 10
113.9120822197859
 20
-147.7625569292052
 30
0.0
 10
113.9120822197859
 20
-149.3069932352427
 30
0.0
 10
113.9120822197859
 20
-149.3069932352427
 30
0.0
 10
113.9120822197859
 20
-149.3069932352427
 30
0.0
 10
113.6878065036961
 20
-149.3069932352427
 30
0.0
 10
113.6878065036961
 20
-149.3069932352427
 30
0.0
  0
HATCH
  5
107
330
102
100
AcDbEntity
  8
レイヤー 1
 62
   250
420
  2299925
440
 33554687
100
AcDbHatch
 10
0.0
 20
0.0
 30
0.0
210
0.0
220
0.0
230
1.0
  2
SOLID
 70
     1
 71
     1
 91
        1
 92
        1
 93
        1
 72
     4
 94
        3
 73
     0
 74
     0
 95
       26
 96
       22
 40
0.0
 40
0.0
 40
0.0
 40
0.0
 40
1.0
 40
1.0
 40
1.0
 40
2.0
 40
2.0
 40
2.0
 40
3.0
 40
3.0
 40
3.0
 40
4.0
 40
4.0
 40
4.0
 40
5.0
 40
5.0
 40
5.0
 40
6.0
 40
6.0
 40
6.0
 40
7.0
 40
7.0
 40
7.0
 40
7.0
 10
113.6878065036961
 20
-149.3069932352427
 10
113.6878065036961
 20
-149.3069932352427
 10
113.6878065036961
 20
-148.2024956226716
 10
113.6878065036961
 20
-148.2024956226716
 10
113.6878065036961
 20
-148.2024956226716
 10
113.3577663562091
 20
-148.2024956226716
 10
113.3577663562091
 20
-148.2024956226716
 10
113.3577663562091
 20
-148.2024956226716
 10
113.3577663562091
 20
-148.0543565168058
 10
113.3577663562091
 20
-148.0543565168058
 10
113.6898735609872
 20
-148.0397148609935
 10
113.7363823500381
 20
-147.8767618445412
 10
113.7660101712113
 20
-147.7625569292052
 10
113.7660101712113
 20
-147.7625569292052
 10
113.9120822197859
 20
-147.7625569292052
 10
113.9120822197859
 20
-147.7625569292052
 10
113.9120822197859
 20
-147.7625569292052
 10
113.9120822197859
 20
-149.3069932352427
 10
113.9120822197859
 20
-149.3069932352427
 10
113.9120822197859
 20
-149.3069932352427
 10
113.6878065036961
 20
-149.3069932352427
 10
113.6878065036961
 20
-149.3069932352427
 97
        0
 97
        1
330
106
 75
     2
 76
     1
 98
        1
 10
0.0
 20
0.0
450
        0
451
        0
460
0.0
461
0.0
452
        0
462
0.0
453
        0
470

  0
ENDBLK
  5
105
330
102
100
AcDbEntity
  8
0
100
AcDbBlockEnd
  0
BLOCK
  5
10A
330
108
100
AcDbEntity
  8
0
100
AcDbBlockBegin
  2
Block_11
 70
     0
 10
0.0
 20
0.0
 30
0.0
  3
Block_11
  1

  0
SPLINE
  5
10C
330
108
100
AcDbEntity
  8
レイヤー 1
 62
   250
420
  2299925
370
     9
100
AcDbSpline
210
0.0
220
0.0
230
1.0
 70
     8
 71
     3
 72
    26
 73
    22
 74
     0
 42
0.0000000001
 43
0.0000000001
 40
0.0
 40
0.0
 40
0.0
 40
0.0
 40
1.0
 40
1.0
 40
1.0
 40
2.0
 40
2.0
 40
2.0
 40
3.0
 40
3.0
 40
3.0
 40
4.0
 40
4.0
 40
4.0
 40
5.0
 40
5.0
 40
5.0
 40
6.0
 40
6.0
 40
6.0
 40
7.0
 40
7.0
 40
7.0
 40
7.0
 10
128.8193808225069
 20
-147.3907258374233
 30
0.0
 10
128.8193808225069
 20
-147.3907258374233
 30
0.0
 10
120.2273371528193
 20
-150.4134669477781
 30
0.0
 10
120.2273371528193
 20
-150.4134669477781
 30
0.0
 10
120.2273371528193
 20
-150.4134669477781
 30
0.0
 10
118.8589474655077
 20
-150.6794261143788
 30
0.0
 10
119.3722391190792
 20
-151.1355325031538
 30
0.0
 10
119.3722391190792
 20
-151.1355325031538
 30
0.0
 10
119.6761218891042
 20
-151.3257150031056
 30
0.0
 10
120.2087104866279
 20
-151.5351591697204
 30
0.0
 10
120.2087104866279
 20
-151.5351591697204
 30
0.0
 10
125.2075714702074
 20
-153.5532950025491
 30
0.0
 10
125.2075714702074
 20
-153.5532950025491
 30
0.0
 10
125.2075714702074
 20
-153.5532950025491
 30
0.0
 10
125.2075714702074
 20
-156.6283883351137
 30
0.0
 10
125.2075714702074
 20
-156.6283883351137
 30
0.0
 10
125.2075714702074
 20
-156.6283883351137
 30
0.0
 10
127.8499475139059
 20
-157.9024100014625
 30
0.0
 10
127.8499475139059
 20
-157.9024100014625
 30
0.0
 10
127.8499475139059
 20
-157.9024100014625
 30
0.0
 10
138.032948365227
 20
-153.4988966692291
 30
0.0
 10
138.032948365227
 20
-153.4988966692291
 30
0.0
  0
LINE
  5
10D
330
108
100
AcDbEntity
  8
レイヤー 1
 62
   250
420
  2299925
370
     9
100
AcDbLine
 10
127.3559175265097
 20
-154.0528636135355
 30
0.0
 11
137.5389183778308
 21
-150.0523988923131
 31
0.0
  0
SPLINE
  5
10E
330
108
100
AcDbEntity
  8
レイヤー 1
 62
   250
420
  2299925
370
     9
100
AcDbSpline
210
0.0
220
0.0
230
1.0
 70
     8
 71
     3
 72
    26
 73
    22
 74
     0
 42
0.0000000001
 43
0.0000000001
 40
0.0
 40
0.0
 40
0.0
 40
0.0
 40
1.0
 40
1.0
 40
1.0
 40
2.0
 40
2.0
 40
2.0
 40
3.0
 40
3.0
 40
3.0
 40
4.0
 40
4.0
 40
4.0
 40
5.0
 40
5.0
 40
5.0
 40
6.0
 40
6.0
 40
6.0
 40
7.0
 40
7.0
 40
7.0
 40
7.0
 10
128.9137841534318
 20
-147.5616113929359
 30
0.0
 10
128.9137841534318
 20
-147.5616113929359
 30
0.0
 10
120.0185632692567
 20
-150.6794261143788
 30
0.0
 10
120.0185632692567
 20
-150.6794261143788
 30
0.0
 10
120.0185632692567
 20
-150.6794261143788
 30
0.0
 10
119.5438302258126
 20
-150.7552027810264
 30
0.0
 10
119.5817185581793
 20
-150.9260883365391
 30
0.0
 10
119.5817185581793
 20
-150.9260883365391
 30
0.0
 10
119.5624216142272
 20
-151.0025705587422
 30
0.0
 10
119.8669746620129
 20
-151.0976441698297
 30
0.0
 10
119.8669746620129
 20
-151.0976441698297
 30
0.0
 10
125.5493072948224
 20
-153.3403936137137
 30
0.0
 10
125.5493072948224
 20
-153.3403936137137
 30
0.0
 10
125.5493072948224
 20
-153.3403936137137
 30
0.0
 10
125.5493072948224
 20
-156.3059494463052
 30
0.0
 10
125.5493072948224
 20
-156.3059494463052
 30
0.0
 10
125.5493072948224
 20
-156.3059494463052
 30
0.0
 10
127.3559175265097
 20
-157.1610122238694
 30
0.0
 10
127.3559175265097
 20
-157.1610122238694
 30
0.0
 10
127.3559175265097
 20
-157.1610122238694
 30
0.0
 10
127.3559175265097
 20
-154.0528636135355
 30
0.0
 10
127.3559175265097
 20
-154.0528636135355
 30
0.0
  0
LINE
  5
10F
330
108
100
AcDbEntity
  8
レイヤー 1
 62
   250
420
  2299925
370
     9
100
AcDbLine
 10
134.8641573349585
 20
-149.6148838924224
 30
0.0
 11
125.5493072948224
 21
-153.3403936137137
 31
0.0
  0
LINE
  5
110
330
108
100
AcDbEntity
  8
レイヤー 1
 62
   250
420
  2299925
370
     9
100
AcDbLine
 10
127.8499475139059
 20
-157.9024100014625
 30
0.0
 11
127.8499475139059
 21
-154.2478438912645
 31
0.0
  0
LINE
  5
111
330
108
100
AcDbEntity
  8
レイヤー 1
 62
   250
420
  2299925
370
     9
100
AcDbLine
 10
125.5493072948224
 20
-156.3059494463052
 30
0.0
 11
127.3559175265097
 21
-155.6541219464681
 31
0.0
  0
SPLINE
  5
112
330
108
100
AcDbEntity
  8
レイヤー 1
 62
   250
420
  2299925
370
     9
100
AcDbSpline
210
0.0
220
0.0
230
1.0
 70
     9
 71
     3
 72
    17
 73
    13
 74
     0
 42
0.0000000001
 43
0.0000000001
 40
0.0
 40
0.0
 40
0.0
 40
0.0
 40
1.0
 40
1.0
 40
1.0
 40
2.0
 40
2.0
 40
2.0
 40
3.0
 40
3.0
 40
3.0
 40
4.0
 40
4.0
 40
4.0
 40
4.0
 10
132.1439232376908
 20
-149.3957736146993
 30
0.0
 10
132.1439232376908
 20
-149.6307236146409
 30
0.0
 10
131.8152401905207
 20
-149.8215763923707
 30
0.0
 10
131.4107804786171
 20
-149.8215763923707
 30
0.0
 10
131.0042780288148
 20
-149.8215763923707
 30
0.0
 10
130.6770027195595
 20
-149.6307236146409
 30
0.0
 10
130.6770027195595
 20
-149.3957736146993
 30
0.0
 10
130.6770027195595
 20
-149.1608236147583
 30
0.0
 10
131.0042780288148
 20
-148.9706411148058
 30
0.0
 10
131.4107804786171
 20
-148.9706411148058
 30
0.0
 10
131.8152401905207
 20
-148.9706411148058
 30
0.0
 10
132.1439232376908
 20
-149.1608236147583
 30
0.0
 10
132.1439232376908
 20
-149.3957736146993
 30
0.0
  0
SPLINE
  5
113
330
108
100
AcDbEntity
  8
レイヤー 1
 62
   250
420
  2299925
370
     9
100
AcDbSpline
210
0.0
220
0.0
230
1.0
 70
     8
 71
     3
 72
    11
 73
     7
 74
     0
 42
0.0000000001
 43
0.0000000001
 40
0.0
 40
0.0
 40
0.0
 40
0.0
 40
1.0
 40
1.0
 40
1.0
 40
2.0
 40
2.0
 40
2.0
 40
2.0
 10
130.8044613274189
 20
-149.6300533368629
 30
0.0
 10
130.8044613274189
 20
-149.6300533368629
 30
0.0
 10
130.7824127168702
 20
-149.1187725036573
 30
0.0
 10
131.6120049179278
 20
-149.1621994480911
 30
0.0
 10
131.6120049179278
 20
-149.1621994480911
 30
0.0
 10
132.1012018498918
 20
-149.2255936147422
 30
0.0
 10
132.0164293520546
 20
-149.6086750035353
 30
0.0
  0
SPLINE
  5
114
330
108
100
AcDbEntity
  8
レイヤー 1
 62
   250
420
  2299925
370
     9
100
AcDbSpline
210
0.0
220
0.0
230
1.0
 70
     9
 71
     3
 72
    17
 73
    13
 74
     0
 42
0.0000000001
 43
0.0000000001
 40
0.0
 40
0.0
 40
0.0
 40
0.0
 40
1.0
 40
1.0
 40
1.0
 40
2.0
 40
2.0
 40
2.0
 40
3.0
 40
3.0
 40
3.0
 40
4.0
 40
4.0
 40
4.0
 40
4.0
 10
131.9075621326098
 20
-148.3153916705249
 30
0.0
 10
131.9075621326098
 20
-148.5503416704666
 30
0.0
 10
131.5789143632165
 20
-148.7411944481964
 30
0.0
 10
131.1744546513129
 20
-148.7411944481964
 30
0.0
 10
130.7686224733177
 20
-148.7411944481964
 30
0.0
 10
130.4406416144785
 20
-148.5503416704666
 30
0.0
 10
130.4406416144785
 20
-148.3153916705249
 30
0.0
 10
130.4406416144785
 20
-148.0804416705839
 30
0.0
 10
130.7686224733177
 20
-147.8895888928535
 30
0.0
 10
131.1744546513129
 20
-147.8895888928535
 30
0.0
 10
131.5789143632165
 20
-147.8895888928535
 30
0.0
 10
131.9075621326098
 20
-148.0804416705839
 30
0.0
 10
131.9075621326098
 20
-148.3153916705249
 30
0.0
  0
SPLINE
  5
115
330
108
100
AcDbEntity
  8
レイヤー 1
 62
   250
420
  2299925
370
     9
100
AcDbSpline
210
0.0
220
0.0
230
1.0
 70
     8
 71
     3
 72
    11
 73
     7
 74
     0
 42
0.0000000001
 43
0.0000000001
 40
0.0
 40
0.0
 40
0.0
 40
0.0
 40
1.0
 40
1.0
 40
1.0
 40
2.0
 40
2.0
 40
2.0
 40
2.0
 10
130.5681355001147
 20
-148.5489658371337
 30
0.0
 10
130.5681355001147
 20
-148.5489658371337
 30
0.0
 10
130.5467571673268
 20
-148.038390559483
 30
0.0
 10
131.3763493683844
 20
-148.0818175039168
 30
0.0
 10
131.3763493683844
 20
-148.0818175039168
 30
0.0
 10
131.8648760225876
 20
-148.1445061150123
 30
0.0
 10
131.7801035247504
 20
-148.5282930593609
 30
0.0
  0
SPLINE
  5
116
330
108
100
AcDbEntity
  8
レイヤー 1
 62
   250
420
  2299925
370
     9
100
AcDbSpline
210
0.0
220
0.0
230
1.0
 70
     9
 71
     3
 72
    17
 73
    13
 74
     0
 42
0.0000000001
 43
0.0000000001
 40
0.0
 40
0.0
 40
0.0
 40
0.0
 40
1.0
 40
1.0
 40
1.0
 40
2.0
 40
2.0
 40
2.0
 40
3.0
 40
3.0
 40
3.0
 40
4.0
 40
4.0
 40
4.0
 40
4.0
 10
122.2509762678587
 20
-150.9150463920978
 30
0.0
 10
122.2509762678587
 20
-151.1499963920388
 30
0.0
 10
121.9223284984654
 20
-151.3408844475468
 30
0.0
 10
121.5171632310243
 20
-151.3408844475468
 30
0.0
 10
121.1120363646209
 20
-151.3408844475468
 30
0.0
 10
120.7833501941898
 20
-151.1499963920388
 30
0.0
 10
120.7833501941898
 20
-150.9150463920978
 30
0.0
 10
120.7833501941898
 20
-150.6800963921562
 30
0.0
 10
121.1120363646209
 20
-150.4892436144264
 30
0.0
 10
121.5171632310243
 20
-150.4892436144264
 30
0.0
 10
121.9223284984654
 20
-150.4892436144264
 30
0.0
 10
122.2509762678587
 20
-150.6800963921562
 30
0.0
 10
122.2509762678587
 20
-150.9150463920978
 30
0.0
  0
SPLINE
  5
117
330
108
100
AcDbEntity
  8
レイヤー 1
 62
   250
420
  2299925
370
     9
100
AcDbSpline
210
0.0
220
0.0
230
1.0
 70
     8
 71
     3
 72
    11
 73
     7
 74
     0
 42
0.0000000001
 43
0.0000000001
 40
0.0
 40
0.0
 40
0.0
 40
0.0
 40
1.0
 40
1.0
 40
1.0
 40
2.0
 40
2.0
 40
2.0
 40
2.0
 10
120.9115143575868
 20
-151.1493261142608
 30
0.0
 10
120.9115143575868
 20
-151.1493261142608
 30
0.0
 10
120.8894657470382
 20
-150.6380805588334
 30
0.0
 10
121.7190579480957
 20
-150.6814722254891
 30
0.0
 10
121.7190579480957
 20
-150.6814722254891
 30
0.0
 10
122.2082548800597
 20
-150.7448663921401
 30
0.0
 10
122.1235176599993
 20
-151.1279477809332
 30
0.0
  0
SPLINE
  5
118
330
108
100
AcDbEntity
  8
レイヤー 1
 62
   250
420
  2299925
370
     9
100
AcDbSpline
210
0.0
220
0.0
230
1.0
 70
     9
 71
     3
 72
    17
 73
    13
 74
     0
 42
0.0000000001
 43
0.0000000001
 40
0.0
 40
0.0
 40
0.0
 40
0.0
 40
1.0
 40
1.0
 40
1.0
 40
2.0
 40
2.0
 40
2.0
 40
3.0
 40
3.0
 40
3.0
 40
4.0
 40
4.0
 40
4.0
 40
4.0
 10
129.9493985714556
 20
-150.4761555588736
 30
0.0
 10
129.9493985714556
 20
-150.7111055588153
 30
0.0
 10
129.6193396909872
 20
-150.901958336545
 30
0.0
 10
129.2148799790836
 20
-150.901958336545
 30
0.0
 10
128.8104555449569
 20
-150.901958336545
 30
0.0
 10
128.4817724977867
 20
-150.7111055588153
 30
0.0
 10
128.4817724977867
 20
-150.4761555588736
 30
0.0
 10
128.4817724977867
 20
-150.24187583671
 30
0.0
 10
128.8104555449569
 20
-150.0510230589802
 30
0.0
 10
129.2148799790836
 20
-150.0510230589802
 30
0.0
 10
129.6193396909872
 20
-150.0510230589802
 30
0.0
 10
129.9493985714556
 20
-150.24187583671
 30
0.0
 10
129.9493985714556
 20
-150.4761555588736
 30
0.0
  0
SPLINE
  5
119
330
108
100
AcDbEntity
  8
レイヤー 1
 62
   250
420
  2299925
370
     9
100
AcDbSpline
210
0.0
220
0.0
230
1.0
 70
     8
 71
     3
 72
    11
 73
     7
 74
     0
 42
0.0000000001
 43
0.0000000001
 40
0.0
 40
0.0
 40
0.0
 40
0.0
 40
1.0
 40
1.0
 40
1.0
 40
2.0
 40
2.0
 40
2.0
 40
2.0
 10
128.6092311056461
 20
-150.7104352810372
 30
0.0
 10
128.6092311056461
 20
-150.7104352810372
 30
0.0
 10
128.587888050635
 20
-150.1991544478317
 30
0.0
 10
129.4174835847673
 20
-150.2425813922655
 30
0.0
 10
129.4174835847673
 20
-150.2425813922655
 30
0.0
 10
129.9066771836566
 20
-150.3059755589165
 30
0.0
 10
129.8212344080587
 20
-150.6890569477097
 30
0.0
  0
SPLINE
  5
11A
330
108
100
AcDbEntity
  8
レイヤー 1
 62
   250
420
  2299925
370
     9
100
AcDbSpline
210
0.0
220
0.0
230
1.0
 70
     9
 71
     3
 72
    17
 73
    13
 74
     0
 42
0.0000000001
 43
0.0000000001
 40
0.0
 40
0.0
 40
0.0
 40
0.0
 40
1.0
 40
1.0
 40
1.0
 40
2.0
 40
2.0
 40
2.0
 40
3.0
 40
3.0
 40
3.0
 40
4.0
 40
4.0
 40
4.0
 40
4.0
 10
129.7123671886138
 20
-149.3957736146993
 30
0.0
 10
129.7123671886138
 20
-149.6307236146409
 30
0.0
 10
129.3837194192206
 20
-149.8215763923707
 30
0.0
 10
128.9785541517794
 20
-149.8215763923707
 30
0.0
 10
128.5740944398758
 20
-149.8215763923707
 30
0.0
 10
128.244741114945
 20
-149.6307236146409
 30
0.0
 10
128.244741114945
 20
-149.3957736146993
 30
0.0
 10
128.244741114945
 20
-149.1608236147583
 30
0.0
 10
128.5740944398758
 20
-148.9706411148058
 30
0.0
 10
128.9785541517794
 20
-148.9706411148058
 30
0.0
 10
129.3837194192206
 20
-148.9706411148058
 30
0.0
 10
129.7123671886138
 20
-149.1608236147583
 30
0.0
 10
129.7123671886138
 20
-149.3957736146993
 30
0.0
  0
SPLINE
  5
11B
330
108
100
AcDbEntity
  8
レイヤー 1
 62
   250
420
  2299925
370
     9
100
AcDbSpline
210
0.0
220
0.0
230
1.0
 70
     8
 71
     3
 72
    11
 73
     7
 74
     0
 42
0.0000000001
 43
0.0000000001
 40
0.0
 40
0.0
 40
0.0
 40
0.0
 40
1.0
 40
1.0
 40
1.0
 40
2.0
 40
2.0
 40
2.0
 40
2.0
 10
128.3736141405829
 20
-149.6300533368629
 30
0.0
 10
128.3736141405829
 20
-149.6300533368629
 30
0.0
 10
128.3515622233309
 20
-149.1187725036573
 30
0.0
 10
129.1804488688509
 20
-149.1621994480911
 30
0.0
 10
129.1804488688509
 20
-149.1621994480911
 30
0.0
 10
129.6696458008149
 20
-149.2255936147422
 30
0.0
 10
129.5849085807545
 20
-149.6086750035353
 30
0.0
  0
SPLINE
  5
11C
330
108
100
AcDbEntity
  8
レイヤー 1
 62
   250
420
  2299925
370
     9
100
AcDbSpline
210
0.0
220
0.0
230
1.0
 70
     9
 71
     3
 72
    17
 73
    13
 74
     0
 42
0.0000000001
 43
0.0000000001
 40
0.0
 40
0.0
 40
0.0
 40
0.0
 40
1.0
 40
1.0
 40
1.0
 40
2.0
 40
2.0
 40
2.0
 40
3.0
 40
3.0
 40
3.0
 40
4.0
 40
4.0
 40
4.0
 40
4.0
 10
129.1728641468222
 20
-148.4504350038249
 30
0.0
 10
129.1728641468222
 20
-148.6853850037659
 30
0.0
 10
128.8435141404661
 20
-148.8762377814957
 30
0.0
 10
128.4390511099877
 20
-148.8762377814957
 30
0.0
 10
128.0339211203235
 20
-148.8762377814957
 30
0.0
 10
127.7045677953926
 20
-148.6853850037659
 30
0.0
 10
127.7045677953926
 20
-148.4504350038249
 30
0.0
 10
127.7045677953926
 20
-148.2154850038833
 30
0.0
 10
128.0339211203235
 20
-148.0253025039308
 30
0.0
 10
128.4390511099877
 20
-148.0253025039308
 30
0.0
 10
128.8435141404661
 20
-148.0253025039308
 30
0.0
 10
129.1728641468222
 20
-148.2154850038833
 30
0.0
 10
129.1728641468222
 20
-148.4504350038249
 30
0.0
  0
SPLINE
  5
11D
330
108
100
AcDbEntity
  8
レイヤー 1
 62
   250
420
  2299925
370
     9
100
AcDbSpline
210
0.0
220
0.0
230
1.0
 70
     8
 71
     3
 72
    11
 73
     7
 74
     0
 42
0.0000000001
 43
0.0000000001
 40
0.0
 40
0.0
 40
0.0
 40
0.0
 40
1.0
 40
1.0
 40
1.0
 40
2.0
 40
2.0
 40
2.0
 40
2.0
 10
127.8327319587896
 20
-148.6847147259886
 30
0.0
 10
127.8327319587896
 20
-148.6847147259886
 30
0.0
 10
127.8120591815392
 20
-148.173433892783
 30
0.0
 10
128.6402402715216
 20
-148.2168608372162
 30
0.0
 10
128.6402402715216
 20
-148.2168608372162
 30
0.0
 10
129.1294372034856
 20
-148.2802550038672
 30
0.0
 10
129.0446999834252
 20
-148.6633363926603
 30
0.0
  0
SPLINE
  5
11E
330
108
100
AcDbEntity
  8
レイヤー 1
 62
   250
420
  2299925
370
     9
100
AcDbSpline
210
0.0
220
0.0
230
1.0
 70
     9
 71
     3
 72
    17
 73
    13
 74
     0
 42
0.0000000001
 43
0.0000000001
 40
0.0
 40
0.0
 40
0.0
 40
0.0
 40
1.0
 40
1.0
 40
1.0
 40
2.0
 40
2.0
 40
2.0
 40
3.0
 40
3.0
 40
3.0
 40
4.0
 40
4.0
 40
4.0
 40
4.0
 10
127.6528891407638
 20
-151.2864508364492
 30
0.0
 10
127.6528891407638
 20
-151.5214008363902
 30
0.0
 10
127.3235325273359
 20
-151.7122536141207
 30
0.0
 10
126.9190728154323
 20
-151.7122536141207
 30
0.0
 10
126.5132372702304
 20
-151.7122536141207
 30
0.0
 10
126.1859653341354
 20
-151.5214008363902
 30
0.0
 10
126.1859653341354
 20
-151.2864508364492
 30
0.0
 10
126.1859653341354
 20
-151.0515008365076
 30
0.0
 10
126.5132372702304
 20
-150.8613183365552
 30
0.0
 10
126.9190728154323
 20
-150.8613183365552
 30
0.0
 10
127.3235325273359
 20
-150.8613183365552
 30
0.0
 10
127.6528891407638
 20
-151.0515008365076
 30
0.0
 10
127.6528891407638
 20
-151.2864508364492
 30
0.0
  0
SPLINE
  5
11F
330
108
100
AcDbEntity
  8
レイヤー 1
 62
   250
420
  2299925
370
     9
100
AcDbSpline
210
0.0
220
0.0
230
1.0
 70
     8
 71
     3
 72
    11
 73
     7
 74
     0
 42
0.0000000001
 43
0.0000000001
 40
0.0
 40
0.0
 40
0.0
 40
0.0
 40
1.0
 40
1.0
 40
1.0
 40
2.0
 40
2.0
 40
2.0
 40
2.0
 10
126.3134239419948
 20
-151.5206952808347
 30
0.0
 10
126.3134239419948
 20
-151.5206952808347
 30
0.0
 10
126.2913753314462
 20
-151.0094497254073
 30
0.0
 10
127.1216378102644
 20
-151.0528766698405
 30
0.0
 10
127.1216378102644
 20
-151.0528766698405
 30
0.0
 10
127.6101644644677
 20
-151.116235558714
 30
0.0
 10
127.5247216888698
 20
-151.4993522252846
 30
0.0
  0
SPLINE
  5
120
330
108
100
AcDbEntity
  8
レイヤー 1
 62
   250
420
  2299925
370
     9
100
AcDbSpline
210
0.0
220
0.0
230
1.0
 70
     9
 71
     3
 72
    17
 73
    13
 74
     0
 42
0.0000000001
 43
0.0000000001
 40
0.0
 40
0.0
 40
0.0
 40
0.0
 40
1.0
 40
1.0
 40
1.0
 40
2.0
 40
2.0
 40
2.0
 40
3.0
 40
3.0
 40
3.0
 40
4.0
 40
4.0
 40
4.0
 40
4.0
 10
127.415854469425
 20
-150.2060688922749
 30
0.0
 10
127.415854469425
 20
-150.4410188922159
 30
0.0
 10
127.0872067000317
 20
-150.6318716699463
 30
0.0
 10
126.6827502521175
 20
-150.6318716699463
 30
0.0
 10
126.2776169984638
 20
-150.6318716699463
 30
0.0
 10
125.9489339512937
 20
-150.4410188922159
 30
0.0
 10
125.9489339512937
 20
-150.2060688922749
 30
0.0
 10
125.9489339512937
 20
-149.9717891701112
 30
0.0
 10
126.2776169984638
 20
-149.7802308368253
 30
0.0
 10
126.6827502521175
 20
-149.7802308368253
 30
0.0
 10
127.0872067000317
 20
-149.7802308368253
 30
0.0
 10
127.415854469425
 20
-149.9717891701112
 30
0.0
 10
127.415854469425
 20
-150.2060688922749
 30
0.0
  0
SPLINE
  5
121
330
108
100
AcDbEntity
  8
レイヤー 1
 62
   250
420
  2299925
370
     9
100
AcDbSpline
210
0.0
220
0.0
230
1.0
 70
     8
 71
     3
 72
    11
 73
     7
 74
     0
 42
0.0000000001
 43
0.0000000001
 40
0.0
 40
0.0
 40
0.0
 40
0.0
 40
1.0
 40
1.0
 40
1.0
 40
2.0
 40
2.0
 40
2.0
 40
2.0
 10
126.0770981146906
 20
-150.439643058883
 30
0.0
 10
126.0770981146906
 20
-150.439643058883
 30
0.0
 10
126.0557550596796
 20
-149.9290677812329
 30
0.0
 10
126.8846417051996
 20
-149.9724947256661
 30
0.0
 10
126.8846417051996
 20
-149.9724947256661
 30
0.0
 10
127.373841918611
 20
-150.0358536145396
 30
0.0
 10
127.2883958615656
 20
-150.4189702811103
 30
0.0
  0
SPLINE
  5
122
330
108
100
AcDbEntity
  8
レイヤー 1
 62
   250
420
  2299925
370
     9
100
AcDbSpline
210
0.0
220
0.0
230
1.0
 70
    11
 71
     3
 72
    17
 73
    13
 74
     0
 42
0.0000000001
 43
0.0000000001
 40
0.0
 40
0.0
 40
0.0
 40
0.0
 40
1.0
 40
1.0
 40
1.0
 40
2.0
 40
2.0
 40
2.0
 40
3.0
 40
3.0
 40
3.0
 40
4.0
 40
4.0
 40
4.0
 40
4.0
 10
126.8763514276333
 20
-149.2607302813999
 30
0.0
 10
126.8763514276333
 20
-149.4956802813409
 30
0.0
 10
126.5469981027025
 20
-149.6858627812933
 30
0.0
 10
126.1432439463364
 20
-149.6858627812933
 30
0.0
 10
125.7374084011346
 20
-149.6858627812933
 30
0.0
 10
125.4087606317413
 20
-149.4956802813409
 30
0.0
 10
125.4087606317413
 20
-149.2607302813999
 30
0.0
 10
125.4087606317413
 20
-149.0257802814589
 30
0.0
 10
125.7374084011346
 20
-148.8355977815065
 30
0.0
 10
126.1432439463364
 20
-148.8355977815065
 30
0.0
 10
126.5469981027025
 20
-148.8355977815065
 30
0.0
 10
126.8763514276333
 20
-149.0257802814589
 30
0.0
 10
126.8763514276333
 20
-149.2607302813999
 30
0.0
  0
SPLINE
  5
123
330
108
100
AcDbEntity
  8
レイヤー 1
 62
   250
420
  2299925
370
     9
100
AcDbSpline
210
0.0
220
0.0
230
1.0
 70
     8
 71
     3
 72
    11
 73
     7
 74
     0
 42
0.0000000001
 43
0.0000000001
 40
0.0
 40
0.0
 40
0.0
 40
0.0
 40
1.0
 40
1.0
 40
1.0
 40
2.0
 40
2.0
 40
2.0
 40
2.0
 10
125.5369280301818
 20
-149.494304448008
 30
0.0
 10
125.5369280301818
 20
-149.494304448008
 30
0.0
 10
125.5155464623503
 20
-148.983729170358
 30
0.0
 10
126.3437628301097
 20
-149.0271561147918
 30
0.0
 10
126.3437628301097
 20
-149.0271561147918
 30
0.0
 10
126.8336300398343
 20
-149.0905502814422
 30
0.0
 10
126.7488928197739
 20
-149.4736316702353
 30
0.0
  0
SPLINE
  5
124
330
108
100
AcDbEntity
  8
レイヤー 1
 62
   250
420
  2299925
370
     9
100
AcDbSpline
210
0.0
220
0.0
230
1.0
 70
     9
 71
     3
 72
    17
 73
    13
 74
     0
 42
0.0000000001
 43
0.0000000001
 40
0.0
 40
0.0
 40
0.0
 40
0.0
 40
1.0
 40
1.0
 40
1.0
 40
2.0
 40
2.0
 40
2.0
 40
3.0
 40
3.0
 40
3.0
 40
4.0
 40
4.0
 40
4.0
 40
4.0
 10
125.2213298031898
 20
-152.0974163918016
 30
0.0
 10
125.2213298031898
 20
-152.3316961139652
 30
0.0
 10
124.8926820337965
 20
-152.5225488916963
 30
0.0
 10
124.4875167663553
 20
-152.5225488916963
 30
0.0
 10
124.0823867766911
 20
-152.5225488916963
 30
0.0
 10
123.7537390072978
 20
-152.3316961139652
 30
0.0
 10
123.7537390072978
 20
-152.0974163918016
 30
0.0
 10
123.7537390072978
 20
-151.8624663918606
 30
0.0
 10
124.0823867766911
 20
-151.6716136141308
 30
0.0
 10
124.4875167663553
 20
-151.6716136141308
 30
0.0
 10
124.8926820337965
 20
-151.6716136141308
 30
0.0
 10
125.2213298031898
 20
-151.8624663918606
 30
0.0
 10
125.2213298031898
 20
-152.0974163918016
 30
0.0
  0
SPLINE
  5
125
330
108
100
AcDbEntity
  8
レイヤー 1
 62
   250
420
  2299925
370
     9
100
AcDbSpline
210
0.0
220
0.0
230
1.0
 70
     8
 71
     3
 72
    11
 73
     7
 74
     0
 42
0.0000000001
 43
0.0000000001
 40
0.0
 40
0.0
 40
0.0
 40
0.0
 40
1.0
 40
1.0
 40
1.0
 40
2.0
 40
2.0
 40
2.0
 40
2.0
 10
123.8818678929178
 20
-152.3309905584103
 30
0.0
 10
123.8818678929178
 20
-152.3309905584103
 30
0.0
 10
123.8598224750453
 20
-151.8204152807603
 30
0.0
 10
124.6901170389643
 20
-151.8631366696386
 30
0.0
 10
124.6901170389643
 20
-151.8631366696386
 30
0.0
 10
125.1786084153908
 20
-151.926530836289
 30
0.0
 10
125.0945446969588
 20
-152.3103177806376
 30
0.0
  0
SPLINE
  5
126
330
108
100
AcDbEntity
  8
レイヤー 1
 62
   250
420
  2299925
370
     9
100
AcDbSpline
210
0.0
220
0.0
230
1.0
 70
     9
 71
     3
 72
    17
 73
    13
 74
     0
 42
0.0000000001
 43
0.0000000001
 40
0.0
 40
0.0
 40
0.0
 40
0.0
 40
1.0
 40
1.0
 40
1.0
 40
2.0
 40
2.0
 40
2.0
 40
3.0
 40
3.0
 40
3.0
 40
4.0
 40
4.0
 40
4.0
 40
4.0
 10
124.9857095314232
 20
-151.0163288920724
 30
0.0
 10
124.9857095314232
 20
-151.2513141697909
 30
0.0
 10
124.6556506509548
 20
-151.4421669475219
 30
0.0
 10
124.2511909390512
 20
-151.4421669475219
 30
0.0
 10
123.8460641417151
 20
-151.4421669475219
 30
0.0
 10
123.5180834577543
 20
-151.2513141697909
 30
0.0
 10
123.5180834577543
 20
-151.0163288920724
 30
0.0
 10
123.5180834577543
 20
-150.7813788921307
 30
0.0
 10
123.8460641417151
 20
-150.5912316699564
 30
0.0
 10
124.2511909390512
 20
-150.5912316699564
 30
0.0
 10
124.6556506509548
 20
-150.5912316699564
 30
0.0
 10
124.9857095314232
 20
-150.7813788921307
 30
0.0
 10
124.9857095314232
 20
-151.0163288920724
 30
0.0
  0
SPLINE
  5
127
330
108
100
AcDbEntity
  8
レイヤー 1
 62
   250
420
  2299925
370
     9
100
AcDbSpline
210
0.0
220
0.0
230
1.0
 70
     8
 71
     3
 72
    11
 73
     7
 74
     0
 42
0.0000000001
 43
0.0000000001
 40
0.0
 40
0.0
 40
0.0
 40
0.0
 40
1.0
 40
1.0
 40
1.0
 40
2.0
 40
2.0
 40
2.0
 40
2.0
 10
123.644871787853
 20
-151.250608614236
 30
0.0
 10
123.644871787853
 20
-151.250608614236
 30
0.0
 10
123.6241990106026
 20
-150.7393630588079
 30
0.0
 10
124.4537559338833
 20
-150.7827547254642
 30
0.0
 10
124.4537559338833
 20
-150.7827547254642
 30
0.0
 10
124.9429881436242
 20
-150.8461488921146
 30
0.0
 10
124.8575453680262
 20
-151.2292655586852
 30
0.0
  0
SPLINE
  5
128
330
108
100
AcDbEntity
  8
レイヤー 1
 62
   250
420
  2299925
370
     9
100
AcDbSpline
210
0.0
220
0.0
230
1.0
 70
     9
 71
     3
 72
    17
 73
    13
 74
     0
 42
0.0000000001
 43
0.0000000001
 40
0.0
 40
0.0
 40
0.0
 40
0.0
 40
1.0
 40
1.0
 40
1.0
 40
2.0
 40
2.0
 40
2.0
 40
3.0
 40
3.0
 40
3.0
 40
4.0
 40
4.0
 40
4.0
 40
4.0
 10
124.4448306563332
 20
-150.0710255589749
 30
0.0
 10
124.4448306563332
 20
-150.3059755589165
 30
0.0
 10
124.1161476091631
 20
-150.4968283366463
 30
0.0
 10
123.7116878972595
 20
-150.4968283366463
 30
0.0
 10
123.3058523520577
 20
-150.4968283366463
 30
0.0
 10
122.9778780308213
 20
-150.3059755589165
 30
0.0
 10
122.9778780308213
 20
-150.0710255589749
 30
0.0
 10
122.9778780308213
 20
-149.8360402812563
 30
0.0
 10
123.3058523520577
 20
-149.6458930590814
 30
0.0
 10
123.7116878972595
 20
-149.6458930590814
 30
0.0
 10
124.1161476091631
 20
-149.6458930590814
 30
0.0
 10
124.4448306563332
 20
-149.8360402812563
 30
0.0
 10
124.4448306563332
 20
-150.0710255589749
 30
0.0
  0
SPLINE
  5
129
330
108
100
AcDbEntity
  8
レイヤー 1
 62
   250
420
  2299925
370
     9
100
AcDbSpline
210
0.0
220
0.0
230
1.0
 70
     8
 71
     3
 72
    11
 73
     7
 74
     0
 42
0.0000000001
 43
0.0000000001
 40
0.0
 40
0.0
 40
0.0
 40
0.0
 40
1.0
 40
1.0
 40
1.0
 40
2.0
 40
2.0
 40
2.0
 40
2.0
 10
123.106039023822
 20
-150.305270003361
 30
0.0
 10
123.106039023822
 20
-150.305270003361
 30
0.0
 10
123.0839904132734
 20
-149.7940244479336
 30
0.0
 10
123.913582614331
 20
-149.8374161145892
 30
0.0
 10
123.913582614331
 20
-149.8374161145892
 30
0.0
 10
124.4027795462949
 20
-149.9008102812403
 30
0.0
 10
124.317336770697
 20
-150.2839269478109
 30
0.0
  0
LINE
  5
12A
330
108
100
AcDbEntity
  8
レイヤー 1
 62
   250
420
  2299925
370
     9
100
AcDbLine
 10
127.355247248749
 20
-154.0528636135355
 30
0.0
 11
127.8499475139059
 21
-154.2478438912645
 31
0.0
  0
LINE
  5
12B
330
108
100
AcDbEntity
  8
レイヤー 1
 62
   250
420
  2299925
370
     9
100
AcDbLine
 10
127.8499475139059
 20
-154.2478438912645
 30
0.0
 11
138.032948365227
 21
-150.2474144478197
 31
0.0
  0
ENDBLK
  5
10B
330
108
100
AcDbEntity
  8
0
100
AcDbBlockEnd
  0
BLOCK
  5
130
330
12E
100
AcDbEntity
  8
0
100
AcDbBlockBegin
  2
Block_12
 70
     0
 10
0.0
 20
0.0
 30
0.0
  3
Block_12
  1

  0
INSERT
  5
133
330
12E
100
AcDbEntity
  8
レイヤー 1
100
AcDbBlockReference
  2
Block_13
 10
0.0
 20
0.0
 30
0.0
  0
INSERT
  5
13A
330
12E
100
AcDbEntity
  8
レイヤー 1
100
AcDbBlockReference
  2
Block_14
 10
0.0
 20
0.0
 30
0.0
  0
ENDBLK
  5
131
330
12E
100
AcDbEntity
  8
0
100
AcDbBlockEnd
  0
BLOCK
  5
134
330
132
100
AcDbEntity
  8
0
100
AcDbBlockBegin
  2
Block_13
 70
     0
 10
0.0
 20
0.0
 30
0.0
  3
Block_13
  1

  0
LINE
  5
136
330
132
100
AcDbEntity
  8
レイヤー 1
 62
    18
420
        0
370
     9
100
AcDbLine
 10
84.04169258590346
 20
-146.9035750042117
 30
0.0
 11
84.85301089853868
 21
-147.4885511151765
 31
0.0
  0
LINE
  5
137
330
132
100
AcDbEntity
  8
レイヤー 1
 62
    18
420
        0
370
     9
100
AcDbLine
 10
84.04169258590346
 20
-146.9035750042117
 30
0.0
 11
86.61929863125436
 21
-150.0606891700885
 31
0.0
  0
LINE
  5
138
330
132
100
AcDbEntity
  8
レイヤー 1
 62
    18
420
        0
370
     9
100
AcDbLine
 10
84.04169258590346
 20
-146.9035750042117
 30
0.0
 11
84.45200840876877
 21
-147.8158583373167
 31
0.0
  0
ENDBLK
  5
135
330
132
100
AcDbEntity
  8
0
100
AcDbBlockEnd
  0
BLOCK
  5
13B
330
139
100
AcDbEntity
  8
0
100
AcDbBlockBegin
  2
Block_14
 70
     0
 10
0.0
 20
0.0
 30
0.0
  3
Block_14
  1

  0
INSERT
  5
13E
330
139
100
AcDbEntity
  8
レイヤー 1
100
AcDbBlockReference
  2
Block_15
 10
0.0
 20
0.0
 30
0.0
  0
ENDBLK
  5
13C
330
139
100
AcDbEntity
  8
0
100
AcDbBlockEnd
  0
BLOCK
  5
13F
330
13D
100
AcDbEntity
  8
0
100
AcDbBlockBegin
  2
Block_15
 70
     0
 10
0.0
 20
0.0
 30
0.0
  3
Block_15
  1

  0
SPLINE
  5
141
330
13D
100
AcDbEntity
  8
レイヤー 1
100
AcDbSpline
210
0.0
220
0.0
230
1.0
 70
     9
 71
     3
 72
    17
 73
    13
 74
     0
 42
0.0000000001
 43
0.0000000001
 40
0.0
 40
0.0
 40
0.0
 40
0.0
 40
1.0
 40
1.0
 40
1.0
 40
2.0
 40
2.0
 40
2.0
 40
3.0
 40
3.0
 40
3.0
 40
4.0
 40
4.0
 40
4.0
 40
4.0
 10
88.28573945275495
 20
-150.5082980309493
 30
0.0
 10
88.26885848487723
 20
-150.5379258521224
 30
0.0
 10
88.2180433264698
 20
-150.6312879397727
 30
0.0
 10
88.20753578523978
 20
-150.6502359649416
 30
0.0
 10
88.39787731079985
 20
-150.7094916072879
 30
0.0
 10
88.41906464803413
 20
-150.7156927791613
 30
0.0
 10
88.49106714367584
 20
-150.7432535430433
 30
0.0
 10
88.54601641666558
 20
-150.656437136815
 30
0.0
 10
88.56927081119101
 20
-150.5823675838822
 30
0.0
 10
88.5840847217776
 20
-150.5082980309493
 30
0.0
 10
88.5840847217776
 20
-150.5082980309493
 30
0.0
 10
88.28573945275495
 20
-150.5082980309493
 30
0.0
 10
88.28573945275495
 20
-150.5082980309493
 30
0.0
  0
SPLINE
  5
142
330
13D
100
AcDbEntity
  8
レイヤー 1
100
AcDbSpline
210
0.0
220
0.0
230
1.0
 70
    11
 71
     3
 72
    20
 73
    16
 74
     0
 42
0.0000000001
 43
0.0000000001
 40
0.0
 40
0.0
 40
0.0
 40
0.0
 40
1.0
 40
1.0
 40
1.0
 40
2.0
 40
2.0
 40
2.0
 40
3.0
 40
3.0
 40
3.0
 40
4.0
 40
4.0
 40
4.0
 40
5.0
 40
5.0
 40
5.0
 40
5.0
 10
88.22234969582636
 20
-149.6580484651896
 30
0.0
 10
88.22234969582636
 20
-149.6580484651896
 30
0.0
 10
88.19065481736206
 20
-149.6580484651896
 30
0.0
 10
88.19065481736206
 20
-149.6580484651896
 30
0.0
 10
88.23716360641293
 20
-149.7572672151648
 30
0.0
 10
88.26885848487723
 20
-149.8378824495197
 30
0.0
 10
88.30279267540694
 20
-149.9646619633769
 30
0.0
 10
88.30279267540694
 20
-149.9646619633769
 30
0.0
 10
88.51001516884471
 20
-149.9646619633769
 30
0.0
 10
88.51001516884471
 20
-149.9646619633769
 30
0.0
 10
88.54171004730902
 20
-149.8716443852751
 30
0.0
 10
88.56496444183447
 20
-149.786895036338
 30
0.0
 10
88.58821883635989
 20
-149.6580484651896
 30
0.0
 10
88.58821883635989
 20
-149.6580484651896
 30
0.0
 10
88.22234969582636
 20
-149.6580484651896
 30
0.0
 10
88.22234969582636
 20
-149.6580484651896
 30
0.0
  0
SPLINE
  5
143
330
13D
100
AcDbEntity
  8
レイヤー 1
100
AcDbSpline
210
0.0
220
0.0
230
1.0
 70
     9
 71
     3
 72
   242
 73
   238
 74
     0
 42
0.0000000001
 43
0.0000000001
 40
0.0
 40
0.0
 40
0.0
 40
0.0
 40
1.0
 40
1.0
 40
1.0
 40
2.0
 40
2.0
 40
2.0
 40
3.0
 40
3.0
 40
3.0
 40
4.0
 40
4.0
 40
4.0
 40
5.0
 40
5.0
 40
5.0
 40
6.0
 40
6.0
 40
6.0
 40
7.0
 40
7.0
 40
7.0
 40
8.0
 40
8.0
 40
8.0
 40
9.0
 40
9.0
 40
9.0
 40
10.0
 40
10.0
 40
10.0
 40
11.0
 40
11.0
 40
11.0
 40
12.0
 40
12.0
 40
12.0
 40
13.0
 40
13.0
 40
13.0
 40
14.0
 40
14.0
 40
14.0
 40
15.0
 40
15.0
 40
15.0
 40
16.0
 40
16.0
 40
16.0
 40
17.0
 40
17.0
 40
17.0
 40
18.0
 40
18.0
 40
18.0
 40
19.0
 40
19.0
 40
19.0
 40
20.0
 40
20.0
 40
20.0
 40
21.0
 40
21.0
 40
21.0
 40
22.0
 40
22.0
 40
22.0
 40
23.0
 40
23.0
 40
23.0
 40
24.0
 40
24.0
 40
24.0
 40
25.0
 40
25.0
 40
25.0
 40
26.0
 40
26.0
 40
26.0
 40
27.0
 40
27.0
 40
27.0
 40
28.0
 40
28.0
 40
28.0
 40
29.0
 40
29.0
 40
29.0
 40
30.0
 40
30.0
 40
30.0
 40
31.0
 40
31.0
 40
31.0
 40
32.0
 40
32.0
 40
32.0
 40
33.0
 40
33.0
 40
33.0
 40
34.0
 40
34.0
 40
34.0
 40
35.0
 40
35.0
 40
35.0
 40
36.0
 40
36.0
 40
36.0
 40
37.0
 40
37.0
 40
37.0
 40
38.0
 40
38.0
 40
38.0
 40
39.0
 40
39.0
 40
39.0
 40
40.0
 40
40.0
 40
40.0
 40
41.0
 40
41.0
 40
41.0
 40
42.0
 40
42.0
 40
42.0
 40
43.0
 40
43.0
 40
43.0
 40
44.0
 40
44.0
 40
44.0
 40
45.0
 40
45.0
 40
45.0
 40
46.0
 40
46.0
 40
46.0
 40
47.0
 40
47.0
 40
47.0
 40
48.0
 40
48.0
 40
48.0
 40
49.0
 40
49.0
 40
49.0
 40
50.0
 40
50.0
 40
50.0
 40
51.0
 40
51.0
 40
51.0
 40
52.0
 40
52.0
 40
52.0
 40
53.0
 40
53.0
 40
53.0
 40
54.0
 40
54.0
 40
54.0
 40
55.0
 40
55.0
 40
55.0
 40
56.0
 40
56.0
 40
56.0
 40
57.0
 40
57.0
 40
57.0
 40
58.0
 40
58.0
 40
58.0
 40
59.0
 40
59.0
 40
59.0
 40
60.0
 40
60.0
 40
60.0
 40
61.0
 40
61.0
 40
61.0
 40
62.0
 40
62.0
 40
62.0
 40
63.0
 40
63.0
 40
63.0
 40
64.0
 40
64.0
 40
64.0
 40
65.0
 40
65.0
 40
65.0
 40
66.0
 40
66.0
 40
66.0
 40
67.0
 40
67.0
 40
67.0
 40
68.0
 40
68.0
 40
68.0
 40
69.0
 40
69.0
 40
69.0
 40
70.0
 40
70.0
 40
70.0
 40
71.0
 40
71.0
 40
71.0
 40
72.0
 40
72.0
 40
72.0
 40
73.0
 40
73.0
 40
73.0
 40
74.0
 40
74.0
 40
74.0
 40
75.0
 40
75.0
 40
75.0
 40
76.0
 40
76.0
 40
76.0
 40
77.0
 40
77.0
 40
77.0
 40
78.0
 40
78.0
 40
78.0
 40
79.0
 40
79.0
 40
79.0
 40
79.0
 10
88.85056285756167
 20
-150.1234808652469
 30
0.0
 10
88.85056285756167
 20
-150.1234808652469
 30
0.0
 10
88.59683157507301
 20
-150.1234808652469
 30
0.0
 10
88.59683157507301
 20
-150.1234808652469
 30
0.0
 10
88.59683157507301
 20
-150.1234808652469
 30
0.0
 10
88.31967364328468
 20
-150.1234808652469
 30
0.0
 10
88.31967364328468
 20
-150.1234808652469
 30
0.0
 10
88.31967364328468
 20
-150.1234808652469
 30
0.0
 10
88.44662541191613
 20
-150.1658555397155
 30
0.0
 10
88.44662541191613
 20
-150.1658555397155
 30
0.0
 10
88.45713295314615
 20
-150.1699896542977
 30
0.0
 10
88.46987980644156
 20
-150.1761908261712
 30
0.0
 10
88.46987980644156
 20
-150.1889376794666
 30
0.0
 10
88.46987980644156
 20
-150.2102972714752
 30
0.0
 10
88.43818492797726
 20
-150.2164984433486
 30
0.0
 10
88.41699759074298
 20
-150.2206325579309
 30
0.0
 10
88.4063177947387
 20
-150.2440592072306
 30
0.0
 10
88.37668997356555
 20
-150.3095160214504
 30
0.0
 10
88.35774194839668
 20
-150.3539577532101
 30
0.0
 10
88.35774194839668
 20
-150.3539577532101
 30
0.0
 10
88.62852645353731
 20
-150.3539577532101
 30
0.0
 10
88.62852645353731
 20
-150.3539577532101
 30
0.0
 10
88.71947697434791
 20
-150.3539577532101
 30
0.0
 10
88.91619192655568
 20
-150.3498236386278
 30
0.0
 10
89.05795760577371
 20
-150.3412108999147
 30
0.0
 10
89.05795760577371
 20
-150.3412108999147
 30
0.0
 10
89.05795760577371
 20
-150.5189778269536
 30
0.0
 10
89.05795760577371
 20
-150.5189778269536
 30
0.0
 10
88.97544756890196
 20
-150.5148437123713
 30
0.0
 10
88.95426023166768
 20
-150.5148437123713
 30
0.0
 10
88.77442624733765
 20
-150.510709597789
 30
0.0
 10
88.74273136887335
 20
-150.6650498755282
 30
0.0
 10
88.69828963711363
 20
-150.7453206003345
 30
0.0
 10
88.6538479053539
 20
-150.8152560386851
 30
0.0
 10
88.77442624733765
 20
-150.8745116810314
 30
0.0
 10
88.88019067873482
 20
-150.9420355525423
 30
0.0
 10
88.98388805284083
 20
-151.0247178441882
 30
0.0
 10
88.98388805284083
 20
-151.0247178441882
 30
0.0
 10
88.86537676814823
 20
-151.1918049752229
 30
0.0
 10
88.86537676814823
 20
-151.1918049752229
 30
0.0
 10
88.8421223736228
 20
-151.172856950054
 30
0.0
 10
88.82954777510164
 20
-151.1642442113409
 30
0.0
 10
88.71740991705676
 20
-151.0794948624037
 30
0.0
 10
88.66866181594048
 20
-151.041598812066
 30
0.0
 10
88.60940617359418
 20
-151.0054253094708
 30
0.0
 10
88.52913544878786
 20
-150.9609835777111
 30
0.0
 10
88.31743433121927
 20
-151.1473632434631
 30
0.0
 10
88.11227889507263
 20
-151.1704453832143
 30
0.0
 10
87.82254636476311
 20
-151.2000732043875
 30
0.0
 10
87.82254636476311
 20
-151.2000732043875
 30
0.0
 10
87.71884899065709
 20
-151.0202392200574
 30
0.0
 10
87.71884899065709
 20
-151.0202392200574
 30
0.0
 10
88.0361422848486
 20
-151.0161051054751
 30
0.0
 10
88.21166989982208
 20
-150.9906113988843
 30
0.0
 10
88.36411537504439
 20
-150.8807128529048
 30
0.0
 10
88.2456040903518
 20
-150.8300699492716
 30
0.0
 10
88.15672062683235
 20
-150.8025091853896
 30
0.0
 10
88.1207193790115
 20
-150.7897623320942
 30
0.0
 10
88.10177135384263
 20
-150.8173230959762
 30
0.0
 10
88.08695744325603
 20
-150.8362711211451
 30
0.0
 10
88.05939667937405
 20
-150.8700330569005
 30
0.0
 10
88.05939667937405
 20
-150.8700330569005
 30
0.0
 10
87.86268172716628
 20
-150.787695274803
 30
0.0
 10
87.86268172716628
 20
-150.787695274803
 30
0.0
 10
87.94519176403801
 20
-150.7074245499967
 30
0.0
 10
88.00651446367545
 20
-150.6119954050553
 30
0.0
 10
88.06370304873061
 20
-150.510709597789
 30
0.0
 10
87.87318926839629
 20
-150.5148437123713
 30
0.0
 10
87.85217418593626
 20
-150.5148437123713
 30
0.0
 10
87.76966414906453
 20
-150.5189778269536
 30
0.0
 10
87.76966414906453
 20
-150.5189778269536
 30
0.0
 10
87.76966414906453
 20
-150.3412108999147
 30
0.0
 10
87.76966414906453
 20
-150.3412108999147
 30
0.0
 10
87.90919051621715
 20
-150.3477565813367
 30
0.0
 10
88.11865232172035
 20
-150.3518906959189
 30
0.0
 10
88.14397377353692
 20
-150.3518906959189
 30
0.0
 10
88.16102699618891
 20
-150.3181287601635
 30
0.0
 10
88.21597626917865
 20
-150.1975504181798
 30
0.0
 10
88.23509654912179
 20
-150.1234808652469
 30
0.0
 10
88.21597626917865
 20
-150.1234808652469
 30
0.0
 10
88.03820934213975
 20
-150.1296820371203
 30
0.0
 10
87.84373370199741
 20
-150.1424288904158
 30
0.0
 10
87.84373370199741
 20
-150.1424288904158
 30
0.0
 10
87.84373370199741
 20
-150.2757540856949
 30
0.0
 10
87.84373370199741
 20
-150.2757540856949
 30
0.0
 10
87.79498560088113
 20
-150.3012477922858
 30
0.0
 10
87.73572995853482
 20
-150.3329426707501
 30
0.0
 10
87.60240476325565
 20
-150.3983994849698
 30
0.0
 10
87.60240476325565
 20
-150.3983994849698
 30
0.0
 10
87.60240476325565
 20
-150.5444715335444
 30
0.0
 10
87.60240476325565
 20
-150.5444715335444
 30
0.0
 10
87.60240476325565
 20
-150.5444715335444
 30
0.0
 10
87.60240476325565
 20
-151.0119709908928
 30
0.0
 10
87.60240476325565
 20
-151.0119709908928
 30
0.0
 10
87.60240476325565
 20
-151.13875050475
 30
0.0
 10
87.56657577020906
 20
-151.1980061470963
 30
0.0
 10
87.28304441177298
 20
-151.1897379179317
 30
0.0
 10
87.28304441177298
 20
-151.1897379179317
 30
0.0
 10
87.17934703766697
 20
-150.9823431697197
 30
0.0
 10
87.17934703766697
 20
-150.9823431697197
 30
0.0
 10
87.24290904936983
 20
-150.9950900230151
 30
0.0
 10
87.29148489571185
 20
-150.9992241375974
 30
0.0
 10
87.331620258115
 20
-150.9992241375974
 30
0.0
 10
87.40792912311331
 20
-150.9992241375974
 30
0.0
 10
87.41843666434332
 20
-150.9757974882977
 30
0.0
 10
87.41843666434332
 20
-150.910340674078
 30
0.0
 10
87.41843666434332
 20
-150.910340674078
 30
0.0
 10
87.41843666434332
 20
-150.4810817766158
 30
0.0
 10
87.41843666434332
 20
-150.4810817766158
 30
0.0
 10
87.321112716885
 20
-150.5210448842447
 30
0.0
 10
87.30423174900728
 20
-150.5275905656667
 30
0.0
 10
87.25772295995641
 20
-150.5465385908355
 30
0.0
 10
87.25341659059983
 20
-150.5675536732956
 30
0.0
 10
87.24911022124329
 20
-150.5971814944687
 30
0.0
 10
87.23016219607441
 20
-150.5971814944687
 30
0.0
 10
87.22172171213555
 20
-150.5971814944687
 30
0.0
 10
87.21104191613127
 20
-150.5930473798864
 30
0.0
 10
87.20484074425781
 20
-150.5696207305867
 30
0.0
 10
87.20484074425781
 20
-150.5696207305867
 30
0.0
 10
87.15195852855924
 20
-150.3773844025098
 30
0.0
 10
87.15195852855924
 20
-150.3773844025098
 30
0.0
 10
87.29785832235958
 20
-150.3308756134589
 30
0.0
 10
87.36348739135356
 20
-150.3074489641592
 30
0.0
 10
87.41843666434332
 20
-150.2864338816992
 30
0.0
 10
87.41843666434332
 20
-150.2864338816992
 30
0.0
 10
87.41843666434332
 20
-149.8737114425663
 30
0.0
 10
87.41843666434332
 20
-149.8737114425663
 30
0.0
 10
87.41843666434332
 20
-149.8737114425663
 30
0.0
 10
87.36555444864473
 20
-149.8737114425663
 30
0.0
 10
87.36555444864473
 20
-149.8737114425663
 30
0.0
 10
87.36555444864473
 20
-149.8737114425663
 30
0.0
 10
87.28735078112956
 20
-149.8737114425663
 30
0.0
 10
87.28735078112956
 20
-149.8737114425663
 30
0.0
 10
87.21965465484439
 20
-149.8737114425663
 30
0.0
 10
87.21104191613127
 20
-149.8737114425663
 30
0.0
 10
87.17521292308466
 20
-149.8802571239883
 30
0.0
 10
87.17521292308466
 20
-149.8802571239883
 30
0.0
 10
87.17521292308466
 20
-149.6856092290717
 30
0.0
 10
87.17521292308466
 20
-149.6856092290717
 30
0.0
 10
87.2026014321924
 20
-149.6918104009451
 30
0.0
 10
87.21104191613127
 20
-149.6918104009451
 30
0.0
 10
87.28097735448185
 20
-149.6918104009451
 30
0.0
 10
87.28097735448185
 20
-149.6918104009451
 30
0.0
 10
87.41413029498675
 20
-149.6918104009451
 30
0.0
 10
87.41413029498675
 20
-149.6918104009451
 30
0.0
 10
87.41413029498675
 20
-149.6218749625945
 30
0.0
 10
87.41413029498675
 20
-149.539537180497
 30
0.0
 10
87.4120632376956
 20
-149.5354030659147
 30
0.0
 10
87.40362275375673
 20
-149.3555690815847
 30
0.0
 10
87.40362275375673
 20
-149.3362765468673
 30
0.0
 10
87.40155569646558
 20
-149.2897677578164
 30
0.0
 10
87.40155569646558
 20
-149.2897677578164
 30
0.0
 10
87.61721867384222
 20
-149.2983804965295
 30
0.0
 10
87.61721867384222
 20
-149.2983804965295
 30
0.0
 10
87.62789846984651
 20
-149.2983804965295
 30
0.0
 10
87.64908580708079
 20
-149.3004475538207
 30
0.0
 10
87.64908580708079
 20
-149.3173285216984
 30
0.0
 10
87.64908580708079
 20
-149.3362765468673
 30
0.0
 10
87.63427189649421
 20
-149.3469563428716
 30
0.0
 10
87.60877818990335
 20
-149.3659043680404
 30
0.0
 10
87.60877818990335
 20
-149.4168917812221
 30
0.0
 10
87.60240476325565
 20
-149.6453016118942
 30
0.0
 10
87.60464407532106
 20
-149.6918104009451
 30
0.0
 10
87.73366290124368
 20
-149.6918104009451
 30
0.0
 10
87.74640975453911
 20
-149.6918104009451
 30
0.0
 10
87.84373370199741
 20
-149.6835421717805
 30
0.0
 10
87.84373370199741
 20
-149.6835421717805
 30
0.0
 10
87.84373370199741
 20
-149.8778455571486
 30
0.0
 10
87.84373370199741
 20
-149.8778455571486
 30
0.0
 10
87.80549314211112
 20
-149.8757784998574
 30
0.0
 10
87.73779701582597
 20
-149.8716443852751
 30
0.0
 10
87.60240476325565
 20
-149.8737114425663
 30
0.0
 10
87.60240476325565
 20
-149.8737114425663
 30
0.0
 10
87.60240476325565
 20
-150.2123643287663
 30
0.0
 10
87.60240476325565
 20
-150.2123643287663
 30
0.0
 10
87.65752629101966
 20
-150.1889376794666
 30
0.0
 10
87.7229831052394
 20
-150.1613769155846
 30
0.0
 10
87.77173120635568
 20
-150.1382947758335
 30
0.0
 10
87.77173120635568
 20
-150.1382947758335
 30
0.0
 10
87.77173120635568
 20
-149.9605278487946
 30
0.0
 10
87.77173120635568
 20
-149.9605278487946
 30
0.0
 10
87.88593612169171
 20
-149.97327470209
 30
0.0
 10
88.00444740638431
 20
-149.97327470209
 30
0.0
 10
88.1207193790115
 20
-149.97327470209
 30
0.0
 10
88.09746498448605
 20
-149.8778455571486
 30
0.0
 10
88.07007647537831
 20
-149.7955077750511
 30
0.0
 10
88.00651446367545
 20
-149.6621825797719
 30
0.0
 10
87.96207273191575
 20
-149.6642496370631
 30
0.0
 10
87.879562695044
 20
-149.6687282611939
 30
0.0
 10
87.841494389932
 20
-149.6707953184851
 30
0.0
 10
87.841494389932
 20
-149.6707953184851
 30
0.0
 10
87.841494389932
 20
-149.490961334155
 30
0.0
 10
87.841494389932
 20
-149.490961334155
 30
0.0
 10
87.96637910127229
 20
-149.4992295633196
 30
0.0
 10
88.13983965895463
 20
-149.5037081874504
 30
0.0
 10
88.22234969582636
 20
-149.5037081874504
 30
0.0
 10
88.22234969582636
 20
-149.5037081874504
 30
0.0
 10
88.30485973269809
 20
-149.5037081874504
 30
0.0
 10
88.30485973269809
 20
-149.5037081874504
 30
0.0
 10
88.30485973269809
 20
-149.3407551709981
 30
0.0
 10
88.30485973269809
 20
-149.3300753749938
 30
0.0
 10
88.30279267540694
 20
-149.2749538472299
 30
0.0
 10
88.30279267540694
 20
-149.2749538472299
 30
0.0
 10
88.52689613672245
 20
-149.3004475538207
 30
0.0
 10
88.52689613672245
 20
-149.3004475538207
 30
0.0
 10
88.53120250607901
 20
-149.3004475538207
 30
0.0
 10
88.55238984331329
 20
-149.3025146111119
 30
0.0
 10
88.55238984331329
 20
-149.3193955789896
 30
0.0
 10
88.55238984331329
 20
-149.3342094895762
 30
0.0
 10
88.54171004730902
 20
-149.3428222282893
 30
0.0
 10
88.51432153820129
 20
-149.3576361388758
 30
0.0
 10
88.50794811155358
 20
-149.4230929530956
 30
0.0
 10
88.50588105426242
 20
-149.4444525451042
 30
0.0
 10
88.50588105426242
 20
-149.5037081874504
 30
0.0
 10
88.50588105426242
 20
-149.5037081874504
 30
0.0
 10
88.60096568965532
 20
-149.5037081874504
 30
0.0
 10
88.60096568965532
 20
-149.5037081874504
 30
0.0
 10
88.68347572652705
 20
-149.5037081874504
 30
0.0
 10
88.85693628420938
 20
-149.4992295633196
 30
0.0
 10
88.98182099554968
 20
-149.490961334155
 30
0.0
 10
88.98182099554968
 20
-149.490961334155
 30
0.0
 10
88.98182099554968
 20
-149.6707953184851
 30
0.0
 10
88.98182099554968
 20
-149.6707953184851
 30
0.0
 10
88.95219317437653
 20
-149.6687282611939
 30
0.0
 10
88.83368188968395
 20
-149.6642496370631
 30
0.0
 10
88.79354652728078
 20
-149.6621825797719
 30
0.0
 10
88.77873261669421
 20
-149.7128254834051
 30
0.0
 10
88.7447984261645
 20
-149.8251355962243
 30
0.0
 10
88.67934161194474
 20
-149.9646619633769
 30
0.0
 10
88.72154403163905
 20
-149.9646619633769
 30
0.0
 10
88.99870196342741
 20
-149.945713938208
 30
0.0
 10
89.06002466306487
 20
-149.9436468809169
 30
0.0
 10
89.06002466306487
 20
-149.9436468809169
 30
0.0
 10
89.06002466306487
 20
-150.1276149798292
 30
0.0
 10
89.06002466306487
 20
-150.1276149798292
 30
0.0
 10
89.03039684189172
 20
-150.1276149798292
 30
0.0
 10
89.01351587401398
 20
-150.1234808652469
 30
0.0
 10
88.85056285756167
 20
-150.1234808652469
 30
0.0
  0
HATCH
  5
144
330
13D
100
AcDbEntity
  8
レイヤー 1
 62
    18
420
        0
440
 33554687
100
AcDbHatch
 10
0.0
 20
0.0
 30
0.0
210
0.0
220
0.0
230
1.0
  2
SOLID
 70
     1
 71
     1
 91
        3
 92
        1
 93
        1
 72
     4
 94
        3
 73
     0
 74
     0
 95
       17
 96
       13
 40
0.0
 40
0.0
 40
0.0
 40
0.0
 40
1.0
 40
1.0
 40
1.0
 40
2.0
 40
2.0
 40
2.0
 40
3.0
 40
3.0
 40
3.0
 40
4.0
 40
4.0
 40
4.0
 40
4.0
 10
88.28573945275495
 20
-150.5082980309493
 10
88.26885848487723
 20
-150.5379258521224
 10
88.2180433264698
 20
-150.6312879397727
 10
88.20753578523978
 20
-150.6502359649416
 10
88.39787731079985
 20
-150.7094916072879
 10
88.41906464803413
 20
-150.7156927791613
 10
88.49106714367584
 20
-150.7432535430433
 10
88.54601641666558
 20
-150.656437136815
 10
88.56927081119101
 20
-150.5823675838822
 10
88.5840847217776
 20
-150.5082980309493
 10
88.5840847217776
 20
-150.5082980309493
 10
88.28573945275495
 20
-150.5082980309493
 10
88.28573945275495
 20
-150.5082980309493
 97
        0
 97
        1
330
141
 92
        1
 93
        1
 72
     4
 94
        3
 73
     0
 74
     0
 95
       20
 96
       16
 40
0.0
 40
0.0
 40
0.0
 40
0.0
 40
1.0
 40
1.0
 40
1.0
 40
2.0
 40
2.0
 40
2.0
 40
3.0
 40
3.0
 40
3.0
 40
4.0
 40
4.0
 40
4.0
 40
5.0
 40
5.0
 40
5.0
 40
5.0
 10
88.22234969582636
 20
-149.6580484651896
 10
88.22234969582636
 20
-149.6580484651896
 10
88.19065481736206
 20
-149.6580484651896
 10
88.19065481736206
 20
-149.6580484651896
 10
88.23716360641293
 20
-149.7572672151648
 10
88.26885848487723
 20
-149.8378824495197
 10
88.30279267540694
 20
-149.9646619633769
 10
88.30279267540694
 20
-149.9646619633769
 10
88.51001516884471
 20
-149.9646619633769
 10
88.51001516884471
 20
-149.9646619633769
 10
88.54171004730902
 20
-149.8716443852751
 10
88.56496444183447
 20
-149.786895036338
 10
88.58821883635989
 20
-149.6580484651896
 10
88.58821883635989
 20
-149.6580484651896
 10
88.22234969582636
 20
-149.6580484651896
 10
88.22234969582636
 20
-149.6580484651896
 97
        0
 97
        1
330
142
 92
        1
 93
        1
 72
     4
 94
        3
 73
     0
 74
     0
 95
      242
 96
      238
 40
0.0
 40
0.0
 40
0.0
 40
0.0
 40
1.0
 40
1.0
 40
1.0
 40
2.0
 40
2.0
 40
2.0
 40
3.0
 40
3.0
 40
3.0
 40
4.0
 40
4.0
 40
4.0
 40
5.0
 40
5.0
 40
5.0
 40
6.0
 40
6.0
 40
6.0
 40
7.0
 40
7.0
 40
7.0
 40
8.0
 40
8.0
 40
8.0
 40
9.0
 40
9.0
 40
9.0
 40
10.0
 40
10.0
 40
10.0
 40
11.0
 40
11.0
 40
11.0
 40
12.0
 40
12.0
 40
12.0
 40
13.0
 40
13.0
 40
13.0
 40
14.0
 40
14.0
 40
14.0
 40
15.0
 40
15.0
 40
15.0
 40
16.0
 40
16.0
 40
16.0
 40
17.0
 40
17.0
 40
17.0
 40
18.0
 40
18.0
 40
18.0
 40
19.0
 40
19.0
 40
19.0
 40
20.0
 40
20.0
 40
20.0
 40
21.0
 40
21.0
 40
21.0
 40
22.0
 40
22.0
 40
22.0
 40
23.0
 40
23.0
 40
23.0
 40
24.0
 40
24.0
 40
24.0
 40
25.0
 40
25.0
 40
25.0
 40
26.0
 40
26.0
 40
26.0
 40
27.0
 40
27.0
 40
27.0
 40
28.0
 40
28.0
 40
28.0
 40
29.0
 40
29.0
 40
29.0
 40
30.0
 40
30.0
 40
30.0
 40
31.0
 40
31.0
 40
31.0
 40
32.0
 40
32.0
 40
32.0
 40
33.0
 40
33.0
 40
33.0
 40
34.0
 40
34.0
 40
34.0
 40
35.0
 40
35.0
 40
35.0
 40
36.0
 40
36.0
 40
36.0
 40
37.0
 40
37.0
 40
37.0
 40
38.0
 40
38.0
 40
38.0
 40
39.0
 40
39.0
 40
39.0
 40
40.0
 40
40.0
 40
40.0
 40
41.0
 40
41.0
 40
41.0
 40
42.0
 40
42.0
 40
42.0
 40
43.0
 40
43.0
 40
43.0
 40
44.0
 40
44.0
 40
44.0
 40
45.0
 40
45.0
 40
45.0
 40
46.0
 40
46.0
 40
46.0
 40
47.0
 40
47.0
 40
47.0
 40
48.0
 40
48.0
 40
48.0
 40
49.0
 40
49.0
 40
49.0
 40
50.0
 40
50.0
 40
50.0
 40
51.0
 40
51.0
 40
51.0
 40
52.0
 40
52.0
 40
52.0
 40
53.0
 40
53.0
 40
53.0
 40
54.0
 40
54.0
 40
54.0
 40
55.0
 40
55.0
 40
55.0
 40
56.0
 40
56.0
 40
56.0
 40
57.0
 40
57.0
 40
57.0
 40
58.0
 40
58.0
 40
58.0
 40
59.0
 40
59.0
 40
59.0
 40
60.0
 40
60.0
 40
60.0
 40
61.0
 40
61.0
 40
61.0
 40
62.0
 40
62.0
 40
62.0
 40
63.0
 40
63.0
 40
63.0
 40
64.0
 40
64.0
 40
64.0
 40
65.0
 40
65.0
 40
65.0
 40
66.0
 40
66.0
 40
66.0
 40
67.0
 40
67.0
 40
67.0
 40
68.0
 40
68.0
 40
68.0
 40
69.0
 40
69.0
 40
69.0
 40
70.0
 40
70.0
 40
70.0
 40
71.0
 40
71.0
 40
71.0
 40
72.0
 40
72.0
 40
72.0
 40
73.0
 40
73.0
 40
73.0
 40
74.0
 40
74.0
 40
74.0
 40
75.0
 40
75.0
 40
75.0
 40
76.0
 40
76.0
 40
76.0
 40
77.0
 40
77.0
 40
77.0
 40
78.0
 40
78.0
 40
78.0
 40
79.0
 40
79.0
 40
79.0
 40
79.0
 10
88.85056285756167
 20
-150.1234808652469
 10
88.85056285756167
 20
-150.1234808652469
 10
88.59683157507301
 20
-150.1234808652469
 10
88.59683157507301
 20
-150.1234808652469
 10
88.59683157507301
 20
-150.1234808652469
 10
88.31967364328468
 20
-150.1234808652469
 10
88.31967364328468
 20
-150.1234808652469
 10
88.31967364328468
 20
-150.1234808652469
 10
88.44662541191613
 20
-150.1658555397155
 10
88.44662541191613
 20
-150.1658555397155
 10
88.45713295314615
 20
-150.1699896542977
 10
88.46987980644156
 20
-150.1761908261712
 10
88.46987980644156
 20
-150.1889376794666
 10
88.46987980644156
 20
-150.2102972714752
 10
88.43818492797726
 20
-150.2164984433486
 10
88.41699759074298
 20
-150.2206325579309
 10
88.4063177947387
 20
-150.2440592072306
 10
88.37668997356555
 20
-150.3095160214504
 10
88.35774194839668
 20
-150.3539577532101
 10
88.35774194839668
 20
-150.3539577532101
 10
88.62852645353731
 20
-150.3539577532101
 10
88.62852645353731
 20
-150.3539577532101
 10
88.71947697434791
 20
-150.3539577532101
 10
88.91619192655568
 20
-150.3498236386278
 10
89.05795760577371
 20
-150.3412108999147
 10
89.05795760577371
 20
-150.3412108999147
 10
89.05795760577371
 20
-150.5189778269536
 10
89.05795760577371
 20
-150.5189778269536
 10
88.97544756890196
 20
-150.5148437123713
 10
88.95426023166768
 20
-150.5148437123713
 10
88.77442624733765
 20
-150.510709597789
 10
88.74273136887335
 20
-150.6650498755282
 10
88.69828963711363
 20
-150.7453206003345
 10
88.6538479053539
 20
-150.8152560386851
 10
88.77442624733765
 20
-150.8745116810314
 10
88.88019067873482
 20
-150.9420355525423
 10
88.98388805284083
 20
-151.0247178441882
 10
88.98388805284083
 20
-151.0247178441882
 10
88.86537676814823
 20
-151.1918049752229
 10
88.86537676814823
 20
-151.1918049752229
 10
88.8421223736228
 20
-151.172856950054
 10
88.82954777510164
 20
-151.1642442113409
 10
88.71740991705676
 20
-151.0794948624037
 10
88.66866181594048
 20
-151.041598812066
 10
88.60940617359418
 20
-151.0054253094708
 10
88.52913544878786
 20
-150.9609835777111
 10
88.31743433121927
 20
-151.1473632434631
 10
88.11227889507263
 20
-151.1704453832143
 10
87.82254636476311
 20
-151.2000732043875
 10
87.82254636476311
 20
-151.2000732043875
 10
87.71884899065709
 20
-151.0202392200574
 10
87.71884899065709
 20
-151.0202392200574
 10
88.0361422848486
 20
-151.0161051054751
 10
88.21166989982208
 20
-150.9906113988843
 10
88.36411537504439
 20
-150.8807128529048
 10
88.2456040903518
 20
-150.8300699492716
 10
88.15672062683235
 20
-150.8025091853896
 10
88.1207193790115
 20
-150.7897623320942
 10
88.10177135384263
 20
-150.8173230959762
 10
88.08695744325603
 20
-150.8362711211451
 10
88.05939667937405
 20
-150.8700330569005
 10
88.05939667937405
 20
-150.8700330569005
 10
87.86268172716628
 20
-150.787695274803
 10
87.86268172716628
 20
-150.787695274803
 10
87.94519176403801
 20
-150.7074245499967
 10
88.00651446367545
 20
-150.6119954050553
 10
88.06370304873061
 20
-150.510709597789
 10
87.87318926839629
 20
-150.5148437123713
 10
87.85217418593626
 20
-150.5148437123713
 10
87.76966414906453
 20
-150.5189778269536
 10
87.76966414906453
 20
-150.5189778269536
 10
87.76966414906453
 20
-150.3412108999147
 10
87.76966414906453
 20
-150.3412108999147
 10
87.90919051621715
 20
-150.3477565813367
 10
88.11865232172035
 20
-150.3518906959189
 10
88.14397377353692
 20
-150.3518906959189
 10
88.16102699618891
 20
-150.3181287601635
 10
88.21597626917865
 20
-150.1975504181798
 10
88.23509654912179
 20
-150.1234808652469
 10
88.21597626917865
 20
-150.1234808652469
 10
88.03820934213975
 20
-150.1296820371203
 10
87.84373370199741
 20
-150.1424288904158
 10
87.84373370199741
 20
-150.1424288904158
 10
87.84373370199741
 20
-150.2757540856949
 10
87.84373370199741
 20
-150.2757540856949
 10
87.79498560088113
 20
-150.3012477922858
 10
87.73572995853482
 20
-150.3329426707501
 10
87.60240476325565
 20
-150.3983994849698
 10
87.60240476325565
 20
-150.3983994849698
 10
87.60240476325565
 20
-150.5444715335444
 10
87.60240476325565
 20
-150.5444715335444
 10
87.60240476325565
 20
-150.5444715335444
 10
87.60240476325565
 20
-151.0119709908928
 10
87.60240476325565
 20
-151.0119709908928
 10
87.60240476325565
 20
-151.13875050475
 10
87.56657577020906
 20
-151.1980061470963
 10
87.28304441177298
 20
-151.1897379179317
 10
87.28304441177298
 20
-151.1897379179317
 10
87.17934703766697
 20
-150.9823431697197
 10
87.17934703766697
 20
-150.9823431697197
 10
87.24290904936983
 20
-150.9950900230151
 10
87.29148489571185
 20
-150.9992241375974
 10
87.331620258115
 20
-150.9992241375974
 10
87.40792912311331
 20
-150.9992241375974
 10
87.41843666434332
 20
-150.9757974882977
 10
87.41843666434332
 20
-150.910340674078
 10
87.41843666434332
 20
-150.910340674078
 10
87.41843666434332
 20
-150.4810817766158
 10
87.41843666434332
 20
-150.4810817766158
 10
87.321112716885
 20
-150.5210448842447
 10
87.30423174900728
 20
-150.5275905656667
 10
87.25772295995641
 20
-150.5465385908355
 10
87.25341659059983
 20
-150.5675536732956
 10
87.24911022124329
 20
-150.5971814944687
 10
87.23016219607441
 20
-150.5971814944687
 10
87.22172171213555
 20
-150.5971814944687
 10
87.21104191613127
 20
-150.5930473798864
 10
87.20484074425781
 20
-150.5696207305867
 10
87.20484074425781
 20
-150.5696207305867
 10
87.15195852855924
 20
-150.3773844025098
 10
87.15195852855924
 20
-150.3773844025098
 10
87.29785832235958
 20
-150.3308756134589
 10
87.36348739135356
 20
-150.3074489641592
 10
87.41843666434332
 20
-150.2864338816992
 10
87.41843666434332
 20
-150.2864338816992
 10
87.41843666434332
 20
-149.8737114425663
 10
87.41843666434332
 20
-149.8737114425663
 10
87.41843666434332
 20
-149.8737114425663
 10
87.36555444864473
 20
-149.8737114425663
 10
87.36555444864473
 20
-149.8737114425663
 10
87.36555444864473
 20
-149.8737114425663
 10
87.28735078112956
 20
-149.8737114425663
 10
87.28735078112956
 20
-149.8737114425663
 10
87.21965465484439
 20
-149.8737114425663
 10
87.21104191613127
 20
-149.8737114425663
 10
87.17521292308466
 20
-149.8802571239883
 10
87.17521292308466
 20
-149.8802571239883
 10
87.17521292308466
 20
-149.6856092290717
 10
87.17521292308466
 20
-149.6856092290717
 10
87.2026014321924
 20
-149.6918104009451
 10
87.21104191613127
 20
-149.6918104009451
 10
87.28097735448185
 20
-149.6918104009451
 10
87.28097735448185
 20
-149.6918104009451
 10
87.41413029498675
 20
-149.6918104009451
 10
87.41413029498675
 20
-149.6918104009451
 10
87.41413029498675
 20
-149.6218749625945
 10
87.41413029498675
 20
-149.539537180497
 10
87.4120632376956
 20
-149.5354030659147
 10
87.40362275375673
 20
-149.3555690815847
 10
87.40362275375673
 20
-149.3362765468673
 10
87.40155569646558
 20
-149.2897677578164
 10
87.40155569646558
 20
-149.2897677578164
 10
87.61721867384222
 20
-149.2983804965295
 10
87.61721867384222
 20
-149.2983804965295
 10
87.62789846984651
 20
-149.2983804965295
 10
87.64908580708079
 20
-149.3004475538207
 10
87.64908580708079
 20
-149.3173285216984
 10
87.64908580708079
 20
-149.3362765468673
 10
87.63427189649421
 20
-149.3469563428716
 10
87.60877818990335
 20
-149.3659043680404
 10
87.60877818990335
 20
-149.4168917812221
 10
87.60240476325565
 20
-149.6453016118942
 10
87.60464407532106
 20
-149.6918104009451
 10
87.73366290124368
 20
-149.6918104009451
 10
87.74640975453911
 20
-149.6918104009451
 10
87.84373370199741
 20
-149.6835421717805
 10
87.84373370199741
 20
-149.6835421717805
 10
87.84373370199741
 20
-149.8778455571486
 10
87.84373370199741
 20
-149.8778455571486
 10
87.80549314211112
 20
-149.8757784998574
 10
87.73779701582597
 20
-149.8716443852751
 10
87.60240476325565
 20
-149.8737114425663
 10
87.60240476325565
 20
-149.8737114425663
 10
87.60240476325565
 20
-150.2123643287663
 10
87.60240476325565
 20
-150.2123643287663
 10
87.65752629101966
 20
-150.1889376794666
 10
87.7229831052394
 20
-150.1613769155846
 10
87.77173120635568
 20
-150.1382947758335
 10
87.77173120635568
 20
-150.1382947758335
 10
87.77173120635568
 20
-149.9605278487946
 10
87.77173120635568
 20
-149.9605278487946
 10
87.88593612169171
 20
-149.97327470209
 10
88.00444740638431
 20
-149.97327470209
 10
88.1207193790115
 20
-149.97327470209
 10
88.09746498448605
 20
-149.8778455571486
 10
88.07007647537831
 20
-149.7955077750511
 10
88.00651446367545
 20
-149.6621825797719
 10
87.96207273191575
 20
-149.6642496370631
 10
87.879562695044
 20
-149.6687282611939
 10
87.841494389932
 20
-149.6707953184851
 10
87.841494389932
 20
-149.6707953184851
 10
87.841494389932
 20
-149.490961334155
 10
87.841494389932
 20
-149.490961334155
 10
87.96637910127229
 20
-149.4992295633196
 10
88.13983965895463
 20
-149.5037081874504
 10
88.22234969582636
 20
-149.5037081874504
 10
88.22234969582636
 20
-149.5037081874504
 10
88.30485973269809
 20
-149.5037081874504
 10
88.30485973269809
 20
-149.5037081874504
 10
88.30485973269809
 20
-149.3407551709981
 10
88.30485973269809
 20
-149.3300753749938
 10
88.30279267540694
 20
-149.2749538472299
 10
88.30279267540694
 20
-149.2749538472299
 10
88.52689613672245
 20
-149.3004475538207
 10
88.52689613672245
 20
-149.3004475538207
 10
88.53120250607901
 20
-149.3004475538207
 10
88.55238984331329
 20
-149.3025146111119
 10
88.55238984331329
 20
-149.3193955789896
 10
88.55238984331329
 20
-149.3342094895762
 10
88.54171004730902
 20
-149.3428222282893
 10
88.51432153820129
 20
-149.3576361388758
 10
88.50794811155358
 20
-149.4230929530956
 10
88.50588105426242
 20
-149.4444525451042
 10
88.50588105426242
 20
-149.5037081874504
 10
88.50588105426242
 20
-149.5037081874504
 10
88.60096568965532
 20
-149.5037081874504
 10
88.60096568965532
 20
-149.5037081874504
 10
88.68347572652705
 20
-149.5037081874504
 10
88.85693628420938
 20
-149.4992295633196
 10
88.98182099554968
 20
-149.490961334155
 10
88.98182099554968
 20
-149.490961334155
 10
88.98182099554968
 20
-149.6707953184851
 10
88.98182099554968
 20
-149.6707953184851
 10
88.95219317437653
 20
-149.6687282611939
 10
88.83368188968395
 20
-149.6642496370631
 10
88.79354652728078
 20
-149.6621825797719
 10
88.77873261669421
 20
-149.7128254834051
 10
88.7447984261645
 20
-149.8251355962243
 10
88.67934161194474
 20
-149.9646619633769
 10
88.72154403163905
 20
-149.9646619633769
 10
88.99870196342741
 20
-149.945713938208
 10
89.06002466306487
 20
-149.9436468809169
 10
89.06002466306487
 20
-149.9436468809169
 10
89.06002466306487
 20
-150.1276149798292
 10
89.06002466306487
 20
-150.1276149798292
 10
89.03039684189172
 20
-150.1276149798292
 10
89.01351587401398
 20
-150.1234808652469
 10
88.85056285756167
 20
-150.1234808652469
 97
        0
 97
        1
330
143
 75
     2
 76
     1
 98
        1
 10
0.0
 20
0.0
450
        0
451
        0
460
0.0
461
0.0
452
        0
462
0.0
453
        0
470

  0
SPLINE
  5
145
330
13D
100
AcDbEntity
  8
レイヤー 1
100
AcDbSpline
210
0.0
220
0.0
230
1.0
 70
    11
 71
     3
 72
    17
 73
    13
 74
     0
 42
0.0000000001
 43
0.0000000001
 40
0.0
 40
0.0
 40
0.0
 40
0.0
 40
1.0
 40
1.0
 40
1.0
 40
2.0
 40
2.0
 40
2.0
 40
3.0
 40
3.0
 40
3.0
 40
4.0
 40
4.0
 40
4.0
 40
4.0
 10
90.70712481456281
 20
-150.9230875273734
 30
0.0
 10
90.70712481456281
 20
-150.9230875273734
 30
0.0
 10
90.00053573053806
 20
-150.9230875273734
 30
0.0
 10
90.00053573053806
 20
-150.9230875273734
 30
0.0
 10
90.00053573053806
 20
-150.9230875273734
 30
0.0
 10
90.00053573053806
 20
-151.0374646974837
 30
0.0
 10
90.00053573053806
 20
-151.0374646974837
 30
0.0
 10
90.00053573053806
 20
-151.0374646974837
 30
0.0
 10
90.70712481456281
 20
-151.0374646974837
 30
0.0
 10
90.70712481456281
 20
-151.0374646974837
 30
0.0
 10
90.70712481456281
 20
-151.0374646974837
 30
0.0
 10
90.70712481456281
 20
-150.9230875273734
 30
0.0
 10
90.70712481456281
 20
-150.9230875273734
 30
0.0
  0
SPLINE
  5
146
330
13D
100
AcDbEntity
  8
レイヤー 1
100
AcDbSpline
210
0.0
220
0.0
230
1.0
 70
    11
 71
     3
 72
    17
 73
    13
 74
     0
 42
0.0000000001
 43
0.0000000001
 40
0.0
 40
0.0
 40
0.0
 40
0.0
 40
1.0
 40
1.0
 40
1.0
 40
2.0
 40
2.0
 40
2.0
 40
3.0
 40
3.0
 40
3.0
 40
4.0
 40
4.0
 40
4.0
 40
4.0
 10
90.70712481456281
 20
-150.6798637861147
 30
0.0
 10
90.70712481456281
 20
-150.6798637861147
 30
0.0
 10
90.00053573053806
 20
-150.6798637861147
 30
0.0
 10
90.00053573053806
 20
-150.6798637861147
 30
0.0
 10
90.00053573053806
 20
-150.6798637861147
 30
0.0
 10
90.00053573053806
 20
-150.7938964466765
 30
0.0
 10
90.00053573053806
 20
-150.7938964466765
 30
0.0
 10
90.00053573053806
 20
-150.7938964466765
 30
0.0
 10
90.70712481456281
 20
-150.7938964466765
 30
0.0
 10
90.70712481456281
 20
-150.7938964466765
 30
0.0
 10
90.70712481456281
 20
-150.7938964466765
 30
0.0
 10
90.70712481456281
 20
-150.6798637861147
 30
0.0
 10
90.70712481456281
 20
-150.6798637861147
 30
0.0
  0
SPLINE
  5
147
330
13D
100
AcDbEntity
  8
レイヤー 1
100
AcDbSpline
210
0.0
220
0.0
230
1.0
 70
    11
 71
     3
 72
    17
 73
    13
 74
     0
 42
0.0000000001
 43
0.0000000001
 40
0.0
 40
0.0
 40
0.0
 40
0.0
 40
1.0
 40
1.0
 40
1.0
 40
2.0
 40
2.0
 40
2.0
 40
3.0
 40
3.0
 40
3.0
 40
4.0
 40
4.0
 40
4.0
 40
4.0
 10
90.70712481456281
 20
-150.4469753313119
 30
0.0
 10
90.70712481456281
 20
-150.4469753313119
 30
0.0
 10
90.00053573053806
 20
-150.4469753313119
 30
0.0
 10
90.00053573053806
 20
-150.4469753313119
 30
0.0
 10
90.00053573053806
 20
-150.4469753313119
 30
0.0
 10
90.00053573053806
 20
-150.5548068200002
 30
0.0
 10
90.00053573053806
 20
-150.5548068200002
 30
0.0
 10
90.00053573053806
 20
-150.5548068200002
 30
0.0
 10
90.70712481456281
 20
-150.5548068200002
 30
0.0
 10
90.70712481456281
 20
-150.5548068200002
 30
0.0
 10
90.70712481456281
 20
-150.5548068200002
 30
0.0
 10
90.70712481456281
 20
-150.4469753313119
 30
0.0
 10
90.70712481456281
 20
-150.4469753313119
 30
0.0
  0
SPLINE
  5
148
330
13D
100
AcDbEntity
  8
レイヤー 1
100
AcDbSpline
210
0.0
220
0.0
230
1.0
 70
     9
 71
     3
 72
   203
 73
   199
 74
     0
 42
0.0000000001
 43
0.0000000001
 40
0.0
 40
0.0
 40
0.0
 40
0.0
 40
1.0
 40
1.0
 40
1.0
 40
2.0
 40
2.0
 40
2.0
 40
3.0
 40
3.0
 40
3.0
 40
4.0
 40
4.0
 40
4.0
 40
5.0
 40
5.0
 40
5.0
 40
6.0
 40
6.0
 40
6.0
 40
7.0
 40
7.0
 40
7.0
 40
8.0
 40
8.0
 40
8.0
 40
9.0
 40
9.0
 40
9.0
 40
10.0
 40
10.0
 40
10.0
 40
11.0
 40
11.0
 40
11.0
 40
12.0
 40
12.0
 40
12.0
 40
13.0
 40
13.0
 40
13.0
 40
14.0
 40
14.0
 40
14.0
 40
15.0
 40
15.0
 40
15.0
 40
16.0
 40
16.0
 40
16.0
 40
17.0
 40
17.0
 40
17.0
 40
18.0
 40
18.0
 40
18.0
 40
19.0
 40
19.0
 40
19.0
 40
20.0
 40
20.0
 40
20.0
 40
21.0
 40
21.0
 40
21.0
 40
22.0
 40
22.0
 40
22.0
 40
23.0
 40
23.0
 40
23.0
 40
24.0
 40
24.0
 40
24.0
 40
25.0
 40
25.0
 40
25.0
 40
26.0
 40
26.0
 40
26.0
 40
27.0
 40
27.0
 40
27.0
 40
28.0
 40
28.0
 40
28.0
 40
29.0
 40
29.0
 40
29.0
 40
30.0
 40
30.0
 40
30.0
 40
31.0
 40
31.0
 40
31.0
 40
32.0
 40
32.0
 40
32.0
 40
33.0
 40
33.0
 40
33.0
 40
34.0
 40
34.0
 40
34.0
 40
35.0
 40
35.0
 40
35.0
 40
36.0
 40
36.0
 40
36.0
 40
37.0
 40
37.0
 40
37.0
 40
38.0
 40
38.0
 40
38.0
 40
39.0
 40
39.0
 40
39.0
 40
40.0
 40
40.0
 40
40.0
 40
41.0
 40
41.0
 40
41.0
 40
42.0
 40
42.0
 40
42.0
 40
43.0
 40
43.0
 40
43.0
 40
44.0
 40
44.0
 40
44.0
 40
45.0
 40
45.0
 40
45.0
 40
46.0
 40
46.0
 40
46.0
 40
47.0
 40
47.0
 40
47.0
 40
48.0
 40
48.0
 40
48.0
 40
49.0
 40
49.0
 40
49.0
 40
50.0
 40
50.0
 40
50.0
 40
51.0
 40
51.0
 40
51.0
 40
52.0
 40
52.0
 40
52.0
 40
53.0
 40
53.0
 40
53.0
 40
54.0
 40
54.0
 40
54.0
 40
55.0
 40
55.0
 40
55.0
 40
56.0
 40
56.0
 40
56.0
 40
57.0
 40
57.0
 40
57.0
 40
58.0
 40
58.0
 40
58.0
 40
59.0
 40
59.0
 40
59.0
 40
60.0
 40
60.0
 40
60.0
 40
61.0
 40
61.0
 40
61.0
 40
62.0
 40
62.0
 40
62.0
 40
63.0
 40
63.0
 40
63.0
 40
64.0
 40
64.0
 40
64.0
 40
65.0
 40
65.0
 40
65.0
 40
66.0
 40
66.0
 40
66.0
 40
66.0
 10
90.54210474081934
 20
-150.1910047367578
 30
0.0
 10
90.54210474081934
 20
-150.1910047367578
 30
0.0
 10
89.98365476266034
 20
-150.1910047367578
 30
0.0
 10
89.98365476266034
 20
-150.1910047367578
 30
0.0
 10
89.97297496665607
 20
-150.2354464685175
 30
0.0
 10
89.9645344827172
 20
-150.2671413469818
 30
0.0
 10
89.95178762942177
 20
-150.3053819068681
 30
0.0
 10
89.97728133601262
 20
-150.3053819068681
 30
0.0
 10
89.99209524659921
 20
-150.3074489641592
 30
0.0
 10
89.99846867324691
 20
-150.3074489641592
 30
0.0
 10
89.99846867324691
 20
-150.3074489641592
 30
0.0
 10
90.18674314151581
 20
-150.3074489641592
 30
0.0
 10
90.18674314151581
 20
-150.3074489641592
 30
0.0
 10
90.18674314151581
 20
-150.3074489641592
 30
0.0
 10
90.5610527659882
 20
-150.3074489641592
 30
0.0
 10
90.5610527659882
 20
-150.3074489641592
 30
0.0
 10
90.61186792439565
 20
-150.3074489641592
 30
0.0
 10
90.89539928283171
 20
-150.2947021108638
 30
0.0
 10
90.92709416129601
 20
-150.2947021108638
 30
0.0
 10
90.92502710400486
 20
-150.3222628747458
 30
0.0
 10
90.92278779193945
 20
-150.3412108999147
 30
0.0
 10
90.92278779193945
 20
-150.3708387210878
 30
0.0
 10
90.9207207346483
 20
-150.4025335995521
 30
0.0
 10
90.9207207346483
 20
-150.5379258521224
 30
0.0
 10
90.9207207346483
 20
-150.5654866160045
 30
0.0
 10
90.9207207346483
 20
-150.5654866160045
 30
0.0
 10
90.9207207346483
 20
-150.8107774145542
 30
0.0
 10
90.9207207346483
 20
-150.8107774145542
 30
0.0
 10
90.9207207346483
 20
-150.8552191463139
 30
0.0
 10
90.92502710400486
 20
-151.0522786080703
 30
0.0
 10
90.92916121858715
 20
-151.2045518285183
 30
0.0
 10
90.92916121858715
 20
-151.2045518285183
 30
0.0
 10
90.70281844520625
 20
-151.2045518285183
 30
0.0
 10
90.70281844520625
 20
-151.2045518285183
 30
0.0
 10
90.70281844520625
 20
-151.2045518285183
 30
0.0
 10
90.7048855024974
 20
-151.1704453832143
 30
0.0
 10
90.7048855024974
 20
-151.1704453832143
 30
0.0
 10
90.7048855024974
 20
-151.1704453832143
 30
0.0
 10
90.00260278782922
 20
-151.1704453832143
 30
0.0
 10
90.00260278782922
 20
-151.1704453832143
 30
0.0
 10
90.00260278782922
 20
-151.1704453832143
 30
0.0
 10
90.00466984512035
 20
-151.2045518285183
 30
0.0
 10
90.00466984512035
 20
-151.2045518285183
 30
0.0
 10
90.00466984512035
 20
-151.2045518285183
 30
0.0
 10
89.7867675556783
 20
-151.2045518285183
 30
0.0
 10
89.7867675556783
 20
-151.2045518285183
 30
0.0
 10
89.79107392503488
 20
-151.1494303007543
 30
0.0
 10
89.79107392503488
 20
-151.1366834474589
 30
0.0
 10
89.79744735168258
 20
-151.0226507868971
 30
0.0
 10
89.79951440897373
 20
-150.9950900230151
 30
0.0
 10
89.80158146626489
 20
-150.8617648277359
 30
0.0
 10
89.80158146626489
 20
-150.8428168025671
 30
0.0
 10
89.80158146626489
 20
-150.8428168025671
 30
0.0
 10
89.80158146626489
 20
-150.6395561689373
 30
0.0
 10
89.80158146626489
 20
-150.6395561689373
 30
0.0
 10
89.66205509911226
 20
-150.8893255916179
 30
0.0
 10
89.49272865601223
 20
-151.0202392200574
 30
0.0
 10
89.38696422461507
 20
-151.0860405438257
 30
0.0
 10
89.38696422461507
 20
-151.0860405438257
 30
0.0
 10
89.21350366693273
 20
-150.9461696671245
 30
0.0
 10
89.21350366693273
 20
-150.9461696671245
 30
0.0
 10
89.30238713045218
 20
-150.8955267634914
 30
0.0
 10
89.44621986696137
 20
-150.8087103572631
 30
0.0
 10
89.58367917682284
 20
-150.6140624623465
 30
0.0
 10
89.67480195240769
 20
-150.4872829484893
 30
0.0
 10
89.74025876662743
 20
-150.3432779572058
 30
0.0
 10
89.77419295715716
 20
-150.1910047367578
 30
0.0
 10
89.54561087171082
 20
-150.1930717940489
 30
0.0
 10
89.36577688738077
 20
-150.1996174754709
 30
0.0
 10
89.27069225198788
 20
-150.2016845327621
 30
0.0
 10
89.27069225198788
 20
-150.2016845327621
 30
0.0
 10
89.27069225198788
 20
-150.0239176057232
 30
0.0
 10
89.27069225198788
 20
-150.0239176057232
 30
0.0
 10
89.46740720419565
 20
-150.0304632871451
 30
0.0
 10
89.75093856263171
 20
-150.0345974017274
 30
0.0
 10
89.90114472578861
 20
-150.0345974017274
 30
0.0
 10
89.90114472578861
 20
-150.0345974017274
 30
0.0
 10
90.11474064587408
 20
-150.0345974017274
 30
0.0
 10
90.11474064587408
 20
-150.0345974017274
 30
0.0
 10
90.11474064587408
 20
-150.0345974017274
 30
0.0
 10
90.11474064587408
 20
-149.9267659130391
 30
0.0
 10
90.11474064587408
 20
-149.9267659130391
 30
0.0
 10
90.11474064587408
 20
-149.9267659130391
 30
0.0
 10
89.96884085207376
 20
-149.9267659130391
 30
0.0
 10
89.96884085207376
 20
-149.9267659130391
 30
0.0
 10
89.79951440897373
 20
-149.9267659130391
 30
0.0
 10
89.63036022064796
 20
-149.9309000276214
 30
0.0
 10
89.46310083483909
 20
-149.9371011994949
 30
0.0
 10
89.46310083483909
 20
-149.9371011994949
 30
0.0
 10
89.46310083483909
 20
-149.765879953878
 30
0.0
 10
89.46310083483909
 20
-149.765879953878
 30
0.0
 10
89.61761336735255
 20
-149.7765597498822
 30
0.0
 10
89.80382077833031
 20
-149.7765597498822
 30
0.0
 10
89.96884085207376
 20
-149.7765597498822
 30
0.0
 10
89.96884085207376
 20
-149.7765597498822
 30
0.0
 10
90.11474064587408
 20
-149.7765597498822
 30
0.0
 10
90.11474064587408
 20
-149.7765597498822
 30
0.0
 10
90.11474064587408
 20
-149.7765597498822
 30
0.0
 10
90.11474064587408
 20
-149.6580484651896
 30
0.0
 10
90.11474064587408
 20
-149.6580484651896
 30
0.0
 10
90.11474064587408
 20
-149.6580484651896
 30
0.0
 10
89.98365476266034
 20
-149.6580484651896
 30
0.0
 10
89.98365476266034
 20
-149.6580484651896
 30
0.0
 10
89.9369737188352
 20
-149.6580484651896
 30
0.0
 10
89.73388533997972
 20
-149.6663166943542
 30
0.0
 10
89.69168292028541
 20
-149.6663166943542
 30
0.0
 10
89.48859454142993
 20
-149.6707953184851
 30
0.0
 10
89.41245793120591
 20
-149.6728623757762
 30
0.0
 10
89.33408200891648
 20
-149.6749294330673
 30
0.0
 10
89.33408200891648
 20
-149.6749294330673
 30
0.0
 10
89.33408200891648
 20
-149.490961334155
 30
0.0
 10
89.33408200891648
 20
-149.490961334155
 30
0.0
 10
89.44828692425252
 20
-149.4992295633196
 30
0.0
 10
89.49272865601223
 20
-149.4992295633196
 30
0.0
 10
89.87565101919775
 20
-149.5078423020328
 30
0.0
 10
89.81226126226916
 20
-149.4127576666398
 30
0.0
 10
89.78470049838717
 20
-149.3851969027579
 30
0.0
 10
89.7486992505663
 20
-149.3490234001627
 30
0.0
 10
89.7486992505663
 20
-149.3490234001627
 30
0.0
 10
89.92439912031406
 20
-149.2666856180653
 30
0.0
 10
89.92439912031406
 20
-149.2666856180653
 30
0.0
 10
89.9645344827172
 20
-149.3025146111119
 30
0.0
 10
90.00897621447693
 20
-149.3448892855804
 30
0.0
 10
90.08304576740981
 20
-149.4547878315599
 30
0.0
 10
90.08304576740981
 20
-149.4547878315599
 30
0.0
 10
89.96884085207376
 20
-149.5099093593239
 30
0.0
 10
89.96884085207376
 20
-149.5099093593239
 30
0.0
 10
89.96884085207376
 20
-149.5099093593239
 30
0.0
 10
89.97934839330378
 20
-149.5099093593239
 30
0.0
 10
89.97934839330378
 20
-149.5099093593239
 30
0.0
 10
89.97934839330378
 20
-149.5099093593239
 30
0.0
 10
90.50196937841617
 20
-149.5099093593239
 30
0.0
 10
90.50196937841617
 20
-149.5099093593239
 30
0.0
 10
90.50196937841617
 20
-149.5099093593239
 30
0.0
 10
90.40671248824901
 20
-149.4654676275642
 30
0.0
 10
90.40671248824901
 20
-149.4654676275642
 30
0.0
 10
90.43410099735675
 20
-149.4275715772264
 30
0.0
 10
90.4912895824119
 20
-149.3469563428716
 30
0.0
 10
90.50610349299848
 20
-149.2728867899387
 30
0.0
 10
90.50610349299848
 20
-149.2728867899387
 30
0.0
 10
90.71969941308397
 20
-149.3362765468673
 30
0.0
 10
90.71969941308397
 20
-149.3362765468673
 30
0.0
 10
90.72831215179709
 20
-149.338688113707
 30
0.0
 10
90.74932723425712
 20
-149.3490234001627
 30
0.0
 10
90.74932723425712
 20
-149.3703829921713
 30
0.0
 10
90.74932723425712
 20
-149.408279042509
 30
0.0
 10
90.68387042003736
 20
-149.408279042509
 30
0.0
 10
90.66475014009423
 20
-149.408279042509
 30
0.0
 10
90.65424259886421
 20
-149.4275715772264
 30
0.0
 10
90.63098820433879
 20
-149.4675346848553
 30
0.0
 10
90.60136038316564
 20
-149.5078423020328
 30
0.0
 10
91.00116371422888
 20
-149.5012966206108
 30
0.0
 10
91.03079153540203
 20
-149.4992295633196
 30
0.0
 10
91.10692814562606
 20
-149.4930283914461
 30
0.0
 10
91.10692814562606
 20
-149.4930283914461
 30
0.0
 10
91.10692814562606
 20
-149.6749294330673
 30
0.0
 10
91.10692814562606
 20
-149.6749294330673
 30
0.0
 10
91.08780786568292
 20
-149.6749294330673
 30
0.0
 10
91.06248641386633
 20
-149.6728623757762
 30
0.0
 10
90.84251706713313
 20
-149.6642496370631
 30
0.0
 10
90.79170190872568
 20
-149.6621825797719
 30
0.0
 10
90.57173256199249
 20
-149.6580484651896
 30
0.0
 10
90.52729083023276
 20
-149.6580484651896
 30
0.0
 10
90.52729083023276
 20
-149.6580484651896
 30
0.0
 10
90.31145559808186
 20
-149.6580484651896
 30
0.0
 10
90.31145559808186
 20
-149.6580484651896
 30
0.0
 10
90.31145559808186
 20
-149.6580484651896
 30
0.0
 10
90.31145559808186
 20
-149.7765597498822
 30
0.0
 10
90.31145559808186
 20
-149.7765597498822
 30
0.0
 10
90.31145559808186
 20
-149.7765597498822
 30
0.0
 10
90.4849161557642
 20
-149.7765597498822
 30
0.0
 10
90.4849161557642
 20
-149.7765597498822
 30
0.0
 10
90.64786917221651
 20
-149.7765597498822
 30
0.0
 10
90.83821069777656
 20
-149.7765597498822
 30
0.0
 10
90.99479028758116
 20
-149.765879953878
 30
0.0
 10
90.99479028758116
 20
-149.765879953878
 30
0.0
 10
90.99479028758116
 20
-149.9371011994949
 30
0.0
 10
90.99479028758116
 20
-149.9371011994949
 30
0.0
 10
90.78532848207798
 20
-149.9288329703303
 30
0.0
 10
90.58861352987021
 20
-149.9267659130391
 30
0.0
 10
90.4849161557642
 20
-149.9267659130391
 30
0.0
 10
90.4849161557642
 20
-149.9267659130391
 30
0.0
 10
90.31145559808186
 20
-149.9267659130391
 30
0.0
 10
90.31145559808186
 20
-149.9267659130391
 30
0.0
 10
90.31145559808186
 20
-149.9267659130391
 30
0.0
 10
90.31145559808186
 20
-150.0345974017274
 30
0.0
 10
90.31145559808186
 20
-150.0345974017274
 30
0.0
 10
90.31145559808186
 20
-150.0345974017274
 30
0.0
 10
90.54210474081934
 20
-150.0345974017274
 30
0.0
 10
90.54210474081934
 20
-150.0345974017274
 30
0.0
 10
90.67542993609851
 20
-150.0345974017274
 30
0.0
 10
90.96309540911688
 20
-150.0304632871451
 30
0.0
 10
91.17255721462006
 20
-150.0239176057232
 30
0.0
 10
91.17255721462006
 20
-150.0239176057232
 30
0.0
 10
91.17255721462006
 20
-150.2016845327621
 30
0.0
 10
91.17255721462006
 20
-150.2016845327621
 30
0.0
 10
90.9799763769946
 20
-150.1954833608886
 30
0.0
 10
90.66681719738538
 20
-150.1910047367578
 30
0.0
 10
90.54210474081934
 20
-150.1910047367578
 30
0.0
  0
HATCH
  5
149
330
13D
100
AcDbEntity
  8
レイヤー 1
 62
    18
420
        0
440
 33554687
100
AcDbHatch
 10
0.0
 20
0.0
 30
0.0
210
0.0
220
0.0
230
1.0
  2
SOLID
 70
     1
 71
     1
 91
        4
 92
        1
 93
        1
 72
     4
 94
        3
 73
     0
 74
     0
 95
       17
 96
       13
 40
0.0
 40
0.0
 40
0.0
 40
0.0
 40
1.0
 40
1.0
 40
1.0
 40
2.0
 40
2.0
 40
2.0
 40
3.0
 40
3.0
 40
3.0
 40
4.0
 40
4.0
 40
4.0
 40
4.0
 10
90.70712481456281
 20
-150.9230875273734
 10
90.70712481456281
 20
-150.9230875273734
 10
90.00053573053806
 20
-150.9230875273734
 10
90.00053573053806
 20
-150.9230875273734
 10
90.00053573053806
 20
-150.9230875273734
 10
90.00053573053806
 20
-151.0374646974837
 10
90.00053573053806
 20
-151.0374646974837
 10
90.00053573053806
 20
-151.0374646974837
 10
90.70712481456281
 20
-151.0374646974837
 10
90.70712481456281
 20
-151.0374646974837
 10
90.70712481456281
 20
-151.0374646974837
 10
90.70712481456281
 20
-150.9230875273734
 10
90.70712481456281
 20
-150.9230875273734
 97
        0
 97
        1
330
145
 92
        1
 93
        1
 72
     4
 94
        3
 73
     0
 74
     0
 95
       17
 96
       13
 40
0.0
 40
0.0
 40
0.0
 40
0.0
 40
1.0
 40
1.0
 40
1.0
 40
2.0
 40
2.0
 40
2.0
 40
3.0
 40
3.0
 40
3.0
 40
4.0
 40
4.0
 40
4.0
 40
4.0
 10
90.70712481456281
 20
-150.6798637861147
 10
90.70712481456281
 20
-150.6798637861147
 10
90.00053573053806
 20
-150.6798637861147
 10
90.00053573053806
 20
-150.6798637861147
 10
90.00053573053806
 20
-150.6798637861147
 10
90.00053573053806
 20
-150.7938964466765
 10
90.00053573053806
 20
-150.7938964466765
 10
90.00053573053806
 20
-150.7938964466765
 10
90.70712481456281
 20
-150.7938964466765
 10
90.70712481456281
 20
-150.7938964466765
 10
90.70712481456281
 20
-150.7938964466765
 10
90.70712481456281
 20
-150.6798637861147
 10
90.70712481456281
 20
-150.6798637861147
 97
        0
 97
        1
330
146
 92
        1
 93
        1
 72
     4
 94
        3
 73
     0
 74
     0
 95
       17
 96
       13
 40
0.0
 40
0.0
 40
0.0
 40
0.0
 40
1.0
 40
1.0
 40
1.0
 40
2.0
 40
2.0
 40
2.0
 40
3.0
 40
3.0
 40
3.0
 40
4.0
 40
4.0
 40
4.0
 40
4.0
 10
90.70712481456281
 20
-150.4469753313119
 10
90.70712481456281
 20
-150.4469753313119
 10
90.00053573053806
 20
-150.4469753313119
 10
90.00053573053806
 20
-150.4469753313119
 10
90.00053573053806
 20
-150.4469753313119
 10
90.00053573053806
 20
-150.5548068200002
 10
90.00053573053806
 20
-150.5548068200002
 10
90.00053573053806
 20
-150.5548068200002
 10
90.70712481456281
 20
-150.5548068200002
 10
90.70712481456281
 20
-150.5548068200002
 10
90.70712481456281
 20
-150.5548068200002
 10
90.70712481456281
 20
-150.4469753313119
 10
90.70712481456281
 20
-150.4469753313119
 97
        0
 97
        1
330
147
 92
        1
 93
        1
 72
     4
 94
        3
 73
     0
 74
     0
 95
      203
 96
      199
 40
0.0
 40
0.0
 40
0.0
 40
0.0
 40
1.0
 40
1.0
 40
1.0
 40
2.0
 40
2.0
 40
2.0
 40
3.0
 40
3.0
 40
3.0
 40
4.0
 40
4.0
 40
4.0
 40
5.0
 40
5.0
 40
5.0
 40
6.0
 40
6.0
 40
6.0
 40
7.0
 40
7.0
 40
7.0
 40
8.0
 40
8.0
 40
8.0
 40
9.0
 40
9.0
 40
9.0
 40
10.0
 40
10.0
 40
10.0
 40
11.0
 40
11.0
 40
11.0
 40
12.0
 40
12.0
 40
12.0
 40
13.0
 40
13.0
 40
13.0
 40
14.0
 40
14.0
 40
14.0
 40
15.0
 40
15.0
 40
15.0
 40
16.0
 40
16.0
 40
16.0
 40
17.0
 40
17.0
 40
17.0
 40
18.0
 40
18.0
 40
18.0
 40
19.0
 40
19.0
 40
19.0
 40
20.0
 40
20.0
 40
20.0
 40
21.0
 40
21.0
 40
21.0
 40
22.0
 40
22.0
 40
22.0
 40
23.0
 40
23.0
 40
23.0
 40
24.0
 40
24.0
 40
24.0
 40
25.0
 40
25.0
 40
25.0
 40
26.0
 40
26.0
 40
26.0
 40
27.0
 40
27.0
 40
27.0
 40
28.0
 40
28.0
 40
28.0
 40
29.0
 40
29.0
 40
29.0
 40
30.0
 40
30.0
 40
30.0
 40
31.0
 40
31.0
 40
31.0
 40
32.0
 40
32.0
 40
32.0
 40
33.0
 40
33.0
 40
33.0
 40
34.0
 40
34.0
 40
34.0
 40
35.0
 40
35.0
 40
35.0
 40
36.0
 40
36.0
 40
36.0
 40
37.0
 40
37.0
 40
37.0
 40
38.0
 40
38.0
 40
38.0
 40
39.0
 40
39.0
 40
39.0
 40
40.0
 40
40.0
 40
40.0
 40
41.0
 40
41.0
 40
41.0
 40
42.0
 40
42.0
 40
42.0
 40
43.0
 40
43.0
 40
43.0
 40
44.0
 40
44.0
 40
44.0
 40
45.0
 40
45.0
 40
45.0
 40
46.0
 40
46.0
 40
46.0
 40
47.0
 40
47.0
 40
47.0
 40
48.0
 40
48.0
 40
48.0
 40
49.0
 40
49.0
 40
49.0
 40
50.0
 40
50.0
 40
50.0
 40
51.0
 40
51.0
 40
51.0
 40
52.0
 40
52.0
 40
52.0
 40
53.0
 40
53.0
 40
53.0
 40
54.0
 40
54.0
 40
54.0
 40
55.0
 40
55.0
 40
55.0
 40
56.0
 40
56.0
 40
56.0
 40
57.0
 40
57.0
 40
57.0
 40
58.0
 40
58.0
 40
58.0
 40
59.0
 40
59.0
 40
59.0
 40
60.0
 40
60.0
 40
60.0
 40
61.0
 40
61.0
 40
61.0
 40
62.0
 40
62.0
 40
62.0
 40
63.0
 40
63.0
 40
63.0
 40
64.0
 40
64.0
 40
64.0
 40
65.0
 40
65.0
 40
65.0
 40
66.0
 40
66.0
 40
66.0
 40
66.0
 10
90.54210474081934
 20
-150.1910047367578
 10
90.54210474081934
 20
-150.1910047367578
 10
89.98365476266034
 20
-150.1910047367578
 10
89.98365476266034
 20
-150.1910047367578
 10
89.97297496665607
 20
-150.2354464685175
 10
89.9645344827172
 20
-150.2671413469818
 10
89.95178762942177
 20
-150.3053819068681
 10
89.97728133601262
 20
-150.3053819068681
 10
89.99209524659921
 20
-150.3074489641592
 10
89.99846867324691
 20
-150.3074489641592
 10
89.99846867324691
 20
-150.3074489641592
 10
90.18674314151581
 20
-150.3074489641592
 10
90.18674314151581
 20
-150.3074489641592
 10
90.18674314151581
 20
-150.3074489641592
 10
90.5610527659882
 20
-150.3074489641592
 10
90.5610527659882
 20
-150.3074489641592
 10
90.61186792439565
 20
-150.3074489641592
 10
90.89539928283171
 20
-150.2947021108638
 10
90.92709416129601
 20
-150.2947021108638
 10
90.92502710400486
 20
-150.3222628747458
 10
90.92278779193945
 20
-150.3412108999147
 10
90.92278779193945
 20
-150.3708387210878
 10
90.9207207346483
 20
-150.4025335995521
 10
90.9207207346483
 20
-150.5379258521224
 10
90.9207207346483
 20
-150.5654866160045
 10
90.9207207346483
 20
-150.5654866160045
 10
90.9207207346483
 20
-150.8107774145542
 10
90.9207207346483
 20
-150.8107774145542
 10
90.9207207346483
 20
-150.8552191463139
 10
90.92502710400486
 20
-151.0522786080703
 10
90.92916121858715
 20
-151.2045518285183
 10
90.92916121858715
 20
-151.2045518285183
 10
90.70281844520625
 20
-151.2045518285183
 10
90.70281844520625
 20
-151.2045518285183
 10
90.70281844520625
 20
-151.2045518285183
 10
90.7048855024974
 20
-151.1704453832143
 10
90.7048855024974
 20
-151.1704453832143
 10
90.7048855024974
 20
-151.1704453832143
 10
90.00260278782922
 20
-151.1704453832143
 10
90.00260278782922
 20
-151.1704453832143
 10
90.00260278782922
 20
-151.1704453832143
 10
90.00466984512035
 20
-151.2045518285183
 10
90.00466984512035
 20
-151.2045518285183
 10
90.00466984512035
 20
-151.2045518285183
 10
89.7867675556783
 20
-151.2045518285183
 10
89.7867675556783
 20
-151.2045518285183
 10
89.79107392503488
 20
-151.1494303007543
 10
89.79107392503488
 20
-151.1366834474589
 10
89.79744735168258
 20
-151.0226507868971
 10
89.79951440897373
 20
-150.9950900230151
 10
89.80158146626489
 20
-150.8617648277359
 10
89.80158146626489
 20
-150.8428168025671
 10
89.80158146626489
 20
-150.8428168025671
 10
89.80158146626489
 20
-150.6395561689373
 10
89.80158146626489
 20
-150.6395561689373
 10
89.66205509911226
 20
-150.8893255916179
 10
89.49272865601223
 20
-151.0202392200574
 10
89.38696422461507
 20
-151.0860405438257
 10
89.38696422461507
 20
-151.0860405438257
 10
89.21350366693273
 20
-150.9461696671245
 10
89.21350366693273
 20
-150.9461696671245
 10
89.30238713045218
 20
-150.8955267634914
 10
89.44621986696137
 20
-150.8087103572631
 10
89.58367917682284
 20
-150.6140624623465
 10
89.67480195240769
 20
-150.4872829484893
 10
89.74025876662743
 20
-150.3432779572058
 10
89.77419295715716
 20
-150.1910047367578
 10
89.54561087171082
 20
-150.1930717940489
 10
89.36577688738077
 20
-150.1996174754709
 10
89.27069225198788
 20
-150.2016845327621
 10
89.27069225198788
 20
-150.2016845327621
 10
89.27069225198788
 20
-150.0239176057232
 10
89.27069225198788
 20
-150.0239176057232
 10
89.46740720419565
 20
-150.0304632871451
 10
89.75093856263171
 20
-150.0345974017274
 10
89.90114472578861
 20
-150.0345974017274
 10
89.90114472578861
 20
-150.0345974017274
 10
90.11474064587408
 20
-150.0345974017274
 10
90.11474064587408
 20
-150.0345974017274
 10
90.11474064587408
 20
-150.0345974017274
 10
90.11474064587408
 20
-149.9267659130391
 10
90.11474064587408
 20
-149.9267659130391
 10
90.11474064587408
 20
-149.9267659130391
 10
89.96884085207376
 20
-149.9267659130391
 10
89.96884085207376
 20
-149.9267659130391
 10
89.79951440897373
 20
-149.9267659130391
 10
89.63036022064796
 20
-149.9309000276214
 10
89.46310083483909
 20
-149.9371011994949
 10
89.46310083483909
 20
-149.9371011994949
 10
89.46310083483909
 20
-149.765879953878
 10
89.46310083483909
 20
-149.765879953878
 10
89.61761336735255
 20
-149.7765597498822
 10
89.80382077833031
 20
-149.7765597498822
 10
89.96884085207376
 20
-149.7765597498822
 10
89.96884085207376
 20
-149.7765597498822
 10
90.11474064587408
 20
-149.7765597498822
 10
90.11474064587408
 20
-149.7765597498822
 10
90.11474064587408
 20
-149.7765597498822
 10
90.11474064587408
 20
-149.6580484651896
 10
90.11474064587408
 20
-149.6580484651896
 10
90.11474064587408
 20
-149.6580484651896
 10
89.98365476266034
 20
-149.6580484651896
 10
89.98365476266034
 20
-149.6580484651896
 10
89.9369737188352
 20
-149.6580484651896
 10
89.73388533997972
 20
-149.6663166943542
 10
89.69168292028541
 20
-149.6663166943542
 10
89.48859454142993
 20
-149.6707953184851
 10
89.41245793120591
 20
-149.6728623757762
 10
89.33408200891648
 20
-149.6749294330673
 10
89.33408200891648
 20
-149.6749294330673
 10
89.33408200891648
 20
-149.490961334155
 10
89.33408200891648
 20
-149.490961334155
 10
89.44828692425252
 20
-149.4992295633196
 10
89.49272865601223
 20
-149.4992295633196
 10
89.87565101919775
 20
-149.5078423020328
 10
89.81226126226916
 20
-149.4127576666398
 10
89.78470049838717
 20
-149.3851969027579
 10
89.7486992505663
 20
-149.3490234001627
 10
89.7486992505663
 20
-149.3490234001627
 10
89.92439912031406
 20
-149.2666856180653
 10
89.92439912031406
 20
-149.2666856180653
 10
89.9645344827172
 20
-149.3025146111119
 10
90.00897621447693
 20
-149.3448892855804
 10
90.08304576740981
 20
-149.4547878315599
 10
90.08304576740981
 20
-149.4547878315599
 10
89.96884085207376
 20
-149.5099093593239
 10
89.96884085207376
 20
-149.5099093593239
 10
89.96884085207376
 20
-149.5099093593239
 10
89.97934839330378
 20
-149.5099093593239
 10
89.97934839330378
 20
-149.5099093593239
 10
89.97934839330378
 20
-149.5099093593239
 10
90.50196937841617
 20
-149.5099093593239
 10
90.50196937841617
 20
-149.5099093593239
 10
90.50196937841617
 20
-149.5099093593239
 10
90.40671248824901
 20
-149.4654676275642
 10
90.40671248824901
 20
-149.4654676275642
 10
90.43410099735675
 20
-149.4275715772264
 10
90.4912895824119
 20
-149.3469563428716
 10
90.50610349299848
 20
-149.2728867899387
 10
90.50610349299848
 20
-149.2728867899387
 10
90.71969941308397
 20
-149.3362765468673
 10
90.71969941308397
 20
-149.3362765468673
 10
90.72831215179709
 20
-149.338688113707
 10
90.74932723425712
 20
-149.3490234001627
 10
90.74932723425712
 20
-149.3703829921713
 10
90.74932723425712
 20
-149.408279042509
 10
90.68387042003736
 20
-149.408279042509
 10
90.66475014009423
 20
-149.408279042509
 10
90.65424259886421
 20
-149.4275715772264
 10
90.63098820433879
 20
-149.4675346848553
 10
90.60136038316564
 20
-149.5078423020328
 10
91.00116371422888
 20
-149.5012966206108
 10
91.03079153540203
 20
-149.4992295633196
 10
91.10692814562606
 20
-149.4930283914461
 10
91.10692814562606
 20
-149.4930283914461
 10
91.10692814562606
 20
-149.6749294330673
 10
91.10692814562606
 20
-149.6749294330673
 10
91.08780786568292
 20
-149.6749294330673
 10
91.06248641386633
 20
-149.6728623757762
 10
90.84251706713313
 20
-149.6642496370631
 10
90.79170190872568
 20
-149.6621825797719
 10
90.57173256199249
 20
-149.6580484651896
 10
90.52729083023276
 20
-149.6580484651896
 10
90.52729083023276
 20
-149.6580484651896
 10
90.31145559808186
 20
-149.6580484651896
 10
90.31145559808186
 20
-149.6580484651896
 10
90.31145559808186
 20
-149.6580484651896
 10
90.31145559808186
 20
-149.7765597498822
 10
90.31145559808186
 20
-149.7765597498822
 10
90.31145559808186
 20
-149.7765597498822
 10
90.4849161557642
 20
-149.7765597498822
 10
90.4849161557642
 20
-149.7765597498822
 10
90.64786917221651
 20
-149.7765597498822
 10
90.83821069777656
 20
-149.7765597498822
 10
90.99479028758116
 20
-149.765879953878
 10
90.99479028758116
 20
-149.765879953878
 10
90.99479028758116
 20
-149.9371011994949
 10
90.99479028758116
 20
-149.9371011994949
 10
90.78532848207798
 20
-149.9288329703303
 10
90.58861352987021
 20
-149.9267659130391
 10
90.4849161557642
 20
-149.9267659130391
 10
90.4849161557642
 20
-149.9267659130391
 10
90.31145559808186
 20
-149.9267659130391
 10
90.31145559808186
 20
-149.9267659130391
 10
90.31145559808186
 20
-149.9267659130391
 10
90.31145559808186
 20
-150.0345974017274
 10
90.31145559808186
 20
-150.0345974017274
 10
90.31145559808186
 20
-150.0345974017274
 10
90.54210474081934
 20
-150.0345974017274
 10
90.54210474081934
 20
-150.0345974017274
 10
90.67542993609851
 20
-150.0345974017274
 10
90.96309540911688
 20
-150.0304632871451
 10
91.17255721462006
 20
-150.0239176057232
 10
91.17255721462006
 20
-150.0239176057232
 10
91.17255721462006
 20
-150.2016845327621
 10
91.17255721462006
 20
-150.2016845327621
 10
90.9799763769946
 20
-150.1954833608886
 10
90.66681719738538
 20
-150.1910047367578
 10
90.54210474081934
 20
-150.1910047367578
 97
        0
 97
        1
330
148
 75
     2
 76
     1
 98
        1
 10
0.0
 20
0.0
450
        0
451
        0
460
0.0
461
0.0
452
        0
462
0.0
453
        0
470

  0
SPLINE
  5
14A
330
13D
100
AcDbEntity
  8
レイヤー 1
100
AcDbSpline
210
0.0
220
0.0
230
1.0
 70
     9
 71
     3
 72
    29
 73
    25
 74
     0
 42
0.0000000001
 43
0.0000000001
 40
0.0
 40
0.0
 40
0.0
 40
0.0
 40
1.0
 40
1.0
 40
1.0
 40
2.0
 40
2.0
 40
2.0
 40
3.0
 40
3.0
 40
3.0
 40
4.0
 40
4.0
 40
4.0
 40
5.0
 40
5.0
 40
5.0
 40
6.0
 40
6.0
 40
6.0
 40
7.0
 40
7.0
 40
7.0
 40
8.0
 40
8.0
 40
8.0
 40
8.0
 10
92.41761472298936
 20
-149.6391004400208
 30
0.0
 10
92.41761472298936
 20
-149.6391004400208
 30
0.0
 10
92.06432018097698
 20
-149.6391004400208
 30
0.0
 10
92.06432018097698
 20
-149.6391004400208
 30
0.0
 10
91.95218232293211
 20
-149.6391004400208
 30
0.0
 10
91.81248370100522
 20
-149.6453016118942
 30
0.0
 10
91.7046522123169
 20
-149.6580484651896
 30
0.0
 10
91.7046522123169
 20
-149.6580484651896
 30
0.0
 10
91.7046522123169
 20
-149.4230929530956
 30
0.0
 10
91.7046522123169
 20
-149.4230929530956
 30
0.0
 10
91.82316349700949
 20
-149.4379068636822
 30
0.0
 10
92.00713159592183
 20
-149.4420409782645
 30
0.0
 10
92.06432018097698
 20
-149.4420409782645
 30
0.0
 10
92.06432018097698
 20
-149.4420409782645
 30
0.0
 10
92.41761472298936
 20
-149.4420409782645
 30
0.0
 10
92.41761472298936
 20
-149.4420409782645
 30
0.0
 10
92.43656274815823
 20
-149.4420409782645
 30
0.0
 10
92.6396511270137
 20
-149.4420409782645
 30
0.0
 10
92.78141680623173
 20
-149.4230929530956
 30
0.0
 10
92.78141680623173
 20
-149.4230929530956
 30
0.0
 10
92.78141680623173
 20
-149.6580484651896
 30
0.0
 10
92.78141680623173
 20
-149.6580484651896
 30
0.0
 10
92.62483721642713
 20
-149.6391004400208
 30
0.0
 10
92.43449569086708
 20
-149.6391004400208
 30
0.0
 10
92.41761472298936
 20
-149.6391004400208
 30
0.0
  0
SPLINE
  5
14B
330
13D
100
AcDbEntity
  8
レイヤー 1
100
AcDbSpline
210
0.0
220
0.0
230
1.0
 70
     9
 71
     3
 72
    47
 73
    43
 74
     0
 42
0.0000000001
 43
0.0000000001
 40
0.0
 40
0.0
 40
0.0
 40
0.0
 40
1.0
 40
1.0
 40
1.0
 40
2.0
 40
2.0
 40
2.0
 40
3.0
 40
3.0
 40
3.0
 40
4.0
 40
4.0
 40
4.0
 40
5.0
 40
5.0
 40
5.0
 40
6.0
 40
6.0
 40
6.0
 40
7.0
 40
7.0
 40
7.0
 40
8.0
 40
8.0
 40
8.0
 40
9.0
 40
9.0
 40
9.0
 40
10.0
 40
10.0
 40
10.0
 40
11.0
 40
11.0
 40
11.0
 40
12.0
 40
12.0
 40
12.0
 40
13.0
 40
13.0
 40
13.0
 40
14.0
 40
14.0
 40
14.0
 40
14.0
 10
92.51907278502995
 20
-150.1679225970066
 30
0.0
 10
92.51907278502995
 20
-150.1679225970066
 30
0.0
 10
92.41761472298936
 20
-150.1679225970066
 30
0.0
 10
92.41761472298936
 20
-150.1679225970066
 30
0.0
 10
92.41761472298936
 20
-150.2543944936864
 30
0.0
 10
92.39642738575506
 20
-150.6436902835196
 30
0.0
 10
92.19971243354731
 20
-150.8638318850271
 30
0.0
 10
92.047266958325
 20
-151.0329860733528
 30
0.0
 10
91.84004446488721
 20
-151.1029215117034
 30
0.0
 10
91.75546737072433
 20
-151.1304822755854
 30
0.0
 10
91.75546737072433
 20
-151.1304822755854
 30
0.0
 10
91.56081947580771
 20
-150.9633951445508
 30
0.0
 10
91.56081947580771
 20
-150.9633951445508
 30
0.0
 10
91.65814342326603
 20
-150.9506482912554
 30
0.0
 10
91.8336710382395
 20
-150.9272216419557
 30
0.0
 10
92.0219455065084
 20
-150.739119428461
 30
0.0
 10
92.09601505944128
 20
-150.6671169328193
 30
0.0
 10
92.19971243354731
 20
-150.5275905656667
 30
0.0
 10
92.19971243354731
 20
-150.1679225970066
 30
0.0
 10
92.19971243354731
 20
-150.1679225970066
 30
0.0
 10
91.96906329080983
 20
-150.1679225970066
 30
0.0
 10
91.96906329080983
 20
-150.1679225970066
 30
0.0
 10
91.78285587983207
 20
-150.1679225970066
 30
0.0
 10
91.59664846885432
 20
-150.1720567115889
 30
0.0
 10
91.41061331265083
 20
-150.1868706221755
 30
0.0
 10
91.41061331265083
 20
-150.1868706221755
 30
0.0
 10
91.41061331265083
 20
-149.966729020668
 30
0.0
 10
91.41061331265083
 20
-149.966729020668
 30
0.0
 10
91.59888778091973
 20
-149.9815429312546
 30
0.0
 10
91.88448619664693
 20
-149.9860215553854
 30
0.0
 10
91.96906329080983
 20
-149.9860215553854
 30
0.0
 10
91.96906329080983
 20
-149.9860215553854
 30
0.0
 10
92.51907278502995
 20
-149.9860215553854
 30
0.0
 10
92.51907278502995
 20
-149.9860215553854
 30
0.0
 10
92.53819306497311
 20
-149.9860215553854
 30
0.0
 10
92.85548635916461
 20
-149.9860215553854
 30
0.0
 10
93.08389618983666
 20
-149.966729020668
 30
0.0
 10
93.08389618983666
 20
-149.966729020668
 30
0.0
 10
93.08389618983666
 20
-150.1868706221755
 30
0.0
 10
93.08389618983666
 20
-150.1868706221755
 30
0.0
 10
92.89562172156776
 20
-150.1720567115889
 30
0.0
 10
92.70734725329885
 20
-150.1679225970066
 30
0.0
 10
92.51907278502995
 20
-150.1679225970066
 30
0.0
  0
HATCH
  5
14C
330
13D
100
AcDbEntity
  8
レイヤー 1
 62
    18
420
        0
440
 33554687
100
AcDbHatch
 10
0.0
 20
0.0
 30
0.0
210
0.0
220
0.0
230
1.0
  2
SOLID
 70
     1
 71
     1
 91
        2
 92
        1
 93
        1
 72
     4
 94
        3
 73
     0
 74
     0
 95
       29
 96
       25
 40
0.0
 40
0.0
 40
0.0
 40
0.0
 40
1.0
 40
1.0
 40
1.0
 40
2.0
 40
2.0
 40
2.0
 40
3.0
 40
3.0
 40
3.0
 40
4.0
 40
4.0
 40
4.0
 40
5.0
 40
5.0
 40
5.0
 40
6.0
 40
6.0
 40
6.0
 40
7.0
 40
7.0
 40
7.0
 40
8.0
 40
8.0
 40
8.0
 40
8.0
 10
92.41761472298936
 20
-149.6391004400208
 10
92.41761472298936
 20
-149.6391004400208
 10
92.06432018097698
 20
-149.6391004400208
 10
92.06432018097698
 20
-149.6391004400208
 10
91.95218232293211
 20
-149.6391004400208
 10
91.81248370100522
 20
-149.6453016118942
 10
91.7046522123169
 20
-149.6580484651896
 10
91.7046522123169
 20
-149.6580484651896
 10
91.7046522123169
 20
-149.4230929530956
 10
91.7046522123169
 20
-149.4230929530956
 10
91.82316349700949
 20
-149.4379068636822
 10
92.00713159592183
 20
-149.4420409782645
 10
92.06432018097698
 20
-149.4420409782645
 10
92.06432018097698
 20
-149.4420409782645
 10
92.41761472298936
 20
-149.4420409782645
 10
92.41761472298936
 20
-149.4420409782645
 10
92.43656274815823
 20
-149.4420409782645
 10
92.6396511270137
 20
-149.4420409782645
 10
92.78141680623173
 20
-149.4230929530956
 10
92.78141680623173
 20
-149.4230929530956
 10
92.78141680623173
 20
-149.6580484651896
 10
92.78141680623173
 20
-149.6580484651896
 10
92.62483721642713
 20
-149.6391004400208
 10
92.43449569086708
 20
-149.6391004400208
 10
92.41761472298936
 20
-149.6391004400208
 97
        0
 97
        1
330
14A
 92
        1
 93
        1
 72
     4
 94
        3
 73
     0
 74
     0
 95
       47
 96
       43
 40
0.0
 40
0.0
 40
0.0
 40
0.0
 40
1.0
 40
1.0
 40
1.0
 40
2.0
 40
2.0
 40
2.0
 40
3.0
 40
3.0
 40
3.0
 40
4.0
 40
4.0
 40
4.0
 40
5.0
 40
5.0
 40
5.0
 40
6.0
 40
6.0
 40
6.0
 40
7.0
 40
7.0
 40
7.0
 40
8.0
 40
8.0
 40
8.0
 40
9.0
 40
9.0
 40
9.0
 40
10.0
 40
10.0
 40
10.0
 40
11.0
 40
11.0
 40
11.0
 40
12.0
 40
12.0
 40
12.0
 40
13.0
 40
13.0
 40
13.0
 40
14.0
 40
14.0
 40
14.0
 40
14.0
 10
92.51907278502995
 20
-150.1679225970066
 10
92.51907278502995
 20
-150.1679225970066
 10
92.41761472298936
 20
-150.1679225970066
 10
92.41761472298936
 20
-150.1679225970066
 10
92.41761472298936
 20
-150.2543944936864
 10
92.39642738575506
 20
-150.6436902835196
 10
92.19971243354731
 20
-150.8638318850271
 10
92.047266958325
 20
-151.0329860733528
 10
91.84004446488721
 20
-151.1029215117034
 10
91.75546737072433
 20
-151.1304822755854
 10
91.75546737072433
 20
-151.1304822755854
 10
91.56081947580771
 20
-150.9633951445508
 10
91.56081947580771
 20
-150.9633951445508
 10
91.65814342326603
 20
-150.9506482912554
 10
91.8336710382395
 20
-150.9272216419557
 10
92.0219455065084
 20
-150.739119428461
 10
92.09601505944128
 20
-150.6671169328193
 10
92.19971243354731
 20
-150.5275905656667
 10
92.19971243354731
 20
-150.1679225970066
 10
92.19971243354731
 20
-150.1679225970066
 10
91.96906329080983
 20
-150.1679225970066
 10
91.96906329080983
 20
-150.1679225970066
 10
91.78285587983207
 20
-150.1679225970066
 10
91.59664846885432
 20
-150.1720567115889
 10
91.41061331265083
 20
-150.1868706221755
 10
91.41061331265083
 20
-150.1868706221755
 10
91.41061331265083
 20
-149.966729020668
 10
91.41061331265083
 20
-149.966729020668
 10
91.59888778091973
 20
-149.9815429312546
 10
91.88448619664693
 20
-149.9860215553854
 10
91.96906329080983
 20
-149.9860215553854
 10
91.96906329080983
 20
-149.9860215553854
 10
92.51907278502995
 20
-149.9860215553854
 10
92.51907278502995
 20
-149.9860215553854
 10
92.53819306497311
 20
-149.9860215553854
 10
92.85548635916461
 20
-149.9860215553854
 10
93.08389618983666
 20
-149.966729020668
 10
93.08389618983666
 20
-149.966729020668
 10
93.08389618983666
 20
-150.1868706221755
 10
93.08389618983666
 20
-150.1868706221755
 10
92.89562172156776
 20
-150.1720567115889
 10
92.70734725329885
 20
-150.1679225970066
 10
92.51907278502995
 20
-150.1679225970066
 97
        0
 97
        1
330
14B
 75
     2
 76
     1
 98
        1
 10
0.0
 20
0.0
450
        0
451
        0
460
0.0
461
0.0
452
        0
462
0.0
453
        0
470

  0
SPLINE
  5
14D
330
13D
100
AcDbEntity
  8
レイヤー 1
100
AcDbSpline
210
0.0
220
0.0
230
1.0
 70
     9
 71
     3
 72
    29
 73
    25
 74
     0
 42
0.0000000001
 43
0.0000000001
 40
0.0
 40
0.0
 40
0.0
 40
0.0
 40
1.0
 40
1.0
 40
1.0
 40
2.0
 40
2.0
 40
2.0
 40
3.0
 40
3.0
 40
3.0
 40
4.0
 40
4.0
 40
4.0
 40
5.0
 40
5.0
 40
5.0
 40
6.0
 40
6.0
 40
6.0
 40
7.0
 40
7.0
 40
7.0
 40
8.0
 40
8.0
 40
8.0
 40
8.0
 10
94.36478269125256
 20
-150.3308756134589
 30
0.0
 10
94.36478269125256
 20
-150.3308756134589
 30
0.0
 10
93.88040226602644
 20
-150.3308756134589
 30
0.0
 10
93.88040226602644
 20
-150.3308756134589
 30
0.0
 10
93.85284150214443
 20
-150.3308756134589
 30
0.0
 10
93.53554820795293
 20
-150.3308756134589
 30
0.0
 10
93.32401934515859
 20
-150.3560248105013
 30
0.0
 10
93.32401934515859
 20
-150.3560248105013
 30
0.0
 10
93.32401934515859
 20
-150.125547922538
 30
0.0
 10
93.32401934515859
 20
-150.125547922538
 30
0.0
 10
93.48266599225434
 20
-150.1486300622892
 30
0.0
 10
93.6730075178144
 20
-150.1510416291289
 30
0.0
 10
93.88040226602644
 20
-150.1510416291289
 30
0.0
 10
93.88040226602644
 20
-150.1510416291289
 30
0.0
 10
94.36478269125256
 20
-150.1510416291289
 30
0.0
 10
94.36478269125256
 20
-150.1510416291289
 30
0.0
 10
94.55099010223031
 20
-150.1510416291289
 30
0.0
 10
94.73719751320805
 20
-150.1486300622892
 30
0.0
 10
94.92116561212041
 20
-150.125547922538
 30
0.0
 10
94.92116561212041
 20
-150.125547922538
 30
0.0
 10
94.92116561212041
 20
-150.3560248105013
 30
0.0
 10
94.92116561212041
 20
-150.3560248105013
 30
0.0
 10
94.73719751320805
 20
-150.3329426707501
 30
0.0
 10
94.48966740259287
 20
-150.3308756134589
 30
0.0
 10
94.36478269125256
 20
-150.3308756134589
 30
0.0
  0
HATCH
  5
14E
330
13D
100
AcDbEntity
  8
レイヤー 1
 62
    18
420
        0
440
 33554687
100
AcDbHatch
 10
0.0
 20
0.0
 30
0.0
210
0.0
220
0.0
230
1.0
  2
SOLID
 70
     1
 71
     1
 91
        1
 92
        1
 93
        1
 72
     4
 94
        3
 73
     0
 74
     0
 95
       29
 96
       25
 40
0.0
 40
0.0
 40
0.0
 40
0.0
 40
1.0
 40
1.0
 40
1.0
 40
2.0
 40
2.0
 40
2.0
 40
3.0
 40
3.0
 40
3.0
 40
4.0
 40
4.0
 40
4.0
 40
5.0
 40
5.0
 40
5.0
 40
6.0
 40
6.0
 40
6.0
 40
7.0
 40
7.0
 40
7.0
 40
8.0
 40
8.0
 40
8.0
 40
8.0
 10
94.36478269125256
 20
-150.3308756134589
 10
94.36478269125256
 20
-150.3308756134589
 10
93.88040226602644
 20
-150.3308756134589
 10
93.88040226602644
 20
-150.3308756134589
 10
93.85284150214443
 20
-150.3308756134589
 10
93.53554820795293
 20
-150.3308756134589
 10
93.32401934515859
 20
-150.3560248105013
 10
93.32401934515859
 20
-150.3560248105013
 10
93.32401934515859
 20
-150.125547922538
 10
93.32401934515859
 20
-150.125547922538
 10
93.48266599225434
 20
-150.1486300622892
 10
93.6730075178144
 20
-150.1510416291289
 10
93.88040226602644
 20
-150.1510416291289
 10
93.88040226602644
 20
-150.1510416291289
 10
94.36478269125256
 20
-150.1510416291289
 10
94.36478269125256
 20
-150.1510416291289
 10
94.55099010223031
 20
-150.1510416291289
 10
94.73719751320805
 20
-150.1486300622892
 10
94.92116561212041
 20
-150.125547922538
 10
94.92116561212041
 20
-150.125547922538
 10
94.92116561212041
 20
-150.3560248105013
 10
94.92116561212041
 20
-150.3560248105013
 10
94.73719751320805
 20
-150.3329426707501
 10
94.48966740259287
 20
-150.3308756134589
 10
94.36478269125256
 20
-150.3308756134589
 97
        0
 97
        1
330
14D
 75
     2
 76
     1
 98
        1
 10
0.0
 20
0.0
450
        0
451
        0
460
0.0
461
0.0
452
        0
462
0.0
453
        0
470

  0
SPLINE
  5
14F
330
13D
100
AcDbEntity
  8
レイヤー 1
100
AcDbSpline
210
0.0
220
0.0
230
1.0
 70
     9
 71
     3
 72
    47
 73
    43
 74
     0
 42
0.0000000001
 43
0.0000000001
 40
0.0
 40
0.0
 40
0.0
 40
0.0
 40
1.0
 40
1.0
 40
1.0
 40
2.0
 40
2.0
 40
2.0
 40
3.0
 40
3.0
 40
3.0
 40
4.0
 40
4.0
 40
4.0
 40
5.0
 40
5.0
 40
5.0
 40
6.0
 40
6.0
 40
6.0
 40
7.0
 40
7.0
 40
7.0
 40
8.0
 40
8.0
 40
8.0
 40
9.0
 40
9.0
 40
9.0
 40
10.0
 40
10.0
 40
10.0
 40
11.0
 40
11.0
 40
11.0
 40
12.0
 40
12.0
 40
12.0
 40
13.0
 40
13.0
 40
13.0
 40
14.0
 40
14.0
 40
14.0
 40
14.0
 10
96.58497447672182
 20
-149.7362521327048
 30
0.0
 10
96.51521129314552
 20
-150.0156493765586
 30
0.0
 10
96.43907468292148
 20
-150.3201958174547
 30
0.0
 10
96.12591550331227
 20
-150.6523030222327
 30
0.0
 10
95.88906518870135
 20
-150.9020724449134
 30
0.0
 10
95.6436021353773
 20
-151.0012911948886
 30
0.0
 10
95.53783770398013
 20
-151.0436658693571
 30
0.0
 10
95.53783770398013
 20
-151.0436658693571
 30
0.0
 10
95.34318980906352
 20
-150.8617648277359
 30
0.0
 10
95.34318980906352
 20
-150.8617648277359
 30
0.0
 10
95.52939722004126
 20
-150.8152560386851
 30
0.0
 10
95.8911322459925
 20
-150.7222384605833
 30
0.0
 10
96.18723820294974
 20
-150.2271782393529
 30
0.0
 10
96.3481241621109
 20
-149.9605278487946
 30
0.0
 10
96.36069876063205
 20
-149.786895036338
 30
0.0
 10
96.36931149934518
 20
-149.6959445155274
 30
0.0
 10
96.36931149934518
 20
-149.6959445155274
 30
0.0
 10
95.8635714821105
 20
-149.6959445155274
 30
0.0
 10
95.8635714821105
 20
-149.6959445155274
 30
0.0
 10
95.74523245219216
 20
-149.6959445155274
 30
0.0
 10
95.32424178389463
 20
-149.7152370502448
 30
0.0
 10
95.17179630867232
 20
-149.7255723367005
 30
0.0
 10
95.17179630867232
 20
-149.7255723367005
 30
0.0
 10
95.17179630867232
 20
-149.5161105311973
 30
0.0
 10
95.17179630867232
 20
-149.5161105311973
 30
0.0
 10
95.31356198789037
 20
-149.5288573844928
 30
0.0
 10
95.59071991967872
 20
-149.5333360086236
 30
0.0
 10
95.70716414708016
 20
-149.5333360086236
 30
0.0
 10
95.70716414708016
 20
-149.5333360086236
 30
0.0
 10
96.06252574638368
 20
-149.5333360086236
 30
0.0
 10
96.06252574638368
 20
-149.5333360086236
 30
0.0
 10
96.08991425549142
 20
-149.5333360086236
 30
0.0
 10
96.25080021465258
 20
-149.5309244417839
 30
0.0
 10
96.36069876063205
 20
-149.5161105311973
 30
0.0
 10
96.4178873456872
 20
-149.5099093593239
 30
0.0
 10
96.43476831356494
 20
-149.490961334155
 30
0.0
 10
96.45802270809035
 20
-149.4675346848553
 30
0.0
 10
96.45802270809035
 20
-149.4675346848553
 30
0.0
 10
96.64629717635927
 20
-149.6177408480122
 30
0.0
 10
96.64629717635927
 20
-149.6177408480122
 30
0.0
 10
96.63148326577269
 20
-149.6473686691854
 30
0.0
 10
96.62097572454268
 20
-149.6663166943542
 30
0.0
 10
96.58497447672182
 20
-149.7362521327048
 30
0.0
  0
HATCH
  5
150
330
13D
100
AcDbEntity
  8
レイヤー 1
 62
    18
420
        0
440
 33554687
100
AcDbHatch
 10
0.0
 20
0.0
 30
0.0
210
0.0
220
0.0
230
1.0
  2
SOLID
 70
     1
 71
     1
 91
        1
 92
        1
 93
        1
 72
     4
 94
        3
 73
     0
 74
     0
 95
       47
 96
       43
 40
0.0
 40
0.0
 40
0.0
 40
0.0
 40
1.0
 40
1.0
 40
1.0
 40
2.0
 40
2.0
 40
2.0
 40
3.0
 40
3.0
 40
3.0
 40
4.0
 40
4.0
 40
4.0
 40
5.0
 40
5.0
 40
5.0
 40
6.0
 40
6.0
 40
6.0
 40
7.0
 40
7.0
 40
7.0
 40
8.0
 40
8.0
 40
8.0
 40
9.0
 40
9.0
 40
9.0
 40
10.0
 40
10.0
 40
10.0
 40
11.0
 40
11.0
 40
11.0
 40
12.0
 40
12.0
 40
12.0
 40
13.0
 40
13.0
 40
13.0
 40
14.0
 40
14.0
 40
14.0
 40
14.0
 10
96.58497447672182
 20
-149.7362521327048
 10
96.51521129314552
 20
-150.0156493765586
 10
96.43907468292148
 20
-150.3201958174547
 10
96.12591550331227
 20
-150.6523030222327
 10
95.88906518870135
 20
-150.9020724449134
 10
95.6436021353773
 20
-151.0012911948886
 10
95.53783770398013
 20
-151.0436658693571
 10
95.53783770398013
 20
-151.0436658693571
 10
95.34318980906352
 20
-150.8617648277359
 10
95.34318980906352
 20
-150.8617648277359
 10
95.52939722004126
 20
-150.8152560386851
 10
95.8911322459925
 20
-150.7222384605833
 10
96.18723820294974
 20
-150.2271782393529
 10
96.3481241621109
 20
-149.9605278487946
 10
96.36069876063205
 20
-149.786895036338
 10
96.36931149934518
 20
-149.6959445155274
 10
96.36931149934518
 20
-149.6959445155274
 10
95.8635714821105
 20
-149.6959445155274
 10
95.8635714821105
 20
-149.6959445155274
 10
95.74523245219216
 20
-149.6959445155274
 10
95.32424178389463
 20
-149.7152370502448
 10
95.17179630867232
 20
-149.7255723367005
 10
95.17179630867232
 20
-149.7255723367005
 10
95.17179630867232
 20
-149.5161105311973
 10
95.17179630867232
 20
-149.5161105311973
 10
95.31356198789037
 20
-149.5288573844928
 10
95.59071991967872
 20
-149.5333360086236
 10
95.70716414708016
 20
-149.5333360086236
 10
95.70716414708016
 20
-149.5333360086236
 10
96.06252574638368
 20
-149.5333360086236
 10
96.06252574638368
 20
-149.5333360086236
 10
96.08991425549142
 20
-149.5333360086236
 10
96.25080021465258
 20
-149.5309244417839
 10
96.36069876063205
 20
-149.5161105311973
 10
96.4178873456872
 20
-149.5099093593239
 10
96.43476831356494
 20
-149.490961334155
 10
96.45802270809035
 20
-149.4675346848553
 10
96.45802270809035
 20
-149.4675346848553
 10
96.64629717635927
 20
-149.6177408480122
 10
96.64629717635927
 20
-149.6177408480122
 10
96.63148326577269
 20
-149.6473686691854
 10
96.62097572454268
 20
-149.6663166943542
 10
96.58497447672182
 20
-149.7362521327048
 97
        0
 97
        1
330
14F
 75
     2
 76
     1
 98
        1
 10
0.0
 20
0.0
450
        0
451
        0
460
0.0
461
0.0
452
        0
462
0.0
453
        0
470

  0
SPLINE
  5
151
330
13D
100
AcDbEntity
  8
レイヤー 1
100
AcDbSpline
210
0.0
220
0.0
230
1.0
 70
    11
 71
     3
 72
    17
 73
    13
 74
     0
 42
0.0000000001
 43
0.0000000001
 40
0.0
 40
0.0
 40
0.0
 40
0.0
 40
1.0
 40
1.0
 40
1.0
 40
2.0
 40
2.0
 40
2.0
 40
3.0
 40
3.0
 40
3.0
 40
4.0
 40
4.0
 40
4.0
 40
4.0
 10
96.97530379520062
 20
-149.518522098037
 30
0.0
 10
96.97530379520062
 20
-149.5777777403833
 30
0.0
 10
97.02181258425149
 20
-149.6242865294342
 30
0.0
 10
97.08106822659779
 20
-149.6242865294342
 30
0.0
 10
97.14032386894409
 20
-149.6242865294342
 30
0.0
 10
97.18889971528611
 20
-149.5777777403833
 30
0.0
 10
97.18889971528611
 20
-149.518522098037
 30
0.0
 10
97.18889971528611
 20
-149.4592664556907
 30
0.0
 10
97.14032386894409
 20
-149.4103460998002
 30
0.0
 10
97.08106822659779
 20
-149.4103460998002
 30
0.0
 10
97.02181258425149
 20
-149.4103460998002
 30
0.0
 10
96.97530379520062
 20
-149.4592664556907
 30
0.0
 10
96.97530379520062
 20
-149.518522098037
 30
0.0
  0
SPLINE
  5
152
330
13D
100
AcDbEntity
  8
レイヤー 1
100
AcDbSpline
210
0.0
220
0.0
230
1.0
 70
     9
 71
     3
 72
    17
 73
    13
 74
     0
 42
0.0000000001
 43
0.0000000001
 40
0.0
 40
0.0
 40
0.0
 40
0.0
 40
1.0
 40
1.0
 40
1.0
 40
2.0
 40
2.0
 40
2.0
 40
3.0
 40
3.0
 40
3.0
 40
4.0
 40
4.0
 40
4.0
 40
4.0
 10
97.29053003210099
 20
-149.518522098037
 30
0.0
 10
97.29053003210099
 20
-149.6325547585988
 30
0.0
 10
97.19734019922498
 20
-149.7276393939917
 30
0.0
 10
97.08106822659779
 20
-149.7276393939917
 30
0.0
 10
96.96686331126176
 20
-149.7276393939917
 30
0.0
 10
96.87160642109461
 20
-149.6325547585988
 30
0.0
 10
96.87160642109461
 20
-149.518522098037
 30
0.0
 10
96.87160642109461
 20
-149.4020778706356
 30
0.0
 10
96.96686331126176
 20
-149.3090602925338
 30
0.0
 10
97.08106822659779
 20
-149.3090602925338
 30
0.0
 10
97.19527314193383
 20
-149.3090602925338
 30
0.0
 10
97.29053003210099
 20
-149.4020778706356
 30
0.0
 10
97.29053003210099
 20
-149.518522098037
 30
0.0
  0
HATCH
  5
153
330
13D
100
AcDbEntity
  8
レイヤー 1
 62
    18
420
        0
440
 33554687
100
AcDbHatch
 10
0.0
 20
0.0
 30
0.0
210
0.0
220
0.0
230
1.0
  2
SOLID
 70
     1
 71
     1
 91
        2
 92
        1
 93
        1
 72
     4
 94
        3
 73
     0
 74
     0
 95
       17
 96
       13
 40
0.0
 40
0.0
 40
0.0
 40
0.0
 40
1.0
 40
1.0
 40
1.0
 40
2.0
 40
2.0
 40
2.0
 40
3.0
 40
3.0
 40
3.0
 40
4.0
 40
4.0
 40
4.0
 40
4.0
 10
96.97530379520062
 20
-149.518522098037
 10
96.97530379520062
 20
-149.5777777403833
 10
97.02181258425149
 20
-149.6242865294342
 10
97.08106822659779
 20
-149.6242865294342
 10
97.14032386894409
 20
-149.6242865294342
 10
97.18889971528611
 20
-149.5777777403833
 10
97.18889971528611
 20
-149.518522098037
 10
97.18889971528611
 20
-149.4592664556907
 10
97.14032386894409
 20
-149.4103460998002
 10
97.08106822659779
 20
-149.4103460998002
 10
97.02181258425149
 20
-149.4103460998002
 10
96.97530379520062
 20
-149.4592664556907
 10
96.97530379520062
 20
-149.518522098037
 97
        0
 97
        1
330
151
 92
        1
 93
        1
 72
     4
 94
        3
 73
     0
 74
     0
 95
       17
 96
       13
 40
0.0
 40
0.0
 40
0.0
 40
0.0
 40
1.0
 40
1.0
 40
1.0
 40
2.0
 40
2.0
 40
2.0
 40
3.0
 40
3.0
 40
3.0
 40
4.0
 40
4.0
 40
4.0
 40
4.0
 10
97.29053003210099
 20
-149.518522098037
 10
97.29053003210099
 20
-149.6325547585988
 10
97.19734019922498
 20
-149.7276393939917
 10
97.08106822659779
 20
-149.7276393939917
 10
96.96686331126176
 20
-149.7276393939917
 10
96.87160642109461
 20
-149.6325547585988
 10
96.87160642109461
 20
-149.518522098037
 10
96.87160642109461
 20
-149.4020778706356
 10
96.96686331126176
 20
-149.3090602925338
 10
97.08106822659779
 20
-149.3090602925338
 10
97.19527314193383
 20
-149.3090602925338
 10
97.29053003210099
 20
-149.4020778706356
 10
97.29053003210099
 20
-149.518522098037
 97
        0
 97
        1
330
152
 75
     2
 76
     1
 98
        1
 10
0.0
 20
0.0
450
        0
451
        0
460
0.0
461
0.0
452
        0
462
0.0
453
        0
470

  0
ENDBLK
  5
140
330
13D
100
AcDbEntity
  8
0
100
AcDbBlockEnd
  0
ENDSEC
  0
SECTION
  2
ENTITIES
  0
INSERT
  5
7A
330
70
100
AcDbEntity
  8
レイヤー 1
100
AcDbBlockReference
  2
Block_0
 10
0.0
 20
0.0
 30
0.0
  0
ENDSEC
  0
SECTION
  2
OBJECTS
  0
DICTIONARY
  5
C
330
0
100
AcDbDictionary
281
     1
  3
ACAD_COLOR
350
63
  3
ACAD_DETAILVIEWSTYLE
350
6A
  3
ACAD_GROUP
350
D
  3
ACAD_LAYOUT
350
62
  3
ACAD_MATERIAL
350
10
  3
ACAD_MLEADERSTYLE
350
66
  3
ACAD_MLINESTYLE
350
5F
  3
ACAD_PLOTSETTINGS
350
61
  3
ACAD_PLOTSTYLENAME
350
E
  3
ACAD_SCALELIST
350
42
  3
ACAD_SECTIONVIEWSTYLE
350
68
  3
ACAD_TABLESTYLE
350
64
  3
ACAD_VISUALSTYLE
350
29
  3
ACDB_RECOMPOSE_DATA
350
15C
  3
AcDbVariableDictionary
350
154
  0
DICTIONARY
  5
63
102
{ACAD_REACTORS
330
C
102
}
330
C
100
AcDbDictionary
281
     1
  0
DICTIONARY
  5
6A
102
{ACAD_REACTORS
330
C
102
}
330
C
100
AcDbDictionary
281
     1
  3
Imperial24
350
6B
  0
DICTIONARY
  5
D
102
{ACAD_REACTORS
330
C
102
}
330
C
100
AcDbDictionary
281
     1
  0
DICTIONARY
  5
62
102
{ACAD_REACTORS
330
C
102
}
330
C
100
AcDbDictionary
281
     1
  3
Layout1
350
6F
  3
Layout2
350
77
  3
Model
350
73
  0
DICTIONARY
  5
10
102
{ACAD_REACTORS
330
C
102
}
330
C
100
AcDbDictionary
281
     1
  3
ByBlock
350
19
  3
ByLayer
350
11
  3
Global
350
21
  0
DICTIONARY
  5
66
102
{ACAD_REACTORS
330
C
102
}
330
C
100
AcDbDictionary
281
     1
  3
Standard
350
67
  0
DICTIONARY
  5
5F
102
{ACAD_REACTORS
330
C
102
}
330
C
100
AcDbDictionary
281
     1
  3
Standard
350
60
  0
DICTIONARY
  5
61
102
{ACAD_REACTORS
330
C
102
}
330
C
100
AcDbDictionary
281
     1
  0
ACDBDICTIONARYWDFLT
  5
E
102
{ACAD_REACTORS
330
C
102
}
330
C
100
AcDbDictionary
281
     1
  3
Normal
350
F
100
AcDbDictionaryWithDefault
340
F
  0
DICTIONARY
  5
42
102
{ACAD_REACTORS
330
C
102
}
330
C
100
AcDbDictionary
281
     1
  3
A0
350
43
  3
A1
350
44
  3
A2
350
45
  3
A3
350
46
  3
A4
350
47
  3
A5
350
48
  3
A6
350
49
  3
A7
350
4A
  3
A8
350
4B
  3
A9
350
4C
  3
B0
350
4D
  3
B1
350
4E
  3
B2
350
4F
  3
B3
350
50
  3
B4
350
51
  3
B5
350
52
  3
B6
350
53
  0
DICTIONARY
  5
68
102
{ACAD_REACTORS
330
C
102
}
330
C
100
AcDbDictionary
281
     1
  3
Imperial24
350
69
  0
DICTIONARY
  5
64
102
{ACAD_REACTORS
330
C
102
}
330
C
100
AcDbDictionary
281
     1
  3
Standard
350
65
  0
DICTIONARY
  5
29
102
{ACAD_REACTORS
330
C
102
}
330
C
100
AcDbDictionary
281
     1
  3
2dWireframe
350
2F
  3
Basic
350
2E
  3
Brighten
350
35
  3
ColorChange
350
39
  3
Conceptual
350
32
  3
Dim
350
34
  3
EdgeColorOff
350
41
  3
Facepattern
350
38
  3
Flat
350
2A
  3
FlatWithEdges
350
2B
  3
Gouraud
350
2C
  3
GouraudWithEdges
350
2D
  3
Hidden
350
31
  3
JitterOff
350
3F
  3
Linepattern
350
37
  3
OverhangOff
350
40
  3
Realistic
350
33
  3
Shaded
350
3E
  3
Shaded with edges
350
3D
  3
Shades of Gray
350
3A
  3
Sketchy
350
3B
  3
Thicken
350
36
  3
Wireframe
350
30
  3
X-Ray
350
3C
  0
XRECORD
  5
15C
102
{ACAD_REACTORS
330
C
102
}
330
C
100
AcDbXrecord
280
     1
 90
        1
330
65
  0
DICTIONARY
  5
154
102
{ACAD_REACTORS
330
C
102
}
330
C
100
AcDbDictionary
281
     1
  3
CANNOSCALE
350
159
  3
CMLEADERSTYLE
350
156
  3
CTABLESTYLE
350
155
  3
CVIEWDETAILSTYLE
350
157
  3
CVIEWSECTIONSTYLE
350
158
  0
ACDBDETAILVIEWSTYLE
  5
6B
102
{ACAD_XDICTIONARY
360
191
102
}
102
{ACAD_REACTORS
330
6A
102
}
330
6A
100
AcDbModelDocViewStyle
 70
     0
  3
Imperial24
290
     0
100
AcDbDetailViewStyle
 70
     0
 71
     0
 90
        3
 71
     1
340
55
 62
   256
 40
0.24
340
0
 62
   256
 40
0.24
300

 40
0.36
280
     3
 71
     2
340
5D
 90
       25
 62
   256
 71
     3
340
55
 62
   256
 40
0.24
 90
        1
 40
0.75
 90
        1
300
%<\AcVar ViewType \f "%tc1">% %<\AcVar ViewDetailId>%\PSCALE %<\AcVar ViewScale \f "%sn">%
 71
     4
340
5D
 90
       25
 62
   256
340
5D
 90
       25
 62
   256
280
     0
  0
LAYOUT
  5
6F
102
{ACAD_REACTORS
330
62
102
}
330
62
100
AcDbPlotSettings
  1

  2

  4

  6

 40
0.0
 41
0.0
 42
0.0
 43
0.0
 44
0.0
 45
0.0
 46
0.0
 47
0.0
 48
0.0
 49
0.0
140
0.0
141
0.0
142
1.0
143
1.0
 70
   688
 72
     0
 73
     0
 74
     5
  7

 75
    16
147
1.0
 76
     0
 77
     2
 78
   300
148
0.0
149
0.0
100
AcDbLayout
  1
Layout1
 70
     1
 71
     1
 10
0.0
 20
0.0
 11
12.0
 21
9.0
 12
0.0
 22
0.0
 32
0.0
 14
0.0
 24
0.0
 34
0.0
 15
0.0
 25
0.0
 35
0.0
146
0.0
 13
0.0
 23
0.0
 33
0.0
 16
1.0
 26
0.0
 36
0.0
 17
0.0
 27
1.0
 37
0.0
 76
     0
330
6C
  0
LAYOUT
  5
77
102
{ACAD_REACTORS
330
62
102
}
330
62
100
AcDbPlotSettings
  1

  2

  4

  6

 40
0.0
 41
0.0
 42
0.0
 43
0.0
 44
0.0
 45
0.0
 46
0.0
 47
0.0
 48
0.0
 49
0.0
140
0.0
141
0.0
142
1.0
143
1.0
 70
   688
 72
     0
 73
     0
 74
     5
  7

 75
    16
147
1.0
 76
     0
 77
     2
 78
   300
148
0.0
149
0.0
100
AcDbLayout
  1
Layout2
 70
     1
 71
     2
 10
0.0
 20
0.0
 11
12.0
 21
9.0
 12
0.0
 22
0.0
 32
0.0
 14
0.0
 24
0.0
 34
0.0
 15
0.0
 25
0.0
 35
0.0
146
0.0
 13
0.0
 23
0.0
 33
0.0
 16
1.0
 26
0.0
 36
0.0
 17
0.0
 27
1.0
 37
0.0
 76
     0
330
74
  0
LAYOUT
  5
73
102
{ACAD_REACTORS
330
62
102
}
330
62
100
AcDbPlotSettings
  1

  2

  4

  6

 40
0.0
 41
0.0
 42
0.0
 43
0.0
 44
0.0
 45
0.0
 46
0.0
 47
0.0
 48
0.0
 49
0.0
140
0.0
141
0.0
142
1.0
143
1.0
 70
  1712
 72
     0
 73
     0
 74
     0
  7

 75
     0
147
1.0
 76
     0
 77
     2
 78
   300
148
0.0
149
0.0
100
AcDbLayout
  1
Model
 70
     1
 71
     0
 10
0.0
 20
0.0
 11
12.0
 21
9.0
 12
0.0
 22
0.0
 32
0.0
 14
0.0
 24
0.0
 34
0.0
 15
0.0
 25
0.0
 35
0.0
146
0.0
 13
0.0
 23
0.0
 33
0.0
 16
1.0
 26
0.0
 36
0.0
 17
0.0
 27
1.0
 37
0.0
 76
     0
330
70
  0
MATERIAL
  5
19
102
{ACAD_XDICTIONARY
360
1A
102
}
102
{ACAD_REACTORS
330
10
102
}
330
10
100
AcDbMaterial
  1
ByBlock
 72
     0
 43
0.0208333333333333
 43
0.0
 43
0.0
 43
0.0
 43
0.0
 43
0.0208333333333333
 43
0.0
 43
0.0
 43
0.0
 43
0.0
 43
1.0
 43
0.0
 43
0.0
 43
0.0
 43
0.0
 43
1.0
 77
     0
 47
0.0208333333333333
 47
0.0
 47
0.0
 47
0.0
 47
0.0
 47
0.0208333333333333
 47
0.0
 47
0.0
 47
0.0
 47
0.0
 47
1.0
 47
0.0
 47
0.0
 47
0.0
 47
0.0
 47
1.0
171
     0
 49
0.0208333333333333
 49
0.0
 49
0.0
 49
0.0
 49
0.0
 49
0.0208333333333333
 49
0.0
 49
0.0
 49
0.0
 49
0.0
 49
1.0
 49
0.0
 49
0.0
 49
0.0
 49
0.0
 49
1.0
175
     0
142
0.0208333333333333
142
0.0
142
0.0
142
0.0
142
0.0
142
0.0208333333333333
142
0.0
142
0.0
142
0.0
142
0.0
142
1.0
142
0.0
142
0.0
142
0.0
142
0.0
142
1.0
179
     0
144
0.0208333333333333
144
0.0
144
0.0
144
0.0
144
0.0
144
0.0208333333333333
144
0.0
144
0.0
144
0.0
144
0.0
144
1.0
144
0.0
144
0.0
144
0.0
144
0.0
144
1.0
147
0.0208333333333333
147
0.0
147
0.0
147
0.0
147
0.0
147
0.0208333333333333
147
0.0
147
0.0
147
0.0
147
0.0
147
1.0
147
0.0
147
0.0
147
0.0
147
0.0
147
1.0
  0
MATERIAL
  5
11
102
{ACAD_XDICTIONARY
360
12
102
}
102
{ACAD_REACTORS
330
10
102
}
330
10
100
AcDbMaterial
  1
ByLayer
 72
     0
 43
0.0208333333333333
 43
0.0
 43
0.0
 43
0.0
 43
0.0
 43
0.0208333333333333
 43
0.0
 43
0.0
 43
0.0
 43
0.0
 43
1.0
 43
0.0
 43
0.0
 43
0.0
 43
0.0
 43
1.0
 77
     0
 47
0.0208333333333333
 47
0.0
 47
0.0
 47
0.0
 47
0.0
 47
0.0208333333333333
 47
0.0
 47
0.0
 47
0.0
 47
0.0
 47
1.0
 47
0.0
 47
0.0
 47
0.0
 47
0.0
 47
1.0
171
     0
 49
0.0208333333333333
 49
0.0
 49
0.0
 49
0.0
 49
0.0
 49
0.0208333333333333
 49
0.0
 49
0.0
 49
0.0
 49
0.0
 49
1.0
 49
0.0
 49
0.0
 49
0.0
 49
0.0
 49
1.0
175
     0
142
0.0208333333333333
142
0.0
142
0.0
142
0.0
142
0.0
142
0.0208333333333333
142
0.0
142
0.0
142
0.0
142
0.0
142
1.0
142
0.0
142
0.0
142
0.0
142
0.0
142
1.0
179
     0
144
0.0208333333333333
144
0.0
144
0.0
144
0.0
144
0.0
144
0.0208333333333333
144
0.0
144
0.0
144
0.0
144
0.0
144
1.0
144
0.0
144
0.0
144
0.0
144
0.0
144
1.0
147
0.0208333333333333
147
0.0
147
0.0
147
0.0
147
0.0
147
0.0208333333333333
147
0.0
147
0.0
147
0.0
147
0.0
147
1.0
147
0.0
147
0.0
147
0.0
147
0.0
147
1.0
  0
MATERIAL
  5
21
102
{ACAD_XDICTIONARY
360
22
102
}
102
{ACAD_REACTORS
330
10
102
}
330
10
100
AcDbMaterial
  1
Global
 72
     0
 43
0.0208333333333333
 43
0.0
 43
0.0
 43
0.0
 43
0.0
 43
0.0208333333333333
 43
0.0
 43
0.0
 43
0.0
 43
0.0
 43
1.0
 43
0.0
 43
0.0
 43
0.0
 43
0.0
 43
1.0
 77
     0
 47
0.0208333333333333
 47
0.0
 47
0.0
 47
0.0
 47
0.0
 47
0.0208333333333333
 47
0.0
 47
0.0
 47
0.0
 47
0.0
 47
1.0
 47
0.0
 47
0.0
 47
0.0
 47
0.0
 47
1.0
171
     0
 49
0.0208333333333333
 49
0.0
 49
0.0
 49
0.0
 49
0.0
 49
0.0208333333333333
 49
0.0
 49
0.0
 49
0.0
 49
0.0
 49
1.0
 49
0.0
 49
0.0
 49
0.0
 49
0.0
 49
1.0
175
     0
142
0.0208333333333333
142
0.0
142
0.0
142
0.0
142
0.0
142
0.0208333333333333
142
0.0
142
0.0
142
0.0
142
0.0
142
1.0
142
0.0
142
0.0
142
0.0
142
0.0
142
1.0
179
     0
144
0.0208333333333333
144
0.0
144
0.0
144
0.0
144
0.0
144
0.0208333333333333
144
0.0
144
0.0
144
0.0
144
0.0
144
1.0
144
0.0
144
0.0
144
0.0
144
0.0
144
1.0
147
0.0208333333333333
147
0.0
147
0.0
147
0.0
147
0.0
147
0.0208333333333333
147
0.0
147
0.0
147
0.0
147
0.0
147
1.0
147
0.0
147
0.0
147
0.0
147
0.0
147
1.0
  0
MLEADERSTYLE
  5
67
102
{ACAD_XDICTIONARY
360
18D
102
}
102
{ACAD_REACTORS
330
66
102
}
330
66
100
AcDbMLeaderStyle
179
     2
170
     2
171
     1
172
     0
 90
        2
 40
0.0
 41
0.0
173
     1
 91
-1056964608
340
5B
 92
       -2
290
     1
 42
0.09
291
     1
 43
0.36
  3
Standard
 44
0.18
300

342
55
174
     1
178
     6
175
     1
176
     0
 93
-1056964608
 45
0.18
292
     0
297
     0
 46
0.18
 94
-1056964608
 47
1.0
 49
1.0
140
1.0
293
     1
141
0.0
294
     1
177
     0
142
1.0
295
     0
296
     0
143
0.125
271
     0
272
     9
273
     9
  0
MLINESTYLE
  5
60
102
{ACAD_REACTORS
330
5F
102
}
330
5F
100
AcDbMlineStyle
  2
STANDARD
 70
     0
  3

 62
   256
 51
90.0
 52
90.0
 71
     2
 49
0.5
 62
   256
  6
BYLAYER
 49
-0.5
 62
   256
  6
BYLAYER
  0
ACDBPLACEHOLDER
  5
F
102
{ACAD_REACTORS
330
E
102
}
330
E
  0
SCALE
  5
43
102
{ACAD_REACTORS
330
42
102
}
330
42
100
AcDbScale
 70
     0
300
1:1
140
1.0
141
1.0
290
     1
  0
SCALE
  5
44
102
{ACAD_REACTORS
330
42
102
}
330
42
100
AcDbScale
 70
     0
300
1/128" = 1'-0"
140
0.0078125
141
12.0
290
     0
  0
SCALE
  5
45
102
{ACAD_REACTORS
330
42
102
}
330
42
100
AcDbScale
 70
     0
300
1/64" = 1'-0"
140
0.015625
141
12.0
290
     0
  0
SCALE
  5
46
102
{ACAD_REACTORS
330
42
102
}
330
42
100
AcDbScale
 70
     0
300
1/32" = 1'-0"
140
0.03125
141
12.0
290
     0
  0
SCALE
  5
47
102
{ACAD_REACTORS
330
42
102
}
330
42
100
AcDbScale
 70
     0
300
1/16" = 1'-0"
140
0.0625
141
12.0
290
     0
  0
SCALE
  5
48
102
{ACAD_REACTORS
330
42
102
}
330
42
100
AcDbScale
 70
     0
300
3/32" = 1'-0"
140
0.09375
141
12.0
290
     0
  0
SCALE
  5
49
102
{ACAD_REACTORS
330
42
102
}
330
42
100
AcDbScale
 70
     0
300
1/8" = 1'-0"
140
0.125
141
12.0
290
     0
  0
SCALE
  5
4A
102
{ACAD_REACTORS
330
42
102
}
330
42
100
AcDbScale
 70
     0
300
3/16" = 1'-0"
140
0.1875
141
12.0
290
     0
  0
SCALE
  5
4B
102
{ACAD_REACTORS
330
42
102
}
330
42
100
AcDbScale
 70
     0
300
1/4" = 1'-0"
140
0.25
141
12.0
290
     0
  0
SCALE
  5
4C
102
{ACAD_REACTORS
330
42
102
}
330
42
100
AcDbScale
 70
     0
300
3/8" = 1'-0"
140
0.375
141
12.0
290
     0
  0
SCALE
  5
4D
102
{ACAD_REACTORS
330
42
102
}
330
42
100
AcDbScale
 70
     0
300
1/2" = 1'-0"
140
0.5
141
12.0
290
     0
  0
SCALE
  5
4E
102
{ACAD_REACTORS
330
42
102
}
330
42
100
AcDbScale
 70
     0
300
3/4" = 1'-0"
140
0.75
141
12.0
290
     0
  0
SCALE
  5
4F
102
{ACAD_REACTORS
330
42
102
}
330
42
100
AcDbScale
 70
     0
300
1" = 1'-0"
140
1.0
141
12.0
290
     0
  0
SCALE
  5
50
102
{ACAD_REACTORS
330
42
102
}
330
42
100
AcDbScale
 70
     0
300
1-1/2" = 1'-0"
140
1.5
141
12.0
290
     0
  0
SCALE
  5
51
102
{ACAD_REACTORS
330
42
102
}
330
42
100
AcDbScale
 70
     0
300
3" = 1'-0"
140
3.0
141
12.0
290
     0
  0
SCALE
  5
52
102
{ACAD_REACTORS
330
42
102
}
330
42
100
AcDbScale
 70
     0
300
6" = 1'-0"
140
6.0
141
12.0
290
     0
  0
SCALE
  5
53
102
{ACAD_REACTORS
330
42
102
}
330
42
100
AcDbScale
 70
     0
300
1'-0" = 1'-0"
140
12.0
141
12.0
290
     0
  0
ACDBSECTIONVIEWSTYLE
  5
69
102
{ACAD_XDICTIONARY
360
18F
102
}
102
{ACAD_REACTORS
330
68
102
}
330
68
100
AcDbModelDocViewStyle
 70
     0
  3
Imperial24
290
     0
100
AcDbSectionViewStyle
 70
     0
 71
     0
 90
       78
 71
     1
340
55
 62
   256
 40
0.24
340
0
340
0
 62
   256
 40
0.24
300
I, O, Q, S, X, Z
 40
0.48
 90
        3
 40
0.18
 90
        1
 71
     2
340
5D
 90
       25
 62
   256
340
5D
 90
       50
 62
   256
 40
0.24
 40
0.0
 40
0.24
 71
     3
340
55
 62
   256
 40
0.24
 90
        1
 40
0.75
 90
        1
300
%<\AcVar ViewType \f "%tc1">% %<\AcVar ViewSectionStartId>%-%<\AcVar ViewSectionEndId>%\PSCALE %<\AcVar ViewScale \f "%sn">%
 71
     4
 62
   256
 62
   257
300
ANSI31
 40
1.0
 90
        0
290
     0
290
     0
 90
        6
 40
0.0
 40
1.570796326794896
 40
0.2617993877991494
 40
1.308996938995747
 40
-0.2617993877991494
 40
1.832595714594046
  0
TABLESTYLE
  5
65
102
{ACAD_XDICTIONARY
360
15A
102
}
102
{ACAD_REACTORS
330
64
102
}
330
64
100
AcDbTableStyle
280
     0
  3
Standard
 70
     0
 71
     0
 40
0.06
 41
0.06
280
     0
281
     0
  7
Standard
140
0.18
170
     2
 62
     0
 63
     7
283
     0
 90
      512
 91
        0
  1

274
    -2
284
     1
 64
     0
275
    -2
285
     1
 65
     0
276
    -2
286
     1
 66
     0
277
    -2
287
     1
 67
     0
278
    -2
288
     1
 68
     0
279
    -2
289
     1
 69
     0
  7
Standard
140
0.25
170
     5
 62
     0
 63
     7
283
     0
 90
      512
 91
        0
  1

274
    -2
284
     1
 64
     0
275
    -2
285
     1
 65
     0
276
    -2
286
     1
 66
     0
277
    -2
287
     1
 67
     0
278
    -2
288
     1
 68
     0
279
    -2
289
     1
 69
     0
  7
Standard
140
0.18
170
     5
 62
     0
 63
     7
283
     0
 90
      512
 91
        0
  1

274
    -2
284
     1
 64
     0
275
    -2
285
     1
 65
     0
276
    -2
286
     1
 66
     0
277
    -2
287
     1
 67
     0
278
    -2
288
     1
 68
     0
279
    -2
289
     1
 69
     0
  0
VISUALSTYLE
  5
2F
102
{ACAD_XDICTIONARY
360
167
102
}
102
{ACAD_REACTORS
330
29
102
}
330
29
100
AcDbVisualStyle
  2
2dWireframe
 70
     4
177
     2
291
     0
 71
     0
176
     1
 72
     2
176
     1
 73
     0
176
     1
 90
        0
176
     1
 40
0.6
176
     1
 41
30.0
176
     1
 63
     7
421
 16777215
176
     1
 74
     1
176
     1
 91
        4
176
     1
 64
     7
176
     1
 65
   257
176
     1
 75
     1
176
     1
175
     1
176
     1
 42
1.0
176
     1
 92
        0
176
     1
 66
   257
176
     1
 43
1.0
176
     1
 76
     1
176
     1
 77
     6
176
     1
 78
     2
176
     1
 67
     7
176
     1
 79
     5
176
     1
170
     0
176
     1
171
     0
176
     1
290
     0
176
     1
 93
        1
176
     1
 44
0.0
176
     1
173
     0
176
     1
1001
ACAD
1000
AcDbSavedByObjectVersion
1070
     0
  0
VISUALSTYLE
  5
2E
102
{ACAD_XDICTIONARY
360
165
102
}
102
{ACAD_REACTORS
330
29
102
}
330
29
100
AcDbVisualStyle
  2
Basic
 70
     7
177
     2
291
     1
 71
     1
176
     1
 72
     0
176
     1
 73
     1
176
     1
 90
        0
176
     1
 40
0.6
176
     1
 41
30.0
176
     1
 63
     7
421
 16777215
176
     1
 74
     0
176
     1
 91
        4
176
     1
 64
     7
176
     1
 65
   257
176
     1
 75
     1
176
     1
175
     1
176
     1
 42
1.0
176
     1
 92
        8
176
     1
 66
     7
176
     1
 43
1.0
176
     1
 76
     1
176
     1
 77
     6
176
     1
 78
     2
176
     1
 67
     7
176
     1
 79
     5
176
     1
170
     0
176
     1
171
     0
176
     1
290
     0
176
     1
 93
        1
176
     1
 44
0.0
176
     1
173
     0
176
     1
1001
ACAD
1000
AcDbSavedByObjectVersion
1070
     0
  0
VISUALSTYLE
  5
35
102
{ACAD_XDICTIONARY
360
173
102
}
102
{ACAD_REACTORS
330
29
102
}
330
29
100
AcDbVisualStyle
  2
Brighten
 70
    12
177
     2
291
     1
 71
     2
176
     1
 72
     2
176
     1
 73
     0
176
     1
 90
        0
176
     1
 40
0.6
176
     1
 41
30.0
176
     1
 63
     7
421
 16777215
176
     1
 74
     1
176
     1
 91
        4
176
     1
 64
     7
176
     1
 65
   257
176
     1
 75
     1
176
     1
175
     1
176
     1
 42
1.0
176
     1
 92
        8
176
     1
 66
     7
176
     1
 43
1.0
176
     1
 76
     1
176
     1
 77
     6
176
     1
 78
     2
176
     1
 67
     7
176
     1
 79
     5
176
     1
170
     0
176
     1
171
     0
176
     1
290
     0
176
     1
 93
        1
176
     1
 44
50.0
176
     1
173
     0
176
     1
1001
ACAD
1000
AcDbSavedByObjectVersion
1070
     0
  0
VISUALSTYLE
  5
39
102
{ACAD_XDICTIONARY
360
17B
102
}
102
{ACAD_REACTORS
330
29
102
}
330
29
100
AcDbVisualStyle
  2
ColorChange
 70
    16
177
     2
291
     1
 71
     2
176
     1
 72
     2
176
     1
 73
     3
176
     1
 90
        0
176
     1
 40
0.6
176
     1
 41
30.0
176
     1
 63
     8
421
  8421504
176
     1
 74
     1
176
     1
 91
        4
176
     1
 64
     7
176
     1
 65
   257
176
     1
 75
     1
176
     1
175
     1
176
     1
 42
1.0
176
     1
 92
        8
176
     1
 66
     8
424
  8421504
176
     1
 43
1.0
176
     1
 76
     1
176
     1
 77
     6
176
     1
 78
     2
176
     1
 67
     7
176
     1
 79
     5
176
     1
170
     0
176
     1
171
     0
176
     1
290
     0
176
     1
 93
        1
176
     1
 44
0.0
176
     1
173
     0
176
     1
1001
ACAD
1000
AcDbSavedByObjectVersion
1070
     0
  0
VISUALSTYLE
  5
32
102
{ACAD_XDICTIONARY
360
16D
102
}
102
{ACAD_REACTORS
330
29
102
}
330
29
100
AcDbVisualStyle
  2
Conceptual
 70
     9
177
     2
291
     0
 71
     3
176
     1
 72
     2
176
     1
 73
     0
176
     1
 90
        0
176
     1
 40
0.6
176
     1
 41
30.0
176
     1
 63
     7
421
 16777215
176
     1
 74
     2
176
     1
 91
        2
176
     1
 64
     7
176
     1
 65
   257
176
     1
 75
     1
176
     1
175
     1
176
     1
 42
179.0
176
     1
 92
        8
176
     1
 66
     7
176
     1
 43
1.0
176
     1
 76
     1
176
     1
 77
     6
176
     1
 78
     2
176
     1
 67
     7
176
     1
 79
     3
176
     1
170
     0
176
     1
171
     0
176
     1
290
     0
176
     1
 93
        1
176
     1
 44
0.0
176
     1
173
     0
176
     1
1001
ACAD
1000
AcDbSavedByObjectVersion
1070
     0
  0
VISUALSTYLE
  5
34
102
{ACAD_XDICTIONARY
360
171
102
}
102
{ACAD_REACTORS
330
29
102
}
330
29
100
AcDbVisualStyle
  2
Dim
 70
    11
177
     2
291
     1
 71
     2
176
     1
 72
     2
176
     1
 73
     0
176
     1
 90
        0
176
     1
 40
0.6
176
     1
 41
30.0
176
     1
 63
     7
421
 16777215
176
     1
 74
     1
176
     1
 91
        4
176
     1
 64
     7
176
     1
 65
   257
176
     1
 75
     1
176
     1
175
     1
176
     1
 42
1.0
176
     1
 92
        8
176
     1
 66
     7
176
     1
 43
1.0
176
     1
 76
     1
176
     1
 77
     6
176
     1
 78
     2
176
     1
 67
     7
176
     1
 79
     5
176
     1
170
     0
176
     1
171
     0
176
     1
290
     0
176
     1
 93
        1
176
     1
 44
-50.0
176
     1
173
     0
176
     1
1001
ACAD
1000
AcDbSavedByObjectVersion
1070
     0
  0
VISUALSTYLE
  5
41
102
{ACAD_XDICTIONARY
360
18B
102
}
102
{ACAD_REACTORS
330
29
102
}
330
29
100
AcDbVisualStyle
  2
EdgeColorOff
 70
    22
177
     2
291
     1
 71
     2
176
     0
 72
     2
176
     0
 73
     0
176
     0
 90
        0
176
     0
 40
0.6
176
     0
 41
30.0
176
     0
 63
     7
421
 16777215
176
     0
 74
     1
176
     0
 91
        4
176
     0
 64
     7
176
     0
 65
   257
176
     0
 75
     1
176
     0
175
     1
176
     0
 42
1.0
176
     0
 92
        8
176
     2
 66
     7
176
     0
 43
1.0
176
     0
 76
     1
176
     0
 77
     6
176
     0
 78
     2
176
     0
 67
     7
176
     0
 79
     5
176
     0
170
     0
176
     0
171
     0
176
     0
290
     0
176
     0
 93
        1
176
     0
 44
0.0
176
     0
173
     0
176
     0
1001
ACAD
1000
AcDbSavedByObjectVersion
1070
     0
  0
VISUALSTYLE
  5
38
102
{ACAD_XDICTIONARY
360
179
102
}
102
{ACAD_REACTORS
330
29
102
}
330
29
100
AcDbVisualStyle
  2
Facepattern
 70
    15
177
     2
291
     1
 71
     2
176
     1
 72
     2
176
     1
 73
     0
176
     1
 90
        0
176
     1
 40
0.6
176
     1
 41
30.0
176
     1
 63
     7
421
 16777215
176
     1
 74
     1
176
     1
 91
        4
176
     1
 64
     7
176
     1
 65
   257
176
     1
 75
     1
176
     1
175
     1
176
     1
 42
1.0
176
     1
 92
        8
176
     1
 66
     7
176
     1
 43
1.0
176
     1
 76
     1
176
     1
 77
     6
176
     1
 78
     2
176
     1
 67
     7
176
     1
 79
     5
176
     1
170
     0
176
     1
171
     0
176
     1
290
     0
176
     1
 93
        1
176
     1
 44
0.0
176
     1
173
     0
176
     1
1001
ACAD
1000
AcDbSavedByObjectVersion
1070
     0
  0
VISUALSTYLE
  5
2A
102
{ACAD_XDICTIONARY
360
15D
102
}
102
{ACAD_REACTORS
330
29
102
}
330
29
100
AcDbVisualStyle
  2
Flat
 70
     0
177
     2
291
     1
 71
     2
176
     1
 72
     1
176
     1
 73
     1
176
     1
 90
        2
176
     1
 40
0.6
176
     1
 41
30.0
176
     1
 63
     7
421
 16777215
176
     1
 74
     0
176
     1
 91
        0
176
     1
 64
     7
176
     1
 65
   257
176
     1
 75
     1
176
     1
175
     1
176
     1
 42
1.0
176
     1
 92
        8
176
     1
 66
     7
176
     1
 43
1.0
176
     1
 76
     1
176
     1
 77
     6
176
     1
 78
     2
176
     1
 67
     7
176
     1
 79
     5
176
     1
170
     0
176
     1
171
     0
176
     1
290
     0
176
     1
 93
       13
176
     1
 44
0.0
176
     1
173
     0
176
     1
1001
ACAD
1000
AcDbSavedByObjectVersion
1070
     0
  0
VISUALSTYLE
  5
2B
102
{ACAD_XDICTIONARY
360
15F
102
}
102
{ACAD_REACTORS
330
29
102
}
330
29
100
AcDbVisualStyle
  2
FlatWithEdges
 70
     1
177
     2
291
     1
 71
     2
176
     1
 72
     1
176
     1
 73
     1
176
     1
 90
        2
176
     1
 40
0.6
176
     1
 41
30.0
176
     1
 63
     7
421
 16777215
176
     1
 74
     1
176
     1
 91
        0
176
     1
 64
     7
176
     1
 65
   257
176
     1
 75
     1
176
     1
175
     1
176
     1
 42
1.0
176
     1
 92
        0
176
     1
 66
   257
176
     1
 43
1.0
176
     1
 76
     1
176
     1
 77
     6
176
     1
 78
     2
176
     1
 67
     7
176
     1
 79
     5
176
     1
170
     0
176
     1
171
     0
176
     1
290
     0
176
     1
 93
       13
176
     1
 44
0.0
176
     1
173
     0
176
     1
1001
ACAD
1000
AcDbSavedByObjectVersion
1070
     0
  0
VISUALSTYLE
  5
2C
102
{ACAD_XDICTIONARY
360
161
102
}
102
{ACAD_REACTORS
330
29
102
}
330
29
100
AcDbVisualStyle
  2
Gouraud
 70
     2
177
     2
291
     1
 71
     2
176
     1
 72
     2
176
     1
 73
     1
176
     1
 90
        2
176
     1
 40
0.6
176
     1
 41
30.0
176
     1
 63
     7
421
 16777215
176
     1
 74
     0
176
     1
 91
        0
176
     1
 64
     7
176
     1
 65
   257
176
     1
 75
     1
176
     1
175
     1
176
     1
 42
1.0
176
     1
 92
        0
176
     1
 66
     7
176
     1
 43
1.0
176
     1
 76
     1
176
     1
 77
     6
176
     1
 78
     2
176
     1
 67
     7
176
     1
 79
     5
176
     1
170
     0
176
     1
171
     0
176
     1
290
     0
176
     1
 93
       13
176
     1
 44
0.0
176
     1
173
     0
176
     1
1001
ACAD
1000
AcDbSavedByObjectVersion
1070
     0
  0
VISUALSTYLE
  5
2D
102
{ACAD_XDICTIONARY
360
163
102
}
102
{ACAD_REACTORS
330
29
102
}
330
29
100
AcDbVisualStyle
  2
GouraudWithEdges
 70
     3
177
     2
291
     1
 71
     2
176
     1
 72
     2
176
     1
 73
     1
176
     1
 90
        2
176
     1
 40
0.6
176
     1
 41
30.0
176
     1
 63
     7
421
 16777215
176
     1
 74
     1
176
     1
 91
        0
176
     1
 64
     7
176
     1
 65
   257
176
     1
 75
     1
176
     1
175
     1
176
     1
 42
1.0
176
     1
 92
        0
176
     1
 66
   257
176
     1
 43
1.0
176
     1
 76
     1
176
     1
 77
     6
176
     1
 78
     2
176
     1
 67
     7
176
     1
 79
     5
176
     1
170
     0
176
     1
171
     0
176
     1
290
     0
176
     1
 93
       13
176
     1
 44
0.0
176
     1
173
     0
176
     1
1001
ACAD
1000
AcDbSavedByObjectVersion
1070
     0
  0
VISUALSTYLE
  5
31
102
{ACAD_XDICTIONARY
360
16B
102
}
102
{ACAD_REACTORS
330
29
102
}
330
29
100
AcDbVisualStyle
  2
Hidden
 70
     6
177
     2
291
     0
 71
     1
176
     1
 72
     2
176
     1
 73
     2
176
     1
 90
        0
176
     1
 40
0.6
176
     1
 41
30.0
176
     1
 63
     7
421
 16777215
176
     1
 74
     2
176
     1
 91
        2
176
     1
 64
     7
176
     1
 65
   257
176
     1
 75
     2
176
     1
175
     1
176
     1
 42
40.0
176
     1
 92
        0
176
     1
 66
   257
176
     1
 43
1.0
176
     1
 76
     1
176
     1
 77
     6
176
     1
 78
     2
176
     1
 67
     7
176
     1
 79
     3
176
     1
170
     0
176
     1
171
     0
176
     1
290
     0
176
     1
 93
        1
176
     1
 44
0.0
176
     1
173
     0
176
     1
1001
ACAD
1000
AcDbSavedByObjectVersion
1070
     0
  0
VISUALSTYLE
  5
3F
102
{ACAD_XDICTIONARY
360
187
102
}
102
{ACAD_REACTORS
330
29
102
}
330
29
100
AcDbVisualStyle
  2
JitterOff
 70
    20
177
     2
291
     1
 71
     2
176
     0
 72
     2
176
     0
 73
     0
176
     0
 90
        0
176
     0
 40
0.6
176
     0
 41
30.0
176
     0
 63
     7
421
 16777215
176
     0
 74
     1
176
     0
 91
        4
176
     0
 64
     7
176
     0
 65
   257
176
     0
 75
     1
176
     0
175
     1
176
     0
 42
1.0
176
     0
 92
       10
176
     2
 66
     7
176
     0
 43
1.0
176
     0
 76
     1
176
     0
 77
     6
176
     0
 78
     2
176
     0
 67
     7
176
     0
 79
     5
176
     0
170
     0
176
     0
171
     0
176
     0
290
     0
176
     0
 93
        1
176
     0
 44
0.0
176
     0
173
     0
176
     0
1001
ACAD
1000
AcDbSavedByObjectVersion
1070
     0
  0
VISUALSTYLE
  5
37
102
{ACAD_XDICTIONARY
360
177
102
}
102
{ACAD_REACTORS
330
29
102
}
330
29
100
AcDbVisualStyle
  2
Linepattern
 70
    14
177
     2
291
     1
 71
     2
176
     1
 72
     2
176
     1
 73
     0
176
     1
 90
        0
176
     1
 40
0.6
176
     1
 41
30.0
176
     1
 63
     7
421
 16777215
176
     1
 74
     1
176
     1
 91
        4
176
     1
 64
     7
176
     1
 65
   257
176
     1
 75
     7
176
     1
175
     7
176
     1
 42
1.0
176
     1
 92
        8
176
     1
 66
     7
176
     1
 43
1.0
176
     1
 76
     1
176
     1
 77
     6
176
     1
 78
     2
176
     1
 67
     7
176
     1
 79
     5
176
     1
170
     0
176
     1
171
     0
176
     1
290
     0
176
     1
 93
        1
176
     1
 44
0.0
176
     1
173
     0
176
     1
1001
ACAD
1000
AcDbSavedByObjectVersion
1070
     0
  0
VISUALSTYLE
  5
40
102
{ACAD_XDICTIONARY
360
189
102
}
102
{ACAD_REACTORS
330
29
102
}
330
29
100
AcDbVisualStyle
  2
OverhangOff
 70
    21
177
     2
291
     1
 71
     2
176
     0
 72
     2
176
     0
 73
     0
176
     0
 90
        0
176
     0
 40
0.6
176
     0
 41
30.0
176
     0
 63
     7
421
 16777215
176
     0
 74
     1
176
     0
 91
        4
176
     0
 64
     7
176
     0
 65
   257
176
     0
 75
     1
176
     0
175
     1
176
     0
 42
1.0
176
     0
 92
        9
176
     2
 66
     7
176
     0
 43
1.0
176
     0
 76
     1
176
     0
 77
     6
176
     0
 78
     2
176
     0
 67
     7
176
     0
 79
     5
176
     0
170
     0
176
     0
171
     0
176
     0
290
     0
176
     0
 93
        1
176
     0
 44
0.0
176
     0
173
     0
176
     0
1001
ACAD
1000
AcDbSavedByObjectVersion
1070
     0
  0
VISUALSTYLE
  5
33
102
{ACAD_XDICTIONARY
360
16F
102
}
102
{ACAD_REACTORS
330
29
102
}
330
29
100
AcDbVisualStyle
  2
Realistic
 70
     8
177
     2
291
     0
 71
     2
176
     1
 72
     3
176
     1
 73
     0
176
     1
 90
        2
176
     1
 40
0.6
176
     1
 41
30.0
176
     1
 63
     7
421
 16777215
176
     1
 74
     0
176
     1
 91
        0
176
     1
 64
     7
176
     1
 65
   257
176
     1
 75
     1
176
     1
175
     1
176
     1
 42
1.0
176
     1
 92
        8
176
     1
 66
   257
176
     1
 43
1.0
176
     1
 76
     1
176
     1
 77
     6
176
     1
 78
     2
176
     1
 67
     7
176
     1
 79
     3
176
     1
170
     0
176
     1
171
     0
176
     1
290
     0
176
     1
 93
       13
176
     1
 44
0.0
176
     1
173
     0
176
     1
1001
ACAD
1000
AcDbSavedByObjectVersion
1070
     0
  0
VISUALSTYLE
  5
3E
102
{ACAD_XDICTIONARY
360
185
102
}
102
{ACAD_REACTORS
330
29
102
}
330
29
100
AcDbVisualStyle
  2
Shaded
 70
    27
177
     2
291
     0
 71
     2
176
     1
 72
     2
176
     1
 73
     1
176
     1
 90
        2
176
     1
 40
0.6
176
     1
 41
30.0
176
     1
 63
     7
421
 16777215
176
     1
 74
     0
176
     1
 91
        4
176
     1
 64
     7
176
     1
 65
   257
176
     1
 75
     1
176
     1
175
     1
176
     1
 42
1.0
176
     1
 92
        8
176
     1
 66
   257
176
     1
 43
1.0
176
     1
 76
     1
176
     1
 77
     6
176
     1
 78
     2
176
     1
 67
     8
425
  7895160
176
     1
 79
     3
176
     1
170
     0
176
     1
171
     0
176
     1
290
     0
176
     1
 93
        5
176
     1
 44
0.0
176
     1
173
     0
176
     1
1001
ACAD
1000
AcDbSavedByObjectVersion
1070
     0
  0
VISUALSTYLE
  5
3D
102
{ACAD_XDICTIONARY
360
183
102
}
102
{ACAD_REACTORS
330
29
102
}
330
29
100
AcDbVisualStyle
  2
Shaded with edges
 70
    26
177
     2
291
     0
 71
     2
176
     1
 72
     2
176
     1
 73
     1
176
     1
 90
        2
176
     1
 40
0.6
176
     1
 41
30.0
176
     1
 63
     7
421
 16777215
176
     1
 74
     1
176
     1
 91
        2
176
     1
 64
     7
176
     1
 65
   257
176
     1
 75
     2
176
     1
175
     1
176
     1
 42
1.0
176
     1
 92
        8
176
     1
 66
   257
176
     1
 43
1.0
176
     1
 76
     1
176
     1
 77
     6
176
     1
 78
     2
176
     1
 67
     7
176
     1
 79
     3
176
     1
170
     0
176
     1
171
     0
176
     1
290
     0
176
     1
 93
        5
176
     1
 44
0.0
176
     1
173
     0
176
     1
1001
ACAD
1000
AcDbSavedByObjectVersion
1070
     0
  0
VISUALSTYLE
  5
3A
102
{ACAD_XDICTIONARY
360
17D
102
}
102
{ACAD_REACTORS
330
29
102
}
330
29
100
AcDbVisualStyle
  2
Shades of Gray
 70
    23
177
     2
291
     0
 71
     2
176
     1
 72
     2
176
     1
 73
     3
176
     1
 90
        0
176
     1
 40
0.6
176
     1
 41
30.0
176
     1
 63
     7
421
 16777215
176
     1
 74
     2
176
     1
 91
        2
176
     1
 64
     7
176
     1
 65
     7
176
     1
 75
     1
176
     1
175
     1
176
     1
 42
40.0
176
     1
 92
        8
176
     1
 66
     7
176
     1
 43
1.0
176
     1
 76
     1
176
     1
 77
     6
176
     1
 78
     2
176
     1
 67
     7
176
     1
 79
     3
176
     1
170
     0
176
     1
171
     0
176
     1
290
     0
176
     1
 93
        1
176
     1
 44
0.0
176
     1
173
     0
176
     1
1001
ACAD
1000
AcDbSavedByObjectVersion
1070
     0
  0
VISUALSTYLE
  5
3B
102
{ACAD_XDICTIONARY
360
17F
102
}
102
{ACAD_REACTORS
330
29
102
}
330
29
100
AcDbVisualStyle
  2
Sketchy
 70
    24
177
     2
291
     0
 71
     1
176
     1
 72
     2
176
     1
 73
     2
176
     1
 90
        0
176
     1
 40
0.6
176
     1
 41
30.0
176
     1
 63
     7
421
 16777215
176
     1
 74
     2
176
     1
 91
        2
176
     1
 64
     7
176
     1
 65
     7
176
     1
 75
     1
176
     1
175
     1
176
     1
 42
40.0
176
     1
 92
       11
176
     1
 66
     7
176
     1
 43
1.0
176
     1
 76
     1
176
     1
 77
     6
176
     1
 78
     2
176
     1
 67
     7
176
     1
 79
     6
176
     1
170
     0
176
     1
171
     0
176
     1
290
     0
176
     1
 93
        1
176
     1
 44
0.0
176
     1
173
     0
176
     1
1001
ACAD
1000
AcDbSavedByObjectVersion
1070
     0
  0
VISUALSTYLE
  5
36
102
{ACAD_XDICTIONARY
360
175
102
}
102
{ACAD_REACTORS
330
29
102
}
330
29
100
AcDbVisualStyle
  2
Thicken
 70
    13
177
     2
291
     1
 71
     2
176
     1
 72
     2
176
     1
 73
     0
176
     1
 90
        0
176
     1
 40
0.6
176
     1
 41
30.0
176
     1
 63
     7
421
 16777215
176
     1
 74
     1
176
     1
 91
        4
176
     1
 64
     7
176
     1
 65
   257
176
     1
 75
     1
176
     1
175
     1
176
     1
 42
1.0
176
     1
 92
       12
176
     1
 66
     7
176
     1
 43
1.0
176
     1
 76
     1
176
     1
 77
     6
176
     1
 78
     2
176
     1
 67
     7
176
     1
 79
     5
176
     1
170
     0
176
     1
171
     0
176
     1
290
     0
176
     1
 93
        1
176
     1
 44
0.0
176
     1
173
     0
176
     1
1001
ACAD
1000
AcDbSavedByObjectVersion
1070
     0
  0
VISUALSTYLE
  5
30
102
{ACAD_XDICTIONARY
360
169
102
}
102
{ACAD_REACTORS
330
29
102
}
330
29
100
AcDbVisualStyle
  2
Wireframe
 70
     5
177
     2
291
     0
 71
     0
176
     1
 72
     2
176
     1
 73
     0
176
     1
 90
        0
176
     1
 40
0.6
176
     1
 41
30.0
176
     1
 63
     7
421
 16777215
176
     1
 74
     1
176
     1
 91
        4
176
     1
 64
     7
176
     1
 65
   257
176
     1
 75
     1
176
     1
175
     1
176
     1
 42
1.0
176
     1
 92
        0
176
     1
 66
   257
176
     1
 43
1.0
176
     1
 76
     1
176
     1
 77
     6
176
     1
 78
     2
176
     1
 67
     7
176
     1
 79
     3
176
     1
170
     0
176
     1
171
     0
176
     1
290
     0
176
     1
 93
        1
176
     1
 44
0.0
176
     1
173
     0
176
     1
1001
ACAD
1000
AcDbSavedByObjectVersion
1070
     0
  0
VISUALSTYLE
  5
3C
102
{ACAD_XDICTIONARY
360
181
102
}
102
{ACAD_REACTORS
330
29
102
}
330
29
100
AcDbVisualStyle
  2
X-Ray
 70
    25
177
     2
291
     0
 71
     2
176
     1
 72
     2
176
     1
 73
     1
176
     1
 90
        1
176
     1
 40
0.5
176
     1
 41
30.0
176
     1
 63
     7
421
 16777215
176
     1
 74
     1
176
     1
 91
        0
176
     1
 64
     7
176
     1
 65
   257
176
     1
 75
     1
176
     1
175
     1
176
     1
 42
1.0
176
     1
 92
        8
176
     1
 66
     7
176
     1
 43
1.0
176
     1
 76
     1
176
     1
 77
     6
176
     1
 78
     2
176
     1
 67
     7
176
     1
 79
     3
176
     1
170
     0
176
     1
171
     0
176
     1
290
     0
176
     1
 93
       13
176
     1
 44
0.0
176
     1
173
     0
176
     1
1001
ACAD
1000
AcDbSavedByObjectVersion
1070
     0
  0
DICTIONARYVAR
  5
159
102
{ACAD_REACTORS
330
154
102
}
330
154
100
DictionaryVariables
280
     0
  1
1:1
  0
DICTIONARYVAR
  5
156
102
{ACAD_REACTORS
330
154
102
}
330
154
100
DictionaryVariables
280
     0
  1
STANDARD
  0
DICTIONARYVAR
  5
155
102
{ACAD_REACTORS
330
154
102
}
330
154
100
DictionaryVariables
280
     0
  1
STANDARD
  0
DICTIONARYVAR
  5
157
102
{ACAD_REACTORS
330
154
102
}
330
154
100
DictionaryVariables
280
     0
  1
Imperial24
  0
DICTIONARYVAR
  5
158
102
{ACAD_REACTORS
330
154
102
}
330
154
100
DictionaryVariables
280
     0
  1
Imperial24
  0
DICTIONARY
  5
191
330
6B
100
AcDbDictionary
280
     1
281
     1
  3
ACAD_XREC_ROUNDTRIP
360
192
  0
DICTIONARY
  5
1A
330
19
100
AcDbDictionary
280
     1
281
     1
  3
BUMPTILE
360
1C
  3
DIFFUSETILE
360
1B
  3
OPACITYTILE
360
1F
  3
REFLECTIONTILE
360
1E
  3
REFRACTIONTILE
360
20
  3
SPECULARTILE
360
1D
  0
DICTIONARY
  5
12
330
11
100
AcDbDictionary
280
     1
281
     1
  3
BUMPTILE
360
14
  3
DIFFUSETILE
360
13
  3
OPACITYTILE
360
17
  3
REFLECTIONTILE
360
16
  3
REFRACTIONTILE
360
18
  3
SPECULARTILE
360
15
  0
DICTIONARY
  5
22
330
21
100
AcDbDictionary
280
     1
281
     1
  3
BUMPTILE
360
24
  3
DIFFUSETILE
360
23
  3
OPACITYTILE
360
27
  3
REFLECTIONTILE
360
26
  3
REFRACTIONTILE
360
28
  3
SPECULARTILE
360
25
  0
DICTIONARY
  5
18D
330
67
100
AcDbDictionary
280
     1
281
     1
  3
ACAD_XREC_ROUNDTRIP
360
18E
  0
DICTIONARY
  5
18F
330
69
100
AcDbDictionary
280
     1
281
     1
  3
ACAD_XREC_ROUNDTRIP
360
190
  0
DICTIONARY
  5
15A
330
65
100
AcDbDictionary
280
     1
281
     1
  3
ACAD_ROUNDTRIP_2008_TABLESTYLE_CELLSTYLEMAP
360
15B
  0
DICTIONARY
  5
167
330
2F
100
AcDbDictionary
280
     1
281
     1
  3
ACAD_XREC_ROUNDTRIP
360
168
  0
DICTIONARY
  5
165
330
2E
100
AcDbDictionary
280
     1
281
     1
  3
ACAD_XREC_ROUNDTRIP
360
166
  0
DICTIONARY
  5
173
330
35
100
AcDbDictionary
280
     1
281
     1
  3
ACAD_XREC_ROUNDTRIP
360
174
  0
DICTIONARY
  5
17B
330
39
100
AcDbDictionary
280
     1
281
     1
  3
ACAD_XREC_ROUNDTRIP
360
17C
  0
DICTIONARY
  5
16D
330
32
100
AcDbDictionary
280
     1
281
     1
  3
ACAD_XREC_ROUNDTRIP
360
16E
  0
DICTIONARY
  5
171
330
34
100
AcDbDictionary
280
     1
281
     1
  3
ACAD_XREC_ROUNDTRIP
360
172
  0
DICTIONARY
  5
18B
330
41
100
AcDbDictionary
280
     1
281
     1
  3
ACAD_XREC_ROUNDTRIP
360
18C
  0
DICTIONARY
  5
179
330
38
100
AcDbDictionary
280
     1
281
     1
  3
ACAD_XREC_ROUNDTRIP
360
17A
  0
DICTIONARY
  5
15D
330
2A
100
AcDbDictionary
280
     1
281
     1
  3
ACAD_XREC_ROUNDTRIP
360
15E
  0
DICTIONARY
  5
15F
330
2B
100
AcDbDictionary
280
     1
281
     1
  3
ACAD_XREC_ROUNDTRIP
360
160
  0
DICTIONARY
  5
161
330
2C
100
AcDbDictionary
280
     1
281
     1
  3
ACAD_XREC_ROUNDTRIP
360
162
  0
DICTIONARY
  5
163
330
2D
100
AcDbDictionary
280
     1
281
     1
  3
ACAD_XREC_ROUNDTRIP
360
164
  0
DICTIONARY
  5
16B
330
31
100
AcDbDictionary
280
     1
281
     1
  3
ACAD_XREC_ROUNDTRIP
360
16C
  0
DICTIONARY
  5
187
330
3F
100
AcDbDictionary
280
     1
281
     1
  3
ACAD_XREC_ROUNDTRIP
360
188
  0
DICTIONARY
  5
177
330
37
100
AcDbDictionary
280
     1
281
     1
  3
ACAD_XREC_ROUNDTRIP
360
178
  0
DICTIONARY
  5
189
330
40
100
AcDbDictionary
280
     1
281
     1
  3
ACAD_XREC_ROUNDTRIP
360
18A
  0
DICTIONARY
  5
16F
330
33
100
AcDbDictionary
280
     1
281
     1
  3
ACAD_XREC_ROUNDTRIP
360
170
  0
DICTIONARY
  5
185
330
3E
100
AcDbDictionary
280
     1
281
     1
  3
ACAD_XREC_ROUNDTRIP
360
186
  0
DICTIONARY
  5
183
330
3D
100
AcDbDictionary
280
     1
281
     1
  3
ACAD_XREC_ROUNDTRIP
360
184
  0
DICTIONARY
  5
17D
330
3A
100
AcDbDictionary
280
     1
281
     1
  3
ACAD_XREC_ROUNDTRIP
360
17E
  0
DICTIONARY
  5
17F
330
3B
100
AcDbDictionary
280
     1
281
     1
  3
ACAD_XREC_ROUNDTRIP
360
180
  0
DICTIONARY
  5
175
330
36
100
AcDbDictionary
280
     1
281
     1
  3
ACAD_XREC_ROUNDTRIP
360
176
  0
DICTIONARY
  5
169
330
30
100
AcDbDictionary
280
     1
281
     1
  3
ACAD_XREC_ROUNDTRIP
360
16A
  0
DICTIONARY
  5
181
330
3C
100
AcDbDictionary
280
     1
281
     1
  3
ACAD_XREC_ROUNDTRIP
360
182
  0
XRECORD
  5
192
102
{ACAD_REACTORS
330
191
102
}
330
191
100
AcDbXrecord
280
     1
102
DISPLAYNAME
  1
Imperial24
102
FLAGS
 90
        0
  0
XRECORD
  5
1C
102
{ACAD_REACTORS
330
1A
102
}
330
1A
100
AcDbXrecord
280
     1
270
     1
271
     1
  0
XRECORD
  5
1B
102
{ACAD_REACTORS
330
1A
102
}
330
1A
100
AcDbXrecord
280
     1
270
     1
271
     1
  0
XRECORD
  5
1F
102
{ACAD_REACTORS
330
1A
102
}
330
1A
100
AcDbXrecord
280
     1
270
     1
271
     1
  0
XRECORD
  5
1E
102
{ACAD_REACTORS
330
1A
102
}
330
1A
100
AcDbXrecord
280
     1
270
     1
271
     1
  0
XRECORD
  5
20
102
{ACAD_REACTORS
330
1A
102
}
330
1A
100
AcDbXrecord
280
     1
270
     1
271
     1
  0
XRECORD
  5
1D
102
{ACAD_REACTORS
330
1A
102
}
330
1A
100
AcDbXrecord
280
     1
270
     1
271
     1
  0
XRECORD
  5
14
102
{ACAD_REACTORS
330
12
102
}
330
12
100
AcDbXrecord
280
     1
270
     1
271
     1
  0
XRECORD
  5
13
102
{ACAD_REACTORS
330
12
102
}
330
12
100
AcDbXrecord
280
     1
270
     1
271
     1
  0
XRECORD
  5
17
102
{ACAD_REACTORS
330
12
102
}
330
12
100
AcDbXrecord
280
     1
270
     1
271
     1
  0
XRECORD
  5
16
102
{ACAD_REACTORS
330
12
102
}
330
12
100
AcDbXrecord
280
     1
270
     1
271
     1
  0
XRECORD
  5
18
102
{ACAD_REACTORS
330
12
102
}
330
12
100
AcDbXrecord
280
     1
270
     1
271
     1
  0
XRECORD
  5
15
102
{ACAD_REACTORS
330
12
102
}
330
12
100
AcDbXrecord
280
     1
270
     1
271
     1
  0
XRECORD
  5
24
102
{ACAD_REACTORS
330
22
102
}
330
22
100
AcDbXrecord
280
     1
270
     1
271
     1
  0
XRECORD
  5
23
102
{ACAD_REACTORS
330
22
102
}
330
22
100
AcDbXrecord
280
     1
270
     1
271
     1
  0
XRECORD
  5
27
102
{ACAD_REACTORS
330
22
102
}
330
22
100
AcDbXrecord
280
     1
270
     1
271
     1
  0
XRECORD
  5
26
102
{ACAD_REACTORS
330
22
102
}
330
22
100
AcDbXrecord
280
     1
270
     1
271
     1
  0
XRECORD
  5
28
102
{ACAD_REACTORS
330
22
102
}
330
22
100
AcDbXrecord
280
     1
270
     1
271
     1
  0
XRECORD
  5
25
102
{ACAD_REACTORS
330
22
102
}
330
22
100
AcDbXrecord
280
     1
270
     1
271
     1
  0
XRECORD
  5
18E
102
{ACAD_REACTORS
330
18D
102
}
330
18D
100
AcDbXrecord
280
     1
102
ACAD_ROUNDTRIP_2012_MLEADER_STYLE
298
     1
  0
XRECORD
  5
190
102
{ACAD_REACTORS
330
18F
102
}
330
18F
100
AcDbXrecord
280
     1
102
DISPLAYNAME
  1
Imperial24
102
FLAGS
 90
        0
  0
CELLSTYLEMAP
  5
15B
102
{ACAD_REACTORS
330
15A
102
}
330
15A
100
AcDbCellStyleMap
 90
        3
300
CELLSTYLE
  1
TABLEFORMAT_BEGIN
 90
        5
170
     1
 91
        0
 92
    32768
 62
   257
 93
        1
300
CONTENTFORMAT
  1
CONTENTFORMAT_BEGIN
 90
        0
 91
        0
 92
      512
 93
        0
300

 40
0.0
140
1.0
 94
        5
 62
     0
340
55
144
0.25
309
CONTENTFORMAT_END
171
     0
 94
        0
309
TABLEFORMAT_END
  1
CELLSTYLE_BEGIN
 90
        1
 91
        1
300
_TITLE
309
CELLSTYLE_END
300
CELLSTYLE
  1
TABLEFORMAT_BEGIN
 90
        5
170
     1
 91
        0
 92
        0
 62
   257
 93
        1
300
CONTENTFORMAT
  1
CONTENTFORMAT_BEGIN
 90
        0
 91
        0
 92
      512
 93
        0
300

 40
0.0
140
1.0
 94
        5
 62
     0
340
55
144
0.18
309
CONTENTFORMAT_END
171
     0
 94
        0
309
TABLEFORMAT_END
  1
CELLSTYLE_BEGIN
 90
        2
 91
        1
300
_HEADER
309
CELLSTYLE_END
300
CELLSTYLE
  1
TABLEFORMAT_BEGIN
 90
        5
170
     1
 91
        0
 92
        0
 62
   257
 93
        1
300
CONTENTFORMAT
  1
CONTENTFORMAT_BEGIN
 90
        0
 91
        0
 92
      512
 93
        0
300

 40
0.0
140
1.0
 94
        2
 62
     0
340
55
144
0.18
309
CONTENTFORMAT_END
171
     0
 94
        0
309
TABLEFORMAT_END
  1
CELLSTYLE_BEGIN
 90
        3
 91
        2
300
_DATA
309
CELLSTYLE_END
  0
XRECORD
  5
168
102
{ACAD_REACTORS
330
167
102
}
330
167
100
AcDbXrecord
280
     1
102
RTVSPost2010Prop28
280
     1
102
RTVSPost2010PropOp28
 70
     1
102
RTVSPost2010Prop29
280
     1
102
RTVSPost2010PropOp29
 70
     1
102
RTVSPost2010Prop30
280
     0
102
RTVSPost2010PropOp30
 70
     1
102
RTVSPost2010Prop31
280
     0
102
RTVSPost2010PropOp31
 70
     1
102
RTVSPost2010Prop32
280
     0
102
RTVSPost2010PropOp32
 70
     1
102
RTVSPost2010Prop33
280
     0
102
RTVSPost2010PropOp33
 70
     1
102
RTVSPost2010Prop34
280
     0
102
RTVSPost2010PropOp34
 70
     1
102
RTVSPost2010Prop35
280
     0
102
RTVSPost2010PropOp35
 70
     1
102
RTVSPost2010Prop36
280
     0
102
RTVSPost2010PropOp36
 70
     1
102
RTVSPost2010Prop37
 90
       50
102
RTVSPost2010PropOp37
 70
     1
102
RTVSPost2010Prop38
140
0.0
102
RTVSPost2010PropOp38
 70
     1
102
RTVSPost2010Prop39
140
1.0
102
RTVSPost2010PropOp39
 70
     1
102
RTVSPost2010Prop40
 90
        0
102
RTVSPost2010PropOp40
 70
     1
102
RTVSPost2010Prop41ColorIndex
 90
       18
102
RTVSPost2010Prop41ColorRGB
 90
        0
102
RTVSPost2010PropOp41
 70
     1
102
RTVSPost2010Prop42
 90
       50
102
RTVSPost2010PropOp42
 70
     1
102
RTVSPost2010Prop43
 90
        3
102
RTVSPost2010PropOp43
 70
     1
102
RTVSPost2010Prop44ColorIndex
 90
        5
102
RTVSPost2010Prop44ColorRGB
 90
      255
102
RTVSPost2010PropOp44
 70
     1
102
RTVSPost2010Prop45
280
     0
102
RTVSPost2010PropOp45
 70
     1
102
RTVSPost2010Prop46
 90
       50
102
RTVSPost2010PropOp46
 70
     1
102
RTVSPost2010Prop47
 90
       50
102
RTVSPost2010PropOp47
 70
     1
102
RTVSPost2010Prop48
 90
       50
102
RTVSPost2010PropOp48
 70
     1
102
RTVSPost2010Prop49
280
     0
102
RTVSPost2010PropOp49
 70
     1
102
RTVSPost2010Prop50
 90
       50
102
RTVSPost2010PropOp50
 70
     1
102
RTVSPost2010Prop51ColorIndex
 90
      256
102
RTVSPost2010Prop51ColorRGB
 90
-16777216
102
RTVSPost2010PropOp51
 70
     0
102
RTVSPost2010Prop52
140
1.0
102
RTVSPost2010PropOp52
 70
     0
102
RTVSPost2010Prop53
 90
        2
102
RTVSPost2010PropOp53
 70
     1
102
RTVSPost2010Prop54
  1
strokes_ogs.tif
102
RTVSPost2010PropOp54
 70
     1
102
RTVSPost2010Prop55
280
     0
102
RTVSPost2010PropOp55
 70
     1
102
RTVSPost2010Prop56
140
1.0
102
RTVSPost2010PropOp56
 70
     1
102
RTVSPost2010Prop57
140
1.0
102
RTVSPost2010PropOp57
 70
     1
  0
XRECORD
  5
166
102
{ACAD_REACTORS
330
165
102
}
330
165
100
AcDbXrecord
280
     1
102
RTVSPost2010Prop28
280
     0
102
RTVSPost2010PropOp28
 70
     1
102
RTVSPost2010Prop29
280
     1
102
RTVSPost2010PropOp29
 70
     1
102
RTVSPost2010Prop30
280
     1
102
RTVSPost2010PropOp30
 70
     1
102
RTVSPost2010Prop31
280
     0
102
RTVSPost2010PropOp31
 70
     1
102
RTVSPost2010Prop32
280
     0
102
RTVSPost2010PropOp32
 70
     1
102
RTVSPost2010Prop33
280
     0
102
RTVSPost2010PropOp33
 70
     1
102
RTVSPost2010Prop34
280
     0
102
RTVSPost2010PropOp34
 70
     1
102
RTVSPost2010Prop35
280
     0
102
RTVSPost2010PropOp35
 70
     1
102
RTVSPost2010Prop36
280
     0
102
RTVSPost2010PropOp36
 70
     1
102
RTVSPost2010Prop37
 90
       50
102
RTVSPost2010PropOp37
 70
     1
102
RTVSPost2010Prop38
140
0.0
102
RTVSPost2010PropOp38
 70
     1
102
RTVSPost2010Prop39
140
1.0
102
RTVSPost2010PropOp39
 70
     1
102
RTVSPost2010Prop40
 90
        0
102
RTVSPost2010PropOp40
 70
     1
102
RTVSPost2010Prop41ColorIndex
 90
       18
102
RTVSPost2010Prop41ColorRGB
 90
        0
102
RTVSPost2010PropOp41
 70
     1
102
RTVSPost2010Prop42
 90
       50
102
RTVSPost2010PropOp42
 70
     1
102
RTVSPost2010Prop43
 90
        3
102
RTVSPost2010PropOp43
 70
     1
102
RTVSPost2010Prop44ColorIndex
 90
        5
102
RTVSPost2010Prop44ColorRGB
 90
      255
102
RTVSPost2010PropOp44
 70
     1
102
RTVSPost2010Prop45
280
     0
102
RTVSPost2010PropOp45
 70
     1
102
RTVSPost2010Prop46
 90
       50
102
RTVSPost2010PropOp46
 70
     1
102
RTVSPost2010Prop47
 90
       50
102
RTVSPost2010PropOp47
 70
     1
102
RTVSPost2010Prop48
 90
       50
102
RTVSPost2010PropOp48
 70
     1
102
RTVSPost2010Prop49
280
     0
102
RTVSPost2010PropOp49
 70
     1
102
RTVSPost2010Prop50
 90
       50
102
RTVSPost2010PropOp50
 70
     1
102
RTVSPost2010Prop51ColorIndex
 90
      256
102
RTVSPost2010Prop51ColorRGB
 90
-16777216
102
RTVSPost2010PropOp51
 70
     0
102
RTVSPost2010Prop52
140
1.0
102
RTVSPost2010PropOp52
 70
     0
102
RTVSPost2010Prop53
 90
        2
102
RTVSPost2010PropOp53
 70
     1
102
RTVSPost2010Prop54
  1
strokes_ogs.tif
102
RTVSPost2010PropOp54
 70
     1
102
RTVSPost2010Prop55
280
     0
102
RTVSPost2010PropOp55
 70
     1
102
RTVSPost2010Prop56
140
1.0
102
RTVSPost2010PropOp56
 70
     1
102
RTVSPost2010Prop57
140
1.0
102
RTVSPost2010PropOp57
 70
     1
  0
XRECORD
  5
174
102
{ACAD_REACTORS
330
173
102
}
330
173
100
AcDbXrecord
280
     1
102
RTVSPost2010Prop28
280
     0
102
RTVSPost2010PropOp28
 70
     1
102
RTVSPost2010Prop29
280
     1
102
RTVSPost2010PropOp29
 70
     1
102
RTVSPost2010Prop30
280
     1
102
RTVSPost2010PropOp30
 70
     1
102
RTVSPost2010Prop31
280
     0
102
RTVSPost2010PropOp31
 70
     1
102
RTVSPost2010Prop32
280
     0
102
RTVSPost2010PropOp32
 70
     1
102
RTVSPost2010Prop33
280
     0
102
RTVSPost2010PropOp33
 70
     1
102
RTVSPost2010Prop34
280
     0
102
RTVSPost2010PropOp34
 70
     1
102
RTVSPost2010Prop35
280
     0
102
RTVSPost2010PropOp35
 70
     1
102
RTVSPost2010Prop36
280
     0
102
RTVSPost2010PropOp36
 70
     1
102
RTVSPost2010Prop37
 90
       50
102
RTVSPost2010PropOp37
 70
     1
102
RTVSPost2010Prop38
140
0.0
102
RTVSPost2010PropOp38
 70
     1
102
RTVSPost2010Prop39
140
1.0
102
RTVSPost2010PropOp39
 70
     1
102
RTVSPost2010Prop40
 90
        0
102
RTVSPost2010PropOp40
 70
     1
102
RTVSPost2010Prop41ColorIndex
 90
       18
102
RTVSPost2010Prop41ColorRGB
 90
        0
102
RTVSPost2010PropOp41
 70
     1
102
RTVSPost2010Prop42
 90
       50
102
RTVSPost2010PropOp42
 70
     1
102
RTVSPost2010Prop43
 90
        3
102
RTVSPost2010PropOp43
 70
     1
102
RTVSPost2010Prop44ColorIndex
 90
        5
102
RTVSPost2010Prop44ColorRGB
 90
      255
102
RTVSPost2010PropOp44
 70
     1
102
RTVSPost2010Prop45
280
     0
102
RTVSPost2010PropOp45
 70
     1
102
RTVSPost2010Prop46
 90
       50
102
RTVSPost2010PropOp46
 70
     1
102
RTVSPost2010Prop47
 90
       50
102
RTVSPost2010PropOp47
 70
     1
102
RTVSPost2010Prop48
 90
       50
102
RTVSPost2010PropOp48
 70
     1
102
RTVSPost2010Prop49
280
     0
102
RTVSPost2010PropOp49
 70
     1
102
RTVSPost2010Prop50
 90
       50
102
RTVSPost2010PropOp50
 70
     1
102
RTVSPost2010Prop51ColorIndex
 90
      256
102
RTVSPost2010Prop51ColorRGB
 90
-16777216
102
RTVSPost2010PropOp51
 70
     0
102
RTVSPost2010Prop52
140
1.0
102
RTVSPost2010PropOp52
 70
     0
102
RTVSPost2010Prop53
 90
        2
102
RTVSPost2010PropOp53
 70
     1
102
RTVSPost2010Prop54
  1
strokes_ogs.tif
102
RTVSPost2010PropOp54
 70
     1
102
RTVSPost2010Prop55
280
     0
102
RTVSPost2010PropOp55
 70
     1
102
RTVSPost2010Prop56
140
1.0
102
RTVSPost2010PropOp56
 70
     1
102
RTVSPost2010Prop57
140
1.0
102
RTVSPost2010PropOp57
 70
     1
  0
XRECORD
  5
17C
102
{ACAD_REACTORS
330
17B
102
}
330
17B
100
AcDbXrecord
280
     1
102
RTVSPost2010Prop28
280
     0
102
RTVSPost2010PropOp28
 70
     1
102
RTVSPost2010Prop29
280
     1
102
RTVSPost2010PropOp29
 70
     1
102
RTVSPost2010Prop30
280
     1
102
RTVSPost2010PropOp30
 70
     1
102
RTVSPost2010Prop31
280
     0
102
RTVSPost2010PropOp31
 70
     1
102
RTVSPost2010Prop32
280
     0
102
RTVSPost2010PropOp32
 70
     1
102
RTVSPost2010Prop33
280
     0
102
RTVSPost2010PropOp33
 70
     1
102
RTVSPost2010Prop34
280
     0
102
RTVSPost2010PropOp34
 70
     1
102
RTVSPost2010Prop35
280
     0
102
RTVSPost2010PropOp35
 70
     1
102
RTVSPost2010Prop36
280
     0
102
RTVSPost2010PropOp36
 70
     1
102
RTVSPost2010Prop37
 90
       50
102
RTVSPost2010PropOp37
 70
     1
102
RTVSPost2010Prop38
140
0.0
102
RTVSPost2010PropOp38
 70
     1
102
RTVSPost2010Prop39
140
1.0
102
RTVSPost2010PropOp39
 70
     1
102
RTVSPost2010Prop40
 90
        0
102
RTVSPost2010PropOp40
 70
     1
102
RTVSPost2010Prop41ColorIndex
 90
       18
102
RTVSPost2010Prop41ColorRGB
 90
        0
102
RTVSPost2010PropOp41
 70
     1
102
RTVSPost2010Prop42
 90
       50
102
RTVSPost2010PropOp42
 70
     1
102
RTVSPost2010Prop43
 90
        3
102
RTVSPost2010PropOp43
 70
     1
102
RTVSPost2010Prop44ColorIndex
 90
        5
102
RTVSPost2010Prop44ColorRGB
 90
      255
102
RTVSPost2010PropOp44
 70
     1
102
RTVSPost2010Prop45
280
     0
102
RTVSPost2010PropOp45
 70
     1
102
RTVSPost2010Prop46
 90
       50
102
RTVSPost2010PropOp46
 70
     1
102
RTVSPost2010Prop47
 90
       50
102
RTVSPost2010PropOp47
 70
     1
102
RTVSPost2010Prop48
 90
       50
102
RTVSPost2010PropOp48
 70
     1
102
RTVSPost2010Prop49
280
     0
102
RTVSPost2010PropOp49
 70
     1
102
RTVSPost2010Prop50
 90
       50
102
RTVSPost2010PropOp50
 70
     1
102
RTVSPost2010Prop51ColorIndex
 90
      256
102
RTVSPost2010Prop51ColorRGB
 90
-16777216
102
RTVSPost2010PropOp51
 70
     0
102
RTVSPost2010Prop52
140
1.0
102
RTVSPost2010PropOp52
 70
     0
102
RTVSPost2010Prop53
 90
        2
102
RTVSPost2010PropOp53
 70
     1
102
RTVSPost2010Prop54
  1
strokes_ogs.tif
102
RTVSPost2010PropOp54
 70
     1
102
RTVSPost2010Prop55
280
     0
102
RTVSPost2010PropOp55
 70
     1
102
RTVSPost2010Prop56
140
1.0
102
RTVSPost2010PropOp56
 70
     1
102
RTVSPost2010Prop57
140
1.0
102
RTVSPost2010PropOp57
 70
     1
  0
XRECORD
  5
16E
102
{ACAD_REACTORS
330
16D
102
}
330
16D
100
AcDbXrecord
280
     1
102
RTVSPost2010Prop28
280
     0
102
RTVSPost2010PropOp28
 70
     1
102
RTVSPost2010Prop29
280
     1
102
RTVSPost2010PropOp29
 70
     1
102
RTVSPost2010Prop30
280
     1
102
RTVSPost2010PropOp30
 70
     1
102
RTVSPost2010Prop31
280
     0
102
RTVSPost2010PropOp31
 70
     1
102
RTVSPost2010Prop32
280
     0
102
RTVSPost2010PropOp32
 70
     1
102
RTVSPost2010Prop33
280
     0
102
RTVSPost2010PropOp33
 70
     1
102
RTVSPost2010Prop34
280
     0
102
RTVSPost2010PropOp34
 70
     1
102
RTVSPost2010Prop35
280
     0
102
RTVSPost2010PropOp35
 70
     1
102
RTVSPost2010Prop36
280
     0
102
RTVSPost2010PropOp36
 70
     1
102
RTVSPost2010Prop37
 90
       50
102
RTVSPost2010PropOp37
 70
     1
102
RTVSPost2010Prop38
140
0.0
102
RTVSPost2010PropOp38
 70
     1
102
RTVSPost2010Prop39
140
1.0
102
RTVSPost2010PropOp39
 70
     1
102
RTVSPost2010Prop40
 90
        0
102
RTVSPost2010PropOp40
 70
     1
102
RTVSPost2010Prop41ColorIndex
 90
       18
102
RTVSPost2010Prop41ColorRGB
 90
        0
102
RTVSPost2010PropOp41
 70
     1
102
RTVSPost2010Prop42
 90
       50
102
RTVSPost2010PropOp42
 70
     1
102
RTVSPost2010Prop43
 90
        3
102
RTVSPost2010PropOp43
 70
     1
102
RTVSPost2010Prop44ColorIndex
 90
        5
102
RTVSPost2010Prop44ColorRGB
 90
      255
102
RTVSPost2010PropOp44
 70
     1
102
RTVSPost2010Prop45
280
     0
102
RTVSPost2010PropOp45
 70
     1
102
RTVSPost2010Prop46
 90
       50
102
RTVSPost2010PropOp46
 70
     1
102
RTVSPost2010Prop47
 90
       50
102
RTVSPost2010PropOp47
 70
     1
102
RTVSPost2010Prop48
 90
       50
102
RTVSPost2010PropOp48
 70
     1
102
RTVSPost2010Prop49
280
     0
102
RTVSPost2010PropOp49
 70
     1
102
RTVSPost2010Prop50
 90
       50
102
RTVSPost2010PropOp50
 70
     1
102
RTVSPost2010Prop51ColorIndex
 90
      256
102
RTVSPost2010Prop51ColorRGB
 90
-16777216
102
RTVSPost2010PropOp51
 70
     0
102
RTVSPost2010Prop52
140
1.0
102
RTVSPost2010PropOp52
 70
     0
102
RTVSPost2010Prop53
 90
        2
102
RTVSPost2010PropOp53
 70
     1
102
RTVSPost2010Prop54
  1
strokes_ogs.tif
102
RTVSPost2010PropOp54
 70
     1
102
RTVSPost2010Prop55
280
     0
102
RTVSPost2010PropOp55
 70
     1
102
RTVSPost2010Prop56
140
1.0
102
RTVSPost2010PropOp56
 70
     1
102
RTVSPost2010Prop57
140
1.0
102
RTVSPost2010PropOp57
 70
     1
  0
XRECORD
  5
172
102
{ACAD_REACTORS
330
171
102
}
330
171
100
AcDbXrecord
280
     1
102
RTVSPost2010Prop28
280
     0
102
RTVSPost2010PropOp28
 70
     1
102
RTVSPost2010Prop29
280
     1
102
RTVSPost2010PropOp29
 70
     1
102
RTVSPost2010Prop30
280
     1
102
RTVSPost2010PropOp30
 70
     1
102
RTVSPost2010Prop31
280
     0
102
RTVSPost2010PropOp31
 70
     1
102
RTVSPost2010Prop32
280
     0
102
RTVSPost2010PropOp32
 70
     1
102
RTVSPost2010Prop33
280
     0
102
RTVSPost2010PropOp33
 70
     1
102
RTVSPost2010Prop34
280
     0
102
RTVSPost2010PropOp34
 70
     1
102
RTVSPost2010Prop35
280
     0
102
RTVSPost2010PropOp35
 70
     1
102
RTVSPost2010Prop36
280
     0
102
RTVSPost2010PropOp36
 70
     1
102
RTVSPost2010Prop37
 90
       50
102
RTVSPost2010PropOp37
 70
     1
102
RTVSPost2010Prop38
140
0.0
102
RTVSPost2010PropOp38
 70
     1
102
RTVSPost2010Prop39
140
1.0
102
RTVSPost2010PropOp39
 70
     1
102
RTVSPost2010Prop40
 90
        0
102
RTVSPost2010PropOp40
 70
     1
102
RTVSPost2010Prop41ColorIndex
 90
       18
102
RTVSPost2010Prop41ColorRGB
 90
        0
102
RTVSPost2010PropOp41
 70
     1
102
RTVSPost2010Prop42
 90
       50
102
RTVSPost2010PropOp42
 70
     1
102
RTVSPost2010Prop43
 90
        3
102
RTVSPost2010PropOp43
 70
     1
102
RTVSPost2010Prop44ColorIndex
 90
        5
102
RTVSPost2010Prop44ColorRGB
 90
      255
102
RTVSPost2010PropOp44
 70
     1
102
RTVSPost2010Prop45
280
     0
102
RTVSPost2010PropOp45
 70
     1
102
RTVSPost2010Prop46
 90
       50
102
RTVSPost2010PropOp46
 70
     1
102
RTVSPost2010Prop47
 90
       50
102
RTVSPost2010PropOp47
 70
     1
102
RTVSPost2010Prop48
 90
       50
102
RTVSPost2010PropOp48
 70
     1
102
RTVSPost2010Prop49
280
     0
102
RTVSPost2010PropOp49
 70
     1
102
RTVSPost2010Prop50
 90
       50
102
RTVSPost2010PropOp50
 70
     1
102
RTVSPost2010Prop51ColorIndex
 90
      256
102
RTVSPost2010Prop51ColorRGB
 90
-16777216
102
RTVSPost2010PropOp51
 70
     0
102
RTVSPost2010Prop52
140
1.0
102
RTVSPost2010PropOp52
 70
     0
102
RTVSPost2010Prop53
 90
        2
102
RTVSPost2010PropOp53
 70
     1
102
RTVSPost2010Prop54
  1
strokes_ogs.tif
102
RTVSPost2010PropOp54
 70
     1
102
RTVSPost2010Prop55
280
     0
102
RTVSPost2010PropOp55
 70
     1
102
RTVSPost2010Prop56
140
1.0
102
RTVSPost2010PropOp56
 70
     1
102
RTVSPost2010Prop57
140
1.0
102
RTVSPost2010PropOp57
 70
     1
  0
XRECORD
  5
18C
102
{ACAD_REACTORS
330
18B
102
}
330
18B
100
AcDbXrecord
280
     1
102
RTVSPost2010Prop28
280
     0
102
RTVSPost2010PropOp28
 70
     0
102
RTVSPost2010Prop29
280
     1
102
RTVSPost2010PropOp29
 70
     0
102
RTVSPost2010Prop30
280
     1
102
RTVSPost2010PropOp30
 70
     0
102
RTVSPost2010Prop31
280
     0
102
RTVSPost2010PropOp31
 70
     0
102
RTVSPost2010Prop32
280
     0
102
RTVSPost2010PropOp32
 70
     0
102
RTVSPost2010Prop33
280
     0
102
RTVSPost2010PropOp33
 70
     0
102
RTVSPost2010Prop34
280
     0
102
RTVSPost2010PropOp34
 70
     0
102
RTVSPost2010Prop35
280
     0
102
RTVSPost2010PropOp35
 70
     0
102
RTVSPost2010Prop36
280
     0
102
RTVSPost2010PropOp36
 70
     0
102
RTVSPost2010Prop37
 90
       50
102
RTVSPost2010PropOp37
 70
     0
102
RTVSPost2010Prop38
140
0.0
102
RTVSPost2010PropOp38
 70
     0
102
RTVSPost2010Prop39
140
1.0
102
RTVSPost2010PropOp39
 70
     0
102
RTVSPost2010Prop40
 90
        0
102
RTVSPost2010PropOp40
 70
     0
102
RTVSPost2010Prop41ColorIndex
 90
       18
102
RTVSPost2010Prop41ColorRGB
 90
        0
102
RTVSPost2010PropOp41
 70
     0
102
RTVSPost2010Prop42
 90
       50
102
RTVSPost2010PropOp42
 70
     0
102
RTVSPost2010Prop43
 90
        3
102
RTVSPost2010PropOp43
 70
     0
102
RTVSPost2010Prop44ColorIndex
 90
        5
102
RTVSPost2010Prop44ColorRGB
 90
      255
102
RTVSPost2010PropOp44
 70
     0
102
RTVSPost2010Prop45
280
     0
102
RTVSPost2010PropOp45
 70
     0
102
RTVSPost2010Prop46
 90
       50
102
RTVSPost2010PropOp46
 70
     0
102
RTVSPost2010Prop47
 90
       50
102
RTVSPost2010PropOp47
 70
     0
102
RTVSPost2010Prop48
 90
       50
102
RTVSPost2010PropOp48
 70
     0
102
RTVSPost2010Prop49
280
     0
102
RTVSPost2010PropOp49
 70
     0
102
RTVSPost2010Prop50
 90
       50
102
RTVSPost2010PropOp50
 70
     0
102
RTVSPost2010Prop51ColorIndex
 90
      256
102
RTVSPost2010Prop51ColorRGB
 90
-16777216
102
RTVSPost2010PropOp51
 70
     0
102
RTVSPost2010Prop52
140
1.0
102
RTVSPost2010PropOp52
 70
     0
102
RTVSPost2010Prop53
 90
        2
102
RTVSPost2010PropOp53
 70
     0
102
RTVSPost2010Prop54
  1
strokes_ogs.tif
102
RTVSPost2010PropOp54
 70
     0
102
RTVSPost2010Prop55
280
     0
102
RTVSPost2010PropOp55
 70
     0
102
RTVSPost2010Prop56
140
1.0
102
RTVSPost2010PropOp56
 70
     0
102
RTVSPost2010Prop57
140
1.0
102
RTVSPost2010PropOp57
 70
     0
  0
XRECORD
  5
17A
102
{ACAD_REACTORS
330
179
102
}
330
179
100
AcDbXrecord
280
     1
102
RTVSPost2010Prop28
280
     0
102
RTVSPost2010PropOp28
 70
     1
102
RTVSPost2010Prop29
280
     1
102
RTVSPost2010PropOp29
 70
     1
102
RTVSPost2010Prop30
280
     1
102
RTVSPost2010PropOp30
 70
     1
102
RTVSPost2010Prop31
280
     0
102
RTVSPost2010PropOp31
 70
     1
102
RTVSPost2010Prop32
280
     0
102
RTVSPost2010PropOp32
 70
     1
102
RTVSPost2010Prop33
280
     0
102
RTVSPost2010PropOp33
 70
     1
102
RTVSPost2010Prop34
280
     0
102
RTVSPost2010PropOp34
 70
     1
102
RTVSPost2010Prop35
280
     0
102
RTVSPost2010PropOp35
 70
     1
102
RTVSPost2010Prop36
280
     0
102
RTVSPost2010PropOp36
 70
     1
102
RTVSPost2010Prop37
 90
       50
102
RTVSPost2010PropOp37
 70
     1
102
RTVSPost2010Prop38
140
0.0
102
RTVSPost2010PropOp38
 70
     1
102
RTVSPost2010Prop39
140
1.0
102
RTVSPost2010PropOp39
 70
     1
102
RTVSPost2010Prop40
 90
        0
102
RTVSPost2010PropOp40
 70
     1
102
RTVSPost2010Prop41ColorIndex
 90
       18
102
RTVSPost2010Prop41ColorRGB
 90
        0
102
RTVSPost2010PropOp41
 70
     1
102
RTVSPost2010Prop42
 90
       50
102
RTVSPost2010PropOp42
 70
     1
102
RTVSPost2010Prop43
 90
        3
102
RTVSPost2010PropOp43
 70
     1
102
RTVSPost2010Prop44ColorIndex
 90
        5
102
RTVSPost2010Prop44ColorRGB
 90
      255
102
RTVSPost2010PropOp44
 70
     1
102
RTVSPost2010Prop45
280
     0
102
RTVSPost2010PropOp45
 70
     1
102
RTVSPost2010Prop46
 90
       50
102
RTVSPost2010PropOp46
 70
     1
102
RTVSPost2010Prop47
 90
       50
102
RTVSPost2010PropOp47
 70
     1
102
RTVSPost2010Prop48
 90
       50
102
RTVSPost2010PropOp48
 70
     1
102
RTVSPost2010Prop49
280
     0
102
RTVSPost2010PropOp49
 70
     1
102
RTVSPost2010Prop50
 90
       50
102
RTVSPost2010PropOp50
 70
     1
102
RTVSPost2010Prop51ColorIndex
 90
      256
102
RTVSPost2010Prop51ColorRGB
 90
-16777216
102
RTVSPost2010PropOp51
 70
     0
102
RTVSPost2010Prop52
140
1.0
102
RTVSPost2010PropOp52
 70
     0
102
RTVSPost2010Prop53
 90
        2
102
RTVSPost2010PropOp53
 70
     1
102
RTVSPost2010Prop54
  1
strokes_ogs.tif
102
RTVSPost2010PropOp54
 70
     1
102
RTVSPost2010Prop55
280
     0
102
RTVSPost2010PropOp55
 70
     1
102
RTVSPost2010Prop56
140
1.0
102
RTVSPost2010PropOp56
 70
     1
102
RTVSPost2010Prop57
140
1.0
102
RTVSPost2010PropOp57
 70
     1
  0
XRECORD
  5
15E
102
{ACAD_REACTORS
330
15D
102
}
330
15D
100
AcDbXrecord
280
     1
102
RTVSPost2010Prop28
280
     0
102
RTVSPost2010PropOp28
 70
     1
102
RTVSPost2010Prop29
280
     1
102
RTVSPost2010PropOp29
 70
     1
102
RTVSPost2010Prop30
280
     1
102
RTVSPost2010PropOp30
 70
     1
102
RTVSPost2010Prop31
280
     0
102
RTVSPost2010PropOp31
 70
     1
102
RTVSPost2010Prop32
280
     0
102
RTVSPost2010PropOp32
 70
     1
102
RTVSPost2010Prop33
280
     0
102
RTVSPost2010PropOp33
 70
     1
102
RTVSPost2010Prop34
280
     0
102
RTVSPost2010PropOp34
 70
     1
102
RTVSPost2010Prop35
280
     0
102
RTVSPost2010PropOp35
 70
     1
102
RTVSPost2010Prop36
280
     0
102
RTVSPost2010PropOp36
 70
     1
102
RTVSPost2010Prop37
 90
       50
102
RTVSPost2010PropOp37
 70
     1
102
RTVSPost2010Prop38
140
0.0
102
RTVSPost2010PropOp38
 70
     1
102
RTVSPost2010Prop39
140
1.0
102
RTVSPost2010PropOp39
 70
     1
102
RTVSPost2010Prop40
 90
        0
102
RTVSPost2010PropOp40
 70
     1
102
RTVSPost2010Prop41ColorIndex
 90
       18
102
RTVSPost2010Prop41ColorRGB
 90
        0
102
RTVSPost2010PropOp41
 70
     1
102
RTVSPost2010Prop42
 90
       50
102
RTVSPost2010PropOp42
 70
     1
102
RTVSPost2010Prop43
 90
        3
102
RTVSPost2010PropOp43
 70
     1
102
RTVSPost2010Prop44ColorIndex
 90
        5
102
RTVSPost2010Prop44ColorRGB
 90
      255
102
RTVSPost2010PropOp44
 70
     1
102
RTVSPost2010Prop45
280
     0
102
RTVSPost2010PropOp45
 70
     1
102
RTVSPost2010Prop46
 90
       50
102
RTVSPost2010PropOp46
 70
     1
102
RTVSPost2010Prop47
 90
       50
102
RTVSPost2010PropOp47
 70
     1
102
RTVSPost2010Prop48
 90
       50
102
RTVSPost2010PropOp48
 70
     1
102
RTVSPost2010Prop49
280
     0
102
RTVSPost2010PropOp49
 70
     1
102
RTVSPost2010Prop50
 90
       50
102
RTVSPost2010PropOp50
 70
     1
102
RTVSPost2010Prop51ColorIndex
 90
      256
102
RTVSPost2010Prop51ColorRGB
 90
-16777216
102
RTVSPost2010PropOp51
 70
     0
102
RTVSPost2010Prop52
140
1.0
102
RTVSPost2010PropOp52
 70
     0
102
RTVSPost2010Prop53
 90
        2
102
RTVSPost2010PropOp53
 70
     1
102
RTVSPost2010Prop54
  1
strokes_ogs.tif
102
RTVSPost2010PropOp54
 70
     1
102
RTVSPost2010Prop55
280
     0
102
RTVSPost2010PropOp55
 70
     1
102
RTVSPost2010Prop56
140
1.0
102
RTVSPost2010PropOp56
 70
     1
102
RTVSPost2010Prop57
140
1.0
102
RTVSPost2010PropOp57
 70
     1
  0
XRECORD
  5
160
102
{ACAD_REACTORS
330
15F
102
}
330
15F
100
AcDbXrecord
280
     1
102
RTVSPost2010Prop28
280
     0
102
RTVSPost2010PropOp28
 70
     1
102
RTVSPost2010Prop29
280
     1
102
RTVSPost2010PropOp29
 70
     1
102
RTVSPost2010Prop30
280
     1
102
RTVSPost2010PropOp30
 70
     1
102
RTVSPost2010Prop31
280
     0
102
RTVSPost2010PropOp31
 70
     1
102
RTVSPost2010Prop32
280
     0
102
RTVSPost2010PropOp32
 70
     1
102
RTVSPost2010Prop33
280
     0
102
RTVSPost2010PropOp33
 70
     1
102
RTVSPost2010Prop34
280
     0
102
RTVSPost2010PropOp34
 70
     1
102
RTVSPost2010Prop35
280
     0
102
RTVSPost2010PropOp35
 70
     1
102
RTVSPost2010Prop36
280
     0
102
RTVSPost2010PropOp36
 70
     1
102
RTVSPost2010Prop37
 90
       50
102
RTVSPost2010PropOp37
 70
     1
102
RTVSPost2010Prop38
140
0.0
102
RTVSPost2010PropOp38
 70
     1
102
RTVSPost2010Prop39
140
1.0
102
RTVSPost2010PropOp39
 70
     1
102
RTVSPost2010Prop40
 90
        0
102
RTVSPost2010PropOp40
 70
     1
102
RTVSPost2010Prop41ColorIndex
 90
       18
102
RTVSPost2010Prop41ColorRGB
 90
        0
102
RTVSPost2010PropOp41
 70
     1
102
RTVSPost2010Prop42
 90
       50
102
RTVSPost2010PropOp42
 70
     1
102
RTVSPost2010Prop43
 90
        3
102
RTVSPost2010PropOp43
 70
     1
102
RTVSPost2010Prop44ColorIndex
 90
        5
102
RTVSPost2010Prop44ColorRGB
 90
      255
102
RTVSPost2010PropOp44
 70
     1
102
RTVSPost2010Prop45
280
     0
102
RTVSPost2010PropOp45
 70
     1
102
RTVSPost2010Prop46
 90
       50
102
RTVSPost2010PropOp46
 70
     1
102
RTVSPost2010Prop47
 90
       50
102
RTVSPost2010PropOp47
 70
     1
102
RTVSPost2010Prop48
 90
       50
102
RTVSPost2010PropOp48
 70
     1
102
RTVSPost2010Prop49
280
     0
102
RTVSPost2010PropOp49
 70
     1
102
RTVSPost2010Prop50
 90
       50
102
RTVSPost2010PropOp50
 70
     1
102
RTVSPost2010Prop51ColorIndex
 90
      256
102
RTVSPost2010Prop51ColorRGB
 90
-16777216
102
RTVSPost2010PropOp51
 70
     0
102
RTVSPost2010Prop52
140
1.0
102
RTVSPost2010PropOp52
 70
     0
102
RTVSPost2010Prop53
 90
        2
102
RTVSPost2010PropOp53
 70
     1
102
RTVSPost2010Prop54
  1
strokes_ogs.tif
102
RTVSPost2010PropOp54
 70
     1
102
RTVSPost2010Prop55
280
     0
102
RTVSPost2010PropOp55
 70
     1
102
RTVSPost2010Prop56
140
1.0
102
RTVSPost2010PropOp56
 70
     1
102
RTVSPost2010Prop57
140
1.0
102
RTVSPost2010PropOp57
 70
     1
  0
XRECORD
  5
162
102
{ACAD_REACTORS
330
161
102
}
330
161
100
AcDbXrecord
280
     1
102
RTVSPost2010Prop28
280
     0
102
RTVSPost2010PropOp28
 70
     1
102
RTVSPost2010Prop29
280
     1
102
RTVSPost2010PropOp29
 70
     1
102
RTVSPost2010Prop30
280
     1
102
RTVSPost2010PropOp30
 70
     1
102
RTVSPost2010Prop31
280
     0
102
RTVSPost2010PropOp31
 70
     1
102
RTVSPost2010Prop32
280
     0
102
RTVSPost2010PropOp32
 70
     1
102
RTVSPost2010Prop33
280
     0
102
RTVSPost2010PropOp33
 70
     1
102
RTVSPost2010Prop34
280
     0
102
RTVSPost2010PropOp34
 70
     1
102
RTVSPost2010Prop35
280
     0
102
RTVSPost2010PropOp35
 70
     1
102
RTVSPost2010Prop36
280
     0
102
RTVSPost2010PropOp36
 70
     1
102
RTVSPost2010Prop37
 90
       50
102
RTVSPost2010PropOp37
 70
     1
102
RTVSPost2010Prop38
140
0.0
102
RTVSPost2010PropOp38
 70
     1
102
RTVSPost2010Prop39
140
1.0
102
RTVSPost2010PropOp39
 70
     1
102
RTVSPost2010Prop40
 90
        0
102
RTVSPost2010PropOp40
 70
     1
102
RTVSPost2010Prop41ColorIndex
 90
       18
102
RTVSPost2010Prop41ColorRGB
 90
        0
102
RTVSPost2010PropOp41
 70
     1
102
RTVSPost2010Prop42
 90
       50
102
RTVSPost2010PropOp42
 70
     1
102
RTVSPost2010Prop43
 90
        3
102
RTVSPost2010PropOp43
 70
     1
102
RTVSPost2010Prop44ColorIndex
 90
        5
102
RTVSPost2010Prop44ColorRGB
 90
      255
102
RTVSPost2010PropOp44
 70
     1
102
RTVSPost2010Prop45
280
     0
102
RTVSPost2010PropOp45
 70
     1
102
RTVSPost2010Prop46
 90
       50
102
RTVSPost2010PropOp46
 70
     1
102
RTVSPost2010Prop47
 90
       50
102
RTVSPost2010PropOp47
 70
     1
102
RTVSPost2010Prop48
 90
       50
102
RTVSPost2010PropOp48
 70
     1
102
RTVSPost2010Prop49
280
     0
102
RTVSPost2010PropOp49
 70
     1
102
RTVSPost2010Prop50
 90
       50
102
RTVSPost2010PropOp50
 70
     1
102
RTVSPost2010Prop51ColorIndex
 90
      256
102
RTVSPost2010Prop51ColorRGB
 90
-16777216
102
RTVSPost2010PropOp51
 70
     0
102
RTVSPost2010Prop52
140
1.0
102
RTVSPost2010PropOp52
 70
     0
102
RTVSPost2010Prop53
 90
        2
102
RTVSPost2010PropOp53
 70
     1
102
RTVSPost2010Prop54
  1
strokes_ogs.tif
102
RTVSPost2010PropOp54
 70
     1
102
RTVSPost2010Prop55
280
     0
102
RTVSPost2010PropOp55
 70
     1
102
RTVSPost2010Prop56
140
1.0
102
RTVSPost2010PropOp56
 70
     1
102
RTVSPost2010Prop57
140
1.0
102
RTVSPost2010PropOp57
 70
     1
  0
XRECORD
  5
164
102
{ACAD_REACTORS
330
163
102
}
330
163
100
AcDbXrecord
280
     1
102
RTVSPost2010Prop28
280
     0
102
RTVSPost2010PropOp28
 70
     1
102
RTVSPost2010Prop29
280
     1
102
RTVSPost2010PropOp29
 70
     1
102
RTVSPost2010Prop30
280
     1
102
RTVSPost2010PropOp30
 70
     1
102
RTVSPost2010Prop31
280
     0
102
RTVSPost2010PropOp31
 70
     1
102
RTVSPost2010Prop32
280
     0
102
RTVSPost2010PropOp32
 70
     1
102
RTVSPost2010Prop33
280
     0
102
RTVSPost2010PropOp33
 70
     1
102
RTVSPost2010Prop34
280
     0
102
RTVSPost2010PropOp34
 70
     1
102
RTVSPost2010Prop35
280
     0
102
RTVSPost2010PropOp35
 70
     1
102
RTVSPost2010Prop36
280
     0
102
RTVSPost2010PropOp36
 70
     1
102
RTVSPost2010Prop37
 90
       50
102
RTVSPost2010PropOp37
 70
     1
102
RTVSPost2010Prop38
140
0.0
102
RTVSPost2010PropOp38
 70
     1
102
RTVSPost2010Prop39
140
1.0
102
RTVSPost2010PropOp39
 70
     1
102
RTVSPost2010Prop40
 90
        0
102
RTVSPost2010PropOp40
 70
     1
102
RTVSPost2010Prop41ColorIndex
 90
       18
102
RTVSPost2010Prop41ColorRGB
 90
        0
102
RTVSPost2010PropOp41
 70
     1
102
RTVSPost2010Prop42
 90
       50
102
RTVSPost2010PropOp42
 70
     1
102
RTVSPost2010Prop43
 90
        3
102
RTVSPost2010PropOp43
 70
     1
102
RTVSPost2010Prop44ColorIndex
 90
        5
102
RTVSPost2010Prop44ColorRGB
 90
      255
102
RTVSPost2010PropOp44
 70
     1
102
RTVSPost2010Prop45
280
     0
102
RTVSPost2010PropOp45
 70
     1
102
RTVSPost2010Prop46
 90
       50
102
RTVSPost2010PropOp46
 70
     1
102
RTVSPost2010Prop47
 90
       50
102
RTVSPost2010PropOp47
 70
     1
102
RTVSPost2010Prop48
 90
       50
102
RTVSPost2010PropOp48
 70
     1
102
RTVSPost2010Prop49
280
     0
102
RTVSPost2010PropOp49
 70
     1
102
RTVSPost2010Prop50
 90
       50
102
RTVSPost2010PropOp50
 70
     1
102
RTVSPost2010Prop51ColorIndex
 90
      256
102
RTVSPost2010Prop51ColorRGB
 90
-16777216
102
RTVSPost2010PropOp51
 70
     0
102
RTVSPost2010Prop52
140
1.0
102
RTVSPost2010PropOp52
 70
     0
102
RTVSPost2010Prop53
 90
        2
102
RTVSPost2010PropOp53
 70
     1
102
RTVSPost2010Prop54
  1
strokes_ogs.tif
102
RTVSPost2010PropOp54
 70
     1
102
RTVSPost2010Prop55
280
     0
102
RTVSPost2010PropOp55
 70
     1
102
RTVSPost2010Prop56
140
1.0
102
RTVSPost2010PropOp56
 70
     1
102
RTVSPost2010Prop57
140
1.0
102
RTVSPost2010PropOp57
 70
     1
  0
XRECORD
  5
16C
102
{ACAD_REACTORS
330
16B
102
}
330
16B
100
AcDbXrecord
280
     1
102
RTVSPost2010Prop28
280
     0
102
RTVSPost2010PropOp28
 70
     1
102
RTVSPost2010Prop29
280
     1
102
RTVSPost2010PropOp29
 70
     1
102
RTVSPost2010Prop30
280
     1
102
RTVSPost2010PropOp30
 70
     1
102
RTVSPost2010Prop31
280
     0
102
RTVSPost2010PropOp31
 70
     1
102
RTVSPost2010Prop32
280
     0
102
RTVSPost2010PropOp32
 70
     1
102
RTVSPost2010Prop33
280
     0
102
RTVSPost2010PropOp33
 70
     1
102
RTVSPost2010Prop34
280
     0
102
RTVSPost2010PropOp34
 70
     1
102
RTVSPost2010Prop35
280
     0
102
RTVSPost2010PropOp35
 70
     1
102
RTVSPost2010Prop36
280
     0
102
RTVSPost2010PropOp36
 70
     1
102
RTVSPost2010Prop37
 90
       50
102
RTVSPost2010PropOp37
 70
     1
102
RTVSPost2010Prop38
140
0.0
102
RTVSPost2010PropOp38
 70
     1
102
RTVSPost2010Prop39
140
1.0
102
RTVSPost2010PropOp39
 70
     1
102
RTVSPost2010Prop40
 90
        0
102
RTVSPost2010PropOp40
 70
     1
102
RTVSPost2010Prop41ColorIndex
 90
       18
102
RTVSPost2010Prop41ColorRGB
 90
        0
102
RTVSPost2010PropOp41
 70
     1
102
RTVSPost2010Prop42
 90
       50
102
RTVSPost2010PropOp42
 70
     1
102
RTVSPost2010Prop43
 90
        3
102
RTVSPost2010PropOp43
 70
     1
102
RTVSPost2010Prop44ColorIndex
 90
        5
102
RTVSPost2010Prop44ColorRGB
 90
      255
102
RTVSPost2010PropOp44
 70
     1
102
RTVSPost2010Prop45
280
     0
102
RTVSPost2010PropOp45
 70
     1
102
RTVSPost2010Prop46
 90
       50
102
RTVSPost2010PropOp46
 70
     1
102
RTVSPost2010Prop47
 90
       50
102
RTVSPost2010PropOp47
 70
     1
102
RTVSPost2010Prop48
 90
       50
102
RTVSPost2010PropOp48
 70
     1
102
RTVSPost2010Prop49
280
     0
102
RTVSPost2010PropOp49
 70
     1
102
RTVSPost2010Prop50
 90
       50
102
RTVSPost2010PropOp50
 70
     1
102
RTVSPost2010Prop51ColorIndex
 90
      256
102
RTVSPost2010Prop51ColorRGB
 90
-16777216
102
RTVSPost2010PropOp51
 70
     0
102
RTVSPost2010Prop52
140
1.0
102
RTVSPost2010PropOp52
 70
     0
102
RTVSPost2010Prop53
 90
        2
102
RTVSPost2010PropOp53
 70
     1
102
RTVSPost2010Prop54
  1
strokes_ogs.tif
102
RTVSPost2010PropOp54
 70
     1
102
RTVSPost2010Prop55
280
     0
102
RTVSPost2010PropOp55
 70
     1
102
RTVSPost2010Prop56
140
1.0
102
RTVSPost2010PropOp56
 70
     1
102
RTVSPost2010Prop57
140
1.0
102
RTVSPost2010PropOp57
 70
     1
  0
XRECORD
  5
188
102
{ACAD_REACTORS
330
187
102
}
330
187
100
AcDbXrecord
280
     1
102
RTVSPost2010Prop28
280
     0
102
RTVSPost2010PropOp28
 70
     0
102
RTVSPost2010Prop29
280
     1
102
RTVSPost2010PropOp29
 70
     0
102
RTVSPost2010Prop30
280
     1
102
RTVSPost2010PropOp30
 70
     0
102
RTVSPost2010Prop31
280
     0
102
RTVSPost2010PropOp31
 70
     0
102
RTVSPost2010Prop32
280
     0
102
RTVSPost2010PropOp32
 70
     0
102
RTVSPost2010Prop33
280
     0
102
RTVSPost2010PropOp33
 70
     0
102
RTVSPost2010Prop34
280
     0
102
RTVSPost2010PropOp34
 70
     0
102
RTVSPost2010Prop35
280
     0
102
RTVSPost2010PropOp35
 70
     0
102
RTVSPost2010Prop36
280
     0
102
RTVSPost2010PropOp36
 70
     0
102
RTVSPost2010Prop37
 90
       50
102
RTVSPost2010PropOp37
 70
     0
102
RTVSPost2010Prop38
140
0.0
102
RTVSPost2010PropOp38
 70
     0
102
RTVSPost2010Prop39
140
1.0
102
RTVSPost2010PropOp39
 70
     0
102
RTVSPost2010Prop40
 90
        0
102
RTVSPost2010PropOp40
 70
     0
102
RTVSPost2010Prop41ColorIndex
 90
       18
102
RTVSPost2010Prop41ColorRGB
 90
        0
102
RTVSPost2010PropOp41
 70
     0
102
RTVSPost2010Prop42
 90
       50
102
RTVSPost2010PropOp42
 70
     0
102
RTVSPost2010Prop43
 90
        3
102
RTVSPost2010PropOp43
 70
     0
102
RTVSPost2010Prop44ColorIndex
 90
        5
102
RTVSPost2010Prop44ColorRGB
 90
      255
102
RTVSPost2010PropOp44
 70
     0
102
RTVSPost2010Prop45
280
     0
102
RTVSPost2010PropOp45
 70
     0
102
RTVSPost2010Prop46
 90
       50
102
RTVSPost2010PropOp46
 70
     0
102
RTVSPost2010Prop47
 90
       50
102
RTVSPost2010PropOp47
 70
     0
102
RTVSPost2010Prop48
 90
       50
102
RTVSPost2010PropOp48
 70
     0
102
RTVSPost2010Prop49
280
     0
102
RTVSPost2010PropOp49
 70
     0
102
RTVSPost2010Prop50
 90
       50
102
RTVSPost2010PropOp50
 70
     0
102
RTVSPost2010Prop51ColorIndex
 90
      256
102
RTVSPost2010Prop51ColorRGB
 90
-16777216
102
RTVSPost2010PropOp51
 70
     0
102
RTVSPost2010Prop52
140
1.0
102
RTVSPost2010PropOp52
 70
     0
102
RTVSPost2010Prop53
 90
        2
102
RTVSPost2010PropOp53
 70
     0
102
RTVSPost2010Prop54
  1
strokes_ogs.tif
102
RTVSPost2010PropOp54
 70
     0
102
RTVSPost2010Prop55
280
     0
102
RTVSPost2010PropOp55
 70
     0
102
RTVSPost2010Prop56
140
1.0
102
RTVSPost2010PropOp56
 70
     0
102
RTVSPost2010Prop57
140
1.0
102
RTVSPost2010PropOp57
 70
     0
  0
XRECORD
  5
178
102
{ACAD_REACTORS
330
177
102
}
330
177
100
AcDbXrecord
280
     1
102
RTVSPost2010Prop28
280
     0
102
RTVSPost2010PropOp28
 70
     1
102
RTVSPost2010Prop29
280
     1
102
RTVSPost2010PropOp29
 70
     1
102
RTVSPost2010Prop30
280
     1
102
RTVSPost2010PropOp30
 70
     1
102
RTVSPost2010Prop31
280
     0
102
RTVSPost2010PropOp31
 70
     1
102
RTVSPost2010Prop32
280
     0
102
RTVSPost2010PropOp32
 70
     1
102
RTVSPost2010Prop33
280
     0
102
RTVSPost2010PropOp33
 70
     1
102
RTVSPost2010Prop34
280
     0
102
RTVSPost2010PropOp34
 70
     1
102
RTVSPost2010Prop35
280
     0
102
RTVSPost2010PropOp35
 70
     1
102
RTVSPost2010Prop36
280
     0
102
RTVSPost2010PropOp36
 70
     1
102
RTVSPost2010Prop37
 90
       50
102
RTVSPost2010PropOp37
 70
     1
102
RTVSPost2010Prop38
140
0.0
102
RTVSPost2010PropOp38
 70
     1
102
RTVSPost2010Prop39
140
1.0
102
RTVSPost2010PropOp39
 70
     1
102
RTVSPost2010Prop40
 90
        0
102
RTVSPost2010PropOp40
 70
     1
102
RTVSPost2010Prop41ColorIndex
 90
       18
102
RTVSPost2010Prop41ColorRGB
 90
        0
102
RTVSPost2010PropOp41
 70
     1
102
RTVSPost2010Prop42
 90
       50
102
RTVSPost2010PropOp42
 70
     1
102
RTVSPost2010Prop43
 90
        3
102
RTVSPost2010PropOp43
 70
     1
102
RTVSPost2010Prop44ColorIndex
 90
        5
102
RTVSPost2010Prop44ColorRGB
 90
      255
102
RTVSPost2010PropOp44
 70
     1
102
RTVSPost2010Prop45
280
     0
102
RTVSPost2010PropOp45
 70
     1
102
RTVSPost2010Prop46
 90
       50
102
RTVSPost2010PropOp46
 70
     1
102
RTVSPost2010Prop47
 90
       50
102
RTVSPost2010PropOp47
 70
     1
102
RTVSPost2010Prop48
 90
       50
102
RTVSPost2010PropOp48
 70
     1
102
RTVSPost2010Prop49
280
     0
102
RTVSPost2010PropOp49
 70
     1
102
RTVSPost2010Prop50
 90
       50
102
RTVSPost2010PropOp50
 70
     1
102
RTVSPost2010Prop51ColorIndex
 90
      256
102
RTVSPost2010Prop51ColorRGB
 90
-16777216
102
RTVSPost2010PropOp51
 70
     0
102
RTVSPost2010Prop52
140
1.0
102
RTVSPost2010PropOp52
 70
     0
102
RTVSPost2010Prop53
 90
        2
102
RTVSPost2010PropOp53
 70
     1
102
RTVSPost2010Prop54
  1
strokes_ogs.tif
102
RTVSPost2010PropOp54
 70
     1
102
RTVSPost2010Prop55
280
     0
102
RTVSPost2010PropOp55
 70
     1
102
RTVSPost2010Prop56
140
1.0
102
RTVSPost2010PropOp56
 70
     1
102
RTVSPost2010Prop57
140
1.0
102
RTVSPost2010PropOp57
 70
     1
  0
XRECORD
  5
18A
102
{ACAD_REACTORS
330
189
102
}
330
189
100
AcDbXrecord
280
     1
102
RTVSPost2010Prop28
280
     0
102
RTVSPost2010PropOp28
 70
     0
102
RTVSPost2010Prop29
280
     1
102
RTVSPost2010PropOp29
 70
     0
102
RTVSPost2010Prop30
280
     1
102
RTVSPost2010PropOp30
 70
     0
102
RTVSPost2010Prop31
280
     0
102
RTVSPost2010PropOp31
 70
     0
102
RTVSPost2010Prop32
280
     0
102
RTVSPost2010PropOp32
 70
     0
102
RTVSPost2010Prop33
280
     0
102
RTVSPost2010PropOp33
 70
     0
102
RTVSPost2010Prop34
280
     0
102
RTVSPost2010PropOp34
 70
     0
102
RTVSPost2010Prop35
280
     0
102
RTVSPost2010PropOp35
 70
     0
102
RTVSPost2010Prop36
280
     0
102
RTVSPost2010PropOp36
 70
     0
102
RTVSPost2010Prop37
 90
       50
102
RTVSPost2010PropOp37
 70
     0
102
RTVSPost2010Prop38
140
0.0
102
RTVSPost2010PropOp38
 70
     0
102
RTVSPost2010Prop39
140
1.0
102
RTVSPost2010PropOp39
 70
     0
102
RTVSPost2010Prop40
 90
        0
102
RTVSPost2010PropOp40
 70
     0
102
RTVSPost2010Prop41ColorIndex
 90
       18
102
RTVSPost2010Prop41ColorRGB
 90
        0
102
RTVSPost2010PropOp41
 70
     0
102
RTVSPost2010Prop42
 90
       50
102
RTVSPost2010PropOp42
 70
     0
102
RTVSPost2010Prop43
 90
        3
102
RTVSPost2010PropOp43
 70
     0
102
RTVSPost2010Prop44ColorIndex
 90
        5
102
RTVSPost2010Prop44ColorRGB
 90
      255
102
RTVSPost2010PropOp44
 70
     0
102
RTVSPost2010Prop45
280
     0
102
RTVSPost2010PropOp45
 70
     0
102
RTVSPost2010Prop46
 90
       50
102
RTVSPost2010PropOp46
 70
     0
102
RTVSPost2010Prop47
 90
       50
102
RTVSPost2010PropOp47
 70
     0
102
RTVSPost2010Prop48
 90
       50
102
RTVSPost2010PropOp48
 70
     0
102
RTVSPost2010Prop49
280
     0
102
RTVSPost2010PropOp49
 70
     0
102
RTVSPost2010Prop50
 90
       50
102
RTVSPost2010PropOp50
 70
     0
102
RTVSPost2010Prop51ColorIndex
 90
      256
102
RTVSPost2010Prop51ColorRGB
 90
-16777216
102
RTVSPost2010PropOp51
 70
     0
102
RTVSPost2010Prop52
140
1.0
102
RTVSPost2010PropOp52
 70
     0
102
RTVSPost2010Prop53
 90
        2
102
RTVSPost2010PropOp53
 70
     0
102
RTVSPost2010Prop54
  1
strokes_ogs.tif
102
RTVSPost2010PropOp54
 70
     0
102
RTVSPost2010Prop55
280
     0
102
RTVSPost2010PropOp55
 70
     0
102
RTVSPost2010Prop56
140
1.0
102
RTVSPost2010PropOp56
 70
     0
102
RTVSPost2010Prop57
140
1.0
102
RTVSPost2010PropOp57
 70
     0
  0
XRECORD
  5
170
102
{ACAD_REACTORS
330
16F
102
}
330
16F
100
AcDbXrecord
280
     1
102
RTVSPost2010Prop28
280
     0
102
RTVSPost2010PropOp28
 70
     1
102
RTVSPost2010Prop29
280
     1
102
RTVSPost2010PropOp29
 70
     1
102
RTVSPost2010Prop30
280
     1
102
RTVSPost2010PropOp30
 70
     1
102
RTVSPost2010Prop31
280
     0
102
RTVSPost2010PropOp31
 70
     1
102
RTVSPost2010Prop32
280
     0
102
RTVSPost2010PropOp32
 70
     1
102
RTVSPost2010Prop33
280
     0
102
RTVSPost2010PropOp33
 70
     1
102
RTVSPost2010Prop34
280
     0
102
RTVSPost2010PropOp34
 70
     1
102
RTVSPost2010Prop35
280
     0
102
RTVSPost2010PropOp35
 70
     1
102
RTVSPost2010Prop36
280
     0
102
RTVSPost2010PropOp36
 70
     1
102
RTVSPost2010Prop37
 90
       50
102
RTVSPost2010PropOp37
 70
     1
102
RTVSPost2010Prop38
140
0.0
102
RTVSPost2010PropOp38
 70
     1
102
RTVSPost2010Prop39
140
1.0
102
RTVSPost2010PropOp39
 70
     1
102
RTVSPost2010Prop40
 90
        0
102
RTVSPost2010PropOp40
 70
     1
102
RTVSPost2010Prop41ColorIndex
 90
       18
102
RTVSPost2010Prop41ColorRGB
 90
        0
102
RTVSPost2010PropOp41
 70
     1
102
RTVSPost2010Prop42
 90
       50
102
RTVSPost2010PropOp42
 70
     1
102
RTVSPost2010Prop43
 90
        3
102
RTVSPost2010PropOp43
 70
     1
102
RTVSPost2010Prop44ColorIndex
 90
        5
102
RTVSPost2010Prop44ColorRGB
 90
      255
102
RTVSPost2010PropOp44
 70
     1
102
RTVSPost2010Prop45
280
     0
102
RTVSPost2010PropOp45
 70
     1
102
RTVSPost2010Prop46
 90
       50
102
RTVSPost2010PropOp46
 70
     1
102
RTVSPost2010Prop47
 90
       50
102
RTVSPost2010PropOp47
 70
     1
102
RTVSPost2010Prop48
 90
       50
102
RTVSPost2010PropOp48
 70
     1
102
RTVSPost2010Prop49
280
     0
102
RTVSPost2010PropOp49
 70
     1
102
RTVSPost2010Prop50
 90
       50
102
RTVSPost2010PropOp50
 70
     1
102
RTVSPost2010Prop51ColorIndex
 90
      256
102
RTVSPost2010Prop51ColorRGB
 90
-16777216
102
RTVSPost2010PropOp51
 70
     0
102
RTVSPost2010Prop52
140
1.0
102
RTVSPost2010PropOp52
 70
     0
102
RTVSPost2010Prop53
 90
        2
102
RTVSPost2010PropOp53
 70
     1
102
RTVSPost2010Prop54
  1
strokes_ogs.tif
102
RTVSPost2010PropOp54
 70
     1
102
RTVSPost2010Prop55
280
     0
102
RTVSPost2010PropOp55
 70
     1
102
RTVSPost2010Prop56
140
1.0
102
RTVSPost2010PropOp56
 70
     1
102
RTVSPost2010Prop57
140
1.0
102
RTVSPost2010PropOp57
 70
     1
  0
XRECORD
  5
186
102
{ACAD_REACTORS
330
185
102
}
330
185
100
AcDbXrecord
280
     1
102
RTVSPost2010Prop28
280
     0
102
RTVSPost2010PropOp28
 70
     1
102
RTVSPost2010Prop29
280
     1
102
RTVSPost2010PropOp29
 70
     1
102
RTVSPost2010Prop30
280
     1
102
RTVSPost2010PropOp30
 70
     1
102
RTVSPost2010Prop31
280
     0
102
RTVSPost2010PropOp31
 70
     1
102
RTVSPost2010Prop32
280
     0
102
RTVSPost2010PropOp32
 70
     1
102
RTVSPost2010Prop33
280
     0
102
RTVSPost2010PropOp33
 70
     1
102
RTVSPost2010Prop34
280
     0
102
RTVSPost2010PropOp34
 70
     1
102
RTVSPost2010Prop35
280
     0
102
RTVSPost2010PropOp35
 70
     1
102
RTVSPost2010Prop36
280
     0
102
RTVSPost2010PropOp36
 70
     1
102
RTVSPost2010Prop37
 90
       50
102
RTVSPost2010PropOp37
 70
     1
102
RTVSPost2010Prop38
140
0.0
102
RTVSPost2010PropOp38
 70
     1
102
RTVSPost2010Prop39
140
1.0
102
RTVSPost2010PropOp39
 70
     1
102
RTVSPost2010Prop40
 90
        0
102
RTVSPost2010PropOp40
 70
     1
102
RTVSPost2010Prop41ColorIndex
 90
       18
102
RTVSPost2010Prop41ColorRGB
 90
        0
102
RTVSPost2010PropOp41
 70
     1
102
RTVSPost2010Prop42
 90
       50
102
RTVSPost2010PropOp42
 70
     1
102
RTVSPost2010Prop43
 90
        3
102
RTVSPost2010PropOp43
 70
     1
102
RTVSPost2010Prop44ColorIndex
 90
        5
102
RTVSPost2010Prop44ColorRGB
 90
      255
102
RTVSPost2010PropOp44
 70
     1
102
RTVSPost2010Prop45
280
     0
102
RTVSPost2010PropOp45
 70
     1
102
RTVSPost2010Prop46
 90
       50
102
RTVSPost2010PropOp46
 70
     1
102
RTVSPost2010Prop47
 90
       50
102
RTVSPost2010PropOp47
 70
     1
102
RTVSPost2010Prop48
 90
       50
102
RTVSPost2010PropOp48
 70
     1
102
RTVSPost2010Prop49
280
     0
102
RTVSPost2010PropOp49
 70
     1
102
RTVSPost2010Prop50
 90
       50
102
RTVSPost2010PropOp50
 70
     1
102
RTVSPost2010Prop51ColorIndex
 90
      256
102
RTVSPost2010Prop51ColorRGB
 90
-16777216
102
RTVSPost2010PropOp51
 70
     0
102
RTVSPost2010Prop52
140
1.0
102
RTVSPost2010PropOp52
 70
     0
102
RTVSPost2010Prop53
 90
        2
102
RTVSPost2010PropOp53
 70
     1
102
RTVSPost2010Prop54
  1
strokes_ogs.tif
102
RTVSPost2010PropOp54
 70
     1
102
RTVSPost2010Prop55
280
     0
102
RTVSPost2010PropOp55
 70
     1
102
RTVSPost2010Prop56
140
1.0
102
RTVSPost2010PropOp56
 70
     1
102
RTVSPost2010Prop57
140
1.0
102
RTVSPost2010PropOp57
 70
     1
  0
XRECORD
  5
184
102
{ACAD_REACTORS
330
183
102
}
330
183
100
AcDbXrecord
280
     1
102
RTVSPost2010Prop28
280
     0
102
RTVSPost2010PropOp28
 70
     1
102
RTVSPost2010Prop29
280
     1
102
RTVSPost2010PropOp29
 70
     1
102
RTVSPost2010Prop30
280
     1
102
RTVSPost2010PropOp30
 70
     1
102
RTVSPost2010Prop31
280
     0
102
RTVSPost2010PropOp31
 70
     1
102
RTVSPost2010Prop32
280
     0
102
RTVSPost2010PropOp32
 70
     1
102
RTVSPost2010Prop33
280
     0
102
RTVSPost2010PropOp33
 70
     1
102
RTVSPost2010Prop34
280
     0
102
RTVSPost2010PropOp34
 70
     1
102
RTVSPost2010Prop35
280
     0
102
RTVSPost2010PropOp35
 70
     1
102
RTVSPost2010Prop36
280
     0
102
RTVSPost2010PropOp36
 70
     1
102
RTVSPost2010Prop37
 90
       50
102
RTVSPost2010PropOp37
 70
     1
102
RTVSPost2010Prop38
140
0.0
102
RTVSPost2010PropOp38
 70
     1
102
RTVSPost2010Prop39
140
1.0
102
RTVSPost2010PropOp39
 70
     1
102
RTVSPost2010Prop40
 90
        0
102
RTVSPost2010PropOp40
 70
     1
102
RTVSPost2010Prop41ColorIndex
 90
       18
102
RTVSPost2010Prop41ColorRGB
 90
        0
102
RTVSPost2010PropOp41
 70
     1
102
RTVSPost2010Prop42
 90
       50
102
RTVSPost2010PropOp42
 70
     1
102
RTVSPost2010Prop43
 90
        3
102
RTVSPost2010PropOp43
 70
     1
102
RTVSPost2010Prop44ColorIndex
 90
        5
102
RTVSPost2010Prop44ColorRGB
 90
      255
102
RTVSPost2010PropOp44
 70
     1
102
RTVSPost2010Prop45
280
     0
102
RTVSPost2010PropOp45
 70
     1
102
RTVSPost2010Prop46
 90
       50
102
RTVSPost2010PropOp46
 70
     1
102
RTVSPost2010Prop47
 90
       50
102
RTVSPost2010PropOp47
 70
     1
102
RTVSPost2010Prop48
 90
       50
102
RTVSPost2010PropOp48
 70
     1
102
RTVSPost2010Prop49
280
     0
102
RTVSPost2010PropOp49
 70
     1
102
RTVSPost2010Prop50
 90
       50
102
RTVSPost2010PropOp50
 70
     1
102
RTVSPost2010Prop51ColorIndex
 90
      256
102
RTVSPost2010Prop51ColorRGB
 90
-16777216
102
RTVSPost2010PropOp51
 70
     0
102
RTVSPost2010Prop52
140
1.0
102
RTVSPost2010PropOp52
 70
     0
102
RTVSPost2010Prop53
 90
        2
102
RTVSPost2010PropOp53
 70
     1
102
RTVSPost2010Prop54
  1
strokes_ogs.tif
102
RTVSPost2010PropOp54
 70
     1
102
RTVSPost2010Prop55
280
     0
102
RTVSPost2010PropOp55
 70
     1
102
RTVSPost2010Prop56
140
1.0
102
RTVSPost2010PropOp56
 70
     1
102
RTVSPost2010Prop57
140
1.0
102
RTVSPost2010PropOp57
 70
     1
  0
XRECORD
  5
17E
102
{ACAD_REACTORS
330
17D
102
}
330
17D
100
AcDbXrecord
280
     1
102
RTVSPost2010Prop28
280
     0
102
RTVSPost2010PropOp28
 70
     1
102
RTVSPost2010Prop29
280
     1
102
RTVSPost2010PropOp29
 70
     1
102
RTVSPost2010Prop30
280
     1
102
RTVSPost2010PropOp30
 70
     1
102
RTVSPost2010Prop31
280
     0
102
RTVSPost2010PropOp31
 70
     1
102
RTVSPost2010Prop32
280
     0
102
RTVSPost2010PropOp32
 70
     1
102
RTVSPost2010Prop33
280
     0
102
RTVSPost2010PropOp33
 70
     1
102
RTVSPost2010Prop34
280
     0
102
RTVSPost2010PropOp34
 70
     1
102
RTVSPost2010Prop35
280
     0
102
RTVSPost2010PropOp35
 70
     1
102
RTVSPost2010Prop36
280
     0
102
RTVSPost2010PropOp36
 70
     1
102
RTVSPost2010Prop37
 90
       50
102
RTVSPost2010PropOp37
 70
     1
102
RTVSPost2010Prop38
140
0.0
102
RTVSPost2010PropOp38
 70
     1
102
RTVSPost2010Prop39
140
1.0
102
RTVSPost2010PropOp39
 70
     1
102
RTVSPost2010Prop40
 90
        0
102
RTVSPost2010PropOp40
 70
     1
102
RTVSPost2010Prop41ColorIndex
 90
       18
102
RTVSPost2010Prop41ColorRGB
 90
        0
102
RTVSPost2010PropOp41
 70
     1
102
RTVSPost2010Prop42
 90
       50
102
RTVSPost2010PropOp42
 70
     1
102
RTVSPost2010Prop43
 90
        3
102
RTVSPost2010PropOp43
 70
     1
102
RTVSPost2010Prop44ColorIndex
 90
        5
102
RTVSPost2010Prop44ColorRGB
 90
      255
102
RTVSPost2010PropOp44
 70
     1
102
RTVSPost2010Prop45
280
     0
102
RTVSPost2010PropOp45
 70
     1
102
RTVSPost2010Prop46
 90
       50
102
RTVSPost2010PropOp46
 70
     1
102
RTVSPost2010Prop47
 90
       50
102
RTVSPost2010PropOp47
 70
     1
102
RTVSPost2010Prop48
 90
       50
102
RTVSPost2010PropOp48
 70
     1
102
RTVSPost2010Prop49
280
     0
102
RTVSPost2010PropOp49
 70
     1
102
RTVSPost2010Prop50
 90
       50
102
RTVSPost2010PropOp50
 70
     1
102
RTVSPost2010Prop51ColorIndex
 90
      256
102
RTVSPost2010Prop51ColorRGB
 90
-16777216
102
RTVSPost2010PropOp51
 70
     0
102
RTVSPost2010Prop52
140
1.0
102
RTVSPost2010PropOp52
 70
     0
102
RTVSPost2010Prop53
 90
        2
102
RTVSPost2010PropOp53
 70
     1
102
RTVSPost2010Prop54
  1
strokes_ogs.tif
102
RTVSPost2010PropOp54
 70
     1
102
RTVSPost2010Prop55
280
     0
102
RTVSPost2010PropOp55
 70
     1
102
RTVSPost2010Prop56
140
1.0
102
RTVSPost2010PropOp56
 70
     1
102
RTVSPost2010Prop57
140
1.0
102
RTVSPost2010PropOp57
 70
     1
  0
XRECORD
  5
180
102
{ACAD_REACTORS
330
17F
102
}
330
17F
100
AcDbXrecord
280
     1
102
RTVSPost2010Prop28
280
     0
102
RTVSPost2010PropOp28
 70
     1
102
RTVSPost2010Prop29
280
     1
102
RTVSPost2010PropOp29
 70
     1
102
RTVSPost2010Prop30
280
     1
102
RTVSPost2010PropOp30
 70
     1
102
RTVSPost2010Prop31
280
     0
102
RTVSPost2010PropOp31
 70
     1
102
RTVSPost2010Prop32
280
     0
102
RTVSPost2010PropOp32
 70
     1
102
RTVSPost2010Prop33
280
     0
102
RTVSPost2010PropOp33
 70
     1
102
RTVSPost2010Prop34
280
     0
102
RTVSPost2010PropOp34
 70
     1
102
RTVSPost2010Prop35
280
     0
102
RTVSPost2010PropOp35
 70
     1
102
RTVSPost2010Prop36
280
     0
102
RTVSPost2010PropOp36
 70
     1
102
RTVSPost2010Prop37
 90
       50
102
RTVSPost2010PropOp37
 70
     1
102
RTVSPost2010Prop38
140
0.0
102
RTVSPost2010PropOp38
 70
     1
102
RTVSPost2010Prop39
140
1.0
102
RTVSPost2010PropOp39
 70
     1
102
RTVSPost2010Prop40
 90
        0
102
RTVSPost2010PropOp40
 70
     1
102
RTVSPost2010Prop41ColorIndex
 90
       18
102
RTVSPost2010Prop41ColorRGB
 90
        0
102
RTVSPost2010PropOp41
 70
     1
102
RTVSPost2010Prop42
 90
       50
102
RTVSPost2010PropOp42
 70
     1
102
RTVSPost2010Prop43
 90
        3
102
RTVSPost2010PropOp43
 70
     1
102
RTVSPost2010Prop44ColorIndex
 90
        5
102
RTVSPost2010Prop44ColorRGB
 90
      255
102
RTVSPost2010PropOp44
 70
     1
102
RTVSPost2010Prop45
280
     0
102
RTVSPost2010PropOp45
 70
     1
102
RTVSPost2010Prop46
 90
       50
102
RTVSPost2010PropOp46
 70
     1
102
RTVSPost2010Prop47
 90
       50
102
RTVSPost2010PropOp47
 70
     1
102
RTVSPost2010Prop48
 90
       50
102
RTVSPost2010PropOp48
 70
     1
102
RTVSPost2010Prop49
280
     0
102
RTVSPost2010PropOp49
 70
     1
102
RTVSPost2010Prop50
 90
       50
102
RTVSPost2010PropOp50
 70
     1
102
RTVSPost2010Prop51ColorIndex
 90
      256
102
RTVSPost2010Prop51ColorRGB
 90
-16777216
102
RTVSPost2010PropOp51
 70
     0
102
RTVSPost2010Prop52
140
1.0
102
RTVSPost2010PropOp52
 70
     0
102
RTVSPost2010Prop53
 90
        2
102
RTVSPost2010PropOp53
 70
     1
102
RTVSPost2010Prop54
  1
strokes_ogs.tif
102
RTVSPost2010PropOp54
 70
     1
102
RTVSPost2010Prop55
280
     0
102
RTVSPost2010PropOp55
 70
     1
102
RTVSPost2010Prop56
140
1.0
102
RTVSPost2010PropOp56
 70
     1
102
RTVSPost2010Prop57
140
1.0
102
RTVSPost2010PropOp57
 70
     1
  0
XRECORD
  5
176
102
{ACAD_REACTORS
330
175
102
}
330
175
100
AcDbXrecord
280
     1
102
RTVSPost2010Prop28
280
     0
102
RTVSPost2010PropOp28
 70
     1
102
RTVSPost2010Prop29
280
     1
102
RTVSPost2010PropOp29
 70
     1
102
RTVSPost2010Prop30
280
     1
102
RTVSPost2010PropOp30
 70
     1
102
RTVSPost2010Prop31
280
     0
102
RTVSPost2010PropOp31
 70
     1
102
RTVSPost2010Prop32
280
     0
102
RTVSPost2010PropOp32
 70
     1
102
RTVSPost2010Prop33
280
     0
102
RTVSPost2010PropOp33
 70
     1
102
RTVSPost2010Prop34
280
     0
102
RTVSPost2010PropOp34
 70
     1
102
RTVSPost2010Prop35
280
     0
102
RTVSPost2010PropOp35
 70
     1
102
RTVSPost2010Prop36
280
     0
102
RTVSPost2010PropOp36
 70
     1
102
RTVSPost2010Prop37
 90
       50
102
RTVSPost2010PropOp37
 70
     1
102
RTVSPost2010Prop38
140
0.0
102
RTVSPost2010PropOp38
 70
     1
102
RTVSPost2010Prop39
140
1.0
102
RTVSPost2010PropOp39
 70
     1
102
RTVSPost2010Prop40
 90
        0
102
RTVSPost2010PropOp40
 70
     1
102
RTVSPost2010Prop41ColorIndex
 90
       18
102
RTVSPost2010Prop41ColorRGB
 90
        0
102
RTVSPost2010PropOp41
 70
     1
102
RTVSPost2010Prop42
 90
       50
102
RTVSPost2010PropOp42
 70
     1
102
RTVSPost2010Prop43
 90
        3
102
RTVSPost2010PropOp43
 70
     1
102
RTVSPost2010Prop44ColorIndex
 90
        5
102
RTVSPost2010Prop44ColorRGB
 90
      255
102
RTVSPost2010PropOp44
 70
     1
102
RTVSPost2010Prop45
280
     0
102
RTVSPost2010PropOp45
 70
     1
102
RTVSPost2010Prop46
 90
       50
102
RTVSPost2010PropOp46
 70
     1
102
RTVSPost2010Prop47
 90
       50
102
RTVSPost2010PropOp47
 70
     1
102
RTVSPost2010Prop48
 90
       50
102
RTVSPost2010PropOp48
 70
     1
102
RTVSPost2010Prop49
280
     0
102
RTVSPost2010PropOp49
 70
     1
102
RTVSPost2010Prop50
 90
       50
102
RTVSPost2010PropOp50
 70
     1
102
RTVSPost2010Prop51ColorIndex
 90
      256
102
RTVSPost2010Prop51ColorRGB
 90
-16777216
102
RTVSPost2010PropOp51
 70
     0
102
RTVSPost2010Prop52
140
1.0
102
RTVSPost2010PropOp52
 70
     0
102
RTVSPost2010Prop53
 90
        2
102
RTVSPost2010PropOp53
 70
     1
102
RTVSPost2010Prop54
  1
strokes_ogs.tif
102
RTVSPost2010PropOp54
 70
     1
102
RTVSPost2010Prop55
280
     0
102
RTVSPost2010PropOp55
 70
     1
102
RTVSPost2010Prop56
140
1.0
102
RTVSPost2010PropOp56
 70
     1
102
RTVSPost2010Prop57
140
1.0
102
RTVSPost2010PropOp57
 70
     1
  0
XRECORD
  5
16A
102
{ACAD_REACTORS
330
169
102
}
330
169
100
AcDbXrecord
280
     1
102
RTVSPost2010Prop28
280
     0
102
RTVSPost2010PropOp28
 70
     1
102
RTVSPost2010Prop29
280
     1
102
RTVSPost2010PropOp29
 70
     1
102
RTVSPost2010Prop30
280
     1
102
RTVSPost2010PropOp30
 70
     1
102
RTVSPost2010Prop31
280
     0
102
RTVSPost2010PropOp31
 70
     1
102
RTVSPost2010Prop32
280
     0
102
RTVSPost2010PropOp32
 70
     1
102
RTVSPost2010Prop33
280
     0
102
RTVSPost2010PropOp33
 70
     1
102
RTVSPost2010Prop34
280
     0
102
RTVSPost2010PropOp34
 70
     1
102
RTVSPost2010Prop35
280
     0
102
RTVSPost2010PropOp35
 70
     1
102
RTVSPost2010Prop36
280
     0
102
RTVSPost2010PropOp36
 70
     1
102
RTVSPost2010Prop37
 90
       50
102
RTVSPost2010PropOp37
 70
     1
102
RTVSPost2010Prop38
140
0.0
102
RTVSPost2010PropOp38
 70
     1
102
RTVSPost2010Prop39
140
1.0
102
RTVSPost2010PropOp39
 70
     1
102
RTVSPost2010Prop40
 90
        0
102
RTVSPost2010PropOp40
 70
     1
102
RTVSPost2010Prop41ColorIndex
 90
       18
102
RTVSPost2010Prop41ColorRGB
 90
        0
102
RTVSPost2010PropOp41
 70
     1
102
RTVSPost2010Prop42
 90
       50
102
RTVSPost2010PropOp42
 70
     1
102
RTVSPost2010Prop43
 90
        3
102
RTVSPost2010PropOp43
 70
     1
102
RTVSPost2010Prop44ColorIndex
 90
        5
102
RTVSPost2010Prop44ColorRGB
 90
      255
102
RTVSPost2010PropOp44
 70
     1
102
RTVSPost2010Prop45
280
     0
102
RTVSPost2010PropOp45
 70
     1
102
RTVSPost2010Prop46
 90
       50
102
RTVSPost2010PropOp46
 70
     1
102
RTVSPost2010Prop47
 90
       50
102
RTVSPost2010PropOp47
 70
     1
102
RTVSPost2010Prop48
 90
       50
102
RTVSPost2010PropOp48
 70
     1
102
RTVSPost2010Prop49
280
     0
102
RTVSPost2010PropOp49
 70
     1
102
RTVSPost2010Prop50
 90
       50
102
RTVSPost2010PropOp50
 70
     1
102
RTVSPost2010Prop51ColorIndex
 90
      256
102
RTVSPost2010Prop51ColorRGB
 90
-16777216
102
RTVSPost2010PropOp51
 70
     0
102
RTVSPost2010Prop52
140
1.0
102
RTVSPost2010PropOp52
 70
     0
102
RTVSPost2010Prop53
 90
        2
102
RTVSPost2010PropOp53
 70
     1
102
RTVSPost2010Prop54
  1
strokes_ogs.tif
102
RTVSPost2010PropOp54
 70
     1
102
RTVSPost2010Prop55
280
     0
102
RTVSPost2010PropOp55
 70
     1
102
RTVSPost2010Prop56
140
1.0
102
RTVSPost2010PropOp56
 70
     1
102
RTVSPost2010Prop57
140
1.0
102
RTVSPost2010PropOp57
 70
     1
  0
XRECORD
  5
182
102
{ACAD_REACTORS
330
181
102
}
330
181
100
AcDbXrecord
280
     1
102
RTVSPost2010Prop28
280
     0
102
RTVSPost2010PropOp28
 70
     1
102
RTVSPost2010Prop29
280
     1
102
RTVSPost2010PropOp29
 70
     1
102
RTVSPost2010Prop30
280
     1
102
RTVSPost2010PropOp30
 70
     1
102
RTVSPost2010Prop31
280
     0
102
RTVSPost2010PropOp31
 70
     1
102
RTVSPost2010Prop32
280
     0
102
RTVSPost2010PropOp32
 70
     1
102
RTVSPost2010Prop33
280
     0
102
RTVSPost2010PropOp33
 70
     1
102
RTVSPost2010Prop34
280
     0
102
RTVSPost2010PropOp34
 70
     1
102
RTVSPost2010Prop35
280
     0
102
RTVSPost2010PropOp35
 70
     1
102
RTVSPost2010Prop36
280
     0
102
RTVSPost2010PropOp36
 70
     1
102
RTVSPost2010Prop37
 90
       50
102
RTVSPost2010PropOp37
 70
     1
102
RTVSPost2010Prop38
140
0.0
102
RTVSPost2010PropOp38
 70
     1
102
RTVSPost2010Prop39
140
1.0
102
RTVSPost2010PropOp39
 70
     1
102
RTVSPost2010Prop40
 90
        0
102
RTVSPost2010PropOp40
 70
     1
102
RTVSPost2010Prop41ColorIndex
 90
       18
102
RTVSPost2010Prop41ColorRGB
 90
        0
102
RTVSPost2010PropOp41
 70
     1
102
RTVSPost2010Prop42
 90
       50
102
RTVSPost2010PropOp42
 70
     1
102
RTVSPost2010Prop43
 90
        3
102
RTVSPost2010PropOp43
 70
     1
102
RTVSPost2010Prop44ColorIndex
 90
        5
102
RTVSPost2010Prop44ColorRGB
 90
      255
102
RTVSPost2010PropOp44
 70
     1
102
RTVSPost2010Prop45
280
     0
102
RTVSPost2010PropOp45
 70
     1
102
RTVSPost2010Prop46
 90
       50
102
RTVSPost2010PropOp46
 70
     1
102
RTVSPost2010Prop47
 90
       50
102
RTVSPost2010PropOp47
 70
     1
102
RTVSPost2010Prop48
 90
       50
102
RTVSPost2010PropOp48
 70
     1
102
RTVSPost2010Prop49
280
     0
102
RTVSPost2010PropOp49
 70
     1
102
RTVSPost2010Prop50
 90
       50
102
RTVSPost2010PropOp50
 70
     1
102
RTVSPost2010Prop51ColorIndex
 90
      256
102
RTVSPost2010Prop51ColorRGB
 90
-16777216
102
RTVSPost2010PropOp51
 70
     0
102
RTVSPost2010Prop52
140
1.0
102
RTVSPost2010PropOp52
 70
     0
102
RTVSPost2010Prop53
 90
        2
102
RTVSPost2010PropOp53
 70
     1
102
RTVSPost2010Prop54
  1
strokes_ogs.tif
102
RTVSPost2010PropOp54
 70
     1
102
RTVSPost2010Prop55
280
     0
102
RTVSPost2010PropOp55
 70
     1
102
RTVSPost2010Prop56
140
1.0
102
RTVSPost2010PropOp56
 70
     1
102
RTVSPost2010Prop57
140
1.0
102
RTVSPost2010PropOp57
 70
     1
  0
ENDSEC
  0
EOF
