  0
SECTION
  2
HEADER
  9
$ACADVER
  1
AC1024
  9
$ACADMAINTVER
 70
   226
  9
$DWGCODEPAGE
  3
ANSI_932
  9
$INSBASE
 10
0.0
 20
0.0
 30
0.0
  9
$EXTMIN
 10
1.000000000000000E+20
 20
1.000000000000000E+20
 30
1.000000000000000E+20
  9
$EXTMAX
 10
-1.000000000000000E+20
 20
-1.000000000000000E+20
 30
-1.000000000000000E+20
  9
$LIMMIN
 10
0.0
 20
0.0
  9
$LIMMAX
 10
12.0
 20
9.0
  9
$ORTHOMODE
 70
     0
  9
$REGENMODE
 70
     1
  9
$FILLMODE
 70
     1
  9
$QTEXTMODE
 70
     0
  9
$MIRRTEXT
 70
     0
  9
$LTSCALE
 40
1.0
  9
$ATTMODE
 70
     1
  9
$TEXTSIZE
 40
0.2
  9
$TRACEWID
 40
0.05
  9
$TEXTSTYLE
  7
Standard
  9
$CLAYER
  8
0
  9
$CELTYPE
  6
ByLayer
  9
$CECOLOR
 62
   256
  9
$CELTSCALE
 40
1.0
  9
$DISPSILH
 70
     0
  9
$DIMSCALE
 40
1.0
  9
$DIMASZ
 40
0.18
  9
$DIMEXO
 40
0.0625
  9
$DIMDLI
 40
0.38
  9
$DIMRND
 40
0.0
  9
$DIMDLE
 40
0.0
  9
$DIMEXE
 40
0.18
  9
$DIMTP
 40
0.0
  9
$DIMTM
 40
0.0
  9
$DIMTXT
 40
0.18
  9
$DIMCEN
 40
0.09
  9
$DIMTSZ
 40
0.0
  9
$DIMTOL
 70
     0
  9
$DIMLIM
 70
     0
  9
$DIMTIH
 70
     1
  9
$DIMTOH
 70
     1
  9
$DIMSE1
 70
     0
  9
$DIMSE2
 70
     0
  9
$DIMTAD
 70
     0
  9
$DIMZIN
 70
     0
  9
$DIMBLK
  1

  9
$DIMASO
 70
     1
  9
$DIMSHO
 70
     1
  9
$DIMPOST
  1

  9
$DIMAPOST
  1

  9
$DIMALT
 70
     0
  9
$DIMALTD
 70
     2
  9
$DIMALTF
 40
25.4
  9
$DIMLFAC
 40
1.0
  9
$DIMTOFL
 70
     0
  9
$DIMTVP
 40
0.0
  9
$DIMTIX
 70
     0
  9
$DIMSOXD
 70
     0
  9
$DIMSAH
 70
     0
  9
$DIMBLK1
  1

  9
$DIMBLK2
  1

  9
$DIMSTYLE
  2
Standard
  9
$DIMCLRD
 70
     0
  9
$DIMCLRE
 70
     0
  9
$DIMCLRT
 70
     0
  9
$DIMTFAC
 40
1.0
  9
$DIMGAP
 40
0.09
  9
$DIMJUST
 70
     0
  9
$DIMSD1
 70
     0
  9
$DIMSD2
 70
     0
  9
$DIMTOLJ
 70
     1
  9
$DIMTZIN
 70
     0
  9
$DIMALTZ
 70
     0
  9
$DIMALTTZ
 70
     0
  9
$DIMUPT
 70
     0
  9
$DIMDEC
 70
     4
  9
$DIMTDEC
 70
     4
  9
$DIMALTU
 70
     2
  9
$DIMALTTD
 70
     2
  9
$DIMTXSTY
  7
Standard
  9
$DIMAUNIT
 70
     0
  9
$DIMADEC
 70
     0
  9
$DIMALTRND
 40
0.0
  9
$DIMAZIN
 70
     0
  9
$DIMDSEP
 70
    46
  9
$DIMATFIT
 70
     3
  9
$DIMFRAC
 70
     0
  9
$DIMLDRBLK
  1

  9
$DIMLUNIT
 70
     2
  9
$DIMLWD
 70
    -2
  9
$DIMLWE
 70
    -2
  9
$DIMTMOVE
 70
     0
  9
$DIMFXL
 40
1.0
  9
$DIMFXLON
 70
     0
  9
$DIMJOGANG
 40
0.7853981633974483
  9
$DIMTFILL
 70
     0
  9
$DIMTFILLCLR
 70
     0
  9
$DIMARCSYM
 70
     0
  9
$DIMLTYPE
  6

  9
$DIMLTEX1
  6

  9
$DIMLTEX2
  6

  9
$DIMTXTDIRECTION
 70
     0
  9
$LUNITS
 70
     2
  9
$LUPREC
 70
     4
  9
$SKETCHINC
 40
0.1
  9
$FILLETRAD
 40
0.0
  9
$AUNITS
 70
     0
  9
$AUPREC
 70
     0
  9
$MENU
  1
.
  9
$ELEVATION
 40
0.0
  9
$PELEVATION
 40
0.0
  9
$THICKNESS
 40
0.0
  9
$LIMCHECK
 70
     0
  9
$CHAMFERA
 40
0.0
  9
$CHAMFERB
 40
0.0
  9
$CHAMFERC
 40
0.0
  9
$CHAMFERD
 40
0.0
  9
$SKPOLY
 70
     0
  9
$TDCREATE
 40
2459569.489224537
  9
$TDUCREATE
 40
2459569.114224537
  9
$TDUPDATE
 40
2459569.489224537
  9
$TDUUPDATE
 40
2459569.114224537
  9
$TDINDWG
 40
0.0000000000
  9
$TDUSRTIMER
 40
0.0000000000
  9
$USRTIMER
 70
     1
  9
$ANGBASE
 50
0.0
  9
$ANGDIR
 70
     0
  9
$PDMODE
 70
     0
  9
$PDSIZE
 40
0.0
  9
$PLINEWID
 40
0.0
  9
$SPLFRAME
 70
     0
  9
$SPLINETYPE
 70
     6
  9
$SPLINESEGS
 70
     8
  9
$HANDSEED
  5
186
  9
$SURFTAB1
 70
     6
  9
$SURFTAB2
 70
     6
  9
$SURFTYPE
 70
     6
  9
$SURFU
 70
     6
  9
$SURFV
 70
     6
  9
$UCSBASE
  2

  9
$UCSNAME
  2

  9
$UCSORG
 10
0.0
 20
0.0
 30
0.0
  9
$UCSXDIR
 10
1.0
 20
0.0
 30
0.0
  9
$UCSYDIR
 10
0.0
 20
1.0
 30
0.0
  9
$UCSORTHOREF
  2

  9
$UCSORTHOVIEW
 70
     0
  9
$UCSORGTOP
 10
0.0
 20
0.0
 30
0.0
  9
$UCSORGBOTTOM
 10
0.0
 20
0.0
 30
0.0
  9
$UCSORGLEFT
 10
0.0
 20
0.0
 30
0.0
  9
$UCSORGRIGHT
 10
0.0
 20
0.0
 30
0.0
  9
$UCSORGFRONT
 10
0.0
 20
0.0
 30
0.0
  9
$UCSORGBACK
 10
0.0
 20
0.0
 30
0.0
  9
$PUCSBASE
  2

  9
$PUCSNAME
  2

  9
$PUCSORG
 10
0.0
 20
0.0
 30
0.0
  9
$PUCSXDIR
 10
1.0
 20
0.0
 30
0.0
  9
$PUCSYDIR
 10
0.0
 20
1.0
 30
0.0
  9
$PUCSORTHOREF
  2

  9
$PUCSORTHOVIEW
 70
     0
  9
$PUCSORGTOP
 10
0.0
 20
0.0
 30
0.0
  9
$PUCSORGBOTTOM
 10
0.0
 20
0.0
 30
0.0
  9
$PUCSORGLEFT
 10
0.0
 20
0.0
 30
0.0
  9
$PUCSORGRIGHT
 10
0.0
 20
0.0
 30
0.0
  9
$PUCSORGFRONT
 10
0.0
 20
0.0
 30
0.0
  9
$PUCSORGBACK
 10
0.0
 20
0.0
 30
0.0
  9
$USERI1
 70
     0
  9
$USERI2
 70
     0
  9
$USERI3
 70
     0
  9
$USERI4
 70
     0
  9
$USERI5
 70
     0
  9
$USERR1
 40
0.0
  9
$USERR2
 40
0.0
  9
$USERR3
 40
0.0
  9
$USERR4
 40
0.0
  9
$USERR5
 40
0.0
  9
$WORLDVIEW
 70
     1
  9
$SHADEDGE
 70
     3
  9
$SHADEDIF
 70
    70
  9
$TILEMODE
 70
     1
  9
$MAXACTVP
 70
    64
  9
$PINSBASE
 10
0.0
 20
0.0
 30
0.0
  9
$PLIMCHECK
 70
     0
  9
$PEXTMIN
 10
1.000000000000000E+20
 20
1.000000000000000E+20
 30
1.000000000000000E+20
  9
$PEXTMAX
 10
-1.000000000000000E+20
 20
-1.000000000000000E+20
 30
-1.000000000000000E+20
  9
$PLIMMIN
 10
0.0
 20
0.0
  9
$PLIMMAX
 10
12.0
 20
9.0
  9
$UNITMODE
 70
     0
  9
$VISRETAIN
 70
     1
  9
$PLINEGEN
 70
     0
  9
$PSLTSCALE
 70
     1
  9
$TREEDEPTH
 70
  3020
  9
$CMLSTYLE
  2
Standard
  9
$CMLJUST
 70
     0
  9
$CMLSCALE
 40
1.0
  9
$PROXYGRAPHICS
 70
     1
  9
$MEASUREMENT
 70
     0
  9
$CELWEIGHT
370
    -1
  9
$ENDCAPS
280
     0
  9
$JOINSTYLE
280
     0
  9
$LWDISPLAY
290
     1
  9
$INSUNITS
 70
     4
  9
$HYPERLINKBASE
  1

  9
$STYLESHEET
  1

  9
$XEDIT
290
     1
  9
$CEPSNTYPE
380
     0
  9
$PSTYLEMODE
290
     1
  9
$FINGERPRINTGUID
  2
{33F72F52-A19F-8F46-B582-3370E92B2236}
  9
$VERSIONGUID
  2
{614FDCCF-D44E-174A-A196-B3F628BC6EDF}
  9
$EXTNAMES
290
     1
  9
$PSVPSCALE
 40
0.0
  9
$OLESTARTUP
290
     0
  9
$SORTENTS
280
   127
  9
$INDEXCTL
280
     0
  9
$HIDETEXT
280
     1
  9
$XCLIPFRAME
280
     2
  9
$HALOGAP
280
     0
  9
$OBSCOLOR
 70
   257
  9
$OBSLTYPE
280
     0
  9
$INTERSECTIONDISPLAY
280
     0
  9
$INTERSECTIONCOLOR
 70
   257
  9
$DIMASSOC
280
     2
  9
$PROJECTNAME
  1

  9
$CAMERADISPLAY
290
     0
  9
$LENSLENGTH
 40
50.0
  9
$CAMERAHEIGHT
 40
0.0
  9
$STEPSPERSEC
 40
2.0
  9
$STEPSIZE
 40
6.0
  9
$3DDWFPREC
 40
2.0
  9
$PSOLWIDTH
 40
0.25
  9
$PSOLHEIGHT
 40
4.0
  9
$LOFTANG1
 40
1.570796326794896
  9
$LOFTANG2
 40
1.570796326794896
  9
$LOFTMAG1
 40
0.0
  9
$LOFTMAG2
 40
0.0
  9
$LOFTPARAM
 70
     7
  9
$LOFTNORMALS
280
     1
  9
$LATITUDE
 40
37.795
  9
$LONGITUDE
 40
-122.394
  9
$NORTHDIRECTION
 40
0.0
  9
$TIMEZONE
 70
 -8000
  9
$LIGHTGLYPHDISPLAY
280
     1
  9
$TILEMODELIGHTSYNCH
280
     1
  9
$CMATERIAL
347
11
  9
$SOLIDHIST
280
     0
  9
$SHOWHIST
280
     1
  9
$DWFFRAME
280
     2
  9
$DGNFRAME
280
     0
  9
$REALWORLDSCALE
290
     1
  9
$INTERFERECOLOR
 62
     1
  9
$INTERFEREOBJVS
345
33
  9
$INTERFEREVPVS
346
30
  9
$CSHADOW
280
     0
  9
$SHADOWPLANELOCATION
 40
0.0
  0
ENDSEC
  0
SECTION
  2
CLASSES
  0
CLASS
  1
ACDBDICTIONARYWDFLT
  2
AcDbDictionaryWithDefault
  3
ObjectDBX Classes
 90
        0
 91
        1
280
     0
281
     0
  0
CLASS
  1
MATERIAL
  2
AcDbMaterial
  3
ObjectDBX Classes
 90
     1153
 91
        3
280
     0
281
     0
  0
CLASS
  1
VISUALSTYLE
  2
AcDbVisualStyle
  3
ObjectDBX Classes
 90
     4095
 91
       24
280
     0
281
     0
  0
CLASS
  1
SCALE
  2
AcDbScale
  3
ObjectDBX Classes
 90
     1153
 91
       17
280
     0
281
     0
  0
CLASS
  1
TABLESTYLE
  2
AcDbTableStyle
  3
ObjectDBX Classes
 90
     4095
 91
        1
280
     0
281
     0
  0
CLASS
  1
MLEADERSTYLE
  2
AcDbMLeaderStyle
  3
ACDB_MLEADERSTYLE_CLASS
 90
     4095
 91
        1
280
     0
281
     0
  0
CLASS
  1
ACDBSECTIONVIEWSTYLE
  2
AcDbSectionViewStyle
  3
ObjectDBX Classes
 90
     1025
 91
        1
280
     0
281
     0
  0
CLASS
  1
ACDBDETAILVIEWSTYLE
  2
AcDbDetailViewStyle
  3
ObjectDBX Classes
 90
     1025
 91
        1
280
     0
281
     0
  0
CLASS
  1
DICTIONARYVAR
  2
AcDbDictionaryVar
  3
ObjectDBX Classes
 90
        0
 91
        5
280
     0
281
     0
  0
CLASS
  1
CELLSTYLEMAP
  2
AcDbCellStyleMap
  3
ObjectDBX Classes
 90
     1152
 91
        1
280
     0
281
     0
  0
ENDSEC
  0
SECTION
  2
TABLES
  0
TABLE
  2
VPORT
  5
8
330
0
100
AcDbSymbolTable
 70
     1
  0
VPORT
  5
57
330
8
100
AcDbSymbolTableRecord
100
AcDbViewportTableRecord
  2
*Active
 70
     0
 10
0.0
 20
0.0
 11
1.0
 21
1.0
 12
0.0
 22
0.0
 13
0.0
 23
0.0
 14
1.0
 24
1.0
 15
0.0
 25
0.0
 16
0.0
 26
0.0
 36
1.0
 17
104.9999999737534
 27
-148.4999999628701
 37
0.0
 40
302.939999924255
 41
0.7070707070707534
 42
50.0
 43
0.0
 44
0.0
 50
0.0
 51
0.0
 71
     0
 72
   100
 73
     1
 74
     0
 75
     1
 76
     0
 77
     0
 78
     0
281
     0
 65
     1
110
0.0
120
0.0
130
0.0
111
1.0
121
0.0
131
0.0
112
0.0
122
1.0
132
0.0
 79
     0
146
0.0
 60
     3
 61
     5
292
     1
282
     1
141
0.0
142
0.0
 63
   250
421
  3355443
  0
ENDTAB
  0
TABLE
  2
LTYPE
  5
5
330
0
100
AcDbSymbolTable
 70
     2
  0
LTYPE
  5
5B
330
5
100
AcDbSymbolTableRecord
100
AcDbLinetypeTableRecord
  2
ByBlock
 70
     0
  3

 72
    65
 73
     0
 40
0.0
  0
LTYPE
  5
5C
330
5
100
AcDbSymbolTableRecord
100
AcDbLinetypeTableRecord
  2
ByLayer
 70
     0
  3

 72
    65
 73
     0
 40
0.0
  0
LTYPE
  5
5D
330
5
100
AcDbSymbolTableRecord
100
AcDbLinetypeTableRecord
  2
Continuous
 70
     0
  3
Solid line
 72
    65
 73
     0
 40
0.0
  0
LTYPE
  5
120
330
5
100
AcDbSymbolTableRecord
100
AcDbLinetypeTableRecord
  2
AI-Linetype-0
 70
     0
  3
Adobe Illustrator Linetype No. 0
 72
    65
 73
     2
 40
1.411111110758333
 49
0.7055555553791667
 74
     0
 49
-0.7055555553791667
 74
     0
  0
ENDTAB
  0
TABLE
  2
LAYER
  5
2
330
0
100
AcDbSymbolTable
 70
     2
  0
LAYER
  5
54
330
2
100
AcDbSymbolTableRecord
100
AcDbLayerTableRecord
  2
0
 70
     0
 62
     7
  6
Continuous
370
    -3
390
F
347
21
  0
LAYER
  5
78
330
2
100
AcDbSymbolTableRecord
100
AcDbLayerTableRecord
  2
レイヤー 1
 70
     0
 62
     7
  6
Continuous
370
     0
390
F
347
21
  0
ENDTAB
  0
TABLE
  2
STYLE
  5
3
330
0
100
AcDbSymbolTable
 70
     2
  0
STYLE
  5
55
330
3
100
AcDbSymbolTableRecord
100
AcDbTextStyleTableRecord
  2
Standard
 70
     0
 40
0.0
 41
1.0
 50
0.0
 71
     0
 42
0.2
  3
txt
  4

  0
STYLE
  5
5A
330
3
100
AcDbSymbolTableRecord
100
AcDbTextStyleTableRecord
  2
Annotative
 70
     0
 40
0.0
 41
1.0
 50
0.0
 71
     0
 42
0.2
  3
txt
  4

1001
AcadAnnotative
1000
AnnotativeData
1002
{
1070
     1
1070
     1
1002
}
  0
ENDTAB
  0
TABLE
  2
VIEW
  5
6
330
0
100
AcDbSymbolTable
 70
     0
  0
ENDTAB
  0
TABLE
  2
UCS
  5
7
330
0
100
AcDbSymbolTable
 70
     0
  0
ENDTAB
  0
TABLE
  2
APPID
  5
9
330
0
100
AcDbSymbolTable
 70
     2
  0
APPID
  5
56
330
9
100
AcDbSymbolTableRecord
100
AcDbRegAppTableRecord
  2
ACAD
 70
     0
  0
APPID
  5
5E
330
9
100
AcDbSymbolTableRecord
100
AcDbRegAppTableRecord
  2
AcadAnnotative
 70
     0
  0
ENDTAB
  0
TABLE
  2
DIMSTYLE
  5
A
330
0
100
AcDbSymbolTable
 70
     2
100
AcDbDimStyleTable
 71
     0
  0
DIMSTYLE
105
58
330
A
100
AcDbSymbolTableRecord
100
AcDbDimStyleTableRecord
  2
Standard
 70
     0
340
55
  0
DIMSTYLE
105
59
330
A
100
AcDbSymbolTableRecord
100
AcDbDimStyleTableRecord
  2
Annotative
 70
     0
340
55
1001
AcadAnnotative
1000
AnnotativeData
1002
{
1070
     1
1070
     1
1002
}
  0
ENDTAB
  0
TABLE
  2
BLOCK_RECORD
  5
1
330
0
100
AcDbSymbolTable
 70
    15
  0
BLOCK_RECORD
  5
70
330
1
100
AcDbSymbolTableRecord
100
AcDbBlockTableRecord
  2
*Model_Space
340
73
 70
     0
280
     1
281
     0
  0
BLOCK_RECORD
  5
6C
330
1
100
AcDbSymbolTableRecord
100
AcDbBlockTableRecord
  2
*Paper_Space
340
6F
 70
     0
280
     1
281
     0
  0
BLOCK_RECORD
  5
74
330
1
100
AcDbSymbolTableRecord
100
AcDbBlockTableRecord
  2
*Paper_Space0
340
77
 70
     0
280
     1
281
     0
  0
BLOCK_RECORD
  5
79
330
1
100
AcDbSymbolTableRecord
100
AcDbBlockTableRecord
  2
Block_0
340
0
102
{BLKREFS
331
7A
102
}
 70
     0
280
     1
281
     0
  0
BLOCK_RECORD
  5
B8
330
1
100
AcDbSymbolTableRecord
100
AcDbBlockTableRecord
  2
Block_1
340
0
102
{BLKREFS
331
B9
102
}
 70
     0
280
     1
281
     0
  0
BLOCK_RECORD
  5
BC
330
1
100
AcDbSymbolTableRecord
100
AcDbBlockTableRecord
  2
Block_2
340
0
102
{BLKREFS
331
BD
102
}
 70
     0
280
     1
281
     0
  0
BLOCK_RECORD
  5
C9
330
1
100
AcDbSymbolTableRecord
100
AcDbBlockTableRecord
  2
Block_3
340
0
102
{BLKREFS
331
CA
102
}
 70
     0
280
     1
281
     0
  0
BLOCK_RECORD
  5
CD
330
1
100
AcDbSymbolTableRecord
100
AcDbBlockTableRecord
  2
Block_4
340
0
102
{BLKREFS
331
CE
102
}
 70
     0
280
     1
281
     0
  0
BLOCK_RECORD
  5
D7
330
1
100
AcDbSymbolTableRecord
100
AcDbBlockTableRecord
  2
Block_5
340
0
102
{BLKREFS
331
D8
102
}
 70
     0
280
     1
281
     0
  0
BLOCK_RECORD
  5
E2
330
1
100
AcDbSymbolTableRecord
100
AcDbBlockTableRecord
  2
Block_6
340
0
102
{BLKREFS
331
E3
102
}
 70
     0
280
     1
281
     0
  0
BLOCK_RECORD
  5
ED
330
1
100
AcDbSymbolTableRecord
100
AcDbBlockTableRecord
  2
Block_7
340
0
102
{BLKREFS
331
EE
102
}
 70
     0
280
     1
281
     0
  0
BLOCK_RECORD
  5
F5
330
1
100
AcDbSymbolTableRecord
100
AcDbBlockTableRecord
  2
Block_8
340
0
102
{BLKREFS
331
F6
102
}
 70
     0
280
     1
281
     0
  0
BLOCK_RECORD
  5
FB
330
1
100
AcDbSymbolTableRecord
100
AcDbBlockTableRecord
  2
Block_9
340
0
102
{BLKREFS
331
FC
102
}
 70
     0
280
     1
281
     0
  0
BLOCK_RECORD
  5
121
330
1
100
AcDbSymbolTableRecord
100
AcDbBlockTableRecord
  2
Block_10
340
0
102
{BLKREFS
331
122
102
}
 70
     0
280
     1
281
     0
  0
BLOCK_RECORD
  5
125
330
1
100
AcDbSymbolTableRecord
100
AcDbBlockTableRecord
  2
Block_11
340
0
102
{BLKREFS
331
126
102
}
 70
     0
280
     1
281
     0
  0
BLOCK_RECORD
  5
12C
330
1
100
AcDbSymbolTableRecord
100
AcDbBlockTableRecord
  2
Block_12
340
0
102
{BLKREFS
331
12D
102
}
 70
     0
280
     1
281
     0
  0
BLOCK_RECORD
  5
130
330
1
100
AcDbSymbolTableRecord
100
AcDbBlockTableRecord
  2
Block_13
340
0
102
{BLKREFS
331
131
102
}
 70
     0
280
     1
281
     0
  0
ENDTAB
  0
ENDSEC
  0
SECTION
  2
BLOCKS
  0
BLOCK
  5
71
330
70
100
AcDbEntity
  8
0
100
AcDbBlockBegin
  2
*Model_Space
 70
     0
 10
0.0
 20
0.0
 30
0.0
  3
*Model_Space
  1

  0
ENDBLK
  5
72
330
70
100
AcDbEntity
  8
0
100
AcDbBlockEnd
  0
BLOCK
  5
6D
330
6C
100
AcDbEntity
 67
     1
  8
0
100
AcDbBlockBegin
  2
*Paper_Space
 70
     0
 10
0.0
 20
0.0
 30
0.0
  3
*Paper_Space
  1

  0
ENDBLK
  5
6E
330
6C
100
AcDbEntity
 67
     1
  8
0
100
AcDbBlockEnd
  0
BLOCK
  5
75
330
74
100
AcDbEntity
 67
     1
  8
0
100
AcDbBlockBegin
  2
*Paper_Space0
 70
     0
 10
0.0
 20
0.0
 30
0.0
  3
*Paper_Space0
  1

  0
ENDBLK
  5
76
330
74
100
AcDbEntity
 67
     1
  8
0
100
AcDbBlockEnd
  0
BLOCK
  5
7B
330
79
100
AcDbEntity
  8
0
100
AcDbBlockBegin
  2
Block_0
 70
     0
 10
0.0
 20
0.0
 30
0.0
  3
Block_0
  1

  0
LINE
  5
7D
330
79
100
AcDbEntity
  8
レイヤー 1
 62
   250
420
  2299925
370
    25
100
AcDbLine
 10
108.556712297808
 20
-153.9281213913443
 30
0.0
 11
101.5568766683175
 21
-153.9281213913443
 31
0.0
  0
LINE
  5
7E
330
79
100
AcDbEntity
  8
レイヤー 1
 62
   250
420
  2299925
370
    25
100
AcDbLine
 10
81.55532967859953
 20
-145.4276938934695
 30
0.0
 11
81.55532967859953
 21
-145.9279327822332
 31
0.0
  0
LINE
  5
7F
330
79
100
AcDbEntity
  8
レイヤー 1
 62
   250
420
  2299925
370
    25
100
AcDbLine
 10
101.5568766683175
 20
-145.9279327822332
 30
0.0
 11
81.55532967859953
 21
-145.9279327822332
 31
0.0
  0
LINE
  5
80
330
79
100
AcDbEntity
  8
レイヤー 1
 62
   250
420
  2299925
370
    25
100
AcDbLine
 10
81.55532967859953
 20
-145.4276938934695
 30
0.0
 11
82.0693268877086
 21
-145.8101050044846
 31
0.0
  0
LINE
  5
81
330
79
100
AcDbEntity
  8
レイヤー 1
 62
   250
420
  2299925
370
    25
100
AcDbLine
 10
82.0693268877086
 20
-145.8101050044846
 30
0.0
 11
82.55439631977788
 21
-145.3925572268111
 31
0.0
  0
LINE
  5
82
330
79
100
AcDbEntity
  8
レイヤー 1
 62
   250
420
  2299925
370
    25
100
AcDbLine
 10
83.06842880666382
 20
-145.7742980600495
 30
0.0
 11
83.55416851649348
 21
-145.356750282376
 31
0.0
  0
LINE
  5
83
330
79
100
AcDbEntity
  8
レイヤー 1
 62
   250
420
  2299925
370
    25
100
AcDbLine
 10
82.55439631977788
 20
-145.3925572268111
 30
0.0
 11
83.06842880666382
 21
-145.7742980600495
 31
0.0
  0
LINE
  5
84
330
79
100
AcDbEntity
  8
レイヤー 1
 62
   250
420
  2299925
370
    25
100
AcDbLine
 10
83.55416851649348
 20
-145.356750282376
 30
0.0
 11
84.06820100337972
 21
-145.7384558378363
 31
0.0
  0
LINE
  5
85
330
79
100
AcDbEntity
  8
レイヤー 1
 62
   250
420
  2299925
370
    25
100
AcDbLine
 10
84.06820100337972
 20
-145.7384558378363
 30
0.0
 11
84.55327043544903
 21
-145.3209080601631
 31
0.0
  0
LINE
  5
86
330
79
100
AcDbEntity
  8
レイヤー 1
 62
   250
420
  2299925
370
    25
100
AcDbLine
 10
84.55327043544903
 20
-145.3209080601631
 30
0.0
 11
85.06726764455809
 21
-145.702613615623
 31
0.0
  0
LINE
  5
87
330
79
100
AcDbEntity
  8
レイヤー 1
 62
   250
420
  2299925
370
    25
100
AcDbLine
 10
85.06726764455809
 20
-145.702613615623
 30
0.0
 11
85.55268985439616
 21
-145.2850658379495
 31
0.0
  0
LINE
  5
88
330
79
100
AcDbEntity
  8
レイヤー 1
 62
   250
420
  2299925
370
    25
100
AcDbLine
 10
85.55268985439616
 20
-145.2850658379495
 30
0.0
 11
86.06668706350522
 21
-145.6668066711873
 31
0.0
  0
LINE
  5
89
330
79
100
AcDbEntity
  8
レイヤー 1
 62
   250
420
  2299925
370
    25
100
AcDbLine
 10
86.06668706350522
 20
-145.6668066711873
 30
0.0
 11
86.55210927334328
 21
-145.2492588935138
 31
0.0
  0
LINE
  5
8A
330
79
100
AcDbEntity
  8
レイヤー 1
 62
   250
420
  2299925
370
    25
100
AcDbLine
 10
86.55210927334328
 20
-145.2492588935138
 30
0.0
 11
87.06610648245202
 21
-145.6316700045296
 31
0.0
  0
LINE
  5
8B
330
79
100
AcDbEntity
  8
レイヤー 1
 62
   250
420
  2299925
370
    25
100
AcDbLine
 10
87.06610648245202
 20
-145.6316700045296
 30
0.0
 11
87.55152869229041
 21
-145.214122226856
 31
0.0
  0
LINE
  5
8C
330
79
100
AcDbEntity
  8
レイヤー 1
 62
   250
420
  2299925
370
    25
100
AcDbLine
 10
87.55152869229041
 20
-145.214122226856
 30
0.0
 11
88.0651731236307
 21
-145.5958277823163
 31
0.0
  0
LINE
  5
8D
330
79
100
AcDbEntity
  8
レイヤー 1
 62
   250
420
  2299925
370
    25
100
AcDbLine
 10
88.0651731236307
 20
-145.5958277823163
 30
0.0
 11
88.55094811123754
 21
-145.1782800046428
 31
0.0
  0
LINE
  5
8E
330
79
100
AcDbEntity
  8
レイヤー 1
 62
   250
420
  2299925
370
    25
100
AcDbLine
 10
89.06494532034662
 20
-145.559985560103
 30
0.0
 11
89.55001475241621
 21
-145.1424730602071
 31
0.0
  0
LINE
  5
8F
330
79
100
AcDbEntity
  8
レイヤー 1
 62
   250
420
  2299925
370
    25
100
AcDbLine
 10
88.55094811123754
 20
-145.1782800046428
 30
0.0
 11
89.06494532034662
 21
-145.559985560103
 31
0.0
  0
LINE
  5
90
330
79
100
AcDbEntity
  8
レイヤー 1
 62
   250
420
  2299925
370
    25
100
AcDbLine
 10
89.55001475241621
 20
-145.1424730602071
 30
0.0
 11
90.06404723930184
 21
-145.5241786156673
 31
0.0
  0
LINE
  5
91
330
79
100
AcDbEntity
  8
レイヤー 1
 62
   250
420
  2299925
370
    25
100
AcDbLine
 10
90.06404723930184
 20
-145.5241786156673
 30
0.0
 11
90.54978694913181
 21
-145.1066308379938
 31
0.0
  0
LINE
  5
92
330
79
100
AcDbEntity
  8
レイヤー 1
 62
   250
420
  2299925
370
    25
100
AcDbLine
 10
91.06378415824087
 20
-145.4883363934541
 30
0.0
 11
91.54885359031016
 21
-145.0707886157806
 31
0.0
  0
LINE
  5
93
330
79
100
AcDbEntity
  8
レイヤー 1
 62
   250
420
  2299925
370
    25
100
AcDbLine
 10
90.54978694913181
 20
-145.1066308379938
 30
0.0
 11
91.06378415824087
 21
-145.4883363934541
 31
0.0
  0
LINE
  5
94
330
79
100
AcDbEntity
  8
レイヤー 1
 62
   250
420
  2299925
370
    25
100
AcDbLine
 10
92.0628860771961
 20
-145.4531997267967
 30
0.0
 11
92.54862578702606
 21
-145.0356519491228
 31
0.0
  0
LINE
  5
95
330
79
100
AcDbEntity
  8
レイヤー 1
 62
   250
420
  2299925
370
    25
100
AcDbLine
 10
91.54885359031016
 20
-145.0707886157806
 30
0.0
 11
92.0628860771961
 21
-145.4531997267967
 31
0.0
  0
LINE
  5
96
330
79
100
AcDbEntity
  8
レイヤー 1
 62
   250
420
  2299925
370
    25
100
AcDbLine
 10
92.54862578702606
 20
-145.0356519491228
 30
0.0
 11
93.062658273912
 21
-145.4173575045831
 31
0.0
  0
LINE
  5
97
330
79
100
AcDbEntity
  8
レイヤー 1
 62
   250
420
  2299925
370
    25
100
AcDbLine
 10
93.062658273912
 20
-145.4173575045831
 30
0.0
 11
93.54772770598129
 21
-144.9998450046871
 31
0.0
  0
LINE
  5
98
330
79
100
AcDbEntity
  8
レイヤー 1
 62
   250
420
  2299925
370
    25
100
AcDbLine
 10
93.54772770598129
 20
-144.9998450046871
 30
0.0
 11
94.06172491509037
 21
-145.3815505601474
 31
0.0
  0
LINE
  5
99
330
79
100
AcDbEntity
  8
レイヤー 1
 62
   250
420
  2299925
370
    25
100
AcDbLine
 10
94.06172491509037
 20
-145.3815505601474
 30
0.0
 11
94.54679434715966
 21
-144.9640027824739
 31
0.0
  0
LINE
  5
9A
330
79
100
AcDbEntity
  8
レイヤー 1
 62
   250
420
  2299925
370
    25
100
AcDbLine
 10
94.54679434715966
 20
-144.9640027824739
 30
0.0
 11
95.06079155626871
 21
-145.3457083379341
 31
0.0
  0
LINE
  5
9B
330
79
100
AcDbEntity
  8
レイヤー 1
 62
   250
420
  2299925
370
    25
100
AcDbLine
 10
95.06079155626871
 20
-145.3457083379341
 30
0.0
 11
95.54656654387555
 21
-144.9281605602606
 31
0.0
  0
LINE
  5
9C
330
79
100
AcDbEntity
  8
レイヤー 1
 62
   250
420
  2299925
370
    25
100
AcDbLine
 10
95.54656654387555
 20
-144.9281605602606
 30
0.0
 11
96.06056375298495
 21
-145.3099013934984
 31
0.0
  0
LINE
  5
9D
330
79
100
AcDbEntity
  8
レイヤー 1
 62
   250
420
  2299925
370
    25
100
AcDbLine
 10
96.06056375298495
 20
-145.3099013934984
 30
0.0
 11
96.54563318505392
 21
-144.8923536158255
 31
0.0
  0
LINE
  5
9E
330
79
100
AcDbEntity
  8
レイヤー 1
 62
   250
420
  2299925
370
    25
100
AcDbLine
 10
96.54563318505392
 20
-144.8923536158255
 30
0.0
 11
97.05963039416266
 21
-145.2747647268407
 31
0.0
  0
LINE
  5
9F
330
79
100
AcDbEntity
  8
レイヤー 1
 62
   250
420
  2299925
370
    25
100
AcDbLine
 10
97.05963039416266
 20
-145.2747647268407
 30
0.0
 11
97.54540538177016
 21
-144.8572169491672
 31
0.0
  0
LINE
  5
A0
330
79
100
AcDbEntity
  8
レイヤー 1
 62
   250
420
  2299925
370
    25
100
AcDbLine
 10
97.54540538177016
 20
-144.8572169491672
 30
0.0
 11
98.0594025908789
 21
-145.2389225046274
 31
0.0
  0
LINE
  5
A1
330
79
100
AcDbEntity
  8
レイヤー 1
 62
   250
420
  2299925
370
    25
100
AcDbLine
 10
98.0594025908789
 20
-145.2389225046274
 30
0.0
 11
98.54447202294819
 21
-144.8213747269539
 31
0.0
  0
LINE
  5
A2
330
79
100
AcDbEntity
  8
レイヤー 1
 62
   250
420
  2299925
370
    25
100
AcDbLine
 10
98.54447202294819
 20
-144.8213747269539
 30
0.0
 11
99.05846923205723
 21
-145.2030802824142
 31
0.0
  0
LINE
  5
A3
330
79
100
AcDbEntity
  8
レイヤー 1
 62
   250
420
  2299925
370
    25
100
AcDbLine
 10
99.05846923205723
 20
-145.2030802824142
 30
0.0
 11
99.54424421966407
 21
-144.7855325047407
 31
0.0
  0
LINE
  5
A4
330
79
100
AcDbEntity
  8
レイヤー 1
 62
   250
420
  2299925
370
    25
100
AcDbLine
 10
99.54424421966407
 20
-144.7855325047407
 30
0.0
 11
100.0582414287731
 21
-145.1672733379791
 31
0.0
  0
LINE
  5
A5
330
79
100
AcDbEntity
  8
レイヤー 1
 62
   250
420
  2299925
370
    25
100
AcDbLine
 10
100.0582414287731
 20
-145.1672733379791
 30
0.0
 11
100.5433108608424
 21
-144.7497255603056
 31
0.0
  0
LINE
  5
A6
330
79
100
AcDbEntity
  8
レイヤー 1
 62
   250
420
  2299925
370
    25
100
AcDbLine
 10
100.5433108608424
 20
-144.7497255603056
 30
0.0
 11
101.0573433477287
 21
-145.1314311157658
 31
0.0
  0
LINE
  5
A7
330
79
100
AcDbEntity
  8
レイヤー 1
 62
   250
420
  2299925
370
    25
100
AcDbLine
 10
101.0573433477287
 20
-145.1314311157658
 30
0.0
 11
101.5430830575583
 21
-144.7138833380923
 31
0.0
  0
LINE
  5
A8
330
79
100
AcDbEntity
  8
レイヤー 1
 62
   250
420
  2299925
370
    25
100
AcDbLine
 10
101.6170802667763
 20
-144.6656586158819
 30
0.0
 11
102.5566488650337
 21
-144.6656586158819
 31
0.0
  0
LINE
  5
A9
330
79
100
AcDbEntity
  8
レイヤー 1
 62
   250
420
  2299925
370
    25
100
AcDbLine
 10
102.5566488650337
 20
-144.6656586158819
 30
0.0
 11
102.5566488650337
 21
-152.9276788915944
 31
0.0
  0
LINE
  5
AA
330
79
100
AcDbEntity
  8
レイヤー 1
 62
   250
420
  2299925
370
    25
100
AcDbLine
 10
101.5568766683175
 20
-145.9279327822332
 30
0.0
 11
101.5568766683175
 21
-153.9281213913443
 31
0.0
  0
LINE
  5
AB
330
79
100
AcDbEntity
  8
レイヤー 1
 62
   250
420
  2299925
370
    25
100
AcDbLine
 10
107.5562698233314
 20
-152.9276788915944
 30
0.0
 11
102.5566488650337
 21
-152.9276788915944
 31
0.0
  0
LINE
  5
AC
330
79
100
AcDbEntity
  8
レイヤー 1
 62
   250
420
  2299925
370
    25
100
AcDbLine
 10
107.5562697955163
 20
-144.6656586158819
 30
0.0
 11
107.5562697955163
 21
-152.9276788915944
 31
0.0
  0
LINE
  5
AD
330
79
100
AcDbEntity
  8
レイヤー 1
 62
   250
420
  2299925
370
    25
100
AcDbLine
 10
108.5567122699929
 20
-144.6656586158819
 30
0.0
 11
108.5567122699929
 21
-153.9281213913443
 31
0.0
  0
CIRCLE
  5
AE
330
79
100
AcDbEntity
  8
レイヤー 1
 62
   250
420
  2299925
370
     9
100
AcDbCircle
 10
81.55532967859953
 20
-140.6658994502155
 30
0.0
 40
0.0999066653799771
  0
SPLINE
  5
AF
330
79
100
AcDbEntity
  8
レイヤー 1
 62
   250
420
  2299925
370
     9
100
AcDbSpline
210
0.0
220
0.0
230
1.0
 70
     9
 71
     3
 72
    17
 73
    13
 74
     0
 42
0.0000000001
 43
0.0000000001
 40
0.0
 40
0.0
 40
0.0
 40
0.0
 40
1.0
 40
1.0
 40
1.0
 40
2.0
 40
2.0
 40
2.0
 40
3.0
 40
3.0
 40
3.0
 40
4.0
 40
4.0
 40
4.0
 40
4.0
 10
77.65547727809337
 20
-145.4276938934695
 30
0.0
 10
77.65547727809337
 20
-145.3725900045939
 30
0.0
 10
77.61070977923516
 20
-145.3277872268278
 30
0.0
 10
77.55521783620643
 20
-145.3277872268278
 30
0.0
 10
77.50011394872337
 20
-145.3277872268278
 30
0.0
 10
77.4553111720886
 20
-145.3725900045939
 30
0.0
 10
77.4553111720886
 20
-145.4276938934695
 30
0.0
 10
77.4553111720886
 20
-145.4828330601219
 30
0.0
 10
77.50011394872337
 20
-145.5276005601111
 30
0.0
 10
77.55521783620643
 20
-145.5276005601111
 30
0.0
 10
77.61070977923516
 20
-145.5276005601111
 30
0.0
 10
77.65547727809337
 20
-145.4828330601219
 30
0.0
 10
77.65547727809337
 20
-145.4276938934695
 30
0.0
  0
SPLINE
  5
B0
330
79
100
AcDbEntity
  8
レイヤー 1
 62
   250
420
  2299925
370
     9
100
AcDbSpline
210
0.0
220
0.0
230
1.0
 70
     9
 71
     3
 72
    17
 73
    13
 74
     0
 42
0.0000000001
 43
0.0000000001
 40
0.0
 40
0.0
 40
0.0
 40
0.0
 40
1.0
 40
1.0
 40
1.0
 40
2.0
 40
2.0
 40
2.0
 40
3.0
 40
3.0
 40
3.0
 40
4.0
 40
4.0
 40
4.0
 40
4.0
 10
77.65547727809337
 20
-145.9279327822332
 30
0.0
 10
77.65547727809337
 20
-145.8728288933583
 30
0.0
 10
77.61070977923516
 20
-145.8280261155919
 30
0.0
 10
77.55521783620643
 20
-145.8280261155919
 30
0.0
 10
77.50011394872337
 20
-145.8280261155919
 30
0.0
 10
77.4553111720886
 20
-145.8728288933583
 30
0.0
 10
77.4553111720886
 20
-145.9279327822332
 30
0.0
 10
77.4553111720886
 20
-145.9830719488863
 30
0.0
 10
77.50011394872337
 20
-146.0278394488748
 30
0.0
 10
77.55521783620643
 20
-146.0278394488748
 30
0.0
 10
77.61070977923516
 20
-146.0278394488748
 30
0.0
 10
77.65547727809337
 20
-145.9830719488863
 30
0.0
 10
77.65547727809337
 20
-145.9279327822332
 30
0.0
  0
SPLINE
  5
B1
330
79
100
AcDbEntity
  8
レイヤー 1
 62
   250
420
  2299925
370
     9
100
AcDbSpline
210
0.0
220
0.0
230
1.0
 70
     9
 71
     3
 72
    17
 73
    13
 74
     0
 42
0.0000000001
 43
0.0000000001
 40
0.0
 40
0.0
 40
0.0
 40
0.0
 40
1.0
 40
1.0
 40
1.0
 40
2.0
 40
2.0
 40
2.0
 40
3.0
 40
3.0
 40
3.0
 40
4.0
 40
4.0
 40
4.0
 40
4.0
 10
77.65547727809337
 20
-153.9281213913443
 30
0.0
 10
77.65547727809337
 20
-153.8730175024694
 30
0.0
 10
77.61070977923516
 20
-153.8282147247027
 30
0.0
 10
77.55521783620643
 20
-153.8282147247027
 30
0.0
 10
77.50011394872337
 20
-153.8282147247027
 30
0.0
 10
77.4553111720886
 20
-153.8730175024694
 30
0.0
 10
77.4553111720886
 20
-153.9281213913443
 30
0.0
 10
77.4553111720886
 20
-153.9832605579974
 30
0.0
 10
77.50011394872337
 20
-154.0280633357635
 30
0.0
 10
77.55521783620643
 20
-154.0280633357635
 30
0.0
 10
77.61070977923516
 20
-154.0280633357635
 30
0.0
 10
77.65547727809337
 20
-153.9832605579974
 30
0.0
 10
77.65547727809337
 20
-153.9281213913443
 30
0.0
  0
CIRCLE
  5
B2
330
79
100
AcDbEntity
  8
レイヤー 1
 62
   250
420
  2299925
370
     9
100
AcDbCircle
 10
102.5566488650336
 20
-140.6658994502155
 30
0.0
 40
0.0999066653800573
  0
CIRCLE
  5
B3
330
79
100
AcDbEntity
  8
レイヤー 1
 62
   250
420
  2299925
370
     9
100
AcDbCircle
 10
107.5562697955163
 20
-140.6658994502155
 30
0.0
 40
0.0999066653799771
  0
LINE
  5
B4
330
79
100
AcDbEntity
  8
レイヤー 1
 62
   250
420
  2299925
370
     9
100
AcDbLine
 10
77.55521783620643
 20
-145.4276938934695
 30
0.0
 11
77.55521783620643
 21
-140.1697880614505
 31
0.0
  0
LINE
  5
B5
330
79
100
AcDbEntity
  8
レイヤー 1
 62
   250
420
  2299925
370
     9
100
AcDbLine
 10
77.55521783620643
 20
-145.4276938934695
 30
0.0
 11
77.55521783620643
 21
-145.9279327822332
 31
0.0
  0
LINE
  5
B6
330
79
100
AcDbEntity
  8
レイヤー 1
 62
   250
420
  2299925
370
     9
100
AcDbLine
 10
79.01525918784656
 20
-145.4276938934695
 30
0.0
 11
76.55512813949863
 21
-145.4276938934695
 31
0.0
  0
LINE
  5
B7
330
79
100
AcDbEntity
  8
レイヤー 1
 62
   250
420
  2299925
370
     9
100
AcDbLine
 10
79.01525918784656
 20
-145.9279327822332
 30
0.0
 11
76.55512813949863
 21
-145.9279327822332
 31
0.0
  0
INSERT
  5
B9
330
79
100
AcDbEntity
  8
レイヤー 1
100
AcDbBlockReference
  2
Block_1
 10
0.0
 20
0.0
 30
0.0
  0
LINE
  5
C7
330
79
100
AcDbEntity
  8
レイヤー 1
 62
   250
420
  2299925
370
     9
100
AcDbLine
 10
81.55532967859953
 20
-140.6658994502156
 30
0.0
 11
102.5566488650337
 21
-140.6658994502156
 31
0.0
  0
LINE
  5
C8
330
79
100
AcDbEntity
  8
レイヤー 1
 62
   250
420
  2299925
370
     9
100
AcDbLine
 10
81.55532967859953
 20
-142.8879761163263
 30
0.0
 11
81.55532967859953
 21
-139.6661272282431
 31
0.0
  0
INSERT
  5
CA
330
79
100
AcDbEntity
  8
レイヤー 1
100
AcDbBlockReference
  2
Block_3
 10
0.0
 20
0.0
 30
0.0
  0
LINE
  5
D5
330
79
100
AcDbEntity
  8
レイヤー 1
 62
   250
420
  2299925
370
     9
100
AcDbLine
 10
77.55521783620643
 20
-145.9279327822332
 30
0.0
 11
77.55521783620643
 21
-153.9281213913443
 31
0.0
  0
LINE
  5
D6
330
79
100
AcDbEntity
  8
レイヤー 1
 62
   250
420
  2299925
370
     9
100
AcDbLine
 10
99.01715895533307
 20
-153.9281213913443
 30
0.0
 11
76.55512813949863
 21
-153.9281213913443
 31
0.0
  0
INSERT
  5
D8
330
79
100
AcDbEntity
  8
レイヤー 1
100
AcDbBlockReference
  2
Block_5
 10
0.0
 20
0.0
 30
0.0
  0
LINE
  5
DF
330
79
100
AcDbEntity
  8
レイヤー 1
 62
   250
420
  2299925
370
     9
100
AcDbLine
 10
102.5566488650337
 20
-140.6658994502156
 30
0.0
 11
107.5562698233314
 21
-140.6658994502156
 31
0.0
  0
LINE
  5
E0
330
79
100
AcDbEntity
  8
レイヤー 1
 62
   250
420
  2299925
370
     9
100
AcDbLine
 10
102.5566488650337
 20
-142.1259408387393
 30
0.0
 11
102.5566488650337
 21
-139.6661272282431
 31
0.0
  0
LINE
  5
E1
330
79
100
AcDbEntity
  8
レイヤー 1
 62
   250
420
  2299925
370
     9
100
AcDbLine
 10
107.5562697955163
 20
-142.1259408387393
 30
0.0
 11
107.5562697955163
 21
-139.6661272282431
 31
0.0
  0
INSERT
  5
E3
330
79
100
AcDbEntity
  8
レイヤー 1
100
AcDbBlockReference
  2
Block_6
 10
0.0
 20
0.0
 30
0.0
  0
SPLINE
  5
E8
330
79
100
AcDbEntity
  8
レイヤー 1
 62
   250
420
  2299925
370
     9
100
AcDbSpline
210
0.0
220
0.0
230
1.0
 70
     9
 71
     3
 72
    17
 73
    13
 74
     0
 42
0.0000000001
 43
0.0000000001
 40
0.0
 40
0.0
 40
0.0
 40
0.0
 40
1.0
 40
1.0
 40
1.0
 40
2.0
 40
2.0
 40
2.0
 40
3.0
 40
3.0
 40
3.0
 40
4.0
 40
4.0
 40
4.0
 40
4.0
 10
101.6567833324354
 20
-158.0415808347605
 30
0.0
 10
101.6567833324354
 20
-157.9864769458849
 30
0.0
 10
101.611312964992
 20
-157.9416741681188
 30
0.0
 10
101.55617111278
 20
-157.9416741681188
 30
0.0
 10
101.5010672252969
 20
-157.9416741681188
 30
0.0
 10
101.4562644486621
 20
-157.9864769458849
 30
0.0
 10
101.4562644486621
 20
-158.0415808347605
 30
0.0
 10
101.4562644486621
 20
-158.0967200014129
 30
0.0
 10
101.5010672252969
 20
-158.1414875014021
 30
0.0
 10
101.55617111278
 20
-158.1414875014021
 30
0.0
 10
101.611312964992
 20
-158.1414875014021
 30
0.0
 10
101.6567833324354
 20
-158.0967200014129
 30
0.0
 10
101.6567833324354
 20
-158.0415808347605
 30
0.0
  0
CIRCLE
  5
E9
330
79
100
AcDbEntity
  8
レイヤー 1
 62
   250
420
  2299925
370
     9
100
AcDbCircle
 10
108.5567122699929
 20
-158.0415808347605
 30
0.0
 40
0.0999066653797365
  0
LINE
  5
EA
330
79
100
AcDbEntity
  8
レイヤー 1
 62
   250
420
  2299925
370
     9
100
AcDbLine
 10
108.556712297808
 20
-158.0415808347605
 30
0.0
 11
101.55617111278
 21
-158.0415808347605
 31
0.0
  0
LINE
  5
EB
330
79
100
AcDbEntity
  8
レイヤー 1
 62
   250
420
  2299925
370
     9
100
AcDbLine
 10
108.5567122699929
 20
-156.5815394462368
 30
0.0
 11
108.5567122699929
 21
-159.0413530567324
 31
0.0
  0
LINE
  5
EC
330
79
100
AcDbEntity
  8
レイヤー 1
 62
   250
420
  2299925
370
     9
100
AcDbLine
 10
101.55617111278
 20
-156.5815394462368
 30
0.0
 11
101.55617111278
 21
-159.0413530567324
 31
0.0
  0
INSERT
  5
EE
330
79
100
AcDbEntity
  8
レイヤー 1
100
AcDbBlockReference
  2
Block_7
 10
0.0
 20
0.0
 30
0.0
  0
LINE
  5
F3
330
79
100
AcDbEntity
  8
レイヤー 1
 62
   250
420
  2299925
370
    25
100
AcDbLine
 10
108.5567122699929
 20
-144.6656586158819
 30
0.0
 11
107.5562697955163
 21
-144.6656586158819
 31
0.0
  0
LINE
  5
F4
330
79
100
AcDbEntity
  8
レイヤー 1
 62
   250
420
  2299925
370
     9
100
AcDbLine
 10
105.9981643062501
 20
-150.0730716700858
 30
0.0
 11
113.4983879911604
 21
-150.0730716700858
 31
0.0
  0
INSERT
  5
F6
330
79
100
AcDbEntity
  8
レイヤー 1
100
AcDbBlockReference
  2
Block_8
 10
0.0
 20
0.0
 30
0.0
  0
INSERT
  5
FC
330
79
100
AcDbEntity
  8
レイヤー 1
100
AcDbBlockReference
  2
Block_9
 10
0.0
 20
0.0
 30
0.0
  0
LINE
  5
11F
330
79
100
AcDbEntity
  8
レイヤー 1
  6
AI-Linetype-0
 62
   154
420
    23468
370
    25
100
AcDbLine
 10
81.55532967859953
 20
-146.8036683375694
 30
0.0
 11
91.55506247904064
 21
-146.8036683375694
 31
0.0
  0
INSERT
  5
122
330
79
100
AcDbEntity
  8
レイヤー 1
100
AcDbBlockReference
  2
Block_10
 10
0.0
 20
0.0
 30
0.0
  0
ENDBLK
  5
7C
330
79
100
AcDbEntity
  8
0
100
AcDbBlockEnd
  0
BLOCK
  5
BA
330
B8
100
AcDbEntity
  8
0
100
AcDbBlockBegin
  2
Block_1
 70
     0
 10
0.0
 20
0.0
 30
0.0
  3
Block_1
  1

  0
INSERT
  5
BD
330
B8
100
AcDbEntity
  8
レイヤー 1
100
AcDbBlockReference
  2
Block_2
 10
0.0
 20
0.0
 30
0.0
  0
ENDBLK
  5
BB
330
B8
100
AcDbEntity
  8
0
100
AcDbBlockEnd
  0
BLOCK
  5
BE
330
BC
100
AcDbEntity
  8
0
100
AcDbBlockBegin
  2
Block_2
 70
     0
 10
0.0
 20
0.0
 30
0.0
  3
Block_2
  1

  0
SPLINE
  5
C0
330
BC
100
AcDbEntity
  8
レイヤー 1
100
AcDbSpline
210
0.0
220
0.0
230
1.0
 70
     9
 71
     3
 72
    17
 73
    13
 74
     0
 42
0.0000000001
 43
0.0000000001
 40
0.0
 40
0.0
 40
0.0
 40
0.0
 40
1.0
 40
1.0
 40
1.0
 40
2.0
 40
2.0
 40
2.0
 40
3.0
 40
3.0
 40
3.0
 40
4.0
 40
4.0
 40
4.0
 40
4.0
 10
74.71085745745075
 20
-146.5419595987811
 30
0.0
 10
74.71085745745075
 20
-146.7917290214618
 30
0.0
 10
74.99421656111256
 20
-146.8382378105127
 30
0.0
 10
75.33907061918608
 20
-146.8382378105127
 30
0.0
 10
75.65860322544299
 20
-146.8382378105127
 30
0.0
 10
75.96745603569563
 20
-146.8020643079175
 30
0.0
 10
75.96745603569563
 20
-146.5419595987811
 30
0.0
 10
75.96745603569563
 20
-146.2942572333917
 30
0.0
 10
75.68599173455073
 20
-146.2456813870497
 30
0.0
 10
75.33907061918608
 20
-146.2456813870497
 30
0.0
 10
75.0197102677034
 20
-146.2456813870497
 30
0.0
 10
74.71085745745075
 20
-146.2839219469359
 30
0.0
 10
74.71085745745075
 20
-146.5419595987811
 30
0.0
  0
SPLINE
  5
C1
330
BC
100
AcDbEntity
  8
レイヤー 1
100
AcDbSpline
210
0.0
220
0.0
230
1.0
 70
     9
 71
     3
 72
    29
 73
    25
 74
     0
 42
0.0000000001
 43
0.0000000001
 40
0.0
 40
0.0
 40
0.0
 40
0.0
 40
1.0
 40
1.0
 40
1.0
 40
2.0
 40
2.0
 40
2.0
 40
3.0
 40
3.0
 40
3.0
 40
4.0
 40
4.0
 40
4.0
 40
5.0
 40
5.0
 40
5.0
 40
6.0
 40
6.0
 40
6.0
 40
7.0
 40
7.0
 40
7.0
 40
8.0
 40
8.0
 40
8.0
 40
8.0
 10
75.93352184516593
 20
-146.1440510702348
 30
0.0
 10
76.14298365066912
 20
-146.2522270684717
 30
0.0
 10
76.16210393061226
 20
-146.4255153713797
 30
0.0
 10
76.16210393061226
 20
-146.5419595987811
 30
0.0
 10
76.16210393061226
 20
-146.7028455579423
 30
0.0
 10
76.11559514156138
 20
-146.8444389823861
 30
0.0
 10
75.93352184516593
 20
-146.939523617779
 30
0.0
 10
75.73904620502357
 20
-147.043220991885
 30
0.0
 10
75.50202363563838
 20
-147.0625135266024
 30
0.0
 10
75.33907061918608
 20
-147.0625135266024
 30
0.0
 10
75.19523788267689
 20
-147.0625135266024
 30
0.0
 10
74.94357365747939
 20
-147.0452880491762
 30
0.0
 10
74.74461939320621
 20
-146.939523617779
 30
0.0
 10
74.54153101435074
 20
-146.8316921290907
 30
0.0
 10
74.5182766198253
 20
-146.6708061699295
 30
0.0
 10
74.5182766198253
 20
-146.5419595987811
 30
0.0
 10
74.5182766198253
 20
-146.3831406969111
 30
0.0
 10
74.56271835158502
 20
-146.2394802151762
 30
0.0
 10
74.74461939320621
 20
-146.1440510702348
 30
0.0
 10
74.93720023083167
 20
-146.0448323202596
 30
0.0
 10
75.16561006150374
 20
-146.0214056709599
 30
0.0
 10
75.33907061918608
 20
-146.0214056709599
 30
0.0
 10
75.51046411957725
 20
-146.0214056709599
 30
0.0
 10
75.74111326231473
 20
-146.0427652629685
 30
0.0
 10
75.93352184516593
 20
-146.1440510702348
 30
0.0
  0
HATCH
  5
C2
330
BC
100
AcDbEntity
  8
レイヤー 1
 62
   250
420
  2299925
440
 33554687
100
AcDbHatch
 10
0.0
 20
0.0
 30
0.0
210
0.0
220
0.0
230
1.0
  2
SOLID
 70
     1
 71
     1
 91
        2
 92
        1
 93
        1
 72
     4
 94
        3
 73
     0
 74
     0
 95
       17
 96
       13
 40
0.0
 40
0.0
 40
0.0
 40
0.0
 40
1.0
 40
1.0
 40
1.0
 40
2.0
 40
2.0
 40
2.0
 40
3.0
 40
3.0
 40
3.0
 40
4.0
 40
4.0
 40
4.0
 40
4.0
 10
74.71085745745075
 20
-146.5419595987811
 10
74.71085745745075
 20
-146.7917290214618
 10
74.99421656111256
 20
-146.8382378105127
 10
75.33907061918608
 20
-146.8382378105127
 10
75.65860322544299
 20
-146.8382378105127
 10
75.96745603569563
 20
-146.8020643079175
 10
75.96745603569563
 20
-146.5419595987811
 10
75.96745603569563
 20
-146.2942572333917
 10
75.68599173455073
 20
-146.2456813870497
 10
75.33907061918608
 20
-146.2456813870497
 10
75.0197102677034
 20
-146.2456813870497
 10
74.71085745745075
 20
-146.2839219469359
 10
74.71085745745075
 20
-146.5419595987811
 97
        0
 97
        1
330
C0
 92
        1
 93
        1
 72
     4
 94
        3
 73
     0
 74
     0
 95
       29
 96
       25
 40
0.0
 40
0.0
 40
0.0
 40
0.0
 40
1.0
 40
1.0
 40
1.0
 40
2.0
 40
2.0
 40
2.0
 40
3.0
 40
3.0
 40
3.0
 40
4.0
 40
4.0
 40
4.0
 40
5.0
 40
5.0
 40
5.0
 40
6.0
 40
6.0
 40
6.0
 40
7.0
 40
7.0
 40
7.0
 40
8.0
 40
8.0
 40
8.0
 40
8.0
 10
75.93352184516593
 20
-146.1440510702348
 10
76.14298365066912
 20
-146.2522270684717
 10
76.16210393061226
 20
-146.4255153713797
 10
76.16210393061226
 20
-146.5419595987811
 10
76.16210393061226
 20
-146.7028455579423
 10
76.11559514156138
 20
-146.8444389823861
 10
75.93352184516593
 20
-146.939523617779
 10
75.73904620502357
 20
-147.043220991885
 10
75.50202363563838
 20
-147.0625135266024
 10
75.33907061918608
 20
-147.0625135266024
 10
75.19523788267689
 20
-147.0625135266024
 10
74.94357365747939
 20
-147.0452880491762
 10
74.74461939320621
 20
-146.939523617779
 10
74.54153101435074
 20
-146.8316921290907
 10
74.5182766198253
 20
-146.6708061699295
 10
74.5182766198253
 20
-146.5419595987811
 10
74.5182766198253
 20
-146.3831406969111
 10
74.56271835158502
 20
-146.2394802151762
 10
74.74461939320621
 20
-146.1440510702348
 10
74.93720023083167
 20
-146.0448323202596
 10
75.16561006150374
 20
-146.0214056709599
 10
75.33907061918608
 20
-146.0214056709599
 10
75.51046411957725
 20
-146.0214056709599
 10
75.74111326231473
 20
-146.0427652629685
 10
75.93352184516593
 20
-146.1440510702348
 97
        0
 97
        1
330
C1
 75
     2
 76
     1
 98
        1
 10
0.0
 20
0.0
450
        0
451
        0
460
0.0
461
0.0
452
        0
462
0.0
453
        0
470

  0
SPLINE
  5
C3
330
BC
100
AcDbEntity
  8
レイヤー 1
100
AcDbSpline
210
0.0
220
0.0
230
1.0
 70
    11
 71
     3
 72
    17
 73
    13
 74
     0
 42
0.0000000001
 43
0.0000000001
 40
0.0
 40
0.0
 40
0.0
 40
0.0
 40
1.0
 40
1.0
 40
1.0
 40
2.0
 40
2.0
 40
2.0
 40
3.0
 40
3.0
 40
3.0
 40
4.0
 40
4.0
 40
4.0
 40
4.0
 10
76.11128877220481
 20
-145.8050536744862
 30
0.0
 10
76.11128877220481
 20
-145.8050536744862
 30
0.0
 10
75.85962454700731
 20
-145.8050536744862
 30
0.0
 10
75.85962454700731
 20
-145.8050536744862
 30
0.0
 10
75.85962454700731
 20
-145.8050536744862
 30
0.0
 10
75.85962454700731
 20
-145.5532171945145
 30
0.0
 10
75.85962454700731
 20
-145.5532171945145
 30
0.0
 10
75.85962454700731
 20
-145.5532171945145
 30
0.0
 10
76.11128877220481
 20
-145.5532171945145
 30
0.0
 10
76.11128877220481
 20
-145.5532171945145
 30
0.0
 10
76.11128877220481
 20
-145.5532171945145
 30
0.0
 10
76.11128877220481
 20
-145.8050536744862
 30
0.0
 10
76.11128877220481
 20
-145.8050536744862
 30
0.0
  0
HATCH
  5
C4
330
BC
100
AcDbEntity
  8
レイヤー 1
 62
   250
420
  2299925
440
 33554687
100
AcDbHatch
 10
0.0
 20
0.0
 30
0.0
210
0.0
220
0.0
230
1.0
  2
SOLID
 70
     1
 71
     1
 91
        1
 92
        1
 93
        1
 72
     4
 94
        3
 73
     0
 74
     0
 95
       17
 96
       13
 40
0.0
 40
0.0
 40
0.0
 40
0.0
 40
1.0
 40
1.0
 40
1.0
 40
2.0
 40
2.0
 40
2.0
 40
3.0
 40
3.0
 40
3.0
 40
4.0
 40
4.0
 40
4.0
 40
4.0
 10
76.11128877220481
 20
-145.8050536744862
 10
76.11128877220481
 20
-145.8050536744862
 10
75.85962454700731
 20
-145.8050536744862
 10
75.85962454700731
 20
-145.8050536744862
 10
75.85962454700731
 20
-145.8050536744862
 10
75.85962454700731
 20
-145.5532171945145
 10
75.85962454700731
 20
-145.5532171945145
 10
75.85962454700731
 20
-145.5532171945145
 10
76.11128877220481
 20
-145.5532171945145
 10
76.11128877220481
 20
-145.5532171945145
 10
76.11128877220481
 20
-145.5532171945145
 10
76.11128877220481
 20
-145.8050536744862
 10
76.11128877220481
 20
-145.8050536744862
 97
        0
 97
        1
330
C3
 75
     2
 76
     1
 98
        1
 10
0.0
 20
0.0
450
        0
451
        0
460
0.0
461
0.0
452
        0
462
0.0
453
        0
470

  0
SPLINE
  5
C5
330
BC
100
AcDbEntity
  8
レイヤー 1
100
AcDbSpline
210
0.0
220
0.0
230
1.0
 70
     9
 71
     3
 72
    53
 73
    49
 74
     0
 42
0.0000000001
 43
0.0000000001
 40
0.0
 40
0.0
 40
0.0
 40
0.0
 40
1.0
 40
1.0
 40
1.0
 40
2.0
 40
2.0
 40
2.0
 40
3.0
 40
3.0
 40
3.0
 40
4.0
 40
4.0
 40
4.0
 40
5.0
 40
5.0
 40
5.0
 40
6.0
 40
6.0
 40
6.0
 40
7.0
 40
7.0
 40
7.0
 40
8.0
 40
8.0
 40
8.0
 40
9.0
 40
9.0
 40
9.0
 40
10.0
 40
10.0
 40
10.0
 40
11.0
 40
11.0
 40
11.0
 40
12.0
 40
12.0
 40
12.0
 40
13.0
 40
13.0
 40
13.0
 40
14.0
 40
14.0
 40
14.0
 40
15.0
 40
15.0
 40
15.0
 40
16.0
 40
16.0
 40
16.0
 40
16.0
 10
76.16210393061226
 20
-144.8359483144854
 30
0.0
 10
76.16210393061226
 20
-144.9141519820006
 30
0.0
 10
76.14522296273453
 20
-145.0157822988155
 30
0.0
 10
76.08166095103166
 20
-145.1174126156304
 30
0.0
 10
75.97159015027793
 20
-145.2907009185384
 30
0.0
 10
75.84050426706418
 20
-145.312060510547
 30
0.0
 10
75.73267277837586
 20
-145.3310085357158
 30
0.0
 10
75.73267277837586
 20
-145.3310085357158
 30
0.0
 10
75.73267277837586
 20
-145.1087998769172
 30
0.0
 10
75.73267277837586
 20
-145.1087998769172
 30
0.0
 10
75.93145478787478
 20
-145.0540228587018
 30
0.0
 10
75.96108260904792
 20
-144.9268988352961
 30
0.0
 10
75.96108260904792
 20
-144.8338812571943
 30
0.0
 10
75.96108260904792
 20
-144.6943548900417
 30
0.0
 10
75.86169160429847
 20
-144.5420816695936
 30
0.0
 10
75.62897540426984
 20
-144.5420816695936
 30
0.0
 10
75.37300480971578
 20
-144.5420816695936
 30
0.0
 10
75.30324162613947
 20
-144.7219156539237
 30
0.0
 10
75.30324162613947
 20
-144.8424939959074
 30
0.0
 10
75.30324162613947
 20
-144.8741888743717
 30
0.0
 10
75.30324162613947
 20
-145.0157822988155
 30
0.0
 10
75.43226045206208
 20
-145.1046657623349
 30
0.0
 10
75.43226045206208
 20
-145.1046657623349
 30
0.0
 10
75.41314017211894
 20
-145.2803656320827
 30
0.0
 10
75.41314017211894
 20
-145.2803656320827
 30
0.0
 10
75.41314017211894
 20
-145.2803656320827
 30
0.0
 10
74.56702472094157
 20
-145.159787290099
 30
0.0
 10
74.56702472094157
 20
-145.159787290099
 30
0.0
 10
74.56702472094157
 20
-145.159787290099
 30
0.0
 10
74.56702472094157
 20
-144.3811957104325
 30
0.0
 10
74.56702472094157
 20
-144.3811957104325
 30
0.0
 10
74.56702472094157
 20
-144.3811957104325
 30
0.0
 10
74.7616726158582
 20
-144.3811957104325
 30
0.0
 10
74.7616726158582
 20
-144.3811957104325
 30
0.0
 10
74.7616726158582
 20
-144.3811957104325
 30
0.0
 10
74.7616726158582
 20
-144.9968342736466
 30
0.0
 10
74.7616726158582
 20
-144.9968342736466
 30
0.0
 10
74.7616726158582
 20
-144.9968342736466
 30
0.0
 10
75.18473034144688
 20
-145.0622910878664
 30
0.0
 10
75.18473034144688
 20
-145.0622910878664
 30
0.0
 10
75.15079615091716
 20
-145.0009683882289
 30
0.0
 10
75.11066078851401
 20
-144.9186306061315
 30
0.0
 10
75.11066078851401
 20
-144.8001193214389
 30
0.0
 10
75.11066078851401
 20
-144.5462157841759
 30
0.0
 10
75.29686819949175
 20
-144.3091932147907
 30
0.0
 10
75.6098551243267
 20
-144.3091932147907
 30
0.0
 10
75.92732067329248
 20
-144.3091932147907
 30
0.0
 10
76.16210393061226
 20
-144.5334689308805
 30
0.0
 10
76.16210393061226
 20
-144.8359483144854
 30
0.0
  0
HATCH
  5
C6
330
BC
100
AcDbEntity
  8
レイヤー 1
 62
   250
420
  2299925
440
 33554687
100
AcDbHatch
 10
0.0
 20
0.0
 30
0.0
210
0.0
220
0.0
230
1.0
  2
SOLID
 70
     1
 71
     1
 91
        1
 92
        1
 93
        1
 72
     4
 94
        3
 73
     0
 74
     0
 95
       53
 96
       49
 40
0.0
 40
0.0
 40
0.0
 40
0.0
 40
1.0
 40
1.0
 40
1.0
 40
2.0
 40
2.0
 40
2.0
 40
3.0
 40
3.0
 40
3.0
 40
4.0
 40
4.0
 40
4.0
 40
5.0
 40
5.0
 40
5.0
 40
6.0
 40
6.0
 40
6.0
 40
7.0
 40
7.0
 40
7.0
 40
8.0
 40
8.0
 40
8.0
 40
9.0
 40
9.0
 40
9.0
 40
10.0
 40
10.0
 40
10.0
 40
11.0
 40
11.0
 40
11.0
 40
12.0
 40
12.0
 40
12.0
 40
13.0
 40
13.0
 40
13.0
 40
14.0
 40
14.0
 40
14.0
 40
15.0
 40
15.0
 40
15.0
 40
16.0
 40
16.0
 40
16.0
 40
16.0
 10
76.16210393061226
 20
-144.8359483144854
 10
76.16210393061226
 20
-144.9141519820006
 10
76.14522296273453
 20
-145.0157822988155
 10
76.08166095103166
 20
-145.1174126156304
 10
75.97159015027793
 20
-145.2907009185384
 10
75.84050426706418
 20
-145.312060510547
 10
75.73267277837586
 20
-145.3310085357158
 10
75.73267277837586
 20
-145.3310085357158
 10
75.73267277837586
 20
-145.1087998769172
 10
75.73267277837586
 20
-145.1087998769172
 10
75.93145478787478
 20
-145.0540228587018
 10
75.96108260904792
 20
-144.9268988352961
 10
75.96108260904792
 20
-144.8338812571943
 10
75.96108260904792
 20
-144.6943548900417
 10
75.86169160429847
 20
-144.5420816695936
 10
75.62897540426984
 20
-144.5420816695936
 10
75.37300480971578
 20
-144.5420816695936
 10
75.30324162613947
 20
-144.7219156539237
 10
75.30324162613947
 20
-144.8424939959074
 10
75.30324162613947
 20
-144.8741888743717
 10
75.30324162613947
 20
-145.0157822988155
 10
75.43226045206208
 20
-145.1046657623349
 10
75.43226045206208
 20
-145.1046657623349
 10
75.41314017211894
 20
-145.2803656320827
 10
75.41314017211894
 20
-145.2803656320827
 10
75.41314017211894
 20
-145.2803656320827
 10
74.56702472094157
 20
-145.159787290099
 10
74.56702472094157
 20
-145.159787290099
 10
74.56702472094157
 20
-145.159787290099
 10
74.56702472094157
 20
-144.3811957104325
 10
74.56702472094157
 20
-144.3811957104325
 10
74.56702472094157
 20
-144.3811957104325
 10
74.7616726158582
 20
-144.3811957104325
 10
74.7616726158582
 20
-144.3811957104325
 10
74.7616726158582
 20
-144.3811957104325
 10
74.7616726158582
 20
-144.9968342736466
 10
74.7616726158582
 20
-144.9968342736466
 10
74.7616726158582
 20
-144.9968342736466
 10
75.18473034144688
 20
-145.0622910878664
 10
75.18473034144688
 20
-145.0622910878664
 10
75.15079615091716
 20
-145.0009683882289
 10
75.11066078851401
 20
-144.9186306061315
 10
75.11066078851401
 20
-144.8001193214389
 10
75.11066078851401
 20
-144.5462157841759
 10
75.29686819949175
 20
-144.3091932147907
 10
75.6098551243267
 20
-144.3091932147907
 10
75.92732067329248
 20
-144.3091932147907
 10
76.16210393061226
 20
-144.5334689308805
 10
76.16210393061226
 20
-144.8359483144854
 97
        0
 97
        1
330
C5
 75
     2
 76
     1
 98
        1
 10
0.0
 20
0.0
450
        0
451
        0
460
0.0
461
0.0
452
        0
462
0.0
453
        0
470

  0
ENDBLK
  5
BF
330
BC
100
AcDbEntity
  8
0
100
AcDbBlockEnd
  0
BLOCK
  5
CB
330
C9
100
AcDbEntity
  8
0
100
AcDbBlockBegin
  2
Block_3
 70
     0
 10
0.0
 20
0.0
 30
0.0
  3
Block_3
  1

  0
INSERT
  5
CE
330
C9
100
AcDbEntity
  8
レイヤー 1
100
AcDbBlockReference
  2
Block_4
 10
0.0
 20
0.0
 30
0.0
  0
ENDBLK
  5
CC
330
C9
100
AcDbEntity
  8
0
100
AcDbBlockEnd
  0
BLOCK
  5
CF
330
CD
100
AcDbEntity
  8
0
100
AcDbBlockBegin
  2
Block_4
 70
     0
 10
0.0
 20
0.0
 30
0.0
  3
Block_4
  1

  0
SPLINE
  5
D1
330
CD
100
AcDbEntity
  8
レイヤー 1
100
AcDbSpline
210
0.0
220
0.0
230
1.0
 70
     9
 71
     3
 72
    44
 73
    40
 74
     0
 42
0.0000000001
 43
0.0000000001
 40
0.0
 40
0.0
 40
0.0
 40
0.0
 40
1.0
 40
1.0
 40
1.0
 40
2.0
 40
2.0
 40
2.0
 40
3.0
 40
3.0
 40
3.0
 40
4.0
 40
4.0
 40
4.0
 40
5.0
 40
5.0
 40
5.0
 40
6.0
 40
6.0
 40
6.0
 40
7.0
 40
7.0
 40
7.0
 40
8.0
 40
8.0
 40
8.0
 40
9.0
 40
9.0
 40
9.0
 40
10.0
 40
10.0
 40
10.0
 40
11.0
 40
11.0
 40
11.0
 40
12.0
 40
12.0
 40
12.0
 40
13.0
 40
13.0
 40
13.0
 40
13.0
 10
91.5599582019364
 20
-139.3723713844277
 30
0.0
 10
91.34205591249434
 20
-139.5310180315235
 30
0.0
 10
91.24886607961833
 20
-139.6050875844563
 30
0.0
 10
91.20029023327631
 20
-139.7489203209655
 30
0.0
 10
91.20029023327631
 20
-139.7489203209655
 30
0.0
 10
91.97870955816851
 20
-139.7489203209655
 30
0.0
 10
91.97870955816851
 20
-139.7489203209655
 30
0.0
 10
91.97870955816851
 20
-139.7489203209655
 30
0.0
 10
91.97870955816851
 20
-139.9540757571122
 30
0.0
 10
91.97870955816851
 20
-139.9540757571122
 30
0.0
 10
91.97870955816851
 20
-139.9540757571122
 30
0.0
 10
90.95069306536997
 20
-139.9540757571122
 30
0.0
 10
90.95069306536997
 20
-139.9540757571122
 30
0.0
 10
90.98238794383426
 20
-139.5964748457432
 30
0.0
 10
91.047844758054
 20
-139.5182711782281
 30
0.0
 10
91.43300643330496
 20
-139.2199259092054
 30
0.0
 10
91.68897702785901
 20
-139.0211438997065
 30
0.0
 10
91.75443384207875
 20
-138.9534477734214
 30
0.0
 10
91.75443384207875
 20
-138.8159884635599
 30
0.0
 10
91.75443384207875
 20
-138.6974771788673
 30
0.0
 10
91.68260360121129
 20
-138.5662190408792
 30
0.0
 10
91.48588864900352
 20
-138.5662190408792
 30
0.0
 10
91.22561168509291
 20
-138.5662190408792
 30
0.0
 10
91.21717120115404
 20
-138.7968681836167
 30
0.0
 10
91.21286483179749
 20
-138.9133124110182
 30
0.0
 10
91.21286483179749
 20
-138.9133124110182
 30
0.0
 10
90.98876137048199
 20
-138.9133124110182
 30
0.0
 10
90.98876137048199
 20
-138.9133124110182
 30
0.0
 10
90.99720185442084
 20
-138.7863606423867
 30
0.0
 10
91.00770939565085
 20
-138.6742227843418
 30
0.0
 10
91.08815237523144
 20
-138.5557114996492
 30
0.0
 10
91.1980509212109
 20
-138.3949977952623
 30
0.0
 10
91.38425833218866
 20
-138.3610636047326
 30
0.0
 10
91.50070255959011
 20
-138.3610636047326
 30
0.0
 10
91.77786049137846
 20
-138.3610636047326
 30
0.0
 10
91.98508298481623
 20
-138.5452039584192
 30
0.0
 10
91.98508298481623
 20
-138.818055520851
 30
0.0
 10
91.98508298481623
 20
-139.0464653515231
 30
0.0
 10
91.86881101218906
 20
-139.1460286110468
 30
0.0
 10
91.5599582019364
 20
-139.3723713844277
 30
0.0
  0
HATCH
  5
D2
330
CD
100
AcDbEntity
  8
レイヤー 1
 62
   250
420
  2299925
440
 33554687
100
AcDbHatch
 10
0.0
 20
0.0
 30
0.0
210
0.0
220
0.0
230
1.0
  2
SOLID
 70
     1
 71
     1
 91
        1
 92
        1
 93
        1
 72
     4
 94
        3
 73
     0
 74
     0
 95
       44
 96
       40
 40
0.0
 40
0.0
 40
0.0
 40
0.0
 40
1.0
 40
1.0
 40
1.0
 40
2.0
 40
2.0
 40
2.0
 40
3.0
 40
3.0
 40
3.0
 40
4.0
 40
4.0
 40
4.0
 40
5.0
 40
5.0
 40
5.0
 40
6.0
 40
6.0
 40
6.0
 40
7.0
 40
7.0
 40
7.0
 40
8.0
 40
8.0
 40
8.0
 40
9.0
 40
9.0
 40
9.0
 40
10.0
 40
10.0
 40
10.0
 40
11.0
 40
11.0
 40
11.0
 40
12.0
 40
12.0
 40
12.0
 40
13.0
 40
13.0
 40
13.0
 40
13.0
 10
91.5599582019364
 20
-139.3723713844277
 10
91.34205591249434
 20
-139.5310180315235
 10
91.24886607961833
 20
-139.6050875844563
 10
91.20029023327631
 20
-139.7489203209655
 10
91.20029023327631
 20
-139.7489203209655
 10
91.97870955816851
 20
-139.7489203209655
 10
91.97870955816851
 20
-139.7489203209655
 10
91.97870955816851
 20
-139.7489203209655
 10
91.97870955816851
 20
-139.9540757571122
 10
91.97870955816851
 20
-139.9540757571122
 10
91.97870955816851
 20
-139.9540757571122
 10
90.95069306536997
 20
-139.9540757571122
 10
90.95069306536997
 20
-139.9540757571122
 10
90.98238794383426
 20
-139.5964748457432
 10
91.047844758054
 20
-139.5182711782281
 10
91.43300643330496
 20
-139.2199259092054
 10
91.68897702785901
 20
-139.0211438997065
 10
91.75443384207875
 20
-138.9534477734214
 10
91.75443384207875
 20
-138.8159884635599
 10
91.75443384207875
 20
-138.6974771788673
 10
91.68260360121129
 20
-138.5662190408792
 10
91.48588864900352
 20
-138.5662190408792
 10
91.22561168509291
 20
-138.5662190408792
 10
91.21717120115404
 20
-138.7968681836167
 10
91.21286483179749
 20
-138.9133124110182
 10
91.21286483179749
 20
-138.9133124110182
 10
90.98876137048199
 20
-138.9133124110182
 10
90.98876137048199
 20
-138.9133124110182
 10
90.99720185442084
 20
-138.7863606423867
 10
91.00770939565085
 20
-138.6742227843418
 10
91.08815237523144
 20
-138.5557114996492
 10
91.1980509212109
 20
-138.3949977952623
 10
91.38425833218866
 20
-138.3610636047326
 10
91.50070255959011
 20
-138.3610636047326
 10
91.77786049137846
 20
-138.3610636047326
 10
91.98508298481623
 20
-138.5452039584192
 10
91.98508298481623
 20
-138.818055520851
 10
91.98508298481623
 20
-139.0464653515231
 10
91.86881101218906
 20
-139.1460286110468
 10
91.5599582019364
 20
-139.3723713844277
 97
        0
 97
        1
330
D1
 75
     2
 76
     1
 98
        1
 10
0.0
 20
0.0
450
        0
451
        0
460
0.0
461
0.0
452
        0
462
0.0
453
        0
470

  0
SPLINE
  5
D3
330
CD
100
AcDbEntity
  8
レイヤー 1
100
AcDbSpline
210
0.0
220
0.0
230
1.0
 70
    11
 71
     3
 72
    26
 73
    22
 74
     0
 42
0.0000000001
 43
0.0000000001
 40
0.0
 40
0.0
 40
0.0
 40
0.0
 40
1.0
 40
1.0
 40
1.0
 40
2.0
 40
2.0
 40
2.0
 40
3.0
 40
3.0
 40
3.0
 40
4.0
 40
4.0
 40
4.0
 40
5.0
 40
5.0
 40
5.0
 40
6.0
 40
6.0
 40
6.0
 40
7.0
 40
7.0
 40
7.0
 40
7.0
 10
92.59503714047971
 20
-139.9540757571122
 30
0.0
 10
92.59503714047971
 20
-139.9540757571122
 30
0.0
 10
92.59503714047971
 20
-138.8497503993153
 30
0.0
 10
92.59503714047971
 20
-138.8497503993153
 30
0.0
 10
92.59503714047971
 20
-138.8497503993153
 30
0.0
 10
92.26499699299278
 20
-138.8497503993153
 30
0.0
 10
92.26499699299278
 20
-138.8497503993153
 30
0.0
 10
92.26499699299278
 20
-138.8497503993153
 30
0.0
 10
92.26499699299278
 20
-138.7016112934496
 30
0.0
 10
92.26499699299278
 20
-138.7016112934496
 30
0.0
 10
92.59710419777086
 20
-138.6869696376373
 30
0.0
 10
92.64361298682173
 20
-138.524016621185
 30
0.0
 10
92.67324080799488
 20
-138.4098117058489
 30
0.0
 10
92.67324080799488
 20
-138.4098117058489
 30
0.0
 10
92.81931285656948
 20
-138.4098117058489
 30
0.0
 10
92.81931285656948
 20
-138.4098117058489
 30
0.0
 10
92.81931285656948
 20
-138.4098117058489
 30
0.0
 10
92.81931285656948
 20
-139.9540757571122
 30
0.0
 10
92.81931285656948
 20
-139.9540757571122
 30
0.0
 10
92.81931285656948
 20
-139.9540757571122
 30
0.0
 10
92.59503714047971
 20
-139.9540757571122
 30
0.0
 10
92.59503714047971
 20
-139.9540757571122
 30
0.0
  0
HATCH
  5
D4
330
CD
100
AcDbEntity
  8
レイヤー 1
 62
   250
420
  2299925
440
 33554687
100
AcDbHatch
 10
0.0
 20
0.0
 30
0.0
210
0.0
220
0.0
230
1.0
  2
SOLID
 70
     1
 71
     1
 91
        1
 92
        1
 93
        1
 72
     4
 94
        3
 73
     0
 74
     0
 95
       26
 96
       22
 40
0.0
 40
0.0
 40
0.0
 40
0.0
 40
1.0
 40
1.0
 40
1.0
 40
2.0
 40
2.0
 40
2.0
 40
3.0
 40
3.0
 40
3.0
 40
4.0
 40
4.0
 40
4.0
 40
5.0
 40
5.0
 40
5.0
 40
6.0
 40
6.0
 40
6.0
 40
7.0
 40
7.0
 40
7.0
 40
7.0
 10
92.59503714047971
 20
-139.9540757571122
 10
92.59503714047971
 20
-139.9540757571122
 10
92.59503714047971
 20
-138.8497503993153
 10
92.59503714047971
 20
-138.8497503993153
 10
92.59503714047971
 20
-138.8497503993153
 10
92.26499699299278
 20
-138.8497503993153
 10
92.26499699299278
 20
-138.8497503993153
 10
92.26499699299278
 20
-138.8497503993153
 10
92.26499699299278
 20
-138.7016112934496
 10
92.26499699299278
 20
-138.7016112934496
 10
92.59710419777086
 20
-138.6869696376373
 10
92.64361298682173
 20
-138.524016621185
 10
92.67324080799488
 20
-138.4098117058489
 10
92.67324080799488
 20
-138.4098117058489
 10
92.81931285656948
 20
-138.4098117058489
 10
92.81931285656948
 20
-138.4098117058489
 10
92.81931285656948
 20
-138.4098117058489
 10
92.81931285656948
 20
-139.9540757571122
 10
92.81931285656948
 20
-139.9540757571122
 10
92.81931285656948
 20
-139.9540757571122
 10
92.59503714047971
 20
-139.9540757571122
 10
92.59503714047971
 20
-139.9540757571122
 97
        0
 97
        1
330
D3
 75
     2
 76
     1
 98
        1
 10
0.0
 20
0.0
450
        0
451
        0
460
0.0
461
0.0
452
        0
462
0.0
453
        0
470

  0
ENDBLK
  5
D0
330
CD
100
AcDbEntity
  8
0
100
AcDbBlockEnd
  0
BLOCK
  5
D9
330
D7
100
AcDbEntity
  8
0
100
AcDbBlockBegin
  2
Block_5
 70
     0
 10
0.0
 20
0.0
 30
0.0
  3
Block_5
  1

  0
SPLINE
  5
DB
330
D7
100
AcDbEntity
  8
レイヤー 1
100
AcDbSpline
210
0.0
220
0.0
230
1.0
 70
     9
 71
     3
 72
    17
 73
    13
 74
     0
 42
0.0000000001
 43
0.0000000001
 40
0.0
 40
0.0
 40
0.0
 40
0.0
 40
1.0
 40
1.0
 40
1.0
 40
2.0
 40
2.0
 40
2.0
 40
3.0
 40
3.0
 40
3.0
 40
4.0
 40
4.0
 40
4.0
 40
4.0
 10
76.10147025007186
 20
-149.9281439512332
 30
0.0
 10
76.10147025007186
 20
-150.0718044329682
 30
0.0
 10
76.18811440152589
 20
-150.2244221629647
 30
0.0
 10
76.39120278038136
 20
-150.2244221629647
 30
0.0
 10
76.596358216528
 20
-150.2244221629647
 30
0.0
 10
76.69798853334286
 20
-150.097298139559
 30
0.0
 10
76.69798853334286
 20
-149.9281439512332
 30
0.0
 10
76.69798853334286
 20
-149.7421087950297
 30
0.0
 10
76.57534313406798
 20
-149.6318657395017
 30
0.0
 10
76.39757620702908
 20
-149.6318657395017
 30
0.0
 10
76.17536754823047
 20
-149.6318657395017
 30
0.0
 10
76.10147025007186
 20
-149.7948187559541
 30
0.0
 10
76.10147025007186
 20
-149.9281439512332
 30
0.0
  0
SPLINE
  5
DC
330
D7
100
AcDbEntity
  8
レイヤー 1
100
AcDbSpline
210
0.0
220
0.0
230
1.0
 70
     9
 71
     3
 72
    17
 73
    13
 74
     0
 42
0.0000000001
 43
0.0000000001
 40
0.0
 40
0.0
 40
0.0
 40
0.0
 40
1.0
 40
1.0
 40
1.0
 40
2.0
 40
2.0
 40
2.0
 40
3.0
 40
3.0
 40
3.0
 40
4.0
 40
4.0
 40
4.0
 40
4.0
 10
75.44138995509799
 20
-149.9281439512332
 30
0.0
 10
75.44138995509799
 20
-150.0931640249767
 30
0.0
 10
75.53647459049088
 20
-150.1779133739138
 30
0.0
 10
75.67186684306121
 20
-150.1779133739138
 30
0.0
 10
75.79468449711035
 20
-150.1779133739138
 30
0.0
 10
75.91319578180296
 20
-150.1059108782721
 30
0.0
 10
75.91319578180296
 20
-149.9281439512332
 30
0.0
 10
75.91319578180296
 20
-149.7503770241943
 30
0.0
 10
75.79468449711035
 20
-149.6783745285526
 30
0.0
 10
75.67186684306121
 20
-149.6783745285526
 30
0.0
 10
75.53647459049088
 20
-149.6783745285526
 30
0.0
 10
75.44138995509799
 20
-149.7651909347809
 30
0.0
 10
75.44138995509799
 20
-149.9281439512332
 30
0.0
  0
SPLINE
  5
DD
330
D7
100
AcDbEntity
  8
レイヤー 1
100
AcDbSpline
210
0.0
220
0.0
230
1.0
 70
     9
 71
     3
 72
    29
 73
    25
 74
     0
 42
0.0000000001
 43
0.0000000001
 40
0.0
 40
0.0
 40
0.0
 40
0.0
 40
1.0
 40
1.0
 40
1.0
 40
2.0
 40
2.0
 40
2.0
 40
3.0
 40
3.0
 40
3.0
 40
4.0
 40
4.0
 40
4.0
 40
5.0
 40
5.0
 40
5.0
 40
6.0
 40
6.0
 40
6.0
 40
7.0
 40
7.0
 40
7.0
 40
8.0
 40
8.0
 40
8.0
 40
8.0
 10
76.89263642825948
 20
-149.9281439512332
 30
0.0
 10
76.89263642825948
 20
-150.1947943417915
 30
0.0
 10
76.75500486362375
 20
-150.4486978790545
 30
0.0
 10
76.40601669096795
 20
-150.4486978790545
 30
0.0
 10
76.15004609641387
 20
-150.4486978790545
 30
0.0
 10
76.05478920624673
 20
-150.3067599450622
 30
0.0
 10
75.99346650660928
 20
-150.200995513665
 30
0.0
 10
75.93421086426298
 20
-150.3257079702311
 30
0.0
 10
75.82000594892694
 20
-150.4018445804551
 30
0.0
 10
75.65929224454004
 20
-150.4018445804551
 30
0.0
 10
75.38420137004284
 20
-150.4018445804551
 30
0.0
 10
75.24880911747252
 20
-150.2030625709562
 30
0.0
 10
75.24880911747252
 20
-149.9281439512332
 30
0.0
 10
75.24880911747252
 20
-149.6446125927972
 30
0.0
 10
75.3926418539817
 20
-149.4540988124628
 30
0.0
 10
75.65929224454004
 20
-149.4540988124628
 30
0.0
 10
75.82000594892694
 20
-149.4540988124628
 30
0.0
 10
75.93421086426298
 20
-149.5326469895266
 30
0.0
 10
75.99346650660928
 20
-149.6573594460926
 30
0.0
 10
76.04428166501671
 20
-149.5684759825732
 30
0.0
 10
76.13953855518388
 20
-149.4096570807031
 30
0.0
 10
76.40188257638564
 20
-149.4096570807031
 30
0.0
 10
76.77619220085803
 20
-149.4096570807031
 30
0.0
 10
76.89263642825948
 20
-149.6890543245569
 30
0.0
 10
76.89263642825948
 20
-149.9281439512332
 30
0.0
  0
HATCH
  5
DE
330
D7
100
AcDbEntity
  8
レイヤー 1
 62
   250
420
  2299925
440
 33554687
100
AcDbHatch
 10
0.0
 20
0.0
 30
0.0
210
0.0
220
0.0
230
1.0
  2
SOLID
 70
     1
 71
     1
 91
        3
 92
        1
 93
        1
 72
     4
 94
        3
 73
     0
 74
     0
 95
       17
 96
       13
 40
0.0
 40
0.0
 40
0.0
 40
0.0
 40
1.0
 40
1.0
 40
1.0
 40
2.0
 40
2.0
 40
2.0
 40
3.0
 40
3.0
 40
3.0
 40
4.0
 40
4.0
 40
4.0
 40
4.0
 10
76.10147025007186
 20
-149.9281439512332
 10
76.10147025007186
 20
-150.0718044329682
 10
76.18811440152589
 20
-150.2244221629647
 10
76.39120278038136
 20
-150.2244221629647
 10
76.596358216528
 20
-150.2244221629647
 10
76.69798853334286
 20
-150.097298139559
 10
76.69798853334286
 20
-149.9281439512332
 10
76.69798853334286
 20
-149.7421087950297
 10
76.57534313406798
 20
-149.6318657395017
 10
76.39757620702908
 20
-149.6318657395017
 10
76.17536754823047
 20
-149.6318657395017
 10
76.10147025007186
 20
-149.7948187559541
 10
76.10147025007186
 20
-149.9281439512332
 97
        0
 97
        1
330
DB
 92
        1
 93
        1
 72
     4
 94
        3
 73
     0
 74
     0
 95
       17
 96
       13
 40
0.0
 40
0.0
 40
0.0
 40
0.0
 40
1.0
 40
1.0
 40
1.0
 40
2.0
 40
2.0
 40
2.0
 40
3.0
 40
3.0
 40
3.0
 40
4.0
 40
4.0
 40
4.0
 40
4.0
 10
75.44138995509799
 20
-149.9281439512332
 10
75.44138995509799
 20
-150.0931640249767
 10
75.53647459049088
 20
-150.1779133739138
 10
75.67186684306121
 20
-150.1779133739138
 10
75.79468449711035
 20
-150.1779133739138
 10
75.91319578180296
 20
-150.1059108782721
 10
75.91319578180296
 20
-149.9281439512332
 10
75.91319578180296
 20
-149.7503770241943
 10
75.79468449711035
 20
-149.6783745285526
 10
75.67186684306121
 20
-149.6783745285526
 10
75.53647459049088
 20
-149.6783745285526
 10
75.44138995509799
 20
-149.7651909347809
 10
75.44138995509799
 20
-149.9281439512332
 97
        0
 97
        1
330
DC
 92
        1
 93
        1
 72
     4
 94
        3
 73
     0
 74
     0
 95
       29
 96
       25
 40
0.0
 40
0.0
 40
0.0
 40
0.0
 40
1.0
 40
1.0
 40
1.0
 40
2.0
 40
2.0
 40
2.0
 40
3.0
 40
3.0
 40
3.0
 40
4.0
 40
4.0
 40
4.0
 40
5.0
 40
5.0
 40
5.0
 40
6.0
 40
6.0
 40
6.0
 40
7.0
 40
7.0
 40
7.0
 40
8.0
 40
8.0
 40
8.0
 40
8.0
 10
76.89263642825948
 20
-149.9281439512332
 10
76.89263642825948
 20
-150.1947943417915
 10
76.75500486362375
 20
-150.4486978790545
 10
76.40601669096795
 20
-150.4486978790545
 10
76.15004609641387
 20
-150.4486978790545
 10
76.05478920624673
 20
-150.3067599450622
 10
75.99346650660928
 20
-150.200995513665
 10
75.93421086426298
 20
-150.3257079702311
 10
75.82000594892694
 20
-150.4018445804551
 10
75.65929224454004
 20
-150.4018445804551
 10
75.38420137004284
 20
-150.4018445804551
 10
75.24880911747252
 20
-150.2030625709562
 10
75.24880911747252
 20
-149.9281439512332
 10
75.24880911747252
 20
-149.6446125927972
 10
75.3926418539817
 20
-149.4540988124628
 10
75.65929224454004
 20
-149.4540988124628
 10
75.82000594892694
 20
-149.4540988124628
 10
75.93421086426298
 20
-149.5326469895266
 10
75.99346650660928
 20
-149.6573594460926
 10
76.04428166501671
 20
-149.5684759825732
 10
76.13953855518388
 20
-149.4096570807031
 10
76.40188257638564
 20
-149.4096570807031
 10
76.77619220085803
 20
-149.4096570807031
 10
76.89263642825948
 20
-149.6890543245569
 10
76.89263642825948
 20
-149.9281439512332
 97
        0
 97
        1
330
DD
 75
     2
 76
     1
 98
        1
 10
0.0
 20
0.0
450
        0
451
        0
460
0.0
461
0.0
452
        0
462
0.0
453
        0
470

  0
ENDBLK
  5
DA
330
D7
100
AcDbEntity
  8
0
100
AcDbBlockEnd
  0
BLOCK
  5
E4
330
E2
100
AcDbEntity
  8
0
100
AcDbBlockBegin
  2
Block_6
 70
     0
 10
0.0
 20
0.0
 30
0.0
  3
Block_6
  1

  0
SPLINE
  5
E6
330
E2
100
AcDbEntity
  8
レイヤー 1
100
AcDbSpline
210
0.0
220
0.0
230
1.0
 70
     9
 71
     3
 72
    53
 73
    49
 74
     0
 42
0.0000000001
 43
0.0000000001
 40
0.0
 40
0.0
 40
0.0
 40
0.0
 40
1.0
 40
1.0
 40
1.0
 40
2.0
 40
2.0
 40
2.0
 40
3.0
 40
3.0
 40
3.0
 40
4.0
 40
4.0
 40
4.0
 40
5.0
 40
5.0
 40
5.0
 40
6.0
 40
6.0
 40
6.0
 40
7.0
 40
7.0
 40
7.0
 40
8.0
 40
8.0
 40
8.0
 40
9.0
 40
9.0
 40
9.0
 40
10.0
 40
10.0
 40
10.0
 40
11.0
 40
11.0
 40
11.0
 40
12.0
 40
12.0
 40
12.0
 40
13.0
 40
13.0
 40
13.0
 40
14.0
 40
14.0
 40
14.0
 40
15.0
 40
15.0
 40
15.0
 40
16.0
 40
16.0
 40
16.0
 40
16.0
 10
105.0371717402337
 20
-140.0035128773255
 30
0.0
 10
104.9587958179443
 20
-140.0035128773255
 30
0.0
 10
104.8573377559037
 20
-139.9866319094478
 30
0.0
 10
104.7557074390888
 20
-139.9230698977449
 30
0.0
 10
104.5822468814065
 20
-139.8129990969912
 30
0.0
 10
104.5610595441722
 20
-139.6819132137774
 30
0.0
 10
104.5421115190033
 20
-139.5740817250891
 30
0.0
 10
104.5421115190033
 20
-139.5740817250891
 30
0.0
 10
104.7641479230277
 20
-139.5740817250891
 30
0.0
 10
104.7641479230277
 20
-139.5740817250891
 30
0.0
 10
104.8192694507917
 20
-139.772863734588
 30
0.0
 10
104.9462212194231
 20
-139.8024915557612
 30
0.0
 10
105.0392387975249
 20
-139.8024915557612
 30
0.0
 10
105.1787651646775
 20
-139.8024915557612
 30
0.0
 10
105.3312106398998
 20
-139.7031005510117
 30
0.0
 10
105.3312106398998
 20
-139.4703843509831
 30
0.0
 10
105.3312106398998
 20
-139.214413756429
 30
0.0
 10
105.1513766555698
 20
-139.1446505728527
 30
0.0
 10
105.030798313586
 20
-139.1446505728527
 30
0.0
 10
104.9991034351217
 20
-139.1446505728527
 30
0.0
 10
104.8573377559037
 20
-139.1446505728527
 30
0.0
 10
104.7684542923843
 20
-139.2736693987753
 30
0.0
 10
104.7684542923843
 20
-139.2736693987753
 30
0.0
 10
104.5929266774108
 20
-139.2545491188322
 30
0.0
 10
104.5929266774108
 20
-139.2545491188322
 30
0.0
 10
104.5929266774108
 20
-139.2545491188322
 30
0.0
 10
104.7135050193945
 20
-138.4084336676548
 30
0.0
 10
104.7135050193945
 20
-138.4084336676548
 30
0.0
 10
104.7135050193945
 20
-138.4084336676548
 30
0.0
 10
105.4919243442867
 20
-138.4084336676548
 30
0.0
 10
105.4919243442867
 20
-138.4084336676548
 30
0.0
 10
105.4919243442867
 20
-138.4084336676548
 30
0.0
 10
105.4919243442867
 20
-138.6030815625714
 30
0.0
 10
105.4919243442867
 20
-138.6030815625714
 30
0.0
 10
105.4919243442867
 20
-138.6030815625714
 30
0.0
 10
104.8762857810726
 20
-138.6030815625714
 30
0.0
 10
104.8762857810726
 20
-138.6030815625714
 30
0.0
 10
104.8762857810726
 20
-138.6030815625714
 30
0.0
 10
104.8108289668528
 20
-139.0261392881601
 30
0.0
 10
104.8108289668528
 20
-139.0261392881601
 30
0.0
 10
104.8721516664903
 20
-138.9922050976304
 30
0.0
 10
104.954661703362
 20
-138.9520697352272
 30
0.0
 10
105.0730007332803
 20
-138.9520697352272
 30
0.0
 10
105.3269042705432
 20
-138.9520697352272
 30
0.0
 10
105.5639268399285
 20
-139.138277146205
 30
0.0
 10
105.5639268399285
 20
-139.4512640710399
 30
0.0
 10
105.5639268399285
 20
-139.7687296200057
 30
0.0
 10
105.3396511238387
 20
-140.0035128773255
 30
0.0
 10
105.0371717402337
 20
-140.0035128773255
 30
0.0
  0
HATCH
  5
E7
330
E2
100
AcDbEntity
  8
レイヤー 1
 62
   250
420
  2299925
440
 33554687
100
AcDbHatch
 10
0.0
 20
0.0
 30
0.0
210
0.0
220
0.0
230
1.0
  2
SOLID
 70
     1
 71
     1
 91
        1
 92
        1
 93
        1
 72
     4
 94
        3
 73
     0
 74
     0
 95
       53
 96
       49
 40
0.0
 40
0.0
 40
0.0
 40
0.0
 40
1.0
 40
1.0
 40
1.0
 40
2.0
 40
2.0
 40
2.0
 40
3.0
 40
3.0
 40
3.0
 40
4.0
 40
4.0
 40
4.0
 40
5.0
 40
5.0
 40
5.0
 40
6.0
 40
6.0
 40
6.0
 40
7.0
 40
7.0
 40
7.0
 40
8.0
 40
8.0
 40
8.0
 40
9.0
 40
9.0
 40
9.0
 40
10.0
 40
10.0
 40
10.0
 40
11.0
 40
11.0
 40
11.0
 40
12.0
 40
12.0
 40
12.0
 40
13.0
 40
13.0
 40
13.0
 40
14.0
 40
14.0
 40
14.0
 40
15.0
 40
15.0
 40
15.0
 40
16.0
 40
16.0
 40
16.0
 40
16.0
 10
105.0371717402337
 20
-140.0035128773255
 10
104.9587958179443
 20
-140.0035128773255
 10
104.8573377559037
 20
-139.9866319094478
 10
104.7557074390888
 20
-139.9230698977449
 10
104.5822468814065
 20
-139.8129990969912
 10
104.5610595441722
 20
-139.6819132137774
 10
104.5421115190033
 20
-139.5740817250891
 10
104.5421115190033
 20
-139.5740817250891
 10
104.7641479230277
 20
-139.5740817250891
 10
104.7641479230277
 20
-139.5740817250891
 10
104.8192694507917
 20
-139.772863734588
 10
104.9462212194231
 20
-139.8024915557612
 10
105.0392387975249
 20
-139.8024915557612
 10
105.1787651646775
 20
-139.8024915557612
 10
105.3312106398998
 20
-139.7031005510117
 10
105.3312106398998
 20
-139.4703843509831
 10
105.3312106398998
 20
-139.214413756429
 10
105.1513766555698
 20
-139.1446505728527
 10
105.030798313586
 20
-139.1446505728527
 10
104.9991034351217
 20
-139.1446505728527
 10
104.8573377559037
 20
-139.1446505728527
 10
104.7684542923843
 20
-139.2736693987753
 10
104.7684542923843
 20
-139.2736693987753
 10
104.5929266774108
 20
-139.2545491188322
 10
104.5929266774108
 20
-139.2545491188322
 10
104.5929266774108
 20
-139.2545491188322
 10
104.7135050193945
 20
-138.4084336676548
 10
104.7135050193945
 20
-138.4084336676548
 10
104.7135050193945
 20
-138.4084336676548
 10
105.4919243442867
 20
-138.4084336676548
 10
105.4919243442867
 20
-138.4084336676548
 10
105.4919243442867
 20
-138.4084336676548
 10
105.4919243442867
 20
-138.6030815625714
 10
105.4919243442867
 20
-138.6030815625714
 10
105.4919243442867
 20
-138.6030815625714
 10
104.8762857810726
 20
-138.6030815625714
 10
104.8762857810726
 20
-138.6030815625714
 10
104.8762857810726
 20
-138.6030815625714
 10
104.8108289668528
 20
-139.0261392881601
 10
104.8108289668528
 20
-139.0261392881601
 10
104.8721516664903
 20
-138.9922050976304
 10
104.954661703362
 20
-138.9520697352272
 10
105.0730007332803
 20
-138.9520697352272
 10
105.3269042705432
 20
-138.9520697352272
 10
105.5639268399285
 20
-139.138277146205
 10
105.5639268399285
 20
-139.4512640710399
 10
105.5639268399285
 20
-139.7687296200057
 10
105.3396511238387
 20
-140.0035128773255
 10
105.0371717402337
 20
-140.0035128773255
 97
        0
 97
        1
330
E6
 75
     2
 76
     1
 98
        1
 10
0.0
 20
0.0
450
        0
451
        0
460
0.0
461
0.0
452
        0
462
0.0
453
        0
470

  0
ENDBLK
  5
E5
330
E2
100
AcDbEntity
  8
0
100
AcDbBlockEnd
  0
BLOCK
  5
EF
330
ED
100
AcDbEntity
  8
0
100
AcDbBlockBegin
  2
Block_7
 70
     0
 10
0.0
 20
0.0
 30
0.0
  3
Block_7
  1

  0
SPLINE
  5
F1
330
ED
100
AcDbEntity
  8
レイヤー 1
100
AcDbSpline
210
0.0
220
0.0
230
1.0
 70
     9
 71
     3
 72
    26
 73
    22
 74
     0
 42
0.0000000001
 43
0.0000000001
 40
0.0
 40
0.0
 40
0.0
 40
0.0
 40
1.0
 40
1.0
 40
1.0
 40
2.0
 40
2.0
 40
2.0
 40
3.0
 40
3.0
 40
3.0
 40
4.0
 40
4.0
 40
4.0
 40
5.0
 40
5.0
 40
5.0
 40
6.0
 40
6.0
 40
6.0
 40
7.0
 40
7.0
 40
7.0
 40
7.0
 10
104.9672363018832
 20
-157.3299316012925
 30
0.0
 10
104.9672363018832
 20
-157.3299316012925
 30
0.0
 10
104.730213732498
 20
-157.3299316012925
 30
0.0
 10
104.730213732498
 20
-157.3299316012925
 30
0.0
 10
104.7557074390888
 20
-157.0209065362656
 30
0.0
 10
104.9482882767143
 20
-156.502764175284
 30
0.0
 10
105.3544650344252
 20
-155.9970241580493
 30
0.0
 10
105.3544650344252
 20
-155.9970241580493
 30
0.0
 10
104.5166178124125
 20
-155.9970241580493
 30
0.0
 10
104.5166178124125
 20
-155.9970241580493
 30
0.0
 10
104.5166178124125
 20
-155.9970241580493
 30
0.0
 10
104.5166178124125
 20
-155.785495295255
 30
0.0
 10
104.5166178124125
 20
-155.785495295255
 30
0.0
 10
104.5166178124125
 20
-155.785495295255
 30
0.0
 10
105.5914876038104
 20
-155.785495295255
 30
0.0
 10
105.5914876038104
 20
-155.785495295255
 30
0.0
 10
105.5914876038104
 20
-155.785495295255
 30
0.0
 10
105.5914876038104
 20
-155.9970241580493
 30
0.0
 10
105.5914876038104
 20
-155.9970241580493
 30
0.0
 10
105.2676486281969
 20
-156.2871011979074
 30
0.0
 10
105.0009982376386
 20
-156.8793131118218
 30
0.0
 10
104.9672363018832
 20
-157.3299316012925
 30
0.0
  0
HATCH
  5
F2
330
ED
100
AcDbEntity
  8
レイヤー 1
 62
   250
420
  2299925
440
 33554687
100
AcDbHatch
 10
0.0
 20
0.0
 30
0.0
210
0.0
220
0.0
230
1.0
  2
SOLID
 70
     1
 71
     1
 91
        1
 92
        1
 93
        1
 72
     4
 94
        3
 73
     0
 74
     0
 95
       26
 96
       22
 40
0.0
 40
0.0
 40
0.0
 40
0.0
 40
1.0
 40
1.0
 40
1.0
 40
2.0
 40
2.0
 40
2.0
 40
3.0
 40
3.0
 40
3.0
 40
4.0
 40
4.0
 40
4.0
 40
5.0
 40
5.0
 40
5.0
 40
6.0
 40
6.0
 40
6.0
 40
7.0
 40
7.0
 40
7.0
 40
7.0
 10
104.9672363018832
 20
-157.3299316012925
 10
104.9672363018832
 20
-157.3299316012925
 10
104.730213732498
 20
-157.3299316012925
 10
104.730213732498
 20
-157.3299316012925
 10
104.7557074390888
 20
-157.0209065362656
 10
104.9482882767143
 20
-156.502764175284
 10
105.3544650344252
 20
-155.9970241580493
 10
105.3544650344252
 20
-155.9970241580493
 10
104.5166178124125
 20
-155.9970241580493
 10
104.5166178124125
 20
-155.9970241580493
 10
104.5166178124125
 20
-155.9970241580493
 10
104.5166178124125
 20
-155.785495295255
 10
104.5166178124125
 20
-155.785495295255
 10
104.5166178124125
 20
-155.785495295255
 10
105.5914876038104
 20
-155.785495295255
 10
105.5914876038104
 20
-155.785495295255
 10
105.5914876038104
 20
-155.785495295255
 10
105.5914876038104
 20
-155.9970241580493
 10
105.5914876038104
 20
-155.9970241580493
 10
105.2676486281969
 20
-156.2871011979074
 10
105.0009982376386
 20
-156.8793131118218
 10
104.9672363018832
 20
-157.3299316012925
 97
        0
 97
        1
330
F1
 75
     2
 76
     1
 98
        1
 10
0.0
 20
0.0
450
        0
451
        0
460
0.0
461
0.0
452
        0
462
0.0
453
        0
470

  0
ENDBLK
  5
F0
330
ED
100
AcDbEntity
  8
0
100
AcDbBlockEnd
  0
BLOCK
  5
F7
330
F5
100
AcDbEntity
  8
0
100
AcDbBlockBegin
  2
Block_8
 70
     0
 10
0.0
 20
0.0
 30
0.0
  3
Block_8
  1

  0
SPLINE
  5
F9
330
F5
100
AcDbEntity
  8
レイヤー 1
100
AcDbSpline
210
0.0
220
0.0
230
1.0
 70
    11
 71
     3
 72
    26
 73
    22
 74
     0
 42
0.0000000001
 43
0.0000000001
 40
0.0
 40
0.0
 40
0.0
 40
0.0
 40
1.0
 40
1.0
 40
1.0
 40
2.0
 40
2.0
 40
2.0
 40
3.0
 40
3.0
 40
3.0
 40
4.0
 40
4.0
 40
4.0
 40
5.0
 40
5.0
 40
5.0
 40
6.0
 40
6.0
 40
6.0
 40
7.0
 40
7.0
 40
7.0
 40
7.0
 10
110.4583739958229
 20
-149.3066487256941
 30
0.0
 10
110.4583739958229
 20
-149.3066487256941
 30
0.0
 10
110.4583739958229
 20
-148.2024956226716
 30
0.0
 10
110.4583739958229
 20
-148.2024956226716
 30
0.0
 10
110.4583739958229
 20
-148.2024956226716
 30
0.0
 10
110.128333848336
 20
-148.2024956226716
 30
0.0
 10
110.128333848336
 20
-148.2024956226716
 30
0.0
 10
110.128333848336
 20
-148.2024956226716
 30
0.0
 10
110.128333848336
 20
-148.0543565168058
 30
0.0
 10
110.128333848336
 20
-148.0543565168058
 30
0.0
 10
110.4604410531141
 20
-148.0397148609935
 30
0.0
 10
110.5069498421649
 20
-147.8767618445412
 30
0.0
 10
110.5365776633381
 20
-147.7625569292052
 30
0.0
 10
110.5365776633381
 20
-147.7625569292052
 30
0.0
 10
110.6826497119127
 20
-147.7625569292052
 30
0.0
 10
110.6826497119127
 20
-147.7625569292052
 30
0.0
 10
110.6826497119127
 20
-147.7625569292052
 30
0.0
 10
110.6826497119127
 20
-149.3066487256941
 30
0.0
 10
110.6826497119127
 20
-149.3066487256941
 30
0.0
 10
110.6826497119127
 20
-149.3066487256941
 30
0.0
 10
110.4583739958229
 20
-149.3066487256941
 30
0.0
 10
110.4583739958229
 20
-149.3066487256941
 30
0.0
  0
HATCH
  5
FA
330
F5
100
AcDbEntity
  8
レイヤー 1
 62
   250
420
  2299925
440
 33554687
100
AcDbHatch
 10
0.0
 20
0.0
 30
0.0
210
0.0
220
0.0
230
1.0
  2
SOLID
 70
     1
 71
     1
 91
        1
 92
        1
 93
        1
 72
     4
 94
        3
 73
     0
 74
     0
 95
       26
 96
       22
 40
0.0
 40
0.0
 40
0.0
 40
0.0
 40
1.0
 40
1.0
 40
1.0
 40
2.0
 40
2.0
 40
2.0
 40
3.0
 40
3.0
 40
3.0
 40
4.0
 40
4.0
 40
4.0
 40
5.0
 40
5.0
 40
5.0
 40
6.0
 40
6.0
 40
6.0
 40
7.0
 40
7.0
 40
7.0
 40
7.0
 10
110.4583739958229
 20
-149.3066487256941
 10
110.4583739958229
 20
-149.3066487256941
 10
110.4583739958229
 20
-148.2024956226716
 10
110.4583739958229
 20
-148.2024956226716
 10
110.4583739958229
 20
-148.2024956226716
 10
110.128333848336
 20
-148.2024956226716
 10
110.128333848336
 20
-148.2024956226716
 10
110.128333848336
 20
-148.2024956226716
 10
110.128333848336
 20
-148.0543565168058
 10
110.128333848336
 20
-148.0543565168058
 10
110.4604410531141
 20
-148.0397148609935
 10
110.5069498421649
 20
-147.8767618445412
 10
110.5365776633381
 20
-147.7625569292052
 10
110.5365776633381
 20
-147.7625569292052
 10
110.6826497119127
 20
-147.7625569292052
 10
110.6826497119127
 20
-147.7625569292052
 10
110.6826497119127
 20
-147.7625569292052
 10
110.6826497119127
 20
-149.3066487256941
 10
110.6826497119127
 20
-149.3066487256941
 10
110.6826497119127
 20
-149.3066487256941
 10
110.4583739958229
 20
-149.3066487256941
 10
110.4583739958229
 20
-149.3066487256941
 97
        0
 97
        1
330
F9
 75
     2
 76
     1
 98
        1
 10
0.0
 20
0.0
450
        0
451
        0
460
0.0
461
0.0
452
        0
462
0.0
453
        0
470

  0
ENDBLK
  5
F8
330
F5
100
AcDbEntity
  8
0
100
AcDbBlockEnd
  0
BLOCK
  5
FD
330
FB
100
AcDbEntity
  8
0
100
AcDbBlockBegin
  2
Block_9
 70
     0
 10
0.0
 20
0.0
 30
0.0
  3
Block_9
  1

  0
SPLINE
  5
FF
330
FB
100
AcDbEntity
  8
レイヤー 1
 62
   250
420
  2299925
370
     9
100
AcDbSpline
210
0.0
220
0.0
230
1.0
 70
     8
 71
     3
 72
    26
 73
    22
 74
     0
 42
0.0000000001
 43
0.0000000001
 40
0.0
 40
0.0
 40
0.0
 40
0.0
 40
1.0
 40
1.0
 40
1.0
 40
2.0
 40
2.0
 40
2.0
 40
3.0
 40
3.0
 40
3.0
 40
4.0
 40
4.0
 40
4.0
 40
5.0
 40
5.0
 40
5.0
 40
6.0
 40
6.0
 40
6.0
 40
7.0
 40
7.0
 40
7.0
 40
7.0
 10
126.5899518630042
 20
-147.3907258374233
 30
0.0
 10
126.5899518630042
 20
-147.3907258374233
 30
0.0
 10
117.9979081933166
 20
-150.4134669477781
 30
0.0
 10
117.9979081933166
 20
-150.4134669477781
 30
0.0
 10
117.9979081933166
 20
-150.4134669477781
 30
0.0
 10
116.629518506005
 20
-150.6794261143788
 30
0.0
 10
117.1428101595765
 20
-151.1355325031538
 30
0.0
 10
117.1428101595765
 20
-151.1355325031538
 30
0.0
 10
117.4466929296015
 20
-151.3257150031056
 30
0.0
 10
117.9792815271252
 20
-151.5351591697204
 30
0.0
 10
117.9792815271252
 20
-151.5351591697204
 30
0.0
 10
122.9781425107047
 20
-153.5532950025491
 30
0.0
 10
122.9781425107047
 20
-153.5532950025491
 30
0.0
 10
122.9781425107047
 20
-153.5532950025491
 30
0.0
 10
122.9781425107047
 20
-156.6283883351137
 30
0.0
 10
122.9781425107047
 20
-156.6283883351137
 30
0.0
 10
122.9781425107047
 20
-156.6283883351137
 30
0.0
 10
125.6205185544032
 20
-157.9024100014625
 30
0.0
 10
125.6205185544032
 20
-157.9024100014625
 30
0.0
 10
125.6205185544032
 20
-157.9024100014625
 30
0.0
 10
135.8035194057243
 20
-153.4988966692291
 30
0.0
 10
135.8035194057243
 20
-153.4988966692291
 30
0.0
  0
LINE
  5
100
330
FB
100
AcDbEntity
  8
レイヤー 1
 62
   250
420
  2299925
370
     9
100
AcDbLine
 10
125.126488567007
 20
-154.0528636135355
 30
0.0
 11
135.3094894183281
 21
-150.0523988923131
 31
0.0
  0
SPLINE
  5
101
330
FB
100
AcDbEntity
  8
レイヤー 1
 62
   250
420
  2299925
370
     9
100
AcDbSpline
210
0.0
220
0.0
230
1.0
 70
     8
 71
     3
 72
    26
 73
    22
 74
     0
 42
0.0000000001
 43
0.0000000001
 40
0.0
 40
0.0
 40
0.0
 40
0.0
 40
1.0
 40
1.0
 40
1.0
 40
2.0
 40
2.0
 40
2.0
 40
3.0
 40
3.0
 40
3.0
 40
4.0
 40
4.0
 40
4.0
 40
5.0
 40
5.0
 40
5.0
 40
6.0
 40
6.0
 40
6.0
 40
7.0
 40
7.0
 40
7.0
 40
7.0
 10
126.6843551939291
 20
-147.5616113929359
 30
0.0
 10
126.6843551939291
 20
-147.5616113929359
 30
0.0
 10
117.789134309754
 20
-150.6794261143788
 30
0.0
 10
117.789134309754
 20
-150.6794261143788
 30
0.0
 10
117.789134309754
 20
-150.6794261143788
 30
0.0
 10
117.3144012663099
 20
-150.7552027810264
 30
0.0
 10
117.3522895986766
 20
-150.9260883365391
 30
0.0
 10
117.3522895986766
 20
-150.9260883365391
 30
0.0
 10
117.3329926547245
 20
-151.0025705587422
 30
0.0
 10
117.6375457025103
 20
-151.0976441698297
 30
0.0
 10
117.6375457025103
 20
-151.0976441698297
 30
0.0
 10
123.3198783353196
 20
-153.3403936137137
 30
0.0
 10
123.3198783353196
 20
-153.3403936137137
 30
0.0
 10
123.3198783353196
 20
-153.3403936137137
 30
0.0
 10
123.3198783353196
 20
-156.3059494463052
 30
0.0
 10
123.3198783353196
 20
-156.3059494463052
 30
0.0
 10
123.3198783353196
 20
-156.3059494463052
 30
0.0
 10
125.126488567007
 20
-157.1610122238694
 30
0.0
 10
125.126488567007
 20
-157.1610122238694
 30
0.0
 10
125.126488567007
 20
-157.1610122238694
 30
0.0
 10
125.126488567007
 20
-154.0528636135355
 30
0.0
 10
125.126488567007
 20
-154.0528636135355
 30
0.0
  0
LINE
  5
102
330
FB
100
AcDbEntity
  8
レイヤー 1
 62
   250
420
  2299925
370
     9
100
AcDbLine
 10
132.6347283754558
 20
-149.6148838924224
 30
0.0
 11
123.3198783353196
 21
-153.3403936137137
 31
0.0
  0
LINE
  5
103
330
FB
100
AcDbEntity
  8
レイヤー 1
 62
   250
420
  2299925
370
     9
100
AcDbLine
 10
125.6205185544032
 20
-157.9024100014625
 30
0.0
 11
125.6205185544032
 21
-154.2478438912645
 31
0.0
  0
LINE
  5
104
330
FB
100
AcDbEntity
  8
レイヤー 1
 62
   250
420
  2299925
370
     9
100
AcDbLine
 10
123.3198783353196
 20
-156.3059494463052
 30
0.0
 11
125.126488567007
 21
-155.6541219464681
 31
0.0
  0
SPLINE
  5
105
330
FB
100
AcDbEntity
  8
レイヤー 1
 62
   250
420
  2299925
370
     9
100
AcDbSpline
210
0.0
220
0.0
230
1.0
 70
     9
 71
     3
 72
    17
 73
    13
 74
     0
 42
0.0000000001
 43
0.0000000001
 40
0.0
 40
0.0
 40
0.0
 40
0.0
 40
1.0
 40
1.0
 40
1.0
 40
2.0
 40
2.0
 40
2.0
 40
3.0
 40
3.0
 40
3.0
 40
4.0
 40
4.0
 40
4.0
 40
4.0
 10
129.9144942781881
 20
-149.3957736146993
 30
0.0
 10
129.9144942781881
 20
-149.6307236146409
 30
0.0
 10
129.5858112310179
 20
-149.8215763923707
 30
0.0
 10
129.1813515191144
 20
-149.8215763923707
 30
0.0
 10
128.7748490693121
 20
-149.8215763923707
 30
0.0
 10
128.4475737600568
 20
-149.6307236146409
 30
0.0
 10
128.4475737600568
 20
-149.3957736146993
 30
0.0
 10
128.4475737600568
 20
-149.1608236147583
 30
0.0
 10
128.7748490693121
 20
-148.9706411148058
 30
0.0
 10
129.1813515191144
 20
-148.9706411148058
 30
0.0
 10
129.5858112310179
 20
-148.9706411148058
 30
0.0
 10
129.9144942781881
 20
-149.1608236147583
 30
0.0
 10
129.9144942781881
 20
-149.3957736146993
 30
0.0
  0
SPLINE
  5
106
330
FB
100
AcDbEntity
  8
レイヤー 1
 62
   250
420
  2299925
370
     9
100
AcDbSpline
210
0.0
220
0.0
230
1.0
 70
     8
 71
     3
 72
    11
 73
     7
 74
     0
 42
0.0000000001
 43
0.0000000001
 40
0.0
 40
0.0
 40
0.0
 40
0.0
 40
1.0
 40
1.0
 40
1.0
 40
2.0
 40
2.0
 40
2.0
 40
2.0
 10
128.5750323679162
 20
-149.6300533368629
 30
0.0
 10
128.5750323679162
 20
-149.6300533368629
 30
0.0
 10
128.5529837573675
 20
-149.1187725036573
 30
0.0
 10
129.3825759584251
 20
-149.1621994480911
 30
0.0
 10
129.3825759584251
 20
-149.1621994480911
 30
0.0
 10
129.8717728903891
 20
-149.2255936147422
 30
0.0
 10
129.7870003925519
 20
-149.6086750035353
 30
0.0
  0
SPLINE
  5
107
330
FB
100
AcDbEntity
  8
レイヤー 1
 62
   250
420
  2299925
370
     9
100
AcDbSpline
210
0.0
220
0.0
230
1.0
 70
     9
 71
     3
 72
    17
 73
    13
 74
     0
 42
0.0000000001
 43
0.0000000001
 40
0.0
 40
0.0
 40
0.0
 40
0.0
 40
1.0
 40
1.0
 40
1.0
 40
2.0
 40
2.0
 40
2.0
 40
3.0
 40
3.0
 40
3.0
 40
4.0
 40
4.0
 40
4.0
 40
4.0
 10
129.6781331731071
 20
-148.3153916705249
 30
0.0
 10
129.6781331731071
 20
-148.5503416704666
 30
0.0
 10
129.3494854037138
 20
-148.7411944481964
 30
0.0
 10
128.9450256918102
 20
-148.7411944481964
 30
0.0
 10
128.539193513815
 20
-148.7411944481964
 30
0.0
 10
128.2112126549758
 20
-148.5503416704666
 30
0.0
 10
128.2112126549758
 20
-148.3153916705249
 30
0.0
 10
128.2112126549758
 20
-148.0804416705839
 30
0.0
 10
128.539193513815
 20
-147.8895888928535
 30
0.0
 10
128.9450256918102
 20
-147.8895888928535
 30
0.0
 10
129.3494854037138
 20
-147.8895888928535
 30
0.0
 10
129.6781331731071
 20
-148.0804416705839
 30
0.0
 10
129.6781331731071
 20
-148.3153916705249
 30
0.0
  0
SPLINE
  5
108
330
FB
100
AcDbEntity
  8
レイヤー 1
 62
   250
420
  2299925
370
     9
100
AcDbSpline
210
0.0
220
0.0
230
1.0
 70
     8
 71
     3
 72
    11
 73
     7
 74
     0
 42
0.0000000001
 43
0.0000000001
 40
0.0
 40
0.0
 40
0.0
 40
0.0
 40
1.0
 40
1.0
 40
1.0
 40
2.0
 40
2.0
 40
2.0
 40
2.0
 10
128.338706540612
 20
-148.5489658371337
 30
0.0
 10
128.338706540612
 20
-148.5489658371337
 30
0.0
 10
128.3173282078241
 20
-148.038390559483
 30
0.0
 10
129.1469204088816
 20
-148.0818175039168
 30
0.0
 10
129.1469204088816
 20
-148.0818175039168
 30
0.0
 10
129.6354470630849
 20
-148.1445061150123
 30
0.0
 10
129.5506745652477
 20
-148.5282930593609
 30
0.0
  0
SPLINE
  5
109
330
FB
100
AcDbEntity
  8
レイヤー 1
 62
   250
420
  2299925
370
     9
100
AcDbSpline
210
0.0
220
0.0
230
1.0
 70
     9
 71
     3
 72
    17
 73
    13
 74
     0
 42
0.0000000001
 43
0.0000000001
 40
0.0
 40
0.0
 40
0.0
 40
0.0
 40
1.0
 40
1.0
 40
1.0
 40
2.0
 40
2.0
 40
2.0
 40
3.0
 40
3.0
 40
3.0
 40
4.0
 40
4.0
 40
4.0
 40
4.0
 10
120.021547308356
 20
-150.9150463920978
 30
0.0
 10
120.021547308356
 20
-151.1499963920388
 30
0.0
 10
119.6928995389627
 20
-151.3408844475468
 30
0.0
 10
119.2877342715215
 20
-151.3408844475468
 30
0.0
 10
118.8826074051182
 20
-151.3408844475468
 30
0.0
 10
118.5539212346871
 20
-151.1499963920388
 30
0.0
 10
118.5539212346871
 20
-150.9150463920978
 30
0.0
 10
118.5539212346871
 20
-150.6800963921562
 30
0.0
 10
118.8826074051182
 20
-150.4892436144264
 30
0.0
 10
119.2877342715215
 20
-150.4892436144264
 30
0.0
 10
119.6928995389627
 20
-150.4892436144264
 30
0.0
 10
120.021547308356
 20
-150.6800963921562
 30
0.0
 10
120.021547308356
 20
-150.9150463920978
 30
0.0
  0
SPLINE
  5
10A
330
FB
100
AcDbEntity
  8
レイヤー 1
 62
   250
420
  2299925
370
     9
100
AcDbSpline
210
0.0
220
0.0
230
1.0
 70
     8
 71
     3
 72
    11
 73
     7
 74
     0
 42
0.0000000001
 43
0.0000000001
 40
0.0
 40
0.0
 40
0.0
 40
0.0
 40
1.0
 40
1.0
 40
1.0
 40
2.0
 40
2.0
 40
2.0
 40
2.0
 10
118.682085398084
 20
-151.1493261142608
 30
0.0
 10
118.682085398084
 20
-151.1493261142608
 30
0.0
 10
118.6600367875354
 20
-150.6380805588334
 30
0.0
 10
119.489628988593
 20
-150.6814722254891
 30
0.0
 10
119.489628988593
 20
-150.6814722254891
 30
0.0
 10
119.978825920557
 20
-150.7448663921401
 30
0.0
 10
119.8940887004966
 20
-151.1279477809332
 30
0.0
  0
SPLINE
  5
10B
330
FB
100
AcDbEntity
  8
レイヤー 1
 62
   250
420
  2299925
370
     9
100
AcDbSpline
210
0.0
220
0.0
230
1.0
 70
     9
 71
     3
 72
    17
 73
    13
 74
     0
 42
0.0000000001
 43
0.0000000001
 40
0.0
 40
0.0
 40
0.0
 40
0.0
 40
1.0
 40
1.0
 40
1.0
 40
2.0
 40
2.0
 40
2.0
 40
3.0
 40
3.0
 40
3.0
 40
4.0
 40
4.0
 40
4.0
 40
4.0
 10
127.7199696119529
 20
-150.4761555588736
 30
0.0
 10
127.7199696119529
 20
-150.7111055588153
 30
0.0
 10
127.3899107314845
 20
-150.901958336545
 30
0.0
 10
126.9854510195809
 20
-150.901958336545
 30
0.0
 10
126.5810265854542
 20
-150.901958336545
 30
0.0
 10
126.252343538284
 20
-150.7111055588153
 30
0.0
 10
126.252343538284
 20
-150.4761555588736
 30
0.0
 10
126.252343538284
 20
-150.24187583671
 30
0.0
 10
126.5810265854542
 20
-150.0510230589802
 30
0.0
 10
126.9854510195809
 20
-150.0510230589802
 30
0.0
 10
127.3899107314845
 20
-150.0510230589802
 30
0.0
 10
127.7199696119529
 20
-150.24187583671
 30
0.0
 10
127.7199696119529
 20
-150.4761555588736
 30
0.0
  0
SPLINE
  5
10C
330
FB
100
AcDbEntity
  8
レイヤー 1
 62
   250
420
  2299925
370
     9
100
AcDbSpline
210
0.0
220
0.0
230
1.0
 70
     8
 71
     3
 72
    11
 73
     7
 74
     0
 42
0.0000000001
 43
0.0000000001
 40
0.0
 40
0.0
 40
0.0
 40
0.0
 40
1.0
 40
1.0
 40
1.0
 40
2.0
 40
2.0
 40
2.0
 40
2.0
 10
126.3798021461434
 20
-150.7104352810372
 30
0.0
 10
126.3798021461434
 20
-150.7104352810372
 30
0.0
 10
126.3584590911323
 20
-150.1991544478317
 30
0.0
 10
127.1880546252645
 20
-150.2425813922655
 30
0.0
 10
127.1880546252645
 20
-150.2425813922655
 30
0.0
 10
127.6772482241539
 20
-150.3059755589165
 30
0.0
 10
127.5918054485559
 20
-150.6890569477097
 30
0.0
  0
SPLINE
  5
10D
330
FB
100
AcDbEntity
  8
レイヤー 1
 62
   250
420
  2299925
370
     9
100
AcDbSpline
210
0.0
220
0.0
230
1.0
 70
     9
 71
     3
 72
    17
 73
    13
 74
     0
 42
0.0000000001
 43
0.0000000001
 40
0.0
 40
0.0
 40
0.0
 40
0.0
 40
1.0
 40
1.0
 40
1.0
 40
2.0
 40
2.0
 40
2.0
 40
3.0
 40
3.0
 40
3.0
 40
4.0
 40
4.0
 40
4.0
 40
4.0
 10
127.4829382291111
 20
-149.3957736146993
 30
0.0
 10
127.4829382291111
 20
-149.6307236146409
 30
0.0
 10
127.1542904597179
 20
-149.8215763923707
 30
0.0
 10
126.7491251922767
 20
-149.8215763923707
 30
0.0
 10
126.3446654803731
 20
-149.8215763923707
 30
0.0
 10
126.0153121554423
 20
-149.6307236146409
 30
0.0
 10
126.0153121554423
 20
-149.3957736146993
 30
0.0
 10
126.0153121554423
 20
-149.1608236147583
 30
0.0
 10
126.3446654803731
 20
-148.9706411148058
 30
0.0
 10
126.7491251922767
 20
-148.9706411148058
 30
0.0
 10
127.1542904597179
 20
-148.9706411148058
 30
0.0
 10
127.4829382291111
 20
-149.1608236147583
 30
0.0
 10
127.4829382291111
 20
-149.3957736146993
 30
0.0
  0
SPLINE
  5
10E
330
FB
100
AcDbEntity
  8
レイヤー 1
 62
   250
420
  2299925
370
     9
100
AcDbSpline
210
0.0
220
0.0
230
1.0
 70
     8
 71
     3
 72
    11
 73
     7
 74
     0
 42
0.0000000001
 43
0.0000000001
 40
0.0
 40
0.0
 40
0.0
 40
0.0
 40
1.0
 40
1.0
 40
1.0
 40
2.0
 40
2.0
 40
2.0
 40
2.0
 10
126.1441851810801
 20
-149.6300533368629
 30
0.0
 10
126.1441851810801
 20
-149.6300533368629
 30
0.0
 10
126.1221332638282
 20
-149.1187725036573
 30
0.0
 10
126.9510199093482
 20
-149.1621994480911
 30
0.0
 10
126.9510199093482
 20
-149.1621994480911
 30
0.0
 10
127.4402168413122
 20
-149.2255936147422
 30
0.0
 10
127.3554796212518
 20
-149.6086750035353
 30
0.0
  0
SPLINE
  5
10F
330
FB
100
AcDbEntity
  8
レイヤー 1
 62
   250
420
  2299925
370
     9
100
AcDbSpline
210
0.0
220
0.0
230
1.0
 70
     9
 71
     3
 72
    17
 73
    13
 74
     0
 42
0.0000000001
 43
0.0000000001
 40
0.0
 40
0.0
 40
0.0
 40
0.0
 40
1.0
 40
1.0
 40
1.0
 40
2.0
 40
2.0
 40
2.0
 40
3.0
 40
3.0
 40
3.0
 40
4.0
 40
4.0
 40
4.0
 40
4.0
 10
126.9434351873194
 20
-148.4504350038249
 30
0.0
 10
126.9434351873194
 20
-148.6853850037659
 30
0.0
 10
126.6140851809634
 20
-148.8762377814957
 30
0.0
 10
126.209622150485
 20
-148.8762377814957
 30
0.0
 10
125.8044921608208
 20
-148.8762377814957
 30
0.0
 10
125.4751388358899
 20
-148.6853850037659
 30
0.0
 10
125.4751388358899
 20
-148.4504350038249
 30
0.0
 10
125.4751388358899
 20
-148.2154850038833
 30
0.0
 10
125.8044921608208
 20
-148.0253025039308
 30
0.0
 10
126.209622150485
 20
-148.0253025039308
 30
0.0
 10
126.6140851809634
 20
-148.0253025039308
 30
0.0
 10
126.9434351873194
 20
-148.2154850038833
 30
0.0
 10
126.9434351873194
 20
-148.4504350038249
 30
0.0
  0
SPLINE
  5
110
330
FB
100
AcDbEntity
  8
レイヤー 1
 62
   250
420
  2299925
370
     9
100
AcDbSpline
210
0.0
220
0.0
230
1.0
 70
     8
 71
     3
 72
    11
 73
     7
 74
     0
 42
0.0000000001
 43
0.0000000001
 40
0.0
 40
0.0
 40
0.0
 40
0.0
 40
1.0
 40
1.0
 40
1.0
 40
2.0
 40
2.0
 40
2.0
 40
2.0
 10
125.6033029992869
 20
-148.6847147259886
 30
0.0
 10
125.6033029992869
 20
-148.6847147259886
 30
0.0
 10
125.5826302220365
 20
-148.173433892783
 30
0.0
 10
126.4108113120189
 20
-148.2168608372162
 30
0.0
 10
126.4108113120189
 20
-148.2168608372162
 30
0.0
 10
126.9000082439829
 20
-148.2802550038672
 30
0.0
 10
126.8152710239225
 20
-148.6633363926603
 30
0.0
  0
SPLINE
  5
111
330
FB
100
AcDbEntity
  8
レイヤー 1
 62
   250
420
  2299925
370
     9
100
AcDbSpline
210
0.0
220
0.0
230
1.0
 70
     9
 71
     3
 72
    17
 73
    13
 74
     0
 42
0.0000000001
 43
0.0000000001
 40
0.0
 40
0.0
 40
0.0
 40
0.0
 40
1.0
 40
1.0
 40
1.0
 40
2.0
 40
2.0
 40
2.0
 40
3.0
 40
3.0
 40
3.0
 40
4.0
 40
4.0
 40
4.0
 40
4.0
 10
125.4234601812611
 20
-151.2864508364492
 30
0.0
 10
125.4234601812611
 20
-151.5214008363902
 30
0.0
 10
125.0941035678332
 20
-151.7122536141207
 30
0.0
 10
124.6896438559296
 20
-151.7122536141207
 30
0.0
 10
124.2838083107277
 20
-151.7122536141207
 30
0.0
 10
123.9565363746327
 20
-151.5214008363902
 30
0.0
 10
123.9565363746327
 20
-151.2864508364492
 30
0.0
 10
123.9565363746327
 20
-151.0515008365076
 30
0.0
 10
124.2838083107277
 20
-150.8613183365552
 30
0.0
 10
124.6896438559296
 20
-150.8613183365552
 30
0.0
 10
125.0941035678332
 20
-150.8613183365552
 30
0.0
 10
125.4234601812611
 20
-151.0515008365076
 30
0.0
 10
125.4234601812611
 20
-151.2864508364492
 30
0.0
  0
SPLINE
  5
112
330
FB
100
AcDbEntity
  8
レイヤー 1
 62
   250
420
  2299925
370
     9
100
AcDbSpline
210
0.0
220
0.0
230
1.0
 70
     8
 71
     3
 72
    11
 73
     7
 74
     0
 42
0.0000000001
 43
0.0000000001
 40
0.0
 40
0.0
 40
0.0
 40
0.0
 40
1.0
 40
1.0
 40
1.0
 40
2.0
 40
2.0
 40
2.0
 40
2.0
 10
124.0839949824921
 20
-151.5206952808347
 30
0.0
 10
124.0839949824921
 20
-151.5206952808347
 30
0.0
 10
124.0619463719435
 20
-151.0094497254073
 30
0.0
 10
124.8922088507617
 20
-151.0528766698405
 30
0.0
 10
124.8922088507617
 20
-151.0528766698405
 30
0.0
 10
125.380735504965
 20
-151.116235558714
 30
0.0
 10
125.2952927293671
 20
-151.4993522252846
 30
0.0
  0
SPLINE
  5
113
330
FB
100
AcDbEntity
  8
レイヤー 1
 62
   250
420
  2299925
370
     9
100
AcDbSpline
210
0.0
220
0.0
230
1.0
 70
     9
 71
     3
 72
    17
 73
    13
 74
     0
 42
0.0000000001
 43
0.0000000001
 40
0.0
 40
0.0
 40
0.0
 40
0.0
 40
1.0
 40
1.0
 40
1.0
 40
2.0
 40
2.0
 40
2.0
 40
3.0
 40
3.0
 40
3.0
 40
4.0
 40
4.0
 40
4.0
 40
4.0
 10
125.1864255099223
 20
-150.2060688922749
 30
0.0
 10
125.1864255099223
 20
-150.4410188922159
 30
0.0
 10
124.857777740529
 20
-150.6318716699463
 30
0.0
 10
124.4533212926147
 20
-150.6318716699463
 30
0.0
 10
124.0481880389611
 20
-150.6318716699463
 30
0.0
 10
123.719504991791
 20
-150.4410188922159
 30
0.0
 10
123.719504991791
 20
-150.2060688922749
 30
0.0
 10
123.719504991791
 20
-149.9717891701112
 30
0.0
 10
124.0481880389611
 20
-149.7802308368253
 30
0.0
 10
124.4533212926147
 20
-149.7802308368253
 30
0.0
 10
124.857777740529
 20
-149.7802308368253
 30
0.0
 10
125.1864255099223
 20
-149.9717891701112
 30
0.0
 10
125.1864255099223
 20
-150.2060688922749
 30
0.0
  0
SPLINE
  5
114
330
FB
100
AcDbEntity
  8
レイヤー 1
 62
   250
420
  2299925
370
     9
100
AcDbSpline
210
0.0
220
0.0
230
1.0
 70
     8
 71
     3
 72
    11
 73
     7
 74
     0
 42
0.0000000001
 43
0.0000000001
 40
0.0
 40
0.0
 40
0.0
 40
0.0
 40
1.0
 40
1.0
 40
1.0
 40
2.0
 40
2.0
 40
2.0
 40
2.0
 10
123.8476691551879
 20
-150.439643058883
 30
0.0
 10
123.8476691551879
 20
-150.439643058883
 30
0.0
 10
123.8263261001769
 20
-149.9290677812329
 30
0.0
 10
124.6552127456969
 20
-149.9724947256661
 30
0.0
 10
124.6552127456969
 20
-149.9724947256661
 30
0.0
 10
125.1444129591082
 20
-150.0358536145396
 30
0.0
 10
125.0589669020629
 20
-150.4189702811103
 30
0.0
  0
SPLINE
  5
115
330
FB
100
AcDbEntity
  8
レイヤー 1
 62
   250
420
  2299925
370
     9
100
AcDbSpline
210
0.0
220
0.0
230
1.0
 70
    11
 71
     3
 72
    17
 73
    13
 74
     0
 42
0.0000000001
 43
0.0000000001
 40
0.0
 40
0.0
 40
0.0
 40
0.0
 40
1.0
 40
1.0
 40
1.0
 40
2.0
 40
2.0
 40
2.0
 40
3.0
 40
3.0
 40
3.0
 40
4.0
 40
4.0
 40
4.0
 40
4.0
 10
124.6469224681306
 20
-149.2607302813999
 30
0.0
 10
124.6469224681306
 20
-149.4956802813409
 30
0.0
 10
124.3175691431998
 20
-149.6858627812933
 30
0.0
 10
123.9138149868337
 20
-149.6858627812933
 30
0.0
 10
123.5079794416319
 20
-149.6858627812933
 30
0.0
 10
123.1793316722386
 20
-149.4956802813409
 30
0.0
 10
123.1793316722386
 20
-149.2607302813999
 30
0.0
 10
123.1793316722386
 20
-149.0257802814589
 30
0.0
 10
123.5079794416319
 20
-148.8355977815065
 30
0.0
 10
123.9138149868337
 20
-148.8355977815065
 30
0.0
 10
124.3175691431998
 20
-148.8355977815065
 30
0.0
 10
124.6469224681306
 20
-149.0257802814589
 30
0.0
 10
124.6469224681306
 20
-149.2607302813999
 30
0.0
  0
SPLINE
  5
116
330
FB
100
AcDbEntity
  8
レイヤー 1
 62
   250
420
  2299925
370
     9
100
AcDbSpline
210
0.0
220
0.0
230
1.0
 70
     8
 71
     3
 72
    11
 73
     7
 74
     0
 42
0.0000000001
 43
0.0000000001
 40
0.0
 40
0.0
 40
0.0
 40
0.0
 40
1.0
 40
1.0
 40
1.0
 40
2.0
 40
2.0
 40
2.0
 40
2.0
 10
123.3074990706791
 20
-149.494304448008
 30
0.0
 10
123.3074990706791
 20
-149.494304448008
 30
0.0
 10
123.2861175028476
 20
-148.983729170358
 30
0.0
 10
124.1143338706069
 20
-149.0271561147918
 30
0.0
 10
124.1143338706069
 20
-149.0271561147918
 30
0.0
 10
124.6042010803316
 20
-149.0905502814422
 30
0.0
 10
124.5194638602712
 20
-149.4736316702353
 30
0.0
  0
SPLINE
  5
117
330
FB
100
AcDbEntity
  8
レイヤー 1
 62
   250
420
  2299925
370
     9
100
AcDbSpline
210
0.0
220
0.0
230
1.0
 70
     9
 71
     3
 72
    17
 73
    13
 74
     0
 42
0.0000000001
 43
0.0000000001
 40
0.0
 40
0.0
 40
0.0
 40
0.0
 40
1.0
 40
1.0
 40
1.0
 40
2.0
 40
2.0
 40
2.0
 40
3.0
 40
3.0
 40
3.0
 40
4.0
 40
4.0
 40
4.0
 40
4.0
 10
122.991900843687
 20
-152.0974163918016
 30
0.0
 10
122.991900843687
 20
-152.3316961139652
 30
0.0
 10
122.6632530742938
 20
-152.5225488916963
 30
0.0
 10
122.2580878068526
 20
-152.5225488916963
 30
0.0
 10
121.8529578171883
 20
-152.5225488916963
 30
0.0
 10
121.5243100477951
 20
-152.3316961139652
 30
0.0
 10
121.5243100477951
 20
-152.0974163918016
 30
0.0
 10
121.5243100477951
 20
-151.8624663918606
 30
0.0
 10
121.8529578171883
 20
-151.6716136141308
 30
0.0
 10
122.2580878068526
 20
-151.6716136141308
 30
0.0
 10
122.6632530742938
 20
-151.6716136141308
 30
0.0
 10
122.991900843687
 20
-151.8624663918606
 30
0.0
 10
122.991900843687
 20
-152.0974163918016
 30
0.0
  0
SPLINE
  5
118
330
FB
100
AcDbEntity
  8
レイヤー 1
 62
   250
420
  2299925
370
     9
100
AcDbSpline
210
0.0
220
0.0
230
1.0
 70
     8
 71
     3
 72
    11
 73
     7
 74
     0
 42
0.0000000001
 43
0.0000000001
 40
0.0
 40
0.0
 40
0.0
 40
0.0
 40
1.0
 40
1.0
 40
1.0
 40
2.0
 40
2.0
 40
2.0
 40
2.0
 10
121.6524389334151
 20
-152.3309905584103
 30
0.0
 10
121.6524389334151
 20
-152.3309905584103
 30
0.0
 10
121.6303935155426
 20
-151.8204152807603
 30
0.0
 10
122.4606880794616
 20
-151.8631366696386
 30
0.0
 10
122.4606880794616
 20
-151.8631366696386
 30
0.0
 10
122.9491794558881
 20
-151.926530836289
 30
0.0
 10
122.8651157374561
 20
-152.3103177806376
 30
0.0
  0
SPLINE
  5
119
330
FB
100
AcDbEntity
  8
レイヤー 1
 62
   250
420
  2299925
370
     9
100
AcDbSpline
210
0.0
220
0.0
230
1.0
 70
     9
 71
     3
 72
    17
 73
    13
 74
     0
 42
0.0000000001
 43
0.0000000001
 40
0.0
 40
0.0
 40
0.0
 40
0.0
 40
1.0
 40
1.0
 40
1.0
 40
2.0
 40
2.0
 40
2.0
 40
3.0
 40
3.0
 40
3.0
 40
4.0
 40
4.0
 40
4.0
 40
4.0
 10
122.7562805719204
 20
-151.0163288920724
 30
0.0
 10
122.7562805719204
 20
-151.2513141697909
 30
0.0
 10
122.4262216914521
 20
-151.4421669475219
 30
0.0
 10
122.0217619795485
 20
-151.4421669475219
 30
0.0
 10
121.6166351822124
 20
-151.4421669475219
 30
0.0
 10
121.2886544982516
 20
-151.2513141697909
 30
0.0
 10
121.2886544982516
 20
-151.0163288920724
 30
0.0
 10
121.2886544982516
 20
-150.7813788921307
 30
0.0
 10
121.6166351822124
 20
-150.5912316699564
 30
0.0
 10
122.0217619795485
 20
-150.5912316699564
 30
0.0
 10
122.4262216914521
 20
-150.5912316699564
 30
0.0
 10
122.7562805719204
 20
-150.7813788921307
 30
0.0
 10
122.7562805719204
 20
-151.0163288920724
 30
0.0
  0
SPLINE
  5
11A
330
FB
100
AcDbEntity
  8
レイヤー 1
 62
   250
420
  2299925
370
     9
100
AcDbSpline
210
0.0
220
0.0
230
1.0
 70
     8
 71
     3
 72
    11
 73
     7
 74
     0
 42
0.0000000001
 43
0.0000000001
 40
0.0
 40
0.0
 40
0.0
 40
0.0
 40
1.0
 40
1.0
 40
1.0
 40
2.0
 40
2.0
 40
2.0
 40
2.0
 10
121.4154428283503
 20
-151.250608614236
 30
0.0
 10
121.4154428283503
 20
-151.250608614236
 30
0.0
 10
121.3947700510999
 20
-150.7393630588079
 30
0.0
 10
122.2243269743806
 20
-150.7827547254642
 30
0.0
 10
122.2243269743806
 20
-150.7827547254642
 30
0.0
 10
122.7135591841215
 20
-150.8461488921146
 30
0.0
 10
122.6281164085235
 20
-151.2292655586852
 30
0.0
  0
SPLINE
  5
11B
330
FB
100
AcDbEntity
  8
レイヤー 1
 62
   250
420
  2299925
370
     9
100
AcDbSpline
210
0.0
220
0.0
230
1.0
 70
     9
 71
     3
 72
    17
 73
    13
 74
     0
 42
0.0000000001
 43
0.0000000001
 40
0.0
 40
0.0
 40
0.0
 40
0.0
 40
1.0
 40
1.0
 40
1.0
 40
2.0
 40
2.0
 40
2.0
 40
3.0
 40
3.0
 40
3.0
 40
4.0
 40
4.0
 40
4.0
 40
4.0
 10
122.2154016968305
 20
-150.0710255589749
 30
0.0
 10
122.2154016968305
 20
-150.3059755589165
 30
0.0
 10
121.8867186496604
 20
-150.4968283366463
 30
0.0
 10
121.4822589377568
 20
-150.4968283366463
 30
0.0
 10
121.0764233925549
 20
-150.4968283366463
 30
0.0
 10
120.7484490713186
 20
-150.3059755589165
 30
0.0
 10
120.7484490713186
 20
-150.0710255589749
 30
0.0
 10
120.7484490713186
 20
-149.8360402812563
 30
0.0
 10
121.0764233925549
 20
-149.6458930590814
 30
0.0
 10
121.4822589377568
 20
-149.6458930590814
 30
0.0
 10
121.8867186496604
 20
-149.6458930590814
 30
0.0
 10
122.2154016968305
 20
-149.8360402812563
 30
0.0
 10
122.2154016968305
 20
-150.0710255589749
 30
0.0
  0
SPLINE
  5
11C
330
FB
100
AcDbEntity
  8
レイヤー 1
 62
   250
420
  2299925
370
     9
100
AcDbSpline
210
0.0
220
0.0
230
1.0
 70
     8
 71
     3
 72
    11
 73
     7
 74
     0
 42
0.0000000001
 43
0.0000000001
 40
0.0
 40
0.0
 40
0.0
 40
0.0
 40
1.0
 40
1.0
 40
1.0
 40
2.0
 40
2.0
 40
2.0
 40
2.0
 10
120.8766100643193
 20
-150.305270003361
 30
0.0
 10
120.8766100643193
 20
-150.305270003361
 30
0.0
 10
120.8545614537707
 20
-149.7940244479336
 30
0.0
 10
121.6841536548282
 20
-149.8374161145892
 30
0.0
 10
121.6841536548282
 20
-149.8374161145892
 30
0.0
 10
122.1733505867922
 20
-149.9008102812403
 30
0.0
 10
122.0879078111943
 20
-150.2839269478109
 30
0.0
  0
LINE
  5
11D
330
FB
100
AcDbEntity
  8
レイヤー 1
 62
   250
420
  2299925
370
     9
100
AcDbLine
 10
125.1258182892463
 20
-154.0528636135355
 30
0.0
 11
125.6205185544032
 21
-154.2478438912645
 31
0.0
  0
LINE
  5
11E
330
FB
100
AcDbEntity
  8
レイヤー 1
 62
   250
420
  2299925
370
     9
100
AcDbLine
 10
125.6205185544032
 20
-154.2478438912645
 30
0.0
 11
135.8035194057243
 21
-150.2474144478197
 31
0.0
  0
ENDBLK
  5
FE
330
FB
100
AcDbEntity
  8
0
100
AcDbBlockEnd
  0
BLOCK
  5
123
330
121
100
AcDbEntity
  8
0
100
AcDbBlockBegin
  2
Block_10
 70
     0
 10
0.0
 20
0.0
 30
0.0
  3
Block_10
  1

  0
INSERT
  5
126
330
121
100
AcDbEntity
  8
レイヤー 1
100
AcDbBlockReference
  2
Block_11
 10
0.0
 20
0.0
 30
0.0
  0
INSERT
  5
12D
330
121
100
AcDbEntity
  8
レイヤー 1
100
AcDbBlockReference
  2
Block_12
 10
0.0
 20
0.0
 30
0.0
  0
ENDBLK
  5
124
330
121
100
AcDbEntity
  8
0
100
AcDbBlockEnd
  0
BLOCK
  5
127
330
125
100
AcDbEntity
  8
0
100
AcDbBlockBegin
  2
Block_11
 70
     0
 10
0.0
 20
0.0
 30
0.0
  3
Block_11
  1

  0
LINE
  5
129
330
125
100
AcDbEntity
  8
レイヤー 1
 62
    18
420
        0
370
     9
100
AcDbLine
 10
85.81226373666275
 20
-146.9035750042117
 30
0.0
 11
86.62358204929764
 21
-147.4885511151765
 31
0.0
  0
LINE
  5
12A
330
125
100
AcDbEntity
  8
レイヤー 1
 62
    18
420
        0
370
     9
100
AcDbLine
 10
85.81226373666275
 20
-146.9035750042117
 30
0.0
 11
88.38986978201367
 21
-150.0606891700885
 31
0.0
  0
LINE
  5
12B
330
125
100
AcDbEntity
  8
レイヤー 1
 62
    18
420
        0
370
     9
100
AcDbLine
 10
85.81226373666275
 20
-146.9035750042117
 30
0.0
 11
86.22257955952807
 21
-147.8158583373167
 31
0.0
  0
ENDBLK
  5
128
330
125
100
AcDbEntity
  8
0
100
AcDbBlockEnd
  0
BLOCK
  5
12E
330
12C
100
AcDbEntity
  8
0
100
AcDbBlockBegin
  2
Block_12
 70
     0
 10
0.0
 20
0.0
 30
0.0
  3
Block_12
  1

  0
INSERT
  5
131
330
12C
100
AcDbEntity
  8
レイヤー 1
100
AcDbBlockReference
  2
Block_13
 10
0.0
 20
0.0
 30
0.0
  0
ENDBLK
  5
12F
330
12C
100
AcDbEntity
  8
0
100
AcDbBlockEnd
  0
BLOCK
  5
132
330
130
100
AcDbEntity
  8
0
100
AcDbBlockBegin
  2
Block_13
 70
     0
 10
0.0
 20
0.0
 30
0.0
  3
Block_13
  1

  0
SPLINE
  5
134
330
130
100
AcDbEntity
  8
レイヤー 1
100
AcDbSpline
210
0.0
220
0.0
230
1.0
 70
     9
 71
     3
 72
    17
 73
    13
 74
     0
 42
0.0000000001
 43
0.0000000001
 40
0.0
 40
0.0
 40
0.0
 40
0.0
 40
1.0
 40
1.0
 40
1.0
 40
2.0
 40
2.0
 40
2.0
 40
3.0
 40
3.0
 40
3.0
 40
4.0
 40
4.0
 40
4.0
 40
4.0
 10
90.05634627739912
 20
-150.5082980309493
 30
0.0
 10
90.0394653095214
 20
-150.5379258521224
 30
0.0
 10
89.98865015111396
 20
-150.6312879397727
 30
0.0
 10
89.97814260988395
 20
-150.6502359649416
 30
0.0
 10
90.168484135444
 20
-150.7094916072879
 30
0.0
 10
90.18967147267828
 20
-150.7156927791613
 30
0.0
 10
90.26167396831999
 20
-150.7432535430433
 30
0.0
 10
90.31662324130975
 20
-150.656437136815
 30
0.0
 10
90.33987763583517
 20
-150.5823675838822
 30
0.0
 10
90.35469154642175
 20
-150.5082980309493
 30
0.0
 10
90.35469154642175
 20
-150.5082980309493
 30
0.0
 10
90.05634627739912
 20
-150.5082980309493
 30
0.0
 10
90.05634627739912
 20
-150.5082980309493
 30
0.0
  0
SPLINE
  5
135
330
130
100
AcDbEntity
  8
レイヤー 1
100
AcDbSpline
210
0.0
220
0.0
230
1.0
 70
    11
 71
     3
 72
    20
 73
    16
 74
     0
 42
0.0000000001
 43
0.0000000001
 40
0.0
 40
0.0
 40
0.0
 40
0.0
 40
1.0
 40
1.0
 40
1.0
 40
2.0
 40
2.0
 40
2.0
 40
3.0
 40
3.0
 40
3.0
 40
4.0
 40
4.0
 40
4.0
 40
5.0
 40
5.0
 40
5.0
 40
5.0
 10
89.99295652047051
 20
-149.6580484651896
 30
0.0
 10
89.99295652047051
 20
-149.6580484651896
 30
0.0
 10
89.96126164200623
 20
-149.6580484651896
 30
0.0
 10
89.96126164200623
 20
-149.6580484651896
 30
0.0
 10
90.00777043105708
 20
-149.7572672151648
 30
0.0
 10
90.0394653095214
 20
-149.8378824495197
 30
0.0
 10
90.07339950005109
 20
-149.9646619633769
 30
0.0
 10
90.07339950005109
 20
-149.9646619633769
 30
0.0
 10
90.28062199348887
 20
-149.9646619633769
 30
0.0
 10
90.28062199348887
 20
-149.9646619633769
 30
0.0
 10
90.31231687195317
 20
-149.8716443852751
 30
0.0
 10
90.33557126647862
 20
-149.786895036338
 30
0.0
 10
90.35899791577831
 20
-149.6580484651896
 30
0.0
 10
90.35899791577831
 20
-149.6580484651896
 30
0.0
 10
89.99295652047051
 20
-149.6580484651896
 30
0.0
 10
89.99295652047051
 20
-149.6580484651896
 30
0.0
  0
SPLINE
  5
136
330
130
100
AcDbEntity
  8
レイヤー 1
100
AcDbSpline
210
0.0
220
0.0
230
1.0
 70
     9
 71
     3
 72
   242
 73
   238
 74
     0
 42
0.0000000001
 43
0.0000000001
 40
0.0
 40
0.0
 40
0.0
 40
0.0
 40
1.0
 40
1.0
 40
1.0
 40
2.0
 40
2.0
 40
2.0
 40
3.0
 40
3.0
 40
3.0
 40
4.0
 40
4.0
 40
4.0
 40
5.0
 40
5.0
 40
5.0
 40
6.0
 40
6.0
 40
6.0
 40
7.0
 40
7.0
 40
7.0
 40
8.0
 40
8.0
 40
8.0
 40
9.0
 40
9.0
 40
9.0
 40
10.0
 40
10.0
 40
10.0
 40
11.0
 40
11.0
 40
11.0
 40
12.0
 40
12.0
 40
12.0
 40
13.0
 40
13.0
 40
13.0
 40
14.0
 40
14.0
 40
14.0
 40
15.0
 40
15.0
 40
15.0
 40
16.0
 40
16.0
 40
16.0
 40
17.0
 40
17.0
 40
17.0
 40
18.0
 40
18.0
 40
18.0
 40
19.0
 40
19.0
 40
19.0
 40
20.0
 40
20.0
 40
20.0
 40
21.0
 40
21.0
 40
21.0
 40
22.0
 40
22.0
 40
22.0
 40
23.0
 40
23.0
 40
23.0
 40
24.0
 40
24.0
 40
24.0
 40
25.0
 40
25.0
 40
25.0
 40
26.0
 40
26.0
 40
26.0
 40
27.0
 40
27.0
 40
27.0
 40
28.0
 40
28.0
 40
28.0
 40
29.0
 40
29.0
 40
29.0
 40
30.0
 40
30.0
 40
30.0
 40
31.0
 40
31.0
 40
31.0
 40
32.0
 40
32.0
 40
32.0
 40
33.0
 40
33.0
 40
33.0
 40
34.0
 40
34.0
 40
34.0
 40
35.0
 40
35.0
 40
35.0
 40
36.0
 40
36.0
 40
36.0
 40
37.0
 40
37.0
 40
37.0
 40
38.0
 40
38.0
 40
38.0
 40
39.0
 40
39.0
 40
39.0
 40
40.0
 40
40.0
 40
40.0
 40
41.0
 40
41.0
 40
41.0
 40
42.0
 40
42.0
 40
42.0
 40
43.0
 40
43.0
 40
43.0
 40
44.0
 40
44.0
 40
44.0
 40
45.0
 40
45.0
 40
45.0
 40
46.0
 40
46.0
 40
46.0
 40
47.0
 40
47.0
 40
47.0
 40
48.0
 40
48.0
 40
48.0
 40
49.0
 40
49.0
 40
49.0
 40
50.0
 40
50.0
 40
50.0
 40
51.0
 40
51.0
 40
51.0
 40
52.0
 40
52.0
 40
52.0
 40
53.0
 40
53.0
 40
53.0
 40
54.0
 40
54.0
 40
54.0
 40
55.0
 40
55.0
 40
55.0
 40
56.0
 40
56.0
 40
56.0
 40
57.0
 40
57.0
 40
57.0
 40
58.0
 40
58.0
 40
58.0
 40
59.0
 40
59.0
 40
59.0
 40
60.0
 40
60.0
 40
60.0
 40
61.0
 40
61.0
 40
61.0
 40
62.0
 40
62.0
 40
62.0
 40
63.0
 40
63.0
 40
63.0
 40
64.0
 40
64.0
 40
64.0
 40
65.0
 40
65.0
 40
65.0
 40
66.0
 40
66.0
 40
66.0
 40
67.0
 40
67.0
 40
67.0
 40
68.0
 40
68.0
 40
68.0
 40
69.0
 40
69.0
 40
69.0
 40
70.0
 40
70.0
 40
70.0
 40
71.0
 40
71.0
 40
71.0
 40
72.0
 40
72.0
 40
72.0
 40
73.0
 40
73.0
 40
73.0
 40
74.0
 40
74.0
 40
74.0
 40
75.0
 40
75.0
 40
75.0
 40
76.0
 40
76.0
 40
76.0
 40
77.0
 40
77.0
 40
77.0
 40
78.0
 40
78.0
 40
78.0
 40
79.0
 40
79.0
 40
79.0
 40
79.0
 10
90.62116968220582
 20
-150.1234808652469
 30
0.0
 10
90.62116968220582
 20
-150.1234808652469
 30
0.0
 10
90.36743839971718
 20
-150.1234808652469
 30
0.0
 10
90.36743839971718
 20
-150.1234808652469
 30
0.0
 10
90.36743839971718
 20
-150.1234808652469
 30
0.0
 10
90.09028046792883
 20
-150.1234808652469
 30
0.0
 10
90.09028046792883
 20
-150.1234808652469
 30
0.0
 10
90.09028046792883
 20
-150.1234808652469
 30
0.0
 10
90.21723223656028
 20
-150.1658555397155
 30
0.0
 10
90.21723223656028
 20
-150.1658555397155
 30
0.0
 10
90.2277397777903
 20
-150.1699896542977
 30
0.0
 10
90.24048663108571
 20
-150.1761908261712
 30
0.0
 10
90.24048663108571
 20
-150.1889376794666
 30
0.0
 10
90.24048663108571
 20
-150.2102972714752
 30
0.0
 10
90.20879175262143
 20
-150.2164984433486
 30
0.0
 10
90.18760441538713
 20
-150.2206325579309
 30
0.0
 10
90.17692461938286
 20
-150.2440592072306
 30
0.0
 10
90.14729679820971
 20
-150.3095160214504
 30
0.0
 10
90.12834877304083
 20
-150.3539577532101
 30
0.0
 10
90.12834877304083
 20
-150.3539577532101
 30
0.0
 10
90.39913327818146
 20
-150.3539577532101
 30
0.0
 10
90.39913327818146
 20
-150.3539577532101
 30
0.0
 10
90.49008379899206
 20
-150.3539577532101
 30
0.0
 10
90.68679875119983
 20
-150.3498236386278
 30
0.0
 10
90.82856443041785
 20
-150.3412108999147
 30
0.0
 10
90.82856443041785
 20
-150.3412108999147
 30
0.0
 10
90.82856443041785
 20
-150.5189778269536
 30
0.0
 10
90.82856443041785
 20
-150.5189778269536
 30
0.0
 10
90.74605439354613
 20
-150.5148437123713
 30
0.0
 10
90.72486705631183
 20
-150.5148437123713
 30
0.0
 10
90.5450330719818
 20
-150.510709597789
 30
0.0
 10
90.5133381935175
 20
-150.6650498755282
 30
0.0
 10
90.46889646175777
 20
-150.7453206003345
 30
0.0
 10
90.42445472999807
 20
-150.8152560386851
 30
0.0
 10
90.5450330719818
 20
-150.8745116810314
 30
0.0
 10
90.65079750337897
 20
-150.9420355525423
 30
0.0
 10
90.75449487748498
 20
-151.0247178441882
 30
0.0
 10
90.75449487748498
 20
-151.0247178441882
 30
0.0
 10
90.63598359279239
 20
-151.1918049752229
 30
0.0
 10
90.63598359279239
 20
-151.1918049752229
 30
0.0
 10
90.61272919826697
 20
-151.172856950054
 30
0.0
 10
90.60015459974579
 20
-151.1642442113409
 30
0.0
 10
90.48801674170091
 20
-151.0794948624037
 30
0.0
 10
90.43926864058462
 20
-151.041598812066
 30
0.0
 10
90.38001299823832
 20
-151.0054253094708
 30
0.0
 10
90.29974227343201
 20
-150.9609835777111
 30
0.0
 10
90.08821341063768
 20
-151.1473632434631
 30
0.0
 10
89.88288571971677
 20
-151.1704453832143
 30
0.0
 10
89.59315318940728
 20
-151.2000732043875
 30
0.0
 10
89.59315318940728
 20
-151.2000732043875
 30
0.0
 10
89.48945581530125
 20
-151.0202392200574
 30
0.0
 10
89.48945581530125
 20
-151.0202392200574
 30
0.0
 10
89.80674910949275
 20
-151.0161051054751
 30
0.0
 10
89.98227672446624
 20
-150.9906113988843
 30
0.0
 10
90.13472219968853
 20
-150.8807128529048
 30
0.0
 10
90.01621091499595
 20
-150.8300699492716
 30
0.0
 10
89.9273274514765
 20
-150.8025091853896
 30
0.0
 10
89.89132620365564
 20
-150.7897623320942
 30
0.0
 10
89.87237817848678
 20
-150.8173230959762
 30
0.0
 10
89.8575642679002
 20
-150.8362711211451
 30
0.0
 10
89.8300035040182
 20
-150.8700330569005
 30
0.0
 10
89.8300035040182
 20
-150.8700330569005
 30
0.0
 10
89.63328855181044
 20
-150.787695274803
 30
0.0
 10
89.63328855181044
 20
-150.787695274803
 30
0.0
 10
89.71579858868215
 20
-150.7074245499967
 30
0.0
 10
89.7771212883196
 20
-150.6119954050553
 30
0.0
 10
89.83430987337476
 20
-150.510709597789
 30
0.0
 10
89.64379609304044
 20
-150.5148437123713
 30
0.0
 10
89.62278101058043
 20
-150.5148437123713
 30
0.0
 10
89.54027097370868
 20
-150.5189778269536
 30
0.0
 10
89.54027097370868
 20
-150.5189778269536
 30
0.0
 10
89.54027097370868
 20
-150.3412108999147
 30
0.0
 10
89.54027097370868
 20
-150.3412108999147
 30
0.0
 10
89.6797973408613
 20
-150.3477565813367
 30
0.0
 10
89.8892591463645
 20
-150.3518906959189
 30
0.0
 10
89.91458059818107
 20
-150.3518906959189
 30
0.0
 10
89.93163382083308
 20
-150.3181287601635
 30
0.0
 10
89.9865830938228
 20
-150.1975504181798
 30
0.0
 10
90.00570337376593
 20
-150.1234808652469
 30
0.0
 10
89.9865830938228
 20
-150.1234808652469
 30
0.0
 10
89.80881616678392
 20
-150.1296820371203
 30
0.0
 10
89.61416827186729
 20
-150.1424288904158
 30
0.0
 10
89.61416827186729
 20
-150.1424288904158
 30
0.0
 10
89.61416827186729
 20
-150.2757540856949
 30
0.0
 10
89.61416827186729
 20
-150.2757540856949
 30
0.0
 10
89.56559242552527
 20
-150.3012477922858
 30
0.0
 10
89.50633678317897
 20
-150.3329426707501
 30
0.0
 10
89.37301158789981
 20
-150.3983994849698
 30
0.0
 10
89.37301158789981
 20
-150.3983994849698
 30
0.0
 10
89.37301158789981
 20
-150.5444715335444
 30
0.0
 10
89.37301158789981
 20
-150.5444715335444
 30
0.0
 10
89.37301158789981
 20
-150.5444715335444
 30
0.0
 10
89.37301158789981
 20
-151.0119709908928
 30
0.0
 10
89.37301158789981
 20
-151.0119709908928
 30
0.0
 10
89.37301158789981
 20
-151.13875050475
 30
0.0
 10
89.33718259485321
 20
-151.1980061470963
 30
0.0
 10
89.05365123641715
 20
-151.1897379179317
 30
0.0
 10
89.05365123641715
 20
-151.1897379179317
 30
0.0
 10
88.94995386231114
 20
-150.9823431697197
 30
0.0
 10
88.94995386231114
 20
-150.9823431697197
 30
0.0
 10
89.01351587401398
 20
-150.9950900230151
 30
0.0
 10
89.062091720356
 20
-150.9992241375974
 30
0.0
 10
89.10222708275917
 20
-150.9992241375974
 30
0.0
 10
89.17853594775746
 20
-150.9992241375974
 30
0.0
 10
89.18904348898747
 20
-150.9757974882977
 30
0.0
 10
89.18904348898747
 20
-150.910340674078
 30
0.0
 10
89.18904348898747
 20
-150.910340674078
 30
0.0
 10
89.18904348898747
 20
-150.4810817766158
 30
0.0
 10
89.18904348898747
 20
-150.4810817766158
 30
0.0
 10
89.09171954152915
 20
-150.5210448842447
 30
0.0
 10
89.07483857365143
 20
-150.5275905656667
 30
0.0
 10
89.02832978460056
 20
-150.5465385908355
 30
0.0
 10
89.024023415244
 20
-150.5675536732956
 30
0.0
 10
89.01971704588744
 20
-150.5971814944687
 30
0.0
 10
89.00076902071857
 20
-150.5971814944687
 30
0.0
 10
88.9923285367797
 20
-150.5971814944687
 30
0.0
 10
88.98164874077542
 20
-150.5930473798864
 30
0.0
 10
88.97544756890196
 20
-150.5696207305867
 30
0.0
 10
88.97544756890196
 20
-150.5696207305867
 30
0.0
 10
88.9225653532034
 20
-150.3773844025098
 30
0.0
 10
88.9225653532034
 20
-150.3773844025098
 30
0.0
 10
89.06846514700372
 20
-150.3308756134589
 30
0.0
 10
89.13409421599773
 20
-150.3074489641592
 30
0.0
 10
89.18904348898747
 20
-150.2864338816992
 30
0.0
 10
89.18904348898747
 20
-150.2864338816992
 30
0.0
 10
89.18904348898747
 20
-149.8737114425663
 30
0.0
 10
89.18904348898747
 20
-149.8737114425663
 30
0.0
 10
89.18904348898747
 20
-149.8737114425663
 30
0.0
 10
89.13616127328888
 20
-149.8737114425663
 30
0.0
 10
89.13616127328888
 20
-149.8737114425663
 30
0.0
 10
89.13616127328888
 20
-149.8737114425663
 30
0.0
 10
89.05795760577371
 20
-149.8737114425663
 30
0.0
 10
89.05795760577371
 20
-149.8737114425663
 30
0.0
 10
88.99026147948855
 20
-149.8737114425663
 30
0.0
 10
88.98164874077542
 20
-149.8737114425663
 30
0.0
 10
88.94581974772883
 20
-149.8802571239883
 30
0.0
 10
88.94581974772883
 20
-149.8802571239883
 30
0.0
 10
88.94581974772883
 20
-149.6856092290717
 30
0.0
 10
88.94581974772883
 20
-149.6856092290717
 30
0.0
 10
88.97320825683655
 20
-149.6918104009451
 30
0.0
 10
88.98164874077542
 20
-149.6918104009451
 30
0.0
 10
89.051584179126
 20
-149.6918104009451
 30
0.0
 10
89.051584179126
 20
-149.6918104009451
 30
0.0
 10
89.18473711963091
 20
-149.6918104009451
 30
0.0
 10
89.18473711963091
 20
-149.6918104009451
 30
0.0
 10
89.18473711963091
 20
-149.6218749625945
 30
0.0
 10
89.18473711963091
 20
-149.539537180497
 30
0.0
 10
89.18267006233975
 20
-149.5354030659147
 30
0.0
 10
89.1742295784009
 20
-149.3555690815847
 30
0.0
 10
89.1742295784009
 20
-149.3362765468673
 30
0.0
 10
89.17216252110973
 20
-149.2897677578164
 30
0.0
 10
89.17216252110973
 20
-149.2897677578164
 30
0.0
 10
89.38782549848637
 20
-149.2983804965295
 30
0.0
 10
89.38782549848637
 20
-149.2983804965295
 30
0.0
 10
89.39850529449065
 20
-149.2983804965295
 30
0.0
 10
89.41969263172493
 20
-149.3004475538207
 30
0.0
 10
89.41969263172493
 20
-149.3173285216984
 30
0.0
 10
89.41969263172493
 20
-149.3362765468673
 30
0.0
 10
89.40487872113838
 20
-149.3469563428716
 30
0.0
 10
89.37938501454752
 20
-149.3659043680404
 30
0.0
 10
89.37938501454752
 20
-149.4168917812221
 30
0.0
 10
89.37301158789981
 20
-149.6453016118942
 30
0.0
 10
89.37525089996523
 20
-149.6918104009451
 30
0.0
 10
89.50426972588783
 20
-149.6918104009451
 30
0.0
 10
89.51701657918325
 20
-149.6918104009451
 30
0.0
 10
89.61416827186729
 20
-149.6835421717805
 30
0.0
 10
89.61416827186729
 20
-149.6835421717805
 30
0.0
 10
89.61416827186729
 20
-149.8778455571486
 30
0.0
 10
89.61416827186729
 20
-149.8778455571486
 30
0.0
 10
89.57609996675527
 20
-149.8757784998574
 30
0.0
 10
89.50840384047012
 20
-149.8716443852751
 30
0.0
 10
89.37301158789981
 20
-149.8737114425663
 30
0.0
 10
89.37301158789981
 20
-149.8737114425663
 30
0.0
 10
89.37301158789981
 20
-150.2123643287663
 30
0.0
 10
89.37301158789981
 20
-150.2123643287663
 30
0.0
 10
89.4281331156638
 20
-150.1889376794666
 30
0.0
 10
89.49358992988356
 20
-150.1613769155846
 30
0.0
 10
89.54233803099983
 20
-150.1382947758335
 30
0.0
 10
89.54233803099983
 20
-150.1382947758335
 30
0.0
 10
89.54233803099983
 20
-149.9605278487946
 30
0.0
 10
89.54233803099983
 20
-149.9605278487946
 30
0.0
 10
89.65654294633587
 20
-149.97327470209
 30
0.0
 10
89.77505423102845
 20
-149.97327470209
 30
0.0
 10
89.89132620365564
 20
-149.97327470209
 30
0.0
 10
89.86807180913022
 20
-149.8778455571486
 30
0.0
 10
89.84068330002248
 20
-149.7955077750511
 30
0.0
 10
89.7771212883196
 20
-149.6621825797719
 30
0.0
 10
89.73267955655989
 20
-149.6642496370631
 30
0.0
 10
89.65016951968816
 20
-149.6687282611939
 30
0.0
 10
89.61210121457614
 20
-149.6707953184851
 30
0.0
 10
89.61210121457614
 20
-149.6707953184851
 30
0.0
 10
89.61210121457614
 20
-149.490961334155
 30
0.0
 10
89.61210121457614
 20
-149.490961334155
 30
0.0
 10
89.73698592591645
 20
-149.4992295633196
 30
0.0
 10
89.91044648359878
 20
-149.5037081874504
 30
0.0
 10
89.99295652047051
 20
-149.5037081874504
 30
0.0
 10
89.99295652047051
 20
-149.5037081874504
 30
0.0
 10
90.07546655734225
 20
-149.5037081874504
 30
0.0
 10
90.07546655734225
 20
-149.5037081874504
 30
0.0
 10
90.07546655734225
 20
-149.3407551709981
 30
0.0
 10
90.07546655734225
 20
-149.3300753749938
 30
0.0
 10
90.07339950005109
 20
-149.2749538472299
 30
0.0
 10
90.07339950005109
 20
-149.2749538472299
 30
0.0
 10
90.2975029613666
 20
-149.3004475538207
 30
0.0
 10
90.2975029613666
 20
-149.3004475538207
 30
0.0
 10
90.30180933072315
 20
-149.3004475538207
 30
0.0
 10
90.32299666795745
 20
-149.3025146111119
 30
0.0
 10
90.32299666795745
 20
-149.3193955789896
 30
0.0
 10
90.32299666795745
 20
-149.3342094895762
 30
0.0
 10
90.31231687195317
 20
-149.3428222282893
 30
0.0
 10
90.28492836284543
 20
-149.3576361388758
 30
0.0
 10
90.27855493619773
 20
-149.4230929530956
 30
0.0
 10
90.27648787890658
 20
-149.4444525451042
 30
0.0
 10
90.27648787890658
 20
-149.5037081874504
 30
0.0
 10
90.27648787890658
 20
-149.5037081874504
 30
0.0
 10
90.37157251429947
 20
-149.5037081874504
 30
0.0
 10
90.37157251429947
 20
-149.5037081874504
 30
0.0
 10
90.45408255117122
 20
-149.5037081874504
 30
0.0
 10
90.62754310885352
 20
-149.4992295633196
 30
0.0
 10
90.75242782019385
 20
-149.490961334155
 30
0.0
 10
90.75242782019385
 20
-149.490961334155
 30
0.0
 10
90.75242782019385
 20
-149.6707953184851
 30
0.0
 10
90.75242782019385
 20
-149.6707953184851
 30
0.0
 10
90.7227999990207
 20
-149.6687282611939
 30
0.0
 10
90.6042887143281
 20
-149.6642496370631
 30
0.0
 10
90.56415335192495
 20
-149.6621825797719
 30
0.0
 10
90.54933944133836
 20
-149.7128254834051
 30
0.0
 10
90.51540525080865
 20
-149.8251355962243
 30
0.0
 10
90.44994843658891
 20
-149.9646619633769
 30
0.0
 10
90.49215085628322
 20
-149.9646619633769
 30
0.0
 10
90.76930878807157
 20
-149.945713938208
 30
0.0
 10
90.83063148770902
 20
-149.9436468809169
 30
0.0
 10
90.83063148770902
 20
-149.9436468809169
 30
0.0
 10
90.83063148770902
 20
-150.1276149798292
 30
0.0
 10
90.83063148770902
 20
-150.1276149798292
 30
0.0
 10
90.80100366653587
 20
-150.1276149798292
 30
0.0
 10
90.78412269865813
 20
-150.1234808652469
 30
0.0
 10
90.62116968220582
 20
-150.1234808652469
 30
0.0
  0
HATCH
  5
137
330
130
100
AcDbEntity
  8
レイヤー 1
 62
    18
420
        0
440
 33554687
100
AcDbHatch
 10
0.0
 20
0.0
 30
0.0
210
0.0
220
0.0
230
1.0
  2
SOLID
 70
     1
 71
     1
 91
        3
 92
        1
 93
        1
 72
     4
 94
        3
 73
     0
 74
     0
 95
       17
 96
       13
 40
0.0
 40
0.0
 40
0.0
 40
0.0
 40
1.0
 40
1.0
 40
1.0
 40
2.0
 40
2.0
 40
2.0
 40
3.0
 40
3.0
 40
3.0
 40
4.0
 40
4.0
 40
4.0
 40
4.0
 10
90.05634627739912
 20
-150.5082980309493
 10
90.0394653095214
 20
-150.5379258521224
 10
89.98865015111396
 20
-150.6312879397727
 10
89.97814260988395
 20
-150.6502359649416
 10
90.168484135444
 20
-150.7094916072879
 10
90.18967147267828
 20
-150.7156927791613
 10
90.26167396831999
 20
-150.7432535430433
 10
90.31662324130975
 20
-150.656437136815
 10
90.33987763583517
 20
-150.5823675838822
 10
90.35469154642175
 20
-150.5082980309493
 10
90.35469154642175
 20
-150.5082980309493
 10
90.05634627739912
 20
-150.5082980309493
 10
90.05634627739912
 20
-150.5082980309493
 97
        0
 97
        1
330
134
 92
        1
 93
        1
 72
     4
 94
        3
 73
     0
 74
     0
 95
       20
 96
       16
 40
0.0
 40
0.0
 40
0.0
 40
0.0
 40
1.0
 40
1.0
 40
1.0
 40
2.0
 40
2.0
 40
2.0
 40
3.0
 40
3.0
 40
3.0
 40
4.0
 40
4.0
 40
4.0
 40
5.0
 40
5.0
 40
5.0
 40
5.0
 10
89.99295652047051
 20
-149.6580484651896
 10
89.99295652047051
 20
-149.6580484651896
 10
89.96126164200623
 20
-149.6580484651896
 10
89.96126164200623
 20
-149.6580484651896
 10
90.00777043105708
 20
-149.7572672151648
 10
90.0394653095214
 20
-149.8378824495197
 10
90.07339950005109
 20
-149.9646619633769
 10
90.07339950005109
 20
-149.9646619633769
 10
90.28062199348887
 20
-149.9646619633769
 10
90.28062199348887
 20
-149.9646619633769
 10
90.31231687195317
 20
-149.8716443852751
 10
90.33557126647862
 20
-149.786895036338
 10
90.35899791577831
 20
-149.6580484651896
 10
90.35899791577831
 20
-149.6580484651896
 10
89.99295652047051
 20
-149.6580484651896
 10
89.99295652047051
 20
-149.6580484651896
 97
        0
 97
        1
330
135
 92
        1
 93
        1
 72
     4
 94
        3
 73
     0
 74
     0
 95
      242
 96
      238
 40
0.0
 40
0.0
 40
0.0
 40
0.0
 40
1.0
 40
1.0
 40
1.0
 40
2.0
 40
2.0
 40
2.0
 40
3.0
 40
3.0
 40
3.0
 40
4.0
 40
4.0
 40
4.0
 40
5.0
 40
5.0
 40
5.0
 40
6.0
 40
6.0
 40
6.0
 40
7.0
 40
7.0
 40
7.0
 40
8.0
 40
8.0
 40
8.0
 40
9.0
 40
9.0
 40
9.0
 40
10.0
 40
10.0
 40
10.0
 40
11.0
 40
11.0
 40
11.0
 40
12.0
 40
12.0
 40
12.0
 40
13.0
 40
13.0
 40
13.0
 40
14.0
 40
14.0
 40
14.0
 40
15.0
 40
15.0
 40
15.0
 40
16.0
 40
16.0
 40
16.0
 40
17.0
 40
17.0
 40
17.0
 40
18.0
 40
18.0
 40
18.0
 40
19.0
 40
19.0
 40
19.0
 40
20.0
 40
20.0
 40
20.0
 40
21.0
 40
21.0
 40
21.0
 40
22.0
 40
22.0
 40
22.0
 40
23.0
 40
23.0
 40
23.0
 40
24.0
 40
24.0
 40
24.0
 40
25.0
 40
25.0
 40
25.0
 40
26.0
 40
26.0
 40
26.0
 40
27.0
 40
27.0
 40
27.0
 40
28.0
 40
28.0
 40
28.0
 40
29.0
 40
29.0
 40
29.0
 40
30.0
 40
30.0
 40
30.0
 40
31.0
 40
31.0
 40
31.0
 40
32.0
 40
32.0
 40
32.0
 40
33.0
 40
33.0
 40
33.0
 40
34.0
 40
34.0
 40
34.0
 40
35.0
 40
35.0
 40
35.0
 40
36.0
 40
36.0
 40
36.0
 40
37.0
 40
37.0
 40
37.0
 40
38.0
 40
38.0
 40
38.0
 40
39.0
 40
39.0
 40
39.0
 40
40.0
 40
40.0
 40
40.0
 40
41.0
 40
41.0
 40
41.0
 40
42.0
 40
42.0
 40
42.0
 40
43.0
 40
43.0
 40
43.0
 40
44.0
 40
44.0
 40
44.0
 40
45.0
 40
45.0
 40
45.0
 40
46.0
 40
46.0
 40
46.0
 40
47.0
 40
47.0
 40
47.0
 40
48.0
 40
48.0
 40
48.0
 40
49.0
 40
49.0
 40
49.0
 40
50.0
 40
50.0
 40
50.0
 40
51.0
 40
51.0
 40
51.0
 40
52.0
 40
52.0
 40
52.0
 40
53.0
 40
53.0
 40
53.0
 40
54.0
 40
54.0
 40
54.0
 40
55.0
 40
55.0
 40
55.0
 40
56.0
 40
56.0
 40
56.0
 40
57.0
 40
57.0
 40
57.0
 40
58.0
 40
58.0
 40
58.0
 40
59.0
 40
59.0
 40
59.0
 40
60.0
 40
60.0
 40
60.0
 40
61.0
 40
61.0
 40
61.0
 40
62.0
 40
62.0
 40
62.0
 40
63.0
 40
63.0
 40
63.0
 40
64.0
 40
64.0
 40
64.0
 40
65.0
 40
65.0
 40
65.0
 40
66.0
 40
66.0
 40
66.0
 40
67.0
 40
67.0
 40
67.0
 40
68.0
 40
68.0
 40
68.0
 40
69.0
 40
69.0
 40
69.0
 40
70.0
 40
70.0
 40
70.0
 40
71.0
 40
71.0
 40
71.0
 40
72.0
 40
72.0
 40
72.0
 40
73.0
 40
73.0
 40
73.0
 40
74.0
 40
74.0
 40
74.0
 40
75.0
 40
75.0
 40
75.0
 40
76.0
 40
76.0
 40
76.0
 40
77.0
 40
77.0
 40
77.0
 40
78.0
 40
78.0
 40
78.0
 40
79.0
 40
79.0
 40
79.0
 40
79.0
 10
90.62116968220582
 20
-150.1234808652469
 10
90.62116968220582
 20
-150.1234808652469
 10
90.36743839971718
 20
-150.1234808652469
 10
90.36743839971718
 20
-150.1234808652469
 10
90.36743839971718
 20
-150.1234808652469
 10
90.09028046792883
 20
-150.1234808652469
 10
90.09028046792883
 20
-150.1234808652469
 10
90.09028046792883
 20
-150.1234808652469
 10
90.21723223656028
 20
-150.1658555397155
 10
90.21723223656028
 20
-150.1658555397155
 10
90.2277397777903
 20
-150.1699896542977
 10
90.24048663108571
 20
-150.1761908261712
 10
90.24048663108571
 20
-150.1889376794666
 10
90.24048663108571
 20
-150.2102972714752
 10
90.20879175262143
 20
-150.2164984433486
 10
90.18760441538713
 20
-150.2206325579309
 10
90.17692461938286
 20
-150.2440592072306
 10
90.14729679820971
 20
-150.3095160214504
 10
90.12834877304083
 20
-150.3539577532101
 10
90.12834877304083
 20
-150.3539577532101
 10
90.39913327818146
 20
-150.3539577532101
 10
90.39913327818146
 20
-150.3539577532101
 10
90.49008379899206
 20
-150.3539577532101
 10
90.68679875119983
 20
-150.3498236386278
 10
90.82856443041785
 20
-150.3412108999147
 10
90.82856443041785
 20
-150.3412108999147
 10
90.82856443041785
 20
-150.5189778269536
 10
90.82856443041785
 20
-150.5189778269536
 10
90.74605439354613
 20
-150.5148437123713
 10
90.72486705631183
 20
-150.5148437123713
 10
90.5450330719818
 20
-150.510709597789
 10
90.5133381935175
 20
-150.6650498755282
 10
90.46889646175777
 20
-150.7453206003345
 10
90.42445472999807
 20
-150.8152560386851
 10
90.5450330719818
 20
-150.8745116810314
 10
90.65079750337897
 20
-150.9420355525423
 10
90.75449487748498
 20
-151.0247178441882
 10
90.75449487748498
 20
-151.0247178441882
 10
90.63598359279239
 20
-151.1918049752229
 10
90.63598359279239
 20
-151.1918049752229
 10
90.61272919826697
 20
-151.172856950054
 10
90.60015459974579
 20
-151.1642442113409
 10
90.48801674170091
 20
-151.0794948624037
 10
90.43926864058462
 20
-151.041598812066
 10
90.38001299823832
 20
-151.0054253094708
 10
90.29974227343201
 20
-150.9609835777111
 10
90.08821341063768
 20
-151.1473632434631
 10
89.88288571971677
 20
-151.1704453832143
 10
89.59315318940728
 20
-151.2000732043875
 10
89.59315318940728
 20
-151.2000732043875
 10
89.48945581530125
 20
-151.0202392200574
 10
89.48945581530125
 20
-151.0202392200574
 10
89.80674910949275
 20
-151.0161051054751
 10
89.98227672446624
 20
-150.9906113988843
 10
90.13472219968853
 20
-150.8807128529048
 10
90.01621091499595
 20
-150.8300699492716
 10
89.9273274514765
 20
-150.8025091853896
 10
89.89132620365564
 20
-150.7897623320942
 10
89.87237817848678
 20
-150.8173230959762
 10
89.8575642679002
 20
-150.8362711211451
 10
89.8300035040182
 20
-150.8700330569005
 10
89.8300035040182
 20
-150.8700330569005
 10
89.63328855181044
 20
-150.787695274803
 10
89.63328855181044
 20
-150.787695274803
 10
89.71579858868215
 20
-150.7074245499967
 10
89.7771212883196
 20
-150.6119954050553
 10
89.83430987337476
 20
-150.510709597789
 10
89.64379609304044
 20
-150.5148437123713
 10
89.62278101058043
 20
-150.5148437123713
 10
89.54027097370868
 20
-150.5189778269536
 10
89.54027097370868
 20
-150.5189778269536
 10
89.54027097370868
 20
-150.3412108999147
 10
89.54027097370868
 20
-150.3412108999147
 10
89.6797973408613
 20
-150.3477565813367
 10
89.8892591463645
 20
-150.3518906959189
 10
89.91458059818107
 20
-150.3518906959189
 10
89.93163382083308
 20
-150.3181287601635
 10
89.9865830938228
 20
-150.1975504181798
 10
90.00570337376593
 20
-150.1234808652469
 10
89.9865830938228
 20
-150.1234808652469
 10
89.80881616678392
 20
-150.1296820371203
 10
89.61416827186729
 20
-150.1424288904158
 10
89.61416827186729
 20
-150.1424288904158
 10
89.61416827186729
 20
-150.2757540856949
 10
89.61416827186729
 20
-150.2757540856949
 10
89.56559242552527
 20
-150.3012477922858
 10
89.50633678317897
 20
-150.3329426707501
 10
89.37301158789981
 20
-150.3983994849698
 10
89.37301158789981
 20
-150.3983994849698
 10
89.37301158789981
 20
-150.5444715335444
 10
89.37301158789981
 20
-150.5444715335444
 10
89.37301158789981
 20
-150.5444715335444
 10
89.37301158789981
 20
-151.0119709908928
 10
89.37301158789981
 20
-151.0119709908928
 10
89.37301158789981
 20
-151.13875050475
 10
89.33718259485321
 20
-151.1980061470963
 10
89.05365123641715
 20
-151.1897379179317
 10
89.05365123641715
 20
-151.1897379179317
 10
88.94995386231114
 20
-150.9823431697197
 10
88.94995386231114
 20
-150.9823431697197
 10
89.01351587401398
 20
-150.9950900230151
 10
89.062091720356
 20
-150.9992241375974
 10
89.10222708275917
 20
-150.9992241375974
 10
89.17853594775746
 20
-150.9992241375974
 10
89.18904348898747
 20
-150.9757974882977
 10
89.18904348898747
 20
-150.910340674078
 10
89.18904348898747
 20
-150.910340674078
 10
89.18904348898747
 20
-150.4810817766158
 10
89.18904348898747
 20
-150.4810817766158
 10
89.09171954152915
 20
-150.5210448842447
 10
89.07483857365143
 20
-150.5275905656667
 10
89.02832978460056
 20
-150.5465385908355
 10
89.024023415244
 20
-150.5675536732956
 10
89.01971704588744
 20
-150.5971814944687
 10
89.00076902071857
 20
-150.5971814944687
 10
88.9923285367797
 20
-150.5971814944687
 10
88.98164874077542
 20
-150.5930473798864
 10
88.97544756890196
 20
-150.5696207305867
 10
88.97544756890196
 20
-150.5696207305867
 10
88.9225653532034
 20
-150.3773844025098
 10
88.9225653532034
 20
-150.3773844025098
 10
89.06846514700372
 20
-150.3308756134589
 10
89.13409421599773
 20
-150.3074489641592
 10
89.18904348898747
 20
-150.2864338816992
 10
89.18904348898747
 20
-150.2864338816992
 10
89.18904348898747
 20
-149.8737114425663
 10
89.18904348898747
 20
-149.8737114425663
 10
89.18904348898747
 20
-149.8737114425663
 10
89.13616127328888
 20
-149.8737114425663
 10
89.13616127328888
 20
-149.8737114425663
 10
89.13616127328888
 20
-149.8737114425663
 10
89.05795760577371
 20
-149.8737114425663
 10
89.05795760577371
 20
-149.8737114425663
 10
88.99026147948855
 20
-149.8737114425663
 10
88.98164874077542
 20
-149.8737114425663
 10
88.94581974772883
 20
-149.8802571239883
 10
88.94581974772883
 20
-149.8802571239883
 10
88.94581974772883
 20
-149.6856092290717
 10
88.94581974772883
 20
-149.6856092290717
 10
88.97320825683655
 20
-149.6918104009451
 10
88.98164874077542
 20
-149.6918104009451
 10
89.051584179126
 20
-149.6918104009451
 10
89.051584179126
 20
-149.6918104009451
 10
89.18473711963091
 20
-149.6918104009451
 10
89.18473711963091
 20
-149.6918104009451
 10
89.18473711963091
 20
-149.6218749625945
 10
89.18473711963091
 20
-149.539537180497
 10
89.18267006233975
 20
-149.5354030659147
 10
89.1742295784009
 20
-149.3555690815847
 10
89.1742295784009
 20
-149.3362765468673
 10
89.17216252110973
 20
-149.2897677578164
 10
89.17216252110973
 20
-149.2897677578164
 10
89.38782549848637
 20
-149.2983804965295
 10
89.38782549848637
 20
-149.2983804965295
 10
89.39850529449065
 20
-149.2983804965295
 10
89.41969263172493
 20
-149.3004475538207
 10
89.41969263172493
 20
-149.3173285216984
 10
89.41969263172493
 20
-149.3362765468673
 10
89.40487872113838
 20
-149.3469563428716
 10
89.37938501454752
 20
-149.3659043680404
 10
89.37938501454752
 20
-149.4168917812221
 10
89.37301158789981
 20
-149.6453016118942
 10
89.37525089996523
 20
-149.6918104009451
 10
89.50426972588783
 20
-149.6918104009451
 10
89.51701657918325
 20
-149.6918104009451
 10
89.61416827186729
 20
-149.6835421717805
 10
89.61416827186729
 20
-149.6835421717805
 10
89.61416827186729
 20
-149.8778455571486
 10
89.61416827186729
 20
-149.8778455571486
 10
89.57609996675527
 20
-149.8757784998574
 10
89.50840384047012
 20
-149.8716443852751
 10
89.37301158789981
 20
-149.8737114425663
 10
89.37301158789981
 20
-149.8737114425663
 10
89.37301158789981
 20
-150.2123643287663
 10
89.37301158789981
 20
-150.2123643287663
 10
89.4281331156638
 20
-150.1889376794666
 10
89.49358992988356
 20
-150.1613769155846
 10
89.54233803099983
 20
-150.1382947758335
 10
89.54233803099983
 20
-150.1382947758335
 10
89.54233803099983
 20
-149.9605278487946
 10
89.54233803099983
 20
-149.9605278487946
 10
89.65654294633587
 20
-149.97327470209
 10
89.77505423102845
 20
-149.97327470209
 10
89.89132620365564
 20
-149.97327470209
 10
89.86807180913022
 20
-149.8778455571486
 10
89.84068330002248
 20
-149.7955077750511
 10
89.7771212883196
 20
-149.6621825797719
 10
89.73267955655989
 20
-149.6642496370631
 10
89.65016951968816
 20
-149.6687282611939
 10
89.61210121457614
 20
-149.6707953184851
 10
89.61210121457614
 20
-149.6707953184851
 10
89.61210121457614
 20
-149.490961334155
 10
89.61210121457614
 20
-149.490961334155
 10
89.73698592591645
 20
-149.4992295633196
 10
89.91044648359878
 20
-149.5037081874504
 10
89.99295652047051
 20
-149.5037081874504
 10
89.99295652047051
 20
-149.5037081874504
 10
90.07546655734225
 20
-149.5037081874504
 10
90.07546655734225
 20
-149.5037081874504
 10
90.07546655734225
 20
-149.3407551709981
 10
90.07546655734225
 20
-149.3300753749938
 10
90.07339950005109
 20
-149.2749538472299
 10
90.07339950005109
 20
-149.2749538472299
 10
90.2975029613666
 20
-149.3004475538207
 10
90.2975029613666
 20
-149.3004475538207
 10
90.30180933072315
 20
-149.3004475538207
 10
90.32299666795745
 20
-149.3025146111119
 10
90.32299666795745
 20
-149.3193955789896
 10
90.32299666795745
 20
-149.3342094895762
 10
90.31231687195317
 20
-149.3428222282893
 10
90.28492836284543
 20
-149.3576361388758
 10
90.27855493619773
 20
-149.4230929530956
 10
90.27648787890658
 20
-149.4444525451042
 10
90.27648787890658
 20
-149.5037081874504
 10
90.27648787890658
 20
-149.5037081874504
 10
90.37157251429947
 20
-149.5037081874504
 10
90.37157251429947
 20
-149.5037081874504
 10
90.45408255117122
 20
-149.5037081874504
 10
90.62754310885352
 20
-149.4992295633196
 10
90.75242782019385
 20
-149.490961334155
 10
90.75242782019385
 20
-149.490961334155
 10
90.75242782019385
 20
-149.6707953184851
 10
90.75242782019385
 20
-149.6707953184851
 10
90.7227999990207
 20
-149.6687282611939
 10
90.6042887143281
 20
-149.6642496370631
 10
90.56415335192495
 20
-149.6621825797719
 10
90.54933944133836
 20
-149.7128254834051
 10
90.51540525080865
 20
-149.8251355962243
 10
90.44994843658891
 20
-149.9646619633769
 10
90.49215085628322
 20
-149.9646619633769
 10
90.76930878807157
 20
-149.945713938208
 10
90.83063148770902
 20
-149.9436468809169
 10
90.83063148770902
 20
-149.9436468809169
 10
90.83063148770902
 20
-150.1276149798292
 10
90.83063148770902
 20
-150.1276149798292
 10
90.80100366653587
 20
-150.1276149798292
 10
90.78412269865813
 20
-150.1234808652469
 10
90.62116968220582
 20
-150.1234808652469
 97
        0
 97
        1
330
136
 75
     2
 76
     1
 98
        1
 10
0.0
 20
0.0
450
        0
451
        0
460
0.0
461
0.0
452
        0
462
0.0
453
        0
470

  0
SPLINE
  5
138
330
130
100
AcDbEntity
  8
レイヤー 1
100
AcDbSpline
210
0.0
220
0.0
230
1.0
 70
    11
 71
     3
 72
    17
 73
    13
 74
     0
 42
0.0000000001
 43
0.0000000001
 40
0.0
 40
0.0
 40
0.0
 40
0.0
 40
1.0
 40
1.0
 40
1.0
 40
2.0
 40
2.0
 40
2.0
 40
3.0
 40
3.0
 40
3.0
 40
4.0
 40
4.0
 40
4.0
 40
4.0
 10
92.47773163920696
 20
-150.9230875273734
 30
0.0
 10
92.47773163920696
 20
-150.9230875273734
 30
0.0
 10
91.77114255518223
 20
-150.9230875273734
 30
0.0
 10
91.77114255518223
 20
-150.9230875273734
 30
0.0
 10
91.77114255518223
 20
-150.9230875273734
 30
0.0
 10
91.77114255518223
 20
-151.0374646974837
 30
0.0
 10
91.77114255518223
 20
-151.0374646974837
 30
0.0
 10
91.77114255518223
 20
-151.0374646974837
 30
0.0
 10
92.47773163920696
 20
-151.0374646974837
 30
0.0
 10
92.47773163920696
 20
-151.0374646974837
 30
0.0
 10
92.47773163920696
 20
-151.0374646974837
 30
0.0
 10
92.47773163920696
 20
-150.9230875273734
 30
0.0
 10
92.47773163920696
 20
-150.9230875273734
 30
0.0
  0
SPLINE
  5
139
330
130
100
AcDbEntity
  8
レイヤー 1
100
AcDbSpline
210
0.0
220
0.0
230
1.0
 70
    11
 71
     3
 72
    17
 73
    13
 74
     0
 42
0.0000000001
 43
0.0000000001
 40
0.0
 40
0.0
 40
0.0
 40
0.0
 40
1.0
 40
1.0
 40
1.0
 40
2.0
 40
2.0
 40
2.0
 40
3.0
 40
3.0
 40
3.0
 40
4.0
 40
4.0
 40
4.0
 40
4.0
 10
92.47773163920696
 20
-150.6798637861147
 30
0.0
 10
92.47773163920696
 20
-150.6798637861147
 30
0.0
 10
91.77114255518223
 20
-150.6798637861147
 30
0.0
 10
91.77114255518223
 20
-150.6798637861147
 30
0.0
 10
91.77114255518223
 20
-150.6798637861147
 30
0.0
 10
91.77114255518223
 20
-150.7938964466765
 30
0.0
 10
91.77114255518223
 20
-150.7938964466765
 30
0.0
 10
91.77114255518223
 20
-150.7938964466765
 30
0.0
 10
92.47773163920696
 20
-150.7938964466765
 30
0.0
 10
92.47773163920696
 20
-150.7938964466765
 30
0.0
 10
92.47773163920696
 20
-150.7938964466765
 30
0.0
 10
92.47773163920696
 20
-150.6798637861147
 30
0.0
 10
92.47773163920696
 20
-150.6798637861147
 30
0.0
  0
SPLINE
  5
13A
330
130
100
AcDbEntity
  8
レイヤー 1
100
AcDbSpline
210
0.0
220
0.0
230
1.0
 70
    11
 71
     3
 72
    17
 73
    13
 74
     0
 42
0.0000000001
 43
0.0000000001
 40
0.0
 40
0.0
 40
0.0
 40
0.0
 40
1.0
 40
1.0
 40
1.0
 40
2.0
 40
2.0
 40
2.0
 40
3.0
 40
3.0
 40
3.0
 40
4.0
 40
4.0
 40
4.0
 40
4.0
 10
92.47773163920696
 20
-150.4469753313119
 30
0.0
 10
92.47773163920696
 20
-150.4469753313119
 30
0.0
 10
91.77114255518223
 20
-150.4469753313119
 30
0.0
 10
91.77114255518223
 20
-150.4469753313119
 30
0.0
 10
91.77114255518223
 20
-150.4469753313119
 30
0.0
 10
91.77114255518223
 20
-150.5548068200002
 30
0.0
 10
91.77114255518223
 20
-150.5548068200002
 30
0.0
 10
91.77114255518223
 20
-150.5548068200002
 30
0.0
 10
92.47773163920696
 20
-150.5548068200002
 30
0.0
 10
92.47773163920696
 20
-150.5548068200002
 30
0.0
 10
92.47773163920696
 20
-150.5548068200002
 30
0.0
 10
92.47773163920696
 20
-150.4469753313119
 30
0.0
 10
92.47773163920696
 20
-150.4469753313119
 30
0.0
  0
SPLINE
  5
13B
330
130
100
AcDbEntity
  8
レイヤー 1
100
AcDbSpline
210
0.0
220
0.0
230
1.0
 70
     9
 71
     3
 72
   203
 73
   199
 74
     0
 42
0.0000000001
 43
0.0000000001
 40
0.0
 40
0.0
 40
0.0
 40
0.0
 40
1.0
 40
1.0
 40
1.0
 40
2.0
 40
2.0
 40
2.0
 40
3.0
 40
3.0
 40
3.0
 40
4.0
 40
4.0
 40
4.0
 40
5.0
 40
5.0
 40
5.0
 40
6.0
 40
6.0
 40
6.0
 40
7.0
 40
7.0
 40
7.0
 40
8.0
 40
8.0
 40
8.0
 40
9.0
 40
9.0
 40
9.0
 40
10.0
 40
10.0
 40
10.0
 40
11.0
 40
11.0
 40
11.0
 40
12.0
 40
12.0
 40
12.0
 40
13.0
 40
13.0
 40
13.0
 40
14.0
 40
14.0
 40
14.0
 40
15.0
 40
15.0
 40
15.0
 40
16.0
 40
16.0
 40
16.0
 40
17.0
 40
17.0
 40
17.0
 40
18.0
 40
18.0
 40
18.0
 40
19.0
 40
19.0
 40
19.0
 40
20.0
 40
20.0
 40
20.0
 40
21.0
 40
21.0
 40
21.0
 40
22.0
 40
22.0
 40
22.0
 40
23.0
 40
23.0
 40
23.0
 40
24.0
 40
24.0
 40
24.0
 40
25.0
 40
25.0
 40
25.0
 40
26.0
 40
26.0
 40
26.0
 40
27.0
 40
27.0
 40
27.0
 40
28.0
 40
28.0
 40
28.0
 40
29.0
 40
29.0
 40
29.0
 40
30.0
 40
30.0
 40
30.0
 40
31.0
 40
31.0
 40
31.0
 40
32.0
 40
32.0
 40
32.0
 40
33.0
 40
33.0
 40
33.0
 40
34.0
 40
34.0
 40
34.0
 40
35.0
 40
35.0
 40
35.0
 40
36.0
 40
36.0
 40
36.0
 40
37.0
 40
37.0
 40
37.0
 40
38.0
 40
38.0
 40
38.0
 40
39.0
 40
39.0
 40
39.0
 40
40.0
 40
40.0
 40
40.0
 40
41.0
 40
41.0
 40
41.0
 40
42.0
 40
42.0
 40
42.0
 40
43.0
 40
43.0
 40
43.0
 40
44.0
 40
44.0
 40
44.0
 40
45.0
 40
45.0
 40
45.0
 40
46.0
 40
46.0
 40
46.0
 40
47.0
 40
47.0
 40
47.0
 40
48.0
 40
48.0
 40
48.0
 40
49.0
 40
49.0
 40
49.0
 40
50.0
 40
50.0
 40
50.0
 40
51.0
 40
51.0
 40
51.0
 40
52.0
 40
52.0
 40
52.0
 40
53.0
 40
53.0
 40
53.0
 40
54.0
 40
54.0
 40
54.0
 40
55.0
 40
55.0
 40
55.0
 40
56.0
 40
56.0
 40
56.0
 40
57.0
 40
57.0
 40
57.0
 40
58.0
 40
58.0
 40
58.0
 40
59.0
 40
59.0
 40
59.0
 40
60.0
 40
60.0
 40
60.0
 40
61.0
 40
61.0
 40
61.0
 40
62.0
 40
62.0
 40
62.0
 40
63.0
 40
63.0
 40
63.0
 40
64.0
 40
64.0
 40
64.0
 40
65.0
 40
65.0
 40
65.0
 40
66.0
 40
66.0
 40
66.0
 40
66.0
 10
92.31271156546348
 20
-150.1910047367578
 30
0.0
 10
92.31271156546348
 20
-150.1910047367578
 30
0.0
 10
91.7542615873045
 20
-150.1910047367578
 30
0.0
 10
91.7542615873045
 20
-150.1910047367578
 30
0.0
 10
91.74358179130022
 20
-150.2354464685175
 30
0.0
 10
91.73514130736135
 20
-150.2671413469818
 30
0.0
 10
91.72239445406594
 20
-150.3053819068681
 30
0.0
 10
91.74788816065678
 20
-150.3053819068681
 30
0.0
 10
91.76270207124336
 20
-150.3074489641592
 30
0.0
 10
91.76907549789106
 20
-150.3074489641592
 30
0.0
 10
91.76907549789106
 20
-150.3074489641592
 30
0.0
 10
91.95734996615996
 20
-150.3074489641592
 30
0.0
 10
91.95734996615996
 20
-150.3074489641592
 30
0.0
 10
91.95734996615996
 20
-150.3074489641592
 30
0.0
 10
92.33165959063237
 20
-150.3074489641592
 30
0.0
 10
92.33165959063237
 20
-150.3074489641592
 30
0.0
 10
92.3824747490398
 20
-150.3074489641592
 30
0.0
 10
92.66600610747586
 20
-150.2947021108638
 30
0.0
 10
92.69770098594015
 20
-150.2947021108638
 30
0.0
 10
92.69563392864901
 20
-150.3222628747458
 30
0.0
 10
92.69339461658359
 20
-150.3412108999147
 30
0.0
 10
92.69339461658359
 20
-150.3708387210878
 30
0.0
 10
92.69132755929245
 20
-150.4025335995521
 30
0.0
 10
92.69132755929245
 20
-150.5379258521224
 30
0.0
 10
92.69132755929245
 20
-150.5654866160045
 30
0.0
 10
92.69132755929245
 20
-150.5654866160045
 30
0.0
 10
92.69132755929245
 20
-150.8107774145542
 30
0.0
 10
92.69132755929245
 20
-150.8107774145542
 30
0.0
 10
92.69132755929245
 20
-150.8552191463139
 30
0.0
 10
92.69563392864901
 20
-151.0522786080703
 30
0.0
 10
92.69976804323132
 20
-151.2045518285183
 30
0.0
 10
92.69976804323132
 20
-151.2045518285183
 30
0.0
 10
92.4734252698504
 20
-151.2045518285183
 30
0.0
 10
92.4734252698504
 20
-151.2045518285183
 30
0.0
 10
92.4734252698504
 20
-151.2045518285183
 30
0.0
 10
92.47566458191581
 20
-151.1704453832143
 30
0.0
 10
92.47566458191581
 20
-151.1704453832143
 30
0.0
 10
92.47566458191581
 20
-151.1704453832143
 30
0.0
 10
91.77320961247337
 20
-151.1704453832143
 30
0.0
 10
91.77320961247337
 20
-151.1704453832143
 30
0.0
 10
91.77320961247337
 20
-151.1704453832143
 30
0.0
 10
91.77527666976452
 20
-151.2045518285183
 30
0.0
 10
91.77527666976452
 20
-151.2045518285183
 30
0.0
 10
91.77527666976452
 20
-151.2045518285183
 30
0.0
 10
91.55737438032247
 20
-151.2045518285183
 30
0.0
 10
91.55737438032247
 20
-151.2045518285183
 30
0.0
 10
91.56168074967903
 20
-151.1494303007543
 30
0.0
 10
91.56168074967903
 20
-151.1366834474589
 30
0.0
 10
91.56805417632673
 20
-151.0226507868971
 30
0.0
 10
91.5701212336179
 20
-150.9950900230151
 30
0.0
 10
91.57218829090904
 20
-150.8617648277359
 30
0.0
 10
91.57218829090904
 20
-150.8428168025671
 30
0.0
 10
91.57218829090904
 20
-150.8428168025671
 30
0.0
 10
91.57218829090904
 20
-150.6395561689373
 30
0.0
 10
91.57218829090904
 20
-150.6395561689373
 30
0.0
 10
91.43266192375643
 20
-150.8893255916179
 30
0.0
 10
91.26333548065639
 20
-151.0202392200574
 30
0.0
 10
91.15757104925922
 20
-151.0860405438257
 30
0.0
 10
91.15757104925922
 20
-151.0860405438257
 30
0.0
 10
90.98411049157689
 20
-150.9461696671245
 30
0.0
 10
90.98411049157689
 20
-150.9461696671245
 30
0.0
 10
91.07299395509633
 20
-150.8955267634914
 30
0.0
 10
91.21682669160552
 20
-150.8087103572631
 30
0.0
 10
91.35428600146699
 20
-150.6140624623465
 30
0.0
 10
91.44540877705185
 20
-150.4872829484893
 30
0.0
 10
91.51086559127159
 20
-150.3432779572058
 30
0.0
 10
91.5447997818013
 20
-150.1910047367578
 30
0.0
 10
91.31621769635499
 20
-150.1930717940489
 30
0.0
 10
91.13638371202494
 20
-150.1996174754709
 30
0.0
 10
91.04129907663205
 20
-150.2016845327621
 30
0.0
 10
91.04129907663205
 20
-150.2016845327621
 30
0.0
 10
91.04129907663205
 20
-150.0239176057232
 30
0.0
 10
91.04129907663205
 20
-150.0239176057232
 30
0.0
 10
91.2380140288398
 20
-150.0304632871451
 30
0.0
 10
91.52154538727586
 20
-150.0345974017274
 30
0.0
 10
91.67175155043276
 20
-150.0345974017274
 30
0.0
 10
91.67175155043276
 20
-150.0345974017274
 30
0.0
 10
91.88534747051825
 20
-150.0345974017274
 30
0.0
 10
91.88534747051825
 20
-150.0345974017274
 30
0.0
 10
91.88534747051825
 20
-150.0345974017274
 30
0.0
 10
91.88534747051825
 20
-149.9267659130391
 30
0.0
 10
91.88534747051825
 20
-149.9267659130391
 30
0.0
 10
91.88534747051825
 20
-149.9267659130391
 30
0.0
 10
91.73944767671791
 20
-149.9267659130391
 30
0.0
 10
91.73944767671791
 20
-149.9267659130391
 30
0.0
 10
91.5701212336179
 20
-149.9267659130391
 30
0.0
 10
91.40096704529211
 20
-149.9309000276214
 30
0.0
 10
91.23370765948324
 20
-149.9371011994949
 30
0.0
 10
91.23370765948324
 20
-149.9371011994949
 30
0.0
 10
91.23370765948324
 20
-149.765879953878
 30
0.0
 10
91.23370765948324
 20
-149.765879953878
 30
0.0
 10
91.3882201919967
 20
-149.7765597498822
 30
0.0
 10
91.57442760297445
 20
-149.7765597498822
 30
0.0
 10
91.73944767671791
 20
-149.7765597498822
 30
0.0
 10
91.73944767671791
 20
-149.7765597498822
 30
0.0
 10
91.88534747051825
 20
-149.7765597498822
 30
0.0
 10
91.88534747051825
 20
-149.7765597498822
 30
0.0
 10
91.88534747051825
 20
-149.7765597498822
 30
0.0
 10
91.88534747051825
 20
-149.6580484651896
 30
0.0
 10
91.88534747051825
 20
-149.6580484651896
 30
0.0
 10
91.88534747051825
 20
-149.6580484651896
 30
0.0
 10
91.7542615873045
 20
-149.6580484651896
 30
0.0
 10
91.7542615873045
 20
-149.6580484651896
 30
0.0
 10
91.70758054347935
 20
-149.6580484651896
 30
0.0
 10
91.50449216462389
 20
-149.6663166943542
 30
0.0
 10
91.46228974492956
 20
-149.6663166943542
 30
0.0
 10
91.2592013660741
 20
-149.6707953184851
 30
0.0
 10
91.18306475585006
 20
-149.6728623757762
 30
0.0
 10
91.10468883356064
 20
-149.6749294330673
 30
0.0
 10
91.10468883356064
 20
-149.6749294330673
 30
0.0
 10
91.10468883356064
 20
-149.490961334155
 30
0.0
 10
91.10468883356064
 20
-149.490961334155
 30
0.0
 10
91.21889374889667
 20
-149.4992295633196
 30
0.0
 10
91.26333548065639
 20
-149.4992295633196
 30
0.0
 10
91.6462578438419
 20
-149.5078423020328
 30
0.0
 10
91.58286808691331
 20
-149.4127576666398
 30
0.0
 10
91.55530732303132
 20
-149.3851969027579
 30
0.0
 10
91.51930607521045
 20
-149.3490234001627
 30
0.0
 10
91.51930607521045
 20
-149.3490234001627
 30
0.0
 10
91.6950059449582
 20
-149.2666856180653
 30
0.0
 10
91.6950059449582
 20
-149.2666856180653
 30
0.0
 10
91.73514130736135
 20
-149.3025146111119
 30
0.0
 10
91.77958303912108
 20
-149.3448892855804
 30
0.0
 10
91.85365259205395
 20
-149.4547878315599
 30
0.0
 10
91.85365259205395
 20
-149.4547878315599
 30
0.0
 10
91.73944767671791
 20
-149.5099093593239
 30
0.0
 10
91.73944767671791
 20
-149.5099093593239
 30
0.0
 10
91.73944767671791
 20
-149.5099093593239
 30
0.0
 10
91.74995521794793
 20
-149.5099093593239
 30
0.0
 10
91.74995521794793
 20
-149.5099093593239
 30
0.0
 10
91.74995521794793
 20
-149.5099093593239
 30
0.0
 10
92.27240394828607
 20
-149.5099093593239
 30
0.0
 10
92.27240394828607
 20
-149.5099093593239
 30
0.0
 10
92.27240394828607
 20
-149.5099093593239
 30
0.0
 10
92.17731931289318
 20
-149.4654676275642
 30
0.0
 10
92.17731931289318
 20
-149.4654676275642
 30
0.0
 10
92.20488007677516
 20
-149.4275715772264
 30
0.0
 10
92.26189640705605
 20
-149.3469563428716
 30
0.0
 10
92.27671031764264
 20
-149.2728867899387
 30
0.0
 10
92.27671031764264
 20
-149.2728867899387
 30
0.0
 10
92.49030623772812
 20
-149.3362765468673
 30
0.0
 10
92.49030623772812
 20
-149.3362765468673
 30
0.0
 10
92.49891897644124
 20
-149.338688113707
 30
0.0
 10
92.51993405890127
 20
-149.3490234001627
 30
0.0
 10
92.51993405890127
 20
-149.3703829921713
 30
0.0
 10
92.51993405890127
 20
-149.408279042509
 30
0.0
 10
92.45447724468153
 20
-149.408279042509
 30
0.0
 10
92.43535696473839
 20
-149.408279042509
 30
0.0
 10
92.42484942350838
 20
-149.4275715772264
 30
0.0
 10
92.40159502898293
 20
-149.4675346848553
 30
0.0
 10
92.37196720780978
 20
-149.5078423020328
 30
0.0
 10
92.77177053887303
 20
-149.5012966206108
 30
0.0
 10
92.80139836004618
 20
-149.4992295633196
 30
0.0
 10
92.8775349702702
 20
-149.4930283914461
 30
0.0
 10
92.8775349702702
 20
-149.4930283914461
 30
0.0
 10
92.8775349702702
 20
-149.6749294330673
 30
0.0
 10
92.8775349702702
 20
-149.6749294330673
 30
0.0
 10
92.85841469032707
 20
-149.6749294330673
 30
0.0
 10
92.83309323851048
 20
-149.6728623757762
 30
0.0
 10
92.61312389177728
 20
-149.6642496370631
 30
0.0
 10
92.56230873336985
 20
-149.6621825797719
 30
0.0
 10
92.34233938663663
 20
-149.6580484651896
 30
0.0
 10
92.29789765487693
 20
-149.6580484651896
 30
0.0
 10
92.29789765487693
 20
-149.6580484651896
 30
0.0
 10
92.082062422726
 20
-149.6580484651896
 30
0.0
 10
92.082062422726
 20
-149.6580484651896
 30
0.0
 10
92.082062422726
 20
-149.6580484651896
 30
0.0
 10
92.082062422726
 20
-149.7765597498822
 30
0.0
 10
92.082062422726
 20
-149.7765597498822
 30
0.0
 10
92.082062422726
 20
-149.7765597498822
 30
0.0
 10
92.25552298040835
 20
-149.7765597498822
 30
0.0
 10
92.25552298040835
 20
-149.7765597498822
 30
0.0
 10
92.41847599686066
 20
-149.7765597498822
 30
0.0
 10
92.60881752242072
 20
-149.7765597498822
 30
0.0
 10
92.76539711222531
 20
-149.765879953878
 30
0.0
 10
92.76539711222531
 20
-149.765879953878
 30
0.0
 10
92.76539711222531
 20
-149.9371011994949
 30
0.0
 10
92.76539711222531
 20
-149.9371011994949
 30
0.0
 10
92.55593530672213
 20
-149.9288329703303
 30
0.0
 10
92.35922035451435
 20
-149.9267659130391
 30
0.0
 10
92.25552298040835
 20
-149.9267659130391
 30
0.0
 10
92.25552298040835
 20
-149.9267659130391
 30
0.0
 10
92.082062422726
 20
-149.9267659130391
 30
0.0
 10
92.082062422726
 20
-149.9267659130391
 30
0.0
 10
92.082062422726
 20
-149.9267659130391
 30
0.0
 10
92.082062422726
 20
-150.0345974017274
 30
0.0
 10
92.082062422726
 20
-150.0345974017274
 30
0.0
 10
92.082062422726
 20
-150.0345974017274
 30
0.0
 10
92.31271156546348
 20
-150.0345974017274
 30
0.0
 10
92.31271156546348
 20
-150.0345974017274
 30
0.0
 10
92.44603676074266
 20
-150.0345974017274
 30
0.0
 10
92.73370223376103
 20
-150.0304632871451
 30
0.0
 10
92.94316403926421
 20
-150.0239176057232
 30
0.0
 10
92.94316403926421
 20
-150.0239176057232
 30
0.0
 10
92.94316403926421
 20
-150.2016845327621
 30
0.0
 10
92.94316403926421
 20
-150.2016845327621
 30
0.0
 10
92.75058320163875
 20
-150.1954833608886
 30
0.0
 10
92.43742402202952
 20
-150.1910047367578
 30
0.0
 10
92.31271156546348
 20
-150.1910047367578
 30
0.0
  0
HATCH
  5
13C
330
130
100
AcDbEntity
  8
レイヤー 1
 62
    18
420
        0
440
 33554687
100
AcDbHatch
 10
0.0
 20
0.0
 30
0.0
210
0.0
220
0.0
230
1.0
  2
SOLID
 70
     1
 71
     1
 91
        4
 92
        1
 93
        1
 72
     4
 94
        3
 73
     0
 74
     0
 95
       17
 96
       13
 40
0.0
 40
0.0
 40
0.0
 40
0.0
 40
1.0
 40
1.0
 40
1.0
 40
2.0
 40
2.0
 40
2.0
 40
3.0
 40
3.0
 40
3.0
 40
4.0
 40
4.0
 40
4.0
 40
4.0
 10
92.47773163920696
 20
-150.9230875273734
 10
92.47773163920696
 20
-150.9230875273734
 10
91.77114255518223
 20
-150.9230875273734
 10
91.77114255518223
 20
-150.9230875273734
 10
91.77114255518223
 20
-150.9230875273734
 10
91.77114255518223
 20
-151.0374646974837
 10
91.77114255518223
 20
-151.0374646974837
 10
91.77114255518223
 20
-151.0374646974837
 10
92.47773163920696
 20
-151.0374646974837
 10
92.47773163920696
 20
-151.0374646974837
 10
92.47773163920696
 20
-151.0374646974837
 10
92.47773163920696
 20
-150.9230875273734
 10
92.47773163920696
 20
-150.9230875273734
 97
        0
 97
        1
330
138
 92
        1
 93
        1
 72
     4
 94
        3
 73
     0
 74
     0
 95
       17
 96
       13
 40
0.0
 40
0.0
 40
0.0
 40
0.0
 40
1.0
 40
1.0
 40
1.0
 40
2.0
 40
2.0
 40
2.0
 40
3.0
 40
3.0
 40
3.0
 40
4.0
 40
4.0
 40
4.0
 40
4.0
 10
92.47773163920696
 20
-150.6798637861147
 10
92.47773163920696
 20
-150.6798637861147
 10
91.77114255518223
 20
-150.6798637861147
 10
91.77114255518223
 20
-150.6798637861147
 10
91.77114255518223
 20
-150.6798637861147
 10
91.77114255518223
 20
-150.7938964466765
 10
91.77114255518223
 20
-150.7938964466765
 10
91.77114255518223
 20
-150.7938964466765
 10
92.47773163920696
 20
-150.7938964466765
 10
92.47773163920696
 20
-150.7938964466765
 10
92.47773163920696
 20
-150.7938964466765
 10
92.47773163920696
 20
-150.6798637861147
 10
92.47773163920696
 20
-150.6798637861147
 97
        0
 97
        1
330
139
 92
        1
 93
        1
 72
     4
 94
        3
 73
     0
 74
     0
 95
       17
 96
       13
 40
0.0
 40
0.0
 40
0.0
 40
0.0
 40
1.0
 40
1.0
 40
1.0
 40
2.0
 40
2.0
 40
2.0
 40
3.0
 40
3.0
 40
3.0
 40
4.0
 40
4.0
 40
4.0
 40
4.0
 10
92.47773163920696
 20
-150.4469753313119
 10
92.47773163920696
 20
-150.4469753313119
 10
91.77114255518223
 20
-150.4469753313119
 10
91.77114255518223
 20
-150.4469753313119
 10
91.77114255518223
 20
-150.4469753313119
 10
91.77114255518223
 20
-150.5548068200002
 10
91.77114255518223
 20
-150.5548068200002
 10
91.77114255518223
 20
-150.5548068200002
 10
92.47773163920696
 20
-150.5548068200002
 10
92.47773163920696
 20
-150.5548068200002
 10
92.47773163920696
 20
-150.5548068200002
 10
92.47773163920696
 20
-150.4469753313119
 10
92.47773163920696
 20
-150.4469753313119
 97
        0
 97
        1
330
13A
 92
        1
 93
        1
 72
     4
 94
        3
 73
     0
 74
     0
 95
      203
 96
      199
 40
0.0
 40
0.0
 40
0.0
 40
0.0
 40
1.0
 40
1.0
 40
1.0
 40
2.0
 40
2.0
 40
2.0
 40
3.0
 40
3.0
 40
3.0
 40
4.0
 40
4.0
 40
4.0
 40
5.0
 40
5.0
 40
5.0
 40
6.0
 40
6.0
 40
6.0
 40
7.0
 40
7.0
 40
7.0
 40
8.0
 40
8.0
 40
8.0
 40
9.0
 40
9.0
 40
9.0
 40
10.0
 40
10.0
 40
10.0
 40
11.0
 40
11.0
 40
11.0
 40
12.0
 40
12.0
 40
12.0
 40
13.0
 40
13.0
 40
13.0
 40
14.0
 40
14.0
 40
14.0
 40
15.0
 40
15.0
 40
15.0
 40
16.0
 40
16.0
 40
16.0
 40
17.0
 40
17.0
 40
17.0
 40
18.0
 40
18.0
 40
18.0
 40
19.0
 40
19.0
 40
19.0
 40
20.0
 40
20.0
 40
20.0
 40
21.0
 40
21.0
 40
21.0
 40
22.0
 40
22.0
 40
22.0
 40
23.0
 40
23.0
 40
23.0
 40
24.0
 40
24.0
 40
24.0
 40
25.0
 40
25.0
 40
25.0
 40
26.0
 40
26.0
 40
26.0
 40
27.0
 40
27.0
 40
27.0
 40
28.0
 40
28.0
 40
28.0
 40
29.0
 40
29.0
 40
29.0
 40
30.0
 40
30.0
 40
30.0
 40
31.0
 40
31.0
 40
31.0
 40
32.0
 40
32.0
 40
32.0
 40
33.0
 40
33.0
 40
33.0
 40
34.0
 40
34.0
 40
34.0
 40
35.0
 40
35.0
 40
35.0
 40
36.0
 40
36.0
 40
36.0
 40
37.0
 40
37.0
 40
37.0
 40
38.0
 40
38.0
 40
38.0
 40
39.0
 40
39.0
 40
39.0
 40
40.0
 40
40.0
 40
40.0
 40
41.0
 40
41.0
 40
41.0
 40
42.0
 40
42.0
 40
42.0
 40
43.0
 40
43.0
 40
43.0
 40
44.0
 40
44.0
 40
44.0
 40
45.0
 40
45.0
 40
45.0
 40
46.0
 40
46.0
 40
46.0
 40
47.0
 40
47.0
 40
47.0
 40
48.0
 40
48.0
 40
48.0
 40
49.0
 40
49.0
 40
49.0
 40
50.0
 40
50.0
 40
50.0
 40
51.0
 40
51.0
 40
51.0
 40
52.0
 40
52.0
 40
52.0
 40
53.0
 40
53.0
 40
53.0
 40
54.0
 40
54.0
 40
54.0
 40
55.0
 40
55.0
 40
55.0
 40
56.0
 40
56.0
 40
56.0
 40
57.0
 40
57.0
 40
57.0
 40
58.0
 40
58.0
 40
58.0
 40
59.0
 40
59.0
 40
59.0
 40
60.0
 40
60.0
 40
60.0
 40
61.0
 40
61.0
 40
61.0
 40
62.0
 40
62.0
 40
62.0
 40
63.0
 40
63.0
 40
63.0
 40
64.0
 40
64.0
 40
64.0
 40
65.0
 40
65.0
 40
65.0
 40
66.0
 40
66.0
 40
66.0
 40
66.0
 10
92.31271156546348
 20
-150.1910047367578
 10
92.31271156546348
 20
-150.1910047367578
 10
91.7542615873045
 20
-150.1910047367578
 10
91.7542615873045
 20
-150.1910047367578
 10
91.74358179130022
 20
-150.2354464685175
 10
91.73514130736135
 20
-150.2671413469818
 10
91.72239445406594
 20
-150.3053819068681
 10
91.74788816065678
 20
-150.3053819068681
 10
91.76270207124336
 20
-150.3074489641592
 10
91.76907549789106
 20
-150.3074489641592
 10
91.76907549789106
 20
-150.3074489641592
 10
91.95734996615996
 20
-150.3074489641592
 10
91.95734996615996
 20
-150.3074489641592
 10
91.95734996615996
 20
-150.3074489641592
 10
92.33165959063237
 20
-150.3074489641592
 10
92.33165959063237
 20
-150.3074489641592
 10
92.3824747490398
 20
-150.3074489641592
 10
92.66600610747586
 20
-150.2947021108638
 10
92.69770098594015
 20
-150.2947021108638
 10
92.69563392864901
 20
-150.3222628747458
 10
92.69339461658359
 20
-150.3412108999147
 10
92.69339461658359
 20
-150.3708387210878
 10
92.69132755929245
 20
-150.4025335995521
 10
92.69132755929245
 20
-150.5379258521224
 10
92.69132755929245
 20
-150.5654866160045
 10
92.69132755929245
 20
-150.5654866160045
 10
92.69132755929245
 20
-150.8107774145542
 10
92.69132755929245
 20
-150.8107774145542
 10
92.69132755929245
 20
-150.8552191463139
 10
92.69563392864901
 20
-151.0522786080703
 10
92.69976804323132
 20
-151.2045518285183
 10
92.69976804323132
 20
-151.2045518285183
 10
92.4734252698504
 20
-151.2045518285183
 10
92.4734252698504
 20
-151.2045518285183
 10
92.4734252698504
 20
-151.2045518285183
 10
92.47566458191581
 20
-151.1704453832143
 10
92.47566458191581
 20
-151.1704453832143
 10
92.47566458191581
 20
-151.1704453832143
 10
91.77320961247337
 20
-151.1704453832143
 10
91.77320961247337
 20
-151.1704453832143
 10
91.77320961247337
 20
-151.1704453832143
 10
91.77527666976452
 20
-151.2045518285183
 10
91.77527666976452
 20
-151.2045518285183
 10
91.77527666976452
 20
-151.2045518285183
 10
91.55737438032247
 20
-151.2045518285183
 10
91.55737438032247
 20
-151.2045518285183
 10
91.56168074967903
 20
-151.1494303007543
 10
91.56168074967903
 20
-151.1366834474589
 10
91.56805417632673
 20
-151.0226507868971
 10
91.5701212336179
 20
-150.9950900230151
 10
91.57218829090904
 20
-150.8617648277359
 10
91.57218829090904
 20
-150.8428168025671
 10
91.57218829090904
 20
-150.8428168025671
 10
91.57218829090904
 20
-150.6395561689373
 10
91.57218829090904
 20
-150.6395561689373
 10
91.43266192375643
 20
-150.8893255916179
 10
91.26333548065639
 20
-151.0202392200574
 10
91.15757104925922
 20
-151.0860405438257
 10
91.15757104925922
 20
-151.0860405438257
 10
90.98411049157689
 20
-150.9461696671245
 10
90.98411049157689
 20
-150.9461696671245
 10
91.07299395509633
 20
-150.8955267634914
 10
91.21682669160552
 20
-150.8087103572631
 10
91.35428600146699
 20
-150.6140624623465
 10
91.44540877705185
 20
-150.4872829484893
 10
91.51086559127159
 20
-150.3432779572058
 10
91.5447997818013
 20
-150.1910047367578
 10
91.31621769635499
 20
-150.1930717940489
 10
91.13638371202494
 20
-150.1996174754709
 10
91.04129907663205
 20
-150.2016845327621
 10
91.04129907663205
 20
-150.2016845327621
 10
91.04129907663205
 20
-150.0239176057232
 10
91.04129907663205
 20
-150.0239176057232
 10
91.2380140288398
 20
-150.0304632871451
 10
91.52154538727586
 20
-150.0345974017274
 10
91.67175155043276
 20
-150.0345974017274
 10
91.67175155043276
 20
-150.0345974017274
 10
91.88534747051825
 20
-150.0345974017274
 10
91.88534747051825
 20
-150.0345974017274
 10
91.88534747051825
 20
-150.0345974017274
 10
91.88534747051825
 20
-149.9267659130391
 10
91.88534747051825
 20
-149.9267659130391
 10
91.88534747051825
 20
-149.9267659130391
 10
91.73944767671791
 20
-149.9267659130391
 10
91.73944767671791
 20
-149.9267659130391
 10
91.5701212336179
 20
-149.9267659130391
 10
91.40096704529211
 20
-149.9309000276214
 10
91.23370765948324
 20
-149.9371011994949
 10
91.23370765948324
 20
-149.9371011994949
 10
91.23370765948324
 20
-149.765879953878
 10
91.23370765948324
 20
-149.765879953878
 10
91.3882201919967
 20
-149.7765597498822
 10
91.57442760297445
 20
-149.7765597498822
 10
91.73944767671791
 20
-149.7765597498822
 10
91.73944767671791
 20
-149.7765597498822
 10
91.88534747051825
 20
-149.7765597498822
 10
91.88534747051825
 20
-149.7765597498822
 10
91.88534747051825
 20
-149.7765597498822
 10
91.88534747051825
 20
-149.6580484651896
 10
91.88534747051825
 20
-149.6580484651896
 10
91.88534747051825
 20
-149.6580484651896
 10
91.7542615873045
 20
-149.6580484651896
 10
91.7542615873045
 20
-149.6580484651896
 10
91.70758054347935
 20
-149.6580484651896
 10
91.50449216462389
 20
-149.6663166943542
 10
91.46228974492956
 20
-149.6663166943542
 10
91.2592013660741
 20
-149.6707953184851
 10
91.18306475585006
 20
-149.6728623757762
 10
91.10468883356064
 20
-149.6749294330673
 10
91.10468883356064
 20
-149.6749294330673
 10
91.10468883356064
 20
-149.490961334155
 10
91.10468883356064
 20
-149.490961334155
 10
91.21889374889667
 20
-149.4992295633196
 10
91.26333548065639
 20
-149.4992295633196
 10
91.6462578438419
 20
-149.5078423020328
 10
91.58286808691331
 20
-149.4127576666398
 10
91.55530732303132
 20
-149.3851969027579
 10
91.51930607521045
 20
-149.3490234001627
 10
91.51930607521045
 20
-149.3490234001627
 10
91.6950059449582
 20
-149.2666856180653
 10
91.6950059449582
 20
-149.2666856180653
 10
91.73514130736135
 20
-149.3025146111119
 10
91.77958303912108
 20
-149.3448892855804
 10
91.85365259205395
 20
-149.4547878315599
 10
91.85365259205395
 20
-149.4547878315599
 10
91.73944767671791
 20
-149.5099093593239
 10
91.73944767671791
 20
-149.5099093593239
 10
91.73944767671791
 20
-149.5099093593239
 10
91.74995521794793
 20
-149.5099093593239
 10
91.74995521794793
 20
-149.5099093593239
 10
91.74995521794793
 20
-149.5099093593239
 10
92.27240394828607
 20
-149.5099093593239
 10
92.27240394828607
 20
-149.5099093593239
 10
92.27240394828607
 20
-149.5099093593239
 10
92.17731931289318
 20
-149.4654676275642
 10
92.17731931289318
 20
-149.4654676275642
 10
92.20488007677516
 20
-149.4275715772264
 10
92.26189640705605
 20
-149.3469563428716
 10
92.27671031764264
 20
-149.2728867899387
 10
92.27671031764264
 20
-149.2728867899387
 10
92.49030623772812
 20
-149.3362765468673
 10
92.49030623772812
 20
-149.3362765468673
 10
92.49891897644124
 20
-149.338688113707
 10
92.51993405890127
 20
-149.3490234001627
 10
92.51993405890127
 20
-149.3703829921713
 10
92.51993405890127
 20
-149.408279042509
 10
92.45447724468153
 20
-149.408279042509
 10
92.43535696473839
 20
-149.408279042509
 10
92.42484942350838
 20
-149.4275715772264
 10
92.40159502898293
 20
-149.4675346848553
 10
92.37196720780978
 20
-149.5078423020328
 10
92.77177053887303
 20
-149.5012966206108
 10
92.80139836004618
 20
-149.4992295633196
 10
92.8775349702702
 20
-149.4930283914461
 10
92.8775349702702
 20
-149.4930283914461
 10
92.8775349702702
 20
-149.6749294330673
 10
92.8775349702702
 20
-149.6749294330673
 10
92.85841469032707
 20
-149.6749294330673
 10
92.83309323851048
 20
-149.6728623757762
 10
92.61312389177728
 20
-149.6642496370631
 10
92.56230873336985
 20
-149.6621825797719
 10
92.34233938663663
 20
-149.6580484651896
 10
92.29789765487693
 20
-149.6580484651896
 10
92.29789765487693
 20
-149.6580484651896
 10
92.082062422726
 20
-149.6580484651896
 10
92.082062422726
 20
-149.6580484651896
 10
92.082062422726
 20
-149.6580484651896
 10
92.082062422726
 20
-149.7765597498822
 10
92.082062422726
 20
-149.7765597498822
 10
92.082062422726
 20
-149.7765597498822
 10
92.25552298040835
 20
-149.7765597498822
 10
92.25552298040835
 20
-149.7765597498822
 10
92.41847599686066
 20
-149.7765597498822
 10
92.60881752242072
 20
-149.7765597498822
 10
92.76539711222531
 20
-149.765879953878
 10
92.76539711222531
 20
-149.765879953878
 10
92.76539711222531
 20
-149.9371011994949
 10
92.76539711222531
 20
-149.9371011994949
 10
92.55593530672213
 20
-149.9288329703303
 10
92.35922035451435
 20
-149.9267659130391
 10
92.25552298040835
 20
-149.9267659130391
 10
92.25552298040835
 20
-149.9267659130391
 10
92.082062422726
 20
-149.9267659130391
 10
92.082062422726
 20
-149.9267659130391
 10
92.082062422726
 20
-149.9267659130391
 10
92.082062422726
 20
-150.0345974017274
 10
92.082062422726
 20
-150.0345974017274
 10
92.082062422726
 20
-150.0345974017274
 10
92.31271156546348
 20
-150.0345974017274
 10
92.31271156546348
 20
-150.0345974017274
 10
92.44603676074266
 20
-150.0345974017274
 10
92.73370223376103
 20
-150.0304632871451
 10
92.94316403926421
 20
-150.0239176057232
 10
92.94316403926421
 20
-150.0239176057232
 10
92.94316403926421
 20
-150.2016845327621
 10
92.94316403926421
 20
-150.2016845327621
 10
92.75058320163875
 20
-150.1954833608886
 10
92.43742402202952
 20
-150.1910047367578
 10
92.31271156546348
 20
-150.1910047367578
 97
        0
 97
        1
330
13B
 75
     2
 76
     1
 98
        1
 10
0.0
 20
0.0
450
        0
451
        0
460
0.0
461
0.0
452
        0
462
0.0
453
        0
470

  0
SPLINE
  5
13D
330
130
100
AcDbEntity
  8
レイヤー 1
100
AcDbSpline
210
0.0
220
0.0
230
1.0
 70
     9
 71
     3
 72
    29
 73
    25
 74
     0
 42
0.0000000001
 43
0.0000000001
 40
0.0
 40
0.0
 40
0.0
 40
0.0
 40
1.0
 40
1.0
 40
1.0
 40
2.0
 40
2.0
 40
2.0
 40
3.0
 40
3.0
 40
3.0
 40
4.0
 40
4.0
 40
4.0
 40
5.0
 40
5.0
 40
5.0
 40
6.0
 40
6.0
 40
6.0
 40
7.0
 40
7.0
 40
7.0
 40
8.0
 40
8.0
 40
8.0
 40
8.0
 10
94.18822154763351
 20
-149.6391004400208
 30
0.0
 10
94.18822154763351
 20
-149.6391004400208
 30
0.0
 10
93.83492700562113
 20
-149.6391004400208
 30
0.0
 10
93.83492700562113
 20
-149.6391004400208
 30
0.0
 10
93.72278914757625
 20
-149.6391004400208
 30
0.0
 10
93.58309052564937
 20
-149.6453016118942
 30
0.0
 10
93.47525903696105
 20
-149.6580484651896
 30
0.0
 10
93.47525903696105
 20
-149.6580484651896
 30
0.0
 10
93.47525903696105
 20
-149.4230929530956
 30
0.0
 10
93.47525903696105
 20
-149.4230929530956
 30
0.0
 10
93.59377032165365
 20
-149.4379068636822
 30
0.0
 10
93.77773842056598
 20
-149.4420409782645
 30
0.0
 10
93.83492700562113
 20
-149.4420409782645
 30
0.0
 10
93.83492700562113
 20
-149.4420409782645
 30
0.0
 10
94.18822154763351
 20
-149.4420409782645
 30
0.0
 10
94.18822154763351
 20
-149.4420409782645
 30
0.0
 10
94.20716957280239
 20
-149.4420409782645
 30
0.0
 10
94.41025795165785
 20
-149.4420409782645
 30
0.0
 10
94.5520236308759
 20
-149.4230929530956
 30
0.0
 10
94.5520236308759
 20
-149.4230929530956
 30
0.0
 10
94.5520236308759
 20
-149.6580484651896
 30
0.0
 10
94.5520236308759
 20
-149.6580484651896
 30
0.0
 10
94.39544404107129
 20
-149.6391004400208
 30
0.0
 10
94.20510251551123
 20
-149.6391004400208
 30
0.0
 10
94.18822154763351
 20
-149.6391004400208
 30
0.0
  0
SPLINE
  5
13E
330
130
100
AcDbEntity
  8
レイヤー 1
100
AcDbSpline
210
0.0
220
0.0
230
1.0
 70
     9
 71
     3
 72
    47
 73
    43
 74
     0
 42
0.0000000001
 43
0.0000000001
 40
0.0
 40
0.0
 40
0.0
 40
0.0
 40
1.0
 40
1.0
 40
1.0
 40
2.0
 40
2.0
 40
2.0
 40
3.0
 40
3.0
 40
3.0
 40
4.0
 40
4.0
 40
4.0
 40
5.0
 40
5.0
 40
5.0
 40
6.0
 40
6.0
 40
6.0
 40
7.0
 40
7.0
 40
7.0
 40
8.0
 40
8.0
 40
8.0
 40
9.0
 40
9.0
 40
9.0
 40
10.0
 40
10.0
 40
10.0
 40
11.0
 40
11.0
 40
11.0
 40
12.0
 40
12.0
 40
12.0
 40
13.0
 40
13.0
 40
13.0
 40
14.0
 40
14.0
 40
14.0
 40
14.0
 10
94.2896796096741
 20
-150.1679225970066
 30
0.0
 10
94.2896796096741
 20
-150.1679225970066
 30
0.0
 10
94.18822154763351
 20
-150.1679225970066
 30
0.0
 10
94.18822154763351
 20
-150.1679225970066
 30
0.0
 10
94.18822154763351
 20
-150.2543944936864
 30
0.0
 10
94.16703421039922
 20
-150.6436902835196
 30
0.0
 10
93.97031925819145
 20
-150.8638318850271
 30
0.0
 10
93.81787378296914
 20
-151.0329860733528
 30
0.0
 10
93.61065128953137
 20
-151.1029215117034
 30
0.0
 10
93.52607419536848
 20
-151.1304822755854
 30
0.0
 10
93.52607419536848
 20
-151.1304822755854
 30
0.0
 10
93.33142630045186
 20
-150.9633951445508
 30
0.0
 10
93.33142630045186
 20
-150.9633951445508
 30
0.0
 10
93.42875024791018
 20
-150.9506482912554
 30
0.0
 10
93.60427786288367
 20
-150.9272216419557
 30
0.0
 10
93.79255233115257
 20
-150.739119428461
 30
0.0
 10
93.86662188408543
 20
-150.6671169328193
 30
0.0
 10
93.97031925819145
 20
-150.5275905656667
 30
0.0
 10
93.97031925819145
 20
-150.1679225970066
 30
0.0
 10
93.97031925819145
 20
-150.1679225970066
 30
0.0
 10
93.73967011545397
 20
-150.1679225970066
 30
0.0
 10
93.73967011545397
 20
-150.1679225970066
 30
0.0
 10
93.55346270447622
 20
-150.1679225970066
 30
0.0
 10
93.36725529349847
 20
-150.1720567115889
 30
0.0
 10
93.18122013729498
 20
-150.1868706221755
 30
0.0
 10
93.18122013729498
 20
-150.1868706221755
 30
0.0
 10
93.18122013729498
 20
-149.966729020668
 30
0.0
 10
93.18122013729498
 20
-149.966729020668
 30
0.0
 10
93.36949460556388
 20
-149.9815429312546
 30
0.0
 10
93.6550930212911
 20
-149.9860215553854
 30
0.0
 10
93.73967011545397
 20
-149.9860215553854
 30
0.0
 10
93.73967011545397
 20
-149.9860215553854
 30
0.0
 10
94.2896796096741
 20
-149.9860215553854
 30
0.0
 10
94.2896796096741
 20
-149.9860215553854
 30
0.0
 10
94.30879988961725
 20
-149.9860215553854
 30
0.0
 10
94.62609318380875
 20
-149.9860215553854
 30
0.0
 10
94.85450301448082
 20
-149.966729020668
 30
0.0
 10
94.85450301448082
 20
-149.966729020668
 30
0.0
 10
94.85450301448082
 20
-150.1868706221755
 30
0.0
 10
94.85450301448082
 20
-150.1868706221755
 30
0.0
 10
94.66622854621192
 20
-150.1720567115889
 30
0.0
 10
94.477954077943
 20
-150.1679225970066
 30
0.0
 10
94.2896796096741
 20
-150.1679225970066
 30
0.0
  0
HATCH
  5
13F
330
130
100
AcDbEntity
  8
レイヤー 1
 62
    18
420
        0
440
 33554687
100
AcDbHatch
 10
0.0
 20
0.0
 30
0.0
210
0.0
220
0.0
230
1.0
  2
SOLID
 70
     1
 71
     1
 91
        2
 92
        1
 93
        1
 72
     4
 94
        3
 73
     0
 74
     0
 95
       29
 96
       25
 40
0.0
 40
0.0
 40
0.0
 40
0.0
 40
1.0
 40
1.0
 40
1.0
 40
2.0
 40
2.0
 40
2.0
 40
3.0
 40
3.0
 40
3.0
 40
4.0
 40
4.0
 40
4.0
 40
5.0
 40
5.0
 40
5.0
 40
6.0
 40
6.0
 40
6.0
 40
7.0
 40
7.0
 40
7.0
 40
8.0
 40
8.0
 40
8.0
 40
8.0
 10
94.18822154763351
 20
-149.6391004400208
 10
94.18822154763351
 20
-149.6391004400208
 10
93.83492700562113
 20
-149.6391004400208
 10
93.83492700562113
 20
-149.6391004400208
 10
93.72278914757625
 20
-149.6391004400208
 10
93.58309052564937
 20
-149.6453016118942
 10
93.47525903696105
 20
-149.6580484651896
 10
93.47525903696105
 20
-149.6580484651896
 10
93.47525903696105
 20
-149.4230929530956
 10
93.47525903696105
 20
-149.4230929530956
 10
93.59377032165365
 20
-149.4379068636822
 10
93.77773842056598
 20
-149.4420409782645
 10
93.83492700562113
 20
-149.4420409782645
 10
93.83492700562113
 20
-149.4420409782645
 10
94.18822154763351
 20
-149.4420409782645
 10
94.18822154763351
 20
-149.4420409782645
 10
94.20716957280239
 20
-149.4420409782645
 10
94.41025795165785
 20
-149.4420409782645
 10
94.5520236308759
 20
-149.4230929530956
 10
94.5520236308759
 20
-149.4230929530956
 10
94.5520236308759
 20
-149.6580484651896
 10
94.5520236308759
 20
-149.6580484651896
 10
94.39544404107129
 20
-149.6391004400208
 10
94.20510251551123
 20
-149.6391004400208
 10
94.18822154763351
 20
-149.6391004400208
 97
        0
 97
        1
330
13D
 92
        1
 93
        1
 72
     4
 94
        3
 73
     0
 74
     0
 95
       47
 96
       43
 40
0.0
 40
0.0
 40
0.0
 40
0.0
 40
1.0
 40
1.0
 40
1.0
 40
2.0
 40
2.0
 40
2.0
 40
3.0
 40
3.0
 40
3.0
 40
4.0
 40
4.0
 40
4.0
 40
5.0
 40
5.0
 40
5.0
 40
6.0
 40
6.0
 40
6.0
 40
7.0
 40
7.0
 40
7.0
 40
8.0
 40
8.0
 40
8.0
 40
9.0
 40
9.0
 40
9.0
 40
10.0
 40
10.0
 40
10.0
 40
11.0
 40
11.0
 40
11.0
 40
12.0
 40
12.0
 40
12.0
 40
13.0
 40
13.0
 40
13.0
 40
14.0
 40
14.0
 40
14.0
 40
14.0
 10
94.2896796096741
 20
-150.1679225970066
 10
94.2896796096741
 20
-150.1679225970066
 10
94.18822154763351
 20
-150.1679225970066
 10
94.18822154763351
 20
-150.1679225970066
 10
94.18822154763351
 20
-150.2543944936864
 10
94.16703421039922
 20
-150.6436902835196
 10
93.97031925819145
 20
-150.8638318850271
 10
93.81787378296914
 20
-151.0329860733528
 10
93.61065128953137
 20
-151.1029215117034
 10
93.52607419536848
 20
-151.1304822755854
 10
93.52607419536848
 20
-151.1304822755854
 10
93.33142630045186
 20
-150.9633951445508
 10
93.33142630045186
 20
-150.9633951445508
 10
93.42875024791018
 20
-150.9506482912554
 10
93.60427786288367
 20
-150.9272216419557
 10
93.79255233115257
 20
-150.739119428461
 10
93.86662188408543
 20
-150.6671169328193
 10
93.97031925819145
 20
-150.5275905656667
 10
93.97031925819145
 20
-150.1679225970066
 10
93.97031925819145
 20
-150.1679225970066
 10
93.73967011545397
 20
-150.1679225970066
 10
93.73967011545397
 20
-150.1679225970066
 10
93.55346270447622
 20
-150.1679225970066
 10
93.36725529349847
 20
-150.1720567115889
 10
93.18122013729498
 20
-150.1868706221755
 10
93.18122013729498
 20
-150.1868706221755
 10
93.18122013729498
 20
-149.966729020668
 10
93.18122013729498
 20
-149.966729020668
 10
93.36949460556388
 20
-149.9815429312546
 10
93.6550930212911
 20
-149.9860215553854
 10
93.73967011545397
 20
-149.9860215553854
 10
93.73967011545397
 20
-149.9860215553854
 10
94.2896796096741
 20
-149.9860215553854
 10
94.2896796096741
 20
-149.9860215553854
 10
94.30879988961725
 20
-149.9860215553854
 10
94.62609318380875
 20
-149.9860215553854
 10
94.85450301448082
 20
-149.966729020668
 10
94.85450301448082
 20
-149.966729020668
 10
94.85450301448082
 20
-150.1868706221755
 10
94.85450301448082
 20
-150.1868706221755
 10
94.66622854621192
 20
-150.1720567115889
 10
94.477954077943
 20
-150.1679225970066
 10
94.2896796096741
 20
-150.1679225970066
 97
        0
 97
        1
330
13E
 75
     2
 76
     1
 98
        1
 10
0.0
 20
0.0
450
        0
451
        0
460
0.0
461
0.0
452
        0
462
0.0
453
        0
470

  0
SPLINE
  5
140
330
130
100
AcDbEntity
  8
レイヤー 1
100
AcDbSpline
210
0.0
220
0.0
230
1.0
 70
     9
 71
     3
 72
    29
 73
    25
 74
     0
 42
0.0000000001
 43
0.0000000001
 40
0.0
 40
0.0
 40
0.0
 40
0.0
 40
1.0
 40
1.0
 40
1.0
 40
2.0
 40
2.0
 40
2.0
 40
3.0
 40
3.0
 40
3.0
 40
4.0
 40
4.0
 40
4.0
 40
5.0
 40
5.0
 40
5.0
 40
6.0
 40
6.0
 40
6.0
 40
7.0
 40
7.0
 40
7.0
 40
8.0
 40
8.0
 40
8.0
 40
8.0
 10
96.13538951589672
 20
-150.3308756134589
 30
0.0
 10
96.13538951589672
 20
-150.3308756134589
 30
0.0
 10
95.65100909067059
 20
-150.3308756134589
 30
0.0
 10
95.65100909067059
 20
-150.3308756134589
 30
0.0
 10
95.62344832678858
 20
-150.3308756134589
 30
0.0
 10
95.30615503259708
 20
-150.3308756134589
 30
0.0
 10
95.09462616980274
 20
-150.3560248105013
 30
0.0
 10
95.09462616980274
 20
-150.3560248105013
 30
0.0
 10
95.09462616980274
 20
-150.125547922538
 30
0.0
 10
95.09462616980274
 20
-150.125547922538
 30
0.0
 10
95.25327281689849
 20
-150.1486300622892
 30
0.0
 10
95.44361434245855
 20
-150.1510416291289
 30
0.0
 10
95.65100909067059
 20
-150.1510416291289
 30
0.0
 10
95.65100909067059
 20
-150.1510416291289
 30
0.0
 10
96.13538951589672
 20
-150.1510416291289
 30
0.0
 10
96.13538951589672
 20
-150.1510416291289
 30
0.0
 10
96.32159692687446
 20
-150.1510416291289
 30
0.0
 10
96.50780433785222
 20
-150.1486300622892
 30
0.0
 10
96.69177243676458
 20
-150.125547922538
 30
0.0
 10
96.69177243676458
 20
-150.125547922538
 30
0.0
 10
96.69177243676458
 20
-150.3560248105013
 30
0.0
 10
96.69177243676458
 20
-150.3560248105013
 30
0.0
 10
96.50780433785222
 20
-150.3329426707501
 30
0.0
 10
96.26027422723701
 20
-150.3308756134589
 30
0.0
 10
96.13538951589672
 20
-150.3308756134589
 30
0.0
  0
HATCH
  5
141
330
130
100
AcDbEntity
  8
レイヤー 1
 62
    18
420
        0
440
 33554687
100
AcDbHatch
 10
0.0
 20
0.0
 30
0.0
210
0.0
220
0.0
230
1.0
  2
SOLID
 70
     1
 71
     1
 91
        1
 92
        1
 93
        1
 72
     4
 94
        3
 73
     0
 74
     0
 95
       29
 96
       25
 40
0.0
 40
0.0
 40
0.0
 40
0.0
 40
1.0
 40
1.0
 40
1.0
 40
2.0
 40
2.0
 40
2.0
 40
3.0
 40
3.0
 40
3.0
 40
4.0
 40
4.0
 40
4.0
 40
5.0
 40
5.0
 40
5.0
 40
6.0
 40
6.0
 40
6.0
 40
7.0
 40
7.0
 40
7.0
 40
8.0
 40
8.0
 40
8.0
 40
8.0
 10
96.13538951589672
 20
-150.3308756134589
 10
96.13538951589672
 20
-150.3308756134589
 10
95.65100909067059
 20
-150.3308756134589
 10
95.65100909067059
 20
-150.3308756134589
 10
95.62344832678858
 20
-150.3308756134589
 10
95.30615503259708
 20
-150.3308756134589
 10
95.09462616980274
 20
-150.3560248105013
 10
95.09462616980274
 20
-150.3560248105013
 10
95.09462616980274
 20
-150.125547922538
 10
95.09462616980274
 20
-150.125547922538
 10
95.25327281689849
 20
-150.1486300622892
 10
95.44361434245855
 20
-150.1510416291289
 10
95.65100909067059
 20
-150.1510416291289
 10
95.65100909067059
 20
-150.1510416291289
 10
96.13538951589672
 20
-150.1510416291289
 10
96.13538951589672
 20
-150.1510416291289
 10
96.32159692687446
 20
-150.1510416291289
 10
96.50780433785222
 20
-150.1486300622892
 10
96.69177243676458
 20
-150.125547922538
 10
96.69177243676458
 20
-150.125547922538
 10
96.69177243676458
 20
-150.3560248105013
 10
96.69177243676458
 20
-150.3560248105013
 10
96.50780433785222
 20
-150.3329426707501
 10
96.26027422723701
 20
-150.3308756134589
 10
96.13538951589672
 20
-150.3308756134589
 97
        0
 97
        1
330
140
 75
     2
 76
     1
 98
        1
 10
0.0
 20
0.0
450
        0
451
        0
460
0.0
461
0.0
452
        0
462
0.0
453
        0
470

  0
SPLINE
  5
142
330
130
100
AcDbEntity
  8
レイヤー 1
100
AcDbSpline
210
0.0
220
0.0
230
1.0
 70
     9
 71
     3
 72
    47
 73
    43
 74
     0
 42
0.0000000001
 43
0.0000000001
 40
0.0
 40
0.0
 40
0.0
 40
0.0
 40
1.0
 40
1.0
 40
1.0
 40
2.0
 40
2.0
 40
2.0
 40
3.0
 40
3.0
 40
3.0
 40
4.0
 40
4.0
 40
4.0
 40
5.0
 40
5.0
 40
5.0
 40
6.0
 40
6.0
 40
6.0
 40
7.0
 40
7.0
 40
7.0
 40
8.0
 40
8.0
 40
8.0
 40
9.0
 40
9.0
 40
9.0
 40
10.0
 40
10.0
 40
10.0
 40
11.0
 40
11.0
 40
11.0
 40
12.0
 40
12.0
 40
12.0
 40
13.0
 40
13.0
 40
13.0
 40
14.0
 40
14.0
 40
14.0
 40
14.0
 10
98.35558130136597
 20
-149.7362521327048
 30
0.0
 10
98.28581811778967
 20
-150.0156493765586
 30
0.0
 10
98.20968150756563
 20
-150.3201958174547
 30
0.0
 10
97.89652232795644
 20
-150.6523030222327
 30
0.0
 10
97.6596720133455
 20
-150.9020724449134
 30
0.0
 10
97.41420896002146
 20
-151.0012911948886
 30
0.0
 10
97.30844452862427
 20
-151.0436658693571
 30
0.0
 10
97.30844452862427
 20
-151.0436658693571
 30
0.0
 10
97.11379663370767
 20
-150.8617648277359
 30
0.0
 10
97.11379663370767
 20
-150.8617648277359
 30
0.0
 10
97.30000404468542
 20
-150.8152560386851
 30
0.0
 10
97.66173907063667
 20
-150.7222384605833
 30
0.0
 10
97.95784502759389
 20
-150.2271782393529
 30
0.0
 10
98.11873098675505
 20
-149.9605278487946
 30
0.0
 10
98.13130558527621
 20
-149.786895036338
 30
0.0
 10
98.13991832398933
 20
-149.6959445155274
 30
0.0
 10
98.13991832398933
 20
-149.6959445155274
 30
0.0
 10
97.63417830675464
 20
-149.6959445155274
 30
0.0
 10
97.63417830675464
 20
-149.6959445155274
 30
0.0
 10
97.51583927683633
 20
-149.6959445155274
 30
0.0
 10
97.0948486085388
 20
-149.7152370502448
 30
0.0
 10
96.94240313331649
 20
-149.7255723367005
 30
0.0
 10
96.94240313331649
 20
-149.7255723367005
 30
0.0
 10
96.94240313331649
 20
-149.5161105311973
 30
0.0
 10
96.94240313331649
 20
-149.5161105311973
 30
0.0
 10
97.08416881253452
 20
-149.5288573844928
 30
0.0
 10
97.36132674432287
 20
-149.5333360086236
 30
0.0
 10
97.47777097172431
 20
-149.5333360086236
 30
0.0
 10
97.47777097172431
 20
-149.5333360086236
 30
0.0
 10
97.83313257102783
 20
-149.5333360086236
 30
0.0
 10
97.83313257102783
 20
-149.5333360086236
 30
0.0
 10
97.86052108013556
 20
-149.5333360086236
 30
0.0
 10
98.02140703929673
 20
-149.5309244417839
 30
0.0
 10
98.13130558527621
 20
-149.5161105311973
 30
0.0
 10
98.18849417033135
 20
-149.5099093593239
 30
0.0
 10
98.20537513820909
 20
-149.490961334155
 30
0.0
 10
98.22862953273451
 20
-149.4675346848553
 30
0.0
 10
98.22862953273451
 20
-149.4675346848553
 30
0.0
 10
98.41690400100342
 20
-149.6177408480122
 30
0.0
 10
98.41690400100342
 20
-149.6177408480122
 30
0.0
 10
98.40209009041686
 20
-149.6473686691854
 30
0.0
 10
98.39158254918684
 20
-149.6663166943542
 30
0.0
 10
98.35558130136597
 20
-149.7362521327048
 30
0.0
  0
HATCH
  5
143
330
130
100
AcDbEntity
  8
レイヤー 1
 62
    18
420
        0
440
 33554687
100
AcDbHatch
 10
0.0
 20
0.0
 30
0.0
210
0.0
220
0.0
230
1.0
  2
SOLID
 70
     1
 71
     1
 91
        1
 92
        1
 93
        1
 72
     4
 94
        3
 73
     0
 74
     0
 95
       47
 96
       43
 40
0.0
 40
0.0
 40
0.0
 40
0.0
 40
1.0
 40
1.0
 40
1.0
 40
2.0
 40
2.0
 40
2.0
 40
3.0
 40
3.0
 40
3.0
 40
4.0
 40
4.0
 40
4.0
 40
5.0
 40
5.0
 40
5.0
 40
6.0
 40
6.0
 40
6.0
 40
7.0
 40
7.0
 40
7.0
 40
8.0
 40
8.0
 40
8.0
 40
9.0
 40
9.0
 40
9.0
 40
10.0
 40
10.0
 40
10.0
 40
11.0
 40
11.0
 40
11.0
 40
12.0
 40
12.0
 40
12.0
 40
13.0
 40
13.0
 40
13.0
 40
14.0
 40
14.0
 40
14.0
 40
14.0
 10
98.35558130136597
 20
-149.7362521327048
 10
98.28581811778967
 20
-150.0156493765586
 10
98.20968150756563
 20
-150.3201958174547
 10
97.89652232795644
 20
-150.6523030222327
 10
97.6596720133455
 20
-150.9020724449134
 10
97.41420896002146
 20
-151.0012911948886
 10
97.30844452862427
 20
-151.0436658693571
 10
97.30844452862427
 20
-151.0436658693571
 10
97.11379663370767
 20
-150.8617648277359
 10
97.11379663370767
 20
-150.8617648277359
 10
97.30000404468542
 20
-150.8152560386851
 10
97.66173907063667
 20
-150.7222384605833
 10
97.95784502759389
 20
-150.2271782393529
 10
98.11873098675505
 20
-149.9605278487946
 10
98.13130558527621
 20
-149.786895036338
 10
98.13991832398933
 20
-149.6959445155274
 10
98.13991832398933
 20
-149.6959445155274
 10
97.63417830675464
 20
-149.6959445155274
 10
97.63417830675464
 20
-149.6959445155274
 10
97.51583927683633
 20
-149.6959445155274
 10
97.0948486085388
 20
-149.7152370502448
 10
96.94240313331649
 20
-149.7255723367005
 10
96.94240313331649
 20
-149.7255723367005
 10
96.94240313331649
 20
-149.5161105311973
 10
96.94240313331649
 20
-149.5161105311973
 10
97.08416881253452
 20
-149.5288573844928
 10
97.36132674432287
 20
-149.5333360086236
 10
97.47777097172431
 20
-149.5333360086236
 10
97.47777097172431
 20
-149.5333360086236
 10
97.83313257102783
 20
-149.5333360086236
 10
97.83313257102783
 20
-149.5333360086236
 10
97.86052108013556
 20
-149.5333360086236
 10
98.02140703929673
 20
-149.5309244417839
 10
98.13130558527621
 20
-149.5161105311973
 10
98.18849417033135
 20
-149.5099093593239
 10
98.20537513820909
 20
-149.490961334155
 10
98.22862953273451
 20
-149.4675346848553
 10
98.22862953273451
 20
-149.4675346848553
 10
98.41690400100342
 20
-149.6177408480122
 10
98.41690400100342
 20
-149.6177408480122
 10
98.40209009041686
 20
-149.6473686691854
 10
98.39158254918684
 20
-149.6663166943542
 10
98.35558130136597
 20
-149.7362521327048
 97
        0
 97
        1
330
142
 75
     2
 76
     1
 98
        1
 10
0.0
 20
0.0
450
        0
451
        0
460
0.0
461
0.0
452
        0
462
0.0
453
        0
470

  0
SPLINE
  5
144
330
130
100
AcDbEntity
  8
レイヤー 1
100
AcDbSpline
210
0.0
220
0.0
230
1.0
 70
    11
 71
     3
 72
    17
 73
    13
 74
     0
 42
0.0000000001
 43
0.0000000001
 40
0.0
 40
0.0
 40
0.0
 40
0.0
 40
1.0
 40
1.0
 40
1.0
 40
2.0
 40
2.0
 40
2.0
 40
3.0
 40
3.0
 40
3.0
 40
4.0
 40
4.0
 40
4.0
 40
4.0
 10
98.74591061984478
 20
-149.518522098037
 30
0.0
 10
98.74591061984478
 20
-149.5777777403833
 30
0.0
 10
98.79241940889565
 20
-149.6242865294342
 30
0.0
 10
98.85167505124194
 20
-149.6242865294342
 30
0.0
 10
98.91093069358824
 20
-149.6242865294342
 30
0.0
 10
98.95950653993025
 20
-149.5777777403833
 30
0.0
 10
98.95950653993025
 20
-149.518522098037
 30
0.0
 10
98.95950653993025
 20
-149.4592664556907
 30
0.0
 10
98.91093069358824
 20
-149.4103460998002
 30
0.0
 10
98.85167505124194
 20
-149.4103460998002
 30
0.0
 10
98.79241940889565
 20
-149.4103460998002
 30
0.0
 10
98.74591061984478
 20
-149.4592664556907
 30
0.0
 10
98.74591061984478
 20
-149.518522098037
 30
0.0
  0
SPLINE
  5
145
330
130
100
AcDbEntity
  8
レイヤー 1
100
AcDbSpline
210
0.0
220
0.0
230
1.0
 70
     9
 71
     3
 72
    17
 73
    13
 74
     0
 42
0.0000000001
 43
0.0000000001
 40
0.0
 40
0.0
 40
0.0
 40
0.0
 40
1.0
 40
1.0
 40
1.0
 40
2.0
 40
2.0
 40
2.0
 40
3.0
 40
3.0
 40
3.0
 40
4.0
 40
4.0
 40
4.0
 40
4.0
 10
99.06113685674514
 20
-149.518522098037
 30
0.0
 10
99.06113685674514
 20
-149.6325547585988
 30
0.0
 10
98.96794702386912
 20
-149.7276393939917
 30
0.0
 10
98.85167505124194
 20
-149.7276393939917
 30
0.0
 10
98.73747013590591
 20
-149.7276393939917
 30
0.0
 10
98.64221324573875
 20
-149.6325547585988
 30
0.0
 10
98.64221324573875
 20
-149.518522098037
 30
0.0
 10
98.64221324573875
 20
-149.4020778706356
 30
0.0
 10
98.73747013590591
 20
-149.3090602925338
 30
0.0
 10
98.85167505124194
 20
-149.3090602925338
 30
0.0
 10
98.96587996657798
 20
-149.3090602925338
 30
0.0
 10
99.06113685674514
 20
-149.4020778706356
 30
0.0
 10
99.06113685674514
 20
-149.518522098037
 30
0.0
  0
HATCH
  5
146
330
130
100
AcDbEntity
  8
レイヤー 1
 62
    18
420
        0
440
 33554687
100
AcDbHatch
 10
0.0
 20
0.0
 30
0.0
210
0.0
220
0.0
230
1.0
  2
SOLID
 70
     1
 71
     1
 91
        2
 92
        1
 93
        1
 72
     4
 94
        3
 73
     0
 74
     0
 95
       17
 96
       13
 40
0.0
 40
0.0
 40
0.0
 40
0.0
 40
1.0
 40
1.0
 40
1.0
 40
2.0
 40
2.0
 40
2.0
 40
3.0
 40
3.0
 40
3.0
 40
4.0
 40
4.0
 40
4.0
 40
4.0
 10
98.74591061984478
 20
-149.518522098037
 10
98.74591061984478
 20
-149.5777777403833
 10
98.79241940889565
 20
-149.6242865294342
 10
98.85167505124194
 20
-149.6242865294342
 10
98.91093069358824
 20
-149.6242865294342
 10
98.95950653993025
 20
-149.5777777403833
 10
98.95950653993025
 20
-149.518522098037
 10
98.95950653993025
 20
-149.4592664556907
 10
98.91093069358824
 20
-149.4103460998002
 10
98.85167505124194
 20
-149.4103460998002
 10
98.79241940889565
 20
-149.4103460998002
 10
98.74591061984478
 20
-149.4592664556907
 10
98.74591061984478
 20
-149.518522098037
 97
        0
 97
        1
330
144
 92
        1
 93
        1
 72
     4
 94
        3
 73
     0
 74
     0
 95
       17
 96
       13
 40
0.0
 40
0.0
 40
0.0
 40
0.0
 40
1.0
 40
1.0
 40
1.0
 40
2.0
 40
2.0
 40
2.0
 40
3.0
 40
3.0
 40
3.0
 40
4.0
 40
4.0
 40
4.0
 40
4.0
 10
99.06113685674514
 20
-149.518522098037
 10
99.06113685674514
 20
-149.6325547585988
 10
98.96794702386912
 20
-149.7276393939917
 10
98.85167505124194
 20
-149.7276393939917
 10
98.73747013590591
 20
-149.7276393939917
 10
98.64221324573875
 20
-149.6325547585988
 10
98.64221324573875
 20
-149.518522098037
 10
98.64221324573875
 20
-149.4020778706356
 10
98.73747013590591
 20
-149.3090602925338
 10
98.85167505124194
 20
-149.3090602925338
 10
98.96587996657798
 20
-149.3090602925338
 10
99.06113685674514
 20
-149.4020778706356
 10
99.06113685674514
 20
-149.518522098037
 97
        0
 97
        1
330
145
 75
     2
 76
     1
 98
        1
 10
0.0
 20
0.0
450
        0
451
        0
460
0.0
461
0.0
452
        0
462
0.0
453
        0
470

  0
ENDBLK
  5
133
330
130
100
AcDbEntity
  8
0
100
AcDbBlockEnd
  0
ENDSEC
  0
SECTION
  2
ENTITIES
  0
INSERT
  5
7A
330
70
100
AcDbEntity
  8
レイヤー 1
100
AcDbBlockReference
  2
Block_0
 10
0.0
 20
0.0
 30
0.0
  0
ENDSEC
  0
SECTION
  2
OBJECTS
  0
DICTIONARY
  5
C
330
0
100
AcDbDictionary
281
     1
  3
ACAD_COLOR
350
63
  3
ACAD_DETAILVIEWSTYLE
350
6A
  3
ACAD_GROUP
350
D
  3
ACAD_LAYOUT
350
62
  3
ACAD_MATERIAL
350
10
  3
ACAD_MLEADERSTYLE
350
66
  3
ACAD_MLINESTYLE
350
5F
  3
ACAD_PLOTSETTINGS
350
61
  3
ACAD_PLOTSTYLENAME
350
E
  3
ACAD_SCALELIST
350
42
  3
ACAD_SECTIONVIEWSTYLE
350
68
  3
ACAD_TABLESTYLE
350
64
  3
ACAD_VISUALSTYLE
350
29
  3
ACDB_RECOMPOSE_DATA
350
14F
  3
AcDbVariableDictionary
350
147
  0
DICTIONARY
  5
63
102
{ACAD_REACTORS
330
C
102
}
330
C
100
AcDbDictionary
281
     1
  0
DICTIONARY
  5
6A
102
{ACAD_REACTORS
330
C
102
}
330
C
100
AcDbDictionary
281
     1
  3
Imperial24
350
6B
  0
DICTIONARY
  5
D
102
{ACAD_REACTORS
330
C
102
}
330
C
100
AcDbDictionary
281
     1
  0
DICTIONARY
  5
62
102
{ACAD_REACTORS
330
C
102
}
330
C
100
AcDbDictionary
281
     1
  3
Layout1
350
6F
  3
Layout2
350
77
  3
Model
350
73
  0
DICTIONARY
  5
10
102
{ACAD_REACTORS
330
C
102
}
330
C
100
AcDbDictionary
281
     1
  3
ByBlock
350
19
  3
ByLayer
350
11
  3
Global
350
21
  0
DICTIONARY
  5
66
102
{ACAD_REACTORS
330
C
102
}
330
C
100
AcDbDictionary
281
     1
  3
Standard
350
67
  0
DICTIONARY
  5
5F
102
{ACAD_REACTORS
330
C
102
}
330
C
100
AcDbDictionary
281
     1
  3
Standard
350
60
  0
DICTIONARY
  5
61
102
{ACAD_REACTORS
330
C
102
}
330
C
100
AcDbDictionary
281
     1
  0
ACDBDICTIONARYWDFLT
  5
E
102
{ACAD_REACTORS
330
C
102
}
330
C
100
AcDbDictionary
281
     1
  3
Normal
350
F
100
AcDbDictionaryWithDefault
340
F
  0
DICTIONARY
  5
42
102
{ACAD_REACTORS
330
C
102
}
330
C
100
AcDbDictionary
281
     1
  3
A0
350
43
  3
A1
350
44
  3
A2
350
45
  3
A3
350
46
  3
A4
350
47
  3
A5
350
48
  3
A6
350
49
  3
A7
350
4A
  3
A8
350
4B
  3
A9
350
4C
  3
B0
350
4D
  3
B1
350
4E
  3
B2
350
4F
  3
B3
350
50
  3
B4
350
51
  3
B5
350
52
  3
B6
350
53
  0
DICTIONARY
  5
68
102
{ACAD_REACTORS
330
C
102
}
330
C
100
AcDbDictionary
281
     1
  3
Imperial24
350
69
  0
DICTIONARY
  5
64
102
{ACAD_REACTORS
330
C
102
}
330
C
100
AcDbDictionary
281
     1
  3
Standard
350
65
  0
DICTIONARY
  5
29
102
{ACAD_REACTORS
330
C
102
}
330
C
100
AcDbDictionary
281
     1
  3
2dWireframe
350
2F
  3
Basic
350
2E
  3
Brighten
350
35
  3
ColorChange
350
39
  3
Conceptual
350
32
  3
Dim
350
34
  3
EdgeColorOff
350
41
  3
Facepattern
350
38
  3
Flat
350
2A
  3
FlatWithEdges
350
2B
  3
Gouraud
350
2C
  3
GouraudWithEdges
350
2D
  3
Hidden
350
31
  3
JitterOff
350
3F
  3
Linepattern
350
37
  3
OverhangOff
350
40
  3
Realistic
350
33
  3
Shaded
350
3E
  3
Shaded with edges
350
3D
  3
Shades of Gray
350
3A
  3
Sketchy
350
3B
  3
Thicken
350
36
  3
Wireframe
350
30
  3
X-Ray
350
3C
  0
XRECORD
  5
14F
102
{ACAD_REACTORS
330
C
102
}
330
C
100
AcDbXrecord
280
     1
 90
        1
330
65
  0
DICTIONARY
  5
147
102
{ACAD_REACTORS
330
C
102
}
330
C
100
AcDbDictionary
281
     1
  3
CANNOSCALE
350
14C
  3
CMLEADERSTYLE
350
149
  3
CTABLESTYLE
350
148
  3
CVIEWDETAILSTYLE
350
14A
  3
CVIEWSECTIONSTYLE
350
14B
  0
ACDBDETAILVIEWSTYLE
  5
6B
102
{ACAD_XDICTIONARY
360
184
102
}
102
{ACAD_REACTORS
330
6A
102
}
330
6A
100
AcDbModelDocViewStyle
 70
     0
  3
Imperial24
290
     0
100
AcDbDetailViewStyle
 70
     0
 71
     0
 90
        3
 71
     1
340
55
 62
   256
 40
0.24
340
0
 62
   256
 40
0.24
300

 40
0.36
280
     3
 71
     2
340
5D
 90
       25
 62
   256
 71
     3
340
55
 62
   256
 40
0.24
 90
        1
 40
0.75
 90
        1
300
%<\AcVar ViewType \f "%tc1">% %<\AcVar ViewDetailId>%\PSCALE %<\AcVar ViewScale \f "%sn">%
 71
     4
340
5D
 90
       25
 62
   256
340
5D
 90
       25
 62
   256
280
     0
  0
LAYOUT
  5
6F
102
{ACAD_REACTORS
330
62
102
}
330
62
100
AcDbPlotSettings
  1

  2

  4

  6

 40
0.0
 41
0.0
 42
0.0
 43
0.0
 44
0.0
 45
0.0
 46
0.0
 47
0.0
 48
0.0
 49
0.0
140
0.0
141
0.0
142
1.0
143
1.0
 70
   688
 72
     0
 73
     0
 74
     5
  7

 75
    16
147
1.0
 76
     0
 77
     2
 78
   300
148
0.0
149
0.0
100
AcDbLayout
  1
Layout1
 70
     1
 71
     1
 10
0.0
 20
0.0
 11
12.0
 21
9.0
 12
0.0
 22
0.0
 32
0.0
 14
0.0
 24
0.0
 34
0.0
 15
0.0
 25
0.0
 35
0.0
146
0.0
 13
0.0
 23
0.0
 33
0.0
 16
1.0
 26
0.0
 36
0.0
 17
0.0
 27
1.0
 37
0.0
 76
     0
330
6C
  0
LAYOUT
  5
77
102
{ACAD_REACTORS
330
62
102
}
330
62
100
AcDbPlotSettings
  1

  2

  4

  6

 40
0.0
 41
0.0
 42
0.0
 43
0.0
 44
0.0
 45
0.0
 46
0.0
 47
0.0
 48
0.0
 49
0.0
140
0.0
141
0.0
142
1.0
143
1.0
 70
   688
 72
     0
 73
     0
 74
     5
  7

 75
    16
147
1.0
 76
     0
 77
     2
 78
   300
148
0.0
149
0.0
100
AcDbLayout
  1
Layout2
 70
     1
 71
     2
 10
0.0
 20
0.0
 11
12.0
 21
9.0
 12
0.0
 22
0.0
 32
0.0
 14
0.0
 24
0.0
 34
0.0
 15
0.0
 25
0.0
 35
0.0
146
0.0
 13
0.0
 23
0.0
 33
0.0
 16
1.0
 26
0.0
 36
0.0
 17
0.0
 27
1.0
 37
0.0
 76
     0
330
74
  0
LAYOUT
  5
73
102
{ACAD_REACTORS
330
62
102
}
330
62
100
AcDbPlotSettings
  1

  2

  4

  6

 40
0.0
 41
0.0
 42
0.0
 43
0.0
 44
0.0
 45
0.0
 46
0.0
 47
0.0
 48
0.0
 49
0.0
140
0.0
141
0.0
142
1.0
143
1.0
 70
  1712
 72
     0
 73
     0
 74
     0
  7

 75
     0
147
1.0
 76
     0
 77
     2
 78
   300
148
0.0
149
0.0
100
AcDbLayout
  1
Model
 70
     1
 71
     0
 10
0.0
 20
0.0
 11
12.0
 21
9.0
 12
0.0
 22
0.0
 32
0.0
 14
0.0
 24
0.0
 34
0.0
 15
0.0
 25
0.0
 35
0.0
146
0.0
 13
0.0
 23
0.0
 33
0.0
 16
1.0
 26
0.0
 36
0.0
 17
0.0
 27
1.0
 37
0.0
 76
     0
330
70
  0
MATERIAL
  5
19
102
{ACAD_XDICTIONARY
360
1A
102
}
102
{ACAD_REACTORS
330
10
102
}
330
10
100
AcDbMaterial
  1
ByBlock
 72
     0
 43
0.0208333333333333
 43
0.0
 43
0.0
 43
0.0
 43
0.0
 43
0.0208333333333333
 43
0.0
 43
0.0
 43
0.0
 43
0.0
 43
1.0
 43
0.0
 43
0.0
 43
0.0
 43
0.0
 43
1.0
 77
     0
 47
0.0208333333333333
 47
0.0
 47
0.0
 47
0.0
 47
0.0
 47
0.0208333333333333
 47
0.0
 47
0.0
 47
0.0
 47
0.0
 47
1.0
 47
0.0
 47
0.0
 47
0.0
 47
0.0
 47
1.0
171
     0
 49
0.0208333333333333
 49
0.0
 49
0.0
 49
0.0
 49
0.0
 49
0.0208333333333333
 49
0.0
 49
0.0
 49
0.0
 49
0.0
 49
1.0
 49
0.0
 49
0.0
 49
0.0
 49
0.0
 49
1.0
175
     0
142
0.0208333333333333
142
0.0
142
0.0
142
0.0
142
0.0
142
0.0208333333333333
142
0.0
142
0.0
142
0.0
142
0.0
142
1.0
142
0.0
142
0.0
142
0.0
142
0.0
142
1.0
179
     0
144
0.0208333333333333
144
0.0
144
0.0
144
0.0
144
0.0
144
0.0208333333333333
144
0.0
144
0.0
144
0.0
144
0.0
144
1.0
144
0.0
144
0.0
144
0.0
144
0.0
144
1.0
147
0.0208333333333333
147
0.0
147
0.0
147
0.0
147
0.0
147
0.0208333333333333
147
0.0
147
0.0
147
0.0
147
0.0
147
1.0
147
0.0
147
0.0
147
0.0
147
0.0
147
1.0
  0
MATERIAL
  5
11
102
{ACAD_XDICTIONARY
360
12
102
}
102
{ACAD_REACTORS
330
10
102
}
330
10
100
AcDbMaterial
  1
ByLayer
 72
     0
 43
0.0208333333333333
 43
0.0
 43
0.0
 43
0.0
 43
0.0
 43
0.0208333333333333
 43
0.0
 43
0.0
 43
0.0
 43
0.0
 43
1.0
 43
0.0
 43
0.0
 43
0.0
 43
0.0
 43
1.0
 77
     0
 47
0.0208333333333333
 47
0.0
 47
0.0
 47
0.0
 47
0.0
 47
0.0208333333333333
 47
0.0
 47
0.0
 47
0.0
 47
0.0
 47
1.0
 47
0.0
 47
0.0
 47
0.0
 47
0.0
 47
1.0
171
     0
 49
0.0208333333333333
 49
0.0
 49
0.0
 49
0.0
 49
0.0
 49
0.0208333333333333
 49
0.0
 49
0.0
 49
0.0
 49
0.0
 49
1.0
 49
0.0
 49
0.0
 49
0.0
 49
0.0
 49
1.0
175
     0
142
0.0208333333333333
142
0.0
142
0.0
142
0.0
142
0.0
142
0.0208333333333333
142
0.0
142
0.0
142
0.0
142
0.0
142
1.0
142
0.0
142
0.0
142
0.0
142
0.0
142
1.0
179
     0
144
0.0208333333333333
144
0.0
144
0.0
144
0.0
144
0.0
144
0.0208333333333333
144
0.0
144
0.0
144
0.0
144
0.0
144
1.0
144
0.0
144
0.0
144
0.0
144
0.0
144
1.0
147
0.0208333333333333
147
0.0
147
0.0
147
0.0
147
0.0
147
0.0208333333333333
147
0.0
147
0.0
147
0.0
147
0.0
147
1.0
147
0.0
147
0.0
147
0.0
147
0.0
147
1.0
  0
MATERIAL
  5
21
102
{ACAD_XDICTIONARY
360
22
102
}
102
{ACAD_REACTORS
330
10
102
}
330
10
100
AcDbMaterial
  1
Global
 72
     0
 43
0.0208333333333333
 43
0.0
 43
0.0
 43
0.0
 43
0.0
 43
0.0208333333333333
 43
0.0
 43
0.0
 43
0.0
 43
0.0
 43
1.0
 43
0.0
 43
0.0
 43
0.0
 43
0.0
 43
1.0
 77
     0
 47
0.0208333333333333
 47
0.0
 47
0.0
 47
0.0
 47
0.0
 47
0.0208333333333333
 47
0.0
 47
0.0
 47
0.0
 47
0.0
 47
1.0
 47
0.0
 47
0.0
 47
0.0
 47
0.0
 47
1.0
171
     0
 49
0.0208333333333333
 49
0.0
 49
0.0
 49
0.0
 49
0.0
 49
0.0208333333333333
 49
0.0
 49
0.0
 49
0.0
 49
0.0
 49
1.0
 49
0.0
 49
0.0
 49
0.0
 49
0.0
 49
1.0
175
     0
142
0.0208333333333333
142
0.0
142
0.0
142
0.0
142
0.0
142
0.0208333333333333
142
0.0
142
0.0
142
0.0
142
0.0
142
1.0
142
0.0
142
0.0
142
0.0
142
0.0
142
1.0
179
     0
144
0.0208333333333333
144
0.0
144
0.0
144
0.0
144
0.0
144
0.0208333333333333
144
0.0
144
0.0
144
0.0
144
0.0
144
1.0
144
0.0
144
0.0
144
0.0
144
0.0
144
1.0
147
0.0208333333333333
147
0.0
147
0.0
147
0.0
147
0.0
147
0.0208333333333333
147
0.0
147
0.0
147
0.0
147
0.0
147
1.0
147
0.0
147
0.0
147
0.0
147
0.0
147
1.0
  0
MLEADERSTYLE
  5
67
102
{ACAD_XDICTIONARY
360
180
102
}
102
{ACAD_REACTORS
330
66
102
}
330
66
100
AcDbMLeaderStyle
179
     2
170
     2
171
     1
172
     0
 90
        2
 40
0.0
 41
0.0
173
     1
 91
-1056964608
340
5B
 92
       -2
290
     1
 42
0.09
291
     1
 43
0.36
  3
Standard
 44
0.18
300

342
55
174
     1
178
     6
175
     1
176
     0
 93
-1056964608
 45
0.18
292
     0
297
     0
 46
0.18
 94
-1056964608
 47
1.0
 49
1.0
140
1.0
293
     1
141
0.0
294
     1
177
     0
142
1.0
295
     0
296
     0
143
0.125
271
     0
272
     9
273
     9
  0
MLINESTYLE
  5
60
102
{ACAD_REACTORS
330
5F
102
}
330
5F
100
AcDbMlineStyle
  2
STANDARD
 70
     0
  3

 62
   256
 51
90.0
 52
90.0
 71
     2
 49
0.5
 62
   256
  6
BYLAYER
 49
-0.5
 62
   256
  6
BYLAYER
  0
ACDBPLACEHOLDER
  5
F
102
{ACAD_REACTORS
330
E
102
}
330
E
  0
SCALE
  5
43
102
{ACAD_REACTORS
330
42
102
}
330
42
100
AcDbScale
 70
     0
300
1:1
140
1.0
141
1.0
290
     1
  0
SCALE
  5
44
102
{ACAD_REACTORS
330
42
102
}
330
42
100
AcDbScale
 70
     0
300
1/128" = 1'-0"
140
0.0078125
141
12.0
290
     0
  0
SCALE
  5
45
102
{ACAD_REACTORS
330
42
102
}
330
42
100
AcDbScale
 70
     0
300
1/64" = 1'-0"
140
0.015625
141
12.0
290
     0
  0
SCALE
  5
46
102
{ACAD_REACTORS
330
42
102
}
330
42
100
AcDbScale
 70
     0
300
1/32" = 1'-0"
140
0.03125
141
12.0
290
     0
  0
SCALE
  5
47
102
{ACAD_REACTORS
330
42
102
}
330
42
100
AcDbScale
 70
     0
300
1/16" = 1'-0"
140
0.0625
141
12.0
290
     0
  0
SCALE
  5
48
102
{ACAD_REACTORS
330
42
102
}
330
42
100
AcDbScale
 70
     0
300
3/32" = 1'-0"
140
0.09375
141
12.0
290
     0
  0
SCALE
  5
49
102
{ACAD_REACTORS
330
42
102
}
330
42
100
AcDbScale
 70
     0
300
1/8" = 1'-0"
140
0.125
141
12.0
290
     0
  0
SCALE
  5
4A
102
{ACAD_REACTORS
330
42
102
}
330
42
100
AcDbScale
 70
     0
300
3/16" = 1'-0"
140
0.1875
141
12.0
290
     0
  0
SCALE
  5
4B
102
{ACAD_REACTORS
330
42
102
}
330
42
100
AcDbScale
 70
     0
300
1/4" = 1'-0"
140
0.25
141
12.0
290
     0
  0
SCALE
  5
4C
102
{ACAD_REACTORS
330
42
102
}
330
42
100
AcDbScale
 70
     0
300
3/8" = 1'-0"
140
0.375
141
12.0
290
     0
  0
SCALE
  5
4D
102
{ACAD_REACTORS
330
42
102
}
330
42
100
AcDbScale
 70
     0
300
1/2" = 1'-0"
140
0.5
141
12.0
290
     0
  0
SCALE
  5
4E
102
{ACAD_REACTORS
330
42
102
}
330
42
100
AcDbScale
 70
     0
300
3/4" = 1'-0"
140
0.75
141
12.0
290
     0
  0
SCALE
  5
4F
102
{ACAD_REACTORS
330
42
102
}
330
42
100
AcDbScale
 70
     0
300
1" = 1'-0"
140
1.0
141
12.0
290
     0
  0
SCALE
  5
50
102
{ACAD_REACTORS
330
42
102
}
330
42
100
AcDbScale
 70
     0
300
1-1/2" = 1'-0"
140
1.5
141
12.0
290
     0
  0
SCALE
  5
51
102
{ACAD_REACTORS
330
42
102
}
330
42
100
AcDbScale
 70
     0
300
3" = 1'-0"
140
3.0
141
12.0
290
     0
  0
SCALE
  5
52
102
{ACAD_REACTORS
330
42
102
}
330
42
100
AcDbScale
 70
     0
300
6" = 1'-0"
140
6.0
141
12.0
290
     0
  0
SCALE
  5
53
102
{ACAD_REACTORS
330
42
102
}
330
42
100
AcDbScale
 70
     0
300
1'-0" = 1'-0"
140
12.0
141
12.0
290
     0
  0
ACDBSECTIONVIEWSTYLE
  5
69
102
{ACAD_XDICTIONARY
360
182
102
}
102
{ACAD_REACTORS
330
68
102
}
330
68
100
AcDbModelDocViewStyle
 70
     0
  3
Imperial24
290
     0
100
AcDbSectionViewStyle
 70
     0
 71
     0
 90
       78
 71
     1
340
55
 62
   256
 40
0.24
340
0
340
0
 62
   256
 40
0.24
300
I, O, Q, S, X, Z
 40
0.48
 90
        3
 40
0.18
 90
        1
 71
     2
340
5D
 90
       25
 62
   256
340
5D
 90
       50
 62
   256
 40
0.24
 40
0.0
 40
0.24
 71
     3
340
55
 62
   256
 40
0.24
 90
        1
 40
0.75
 90
        1
300
%<\AcVar ViewType \f "%tc1">% %<\AcVar ViewSectionStartId>%-%<\AcVar ViewSectionEndId>%\PSCALE %<\AcVar ViewScale \f "%sn">%
 71
     4
 62
   256
 62
   257
300
ANSI31
 40
1.0
 90
        0
290
     0
290
     0
 90
        6
 40
0.0
 40
1.570796326794896
 40
0.2617993877991494
 40
1.308996938995747
 40
-0.2617993877991494
 40
1.832595714594046
  0
TABLESTYLE
  5
65
102
{ACAD_XDICTIONARY
360
14D
102
}
102
{ACAD_REACTORS
330
64
102
}
330
64
100
AcDbTableStyle
280
     0
  3
Standard
 70
     0
 71
     0
 40
0.06
 41
0.06
280
     0
281
     0
  7
Standard
140
0.18
170
     2
 62
     0
 63
     7
283
     0
 90
      512
 91
        0
  1

274
    -2
284
     1
 64
     0
275
    -2
285
     1
 65
     0
276
    -2
286
     1
 66
     0
277
    -2
287
     1
 67
     0
278
    -2
288
     1
 68
     0
279
    -2
289
     1
 69
     0
  7
Standard
140
0.25
170
     5
 62
     0
 63
     7
283
     0
 90
      512
 91
        0
  1

274
    -2
284
     1
 64
     0
275
    -2
285
     1
 65
     0
276
    -2
286
     1
 66
     0
277
    -2
287
     1
 67
     0
278
    -2
288
     1
 68
     0
279
    -2
289
     1
 69
     0
  7
Standard
140
0.18
170
     5
 62
     0
 63
     7
283
     0
 90
      512
 91
        0
  1

274
    -2
284
     1
 64
     0
275
    -2
285
     1
 65
     0
276
    -2
286
     1
 66
     0
277
    -2
287
     1
 67
     0
278
    -2
288
     1
 68
     0
279
    -2
289
     1
 69
     0
  0
VISUALSTYLE
  5
2F
102
{ACAD_XDICTIONARY
360
15A
102
}
102
{ACAD_REACTORS
330
29
102
}
330
29
100
AcDbVisualStyle
  2
2dWireframe
 70
     4
177
     2
291
     0
 71
     0
176
     1
 72
     2
176
     1
 73
     0
176
     1
 90
        0
176
     1
 40
0.6
176
     1
 41
30.0
176
     1
 63
     7
421
 16777215
176
     1
 74
     1
176
     1
 91
        4
176
     1
 64
     7
176
     1
 65
   257
176
     1
 75
     1
176
     1
175
     1
176
     1
 42
1.0
176
     1
 92
        0
176
     1
 66
   257
176
     1
 43
1.0
176
     1
 76
     1
176
     1
 77
     6
176
     1
 78
     2
176
     1
 67
     7
176
     1
 79
     5
176
     1
170
     0
176
     1
171
     0
176
     1
290
     0
176
     1
 93
        1
176
     1
 44
0.0
176
     1
173
     0
176
     1
1001
ACAD
1000
AcDbSavedByObjectVersion
1070
     0
  0
VISUALSTYLE
  5
2E
102
{ACAD_XDICTIONARY
360
158
102
}
102
{ACAD_REACTORS
330
29
102
}
330
29
100
AcDbVisualStyle
  2
Basic
 70
     7
177
     2
291
     1
 71
     1
176
     1
 72
     0
176
     1
 73
     1
176
     1
 90
        0
176
     1
 40
0.6
176
     1
 41
30.0
176
     1
 63
     7
421
 16777215
176
     1
 74
     0
176
     1
 91
        4
176
     1
 64
     7
176
     1
 65
   257
176
     1
 75
     1
176
     1
175
     1
176
     1
 42
1.0
176
     1
 92
        8
176
     1
 66
     7
176
     1
 43
1.0
176
     1
 76
     1
176
     1
 77
     6
176
     1
 78
     2
176
     1
 67
     7
176
     1
 79
     5
176
     1
170
     0
176
     1
171
     0
176
     1
290
     0
176
     1
 93
        1
176
     1
 44
0.0
176
     1
173
     0
176
     1
1001
ACAD
1000
AcDbSavedByObjectVersion
1070
     0
  0
VISUALSTYLE
  5
35
102
{ACAD_XDICTIONARY
360
166
102
}
102
{ACAD_REACTORS
330
29
102
}
330
29
100
AcDbVisualStyle
  2
Brighten
 70
    12
177
     2
291
     1
 71
     2
176
     1
 72
     2
176
     1
 73
     0
176
     1
 90
        0
176
     1
 40
0.6
176
     1
 41
30.0
176
     1
 63
     7
421
 16777215
176
     1
 74
     1
176
     1
 91
        4
176
     1
 64
     7
176
     1
 65
   257
176
     1
 75
     1
176
     1
175
     1
176
     1
 42
1.0
176
     1
 92
        8
176
     1
 66
     7
176
     1
 43
1.0
176
     1
 76
     1
176
     1
 77
     6
176
     1
 78
     2
176
     1
 67
     7
176
     1
 79
     5
176
     1
170
     0
176
     1
171
     0
176
     1
290
     0
176
     1
 93
        1
176
     1
 44
50.0
176
     1
173
     0
176
     1
1001
ACAD
1000
AcDbSavedByObjectVersion
1070
     0
  0
VISUALSTYLE
  5
39
102
{ACAD_XDICTIONARY
360
16E
102
}
102
{ACAD_REACTORS
330
29
102
}
330
29
100
AcDbVisualStyle
  2
ColorChange
 70
    16
177
     2
291
     1
 71
     2
176
     1
 72
     2
176
     1
 73
     3
176
     1
 90
        0
176
     1
 40
0.6
176
     1
 41
30.0
176
     1
 63
     8
421
  8421504
176
     1
 74
     1
176
     1
 91
        4
176
     1
 64
     7
176
     1
 65
   257
176
     1
 75
     1
176
     1
175
     1
176
     1
 42
1.0
176
     1
 92
        8
176
     1
 66
     8
424
  8421504
176
     1
 43
1.0
176
     1
 76
     1
176
     1
 77
     6
176
     1
 78
     2
176
     1
 67
     7
176
     1
 79
     5
176
     1
170
     0
176
     1
171
     0
176
     1
290
     0
176
     1
 93
        1
176
     1
 44
0.0
176
     1
173
     0
176
     1
1001
ACAD
1000
AcDbSavedByObjectVersion
1070
     0
  0
VISUALSTYLE
  5
32
102
{ACAD_XDICTIONARY
360
160
102
}
102
{ACAD_REACTORS
330
29
102
}
330
29
100
AcDbVisualStyle
  2
Conceptual
 70
     9
177
     2
291
     0
 71
     3
176
     1
 72
     2
176
     1
 73
     0
176
     1
 90
        0
176
     1
 40
0.6
176
     1
 41
30.0
176
     1
 63
     7
421
 16777215
176
     1
 74
     2
176
     1
 91
        2
176
     1
 64
     7
176
     1
 65
   257
176
     1
 75
     1
176
     1
175
     1
176
     1
 42
179.0
176
     1
 92
        8
176
     1
 66
     7
176
     1
 43
1.0
176
     1
 76
     1
176
     1
 77
     6
176
     1
 78
     2
176
     1
 67
     7
176
     1
 79
     3
176
     1
170
     0
176
     1
171
     0
176
     1
290
     0
176
     1
 93
        1
176
     1
 44
0.0
176
     1
173
     0
176
     1
1001
ACAD
1000
AcDbSavedByObjectVersion
1070
     0
  0
VISUALSTYLE
  5
34
102
{ACAD_XDICTIONARY
360
164
102
}
102
{ACAD_REACTORS
330
29
102
}
330
29
100
AcDbVisualStyle
  2
Dim
 70
    11
177
     2
291
     1
 71
     2
176
     1
 72
     2
176
     1
 73
     0
176
     1
 90
        0
176
     1
 40
0.6
176
     1
 41
30.0
176
     1
 63
     7
421
 16777215
176
     1
 74
     1
176
     1
 91
        4
176
     1
 64
     7
176
     1
 65
   257
176
     1
 75
     1
176
     1
175
     1
176
     1
 42
1.0
176
     1
 92
        8
176
     1
 66
     7
176
     1
 43
1.0
176
     1
 76
     1
176
     1
 77
     6
176
     1
 78
     2
176
     1
 67
     7
176
     1
 79
     5
176
     1
170
     0
176
     1
171
     0
176
     1
290
     0
176
     1
 93
        1
176
     1
 44
-50.0
176
     1
173
     0
176
     1
1001
ACAD
1000
AcDbSavedByObjectVersion
1070
     0
  0
VISUALSTYLE
  5
41
102
{ACAD_XDICTIONARY
360
17E
102
}
102
{ACAD_REACTORS
330
29
102
}
330
29
100
AcDbVisualStyle
  2
EdgeColorOff
 70
    22
177
     2
291
     1
 71
     2
176
     0
 72
     2
176
     0
 73
     0
176
     0
 90
        0
176
     0
 40
0.6
176
     0
 41
30.0
176
     0
 63
     7
421
 16777215
176
     0
 74
     1
176
     0
 91
        4
176
     0
 64
     7
176
     0
 65
   257
176
     0
 75
     1
176
     0
175
     1
176
     0
 42
1.0
176
     0
 92
        8
176
     2
 66
     7
176
     0
 43
1.0
176
     0
 76
     1
176
     0
 77
     6
176
     0
 78
     2
176
     0
 67
     7
176
     0
 79
     5
176
     0
170
     0
176
     0
171
     0
176
     0
290
     0
176
     0
 93
        1
176
     0
 44
0.0
176
     0
173
     0
176
     0
1001
ACAD
1000
AcDbSavedByObjectVersion
1070
     0
  0
VISUALSTYLE
  5
38
102
{ACAD_XDICTIONARY
360
16C
102
}
102
{ACAD_REACTORS
330
29
102
}
330
29
100
AcDbVisualStyle
  2
Facepattern
 70
    15
177
     2
291
     1
 71
     2
176
     1
 72
     2
176
     1
 73
     0
176
     1
 90
        0
176
     1
 40
0.6
176
     1
 41
30.0
176
     1
 63
     7
421
 16777215
176
     1
 74
     1
176
     1
 91
        4
176
     1
 64
     7
176
     1
 65
   257
176
     1
 75
     1
176
     1
175
     1
176
     1
 42
1.0
176
     1
 92
        8
176
     1
 66
     7
176
     1
 43
1.0
176
     1
 76
     1
176
     1
 77
     6
176
     1
 78
     2
176
     1
 67
     7
176
     1
 79
     5
176
     1
170
     0
176
     1
171
     0
176
     1
290
     0
176
     1
 93
        1
176
     1
 44
0.0
176
     1
173
     0
176
     1
1001
ACAD
1000
AcDbSavedByObjectVersion
1070
     0
  0
VISUALSTYLE
  5
2A
102
{ACAD_XDICTIONARY
360
150
102
}
102
{ACAD_REACTORS
330
29
102
}
330
29
100
AcDbVisualStyle
  2
Flat
 70
     0
177
     2
291
     1
 71
     2
176
     1
 72
     1
176
     1
 73
     1
176
     1
 90
        2
176
     1
 40
0.6
176
     1
 41
30.0
176
     1
 63
     7
421
 16777215
176
     1
 74
     0
176
     1
 91
        0
176
     1
 64
     7
176
     1
 65
   257
176
     1
 75
     1
176
     1
175
     1
176
     1
 42
1.0
176
     1
 92
        8
176
     1
 66
     7
176
     1
 43
1.0
176
     1
 76
     1
176
     1
 77
     6
176
     1
 78
     2
176
     1
 67
     7
176
     1
 79
     5
176
     1
170
     0
176
     1
171
     0
176
     1
290
     0
176
     1
 93
       13
176
     1
 44
0.0
176
     1
173
     0
176
     1
1001
ACAD
1000
AcDbSavedByObjectVersion
1070
     0
  0
VISUALSTYLE
  5
2B
102
{ACAD_XDICTIONARY
360
152
102
}
102
{ACAD_REACTORS
330
29
102
}
330
29
100
AcDbVisualStyle
  2
FlatWithEdges
 70
     1
177
     2
291
     1
 71
     2
176
     1
 72
     1
176
     1
 73
     1
176
     1
 90
        2
176
     1
 40
0.6
176
     1
 41
30.0
176
     1
 63
     7
421
 16777215
176
     1
 74
     1
176
     1
 91
        0
176
     1
 64
     7
176
     1
 65
   257
176
     1
 75
     1
176
     1
175
     1
176
     1
 42
1.0
176
     1
 92
        0
176
     1
 66
   257
176
     1
 43
1.0
176
     1
 76
     1
176
     1
 77
     6
176
     1
 78
     2
176
     1
 67
     7
176
     1
 79
     5
176
     1
170
     0
176
     1
171
     0
176
     1
290
     0
176
     1
 93
       13
176
     1
 44
0.0
176
     1
173
     0
176
     1
1001
ACAD
1000
AcDbSavedByObjectVersion
1070
     0
  0
VISUALSTYLE
  5
2C
102
{ACAD_XDICTIONARY
360
154
102
}
102
{ACAD_REACTORS
330
29
102
}
330
29
100
AcDbVisualStyle
  2
Gouraud
 70
     2
177
     2
291
     1
 71
     2
176
     1
 72
     2
176
     1
 73
     1
176
     1
 90
        2
176
     1
 40
0.6
176
     1
 41
30.0
176
     1
 63
     7
421
 16777215
176
     1
 74
     0
176
     1
 91
        0
176
     1
 64
     7
176
     1
 65
   257
176
     1
 75
     1
176
     1
175
     1
176
     1
 42
1.0
176
     1
 92
        0
176
     1
 66
     7
176
     1
 43
1.0
176
     1
 76
     1
176
     1
 77
     6
176
     1
 78
     2
176
     1
 67
     7
176
     1
 79
     5
176
     1
170
     0
176
     1
171
     0
176
     1
290
     0
176
     1
 93
       13
176
     1
 44
0.0
176
     1
173
     0
176
     1
1001
ACAD
1000
AcDbSavedByObjectVersion
1070
     0
  0
VISUALSTYLE
  5
2D
102
{ACAD_XDICTIONARY
360
156
102
}
102
{ACAD_REACTORS
330
29
102
}
330
29
100
AcDbVisualStyle
  2
GouraudWithEdges
 70
     3
177
     2
291
     1
 71
     2
176
     1
 72
     2
176
     1
 73
     1
176
     1
 90
        2
176
     1
 40
0.6
176
     1
 41
30.0
176
     1
 63
     7
421
 16777215
176
     1
 74
     1
176
     1
 91
        0
176
     1
 64
     7
176
     1
 65
   257
176
     1
 75
     1
176
     1
175
     1
176
     1
 42
1.0
176
     1
 92
        0
176
     1
 66
   257
176
     1
 43
1.0
176
     1
 76
     1
176
     1
 77
     6
176
     1
 78
     2
176
     1
 67
     7
176
     1
 79
     5
176
     1
170
     0
176
     1
171
     0
176
     1
290
     0
176
     1
 93
       13
176
     1
 44
0.0
176
     1
173
     0
176
     1
1001
ACAD
1000
AcDbSavedByObjectVersion
1070
     0
  0
VISUALSTYLE
  5
31
102
{ACAD_XDICTIONARY
360
15E
102
}
102
{ACAD_REACTORS
330
29
102
}
330
29
100
AcDbVisualStyle
  2
Hidden
 70
     6
177
     2
291
     0
 71
     1
176
     1
 72
     2
176
     1
 73
     2
176
     1
 90
        0
176
     1
 40
0.6
176
     1
 41
30.0
176
     1
 63
     7
421
 16777215
176
     1
 74
     2
176
     1
 91
        2
176
     1
 64
     7
176
     1
 65
   257
176
     1
 75
     2
176
     1
175
     1
176
     1
 42
40.0
176
     1
 92
        0
176
     1
 66
   257
176
     1
 43
1.0
176
     1
 76
     1
176
     1
 77
     6
176
     1
 78
     2
176
     1
 67
     7
176
     1
 79
     3
176
     1
170
     0
176
     1
171
     0
176
     1
290
     0
176
     1
 93
        1
176
     1
 44
0.0
176
     1
173
     0
176
     1
1001
ACAD
1000
AcDbSavedByObjectVersion
1070
     0
  0
VISUALSTYLE
  5
3F
102
{ACAD_XDICTIONARY
360
17A
102
}
102
{ACAD_REACTORS
330
29
102
}
330
29
100
AcDbVisualStyle
  2
JitterOff
 70
    20
177
     2
291
     1
 71
     2
176
     0
 72
     2
176
     0
 73
     0
176
     0
 90
        0
176
     0
 40
0.6
176
     0
 41
30.0
176
     0
 63
     7
421
 16777215
176
     0
 74
     1
176
     0
 91
        4
176
     0
 64
     7
176
     0
 65
   257
176
     0
 75
     1
176
     0
175
     1
176
     0
 42
1.0
176
     0
 92
       10
176
     2
 66
     7
176
     0
 43
1.0
176
     0
 76
     1
176
     0
 77
     6
176
     0
 78
     2
176
     0
 67
     7
176
     0
 79
     5
176
     0
170
     0
176
     0
171
     0
176
     0
290
     0
176
     0
 93
        1
176
     0
 44
0.0
176
     0
173
     0
176
     0
1001
ACAD
1000
AcDbSavedByObjectVersion
1070
     0
  0
VISUALSTYLE
  5
37
102
{ACAD_XDICTIONARY
360
16A
102
}
102
{ACAD_REACTORS
330
29
102
}
330
29
100
AcDbVisualStyle
  2
Linepattern
 70
    14
177
     2
291
     1
 71
     2
176
     1
 72
     2
176
     1
 73
     0
176
     1
 90
        0
176
     1
 40
0.6
176
     1
 41
30.0
176
     1
 63
     7
421
 16777215
176
     1
 74
     1
176
     1
 91
        4
176
     1
 64
     7
176
     1
 65
   257
176
     1
 75
     7
176
     1
175
     7
176
     1
 42
1.0
176
     1
 92
        8
176
     1
 66
     7
176
     1
 43
1.0
176
     1
 76
     1
176
     1
 77
     6
176
     1
 78
     2
176
     1
 67
     7
176
     1
 79
     5
176
     1
170
     0
176
     1
171
     0
176
     1
290
     0
176
     1
 93
        1
176
     1
 44
0.0
176
     1
173
     0
176
     1
1001
ACAD
1000
AcDbSavedByObjectVersion
1070
     0
  0
VISUALSTYLE
  5
40
102
{ACAD_XDICTIONARY
360
17C
102
}
102
{ACAD_REACTORS
330
29
102
}
330
29
100
AcDbVisualStyle
  2
OverhangOff
 70
    21
177
     2
291
     1
 71
     2
176
     0
 72
     2
176
     0
 73
     0
176
     0
 90
        0
176
     0
 40
0.6
176
     0
 41
30.0
176
     0
 63
     7
421
 16777215
176
     0
 74
     1
176
     0
 91
        4
176
     0
 64
     7
176
     0
 65
   257
176
     0
 75
     1
176
     0
175
     1
176
     0
 42
1.0
176
     0
 92
        9
176
     2
 66
     7
176
     0
 43
1.0
176
     0
 76
     1
176
     0
 77
     6
176
     0
 78
     2
176
     0
 67
     7
176
     0
 79
     5
176
     0
170
     0
176
     0
171
     0
176
     0
290
     0
176
     0
 93
        1
176
     0
 44
0.0
176
     0
173
     0
176
     0
1001
ACAD
1000
AcDbSavedByObjectVersion
1070
     0
  0
VISUALSTYLE
  5
33
102
{ACAD_XDICTIONARY
360
162
102
}
102
{ACAD_REACTORS
330
29
102
}
330
29
100
AcDbVisualStyle
  2
Realistic
 70
     8
177
     2
291
     0
 71
     2
176
     1
 72
     3
176
     1
 73
     0
176
     1
 90
        2
176
     1
 40
0.6
176
     1
 41
30.0
176
     1
 63
     7
421
 16777215
176
     1
 74
     0
176
     1
 91
        0
176
     1
 64
     7
176
     1
 65
   257
176
     1
 75
     1
176
     1
175
     1
176
     1
 42
1.0
176
     1
 92
        8
176
     1
 66
   257
176
     1
 43
1.0
176
     1
 76
     1
176
     1
 77
     6
176
     1
 78
     2
176
     1
 67
     7
176
     1
 79
     3
176
     1
170
     0
176
     1
171
     0
176
     1
290
     0
176
     1
 93
       13
176
     1
 44
0.0
176
     1
173
     0
176
     1
1001
ACAD
1000
AcDbSavedByObjectVersion
1070
     0
  0
VISUALSTYLE
  5
3E
102
{ACAD_XDICTIONARY
360
178
102
}
102
{ACAD_REACTORS
330
29
102
}
330
29
100
AcDbVisualStyle
  2
Shaded
 70
    27
177
     2
291
     0
 71
     2
176
     1
 72
     2
176
     1
 73
     1
176
     1
 90
        2
176
     1
 40
0.6
176
     1
 41
30.0
176
     1
 63
     7
421
 16777215
176
     1
 74
     0
176
     1
 91
        4
176
     1
 64
     7
176
     1
 65
   257
176
     1
 75
     1
176
     1
175
     1
176
     1
 42
1.0
176
     1
 92
        8
176
     1
 66
   257
176
     1
 43
1.0
176
     1
 76
     1
176
     1
 77
     6
176
     1
 78
     2
176
     1
 67
     8
425
  7895160
176
     1
 79
     3
176
     1
170
     0
176
     1
171
     0
176
     1
290
     0
176
     1
 93
        5
176
     1
 44
0.0
176
     1
173
     0
176
     1
1001
ACAD
1000
AcDbSavedByObjectVersion
1070
     0
  0
VISUALSTYLE
  5
3D
102
{ACAD_XDICTIONARY
360
176
102
}
102
{ACAD_REACTORS
330
29
102
}
330
29
100
AcDbVisualStyle
  2
Shaded with edges
 70
    26
177
     2
291
     0
 71
     2
176
     1
 72
     2
176
     1
 73
     1
176
     1
 90
        2
176
     1
 40
0.6
176
     1
 41
30.0
176
     1
 63
     7
421
 16777215
176
     1
 74
     1
176
     1
 91
        2
176
     1
 64
     7
176
     1
 65
   257
176
     1
 75
     2
176
     1
175
     1
176
     1
 42
1.0
176
     1
 92
        8
176
     1
 66
   257
176
     1
 43
1.0
176
     1
 76
     1
176
     1
 77
     6
176
     1
 78
     2
176
     1
 67
     7
176
     1
 79
     3
176
     1
170
     0
176
     1
171
     0
176
     1
290
     0
176
     1
 93
        5
176
     1
 44
0.0
176
     1
173
     0
176
     1
1001
ACAD
1000
AcDbSavedByObjectVersion
1070
     0
  0
VISUALSTYLE
  5
3A
102
{ACAD_XDICTIONARY
360
170
102
}
102
{ACAD_REACTORS
330
29
102
}
330
29
100
AcDbVisualStyle
  2
Shades of Gray
 70
    23
177
     2
291
     0
 71
     2
176
     1
 72
     2
176
     1
 73
     3
176
     1
 90
        0
176
     1
 40
0.6
176
     1
 41
30.0
176
     1
 63
     7
421
 16777215
176
     1
 74
     2
176
     1
 91
        2
176
     1
 64
     7
176
     1
 65
     7
176
     1
 75
     1
176
     1
175
     1
176
     1
 42
40.0
176
     1
 92
        8
176
     1
 66
     7
176
     1
 43
1.0
176
     1
 76
     1
176
     1
 77
     6
176
     1
 78
     2
176
     1
 67
     7
176
     1
 79
     3
176
     1
170
     0
176
     1
171
     0
176
     1
290
     0
176
     1
 93
        1
176
     1
 44
0.0
176
     1
173
     0
176
     1
1001
ACAD
1000
AcDbSavedByObjectVersion
1070
     0
  0
VISUALSTYLE
  5
3B
102
{ACAD_XDICTIONARY
360
172
102
}
102
{ACAD_REACTORS
330
29
102
}
330
29
100
AcDbVisualStyle
  2
Sketchy
 70
    24
177
     2
291
     0
 71
     1
176
     1
 72
     2
176
     1
 73
     2
176
     1
 90
        0
176
     1
 40
0.6
176
     1
 41
30.0
176
     1
 63
     7
421
 16777215
176
     1
 74
     2
176
     1
 91
        2
176
     1
 64
     7
176
     1
 65
     7
176
     1
 75
     1
176
     1
175
     1
176
     1
 42
40.0
176
     1
 92
       11
176
     1
 66
     7
176
     1
 43
1.0
176
     1
 76
     1
176
     1
 77
     6
176
     1
 78
     2
176
     1
 67
     7
176
     1
 79
     6
176
     1
170
     0
176
     1
171
     0
176
     1
290
     0
176
     1
 93
        1
176
     1
 44
0.0
176
     1
173
     0
176
     1
1001
ACAD
1000
AcDbSavedByObjectVersion
1070
     0
  0
VISUALSTYLE
  5
36
102
{ACAD_XDICTIONARY
360
168
102
}
102
{ACAD_REACTORS
330
29
102
}
330
29
100
AcDbVisualStyle
  2
Thicken
 70
    13
177
     2
291
     1
 71
     2
176
     1
 72
     2
176
     1
 73
     0
176
     1
 90
        0
176
     1
 40
0.6
176
     1
 41
30.0
176
     1
 63
     7
421
 16777215
176
     1
 74
     1
176
     1
 91
        4
176
     1
 64
     7
176
     1
 65
   257
176
     1
 75
     1
176
     1
175
     1
176
     1
 42
1.0
176
     1
 92
       12
176
     1
 66
     7
176
     1
 43
1.0
176
     1
 76
     1
176
     1
 77
     6
176
     1
 78
     2
176
     1
 67
     7
176
     1
 79
     5
176
     1
170
     0
176
     1
171
     0
176
     1
290
     0
176
     1
 93
        1
176
     1
 44
0.0
176
     1
173
     0
176
     1
1001
ACAD
1000
AcDbSavedByObjectVersion
1070
     0
  0
VISUALSTYLE
  5
30
102
{ACAD_XDICTIONARY
360
15C
102
}
102
{ACAD_REACTORS
330
29
102
}
330
29
100
AcDbVisualStyle
  2
Wireframe
 70
     5
177
     2
291
     0
 71
     0
176
     1
 72
     2
176
     1
 73
     0
176
     1
 90
        0
176
     1
 40
0.6
176
     1
 41
30.0
176
     1
 63
     7
421
 16777215
176
     1
 74
     1
176
     1
 91
        4
176
     1
 64
     7
176
     1
 65
   257
176
     1
 75
     1
176
     1
175
     1
176
     1
 42
1.0
176
     1
 92
        0
176
     1
 66
   257
176
     1
 43
1.0
176
     1
 76
     1
176
     1
 77
     6
176
     1
 78
     2
176
     1
 67
     7
176
     1
 79
     3
176
     1
170
     0
176
     1
171
     0
176
     1
290
     0
176
     1
 93
        1
176
     1
 44
0.0
176
     1
173
     0
176
     1
1001
ACAD
1000
AcDbSavedByObjectVersion
1070
     0
  0
VISUALSTYLE
  5
3C
102
{ACAD_XDICTIONARY
360
174
102
}
102
{ACAD_REACTORS
330
29
102
}
330
29
100
AcDbVisualStyle
  2
X-Ray
 70
    25
177
     2
291
     0
 71
     2
176
     1
 72
     2
176
     1
 73
     1
176
     1
 90
        1
176
     1
 40
0.5
176
     1
 41
30.0
176
     1
 63
     7
421
 16777215
176
     1
 74
     1
176
     1
 91
        0
176
     1
 64
     7
176
     1
 65
   257
176
     1
 75
     1
176
     1
175
     1
176
     1
 42
1.0
176
     1
 92
        8
176
     1
 66
     7
176
     1
 43
1.0
176
     1
 76
     1
176
     1
 77
     6
176
     1
 78
     2
176
     1
 67
     7
176
     1
 79
     3
176
     1
170
     0
176
     1
171
     0
176
     1
290
     0
176
     1
 93
       13
176
     1
 44
0.0
176
     1
173
     0
176
     1
1001
ACAD
1000
AcDbSavedByObjectVersion
1070
     0
  0
DICTIONARYVAR
  5
14C
102
{ACAD_REACTORS
330
147
102
}
330
147
100
DictionaryVariables
280
     0
  1
1:1
  0
DICTIONARYVAR
  5
149
102
{ACAD_REACTORS
330
147
102
}
330
147
100
DictionaryVariables
280
     0
  1
STANDARD
  0
DICTIONARYVAR
  5
148
102
{ACAD_REACTORS
330
147
102
}
330
147
100
DictionaryVariables
280
     0
  1
STANDARD
  0
DICTIONARYVAR
  5
14A
102
{ACAD_REACTORS
330
147
102
}
330
147
100
DictionaryVariables
280
     0
  1
Imperial24
  0
DICTIONARYVAR
  5
14B
102
{ACAD_REACTORS
330
147
102
}
330
147
100
DictionaryVariables
280
     0
  1
Imperial24
  0
DICTIONARY
  5
184
330
6B
100
AcDbDictionary
280
     1
281
     1
  3
ACAD_XREC_ROUNDTRIP
360
185
  0
DICTIONARY
  5
1A
330
19
100
AcDbDictionary
280
     1
281
     1
  3
BUMPTILE
360
1C
  3
DIFFUSETILE
360
1B
  3
OPACITYTILE
360
1F
  3
REFLECTIONTILE
360
1E
  3
REFRACTIONTILE
360
20
  3
SPECULARTILE
360
1D
  0
DICTIONARY
  5
12
330
11
100
AcDbDictionary
280
     1
281
     1
  3
BUMPTILE
360
14
  3
DIFFUSETILE
360
13
  3
OPACITYTILE
360
17
  3
REFLECTIONTILE
360
16
  3
REFRACTIONTILE
360
18
  3
SPECULARTILE
360
15
  0
DICTIONARY
  5
22
330
21
100
AcDbDictionary
280
     1
281
     1
  3
BUMPTILE
360
24
  3
DIFFUSETILE
360
23
  3
OPACITYTILE
360
27
  3
REFLECTIONTILE
360
26
  3
REFRACTIONTILE
360
28
  3
SPECULARTILE
360
25
  0
DICTIONARY
  5
180
330
67
100
AcDbDictionary
280
     1
281
     1
  3
ACAD_XREC_ROUNDTRIP
360
181
  0
DICTIONARY
  5
182
330
69
100
AcDbDictionary
280
     1
281
     1
  3
ACAD_XREC_ROUNDTRIP
360
183
  0
DICTIONARY
  5
14D
330
65
100
AcDbDictionary
280
     1
281
     1
  3
ACAD_ROUNDTRIP_2008_TABLESTYLE_CELLSTYLEMAP
360
14E
  0
DICTIONARY
  5
15A
330
2F
100
AcDbDictionary
280
     1
281
     1
  3
ACAD_XREC_ROUNDTRIP
360
15B
  0
DICTIONARY
  5
158
330
2E
100
AcDbDictionary
280
     1
281
     1
  3
ACAD_XREC_ROUNDTRIP
360
159
  0
DICTIONARY
  5
166
330
35
100
AcDbDictionary
280
     1
281
     1
  3
ACAD_XREC_ROUNDTRIP
360
167
  0
DICTIONARY
  5
16E
330
39
100
AcDbDictionary
280
     1
281
     1
  3
ACAD_XREC_ROUNDTRIP
360
16F
  0
DICTIONARY
  5
160
330
32
100
AcDbDictionary
280
     1
281
     1
  3
ACAD_XREC_ROUNDTRIP
360
161
  0
DICTIONARY
  5
164
330
34
100
AcDbDictionary
280
     1
281
     1
  3
ACAD_XREC_ROUNDTRIP
360
165
  0
DICTIONARY
  5
17E
330
41
100
AcDbDictionary
280
     1
281
     1
  3
ACAD_XREC_ROUNDTRIP
360
17F
  0
DICTIONARY
  5
16C
330
38
100
AcDbDictionary
280
     1
281
     1
  3
ACAD_XREC_ROUNDTRIP
360
16D
  0
DICTIONARY
  5
150
330
2A
100
AcDbDictionary
280
     1
281
     1
  3
ACAD_XREC_ROUNDTRIP
360
151
  0
DICTIONARY
  5
152
330
2B
100
AcDbDictionary
280
     1
281
     1
  3
ACAD_XREC_ROUNDTRIP
360
153
  0
DICTIONARY
  5
154
330
2C
100
AcDbDictionary
280
     1
281
     1
  3
ACAD_XREC_ROUNDTRIP
360
155
  0
DICTIONARY
  5
156
330
2D
100
AcDbDictionary
280
     1
281
     1
  3
ACAD_XREC_ROUNDTRIP
360
157
  0
DICTIONARY
  5
15E
330
31
100
AcDbDictionary
280
     1
281
     1
  3
ACAD_XREC_ROUNDTRIP
360
15F
  0
DICTIONARY
  5
17A
330
3F
100
AcDbDictionary
280
     1
281
     1
  3
ACAD_XREC_ROUNDTRIP
360
17B
  0
DICTIONARY
  5
16A
330
37
100
AcDbDictionary
280
     1
281
     1
  3
ACAD_XREC_ROUNDTRIP
360
16B
  0
DICTIONARY
  5
17C
330
40
100
AcDbDictionary
280
     1
281
     1
  3
ACAD_XREC_ROUNDTRIP
360
17D
  0
DICTIONARY
  5
162
330
33
100
AcDbDictionary
280
     1
281
     1
  3
ACAD_XREC_ROUNDTRIP
360
163
  0
DICTIONARY
  5
178
330
3E
100
AcDbDictionary
280
     1
281
     1
  3
ACAD_XREC_ROUNDTRIP
360
179
  0
DICTIONARY
  5
176
330
3D
100
AcDbDictionary
280
     1
281
     1
  3
ACAD_XREC_ROUNDTRIP
360
177
  0
DICTIONARY
  5
170
330
3A
100
AcDbDictionary
280
     1
281
     1
  3
ACAD_XREC_ROUNDTRIP
360
171
  0
DICTIONARY
  5
172
330
3B
100
AcDbDictionary
280
     1
281
     1
  3
ACAD_XREC_ROUNDTRIP
360
173
  0
DICTIONARY
  5
168
330
36
100
AcDbDictionary
280
     1
281
     1
  3
ACAD_XREC_ROUNDTRIP
360
169
  0
DICTIONARY
  5
15C
330
30
100
AcDbDictionary
280
     1
281
     1
  3
ACAD_XREC_ROUNDTRIP
360
15D
  0
DICTIONARY
  5
174
330
3C
100
AcDbDictionary
280
     1
281
     1
  3
ACAD_XREC_ROUNDTRIP
360
175
  0
XRECORD
  5
185
102
{ACAD_REACTORS
330
184
102
}
330
184
100
AcDbXrecord
280
     1
102
DISPLAYNAME
  1
Imperial24
102
FLAGS
 90
        0
  0
XRECORD
  5
1C
102
{ACAD_REACTORS
330
1A
102
}
330
1A
100
AcDbXrecord
280
     1
270
     1
271
     1
  0
XRECORD
  5
1B
102
{ACAD_REACTORS
330
1A
102
}
330
1A
100
AcDbXrecord
280
     1
270
     1
271
     1
  0
XRECORD
  5
1F
102
{ACAD_REACTORS
330
1A
102
}
330
1A
100
AcDbXrecord
280
     1
270
     1
271
     1
  0
XRECORD
  5
1E
102
{ACAD_REACTORS
330
1A
102
}
330
1A
100
AcDbXrecord
280
     1
270
     1
271
     1
  0
XRECORD
  5
20
102
{ACAD_REACTORS
330
1A
102
}
330
1A
100
AcDbXrecord
280
     1
270
     1
271
     1
  0
XRECORD
  5
1D
102
{ACAD_REACTORS
330
1A
102
}
330
1A
100
AcDbXrecord
280
     1
270
     1
271
     1
  0
XRECORD
  5
14
102
{ACAD_REACTORS
330
12
102
}
330
12
100
AcDbXrecord
280
     1
270
     1
271
     1
  0
XRECORD
  5
13
102
{ACAD_REACTORS
330
12
102
}
330
12
100
AcDbXrecord
280
     1
270
     1
271
     1
  0
XRECORD
  5
17
102
{ACAD_REACTORS
330
12
102
}
330
12
100
AcDbXrecord
280
     1
270
     1
271
     1
  0
XRECORD
  5
16
102
{ACAD_REACTORS
330
12
102
}
330
12
100
AcDbXrecord
280
     1
270
     1
271
     1
  0
XRECORD
  5
18
102
{ACAD_REACTORS
330
12
102
}
330
12
100
AcDbXrecord
280
     1
270
     1
271
     1
  0
XRECORD
  5
15
102
{ACAD_REACTORS
330
12
102
}
330
12
100
AcDbXrecord
280
     1
270
     1
271
     1
  0
XRECORD
  5
24
102
{ACAD_REACTORS
330
22
102
}
330
22
100
AcDbXrecord
280
     1
270
     1
271
     1
  0
XRECORD
  5
23
102
{ACAD_REACTORS
330
22
102
}
330
22
100
AcDbXrecord
280
     1
270
     1
271
     1
  0
XRECORD
  5
27
102
{ACAD_REACTORS
330
22
102
}
330
22
100
AcDbXrecord
280
     1
270
     1
271
     1
  0
XRECORD
  5
26
102
{ACAD_REACTORS
330
22
102
}
330
22
100
AcDbXrecord
280
     1
270
     1
271
     1
  0
XRECORD
  5
28
102
{ACAD_REACTORS
330
22
102
}
330
22
100
AcDbXrecord
280
     1
270
     1
271
     1
  0
XRECORD
  5
25
102
{ACAD_REACTORS
330
22
102
}
330
22
100
AcDbXrecord
280
     1
270
     1
271
     1
  0
XRECORD
  5
181
102
{ACAD_REACTORS
330
180
102
}
330
180
100
AcDbXrecord
280
     1
102
ACAD_ROUNDTRIP_2012_MLEADER_STYLE
298
     1
  0
XRECORD
  5
183
102
{ACAD_REACTORS
330
182
102
}
330
182
100
AcDbXrecord
280
     1
102
DISPLAYNAME
  1
Imperial24
102
FLAGS
 90
        0
  0
CELLSTYLEMAP
  5
14E
102
{ACAD_REACTORS
330
14D
102
}
330
14D
100
AcDbCellStyleMap
 90
        3
300
CELLSTYLE
  1
TABLEFORMAT_BEGIN
 90
        5
170
     1
 91
        0
 92
    32768
 62
   257
 93
        1
300
CONTENTFORMAT
  1
CONTENTFORMAT_BEGIN
 90
        0
 91
        0
 92
      512
 93
        0
300

 40
0.0
140
1.0
 94
        5
 62
     0
340
55
144
0.25
309
CONTENTFORMAT_END
171
     0
 94
        0
309
TABLEFORMAT_END
  1
CELLSTYLE_BEGIN
 90
        1
 91
        1
300
_TITLE
309
CELLSTYLE_END
300
CELLSTYLE
  1
TABLEFORMAT_BEGIN
 90
        5
170
     1
 91
        0
 92
        0
 62
   257
 93
        1
300
CONTENTFORMAT
  1
CONTENTFORMAT_BEGIN
 90
        0
 91
        0
 92
      512
 93
        0
300

 40
0.0
140
1.0
 94
        5
 62
     0
340
55
144
0.18
309
CONTENTFORMAT_END
171
     0
 94
        0
309
TABLEFORMAT_END
  1
CELLSTYLE_BEGIN
 90
        2
 91
        1
300
_HEADER
309
CELLSTYLE_END
300
CELLSTYLE
  1
TABLEFORMAT_BEGIN
 90
        5
170
     1
 91
        0
 92
        0
 62
   257
 93
        1
300
CONTENTFORMAT
  1
CONTENTFORMAT_BEGIN
 90
        0
 91
        0
 92
      512
 93
        0
300

 40
0.0
140
1.0
 94
        2
 62
     0
340
55
144
0.18
309
CONTENTFORMAT_END
171
     0
 94
        0
309
TABLEFORMAT_END
  1
CELLSTYLE_BEGIN
 90
        3
 91
        2
300
_DATA
309
CELLSTYLE_END
  0
XRECORD
  5
15B
102
{ACAD_REACTORS
330
15A
102
}
330
15A
100
AcDbXrecord
280
     1
102
RTVSPost2010Prop28
280
     1
102
RTVSPost2010PropOp28
 70
     1
102
RTVSPost2010Prop29
280
     1
102
RTVSPost2010PropOp29
 70
     1
102
RTVSPost2010Prop30
280
     0
102
RTVSPost2010PropOp30
 70
     1
102
RTVSPost2010Prop31
280
     0
102
RTVSPost2010PropOp31
 70
     1
102
RTVSPost2010Prop32
280
     0
102
RTVSPost2010PropOp32
 70
     1
102
RTVSPost2010Prop33
280
     0
102
RTVSPost2010PropOp33
 70
     1
102
RTVSPost2010Prop34
280
     0
102
RTVSPost2010PropOp34
 70
     1
102
RTVSPost2010Prop35
280
     0
102
RTVSPost2010PropOp35
 70
     1
102
RTVSPost2010Prop36
280
     0
102
RTVSPost2010PropOp36
 70
     1
102
RTVSPost2010Prop37
 90
       50
102
RTVSPost2010PropOp37
 70
     1
102
RTVSPost2010Prop38
140
0.0
102
RTVSPost2010PropOp38
 70
     1
102
RTVSPost2010Prop39
140
1.0
102
RTVSPost2010PropOp39
 70
     1
102
RTVSPost2010Prop40
 90
        0
102
RTVSPost2010PropOp40
 70
     1
102
RTVSPost2010Prop41ColorIndex
 90
       18
102
RTVSPost2010Prop41ColorRGB
 90
        0
102
RTVSPost2010PropOp41
 70
     1
102
RTVSPost2010Prop42
 90
       50
102
RTVSPost2010PropOp42
 70
     1
102
RTVSPost2010Prop43
 90
        3
102
RTVSPost2010PropOp43
 70
     1
102
RTVSPost2010Prop44ColorIndex
 90
        5
102
RTVSPost2010Prop44ColorRGB
 90
      255
102
RTVSPost2010PropOp44
 70
     1
102
RTVSPost2010Prop45
280
     0
102
RTVSPost2010PropOp45
 70
     1
102
RTVSPost2010Prop46
 90
       50
102
RTVSPost2010PropOp46
 70
     1
102
RTVSPost2010Prop47
 90
       50
102
RTVSPost2010PropOp47
 70
     1
102
RTVSPost2010Prop48
 90
       50
102
RTVSPost2010PropOp48
 70
     1
102
RTVSPost2010Prop49
280
     0
102
RTVSPost2010PropOp49
 70
     1
102
RTVSPost2010Prop50
 90
       50
102
RTVSPost2010PropOp50
 70
     1
102
RTVSPost2010Prop51ColorIndex
 90
      256
102
RTVSPost2010Prop51ColorRGB
 90
-16777216
102
RTVSPost2010PropOp51
 70
     0
102
RTVSPost2010Prop52
140
1.0
102
RTVSPost2010PropOp52
 70
     0
102
RTVSPost2010Prop53
 90
        2
102
RTVSPost2010PropOp53
 70
     1
102
RTVSPost2010Prop54
  1
strokes_ogs.tif
102
RTVSPost2010PropOp54
 70
     1
102
RTVSPost2010Prop55
280
     0
102
RTVSPost2010PropOp55
 70
     1
102
RTVSPost2010Prop56
140
1.0
102
RTVSPost2010PropOp56
 70
     1
102
RTVSPost2010Prop57
140
1.0
102
RTVSPost2010PropOp57
 70
     1
  0
XRECORD
  5
159
102
{ACAD_REACTORS
330
158
102
}
330
158
100
AcDbXrecord
280
     1
102
RTVSPost2010Prop28
280
     0
102
RTVSPost2010PropOp28
 70
     1
102
RTVSPost2010Prop29
280
     1
102
RTVSPost2010PropOp29
 70
     1
102
RTVSPost2010Prop30
280
     1
102
RTVSPost2010PropOp30
 70
     1
102
RTVSPost2010Prop31
280
     0
102
RTVSPost2010PropOp31
 70
     1
102
RTVSPost2010Prop32
280
     0
102
RTVSPost2010PropOp32
 70
     1
102
RTVSPost2010Prop33
280
     0
102
RTVSPost2010PropOp33
 70
     1
102
RTVSPost2010Prop34
280
     0
102
RTVSPost2010PropOp34
 70
     1
102
RTVSPost2010Prop35
280
     0
102
RTVSPost2010PropOp35
 70
     1
102
RTVSPost2010Prop36
280
     0
102
RTVSPost2010PropOp36
 70
     1
102
RTVSPost2010Prop37
 90
       50
102
RTVSPost2010PropOp37
 70
     1
102
RTVSPost2010Prop38
140
0.0
102
RTVSPost2010PropOp38
 70
     1
102
RTVSPost2010Prop39
140
1.0
102
RTVSPost2010PropOp39
 70
     1
102
RTVSPost2010Prop40
 90
        0
102
RTVSPost2010PropOp40
 70
     1
102
RTVSPost2010Prop41ColorIndex
 90
       18
102
RTVSPost2010Prop41ColorRGB
 90
        0
102
RTVSPost2010PropOp41
 70
     1
102
RTVSPost2010Prop42
 90
       50
102
RTVSPost2010PropOp42
 70
     1
102
RTVSPost2010Prop43
 90
        3
102
RTVSPost2010PropOp43
 70
     1
102
RTVSPost2010Prop44ColorIndex
 90
        5
102
RTVSPost2010Prop44ColorRGB
 90
      255
102
RTVSPost2010PropOp44
 70
     1
102
RTVSPost2010Prop45
280
     0
102
RTVSPost2010PropOp45
 70
     1
102
RTVSPost2010Prop46
 90
       50
102
RTVSPost2010PropOp46
 70
     1
102
RTVSPost2010Prop47
 90
       50
102
RTVSPost2010PropOp47
 70
     1
102
RTVSPost2010Prop48
 90
       50
102
RTVSPost2010PropOp48
 70
     1
102
RTVSPost2010Prop49
280
     0
102
RTVSPost2010PropOp49
 70
     1
102
RTVSPost2010Prop50
 90
       50
102
RTVSPost2010PropOp50
 70
     1
102
RTVSPost2010Prop51ColorIndex
 90
      256
102
RTVSPost2010Prop51ColorRGB
 90
-16777216
102
RTVSPost2010PropOp51
 70
     0
102
RTVSPost2010Prop52
140
1.0
102
RTVSPost2010PropOp52
 70
     0
102
RTVSPost2010Prop53
 90
        2
102
RTVSPost2010PropOp53
 70
     1
102
RTVSPost2010Prop54
  1
strokes_ogs.tif
102
RTVSPost2010PropOp54
 70
     1
102
RTVSPost2010Prop55
280
     0
102
RTVSPost2010PropOp55
 70
     1
102
RTVSPost2010Prop56
140
1.0
102
RTVSPost2010PropOp56
 70
     1
102
RTVSPost2010Prop57
140
1.0
102
RTVSPost2010PropOp57
 70
     1
  0
XRECORD
  5
167
102
{ACAD_REACTORS
330
166
102
}
330
166
100
AcDbXrecord
280
     1
102
RTVSPost2010Prop28
280
     0
102
RTVSPost2010PropOp28
 70
     1
102
RTVSPost2010Prop29
280
     1
102
RTVSPost2010PropOp29
 70
     1
102
RTVSPost2010Prop30
280
     1
102
RTVSPost2010PropOp30
 70
     1
102
RTVSPost2010Prop31
280
     0
102
RTVSPost2010PropOp31
 70
     1
102
RTVSPost2010Prop32
280
     0
102
RTVSPost2010PropOp32
 70
     1
102
RTVSPost2010Prop33
280
     0
102
RTVSPost2010PropOp33
 70
     1
102
RTVSPost2010Prop34
280
     0
102
RTVSPost2010PropOp34
 70
     1
102
RTVSPost2010Prop35
280
     0
102
RTVSPost2010PropOp35
 70
     1
102
RTVSPost2010Prop36
280
     0
102
RTVSPost2010PropOp36
 70
     1
102
RTVSPost2010Prop37
 90
       50
102
RTVSPost2010PropOp37
 70
     1
102
RTVSPost2010Prop38
140
0.0
102
RTVSPost2010PropOp38
 70
     1
102
RTVSPost2010Prop39
140
1.0
102
RTVSPost2010PropOp39
 70
     1
102
RTVSPost2010Prop40
 90
        0
102
RTVSPost2010PropOp40
 70
     1
102
RTVSPost2010Prop41ColorIndex
 90
       18
102
RTVSPost2010Prop41ColorRGB
 90
        0
102
RTVSPost2010PropOp41
 70
     1
102
RTVSPost2010Prop42
 90
       50
102
RTVSPost2010PropOp42
 70
     1
102
RTVSPost2010Prop43
 90
        3
102
RTVSPost2010PropOp43
 70
     1
102
RTVSPost2010Prop44ColorIndex
 90
        5
102
RTVSPost2010Prop44ColorRGB
 90
      255
102
RTVSPost2010PropOp44
 70
     1
102
RTVSPost2010Prop45
280
     0
102
RTVSPost2010PropOp45
 70
     1
102
RTVSPost2010Prop46
 90
       50
102
RTVSPost2010PropOp46
 70
     1
102
RTVSPost2010Prop47
 90
       50
102
RTVSPost2010PropOp47
 70
     1
102
RTVSPost2010Prop48
 90
       50
102
RTVSPost2010PropOp48
 70
     1
102
RTVSPost2010Prop49
280
     0
102
RTVSPost2010PropOp49
 70
     1
102
RTVSPost2010Prop50
 90
       50
102
RTVSPost2010PropOp50
 70
     1
102
RTVSPost2010Prop51ColorIndex
 90
      256
102
RTVSPost2010Prop51ColorRGB
 90
-16777216
102
RTVSPost2010PropOp51
 70
     0
102
RTVSPost2010Prop52
140
1.0
102
RTVSPost2010PropOp52
 70
     0
102
RTVSPost2010Prop53
 90
        2
102
RTVSPost2010PropOp53
 70
     1
102
RTVSPost2010Prop54
  1
strokes_ogs.tif
102
RTVSPost2010PropOp54
 70
     1
102
RTVSPost2010Prop55
280
     0
102
RTVSPost2010PropOp55
 70
     1
102
RTVSPost2010Prop56
140
1.0
102
RTVSPost2010PropOp56
 70
     1
102
RTVSPost2010Prop57
140
1.0
102
RTVSPost2010PropOp57
 70
     1
  0
XRECORD
  5
16F
102
{ACAD_REACTORS
330
16E
102
}
330
16E
100
AcDbXrecord
280
     1
102
RTVSPost2010Prop28
280
     0
102
RTVSPost2010PropOp28
 70
     1
102
RTVSPost2010Prop29
280
     1
102
RTVSPost2010PropOp29
 70
     1
102
RTVSPost2010Prop30
280
     1
102
RTVSPost2010PropOp30
 70
     1
102
RTVSPost2010Prop31
280
     0
102
RTVSPost2010PropOp31
 70
     1
102
RTVSPost2010Prop32
280
     0
102
RTVSPost2010PropOp32
 70
     1
102
RTVSPost2010Prop33
280
     0
102
RTVSPost2010PropOp33
 70
     1
102
RTVSPost2010Prop34
280
     0
102
RTVSPost2010PropOp34
 70
     1
102
RTVSPost2010Prop35
280
     0
102
RTVSPost2010PropOp35
 70
     1
102
RTVSPost2010Prop36
280
     0
102
RTVSPost2010PropOp36
 70
     1
102
RTVSPost2010Prop37
 90
       50
102
RTVSPost2010PropOp37
 70
     1
102
RTVSPost2010Prop38
140
0.0
102
RTVSPost2010PropOp38
 70
     1
102
RTVSPost2010Prop39
140
1.0
102
RTVSPost2010PropOp39
 70
     1
102
RTVSPost2010Prop40
 90
        0
102
RTVSPost2010PropOp40
 70
     1
102
RTVSPost2010Prop41ColorIndex
 90
       18
102
RTVSPost2010Prop41ColorRGB
 90
        0
102
RTVSPost2010PropOp41
 70
     1
102
RTVSPost2010Prop42
 90
       50
102
RTVSPost2010PropOp42
 70
     1
102
RTVSPost2010Prop43
 90
        3
102
RTVSPost2010PropOp43
 70
     1
102
RTVSPost2010Prop44ColorIndex
 90
        5
102
RTVSPost2010Prop44ColorRGB
 90
      255
102
RTVSPost2010PropOp44
 70
     1
102
RTVSPost2010Prop45
280
     0
102
RTVSPost2010PropOp45
 70
     1
102
RTVSPost2010Prop46
 90
       50
102
RTVSPost2010PropOp46
 70
     1
102
RTVSPost2010Prop47
 90
       50
102
RTVSPost2010PropOp47
 70
     1
102
RTVSPost2010Prop48
 90
       50
102
RTVSPost2010PropOp48
 70
     1
102
RTVSPost2010Prop49
280
     0
102
RTVSPost2010PropOp49
 70
     1
102
RTVSPost2010Prop50
 90
       50
102
RTVSPost2010PropOp50
 70
     1
102
RTVSPost2010Prop51ColorIndex
 90
      256
102
RTVSPost2010Prop51ColorRGB
 90
-16777216
102
RTVSPost2010PropOp51
 70
     0
102
RTVSPost2010Prop52
140
1.0
102
RTVSPost2010PropOp52
 70
     0
102
RTVSPost2010Prop53
 90
        2
102
RTVSPost2010PropOp53
 70
     1
102
RTVSPost2010Prop54
  1
strokes_ogs.tif
102
RTVSPost2010PropOp54
 70
     1
102
RTVSPost2010Prop55
280
     0
102
RTVSPost2010PropOp55
 70
     1
102
RTVSPost2010Prop56
140
1.0
102
RTVSPost2010PropOp56
 70
     1
102
RTVSPost2010Prop57
140
1.0
102
RTVSPost2010PropOp57
 70
     1
  0
XRECORD
  5
161
102
{ACAD_REACTORS
330
160
102
}
330
160
100
AcDbXrecord
280
     1
102
RTVSPost2010Prop28
280
     0
102
RTVSPost2010PropOp28
 70
     1
102
RTVSPost2010Prop29
280
     1
102
RTVSPost2010PropOp29
 70
     1
102
RTVSPost2010Prop30
280
     1
102
RTVSPost2010PropOp30
 70
     1
102
RTVSPost2010Prop31
280
     0
102
RTVSPost2010PropOp31
 70
     1
102
RTVSPost2010Prop32
280
     0
102
RTVSPost2010PropOp32
 70
     1
102
RTVSPost2010Prop33
280
     0
102
RTVSPost2010PropOp33
 70
     1
102
RTVSPost2010Prop34
280
     0
102
RTVSPost2010PropOp34
 70
     1
102
RTVSPost2010Prop35
280
     0
102
RTVSPost2010PropOp35
 70
     1
102
RTVSPost2010Prop36
280
     0
102
RTVSPost2010PropOp36
 70
     1
102
RTVSPost2010Prop37
 90
       50
102
RTVSPost2010PropOp37
 70
     1
102
RTVSPost2010Prop38
140
0.0
102
RTVSPost2010PropOp38
 70
     1
102
RTVSPost2010Prop39
140
1.0
102
RTVSPost2010PropOp39
 70
     1
102
RTVSPost2010Prop40
 90
        0
102
RTVSPost2010PropOp40
 70
     1
102
RTVSPost2010Prop41ColorIndex
 90
       18
102
RTVSPost2010Prop41ColorRGB
 90
        0
102
RTVSPost2010PropOp41
 70
     1
102
RTVSPost2010Prop42
 90
       50
102
RTVSPost2010PropOp42
 70
     1
102
RTVSPost2010Prop43
 90
        3
102
RTVSPost2010PropOp43
 70
     1
102
RTVSPost2010Prop44ColorIndex
 90
        5
102
RTVSPost2010Prop44ColorRGB
 90
      255
102
RTVSPost2010PropOp44
 70
     1
102
RTVSPost2010Prop45
280
     0
102
RTVSPost2010PropOp45
 70
     1
102
RTVSPost2010Prop46
 90
       50
102
RTVSPost2010PropOp46
 70
     1
102
RTVSPost2010Prop47
 90
       50
102
RTVSPost2010PropOp47
 70
     1
102
RTVSPost2010Prop48
 90
       50
102
RTVSPost2010PropOp48
 70
     1
102
RTVSPost2010Prop49
280
     0
102
RTVSPost2010PropOp49
 70
     1
102
RTVSPost2010Prop50
 90
       50
102
RTVSPost2010PropOp50
 70
     1
102
RTVSPost2010Prop51ColorIndex
 90
      256
102
RTVSPost2010Prop51ColorRGB
 90
-16777216
102
RTVSPost2010PropOp51
 70
     0
102
RTVSPost2010Prop52
140
1.0
102
RTVSPost2010PropOp52
 70
     0
102
RTVSPost2010Prop53
 90
        2
102
RTVSPost2010PropOp53
 70
     1
102
RTVSPost2010Prop54
  1
strokes_ogs.tif
102
RTVSPost2010PropOp54
 70
     1
102
RTVSPost2010Prop55
280
     0
102
RTVSPost2010PropOp55
 70
     1
102
RTVSPost2010Prop56
140
1.0
102
RTVSPost2010PropOp56
 70
     1
102
RTVSPost2010Prop57
140
1.0
102
RTVSPost2010PropOp57
 70
     1
  0
XRECORD
  5
165
102
{ACAD_REACTORS
330
164
102
}
330
164
100
AcDbXrecord
280
     1
102
RTVSPost2010Prop28
280
     0
102
RTVSPost2010PropOp28
 70
     1
102
RTVSPost2010Prop29
280
     1
102
RTVSPost2010PropOp29
 70
     1
102
RTVSPost2010Prop30
280
     1
102
RTVSPost2010PropOp30
 70
     1
102
RTVSPost2010Prop31
280
     0
102
RTVSPost2010PropOp31
 70
     1
102
RTVSPost2010Prop32
280
     0
102
RTVSPost2010PropOp32
 70
     1
102
RTVSPost2010Prop33
280
     0
102
RTVSPost2010PropOp33
 70
     1
102
RTVSPost2010Prop34
280
     0
102
RTVSPost2010PropOp34
 70
     1
102
RTVSPost2010Prop35
280
     0
102
RTVSPost2010PropOp35
 70
     1
102
RTVSPost2010Prop36
280
     0
102
RTVSPost2010PropOp36
 70
     1
102
RTVSPost2010Prop37
 90
       50
102
RTVSPost2010PropOp37
 70
     1
102
RTVSPost2010Prop38
140
0.0
102
RTVSPost2010PropOp38
 70
     1
102
RTVSPost2010Prop39
140
1.0
102
RTVSPost2010PropOp39
 70
     1
102
RTVSPost2010Prop40
 90
        0
102
RTVSPost2010PropOp40
 70
     1
102
RTVSPost2010Prop41ColorIndex
 90
       18
102
RTVSPost2010Prop41ColorRGB
 90
        0
102
RTVSPost2010PropOp41
 70
     1
102
RTVSPost2010Prop42
 90
       50
102
RTVSPost2010PropOp42
 70
     1
102
RTVSPost2010Prop43
 90
        3
102
RTVSPost2010PropOp43
 70
     1
102
RTVSPost2010Prop44ColorIndex
 90
        5
102
RTVSPost2010Prop44ColorRGB
 90
      255
102
RTVSPost2010PropOp44
 70
     1
102
RTVSPost2010Prop45
280
     0
102
RTVSPost2010PropOp45
 70
     1
102
RTVSPost2010Prop46
 90
       50
102
RTVSPost2010PropOp46
 70
     1
102
RTVSPost2010Prop47
 90
       50
102
RTVSPost2010PropOp47
 70
     1
102
RTVSPost2010Prop48
 90
       50
102
RTVSPost2010PropOp48
 70
     1
102
RTVSPost2010Prop49
280
     0
102
RTVSPost2010PropOp49
 70
     1
102
RTVSPost2010Prop50
 90
       50
102
RTVSPost2010PropOp50
 70
     1
102
RTVSPost2010Prop51ColorIndex
 90
      256
102
RTVSPost2010Prop51ColorRGB
 90
-16777216
102
RTVSPost2010PropOp51
 70
     0
102
RTVSPost2010Prop52
140
1.0
102
RTVSPost2010PropOp52
 70
     0
102
RTVSPost2010Prop53
 90
        2
102
RTVSPost2010PropOp53
 70
     1
102
RTVSPost2010Prop54
  1
strokes_ogs.tif
102
RTVSPost2010PropOp54
 70
     1
102
RTVSPost2010Prop55
280
     0
102
RTVSPost2010PropOp55
 70
     1
102
RTVSPost2010Prop56
140
1.0
102
RTVSPost2010PropOp56
 70
     1
102
RTVSPost2010Prop57
140
1.0
102
RTVSPost2010PropOp57
 70
     1
  0
XRECORD
  5
17F
102
{ACAD_REACTORS
330
17E
102
}
330
17E
100
AcDbXrecord
280
     1
102
RTVSPost2010Prop28
280
     0
102
RTVSPost2010PropOp28
 70
     0
102
RTVSPost2010Prop29
280
     1
102
RTVSPost2010PropOp29
 70
     0
102
RTVSPost2010Prop30
280
     1
102
RTVSPost2010PropOp30
 70
     0
102
RTVSPost2010Prop31
280
     0
102
RTVSPost2010PropOp31
 70
     0
102
RTVSPost2010Prop32
280
     0
102
RTVSPost2010PropOp32
 70
     0
102
RTVSPost2010Prop33
280
     0
102
RTVSPost2010PropOp33
 70
     0
102
RTVSPost2010Prop34
280
     0
102
RTVSPost2010PropOp34
 70
     0
102
RTVSPost2010Prop35
280
     0
102
RTVSPost2010PropOp35
 70
     0
102
RTVSPost2010Prop36
280
     0
102
RTVSPost2010PropOp36
 70
     0
102
RTVSPost2010Prop37
 90
       50
102
RTVSPost2010PropOp37
 70
     0
102
RTVSPost2010Prop38
140
0.0
102
RTVSPost2010PropOp38
 70
     0
102
RTVSPost2010Prop39
140
1.0
102
RTVSPost2010PropOp39
 70
     0
102
RTVSPost2010Prop40
 90
        0
102
RTVSPost2010PropOp40
 70
     0
102
RTVSPost2010Prop41ColorIndex
 90
       18
102
RTVSPost2010Prop41ColorRGB
 90
        0
102
RTVSPost2010PropOp41
 70
     0
102
RTVSPost2010Prop42
 90
       50
102
RTVSPost2010PropOp42
 70
     0
102
RTVSPost2010Prop43
 90
        3
102
RTVSPost2010PropOp43
 70
     0
102
RTVSPost2010Prop44ColorIndex
 90
        5
102
RTVSPost2010Prop44ColorRGB
 90
      255
102
RTVSPost2010PropOp44
 70
     0
102
RTVSPost2010Prop45
280
     0
102
RTVSPost2010PropOp45
 70
     0
102
RTVSPost2010Prop46
 90
       50
102
RTVSPost2010PropOp46
 70
     0
102
RTVSPost2010Prop47
 90
       50
102
RTVSPost2010PropOp47
 70
     0
102
RTVSPost2010Prop48
 90
       50
102
RTVSPost2010PropOp48
 70
     0
102
RTVSPost2010Prop49
280
     0
102
RTVSPost2010PropOp49
 70
     0
102
RTVSPost2010Prop50
 90
       50
102
RTVSPost2010PropOp50
 70
     0
102
RTVSPost2010Prop51ColorIndex
 90
      256
102
RTVSPost2010Prop51ColorRGB
 90
-16777216
102
RTVSPost2010PropOp51
 70
     0
102
RTVSPost2010Prop52
140
1.0
102
RTVSPost2010PropOp52
 70
     0
102
RTVSPost2010Prop53
 90
        2
102
RTVSPost2010PropOp53
 70
     0
102
RTVSPost2010Prop54
  1
strokes_ogs.tif
102
RTVSPost2010PropOp54
 70
     0
102
RTVSPost2010Prop55
280
     0
102
RTVSPost2010PropOp55
 70
     0
102
RTVSPost2010Prop56
140
1.0
102
RTVSPost2010PropOp56
 70
     0
102
RTVSPost2010Prop57
140
1.0
102
RTVSPost2010PropOp57
 70
     0
  0
XRECORD
  5
16D
102
{ACAD_REACTORS
330
16C
102
}
330
16C
100
AcDbXrecord
280
     1
102
RTVSPost2010Prop28
280
     0
102
RTVSPost2010PropOp28
 70
     1
102
RTVSPost2010Prop29
280
     1
102
RTVSPost2010PropOp29
 70
     1
102
RTVSPost2010Prop30
280
     1
102
RTVSPost2010PropOp30
 70
     1
102
RTVSPost2010Prop31
280
     0
102
RTVSPost2010PropOp31
 70
     1
102
RTVSPost2010Prop32
280
     0
102
RTVSPost2010PropOp32
 70
     1
102
RTVSPost2010Prop33
280
     0
102
RTVSPost2010PropOp33
 70
     1
102
RTVSPost2010Prop34
280
     0
102
RTVSPost2010PropOp34
 70
     1
102
RTVSPost2010Prop35
280
     0
102
RTVSPost2010PropOp35
 70
     1
102
RTVSPost2010Prop36
280
     0
102
RTVSPost2010PropOp36
 70
     1
102
RTVSPost2010Prop37
 90
       50
102
RTVSPost2010PropOp37
 70
     1
102
RTVSPost2010Prop38
140
0.0
102
RTVSPost2010PropOp38
 70
     1
102
RTVSPost2010Prop39
140
1.0
102
RTVSPost2010PropOp39
 70
     1
102
RTVSPost2010Prop40
 90
        0
102
RTVSPost2010PropOp40
 70
     1
102
RTVSPost2010Prop41ColorIndex
 90
       18
102
RTVSPost2010Prop41ColorRGB
 90
        0
102
RTVSPost2010PropOp41
 70
     1
102
RTVSPost2010Prop42
 90
       50
102
RTVSPost2010PropOp42
 70
     1
102
RTVSPost2010Prop43
 90
        3
102
RTVSPost2010PropOp43
 70
     1
102
RTVSPost2010Prop44ColorIndex
 90
        5
102
RTVSPost2010Prop44ColorRGB
 90
      255
102
RTVSPost2010PropOp44
 70
     1
102
RTVSPost2010Prop45
280
     0
102
RTVSPost2010PropOp45
 70
     1
102
RTVSPost2010Prop46
 90
       50
102
RTVSPost2010PropOp46
 70
     1
102
RTVSPost2010Prop47
 90
       50
102
RTVSPost2010PropOp47
 70
     1
102
RTVSPost2010Prop48
 90
       50
102
RTVSPost2010PropOp48
 70
     1
102
RTVSPost2010Prop49
280
     0
102
RTVSPost2010PropOp49
 70
     1
102
RTVSPost2010Prop50
 90
       50
102
RTVSPost2010PropOp50
 70
     1
102
RTVSPost2010Prop51ColorIndex
 90
      256
102
RTVSPost2010Prop51ColorRGB
 90
-16777216
102
RTVSPost2010PropOp51
 70
     0
102
RTVSPost2010Prop52
140
1.0
102
RTVSPost2010PropOp52
 70
     0
102
RTVSPost2010Prop53
 90
        2
102
RTVSPost2010PropOp53
 70
     1
102
RTVSPost2010Prop54
  1
strokes_ogs.tif
102
RTVSPost2010PropOp54
 70
     1
102
RTVSPost2010Prop55
280
     0
102
RTVSPost2010PropOp55
 70
     1
102
RTVSPost2010Prop56
140
1.0
102
RTVSPost2010PropOp56
 70
     1
102
RTVSPost2010Prop57
140
1.0
102
RTVSPost2010PropOp57
 70
     1
  0
XRECORD
  5
151
102
{ACAD_REACTORS
330
150
102
}
330
150
100
AcDbXrecord
280
     1
102
RTVSPost2010Prop28
280
     0
102
RTVSPost2010PropOp28
 70
     1
102
RTVSPost2010Prop29
280
     1
102
RTVSPost2010PropOp29
 70
     1
102
RTVSPost2010Prop30
280
     1
102
RTVSPost2010PropOp30
 70
     1
102
RTVSPost2010Prop31
280
     0
102
RTVSPost2010PropOp31
 70
     1
102
RTVSPost2010Prop32
280
     0
102
RTVSPost2010PropOp32
 70
     1
102
RTVSPost2010Prop33
280
     0
102
RTVSPost2010PropOp33
 70
     1
102
RTVSPost2010Prop34
280
     0
102
RTVSPost2010PropOp34
 70
     1
102
RTVSPost2010Prop35
280
     0
102
RTVSPost2010PropOp35
 70
     1
102
RTVSPost2010Prop36
280
     0
102
RTVSPost2010PropOp36
 70
     1
102
RTVSPost2010Prop37
 90
       50
102
RTVSPost2010PropOp37
 70
     1
102
RTVSPost2010Prop38
140
0.0
102
RTVSPost2010PropOp38
 70
     1
102
RTVSPost2010Prop39
140
1.0
102
RTVSPost2010PropOp39
 70
     1
102
RTVSPost2010Prop40
 90
        0
102
RTVSPost2010PropOp40
 70
     1
102
RTVSPost2010Prop41ColorIndex
 90
       18
102
RTVSPost2010Prop41ColorRGB
 90
        0
102
RTVSPost2010PropOp41
 70
     1
102
RTVSPost2010Prop42
 90
       50
102
RTVSPost2010PropOp42
 70
     1
102
RTVSPost2010Prop43
 90
        3
102
RTVSPost2010PropOp43
 70
     1
102
RTVSPost2010Prop44ColorIndex
 90
        5
102
RTVSPost2010Prop44ColorRGB
 90
      255
102
RTVSPost2010PropOp44
 70
     1
102
RTVSPost2010Prop45
280
     0
102
RTVSPost2010PropOp45
 70
     1
102
RTVSPost2010Prop46
 90
       50
102
RTVSPost2010PropOp46
 70
     1
102
RTVSPost2010Prop47
 90
       50
102
RTVSPost2010PropOp47
 70
     1
102
RTVSPost2010Prop48
 90
       50
102
RTVSPost2010PropOp48
 70
     1
102
RTVSPost2010Prop49
280
     0
102
RTVSPost2010PropOp49
 70
     1
102
RTVSPost2010Prop50
 90
       50
102
RTVSPost2010PropOp50
 70
     1
102
RTVSPost2010Prop51ColorIndex
 90
      256
102
RTVSPost2010Prop51ColorRGB
 90
-16777216
102
RTVSPost2010PropOp51
 70
     0
102
RTVSPost2010Prop52
140
1.0
102
RTVSPost2010PropOp52
 70
     0
102
RTVSPost2010Prop53
 90
        2
102
RTVSPost2010PropOp53
 70
     1
102
RTVSPost2010Prop54
  1
strokes_ogs.tif
102
RTVSPost2010PropOp54
 70
     1
102
RTVSPost2010Prop55
280
     0
102
RTVSPost2010PropOp55
 70
     1
102
RTVSPost2010Prop56
140
1.0
102
RTVSPost2010PropOp56
 70
     1
102
RTVSPost2010Prop57
140
1.0
102
RTVSPost2010PropOp57
 70
     1
  0
XRECORD
  5
153
102
{ACAD_REACTORS
330
152
102
}
330
152
100
AcDbXrecord
280
     1
102
RTVSPost2010Prop28
280
     0
102
RTVSPost2010PropOp28
 70
     1
102
RTVSPost2010Prop29
280
     1
102
RTVSPost2010PropOp29
 70
     1
102
RTVSPost2010Prop30
280
     1
102
RTVSPost2010PropOp30
 70
     1
102
RTVSPost2010Prop31
280
     0
102
RTVSPost2010PropOp31
 70
     1
102
RTVSPost2010Prop32
280
     0
102
RTVSPost2010PropOp32
 70
     1
102
RTVSPost2010Prop33
280
     0
102
RTVSPost2010PropOp33
 70
     1
102
RTVSPost2010Prop34
280
     0
102
RTVSPost2010PropOp34
 70
     1
102
RTVSPost2010Prop35
280
     0
102
RTVSPost2010PropOp35
 70
     1
102
RTVSPost2010Prop36
280
     0
102
RTVSPost2010PropOp36
 70
     1
102
RTVSPost2010Prop37
 90
       50
102
RTVSPost2010PropOp37
 70
     1
102
RTVSPost2010Prop38
140
0.0
102
RTVSPost2010PropOp38
 70
     1
102
RTVSPost2010Prop39
140
1.0
102
RTVSPost2010PropOp39
 70
     1
102
RTVSPost2010Prop40
 90
        0
102
RTVSPost2010PropOp40
 70
     1
102
RTVSPost2010Prop41ColorIndex
 90
       18
102
RTVSPost2010Prop41ColorRGB
 90
        0
102
RTVSPost2010PropOp41
 70
     1
102
RTVSPost2010Prop42
 90
       50
102
RTVSPost2010PropOp42
 70
     1
102
RTVSPost2010Prop43
 90
        3
102
RTVSPost2010PropOp43
 70
     1
102
RTVSPost2010Prop44ColorIndex
 90
        5
102
RTVSPost2010Prop44ColorRGB
 90
      255
102
RTVSPost2010PropOp44
 70
     1
102
RTVSPost2010Prop45
280
     0
102
RTVSPost2010PropOp45
 70
     1
102
RTVSPost2010Prop46
 90
       50
102
RTVSPost2010PropOp46
 70
     1
102
RTVSPost2010Prop47
 90
       50
102
RTVSPost2010PropOp47
 70
     1
102
RTVSPost2010Prop48
 90
       50
102
RTVSPost2010PropOp48
 70
     1
102
RTVSPost2010Prop49
280
     0
102
RTVSPost2010PropOp49
 70
     1
102
RTVSPost2010Prop50
 90
       50
102
RTVSPost2010PropOp50
 70
     1
102
RTVSPost2010Prop51ColorIndex
 90
      256
102
RTVSPost2010Prop51ColorRGB
 90
-16777216
102
RTVSPost2010PropOp51
 70
     0
102
RTVSPost2010Prop52
140
1.0
102
RTVSPost2010PropOp52
 70
     0
102
RTVSPost2010Prop53
 90
        2
102
RTVSPost2010PropOp53
 70
     1
102
RTVSPost2010Prop54
  1
strokes_ogs.tif
102
RTVSPost2010PropOp54
 70
     1
102
RTVSPost2010Prop55
280
     0
102
RTVSPost2010PropOp55
 70
     1
102
RTVSPost2010Prop56
140
1.0
102
RTVSPost2010PropOp56
 70
     1
102
RTVSPost2010Prop57
140
1.0
102
RTVSPost2010PropOp57
 70
     1
  0
XRECORD
  5
155
102
{ACAD_REACTORS
330
154
102
}
330
154
100
AcDbXrecord
280
     1
102
RTVSPost2010Prop28
280
     0
102
RTVSPost2010PropOp28
 70
     1
102
RTVSPost2010Prop29
280
     1
102
RTVSPost2010PropOp29
 70
     1
102
RTVSPost2010Prop30
280
     1
102
RTVSPost2010PropOp30
 70
     1
102
RTVSPost2010Prop31
280
     0
102
RTVSPost2010PropOp31
 70
     1
102
RTVSPost2010Prop32
280
     0
102
RTVSPost2010PropOp32
 70
     1
102
RTVSPost2010Prop33
280
     0
102
RTVSPost2010PropOp33
 70
     1
102
RTVSPost2010Prop34
280
     0
102
RTVSPost2010PropOp34
 70
     1
102
RTVSPost2010Prop35
280
     0
102
RTVSPost2010PropOp35
 70
     1
102
RTVSPost2010Prop36
280
     0
102
RTVSPost2010PropOp36
 70
     1
102
RTVSPost2010Prop37
 90
       50
102
RTVSPost2010PropOp37
 70
     1
102
RTVSPost2010Prop38
140
0.0
102
RTVSPost2010PropOp38
 70
     1
102
RTVSPost2010Prop39
140
1.0
102
RTVSPost2010PropOp39
 70
     1
102
RTVSPost2010Prop40
 90
        0
102
RTVSPost2010PropOp40
 70
     1
102
RTVSPost2010Prop41ColorIndex
 90
       18
102
RTVSPost2010Prop41ColorRGB
 90
        0
102
RTVSPost2010PropOp41
 70
     1
102
RTVSPost2010Prop42
 90
       50
102
RTVSPost2010PropOp42
 70
     1
102
RTVSPost2010Prop43
 90
        3
102
RTVSPost2010PropOp43
 70
     1
102
RTVSPost2010Prop44ColorIndex
 90
        5
102
RTVSPost2010Prop44ColorRGB
 90
      255
102
RTVSPost2010PropOp44
 70
     1
102
RTVSPost2010Prop45
280
     0
102
RTVSPost2010PropOp45
 70
     1
102
RTVSPost2010Prop46
 90
       50
102
RTVSPost2010PropOp46
 70
     1
102
RTVSPost2010Prop47
 90
       50
102
RTVSPost2010PropOp47
 70
     1
102
RTVSPost2010Prop48
 90
       50
102
RTVSPost2010PropOp48
 70
     1
102
RTVSPost2010Prop49
280
     0
102
RTVSPost2010PropOp49
 70
     1
102
RTVSPost2010Prop50
 90
       50
102
RTVSPost2010PropOp50
 70
     1
102
RTVSPost2010Prop51ColorIndex
 90
      256
102
RTVSPost2010Prop51ColorRGB
 90
-16777216
102
RTVSPost2010PropOp51
 70
     0
102
RTVSPost2010Prop52
140
1.0
102
RTVSPost2010PropOp52
 70
     0
102
RTVSPost2010Prop53
 90
        2
102
RTVSPost2010PropOp53
 70
     1
102
RTVSPost2010Prop54
  1
strokes_ogs.tif
102
RTVSPost2010PropOp54
 70
     1
102
RTVSPost2010Prop55
280
     0
102
RTVSPost2010PropOp55
 70
     1
102
RTVSPost2010Prop56
140
1.0
102
RTVSPost2010PropOp56
 70
     1
102
RTVSPost2010Prop57
140
1.0
102
RTVSPost2010PropOp57
 70
     1
  0
XRECORD
  5
157
102
{ACAD_REACTORS
330
156
102
}
330
156
100
AcDbXrecord
280
     1
102
RTVSPost2010Prop28
280
     0
102
RTVSPost2010PropOp28
 70
     1
102
RTVSPost2010Prop29
280
     1
102
RTVSPost2010PropOp29
 70
     1
102
RTVSPost2010Prop30
280
     1
102
RTVSPost2010PropOp30
 70
     1
102
RTVSPost2010Prop31
280
     0
102
RTVSPost2010PropOp31
 70
     1
102
RTVSPost2010Prop32
280
     0
102
RTVSPost2010PropOp32
 70
     1
102
RTVSPost2010Prop33
280
     0
102
RTVSPost2010PropOp33
 70
     1
102
RTVSPost2010Prop34
280
     0
102
RTVSPost2010PropOp34
 70
     1
102
RTVSPost2010Prop35
280
     0
102
RTVSPost2010PropOp35
 70
     1
102
RTVSPost2010Prop36
280
     0
102
RTVSPost2010PropOp36
 70
     1
102
RTVSPost2010Prop37
 90
       50
102
RTVSPost2010PropOp37
 70
     1
102
RTVSPost2010Prop38
140
0.0
102
RTVSPost2010PropOp38
 70
     1
102
RTVSPost2010Prop39
140
1.0
102
RTVSPost2010PropOp39
 70
     1
102
RTVSPost2010Prop40
 90
        0
102
RTVSPost2010PropOp40
 70
     1
102
RTVSPost2010Prop41ColorIndex
 90
       18
102
RTVSPost2010Prop41ColorRGB
 90
        0
102
RTVSPost2010PropOp41
 70
     1
102
RTVSPost2010Prop42
 90
       50
102
RTVSPost2010PropOp42
 70
     1
102
RTVSPost2010Prop43
 90
        3
102
RTVSPost2010PropOp43
 70
     1
102
RTVSPost2010Prop44ColorIndex
 90
        5
102
RTVSPost2010Prop44ColorRGB
 90
      255
102
RTVSPost2010PropOp44
 70
     1
102
RTVSPost2010Prop45
280
     0
102
RTVSPost2010PropOp45
 70
     1
102
RTVSPost2010Prop46
 90
       50
102
RTVSPost2010PropOp46
 70
     1
102
RTVSPost2010Prop47
 90
       50
102
RTVSPost2010PropOp47
 70
     1
102
RTVSPost2010Prop48
 90
       50
102
RTVSPost2010PropOp48
 70
     1
102
RTVSPost2010Prop49
280
     0
102
RTVSPost2010PropOp49
 70
     1
102
RTVSPost2010Prop50
 90
       50
102
RTVSPost2010PropOp50
 70
     1
102
RTVSPost2010Prop51ColorIndex
 90
      256
102
RTVSPost2010Prop51ColorRGB
 90
-16777216
102
RTVSPost2010PropOp51
 70
     0
102
RTVSPost2010Prop52
140
1.0
102
RTVSPost2010PropOp52
 70
     0
102
RTVSPost2010Prop53
 90
        2
102
RTVSPost2010PropOp53
 70
     1
102
RTVSPost2010Prop54
  1
strokes_ogs.tif
102
RTVSPost2010PropOp54
 70
     1
102
RTVSPost2010Prop55
280
     0
102
RTVSPost2010PropOp55
 70
     1
102
RTVSPost2010Prop56
140
1.0
102
RTVSPost2010PropOp56
 70
     1
102
RTVSPost2010Prop57
140
1.0
102
RTVSPost2010PropOp57
 70
     1
  0
XRECORD
  5
15F
102
{ACAD_REACTORS
330
15E
102
}
330
15E
100
AcDbXrecord
280
     1
102
RTVSPost2010Prop28
280
     0
102
RTVSPost2010PropOp28
 70
     1
102
RTVSPost2010Prop29
280
     1
102
RTVSPost2010PropOp29
 70
     1
102
RTVSPost2010Prop30
280
     1
102
RTVSPost2010PropOp30
 70
     1
102
RTVSPost2010Prop31
280
     0
102
RTVSPost2010PropOp31
 70
     1
102
RTVSPost2010Prop32
280
     0
102
RTVSPost2010PropOp32
 70
     1
102
RTVSPost2010Prop33
280
     0
102
RTVSPost2010PropOp33
 70
     1
102
RTVSPost2010Prop34
280
     0
102
RTVSPost2010PropOp34
 70
     1
102
RTVSPost2010Prop35
280
     0
102
RTVSPost2010PropOp35
 70
     1
102
RTVSPost2010Prop36
280
     0
102
RTVSPost2010PropOp36
 70
     1
102
RTVSPost2010Prop37
 90
       50
102
RTVSPost2010PropOp37
 70
     1
102
RTVSPost2010Prop38
140
0.0
102
RTVSPost2010PropOp38
 70
     1
102
RTVSPost2010Prop39
140
1.0
102
RTVSPost2010PropOp39
 70
     1
102
RTVSPost2010Prop40
 90
        0
102
RTVSPost2010PropOp40
 70
     1
102
RTVSPost2010Prop41ColorIndex
 90
       18
102
RTVSPost2010Prop41ColorRGB
 90
        0
102
RTVSPost2010PropOp41
 70
     1
102
RTVSPost2010Prop42
 90
       50
102
RTVSPost2010PropOp42
 70
     1
102
RTVSPost2010Prop43
 90
        3
102
RTVSPost2010PropOp43
 70
     1
102
RTVSPost2010Prop44ColorIndex
 90
        5
102
RTVSPost2010Prop44ColorRGB
 90
      255
102
RTVSPost2010PropOp44
 70
     1
102
RTVSPost2010Prop45
280
     0
102
RTVSPost2010PropOp45
 70
     1
102
RTVSPost2010Prop46
 90
       50
102
RTVSPost2010PropOp46
 70
     1
102
RTVSPost2010Prop47
 90
       50
102
RTVSPost2010PropOp47
 70
     1
102
RTVSPost2010Prop48
 90
       50
102
RTVSPost2010PropOp48
 70
     1
102
RTVSPost2010Prop49
280
     0
102
RTVSPost2010PropOp49
 70
     1
102
RTVSPost2010Prop50
 90
       50
102
RTVSPost2010PropOp50
 70
     1
102
RTVSPost2010Prop51ColorIndex
 90
      256
102
RTVSPost2010Prop51ColorRGB
 90
-16777216
102
RTVSPost2010PropOp51
 70
     0
102
RTVSPost2010Prop52
140
1.0
102
RTVSPost2010PropOp52
 70
     0
102
RTVSPost2010Prop53
 90
        2
102
RTVSPost2010PropOp53
 70
     1
102
RTVSPost2010Prop54
  1
strokes_ogs.tif
102
RTVSPost2010PropOp54
 70
     1
102
RTVSPost2010Prop55
280
     0
102
RTVSPost2010PropOp55
 70
     1
102
RTVSPost2010Prop56
140
1.0
102
RTVSPost2010PropOp56
 70
     1
102
RTVSPost2010Prop57
140
1.0
102
RTVSPost2010PropOp57
 70
     1
  0
XRECORD
  5
17B
102
{ACAD_REACTORS
330
17A
102
}
330
17A
100
AcDbXrecord
280
     1
102
RTVSPost2010Prop28
280
     0
102
RTVSPost2010PropOp28
 70
     0
102
RTVSPost2010Prop29
280
     1
102
RTVSPost2010PropOp29
 70
     0
102
RTVSPost2010Prop30
280
     1
102
RTVSPost2010PropOp30
 70
     0
102
RTVSPost2010Prop31
280
     0
102
RTVSPost2010PropOp31
 70
     0
102
RTVSPost2010Prop32
280
     0
102
RTVSPost2010PropOp32
 70
     0
102
RTVSPost2010Prop33
280
     0
102
RTVSPost2010PropOp33
 70
     0
102
RTVSPost2010Prop34
280
     0
102
RTVSPost2010PropOp34
 70
     0
102
RTVSPost2010Prop35
280
     0
102
RTVSPost2010PropOp35
 70
     0
102
RTVSPost2010Prop36
280
     0
102
RTVSPost2010PropOp36
 70
     0
102
RTVSPost2010Prop37
 90
       50
102
RTVSPost2010PropOp37
 70
     0
102
RTVSPost2010Prop38
140
0.0
102
RTVSPost2010PropOp38
 70
     0
102
RTVSPost2010Prop39
140
1.0
102
RTVSPost2010PropOp39
 70
     0
102
RTVSPost2010Prop40
 90
        0
102
RTVSPost2010PropOp40
 70
     0
102
RTVSPost2010Prop41ColorIndex
 90
       18
102
RTVSPost2010Prop41ColorRGB
 90
        0
102
RTVSPost2010PropOp41
 70
     0
102
RTVSPost2010Prop42
 90
       50
102
RTVSPost2010PropOp42
 70
     0
102
RTVSPost2010Prop43
 90
        3
102
RTVSPost2010PropOp43
 70
     0
102
RTVSPost2010Prop44ColorIndex
 90
        5
102
RTVSPost2010Prop44ColorRGB
 90
      255
102
RTVSPost2010PropOp44
 70
     0
102
RTVSPost2010Prop45
280
     0
102
RTVSPost2010PropOp45
 70
     0
102
RTVSPost2010Prop46
 90
       50
102
RTVSPost2010PropOp46
 70
     0
102
RTVSPost2010Prop47
 90
       50
102
RTVSPost2010PropOp47
 70
     0
102
RTVSPost2010Prop48
 90
       50
102
RTVSPost2010PropOp48
 70
     0
102
RTVSPost2010Prop49
280
     0
102
RTVSPost2010PropOp49
 70
     0
102
RTVSPost2010Prop50
 90
       50
102
RTVSPost2010PropOp50
 70
     0
102
RTVSPost2010Prop51ColorIndex
 90
      256
102
RTVSPost2010Prop51ColorRGB
 90
-16777216
102
RTVSPost2010PropOp51
 70
     0
102
RTVSPost2010Prop52
140
1.0
102
RTVSPost2010PropOp52
 70
     0
102
RTVSPost2010Prop53
 90
        2
102
RTVSPost2010PropOp53
 70
     0
102
RTVSPost2010Prop54
  1
strokes_ogs.tif
102
RTVSPost2010PropOp54
 70
     0
102
RTVSPost2010Prop55
280
     0
102
RTVSPost2010PropOp55
 70
     0
102
RTVSPost2010Prop56
140
1.0
102
RTVSPost2010PropOp56
 70
     0
102
RTVSPost2010Prop57
140
1.0
102
RTVSPost2010PropOp57
 70
     0
  0
XRECORD
  5
16B
102
{ACAD_REACTORS
330
16A
102
}
330
16A
100
AcDbXrecord
280
     1
102
RTVSPost2010Prop28
280
     0
102
RTVSPost2010PropOp28
 70
     1
102
RTVSPost2010Prop29
280
     1
102
RTVSPost2010PropOp29
 70
     1
102
RTVSPost2010Prop30
280
     1
102
RTVSPost2010PropOp30
 70
     1
102
RTVSPost2010Prop31
280
     0
102
RTVSPost2010PropOp31
 70
     1
102
RTVSPost2010Prop32
280
     0
102
RTVSPost2010PropOp32
 70
     1
102
RTVSPost2010Prop33
280
     0
102
RTVSPost2010PropOp33
 70
     1
102
RTVSPost2010Prop34
280
     0
102
RTVSPost2010PropOp34
 70
     1
102
RTVSPost2010Prop35
280
     0
102
RTVSPost2010PropOp35
 70
     1
102
RTVSPost2010Prop36
280
     0
102
RTVSPost2010PropOp36
 70
     1
102
RTVSPost2010Prop37
 90
       50
102
RTVSPost2010PropOp37
 70
     1
102
RTVSPost2010Prop38
140
0.0
102
RTVSPost2010PropOp38
 70
     1
102
RTVSPost2010Prop39
140
1.0
102
RTVSPost2010PropOp39
 70
     1
102
RTVSPost2010Prop40
 90
        0
102
RTVSPost2010PropOp40
 70
     1
102
RTVSPost2010Prop41ColorIndex
 90
       18
102
RTVSPost2010Prop41ColorRGB
 90
        0
102
RTVSPost2010PropOp41
 70
     1
102
RTVSPost2010Prop42
 90
       50
102
RTVSPost2010PropOp42
 70
     1
102
RTVSPost2010Prop43
 90
        3
102
RTVSPost2010PropOp43
 70
     1
102
RTVSPost2010Prop44ColorIndex
 90
        5
102
RTVSPost2010Prop44ColorRGB
 90
      255
102
RTVSPost2010PropOp44
 70
     1
102
RTVSPost2010Prop45
280
     0
102
RTVSPost2010PropOp45
 70
     1
102
RTVSPost2010Prop46
 90
       50
102
RTVSPost2010PropOp46
 70
     1
102
RTVSPost2010Prop47
 90
       50
102
RTVSPost2010PropOp47
 70
     1
102
RTVSPost2010Prop48
 90
       50
102
RTVSPost2010PropOp48
 70
     1
102
RTVSPost2010Prop49
280
     0
102
RTVSPost2010PropOp49
 70
     1
102
RTVSPost2010Prop50
 90
       50
102
RTVSPost2010PropOp50
 70
     1
102
RTVSPost2010Prop51ColorIndex
 90
      256
102
RTVSPost2010Prop51ColorRGB
 90
-16777216
102
RTVSPost2010PropOp51
 70
     0
102
RTVSPost2010Prop52
140
1.0
102
RTVSPost2010PropOp52
 70
     0
102
RTVSPost2010Prop53
 90
        2
102
RTVSPost2010PropOp53
 70
     1
102
RTVSPost2010Prop54
  1
strokes_ogs.tif
102
RTVSPost2010PropOp54
 70
     1
102
RTVSPost2010Prop55
280
     0
102
RTVSPost2010PropOp55
 70
     1
102
RTVSPost2010Prop56
140
1.0
102
RTVSPost2010PropOp56
 70
     1
102
RTVSPost2010Prop57
140
1.0
102
RTVSPost2010PropOp57
 70
     1
  0
XRECORD
  5
17D
102
{ACAD_REACTORS
330
17C
102
}
330
17C
100
AcDbXrecord
280
     1
102
RTVSPost2010Prop28
280
     0
102
RTVSPost2010PropOp28
 70
     0
102
RTVSPost2010Prop29
280
     1
102
RTVSPost2010PropOp29
 70
     0
102
RTVSPost2010Prop30
280
     1
102
RTVSPost2010PropOp30
 70
     0
102
RTVSPost2010Prop31
280
     0
102
RTVSPost2010PropOp31
 70
     0
102
RTVSPost2010Prop32
280
     0
102
RTVSPost2010PropOp32
 70
     0
102
RTVSPost2010Prop33
280
     0
102
RTVSPost2010PropOp33
 70
     0
102
RTVSPost2010Prop34
280
     0
102
RTVSPost2010PropOp34
 70
     0
102
RTVSPost2010Prop35
280
     0
102
RTVSPost2010PropOp35
 70
     0
102
RTVSPost2010Prop36
280
     0
102
RTVSPost2010PropOp36
 70
     0
102
RTVSPost2010Prop37
 90
       50
102
RTVSPost2010PropOp37
 70
     0
102
RTVSPost2010Prop38
140
0.0
102
RTVSPost2010PropOp38
 70
     0
102
RTVSPost2010Prop39
140
1.0
102
RTVSPost2010PropOp39
 70
     0
102
RTVSPost2010Prop40
 90
        0
102
RTVSPost2010PropOp40
 70
     0
102
RTVSPost2010Prop41ColorIndex
 90
       18
102
RTVSPost2010Prop41ColorRGB
 90
        0
102
RTVSPost2010PropOp41
 70
     0
102
RTVSPost2010Prop42
 90
       50
102
RTVSPost2010PropOp42
 70
     0
102
RTVSPost2010Prop43
 90
        3
102
RTVSPost2010PropOp43
 70
     0
102
RTVSPost2010Prop44ColorIndex
 90
        5
102
RTVSPost2010Prop44ColorRGB
 90
      255
102
RTVSPost2010PropOp44
 70
     0
102
RTVSPost2010Prop45
280
     0
102
RTVSPost2010PropOp45
 70
     0
102
RTVSPost2010Prop46
 90
       50
102
RTVSPost2010PropOp46
 70
     0
102
RTVSPost2010Prop47
 90
       50
102
RTVSPost2010PropOp47
 70
     0
102
RTVSPost2010Prop48
 90
       50
102
RTVSPost2010PropOp48
 70
     0
102
RTVSPost2010Prop49
280
     0
102
RTVSPost2010PropOp49
 70
     0
102
RTVSPost2010Prop50
 90
       50
102
RTVSPost2010PropOp50
 70
     0
102
RTVSPost2010Prop51ColorIndex
 90
      256
102
RTVSPost2010Prop51ColorRGB
 90
-16777216
102
RTVSPost2010PropOp51
 70
     0
102
RTVSPost2010Prop52
140
1.0
102
RTVSPost2010PropOp52
 70
     0
102
RTVSPost2010Prop53
 90
        2
102
RTVSPost2010PropOp53
 70
     0
102
RTVSPost2010Prop54
  1
strokes_ogs.tif
102
RTVSPost2010PropOp54
 70
     0
102
RTVSPost2010Prop55
280
     0
102
RTVSPost2010PropOp55
 70
     0
102
RTVSPost2010Prop56
140
1.0
102
RTVSPost2010PropOp56
 70
     0
102
RTVSPost2010Prop57
140
1.0
102
RTVSPost2010PropOp57
 70
     0
  0
XRECORD
  5
163
102
{ACAD_REACTORS
330
162
102
}
330
162
100
AcDbXrecord
280
     1
102
RTVSPost2010Prop28
280
     0
102
RTVSPost2010PropOp28
 70
     1
102
RTVSPost2010Prop29
280
     1
102
RTVSPost2010PropOp29
 70
     1
102
RTVSPost2010Prop30
280
     1
102
RTVSPost2010PropOp30
 70
     1
102
RTVSPost2010Prop31
280
     0
102
RTVSPost2010PropOp31
 70
     1
102
RTVSPost2010Prop32
280
     0
102
RTVSPost2010PropOp32
 70
     1
102
RTVSPost2010Prop33
280
     0
102
RTVSPost2010PropOp33
 70
     1
102
RTVSPost2010Prop34
280
     0
102
RTVSPost2010PropOp34
 70
     1
102
RTVSPost2010Prop35
280
     0
102
RTVSPost2010PropOp35
 70
     1
102
RTVSPost2010Prop36
280
     0
102
RTVSPost2010PropOp36
 70
     1
102
RTVSPost2010Prop37
 90
       50
102
RTVSPost2010PropOp37
 70
     1
102
RTVSPost2010Prop38
140
0.0
102
RTVSPost2010PropOp38
 70
     1
102
RTVSPost2010Prop39
140
1.0
102
RTVSPost2010PropOp39
 70
     1
102
RTVSPost2010Prop40
 90
        0
102
RTVSPost2010PropOp40
 70
     1
102
RTVSPost2010Prop41ColorIndex
 90
       18
102
RTVSPost2010Prop41ColorRGB
 90
        0
102
RTVSPost2010PropOp41
 70
     1
102
RTVSPost2010Prop42
 90
       50
102
RTVSPost2010PropOp42
 70
     1
102
RTVSPost2010Prop43
 90
        3
102
RTVSPost2010PropOp43
 70
     1
102
RTVSPost2010Prop44ColorIndex
 90
        5
102
RTVSPost2010Prop44ColorRGB
 90
      255
102
RTVSPost2010PropOp44
 70
     1
102
RTVSPost2010Prop45
280
     0
102
RTVSPost2010PropOp45
 70
     1
102
RTVSPost2010Prop46
 90
       50
102
RTVSPost2010PropOp46
 70
     1
102
RTVSPost2010Prop47
 90
       50
102
RTVSPost2010PropOp47
 70
     1
102
RTVSPost2010Prop48
 90
       50
102
RTVSPost2010PropOp48
 70
     1
102
RTVSPost2010Prop49
280
     0
102
RTVSPost2010PropOp49
 70
     1
102
RTVSPost2010Prop50
 90
       50
102
RTVSPost2010PropOp50
 70
     1
102
RTVSPost2010Prop51ColorIndex
 90
      256
102
RTVSPost2010Prop51ColorRGB
 90
-16777216
102
RTVSPost2010PropOp51
 70
     0
102
RTVSPost2010Prop52
140
1.0
102
RTVSPost2010PropOp52
 70
     0
102
RTVSPost2010Prop53
 90
        2
102
RTVSPost2010PropOp53
 70
     1
102
RTVSPost2010Prop54
  1
strokes_ogs.tif
102
RTVSPost2010PropOp54
 70
     1
102
RTVSPost2010Prop55
280
     0
102
RTVSPost2010PropOp55
 70
     1
102
RTVSPost2010Prop56
140
1.0
102
RTVSPost2010PropOp56
 70
     1
102
RTVSPost2010Prop57
140
1.0
102
RTVSPost2010PropOp57
 70
     1
  0
XRECORD
  5
179
102
{ACAD_REACTORS
330
178
102
}
330
178
100
AcDbXrecord
280
     1
102
RTVSPost2010Prop28
280
     0
102
RTVSPost2010PropOp28
 70
     1
102
RTVSPost2010Prop29
280
     1
102
RTVSPost2010PropOp29
 70
     1
102
RTVSPost2010Prop30
280
     1
102
RTVSPost2010PropOp30
 70
     1
102
RTVSPost2010Prop31
280
     0
102
RTVSPost2010PropOp31
 70
     1
102
RTVSPost2010Prop32
280
     0
102
RTVSPost2010PropOp32
 70
     1
102
RTVSPost2010Prop33
280
     0
102
RTVSPost2010PropOp33
 70
     1
102
RTVSPost2010Prop34
280
     0
102
RTVSPost2010PropOp34
 70
     1
102
RTVSPost2010Prop35
280
     0
102
RTVSPost2010PropOp35
 70
     1
102
RTVSPost2010Prop36
280
     0
102
RTVSPost2010PropOp36
 70
     1
102
RTVSPost2010Prop37
 90
       50
102
RTVSPost2010PropOp37
 70
     1
102
RTVSPost2010Prop38
140
0.0
102
RTVSPost2010PropOp38
 70
     1
102
RTVSPost2010Prop39
140
1.0
102
RTVSPost2010PropOp39
 70
     1
102
RTVSPost2010Prop40
 90
        0
102
RTVSPost2010PropOp40
 70
     1
102
RTVSPost2010Prop41ColorIndex
 90
       18
102
RTVSPost2010Prop41ColorRGB
 90
        0
102
RTVSPost2010PropOp41
 70
     1
102
RTVSPost2010Prop42
 90
       50
102
RTVSPost2010PropOp42
 70
     1
102
RTVSPost2010Prop43
 90
        3
102
RTVSPost2010PropOp43
 70
     1
102
RTVSPost2010Prop44ColorIndex
 90
        5
102
RTVSPost2010Prop44ColorRGB
 90
      255
102
RTVSPost2010PropOp44
 70
     1
102
RTVSPost2010Prop45
280
     0
102
RTVSPost2010PropOp45
 70
     1
102
RTVSPost2010Prop46
 90
       50
102
RTVSPost2010PropOp46
 70
     1
102
RTVSPost2010Prop47
 90
       50
102
RTVSPost2010PropOp47
 70
     1
102
RTVSPost2010Prop48
 90
       50
102
RTVSPost2010PropOp48
 70
     1
102
RTVSPost2010Prop49
280
     0
102
RTVSPost2010PropOp49
 70
     1
102
RTVSPost2010Prop50
 90
       50
102
RTVSPost2010PropOp50
 70
     1
102
RTVSPost2010Prop51ColorIndex
 90
      256
102
RTVSPost2010Prop51ColorRGB
 90
-16777216
102
RTVSPost2010PropOp51
 70
     0
102
RTVSPost2010Prop52
140
1.0
102
RTVSPost2010PropOp52
 70
     0
102
RTVSPost2010Prop53
 90
        2
102
RTVSPost2010PropOp53
 70
     1
102
RTVSPost2010Prop54
  1
strokes_ogs.tif
102
RTVSPost2010PropOp54
 70
     1
102
RTVSPost2010Prop55
280
     0
102
RTVSPost2010PropOp55
 70
     1
102
RTVSPost2010Prop56
140
1.0
102
RTVSPost2010PropOp56
 70
     1
102
RTVSPost2010Prop57
140
1.0
102
RTVSPost2010PropOp57
 70
     1
  0
XRECORD
  5
177
102
{ACAD_REACTORS
330
176
102
}
330
176
100
AcDbXrecord
280
     1
102
RTVSPost2010Prop28
280
     0
102
RTVSPost2010PropOp28
 70
     1
102
RTVSPost2010Prop29
280
     1
102
RTVSPost2010PropOp29
 70
     1
102
RTVSPost2010Prop30
280
     1
102
RTVSPost2010PropOp30
 70
     1
102
RTVSPost2010Prop31
280
     0
102
RTVSPost2010PropOp31
 70
     1
102
RTVSPost2010Prop32
280
     0
102
RTVSPost2010PropOp32
 70
     1
102
RTVSPost2010Prop33
280
     0
102
RTVSPost2010PropOp33
 70
     1
102
RTVSPost2010Prop34
280
     0
102
RTVSPost2010PropOp34
 70
     1
102
RTVSPost2010Prop35
280
     0
102
RTVSPost2010PropOp35
 70
     1
102
RTVSPost2010Prop36
280
     0
102
RTVSPost2010PropOp36
 70
     1
102
RTVSPost2010Prop37
 90
       50
102
RTVSPost2010PropOp37
 70
     1
102
RTVSPost2010Prop38
140
0.0
102
RTVSPost2010PropOp38
 70
     1
102
RTVSPost2010Prop39
140
1.0
102
RTVSPost2010PropOp39
 70
     1
102
RTVSPost2010Prop40
 90
        0
102
RTVSPost2010PropOp40
 70
     1
102
RTVSPost2010Prop41ColorIndex
 90
       18
102
RTVSPost2010Prop41ColorRGB
 90
        0
102
RTVSPost2010PropOp41
 70
     1
102
RTVSPost2010Prop42
 90
       50
102
RTVSPost2010PropOp42
 70
     1
102
RTVSPost2010Prop43
 90
        3
102
RTVSPost2010PropOp43
 70
     1
102
RTVSPost2010Prop44ColorIndex
 90
        5
102
RTVSPost2010Prop44ColorRGB
 90
      255
102
RTVSPost2010PropOp44
 70
     1
102
RTVSPost2010Prop45
280
     0
102
RTVSPost2010PropOp45
 70
     1
102
RTVSPost2010Prop46
 90
       50
102
RTVSPost2010PropOp46
 70
     1
102
RTVSPost2010Prop47
 90
       50
102
RTVSPost2010PropOp47
 70
     1
102
RTVSPost2010Prop48
 90
       50
102
RTVSPost2010PropOp48
 70
     1
102
RTVSPost2010Prop49
280
     0
102
RTVSPost2010PropOp49
 70
     1
102
RTVSPost2010Prop50
 90
       50
102
RTVSPost2010PropOp50
 70
     1
102
RTVSPost2010Prop51ColorIndex
 90
      256
102
RTVSPost2010Prop51ColorRGB
 90
-16777216
102
RTVSPost2010PropOp51
 70
     0
102
RTVSPost2010Prop52
140
1.0
102
RTVSPost2010PropOp52
 70
     0
102
RTVSPost2010Prop53
 90
        2
102
RTVSPost2010PropOp53
 70
     1
102
RTVSPost2010Prop54
  1
strokes_ogs.tif
102
RTVSPost2010PropOp54
 70
     1
102
RTVSPost2010Prop55
280
     0
102
RTVSPost2010PropOp55
 70
     1
102
RTVSPost2010Prop56
140
1.0
102
RTVSPost2010PropOp56
 70
     1
102
RTVSPost2010Prop57
140
1.0
102
RTVSPost2010PropOp57
 70
     1
  0
XRECORD
  5
171
102
{ACAD_REACTORS
330
170
102
}
330
170
100
AcDbXrecord
280
     1
102
RTVSPost2010Prop28
280
     0
102
RTVSPost2010PropOp28
 70
     1
102
RTVSPost2010Prop29
280
     1
102
RTVSPost2010PropOp29
 70
     1
102
RTVSPost2010Prop30
280
     1
102
RTVSPost2010PropOp30
 70
     1
102
RTVSPost2010Prop31
280
     0
102
RTVSPost2010PropOp31
 70
     1
102
RTVSPost2010Prop32
280
     0
102
RTVSPost2010PropOp32
 70
     1
102
RTVSPost2010Prop33
280
     0
102
RTVSPost2010PropOp33
 70
     1
102
RTVSPost2010Prop34
280
     0
102
RTVSPost2010PropOp34
 70
     1
102
RTVSPost2010Prop35
280
     0
102
RTVSPost2010PropOp35
 70
     1
102
RTVSPost2010Prop36
280
     0
102
RTVSPost2010PropOp36
 70
     1
102
RTVSPost2010Prop37
 90
       50
102
RTVSPost2010PropOp37
 70
     1
102
RTVSPost2010Prop38
140
0.0
102
RTVSPost2010PropOp38
 70
     1
102
RTVSPost2010Prop39
140
1.0
102
RTVSPost2010PropOp39
 70
     1
102
RTVSPost2010Prop40
 90
        0
102
RTVSPost2010PropOp40
 70
     1
102
RTVSPost2010Prop41ColorIndex
 90
       18
102
RTVSPost2010Prop41ColorRGB
 90
        0
102
RTVSPost2010PropOp41
 70
     1
102
RTVSPost2010Prop42
 90
       50
102
RTVSPost2010PropOp42
 70
     1
102
RTVSPost2010Prop43
 90
        3
102
RTVSPost2010PropOp43
 70
     1
102
RTVSPost2010Prop44ColorIndex
 90
        5
102
RTVSPost2010Prop44ColorRGB
 90
      255
102
RTVSPost2010PropOp44
 70
     1
102
RTVSPost2010Prop45
280
     0
102
RTVSPost2010PropOp45
 70
     1
102
RTVSPost2010Prop46
 90
       50
102
RTVSPost2010PropOp46
 70
     1
102
RTVSPost2010Prop47
 90
       50
102
RTVSPost2010PropOp47
 70
     1
102
RTVSPost2010Prop48
 90
       50
102
RTVSPost2010PropOp48
 70
     1
102
RTVSPost2010Prop49
280
     0
102
RTVSPost2010PropOp49
 70
     1
102
RTVSPost2010Prop50
 90
       50
102
RTVSPost2010PropOp50
 70
     1
102
RTVSPost2010Prop51ColorIndex
 90
      256
102
RTVSPost2010Prop51ColorRGB
 90
-16777216
102
RTVSPost2010PropOp51
 70
     0
102
RTVSPost2010Prop52
140
1.0
102
RTVSPost2010PropOp52
 70
     0
102
RTVSPost2010Prop53
 90
        2
102
RTVSPost2010PropOp53
 70
     1
102
RTVSPost2010Prop54
  1
strokes_ogs.tif
102
RTVSPost2010PropOp54
 70
     1
102
RTVSPost2010Prop55
280
     0
102
RTVSPost2010PropOp55
 70
     1
102
RTVSPost2010Prop56
140
1.0
102
RTVSPost2010PropOp56
 70
     1
102
RTVSPost2010Prop57
140
1.0
102
RTVSPost2010PropOp57
 70
     1
  0
XRECORD
  5
173
102
{ACAD_REACTORS
330
172
102
}
330
172
100
AcDbXrecord
280
     1
102
RTVSPost2010Prop28
280
     0
102
RTVSPost2010PropOp28
 70
     1
102
RTVSPost2010Prop29
280
     1
102
RTVSPost2010PropOp29
 70
     1
102
RTVSPost2010Prop30
280
     1
102
RTVSPost2010PropOp30
 70
     1
102
RTVSPost2010Prop31
280
     0
102
RTVSPost2010PropOp31
 70
     1
102
RTVSPost2010Prop32
280
     0
102
RTVSPost2010PropOp32
 70
     1
102
RTVSPost2010Prop33
280
     0
102
RTVSPost2010PropOp33
 70
     1
102
RTVSPost2010Prop34
280
     0
102
RTVSPost2010PropOp34
 70
     1
102
RTVSPost2010Prop35
280
     0
102
RTVSPost2010PropOp35
 70
     1
102
RTVSPost2010Prop36
280
     0
102
RTVSPost2010PropOp36
 70
     1
102
RTVSPost2010Prop37
 90
       50
102
RTVSPost2010PropOp37
 70
     1
102
RTVSPost2010Prop38
140
0.0
102
RTVSPost2010PropOp38
 70
     1
102
RTVSPost2010Prop39
140
1.0
102
RTVSPost2010PropOp39
 70
     1
102
RTVSPost2010Prop40
 90
        0
102
RTVSPost2010PropOp40
 70
     1
102
RTVSPost2010Prop41ColorIndex
 90
       18
102
RTVSPost2010Prop41ColorRGB
 90
        0
102
RTVSPost2010PropOp41
 70
     1
102
RTVSPost2010Prop42
 90
       50
102
RTVSPost2010PropOp42
 70
     1
102
RTVSPost2010Prop43
 90
        3
102
RTVSPost2010PropOp43
 70
     1
102
RTVSPost2010Prop44ColorIndex
 90
        5
102
RTVSPost2010Prop44ColorRGB
 90
      255
102
RTVSPost2010PropOp44
 70
     1
102
RTVSPost2010Prop45
280
     0
102
RTVSPost2010PropOp45
 70
     1
102
RTVSPost2010Prop46
 90
       50
102
RTVSPost2010PropOp46
 70
     1
102
RTVSPost2010Prop47
 90
       50
102
RTVSPost2010PropOp47
 70
     1
102
RTVSPost2010Prop48
 90
       50
102
RTVSPost2010PropOp48
 70
     1
102
RTVSPost2010Prop49
280
     0
102
RTVSPost2010PropOp49
 70
     1
102
RTVSPost2010Prop50
 90
       50
102
RTVSPost2010PropOp50
 70
     1
102
RTVSPost2010Prop51ColorIndex
 90
      256
102
RTVSPost2010Prop51ColorRGB
 90
-16777216
102
RTVSPost2010PropOp51
 70
     0
102
RTVSPost2010Prop52
140
1.0
102
RTVSPost2010PropOp52
 70
     0
102
RTVSPost2010Prop53
 90
        2
102
RTVSPost2010PropOp53
 70
     1
102
RTVSPost2010Prop54
  1
strokes_ogs.tif
102
RTVSPost2010PropOp54
 70
     1
102
RTVSPost2010Prop55
280
     0
102
RTVSPost2010PropOp55
 70
     1
102
RTVSPost2010Prop56
140
1.0
102
RTVSPost2010PropOp56
 70
     1
102
RTVSPost2010Prop57
140
1.0
102
RTVSPost2010PropOp57
 70
     1
  0
XRECORD
  5
169
102
{ACAD_REACTORS
330
168
102
}
330
168
100
AcDbXrecord
280
     1
102
RTVSPost2010Prop28
280
     0
102
RTVSPost2010PropOp28
 70
     1
102
RTVSPost2010Prop29
280
     1
102
RTVSPost2010PropOp29
 70
     1
102
RTVSPost2010Prop30
280
     1
102
RTVSPost2010PropOp30
 70
     1
102
RTVSPost2010Prop31
280
     0
102
RTVSPost2010PropOp31
 70
     1
102
RTVSPost2010Prop32
280
     0
102
RTVSPost2010PropOp32
 70
     1
102
RTVSPost2010Prop33
280
     0
102
RTVSPost2010PropOp33
 70
     1
102
RTVSPost2010Prop34
280
     0
102
RTVSPost2010PropOp34
 70
     1
102
RTVSPost2010Prop35
280
     0
102
RTVSPost2010PropOp35
 70
     1
102
RTVSPost2010Prop36
280
     0
102
RTVSPost2010PropOp36
 70
     1
102
RTVSPost2010Prop37
 90
       50
102
RTVSPost2010PropOp37
 70
     1
102
RTVSPost2010Prop38
140
0.0
102
RTVSPost2010PropOp38
 70
     1
102
RTVSPost2010Prop39
140
1.0
102
RTVSPost2010PropOp39
 70
     1
102
RTVSPost2010Prop40
 90
        0
102
RTVSPost2010PropOp40
 70
     1
102
RTVSPost2010Prop41ColorIndex
 90
       18
102
RTVSPost2010Prop41ColorRGB
 90
        0
102
RTVSPost2010PropOp41
 70
     1
102
RTVSPost2010Prop42
 90
       50
102
RTVSPost2010PropOp42
 70
     1
102
RTVSPost2010Prop43
 90
        3
102
RTVSPost2010PropOp43
 70
     1
102
RTVSPost2010Prop44ColorIndex
 90
        5
102
RTVSPost2010Prop44ColorRGB
 90
      255
102
RTVSPost2010PropOp44
 70
     1
102
RTVSPost2010Prop45
280
     0
102
RTVSPost2010PropOp45
 70
     1
102
RTVSPost2010Prop46
 90
       50
102
RTVSPost2010PropOp46
 70
     1
102
RTVSPost2010Prop47
 90
       50
102
RTVSPost2010PropOp47
 70
     1
102
RTVSPost2010Prop48
 90
       50
102
RTVSPost2010PropOp48
 70
     1
102
RTVSPost2010Prop49
280
     0
102
RTVSPost2010PropOp49
 70
     1
102
RTVSPost2010Prop50
 90
       50
102
RTVSPost2010PropOp50
 70
     1
102
RTVSPost2010Prop51ColorIndex
 90
      256
102
RTVSPost2010Prop51ColorRGB
 90
-16777216
102
RTVSPost2010PropOp51
 70
     0
102
RTVSPost2010Prop52
140
1.0
102
RTVSPost2010PropOp52
 70
     0
102
RTVSPost2010Prop53
 90
        2
102
RTVSPost2010PropOp53
 70
     1
102
RTVSPost2010Prop54
  1
strokes_ogs.tif
102
RTVSPost2010PropOp54
 70
     1
102
RTVSPost2010Prop55
280
     0
102
RTVSPost2010PropOp55
 70
     1
102
RTVSPost2010Prop56
140
1.0
102
RTVSPost2010PropOp56
 70
     1
102
RTVSPost2010Prop57
140
1.0
102
RTVSPost2010PropOp57
 70
     1
  0
XRECORD
  5
15D
102
{ACAD_REACTORS
330
15C
102
}
330
15C
100
AcDbXrecord
280
     1
102
RTVSPost2010Prop28
280
     0
102
RTVSPost2010PropOp28
 70
     1
102
RTVSPost2010Prop29
280
     1
102
RTVSPost2010PropOp29
 70
     1
102
RTVSPost2010Prop30
280
     1
102
RTVSPost2010PropOp30
 70
     1
102
RTVSPost2010Prop31
280
     0
102
RTVSPost2010PropOp31
 70
     1
102
RTVSPost2010Prop32
280
     0
102
RTVSPost2010PropOp32
 70
     1
102
RTVSPost2010Prop33
280
     0
102
RTVSPost2010PropOp33
 70
     1
102
RTVSPost2010Prop34
280
     0
102
RTVSPost2010PropOp34
 70
     1
102
RTVSPost2010Prop35
280
     0
102
RTVSPost2010PropOp35
 70
     1
102
RTVSPost2010Prop36
280
     0
102
RTVSPost2010PropOp36
 70
     1
102
RTVSPost2010Prop37
 90
       50
102
RTVSPost2010PropOp37
 70
     1
102
RTVSPost2010Prop38
140
0.0
102
RTVSPost2010PropOp38
 70
     1
102
RTVSPost2010Prop39
140
1.0
102
RTVSPost2010PropOp39
 70
     1
102
RTVSPost2010Prop40
 90
        0
102
RTVSPost2010PropOp40
 70
     1
102
RTVSPost2010Prop41ColorIndex
 90
       18
102
RTVSPost2010Prop41ColorRGB
 90
        0
102
RTVSPost2010PropOp41
 70
     1
102
RTVSPost2010Prop42
 90
       50
102
RTVSPost2010PropOp42
 70
     1
102
RTVSPost2010Prop43
 90
        3
102
RTVSPost2010PropOp43
 70
     1
102
RTVSPost2010Prop44ColorIndex
 90
        5
102
RTVSPost2010Prop44ColorRGB
 90
      255
102
RTVSPost2010PropOp44
 70
     1
102
RTVSPost2010Prop45
280
     0
102
RTVSPost2010PropOp45
 70
     1
102
RTVSPost2010Prop46
 90
       50
102
RTVSPost2010PropOp46
 70
     1
102
RTVSPost2010Prop47
 90
       50
102
RTVSPost2010PropOp47
 70
     1
102
RTVSPost2010Prop48
 90
       50
102
RTVSPost2010PropOp48
 70
     1
102
RTVSPost2010Prop49
280
     0
102
RTVSPost2010PropOp49
 70
     1
102
RTVSPost2010Prop50
 90
       50
102
RTVSPost2010PropOp50
 70
     1
102
RTVSPost2010Prop51ColorIndex
 90
      256
102
RTVSPost2010Prop51ColorRGB
 90
-16777216
102
RTVSPost2010PropOp51
 70
     0
102
RTVSPost2010Prop52
140
1.0
102
RTVSPost2010PropOp52
 70
     0
102
RTVSPost2010Prop53
 90
        2
102
RTVSPost2010PropOp53
 70
     1
102
RTVSPost2010Prop54
  1
strokes_ogs.tif
102
RTVSPost2010PropOp54
 70
     1
102
RTVSPost2010Prop55
280
     0
102
RTVSPost2010PropOp55
 70
     1
102
RTVSPost2010Prop56
140
1.0
102
RTVSPost2010PropOp56
 70
     1
102
RTVSPost2010Prop57
140
1.0
102
RTVSPost2010PropOp57
 70
     1
  0
XRECORD
  5
175
102
{ACAD_REACTORS
330
174
102
}
330
174
100
AcDbXrecord
280
     1
102
RTVSPost2010Prop28
280
     0
102
RTVSPost2010PropOp28
 70
     1
102
RTVSPost2010Prop29
280
     1
102
RTVSPost2010PropOp29
 70
     1
102
RTVSPost2010Prop30
280
     1
102
RTVSPost2010PropOp30
 70
     1
102
RTVSPost2010Prop31
280
     0
102
RTVSPost2010PropOp31
 70
     1
102
RTVSPost2010Prop32
280
     0
102
RTVSPost2010PropOp32
 70
     1
102
RTVSPost2010Prop33
280
     0
102
RTVSPost2010PropOp33
 70
     1
102
RTVSPost2010Prop34
280
     0
102
RTVSPost2010PropOp34
 70
     1
102
RTVSPost2010Prop35
280
     0
102
RTVSPost2010PropOp35
 70
     1
102
RTVSPost2010Prop36
280
     0
102
RTVSPost2010PropOp36
 70
     1
102
RTVSPost2010Prop37
 90
       50
102
RTVSPost2010PropOp37
 70
     1
102
RTVSPost2010Prop38
140
0.0
102
RTVSPost2010PropOp38
 70
     1
102
RTVSPost2010Prop39
140
1.0
102
RTVSPost2010PropOp39
 70
     1
102
RTVSPost2010Prop40
 90
        0
102
RTVSPost2010PropOp40
 70
     1
102
RTVSPost2010Prop41ColorIndex
 90
       18
102
RTVSPost2010Prop41ColorRGB
 90
        0
102
RTVSPost2010PropOp41
 70
     1
102
RTVSPost2010Prop42
 90
       50
102
RTVSPost2010PropOp42
 70
     1
102
RTVSPost2010Prop43
 90
        3
102
RTVSPost2010PropOp43
 70
     1
102
RTVSPost2010Prop44ColorIndex
 90
        5
102
RTVSPost2010Prop44ColorRGB
 90
      255
102
RTVSPost2010PropOp44
 70
     1
102
RTVSPost2010Prop45
280
     0
102
RTVSPost2010PropOp45
 70
     1
102
RTVSPost2010Prop46
 90
       50
102
RTVSPost2010PropOp46
 70
     1
102
RTVSPost2010Prop47
 90
       50
102
RTVSPost2010PropOp47
 70
     1
102
RTVSPost2010Prop48
 90
       50
102
RTVSPost2010PropOp48
 70
     1
102
RTVSPost2010Prop49
280
     0
102
RTVSPost2010PropOp49
 70
     1
102
RTVSPost2010Prop50
 90
       50
102
RTVSPost2010PropOp50
 70
     1
102
RTVSPost2010Prop51ColorIndex
 90
      256
102
RTVSPost2010Prop51ColorRGB
 90
-16777216
102
RTVSPost2010PropOp51
 70
     0
102
RTVSPost2010Prop52
140
1.0
102
RTVSPost2010PropOp52
 70
     0
102
RTVSPost2010Prop53
 90
        2
102
RTVSPost2010PropOp53
 70
     1
102
RTVSPost2010Prop54
  1
strokes_ogs.tif
102
RTVSPost2010PropOp54
 70
     1
102
RTVSPost2010Prop55
280
     0
102
RTVSPost2010PropOp55
 70
     1
102
RTVSPost2010Prop56
140
1.0
102
RTVSPost2010PropOp56
 70
     1
102
RTVSPost2010Prop57
140
1.0
102
RTVSPost2010PropOp57
 70
     1
  0
ENDSEC
  0
EOF
