  0
SECTION
  2
HEADER
  9
$ACADVER
  1
AC1024
  9
$ACADMAINTVER
 70
   226
  9
$DWGCODEPAGE
  3
ANSI_932
  9
$INSBASE
 10
0.0
 20
0.0
 30
0.0
  9
$EXTMIN
 10
1.000000000000000E+20
 20
1.000000000000000E+20
 30
1.000000000000000E+20
  9
$EXTMAX
 10
-1.000000000000000E+20
 20
-1.000000000000000E+20
 30
-1.000000000000000E+20
  9
$LIMMIN
 10
0.0
 20
0.0
  9
$LIMMAX
 10
12.0
 20
9.0
  9
$ORTHOMODE
 70
     0
  9
$REGENMODE
 70
     1
  9
$FILLMODE
 70
     1
  9
$QTEXTMODE
 70
     0
  9
$MIRRTEXT
 70
     0
  9
$LTSCALE
 40
1.0
  9
$ATTMODE
 70
     1
  9
$TEXTSIZE
 40
0.2
  9
$TRACEWID
 40
0.05
  9
$TEXTSTYLE
  7
Standard
  9
$CLAYER
  8
0
  9
$CELTYPE
  6
ByLayer
  9
$CECOLOR
 62
   256
  9
$CELTSCALE
 40
1.0
  9
$DISPSILH
 70
     0
  9
$DIMSCALE
 40
1.0
  9
$DIMASZ
 40
0.18
  9
$DIMEXO
 40
0.0625
  9
$DIMDLI
 40
0.38
  9
$DIMRND
 40
0.0
  9
$DIMDLE
 40
0.0
  9
$DIMEXE
 40
0.18
  9
$DIMTP
 40
0.0
  9
$DIMTM
 40
0.0
  9
$DIMTXT
 40
0.18
  9
$DIMCEN
 40
0.09
  9
$DIMTSZ
 40
0.0
  9
$DIMTOL
 70
     0
  9
$DIMLIM
 70
     0
  9
$DIMTIH
 70
     1
  9
$DIMTOH
 70
     1
  9
$DIMSE1
 70
     0
  9
$DIMSE2
 70
     0
  9
$DIMTAD
 70
     0
  9
$DIMZIN
 70
     0
  9
$DIMBLK
  1

  9
$DIMASO
 70
     1
  9
$DIMSHO
 70
     1
  9
$DIMPOST
  1

  9
$DIMAPOST
  1

  9
$DIMALT
 70
     0
  9
$DIMALTD
 70
     2
  9
$DIMALTF
 40
25.4
  9
$DIMLFAC
 40
1.0
  9
$DIMTOFL
 70
     0
  9
$DIMTVP
 40
0.0
  9
$DIMTIX
 70
     0
  9
$DIMSOXD
 70
     0
  9
$DIMSAH
 70
     0
  9
$DIMBLK1
  1

  9
$DIMBLK2
  1

  9
$DIMSTYLE
  2
Standard
  9
$DIMCLRD
 70
     0
  9
$DIMCLRE
 70
     0
  9
$DIMCLRT
 70
     0
  9
$DIMTFAC
 40
1.0
  9
$DIMGAP
 40
0.09
  9
$DIMJUST
 70
     0
  9
$DIMSD1
 70
     0
  9
$DIMSD2
 70
     0
  9
$DIMTOLJ
 70
     1
  9
$DIMTZIN
 70
     0
  9
$DIMALTZ
 70
     0
  9
$DIMALTTZ
 70
     0
  9
$DIMUPT
 70
     0
  9
$DIMDEC
 70
     4
  9
$DIMTDEC
 70
     4
  9
$DIMALTU
 70
     2
  9
$DIMALTTD
 70
     2
  9
$DIMTXSTY
  7
Standard
  9
$DIMAUNIT
 70
     0
  9
$DIMADEC
 70
     0
  9
$DIMALTRND
 40
0.0
  9
$DIMAZIN
 70
     0
  9
$DIMDSEP
 70
    46
  9
$DIMATFIT
 70
     3
  9
$DIMFRAC
 70
     0
  9
$DIMLDRBLK
  1

  9
$DIMLUNIT
 70
     2
  9
$DIMLWD
 70
    -2
  9
$DIMLWE
 70
    -2
  9
$DIMTMOVE
 70
     0
  9
$DIMFXL
 40
1.0
  9
$DIMFXLON
 70
     0
  9
$DIMJOGANG
 40
0.7853981633974483
  9
$DIMTFILL
 70
     0
  9
$DIMTFILLCLR
 70
     0
  9
$DIMARCSYM
 70
     0
  9
$DIMLTYPE
  6

  9
$DIMLTEX1
  6

  9
$DIMLTEX2
  6

  9
$DIMTXTDIRECTION
 70
     0
  9
$LUNITS
 70
     2
  9
$LUPREC
 70
     4
  9
$SKETCHINC
 40
0.1
  9
$FILLETRAD
 40
0.0
  9
$AUNITS
 70
     0
  9
$AUPREC
 70
     0
  9
$MENU
  1
.
  9
$ELEVATION
 40
0.0
  9
$PELEVATION
 40
0.0
  9
$THICKNESS
 40
0.0
  9
$LIMCHECK
 70
     0
  9
$CHAMFERA
 40
0.0
  9
$CHAMFERB
 40
0.0
  9
$CHAMFERC
 40
0.0
  9
$CHAMFERD
 40
0.0
  9
$SKPOLY
 70
     0
  9
$TDCREATE
 40
2459569.489212963
  9
$TDUCREATE
 40
2459569.114212963
  9
$TDUPDATE
 40
2459569.489212963
  9
$TDUUPDATE
 40
2459569.114212963
  9
$TDINDWG
 40
0.0000000000
  9
$TDUSRTIMER
 40
0.0000000000
  9
$USRTIMER
 70
     1
  9
$ANGBASE
 50
0.0
  9
$ANGDIR
 70
     0
  9
$PDMODE
 70
     0
  9
$PDSIZE
 40
0.0
  9
$PLINEWID
 40
0.0
  9
$SPLFRAME
 70
     0
  9
$SPLINETYPE
 70
     6
  9
$SPLINESEGS
 70
     8
  9
$HANDSEED
  5
15E
  9
$SURFTAB1
 70
     6
  9
$SURFTAB2
 70
     6
  9
$SURFTYPE
 70
     6
  9
$SURFU
 70
     6
  9
$SURFV
 70
     6
  9
$UCSBASE
  2

  9
$UCSNAME
  2

  9
$UCSORG
 10
0.0
 20
0.0
 30
0.0
  9
$UCSXDIR
 10
1.0
 20
0.0
 30
0.0
  9
$UCSYDIR
 10
0.0
 20
1.0
 30
0.0
  9
$UCSORTHOREF
  2

  9
$UCSORTHOVIEW
 70
     0
  9
$UCSORGTOP
 10
0.0
 20
0.0
 30
0.0
  9
$UCSORGBOTTOM
 10
0.0
 20
0.0
 30
0.0
  9
$UCSORGLEFT
 10
0.0
 20
0.0
 30
0.0
  9
$UCSORGRIGHT
 10
0.0
 20
0.0
 30
0.0
  9
$UCSORGFRONT
 10
0.0
 20
0.0
 30
0.0
  9
$UCSORGBACK
 10
0.0
 20
0.0
 30
0.0
  9
$PUCSBASE
  2

  9
$PUCSNAME
  2

  9
$PUCSORG
 10
0.0
 20
0.0
 30
0.0
  9
$PUCSXDIR
 10
1.0
 20
0.0
 30
0.0
  9
$PUCSYDIR
 10
0.0
 20
1.0
 30
0.0
  9
$PUCSORTHOREF
  2

  9
$PUCSORTHOVIEW
 70
     0
  9
$PUCSORGTOP
 10
0.0
 20
0.0
 30
0.0
  9
$PUCSORGBOTTOM
 10
0.0
 20
0.0
 30
0.0
  9
$PUCSORGLEFT
 10
0.0
 20
0.0
 30
0.0
  9
$PUCSORGRIGHT
 10
0.0
 20
0.0
 30
0.0
  9
$PUCSORGFRONT
 10
0.0
 20
0.0
 30
0.0
  9
$PUCSORGBACK
 10
0.0
 20
0.0
 30
0.0
  9
$USERI1
 70
     0
  9
$USERI2
 70
     0
  9
$USERI3
 70
     0
  9
$USERI4
 70
     0
  9
$USERI5
 70
     0
  9
$USERR1
 40
0.0
  9
$USERR2
 40
0.0
  9
$USERR3
 40
0.0
  9
$USERR4
 40
0.0
  9
$USERR5
 40
0.0
  9
$WORLDVIEW
 70
     1
  9
$SHADEDGE
 70
     3
  9
$SHADEDIF
 70
    70
  9
$TILEMODE
 70
     1
  9
$MAXACTVP
 70
    64
  9
$PINSBASE
 10
0.0
 20
0.0
 30
0.0
  9
$PLIMCHECK
 70
     0
  9
$PEXTMIN
 10
1.000000000000000E+20
 20
1.000000000000000E+20
 30
1.000000000000000E+20
  9
$PEXTMAX
 10
-1.000000000000000E+20
 20
-1.000000000000000E+20
 30
-1.000000000000000E+20
  9
$PLIMMIN
 10
0.0
 20
0.0
  9
$PLIMMAX
 10
12.0
 20
9.0
  9
$UNITMODE
 70
     0
  9
$VISRETAIN
 70
     1
  9
$PLINEGEN
 70
     0
  9
$PSLTSCALE
 70
     1
  9
$TREEDEPTH
 70
  3020
  9
$CMLSTYLE
  2
Standard
  9
$CMLJUST
 70
     0
  9
$CMLSCALE
 40
1.0
  9
$PROXYGRAPHICS
 70
     1
  9
$MEASUREMENT
 70
     0
  9
$CELWEIGHT
370
    -1
  9
$ENDCAPS
280
     0
  9
$JOINSTYLE
280
     0
  9
$LWDISPLAY
290
     1
  9
$INSUNITS
 70
     4
  9
$HYPERLINKBASE
  1

  9
$STYLESHEET
  1

  9
$XEDIT
290
     1
  9
$CEPSNTYPE
380
     0
  9
$PSTYLEMODE
290
     1
  9
$FINGERPRINTGUID
  2
{2DDD7368-97D0-7E47-BD79-4DF4A915D194}
  9
$VERSIONGUID
  2
{1D92E6C9-7B8C-464D-AA73-99CA54DE09A7}
  9
$EXTNAMES
290
     1
  9
$PSVPSCALE
 40
0.0
  9
$OLESTARTUP
290
     0
  9
$SORTENTS
280
   127
  9
$INDEXCTL
280
     0
  9
$HIDETEXT
280
     1
  9
$XCLIPFRAME
280
     2
  9
$HALOGAP
280
     0
  9
$OBSCOLOR
 70
   257
  9
$OBSLTYPE
280
     0
  9
$INTERSECTIONDISPLAY
280
     0
  9
$INTERSECTIONCOLOR
 70
   257
  9
$DIMASSOC
280
     2
  9
$PROJECTNAME
  1

  9
$CAMERADISPLAY
290
     0
  9
$LENSLENGTH
 40
50.0
  9
$CAMERAHEIGHT
 40
0.0
  9
$STEPSPERSEC
 40
2.0
  9
$STEPSIZE
 40
6.0
  9
$3DDWFPREC
 40
2.0
  9
$PSOLWIDTH
 40
0.25
  9
$PSOLHEIGHT
 40
4.0
  9
$LOFTANG1
 40
1.570796326794896
  9
$LOFTANG2
 40
1.570796326794896
  9
$LOFTMAG1
 40
0.0
  9
$LOFTMAG2
 40
0.0
  9
$LOFTPARAM
 70
     7
  9
$LOFTNORMALS
280
     1
  9
$LATITUDE
 40
37.795
  9
$LONGITUDE
 40
-122.394
  9
$NORTHDIRECTION
 40
0.0
  9
$TIMEZONE
 70
 -8000
  9
$LIGHTGLYPHDISPLAY
280
     1
  9
$TILEMODELIGHTSYNCH
280
     1
  9
$CMATERIAL
347
11
  9
$SOLIDHIST
280
     0
  9
$SHOWHIST
280
     1
  9
$DWFFRAME
280
     2
  9
$DGNFRAME
280
     0
  9
$REALWORLDSCALE
290
     1
  9
$INTERFERECOLOR
 62
     1
  9
$INTERFEREOBJVS
345
33
  9
$INTERFEREVPVS
346
30
  9
$CSHADOW
280
     0
  9
$SHADOWPLANELOCATION
 40
0.0
  0
ENDSEC
  0
SECTION
  2
CLASSES
  0
CLASS
  1
ACDBDICTIONARYWDFLT
  2
AcDbDictionaryWithDefault
  3
ObjectDBX Classes
 90
        0
 91
        1
280
     0
281
     0
  0
CLASS
  1
MATERIAL
  2
AcDbMaterial
  3
ObjectDBX Classes
 90
     1153
 91
        3
280
     0
281
     0
  0
CLASS
  1
VISUALSTYLE
  2
AcDbVisualStyle
  3
ObjectDBX Classes
 90
     4095
 91
       24
280
     0
281
     0
  0
CLASS
  1
SCALE
  2
AcDbScale
  3
ObjectDBX Classes
 90
     1153
 91
       17
280
     0
281
     0
  0
CLASS
  1
TABLESTYLE
  2
AcDbTableStyle
  3
ObjectDBX Classes
 90
     4095
 91
        1
280
     0
281
     0
  0
CLASS
  1
MLEADERSTYLE
  2
AcDbMLeaderStyle
  3
ACDB_MLEADERSTYLE_CLASS
 90
     4095
 91
        1
280
     0
281
     0
  0
CLASS
  1
ACDBSECTIONVIEWSTYLE
  2
AcDbSectionViewStyle
  3
ObjectDBX Classes
 90
     1025
 91
        1
280
     0
281
     0
  0
CLASS
  1
ACDBDETAILVIEWSTYLE
  2
AcDbDetailViewStyle
  3
ObjectDBX Classes
 90
     1025
 91
        1
280
     0
281
     0
  0
CLASS
  1
DICTIONARYVAR
  2
AcDbDictionaryVar
  3
ObjectDBX Classes
 90
        0
 91
        5
280
     0
281
     0
  0
CLASS
  1
CELLSTYLEMAP
  2
AcDbCellStyleMap
  3
ObjectDBX Classes
 90
     1152
 91
        1
280
     0
281
     0
  0
ENDSEC
  0
SECTION
  2
TABLES
  0
TABLE
  2
VPORT
  5
8
330
0
100
AcDbSymbolTable
 70
     1
  0
VPORT
  5
57
330
8
100
AcDbSymbolTableRecord
100
AcDbViewportTableRecord
  2
*Active
 70
     0
 10
0.0
 20
0.0
 11
1.0
 21
1.0
 12
0.0
 22
0.0
 13
0.0
 23
0.0
 14
1.0
 24
1.0
 15
0.0
 25
0.0
 16
0.0
 26
0.0
 36
1.0
 17
104.9999999737534
 27
-148.4999999628701
 37
0.0
 40
302.939999924255
 41
0.7070707070707534
 42
50.0
 43
0.0
 44
0.0
 50
0.0
 51
0.0
 71
     0
 72
   100
 73
     1
 74
     0
 75
     1
 76
     0
 77
     0
 78
     0
281
     0
 65
     1
110
0.0
120
0.0
130
0.0
111
1.0
121
0.0
131
0.0
112
0.0
122
1.0
132
0.0
 79
     0
146
0.0
 60
     3
 61
     5
292
     1
282
     1
141
0.0
142
0.0
 63
   250
421
  3355443
  0
ENDTAB
  0
TABLE
  2
LTYPE
  5
5
330
0
100
AcDbSymbolTable
 70
     2
  0
LTYPE
  5
5B
330
5
100
AcDbSymbolTableRecord
100
AcDbLinetypeTableRecord
  2
ByBlock
 70
     0
  3

 72
    65
 73
     0
 40
0.0
  0
LTYPE
  5
5C
330
5
100
AcDbSymbolTableRecord
100
AcDbLinetypeTableRecord
  2
ByLayer
 70
     0
  3

 72
    65
 73
     0
 40
0.0
  0
LTYPE
  5
5D
330
5
100
AcDbSymbolTableRecord
100
AcDbLinetypeTableRecord
  2
Continuous
 70
     0
  3
Solid line
 72
    65
 73
     0
 40
0.0
  0
LTYPE
  5
F8
330
5
100
AcDbSymbolTableRecord
100
AcDbLinetypeTableRecord
  2
AI-Linetype-0
 70
     0
  3
Adobe Illustrator Linetype No. 0
 72
    65
 73
     2
 40
1.411111110758333
 49
0.7055555553791667
 74
     0
 49
-0.7055555553791667
 74
     0
  0
ENDTAB
  0
TABLE
  2
LAYER
  5
2
330
0
100
AcDbSymbolTable
 70
     2
  0
LAYER
  5
54
330
2
100
AcDbSymbolTableRecord
100
AcDbLayerTableRecord
  2
0
 70
     0
 62
     7
  6
Continuous
370
    -3
390
F
347
21
  0
LAYER
  5
78
330
2
100
AcDbSymbolTableRecord
100
AcDbLayerTableRecord
  2
レイヤー 1
 70
     0
 62
     7
  6
Continuous
370
     0
390
F
347
21
  0
ENDTAB
  0
TABLE
  2
STYLE
  5
3
330
0
100
AcDbSymbolTable
 70
     2
  0
STYLE
  5
55
330
3
100
AcDbSymbolTableRecord
100
AcDbTextStyleTableRecord
  2
Standard
 70
     0
 40
0.0
 41
1.0
 50
0.0
 71
     0
 42
0.2
  3
txt
  4

  0
STYLE
  5
5A
330
3
100
AcDbSymbolTableRecord
100
AcDbTextStyleTableRecord
  2
Annotative
 70
     0
 40
0.0
 41
1.0
 50
0.0
 71
     0
 42
0.2
  3
txt
  4

1001
AcadAnnotative
1000
AnnotativeData
1002
{
1070
     1
1070
     1
1002
}
  0
ENDTAB
  0
TABLE
  2
VIEW
  5
6
330
0
100
AcDbSymbolTable
 70
     0
  0
ENDTAB
  0
TABLE
  2
UCS
  5
7
330
0
100
AcDbSymbolTable
 70
     0
  0
ENDTAB
  0
TABLE
  2
APPID
  5
9
330
0
100
AcDbSymbolTable
 70
     2
  0
APPID
  5
56
330
9
100
AcDbSymbolTableRecord
100
AcDbRegAppTableRecord
  2
ACAD
 70
     0
  0
APPID
  5
5E
330
9
100
AcDbSymbolTableRecord
100
AcDbRegAppTableRecord
  2
AcadAnnotative
 70
     0
  0
ENDTAB
  0
TABLE
  2
DIMSTYLE
  5
A
330
0
100
AcDbSymbolTable
 70
     2
100
AcDbDimStyleTable
 71
     0
  0
DIMSTYLE
105
58
330
A
100
AcDbSymbolTableRecord
100
AcDbDimStyleTableRecord
  2
Standard
 70
     0
340
55
  0
DIMSTYLE
105
59
330
A
100
AcDbSymbolTableRecord
100
AcDbDimStyleTableRecord
  2
Annotative
 70
     0
340
55
1001
AcadAnnotative
1000
AnnotativeData
1002
{
1070
     1
1070
     1
1002
}
  0
ENDTAB
  0
TABLE
  2
BLOCK_RECORD
  5
1
330
0
100
AcDbSymbolTable
 70
    13
  0
BLOCK_RECORD
  5
70
330
1
100
AcDbSymbolTableRecord
100
AcDbBlockTableRecord
  2
*Model_Space
340
73
 70
     0
280
     1
281
     0
  0
BLOCK_RECORD
  5
6C
330
1
100
AcDbSymbolTableRecord
100
AcDbBlockTableRecord
  2
*Paper_Space
340
6F
 70
     0
280
     1
281
     0
  0
BLOCK_RECORD
  5
74
330
1
100
AcDbSymbolTableRecord
100
AcDbBlockTableRecord
  2
*Paper_Space0
340
77
 70
     0
280
     1
281
     0
  0
BLOCK_RECORD
  5
B4
330
1
100
AcDbSymbolTableRecord
100
AcDbBlockTableRecord
  2
Block_0
340
0
102
{BLKREFS
331
B5
102
}
 70
     0
280
     1
281
     0
  0
BLOCK_RECORD
  5
B8
330
1
100
AcDbSymbolTableRecord
100
AcDbBlockTableRecord
  2
Block_1
340
0
102
{BLKREFS
331
B9
102
}
 70
     0
280
     1
281
     0
  0
BLOCK_RECORD
  5
C5
330
1
100
AcDbSymbolTableRecord
100
AcDbBlockTableRecord
  2
Block_2
340
0
102
{BLKREFS
331
C6
102
}
 70
     0
280
     1
281
     0
  0
BLOCK_RECORD
  5
C9
330
1
100
AcDbSymbolTableRecord
100
AcDbBlockTableRecord
  2
Block_3
340
0
102
{BLKREFS
331
CA
102
}
 70
     0
280
     1
281
     0
  0
BLOCK_RECORD
  5
D3
330
1
100
AcDbSymbolTableRecord
100
AcDbBlockTableRecord
  2
Block_4
340
0
102
{BLKREFS
331
D4
102
}
 70
     0
280
     1
281
     0
  0
BLOCK_RECORD
  5
DE
330
1
100
AcDbSymbolTableRecord
100
AcDbBlockTableRecord
  2
Block_5
340
0
102
{BLKREFS
331
DF
102
}
 70
     0
280
     1
281
     0
  0
BLOCK_RECORD
  5
E9
330
1
100
AcDbSymbolTableRecord
100
AcDbBlockTableRecord
  2
Block_6
340
0
102
{BLKREFS
331
EA
102
}
 70
     0
280
     1
281
     0
  0
BLOCK_RECORD
  5
F1
330
1
100
AcDbSymbolTableRecord
100
AcDbBlockTableRecord
  2
Block_7
340
0
102
{BLKREFS
331
F2
102
}
 70
     0
280
     1
281
     0
  0
BLOCK_RECORD
  5
F9
330
1
100
AcDbSymbolTableRecord
100
AcDbBlockTableRecord
  2
Block_8
340
0
102
{BLKREFS
331
FA
102
}
 70
     0
280
     1
281
     0
  0
BLOCK_RECORD
  5
FD
330
1
100
AcDbSymbolTableRecord
100
AcDbBlockTableRecord
  2
Block_9
340
0
102
{BLKREFS
331
FE
102
}
 70
     0
280
     1
281
     0
  0
BLOCK_RECORD
  5
104
330
1
100
AcDbSymbolTableRecord
100
AcDbBlockTableRecord
  2
Block_10
340
0
102
{BLKREFS
331
105
102
}
 70
     0
280
     1
281
     0
  0
BLOCK_RECORD
  5
108
330
1
100
AcDbSymbolTableRecord
100
AcDbBlockTableRecord
  2
Block_11
340
0
102
{BLKREFS
331
109
102
}
 70
     0
280
     1
281
     0
  0
ENDTAB
  0
ENDSEC
  0
SECTION
  2
BLOCKS
  0
BLOCK
  5
71
330
70
100
AcDbEntity
  8
0
100
AcDbBlockBegin
  2
*Model_Space
 70
     0
 10
0.0
 20
0.0
 30
0.0
  3
*Model_Space
  1

  0
ENDBLK
  5
72
330
70
100
AcDbEntity
  8
0
100
AcDbBlockEnd
  0
BLOCK
  5
6D
330
6C
100
AcDbEntity
 67
     1
  8
0
100
AcDbBlockBegin
  2
*Paper_Space
 70
     0
 10
0.0
 20
0.0
 30
0.0
  3
*Paper_Space
  1

  0
ENDBLK
  5
6E
330
6C
100
AcDbEntity
 67
     1
  8
0
100
AcDbBlockEnd
  0
BLOCK
  5
75
330
74
100
AcDbEntity
 67
     1
  8
0
100
AcDbBlockBegin
  2
*Paper_Space0
 70
     0
 10
0.0
 20
0.0
 30
0.0
  3
*Paper_Space0
  1

  0
ENDBLK
  5
76
330
74
100
AcDbEntity
 67
     1
  8
0
100
AcDbBlockEnd
  0
BLOCK
  5
B6
330
B4
100
AcDbEntity
  8
0
100
AcDbBlockBegin
  2
Block_0
 70
     0
 10
0.0
 20
0.0
 30
0.0
  3
Block_0
  1

  0
INSERT
  5
B9
330
B4
100
AcDbEntity
  8
レイヤー 1
100
AcDbBlockReference
  2
Block_1
 10
0.0
 20
0.0
 30
0.0
  0
ENDBLK
  5
B7
330
B4
100
AcDbEntity
  8
0
100
AcDbBlockEnd
  0
BLOCK
  5
BA
330
B8
100
AcDbEntity
  8
0
100
AcDbBlockBegin
  2
Block_1
 70
     0
 10
0.0
 20
0.0
 30
0.0
  3
Block_1
  1

  0
SPLINE
  5
BC
330
B8
100
AcDbEntity
  8
レイヤー 1
100
AcDbSpline
210
0.0
220
0.0
230
1.0
 70
     9
 71
     3
 72
    17
 73
    13
 74
     0
 42
0.0000000001
 43
0.0000000001
 40
0.0
 40
0.0
 40
0.0
 40
0.0
 40
1.0
 40
1.0
 40
1.0
 40
2.0
 40
2.0
 40
2.0
 40
3.0
 40
3.0
 40
3.0
 40
4.0
 40
4.0
 40
4.0
 40
4.0
 10
85.86332056230153
 20
-146.5414428344584
 30
0.0
 10
85.86332056230153
 20
-146.791212257139
 30
0.0
 10
86.14667966596334
 20
-146.8377210461898
 30
0.0
 10
86.49153372403684
 20
-146.8377210461898
 30
0.0
 10
86.81106633029378
 20
-146.8377210461898
 30
0.0
 10
87.11991914054641
 20
-146.8015475435947
 30
0.0
 10
87.11991914054641
 20
-146.5414428344584
 30
0.0
 10
87.11991914054641
 20
-146.2937404690689
 30
0.0
 10
86.83845483940151
 20
-146.2451646227269
 30
0.0
 10
86.49153372403684
 20
-146.2451646227269
 30
0.0
 10
86.17217337255418
 20
-146.2451646227269
 30
0.0
 10
85.86332056230153
 20
-146.2834051826132
 30
0.0
 10
85.86332056230153
 20
-146.5414428344584
 30
0.0
  0
SPLINE
  5
BD
330
B8
100
AcDbEntity
  8
レイヤー 1
100
AcDbSpline
210
0.0
220
0.0
230
1.0
 70
     9
 71
     3
 72
    29
 73
    25
 74
     0
 42
0.0000000001
 43
0.0000000001
 40
0.0
 40
0.0
 40
0.0
 40
0.0
 40
1.0
 40
1.0
 40
1.0
 40
2.0
 40
2.0
 40
2.0
 40
3.0
 40
3.0
 40
3.0
 40
4.0
 40
4.0
 40
4.0
 40
5.0
 40
5.0
 40
5.0
 40
6.0
 40
6.0
 40
6.0
 40
7.0
 40
7.0
 40
7.0
 40
8.0
 40
8.0
 40
8.0
 40
8.0
 10
87.08598495001671
 20
-146.143534305912
 30
0.0
 10
87.2954467555199
 20
-146.2517103041489
 30
0.0
 10
87.31456703546303
 20
-146.4249986070569
 30
0.0
 10
87.31456703546303
 20
-146.5414428344584
 30
0.0
 10
87.31456703546303
 20
-146.7023287936195
 30
0.0
 10
87.26805824641216
 20
-146.8439222180633
 30
0.0
 10
87.08598495001671
 20
-146.9390068534562
 30
0.0
 10
86.89150930987436
 20
-147.0427042275622
 30
0.0
 10
86.65448674048915
 20
-147.0619967622796
 30
0.0
 10
86.49153372403684
 20
-147.0619967622796
 30
0.0
 10
86.34770098752765
 20
-147.0619967622796
 30
0.0
 10
86.09603676233016
 20
-147.0447712848534
 30
0.0
 10
85.89708249805699
 20
-146.9390068534562
 30
0.0
 10
85.6939941192015
 20
-146.8311753647679
 30
0.0
 10
85.67073972467607
 20
-146.6702894056067
 30
0.0
 10
85.67073972467607
 20
-146.5414428344584
 30
0.0
 10
85.67073972467607
 20
-146.3826239325884
 30
0.0
 10
85.71518145643578
 20
-146.2389634508534
 30
0.0
 10
85.89708249805699
 20
-146.143534305912
 30
0.0
 10
86.08966333568245
 20
-146.0443155559368
 30
0.0
 10
86.3180731663545
 20
-146.0208889066371
 30
0.0
 10
86.49153372403684
 20
-146.0208889066371
 30
0.0
 10
86.66292722442802
 20
-146.0208889066371
 30
0.0
 10
86.89357636716549
 20
-146.0422484986457
 30
0.0
 10
87.08598495001671
 20
-146.143534305912
 30
0.0
  0
HATCH
  5
BE
330
B8
100
AcDbEntity
  8
レイヤー 1
 62
   250
420
  2299925
440
 33554687
100
AcDbHatch
 10
0.0
 20
0.0
 30
0.0
210
0.0
220
0.0
230
1.0
  2
SOLID
 70
     1
 71
     1
 91
        2
 92
        1
 93
        1
 72
     4
 94
        3
 73
     0
 74
     0
 95
       17
 96
       13
 40
0.0
 40
0.0
 40
0.0
 40
0.0
 40
1.0
 40
1.0
 40
1.0
 40
2.0
 40
2.0
 40
2.0
 40
3.0
 40
3.0
 40
3.0
 40
4.0
 40
4.0
 40
4.0
 40
4.0
 10
85.86332056230153
 20
-146.5414428344584
 10
85.86332056230153
 20
-146.791212257139
 10
86.14667966596334
 20
-146.8377210461898
 10
86.49153372403684
 20
-146.8377210461898
 10
86.81106633029378
 20
-146.8377210461898
 10
87.11991914054641
 20
-146.8015475435947
 10
87.11991914054641
 20
-146.5414428344584
 10
87.11991914054641
 20
-146.2937404690689
 10
86.83845483940151
 20
-146.2451646227269
 10
86.49153372403684
 20
-146.2451646227269
 10
86.17217337255418
 20
-146.2451646227269
 10
85.86332056230153
 20
-146.2834051826132
 10
85.86332056230153
 20
-146.5414428344584
 97
        0
 97
        1
330
BC
 92
        1
 93
        1
 72
     4
 94
        3
 73
     0
 74
     0
 95
       29
 96
       25
 40
0.0
 40
0.0
 40
0.0
 40
0.0
 40
1.0
 40
1.0
 40
1.0
 40
2.0
 40
2.0
 40
2.0
 40
3.0
 40
3.0
 40
3.0
 40
4.0
 40
4.0
 40
4.0
 40
5.0
 40
5.0
 40
5.0
 40
6.0
 40
6.0
 40
6.0
 40
7.0
 40
7.0
 40
7.0
 40
8.0
 40
8.0
 40
8.0
 40
8.0
 10
87.08598495001671
 20
-146.143534305912
 10
87.2954467555199
 20
-146.2517103041489
 10
87.31456703546303
 20
-146.4249986070569
 10
87.31456703546303
 20
-146.5414428344584
 10
87.31456703546303
 20
-146.7023287936195
 10
87.26805824641216
 20
-146.8439222180633
 10
87.08598495001671
 20
-146.9390068534562
 10
86.89150930987436
 20
-147.0427042275622
 10
86.65448674048915
 20
-147.0619967622796
 10
86.49153372403684
 20
-147.0619967622796
 10
86.34770098752765
 20
-147.0619967622796
 10
86.09603676233016
 20
-147.0447712848534
 10
85.89708249805699
 20
-146.9390068534562
 10
85.6939941192015
 20
-146.8311753647679
 10
85.67073972467607
 20
-146.6702894056067
 10
85.67073972467607
 20
-146.5414428344584
 10
85.67073972467607
 20
-146.3826239325884
 10
85.71518145643578
 20
-146.2389634508534
 10
85.89708249805699
 20
-146.143534305912
 10
86.08966333568245
 20
-146.0443155559368
 10
86.3180731663545
 20
-146.0208889066371
 10
86.49153372403684
 20
-146.0208889066371
 10
86.66292722442802
 20
-146.0208889066371
 10
86.89357636716549
 20
-146.0422484986457
 10
87.08598495001671
 20
-146.143534305912
 97
        0
 97
        1
330
BD
 75
     2
 76
     1
 98
        1
 10
0.0
 20
0.0
450
        0
451
        0
460
0.0
461
0.0
452
        0
462
0.0
453
        0
470

  0
SPLINE
  5
BF
330
B8
100
AcDbEntity
  8
レイヤー 1
100
AcDbSpline
210
0.0
220
0.0
230
1.0
 70
    11
 71
     3
 72
    17
 73
    13
 74
     0
 42
0.0000000001
 43
0.0000000001
 40
0.0
 40
0.0
 40
0.0
 40
0.0
 40
1.0
 40
1.0
 40
1.0
 40
2.0
 40
2.0
 40
2.0
 40
3.0
 40
3.0
 40
3.0
 40
4.0
 40
4.0
 40
4.0
 40
4.0
 10
87.2637518770556
 20
-145.8045369101634
 30
0.0
 10
87.2637518770556
 20
-145.8045369101634
 30
0.0
 10
87.01208765185809
 20
-145.8045369101634
 30
0.0
 10
87.01208765185809
 20
-145.8045369101634
 30
0.0
 10
87.01208765185809
 20
-145.8045369101634
 30
0.0
 10
87.01208765185809
 20
-145.5527004301917
 30
0.0
 10
87.01208765185809
 20
-145.5527004301917
 30
0.0
 10
87.01208765185809
 20
-145.5527004301917
 30
0.0
 10
87.2637518770556
 20
-145.5527004301917
 30
0.0
 10
87.2637518770556
 20
-145.5527004301917
 30
0.0
 10
87.2637518770556
 20
-145.5527004301917
 30
0.0
 10
87.2637518770556
 20
-145.8045369101634
 30
0.0
 10
87.2637518770556
 20
-145.8045369101634
 30
0.0
  0
HATCH
  5
C0
330
B8
100
AcDbEntity
  8
レイヤー 1
 62
   250
420
  2299925
440
 33554687
100
AcDbHatch
 10
0.0
 20
0.0
 30
0.0
210
0.0
220
0.0
230
1.0
  2
SOLID
 70
     1
 71
     1
 91
        1
 92
        1
 93
        1
 72
     4
 94
        3
 73
     0
 74
     0
 95
       17
 96
       13
 40
0.0
 40
0.0
 40
0.0
 40
0.0
 40
1.0
 40
1.0
 40
1.0
 40
2.0
 40
2.0
 40
2.0
 40
3.0
 40
3.0
 40
3.0
 40
4.0
 40
4.0
 40
4.0
 40
4.0
 10
87.2637518770556
 20
-145.8045369101634
 10
87.2637518770556
 20
-145.8045369101634
 10
87.01208765185809
 20
-145.8045369101634
 10
87.01208765185809
 20
-145.8045369101634
 10
87.01208765185809
 20
-145.8045369101634
 10
87.01208765185809
 20
-145.5527004301917
 10
87.01208765185809
 20
-145.5527004301917
 10
87.01208765185809
 20
-145.5527004301917
 10
87.2637518770556
 20
-145.5527004301917
 10
87.2637518770556
 20
-145.5527004301917
 10
87.2637518770556
 20
-145.5527004301917
 10
87.2637518770556
 20
-145.8045369101634
 10
87.2637518770556
 20
-145.8045369101634
 97
        0
 97
        1
330
BF
 75
     2
 76
     1
 98
        1
 10
0.0
 20
0.0
450
        0
451
        0
460
0.0
461
0.0
452
        0
462
0.0
453
        0
470

  0
SPLINE
  5
C1
330
B8
100
AcDbEntity
  8
レイヤー 1
100
AcDbSpline
210
0.0
220
0.0
230
1.0
 70
     9
 71
     3
 72
    53
 73
    49
 74
     0
 42
0.0000000001
 43
0.0000000001
 40
0.0
 40
0.0
 40
0.0
 40
0.0
 40
1.0
 40
1.0
 40
1.0
 40
2.0
 40
2.0
 40
2.0
 40
3.0
 40
3.0
 40
3.0
 40
4.0
 40
4.0
 40
4.0
 40
5.0
 40
5.0
 40
5.0
 40
6.0
 40
6.0
 40
6.0
 40
7.0
 40
7.0
 40
7.0
 40
8.0
 40
8.0
 40
8.0
 40
9.0
 40
9.0
 40
9.0
 40
10.0
 40
10.0
 40
10.0
 40
11.0
 40
11.0
 40
11.0
 40
12.0
 40
12.0
 40
12.0
 40
13.0
 40
13.0
 40
13.0
 40
14.0
 40
14.0
 40
14.0
 40
15.0
 40
15.0
 40
15.0
 40
16.0
 40
16.0
 40
16.0
 40
16.0
 10
87.31456703546303
 20
-144.8354315501626
 30
0.0
 10
87.31456703546303
 20
-144.9136352176778
 30
0.0
 10
87.29768606758531
 20
-145.0152655344927
 30
0.0
 10
87.23412405588245
 20
-145.1168958513076
 30
0.0
 10
87.12405325512872
 20
-145.2901841542156
 30
0.0
 10
86.99296737191495
 20
-145.3115437462242
 30
0.0
 10
86.88513588322663
 20
-145.330491771393
 30
0.0
 10
86.88513588322663
 20
-145.330491771393
 30
0.0
 10
86.88513588322663
 20
-145.1082831125944
 30
0.0
 10
86.88513588322663
 20
-145.1082831125944
 30
0.0
 10
87.08391789272555
 20
-145.053506094379
 30
0.0
 10
87.1135457138987
 20
-144.9263820709732
 30
0.0
 10
87.1135457138987
 20
-144.8333644928715
 30
0.0
 10
87.1135457138987
 20
-144.6938381257189
 30
0.0
 10
87.01415470914923
 20
-144.5415649052708
 30
0.0
 10
86.78143850912062
 20
-144.5415649052708
 30
0.0
 10
86.52546791456655
 20
-144.5415649052708
 30
0.0
 10
86.45570473099025
 20
-144.7213988896009
 30
0.0
 10
86.45570473099025
 20
-144.8419772315846
 30
0.0
 10
86.45570473099025
 20
-144.8736721100489
 30
0.0
 10
86.45570473099025
 20
-145.0152655344927
 30
0.0
 10
86.58472355691285
 20
-145.1041489980121
 30
0.0
 10
86.58472355691285
 20
-145.1041489980121
 30
0.0
 10
86.5656032769697
 20
-145.2798488677599
 30
0.0
 10
86.5656032769697
 20
-145.2798488677599
 30
0.0
 10
86.5656032769697
 20
-145.2798488677599
 30
0.0
 10
85.71948782579235
 20
-145.1592705257761
 30
0.0
 10
85.71948782579235
 20
-145.1592705257761
 30
0.0
 10
85.71948782579235
 20
-145.1592705257761
 30
0.0
 10
85.71948782579235
 20
-144.3806789461097
 30
0.0
 10
85.71948782579235
 20
-144.3806789461097
 30
0.0
 10
85.71948782579235
 20
-144.3806789461097
 30
0.0
 10
85.91413572070896
 20
-144.3806789461097
 30
0.0
 10
85.91413572070896
 20
-144.3806789461097
 30
0.0
 10
85.91413572070896
 20
-144.3806789461097
 30
0.0
 10
85.91413572070896
 20
-144.9963175093238
 30
0.0
 10
85.91413572070896
 20
-144.9963175093238
 30
0.0
 10
85.91413572070896
 20
-144.9963175093238
 30
0.0
 10
86.33719344629765
 20
-145.0617743235436
 30
0.0
 10
86.33719344629765
 20
-145.0617743235436
 30
0.0
 10
86.30325925576794
 20
-145.0004516239061
 30
0.0
 10
86.26312389336478
 20
-144.9181138418086
 30
0.0
 10
86.26312389336478
 20
-144.7996025571161
 30
0.0
 10
86.26312389336478
 20
-144.5456990198531
 30
0.0
 10
86.44933130434253
 20
-144.3086764504679
 30
0.0
 10
86.76231822917747
 20
-144.3086764504679
 30
0.0
 10
87.07978377814326
 20
-144.3086764504679
 30
0.0
 10
87.31456703546303
 20
-144.5329521665577
 30
0.0
 10
87.31456703546303
 20
-144.8354315501626
 30
0.0
  0
HATCH
  5
C2
330
B8
100
AcDbEntity
  8
レイヤー 1
 62
   250
420
  2299925
440
 33554687
100
AcDbHatch
 10
0.0
 20
0.0
 30
0.0
210
0.0
220
0.0
230
1.0
  2
SOLID
 70
     1
 71
     1
 91
        1
 92
        1
 93
        1
 72
     4
 94
        3
 73
     0
 74
     0
 95
       53
 96
       49
 40
0.0
 40
0.0
 40
0.0
 40
0.0
 40
1.0
 40
1.0
 40
1.0
 40
2.0
 40
2.0
 40
2.0
 40
3.0
 40
3.0
 40
3.0
 40
4.0
 40
4.0
 40
4.0
 40
5.0
 40
5.0
 40
5.0
 40
6.0
 40
6.0
 40
6.0
 40
7.0
 40
7.0
 40
7.0
 40
8.0
 40
8.0
 40
8.0
 40
9.0
 40
9.0
 40
9.0
 40
10.0
 40
10.0
 40
10.0
 40
11.0
 40
11.0
 40
11.0
 40
12.0
 40
12.0
 40
12.0
 40
13.0
 40
13.0
 40
13.0
 40
14.0
 40
14.0
 40
14.0
 40
15.0
 40
15.0
 40
15.0
 40
16.0
 40
16.0
 40
16.0
 40
16.0
 10
87.31456703546303
 20
-144.8354315501626
 10
87.31456703546303
 20
-144.9136352176778
 10
87.29768606758531
 20
-145.0152655344927
 10
87.23412405588245
 20
-145.1168958513076
 10
87.12405325512872
 20
-145.2901841542156
 10
86.99296737191495
 20
-145.3115437462242
 10
86.88513588322663
 20
-145.330491771393
 10
86.88513588322663
 20
-145.330491771393
 10
86.88513588322663
 20
-145.1082831125944
 10
86.88513588322663
 20
-145.1082831125944
 10
87.08391789272555
 20
-145.053506094379
 10
87.1135457138987
 20
-144.9263820709732
 10
87.1135457138987
 20
-144.8333644928715
 10
87.1135457138987
 20
-144.6938381257189
 10
87.01415470914923
 20
-144.5415649052708
 10
86.78143850912062
 20
-144.5415649052708
 10
86.52546791456655
 20
-144.5415649052708
 10
86.45570473099025
 20
-144.7213988896009
 10
86.45570473099025
 20
-144.8419772315846
 10
86.45570473099025
 20
-144.8736721100489
 10
86.45570473099025
 20
-145.0152655344927
 10
86.58472355691285
 20
-145.1041489980121
 10
86.58472355691285
 20
-145.1041489980121
 10
86.5656032769697
 20
-145.2798488677599
 10
86.5656032769697
 20
-145.2798488677599
 10
86.5656032769697
 20
-145.2798488677599
 10
85.71948782579235
 20
-145.1592705257761
 10
85.71948782579235
 20
-145.1592705257761
 10
85.71948782579235
 20
-145.1592705257761
 10
85.71948782579235
 20
-144.3806789461097
 10
85.71948782579235
 20
-144.3806789461097
 10
85.71948782579235
 20
-144.3806789461097
 10
85.91413572070896
 20
-144.3806789461097
 10
85.91413572070896
 20
-144.3806789461097
 10
85.91413572070896
 20
-144.3806789461097
 10
85.91413572070896
 20
-144.9963175093238
 10
85.91413572070896
 20
-144.9963175093238
 10
85.91413572070896
 20
-144.9963175093238
 10
86.33719344629765
 20
-145.0617743235436
 10
86.33719344629765
 20
-145.0617743235436
 10
86.30325925576794
 20
-145.0004516239061
 10
86.26312389336478
 20
-144.9181138418086
 10
86.26312389336478
 20
-144.7996025571161
 10
86.26312389336478
 20
-144.5456990198531
 10
86.44933130434253
 20
-144.3086764504679
 10
86.76231822917747
 20
-144.3086764504679
 10
87.07978377814326
 20
-144.3086764504679
 10
87.31456703546303
 20
-144.5329521665577
 10
87.31456703546303
 20
-144.8354315501626
 97
        0
 97
        1
330
C1
 75
     2
 76
     1
 98
        1
 10
0.0
 20
0.0
450
        0
451
        0
460
0.0
461
0.0
452
        0
462
0.0
453
        0
470

  0
ENDBLK
  5
BB
330
B8
100
AcDbEntity
  8
0
100
AcDbBlockEnd
  0
BLOCK
  5
C7
330
C5
100
AcDbEntity
  8
0
100
AcDbBlockBegin
  2
Block_2
 70
     0
 10
0.0
 20
0.0
 30
0.0
  3
Block_2
  1

  0
INSERT
  5
CA
330
C5
100
AcDbEntity
  8
レイヤー 1
100
AcDbBlockReference
  2
Block_3
 10
0.0
 20
0.0
 30
0.0
  0
ENDBLK
  5
C8
330
C5
100
AcDbEntity
  8
0
100
AcDbBlockEnd
  0
BLOCK
  5
CB
330
C9
100
AcDbEntity
  8
0
100
AcDbBlockBegin
  2
Block_3
 70
     0
 10
0.0
 20
0.0
 30
0.0
  3
Block_3
  1

  0
SPLINE
  5
CD
330
C9
100
AcDbEntity
  8
レイヤー 1
100
AcDbSpline
210
0.0
220
0.0
230
1.0
 70
     9
 71
     3
 72
    44
 73
    40
 74
     0
 42
0.0000000001
 43
0.0000000001
 40
0.0
 40
0.0
 40
0.0
 40
0.0
 40
1.0
 40
1.0
 40
1.0
 40
2.0
 40
2.0
 40
2.0
 40
3.0
 40
3.0
 40
3.0
 40
4.0
 40
4.0
 40
4.0
 40
5.0
 40
5.0
 40
5.0
 40
6.0
 40
6.0
 40
6.0
 40
7.0
 40
7.0
 40
7.0
 40
8.0
 40
8.0
 40
8.0
 40
9.0
 40
9.0
 40
9.0
 40
10.0
 40
10.0
 40
10.0
 40
11.0
 40
11.0
 40
11.0
 40
12.0
 40
12.0
 40
12.0
 40
13.0
 40
13.0
 40
13.0
 40
13.0
 10
102.7124213067871
 20
-139.3718546201049
 30
0.0
 10
102.4945190173451
 20
-139.5305012672007
 30
0.0
 10
102.4013291844691
 20
-139.6045708201335
 30
0.0
 10
102.3527533381271
 20
-139.7484035566427
 30
0.0
 10
102.3527533381271
 20
-139.7484035566427
 30
0.0
 10
103.1311726630193
 20
-139.7484035566427
 30
0.0
 10
103.1311726630193
 20
-139.7484035566427
 30
0.0
 10
103.1311726630193
 20
-139.7484035566427
 30
0.0
 10
103.1311726630193
 20
-139.9535589927894
 30
0.0
 10
103.1311726630193
 20
-139.9535589927894
 30
0.0
 10
103.1311726630193
 20
-139.9535589927894
 30
0.0
 10
102.1031561702207
 20
-139.9535589927894
 30
0.0
 10
102.1031561702207
 20
-139.9535589927894
 30
0.0
 10
102.134851048685
 20
-139.5959580814204
 30
0.0
 10
102.2003078629048
 20
-139.5177544139053
 30
0.0
 10
102.5854695381557
 20
-139.2194091448826
 30
0.0
 10
102.8414401327097
 20
-139.0206271353837
 30
0.0
 10
102.9068969469295
 20
-138.9529310090986
 30
0.0
 10
102.9068969469295
 20
-138.8154716992371
 30
0.0
 10
102.9068969469295
 20
-138.6969604145445
 30
0.0
 10
102.835066706062
 20
-138.5657022765565
 30
0.0
 10
102.6383517538543
 20
-138.5657022765565
 30
0.0
 10
102.3780747899436
 20
-138.5657022765565
 30
0.0
 10
102.3696343060048
 20
-138.796351419294
 30
0.0
 10
102.3653279366482
 20
-138.9127956466954
 30
0.0
 10
102.3653279366482
 20
-138.9127956466954
 30
0.0
 10
102.1412244753327
 20
-138.9127956466954
 30
0.0
 10
102.1412244753327
 20
-138.9127956466954
 30
0.0
 10
102.1496649592716
 20
-138.7858438780639
 30
0.0
 10
102.1601725005016
 20
-138.673706020019
 30
0.0
 10
102.2406154800822
 20
-138.5551947353265
 30
0.0
 10
102.3505140260617
 20
-138.3944810309396
 30
0.0
 10
102.5367214370394
 20
-138.3605468404099
 30
0.0
 10
102.6531656644408
 20
-138.3605468404099
 30
0.0
 10
102.9303235962292
 20
-138.3605468404099
 30
0.0
 10
103.137546089667
 20
-138.5446871940964
 30
0.0
 10
103.137546089667
 20
-138.8175387565282
 30
0.0
 10
103.137546089667
 20
-139.0459485872003
 30
0.0
 10
103.0212741170398
 20
-139.145511846724
 30
0.0
 10
102.7124213067871
 20
-139.3718546201049
 30
0.0
  0
HATCH
  5
CE
330
C9
100
AcDbEntity
  8
レイヤー 1
 62
   250
420
  2299925
440
 33554687
100
AcDbHatch
 10
0.0
 20
0.0
 30
0.0
210
0.0
220
0.0
230
1.0
  2
SOLID
 70
     1
 71
     1
 91
        1
 92
        1
 93
        1
 72
     4
 94
        3
 73
     0
 74
     0
 95
       44
 96
       40
 40
0.0
 40
0.0
 40
0.0
 40
0.0
 40
1.0
 40
1.0
 40
1.0
 40
2.0
 40
2.0
 40
2.0
 40
3.0
 40
3.0
 40
3.0
 40
4.0
 40
4.0
 40
4.0
 40
5.0
 40
5.0
 40
5.0
 40
6.0
 40
6.0
 40
6.0
 40
7.0
 40
7.0
 40
7.0
 40
8.0
 40
8.0
 40
8.0
 40
9.0
 40
9.0
 40
9.0
 40
10.0
 40
10.0
 40
10.0
 40
11.0
 40
11.0
 40
11.0
 40
12.0
 40
12.0
 40
12.0
 40
13.0
 40
13.0
 40
13.0
 40
13.0
 10
102.7124213067871
 20
-139.3718546201049
 10
102.4945190173451
 20
-139.5305012672007
 10
102.4013291844691
 20
-139.6045708201335
 10
102.3527533381271
 20
-139.7484035566427
 10
102.3527533381271
 20
-139.7484035566427
 10
103.1311726630193
 20
-139.7484035566427
 10
103.1311726630193
 20
-139.7484035566427
 10
103.1311726630193
 20
-139.7484035566427
 10
103.1311726630193
 20
-139.9535589927894
 10
103.1311726630193
 20
-139.9535589927894
 10
103.1311726630193
 20
-139.9535589927894
 10
102.1031561702207
 20
-139.9535589927894
 10
102.1031561702207
 20
-139.9535589927894
 10
102.134851048685
 20
-139.5959580814204
 10
102.2003078629048
 20
-139.5177544139053
 10
102.5854695381557
 20
-139.2194091448826
 10
102.8414401327097
 20
-139.0206271353837
 10
102.9068969469295
 20
-138.9529310090986
 10
102.9068969469295
 20
-138.8154716992371
 10
102.9068969469295
 20
-138.6969604145445
 10
102.835066706062
 20
-138.5657022765565
 10
102.6383517538543
 20
-138.5657022765565
 10
102.3780747899436
 20
-138.5657022765565
 10
102.3696343060048
 20
-138.796351419294
 10
102.3653279366482
 20
-138.9127956466954
 10
102.3653279366482
 20
-138.9127956466954
 10
102.1412244753327
 20
-138.9127956466954
 10
102.1412244753327
 20
-138.9127956466954
 10
102.1496649592716
 20
-138.7858438780639
 10
102.1601725005016
 20
-138.673706020019
 10
102.2406154800822
 20
-138.5551947353265
 10
102.3505140260617
 20
-138.3944810309396
 10
102.5367214370394
 20
-138.3605468404099
 10
102.6531656644408
 20
-138.3605468404099
 10
102.9303235962292
 20
-138.3605468404099
 10
103.137546089667
 20
-138.5446871940964
 10
103.137546089667
 20
-138.8175387565282
 10
103.137546089667
 20
-139.0459485872003
 10
103.0212741170398
 20
-139.145511846724
 10
102.7124213067871
 20
-139.3718546201049
 97
        0
 97
        1
330
CD
 75
     2
 76
     1
 98
        1
 10
0.0
 20
0.0
450
        0
451
        0
460
0.0
461
0.0
452
        0
462
0.0
453
        0
470

  0
SPLINE
  5
CF
330
C9
100
AcDbEntity
  8
レイヤー 1
100
AcDbSpline
210
0.0
220
0.0
230
1.0
 70
    11
 71
     3
 72
    26
 73
    22
 74
     0
 42
0.0000000001
 43
0.0000000001
 40
0.0
 40
0.0
 40
0.0
 40
0.0
 40
1.0
 40
1.0
 40
1.0
 40
2.0
 40
2.0
 40
2.0
 40
3.0
 40
3.0
 40
3.0
 40
4.0
 40
4.0
 40
4.0
 40
5.0
 40
5.0
 40
5.0
 40
6.0
 40
6.0
 40
6.0
 40
7.0
 40
7.0
 40
7.0
 40
7.0
 10
103.7475002453305
 20
-139.9535589927894
 30
0.0
 10
103.7475002453305
 20
-139.9535589927894
 30
0.0
 10
103.7475002453305
 20
-138.8492336349925
 30
0.0
 10
103.7475002453305
 20
-138.8492336349925
 30
0.0
 10
103.7475002453305
 20
-138.8492336349925
 30
0.0
 10
103.4174600978435
 20
-138.8492336349925
 30
0.0
 10
103.4174600978435
 20
-138.8492336349925
 30
0.0
 10
103.4174600978435
 20
-138.8492336349925
 30
0.0
 10
103.4174600978435
 20
-138.7010945291268
 30
0.0
 10
103.4174600978435
 20
-138.7010945291268
 30
0.0
 10
103.7495673026216
 20
-138.6864528733145
 30
0.0
 10
103.7960760916725
 20
-138.5234998568622
 30
0.0
 10
103.8257039128456
 20
-138.4092949415261
 30
0.0
 10
103.8257039128456
 20
-138.4092949415261
 30
0.0
 10
103.9717759614202
 20
-138.4092949415261
 30
0.0
 10
103.9717759614202
 20
-138.4092949415261
 30
0.0
 10
103.9717759614202
 20
-138.4092949415261
 30
0.0
 10
103.9717759614202
 20
-139.9535589927894
 30
0.0
 10
103.9717759614202
 20
-139.9535589927894
 30
0.0
 10
103.9717759614202
 20
-139.9535589927894
 30
0.0
 10
103.7475002453305
 20
-139.9535589927894
 30
0.0
 10
103.7475002453305
 20
-139.9535589927894
 30
0.0
  0
HATCH
  5
D0
330
C9
100
AcDbEntity
  8
レイヤー 1
 62
   250
420
  2299925
440
 33554687
100
AcDbHatch
 10
0.0
 20
0.0
 30
0.0
210
0.0
220
0.0
230
1.0
  2
SOLID
 70
     1
 71
     1
 91
        1
 92
        1
 93
        1
 72
     4
 94
        3
 73
     0
 74
     0
 95
       26
 96
       22
 40
0.0
 40
0.0
 40
0.0
 40
0.0
 40
1.0
 40
1.0
 40
1.0
 40
2.0
 40
2.0
 40
2.0
 40
3.0
 40
3.0
 40
3.0
 40
4.0
 40
4.0
 40
4.0
 40
5.0
 40
5.0
 40
5.0
 40
6.0
 40
6.0
 40
6.0
 40
7.0
 40
7.0
 40
7.0
 40
7.0
 10
103.7475002453305
 20
-139.9535589927894
 10
103.7475002453305
 20
-139.9535589927894
 10
103.7475002453305
 20
-138.8492336349925
 10
103.7475002453305
 20
-138.8492336349925
 10
103.7475002453305
 20
-138.8492336349925
 10
103.4174600978435
 20
-138.8492336349925
 10
103.4174600978435
 20
-138.8492336349925
 10
103.4174600978435
 20
-138.8492336349925
 10
103.4174600978435
 20
-138.7010945291268
 10
103.4174600978435
 20
-138.7010945291268
 10
103.7495673026216
 20
-138.6864528733145
 10
103.7960760916725
 20
-138.5234998568622
 10
103.8257039128456
 20
-138.4092949415261
 10
103.8257039128456
 20
-138.4092949415261
 10
103.9717759614202
 20
-138.4092949415261
 10
103.9717759614202
 20
-138.4092949415261
 10
103.9717759614202
 20
-138.4092949415261
 10
103.9717759614202
 20
-139.9535589927894
 10
103.9717759614202
 20
-139.9535589927894
 10
103.9717759614202
 20
-139.9535589927894
 10
103.7475002453305
 20
-139.9535589927894
 10
103.7475002453305
 20
-139.9535589927894
 97
        0
 97
        1
330
CF
 75
     2
 76
     1
 98
        1
 10
0.0
 20
0.0
450
        0
451
        0
460
0.0
461
0.0
452
        0
462
0.0
453
        0
470

  0
ENDBLK
  5
CC
330
C9
100
AcDbEntity
  8
0
100
AcDbBlockEnd
  0
BLOCK
  5
D5
330
D3
100
AcDbEntity
  8
0
100
AcDbBlockBegin
  2
Block_4
 70
     0
 10
0.0
 20
0.0
 30
0.0
  3
Block_4
  1

  0
SPLINE
  5
D7
330
D3
100
AcDbEntity
  8
レイヤー 1
100
AcDbSpline
210
0.0
220
0.0
230
1.0
 70
     9
 71
     3
 72
    17
 73
    13
 74
     0
 42
0.0000000001
 43
0.0000000001
 40
0.0
 40
0.0
 40
0.0
 40
0.0
 40
1.0
 40
1.0
 40
1.0
 40
2.0
 40
2.0
 40
2.0
 40
3.0
 40
3.0
 40
3.0
 40
4.0
 40
4.0
 40
4.0
 40
4.0
 10
87.25393335492263
 20
-149.9281439512332
 30
0.0
 10
87.25393335492263
 20
-150.0718044329682
 30
0.0
 10
87.34057750637665
 20
-150.2244221629647
 30
0.0
 10
87.54366588523215
 20
-150.2244221629647
 30
0.0
 10
87.74882132137877
 20
-150.2244221629647
 30
0.0
 10
87.85045163819365
 20
-150.097298139559
 30
0.0
 10
87.85045163819365
 20
-149.9281439512332
 30
0.0
 10
87.85045163819365
 20
-149.7421087950297
 30
0.0
 10
87.72780623891874
 20
-149.6318657395017
 30
0.0
 10
87.55003931187985
 20
-149.6318657395017
 30
0.0
 10
87.32783065308124
 20
-149.6318657395017
 30
0.0
 10
87.25393335492263
 20
-149.7948187559541
 30
0.0
 10
87.25393335492263
 20
-149.9281439512332
 30
0.0
  0
SPLINE
  5
D8
330
D3
100
AcDbEntity
  8
レイヤー 1
100
AcDbSpline
210
0.0
220
0.0
230
1.0
 70
     9
 71
     3
 72
    17
 73
    13
 74
     0
 42
0.0000000001
 43
0.0000000001
 40
0.0
 40
0.0
 40
0.0
 40
0.0
 40
1.0
 40
1.0
 40
1.0
 40
2.0
 40
2.0
 40
2.0
 40
3.0
 40
3.0
 40
3.0
 40
4.0
 40
4.0
 40
4.0
 40
4.0
 10
86.59385305994875
 20
-149.9281439512332
 30
0.0
 10
86.59385305994875
 20
-150.0931640249767
 30
0.0
 10
86.68893769534166
 20
-150.1779133739138
 30
0.0
 10
86.82432994791197
 20
-150.1779133739138
 30
0.0
 10
86.94714760196113
 20
-150.1779133739138
 30
0.0
 10
87.06565888665371
 20
-150.1059108782721
 30
0.0
 10
87.06565888665371
 20
-149.9281439512332
 30
0.0
 10
87.06565888665371
 20
-149.7503770241943
 30
0.0
 10
86.94714760196113
 20
-149.6783745285526
 30
0.0
 10
86.82432994791197
 20
-149.6783745285526
 30
0.0
 10
86.68893769534166
 20
-149.6783745285526
 30
0.0
 10
86.59385305994875
 20
-149.7651909347809
 30
0.0
 10
86.59385305994875
 20
-149.9281439512332
 30
0.0
  0
SPLINE
  5
D9
330
D3
100
AcDbEntity
  8
レイヤー 1
100
AcDbSpline
210
0.0
220
0.0
230
1.0
 70
     9
 71
     3
 72
    29
 73
    25
 74
     0
 42
0.0000000001
 43
0.0000000001
 40
0.0
 40
0.0
 40
0.0
 40
0.0
 40
1.0
 40
1.0
 40
1.0
 40
2.0
 40
2.0
 40
2.0
 40
3.0
 40
3.0
 40
3.0
 40
4.0
 40
4.0
 40
4.0
 40
5.0
 40
5.0
 40
5.0
 40
6.0
 40
6.0
 40
6.0
 40
7.0
 40
7.0
 40
7.0
 40
8.0
 40
8.0
 40
8.0
 40
8.0
 10
88.04509953311026
 20
-149.9281439512332
 30
0.0
 10
88.04509953311026
 20
-150.1947943417915
 30
0.0
 10
87.90746796847452
 20
-150.4486978790545
 30
0.0
 10
87.5584797958187
 20
-150.4486978790545
 30
0.0
 10
87.30250920126465
 20
-150.4486978790545
 30
0.0
 10
87.20725231109749
 20
-150.3067599450622
 30
0.0
 10
87.14592961146005
 20
-150.200995513665
 30
0.0
 10
87.08667396911375
 20
-150.3257079702311
 30
0.0
 10
86.97246905377772
 20
-150.4018445804551
 30
0.0
 10
86.81175534939082
 20
-150.4018445804551
 30
0.0
 10
86.53666447489362
 20
-150.4018445804551
 30
0.0
 10
86.40127222232329
 20
-150.2030625709562
 30
0.0
 10
86.40127222232329
 20
-149.9281439512332
 30
0.0
 10
86.40127222232329
 20
-149.6446125927972
 30
0.0
 10
86.54510495883249
 20
-149.4540988124628
 30
0.0
 10
86.81175534939082
 20
-149.4540988124628
 30
0.0
 10
86.97246905377772
 20
-149.4540988124628
 30
0.0
 10
87.08667396911375
 20
-149.5326469895266
 30
0.0
 10
87.14592961146005
 20
-149.6573594460926
 30
0.0
 10
87.19674476986748
 20
-149.5684759825732
 30
0.0
 10
87.29200166003463
 20
-149.4096570807031
 30
0.0
 10
87.55434568123641
 20
-149.4096570807031
 30
0.0
 10
87.92865530570882
 20
-149.4096570807031
 30
0.0
 10
88.04509953311026
 20
-149.6890543245569
 30
0.0
 10
88.04509953311026
 20
-149.9281439512332
 30
0.0
  0
HATCH
  5
DA
330
D3
100
AcDbEntity
  8
レイヤー 1
 62
   250
420
  2299925
440
 33554687
100
AcDbHatch
 10
0.0
 20
0.0
 30
0.0
210
0.0
220
0.0
230
1.0
  2
SOLID
 70
     1
 71
     1
 91
        3
 92
        1
 93
        1
 72
     4
 94
        3
 73
     0
 74
     0
 95
       17
 96
       13
 40
0.0
 40
0.0
 40
0.0
 40
0.0
 40
1.0
 40
1.0
 40
1.0
 40
2.0
 40
2.0
 40
2.0
 40
3.0
 40
3.0
 40
3.0
 40
4.0
 40
4.0
 40
4.0
 40
4.0
 10
87.25393335492263
 20
-149.9281439512332
 10
87.25393335492263
 20
-150.0718044329682
 10
87.34057750637665
 20
-150.2244221629647
 10
87.54366588523215
 20
-150.2244221629647
 10
87.74882132137877
 20
-150.2244221629647
 10
87.85045163819365
 20
-150.097298139559
 10
87.85045163819365
 20
-149.9281439512332
 10
87.85045163819365
 20
-149.7421087950297
 10
87.72780623891874
 20
-149.6318657395017
 10
87.55003931187985
 20
-149.6318657395017
 10
87.32783065308124
 20
-149.6318657395017
 10
87.25393335492263
 20
-149.7948187559541
 10
87.25393335492263
 20
-149.9281439512332
 97
        0
 97
        1
330
D7
 92
        1
 93
        1
 72
     4
 94
        3
 73
     0
 74
     0
 95
       17
 96
       13
 40
0.0
 40
0.0
 40
0.0
 40
0.0
 40
1.0
 40
1.0
 40
1.0
 40
2.0
 40
2.0
 40
2.0
 40
3.0
 40
3.0
 40
3.0
 40
4.0
 40
4.0
 40
4.0
 40
4.0
 10
86.59385305994875
 20
-149.9281439512332
 10
86.59385305994875
 20
-150.0931640249767
 10
86.68893769534166
 20
-150.1779133739138
 10
86.82432994791197
 20
-150.1779133739138
 10
86.94714760196113
 20
-150.1779133739138
 10
87.06565888665371
 20
-150.1059108782721
 10
87.06565888665371
 20
-149.9281439512332
 10
87.06565888665371
 20
-149.7503770241943
 10
86.94714760196113
 20
-149.6783745285526
 10
86.82432994791197
 20
-149.6783745285526
 10
86.68893769534166
 20
-149.6783745285526
 10
86.59385305994875
 20
-149.7651909347809
 10
86.59385305994875
 20
-149.9281439512332
 97
        0
 97
        1
330
D8
 92
        1
 93
        1
 72
     4
 94
        3
 73
     0
 74
     0
 95
       29
 96
       25
 40
0.0
 40
0.0
 40
0.0
 40
0.0
 40
1.0
 40
1.0
 40
1.0
 40
2.0
 40
2.0
 40
2.0
 40
3.0
 40
3.0
 40
3.0
 40
4.0
 40
4.0
 40
4.0
 40
5.0
 40
5.0
 40
5.0
 40
6.0
 40
6.0
 40
6.0
 40
7.0
 40
7.0
 40
7.0
 40
8.0
 40
8.0
 40
8.0
 40
8.0
 10
88.04509953311026
 20
-149.9281439512332
 10
88.04509953311026
 20
-150.1947943417915
 10
87.90746796847452
 20
-150.4486978790545
 10
87.5584797958187
 20
-150.4486978790545
 10
87.30250920126465
 20
-150.4486978790545
 10
87.20725231109749
 20
-150.3067599450622
 10
87.14592961146005
 20
-150.200995513665
 10
87.08667396911375
 20
-150.3257079702311
 10
86.97246905377772
 20
-150.4018445804551
 10
86.81175534939082
 20
-150.4018445804551
 10
86.53666447489362
 20
-150.4018445804551
 10
86.40127222232329
 20
-150.2030625709562
 10
86.40127222232329
 20
-149.9281439512332
 10
86.40127222232329
 20
-149.6446125927972
 10
86.54510495883249
 20
-149.4540988124628
 10
86.81175534939082
 20
-149.4540988124628
 10
86.97246905377772
 20
-149.4540988124628
 10
87.08667396911375
 20
-149.5326469895266
 10
87.14592961146005
 20
-149.6573594460926
 10
87.19674476986748
 20
-149.5684759825732
 10
87.29200166003463
 20
-149.4096570807031
 10
87.55434568123641
 20
-149.4096570807031
 10
87.92865530570882
 20
-149.4096570807031
 10
88.04509953311026
 20
-149.6890543245569
 10
88.04509953311026
 20
-149.9281439512332
 97
        0
 97
        1
330
D9
 75
     2
 76
     1
 98
        1
 10
0.0
 20
0.0
450
        0
451
        0
460
0.0
461
0.0
452
        0
462
0.0
453
        0
470

  0
ENDBLK
  5
D6
330
D3
100
AcDbEntity
  8
0
100
AcDbBlockEnd
  0
BLOCK
  5
E0
330
DE
100
AcDbEntity
  8
0
100
AcDbBlockBegin
  2
Block_5
 70
     0
 10
0.0
 20
0.0
 30
0.0
  3
Block_5
  1

  0
SPLINE
  5
E2
330
DE
100
AcDbEntity
  8
レイヤー 1
100
AcDbSpline
210
0.0
220
0.0
230
1.0
 70
     9
 71
     3
 72
    53
 73
    49
 74
     0
 42
0.0000000001
 43
0.0000000001
 40
0.0
 40
0.0
 40
0.0
 40
0.0
 40
1.0
 40
1.0
 40
1.0
 40
2.0
 40
2.0
 40
2.0
 40
3.0
 40
3.0
 40
3.0
 40
4.0
 40
4.0
 40
4.0
 40
5.0
 40
5.0
 40
5.0
 40
6.0
 40
6.0
 40
6.0
 40
7.0
 40
7.0
 40
7.0
 40
8.0
 40
8.0
 40
8.0
 40
9.0
 40
9.0
 40
9.0
 40
10.0
 40
10.0
 40
10.0
 40
11.0
 40
11.0
 40
11.0
 40
12.0
 40
12.0
 40
12.0
 40
13.0
 40
13.0
 40
13.0
 40
14.0
 40
14.0
 40
14.0
 40
15.0
 40
15.0
 40
15.0
 40
16.0
 40
16.0
 40
16.0
 40
16.0
 10
116.1896348450845
 20
-140.0035128773255
 30
0.0
 10
116.1114311775693
 20
-140.0035128773255
 30
0.0
 10
116.0098008607545
 20
-139.9866319094478
 30
0.0
 10
115.9081705439396
 20
-139.9230698977449
 30
0.0
 10
115.7348822410315
 20
-139.8129990969912
 30
0.0
 10
115.713522649023
 20
-139.6819132137774
 30
0.0
 10
115.6945746238541
 20
-139.5740817250891
 30
0.0
 10
115.6945746238541
 20
-139.5740817250891
 30
0.0
 10
115.9167832826527
 20
-139.5740817250891
 30
0.0
 10
115.9167832826527
 20
-139.5740817250891
 30
0.0
 10
115.9715603008682
 20
-139.772863734588
 30
0.0
 10
116.0986843242739
 20
-139.8024915557612
 30
0.0
 10
116.1917019023757
 20
-139.8024915557612
 30
0.0
 10
116.3312282695283
 20
-139.8024915557612
 30
0.0
 10
116.4835014899763
 20
-139.7031005510117
 30
0.0
 10
116.4835014899763
 20
-139.4703843509831
 30
0.0
 10
116.4835014899763
 20
-139.214413756429
 30
0.0
 10
116.3036675056463
 20
-139.1446505728527
 30
0.0
 10
116.1830891636626
 20
-139.1446505728527
 30
0.0
 10
116.1513942851982
 20
-139.1446505728527
 30
0.0
 10
116.0098008607545
 20
-139.1446505728527
 30
0.0
 10
115.920917397235
 20
-139.2736693987753
 30
0.0
 10
115.920917397235
 20
-139.2736693987753
 30
0.0
 10
115.7452175274873
 20
-139.2545491188322
 30
0.0
 10
115.7452175274873
 20
-139.2545491188322
 30
0.0
 10
115.7452175274873
 20
-139.2545491188322
 30
0.0
 10
115.865795869471
 20
-138.4084336676548
 30
0.0
 10
115.865795869471
 20
-138.4084336676548
 30
0.0
 10
115.865795869471
 20
-138.4084336676548
 30
0.0
 10
116.6443874491375
 20
-138.4084336676548
 30
0.0
 10
116.6443874491375
 20
-138.4084336676548
 30
0.0
 10
116.6443874491375
 20
-138.4084336676548
 30
0.0
 10
116.6443874491375
 20
-138.6030815625714
 30
0.0
 10
116.6443874491375
 20
-138.6030815625714
 30
0.0
 10
116.6443874491375
 20
-138.6030815625714
 30
0.0
 10
116.0287488859234
 20
-138.6030815625714
 30
0.0
 10
116.0287488859234
 20
-138.6030815625714
 30
0.0
 10
116.0287488859234
 20
-138.6030815625714
 30
0.0
 10
115.9632920717036
 20
-139.0261392881601
 30
0.0
 10
115.9632920717036
 20
-139.0261392881601
 30
0.0
 10
116.024614771341
 20
-138.9922050976304
 30
0.0
 10
116.1069525534385
 20
-138.9520697352272
 30
0.0
 10
116.2254638381311
 20
-138.9520697352272
 30
0.0
 10
116.479367375394
 20
-138.9520697352272
 30
0.0
 10
116.7163899447792
 20
-139.138277146205
 30
0.0
 10
116.7163899447792
 20
-139.4512640710399
 30
0.0
 10
116.7163899447792
 20
-139.7687296200057
 30
0.0
 10
116.4921142286895
 20
-140.0035128773255
 30
0.0
 10
116.1896348450845
 20
-140.0035128773255
 30
0.0
  0
HATCH
  5
E3
330
DE
100
AcDbEntity
  8
レイヤー 1
 62
   250
420
  2299925
440
 33554687
100
AcDbHatch
 10
0.0
 20
0.0
 30
0.0
210
0.0
220
0.0
230
1.0
  2
SOLID
 70
     1
 71
     1
 91
        1
 92
        1
 93
        1
 72
     4
 94
        3
 73
     0
 74
     0
 95
       53
 96
       49
 40
0.0
 40
0.0
 40
0.0
 40
0.0
 40
1.0
 40
1.0
 40
1.0
 40
2.0
 40
2.0
 40
2.0
 40
3.0
 40
3.0
 40
3.0
 40
4.0
 40
4.0
 40
4.0
 40
5.0
 40
5.0
 40
5.0
 40
6.0
 40
6.0
 40
6.0
 40
7.0
 40
7.0
 40
7.0
 40
8.0
 40
8.0
 40
8.0
 40
9.0
 40
9.0
 40
9.0
 40
10.0
 40
10.0
 40
10.0
 40
11.0
 40
11.0
 40
11.0
 40
12.0
 40
12.0
 40
12.0
 40
13.0
 40
13.0
 40
13.0
 40
14.0
 40
14.0
 40
14.0
 40
15.0
 40
15.0
 40
15.0
 40
16.0
 40
16.0
 40
16.0
 40
16.0
 10
116.1896348450845
 20
-140.0035128773255
 10
116.1114311775693
 20
-140.0035128773255
 10
116.0098008607545
 20
-139.9866319094478
 10
115.9081705439396
 20
-139.9230698977449
 10
115.7348822410315
 20
-139.8129990969912
 10
115.713522649023
 20
-139.6819132137774
 10
115.6945746238541
 20
-139.5740817250891
 10
115.6945746238541
 20
-139.5740817250891
 10
115.9167832826527
 20
-139.5740817250891
 10
115.9167832826527
 20
-139.5740817250891
 10
115.9715603008682
 20
-139.772863734588
 10
116.0986843242739
 20
-139.8024915557612
 10
116.1917019023757
 20
-139.8024915557612
 10
116.3312282695283
 20
-139.8024915557612
 10
116.4835014899763
 20
-139.7031005510117
 10
116.4835014899763
 20
-139.4703843509831
 10
116.4835014899763
 20
-139.214413756429
 10
116.3036675056463
 20
-139.1446505728527
 10
116.1830891636626
 20
-139.1446505728527
 10
116.1513942851982
 20
-139.1446505728527
 10
116.0098008607545
 20
-139.1446505728527
 10
115.920917397235
 20
-139.2736693987753
 10
115.920917397235
 20
-139.2736693987753
 10
115.7452175274873
 20
-139.2545491188322
 10
115.7452175274873
 20
-139.2545491188322
 10
115.7452175274873
 20
-139.2545491188322
 10
115.865795869471
 20
-138.4084336676548
 10
115.865795869471
 20
-138.4084336676548
 10
115.865795869471
 20
-138.4084336676548
 10
116.6443874491375
 20
-138.4084336676548
 10
116.6443874491375
 20
-138.4084336676548
 10
116.6443874491375
 20
-138.4084336676548
 10
116.6443874491375
 20
-138.6030815625714
 10
116.6443874491375
 20
-138.6030815625714
 10
116.6443874491375
 20
-138.6030815625714
 10
116.0287488859234
 20
-138.6030815625714
 10
116.0287488859234
 20
-138.6030815625714
 10
116.0287488859234
 20
-138.6030815625714
 10
115.9632920717036
 20
-139.0261392881601
 10
115.9632920717036
 20
-139.0261392881601
 10
116.024614771341
 20
-138.9922050976304
 10
116.1069525534385
 20
-138.9520697352272
 10
116.2254638381311
 20
-138.9520697352272
 10
116.479367375394
 20
-138.9520697352272
 10
116.7163899447792
 20
-139.138277146205
 10
116.7163899447792
 20
-139.4512640710399
 10
116.7163899447792
 20
-139.7687296200057
 10
116.4921142286895
 20
-140.0035128773255
 10
116.1896348450845
 20
-140.0035128773255
 97
        0
 97
        1
330
E2
 75
     2
 76
     1
 98
        1
 10
0.0
 20
0.0
450
        0
451
        0
460
0.0
461
0.0
452
        0
462
0.0
453
        0
470

  0
ENDBLK
  5
E1
330
DE
100
AcDbEntity
  8
0
100
AcDbBlockEnd
  0
BLOCK
  5
EB
330
E9
100
AcDbEntity
  8
0
100
AcDbBlockBegin
  2
Block_6
 70
     0
 10
0.0
 20
0.0
 30
0.0
  3
Block_6
  1

  0
SPLINE
  5
ED
330
E9
100
AcDbEntity
  8
レイヤー 1
100
AcDbSpline
210
0.0
220
0.0
230
1.0
 70
     9
 71
     3
 72
    26
 73
    22
 74
     0
 42
0.0000000001
 43
0.0000000001
 40
0.0
 40
0.0
 40
0.0
 40
0.0
 40
1.0
 40
1.0
 40
1.0
 40
2.0
 40
2.0
 40
2.0
 40
3.0
 40
3.0
 40
3.0
 40
4.0
 40
4.0
 40
4.0
 40
5.0
 40
5.0
 40
5.0
 40
6.0
 40
6.0
 40
6.0
 40
7.0
 40
7.0
 40
7.0
 40
7.0
 10
116.1196994067339
 20
-157.329587091744
 30
0.0
 10
116.1196994067339
 20
-157.329587091744
 30
0.0
 10
115.8826768373488
 20
-157.329587091744
 30
0.0
 10
115.8826768373488
 20
-157.329587091744
 30
0.0
 10
115.9081705439396
 20
-157.0205620267171
 30
0.0
 10
116.1007513815651
 20
-156.5024196657355
 30
0.0
 10
116.506928139276
 20
-155.9966796485008
 30
0.0
 10
116.506928139276
 20
-155.9966796485008
 30
0.0
 10
115.6690809172633
 20
-155.9966796485008
 30
0.0
 10
115.6690809172633
 20
-155.9966796485008
 30
0.0
 10
115.6690809172633
 20
-155.9966796485008
 30
0.0
 10
115.6690809172633
 20
-155.7851507857065
 30
0.0
 10
115.6690809172633
 20
-155.7851507857065
 30
0.0
 10
115.6690809172633
 20
-155.7851507857065
 30
0.0
 10
116.7439507086612
 20
-155.7851507857065
 30
0.0
 10
116.7439507086612
 20
-155.7851507857065
 30
0.0
 10
116.7439507086612
 20
-155.7851507857065
 30
0.0
 10
116.7439507086612
 20
-155.9966796485008
 30
0.0
 10
116.7439507086612
 20
-155.9966796485008
 30
0.0
 10
116.4201117330477
 20
-156.2867566883588
 30
0.0
 10
116.1534613424894
 20
-156.8789686022733
 30
0.0
 10
116.1196994067339
 20
-157.329587091744
 30
0.0
  0
HATCH
  5
EE
330
E9
100
AcDbEntity
  8
レイヤー 1
 62
   250
420
  2299925
440
 33554687
100
AcDbHatch
 10
0.0
 20
0.0
 30
0.0
210
0.0
220
0.0
230
1.0
  2
SOLID
 70
     1
 71
     1
 91
        1
 92
        1
 93
        1
 72
     4
 94
        3
 73
     0
 74
     0
 95
       26
 96
       22
 40
0.0
 40
0.0
 40
0.0
 40
0.0
 40
1.0
 40
1.0
 40
1.0
 40
2.0
 40
2.0
 40
2.0
 40
3.0
 40
3.0
 40
3.0
 40
4.0
 40
4.0
 40
4.0
 40
5.0
 40
5.0
 40
5.0
 40
6.0
 40
6.0
 40
6.0
 40
7.0
 40
7.0
 40
7.0
 40
7.0
 10
116.1196994067339
 20
-157.329587091744
 10
116.1196994067339
 20
-157.329587091744
 10
115.8826768373488
 20
-157.329587091744
 10
115.8826768373488
 20
-157.329587091744
 10
115.9081705439396
 20
-157.0205620267171
 10
116.1007513815651
 20
-156.5024196657355
 10
116.506928139276
 20
-155.9966796485008
 10
116.506928139276
 20
-155.9966796485008
 10
115.6690809172633
 20
-155.9966796485008
 10
115.6690809172633
 20
-155.9966796485008
 10
115.6690809172633
 20
-155.9966796485008
 10
115.6690809172633
 20
-155.7851507857065
 10
115.6690809172633
 20
-155.7851507857065
 10
115.6690809172633
 20
-155.7851507857065
 10
116.7439507086612
 20
-155.7851507857065
 10
116.7439507086612
 20
-155.7851507857065
 10
116.7439507086612
 20
-155.7851507857065
 10
116.7439507086612
 20
-155.9966796485008
 10
116.7439507086612
 20
-155.9966796485008
 10
116.4201117330477
 20
-156.2867566883588
 10
116.1534613424894
 20
-156.8789686022733
 10
116.1196994067339
 20
-157.329587091744
 97
        0
 97
        1
330
ED
 75
     2
 76
     1
 98
        1
 10
0.0
 20
0.0
450
        0
451
        0
460
0.0
461
0.0
452
        0
462
0.0
453
        0
470

  0
ENDBLK
  5
EC
330
E9
100
AcDbEntity
  8
0
100
AcDbBlockEnd
  0
BLOCK
  5
F3
330
F1
100
AcDbEntity
  8
0
100
AcDbBlockBegin
  2
Block_7
 70
     0
 10
0.0
 20
0.0
 30
0.0
  3
Block_7
  1

  0
SPLINE
  5
F5
330
F1
100
AcDbEntity
  8
レイヤー 1
100
AcDbSpline
210
0.0
220
0.0
230
1.0
 70
    11
 71
     3
 72
    26
 73
    22
 74
     0
 42
0.0000000001
 43
0.0000000001
 40
0.0
 40
0.0
 40
0.0
 40
0.0
 40
1.0
 40
1.0
 40
1.0
 40
2.0
 40
2.0
 40
2.0
 40
3.0
 40
3.0
 40
3.0
 40
4.0
 40
4.0
 40
4.0
 40
5.0
 40
5.0
 40
5.0
 40
6.0
 40
6.0
 40
6.0
 40
7.0
 40
7.0
 40
7.0
 40
7.0
 10
121.6108371006737
 20
-149.3063042161456
 30
0.0
 10
121.6108371006737
 20
-149.3063042161456
 30
0.0
 10
121.6108371006737
 20
-148.2019788583488
 30
0.0
 10
121.6108371006737
 20
-148.2019788583488
 30
0.0
 10
121.6108371006737
 20
-148.2019788583488
 30
0.0
 10
121.2807969531867
 20
-148.2019788583488
 30
0.0
 10
121.2807969531867
 20
-148.2019788583488
 30
0.0
 10
121.2807969531867
 20
-148.2019788583488
 30
0.0
 10
121.2807969531867
 20
-148.053839752483
 30
0.0
 10
121.2807969531867
 20
-148.053839752483
 30
0.0
 10
121.6129041579648
 20
-148.0391980966707
 30
0.0
 10
121.6594129470157
 20
-147.8762450802184
 30
0.0
 10
121.6890407681888
 20
-147.7620401648824
 30
0.0
 10
121.6890407681888
 20
-147.7620401648824
 30
0.0
 10
121.8351128167634
 20
-147.7620401648824
 30
0.0
 10
121.8351128167634
 20
-147.7620401648824
 30
0.0
 10
121.8351128167634
 20
-147.7620401648824
 30
0.0
 10
121.8351128167634
 20
-149.3063042161456
 30
0.0
 10
121.8351128167634
 20
-149.3063042161456
 30
0.0
 10
121.8351128167634
 20
-149.3063042161456
 30
0.0
 10
121.6108371006737
 20
-149.3063042161456
 30
0.0
 10
121.6108371006737
 20
-149.3063042161456
 30
0.0
  0
HATCH
  5
F6
330
F1
100
AcDbEntity
  8
レイヤー 1
 62
   250
420
  2299925
440
 33554687
100
AcDbHatch
 10
0.0
 20
0.0
 30
0.0
210
0.0
220
0.0
230
1.0
  2
SOLID
 70
     1
 71
     1
 91
        1
 92
        1
 93
        1
 72
     4
 94
        3
 73
     0
 74
     0
 95
       26
 96
       22
 40
0.0
 40
0.0
 40
0.0
 40
0.0
 40
1.0
 40
1.0
 40
1.0
 40
2.0
 40
2.0
 40
2.0
 40
3.0
 40
3.0
 40
3.0
 40
4.0
 40
4.0
 40
4.0
 40
5.0
 40
5.0
 40
5.0
 40
6.0
 40
6.0
 40
6.0
 40
7.0
 40
7.0
 40
7.0
 40
7.0
 10
121.6108371006737
 20
-149.3063042161456
 10
121.6108371006737
 20
-149.3063042161456
 10
121.6108371006737
 20
-148.2019788583488
 10
121.6108371006737
 20
-148.2019788583488
 10
121.6108371006737
 20
-148.2019788583488
 10
121.2807969531867
 20
-148.2019788583488
 10
121.2807969531867
 20
-148.2019788583488
 10
121.2807969531867
 20
-148.2019788583488
 10
121.2807969531867
 20
-148.053839752483
 10
121.2807969531867
 20
-148.053839752483
 10
121.6129041579648
 20
-148.0391980966707
 10
121.6594129470157
 20
-147.8762450802184
 10
121.6890407681888
 20
-147.7620401648824
 10
121.6890407681888
 20
-147.7620401648824
 10
121.8351128167634
 20
-147.7620401648824
 10
121.8351128167634
 20
-147.7620401648824
 10
121.8351128167634
 20
-147.7620401648824
 10
121.8351128167634
 20
-149.3063042161456
 10
121.8351128167634
 20
-149.3063042161456
 10
121.8351128167634
 20
-149.3063042161456
 10
121.6108371006737
 20
-149.3063042161456
 10
121.6108371006737
 20
-149.3063042161456
 97
        0
 97
        1
330
F5
 75
     2
 76
     1
 98
        1
 10
0.0
 20
0.0
450
        0
451
        0
460
0.0
461
0.0
452
        0
462
0.0
453
        0
470

  0
ENDBLK
  5
F4
330
F1
100
AcDbEntity
  8
0
100
AcDbBlockEnd
  0
BLOCK
  5
FB
330
F9
100
AcDbEntity
  8
0
100
AcDbBlockBegin
  2
Block_8
 70
     0
 10
0.0
 20
0.0
 30
0.0
  3
Block_8
  1

  0
INSERT
  5
FE
330
F9
100
AcDbEntity
  8
レイヤー 1
100
AcDbBlockReference
  2
Block_9
 10
0.0
 20
0.0
 30
0.0
  0
INSERT
  5
105
330
F9
100
AcDbEntity
  8
レイヤー 1
100
AcDbBlockReference
  2
Block_10
 10
0.0
 20
0.0
 30
0.0
  0
ENDBLK
  5
FC
330
F9
100
AcDbEntity
  8
0
100
AcDbBlockEnd
  0
BLOCK
  5
FF
330
FD
100
AcDbEntity
  8
0
100
AcDbBlockBegin
  2
Block_9
 70
     0
 10
0.0
 20
0.0
 30
0.0
  3
Block_9
  1

  0
LINE
  5
101
330
FD
100
AcDbEntity
  8
レイヤー 1
 62
    18
420
        0
370
     9
100
AcDbLine
 10
96.96482944394469
 20
-146.9318278188744
 30
0.0
 11
97.77614775657925
 21
-147.5168039298393
 31
0.0
  0
LINE
  5
102
330
FD
100
AcDbEntity
  8
レイヤー 1
 62
    18
420
        0
370
     9
100
AcDbLine
 10
96.96482944394469
 20
-146.9318278188744
 30
0.0
 11
99.54243548929561
 21
-150.0889419847522
 31
0.0
  0
LINE
  5
103
330
FD
100
AcDbEntity
  8
レイヤー 1
 62
    18
420
        0
370
     9
100
AcDbLine
 10
96.96482944394469
 20
-146.9318278188744
 30
0.0
 11
97.37514526681
 21
-147.8441111519801
 31
0.0
  0
ENDBLK
  5
100
330
FD
100
AcDbEntity
  8
0
100
AcDbBlockEnd
  0
BLOCK
  5
106
330
104
100
AcDbEntity
  8
0
100
AcDbBlockBegin
  2
Block_10
 70
     0
 10
0.0
 20
0.0
 30
0.0
  3
Block_10
  1

  0
INSERT
  5
109
330
104
100
AcDbEntity
  8
レイヤー 1
100
AcDbBlockReference
  2
Block_11
 10
0.0
 20
0.0
 30
0.0
  0
ENDBLK
  5
107
330
104
100
AcDbEntity
  8
0
100
AcDbBlockEnd
  0
BLOCK
  5
10A
330
108
100
AcDbEntity
  8
0
100
AcDbBlockBegin
  2
Block_11
 70
     0
 10
0.0
 20
0.0
 30
0.0
  3
Block_11
  1

  0
SPLINE
  5
10C
330
108
100
AcDbEntity
  8
レイヤー 1
100
AcDbSpline
210
0.0
220
0.0
230
1.0
 70
     9
 71
     3
 72
    17
 73
    13
 74
     0
 42
0.0000000001
 43
0.0000000001
 40
0.0
 40
0.0
 40
0.0
 40
0.0
 40
1.0
 40
1.0
 40
1.0
 40
2.0
 40
2.0
 40
2.0
 40
3.0
 40
3.0
 40
3.0
 40
4.0
 40
4.0
 40
4.0
 40
4.0
 10
101.2088093822498
 20
-150.5365478139284
 30
0.0
 10
101.1919284143721
 20
-150.5661756351015
 30
0.0
 10
101.1411132559647
 20
-150.6595377227518
 30
0.0
 10
101.1306057147347
 20
-150.6784857479206
 30
0.0
 10
101.3209472402947
 20
-150.7377413902669
 30
0.0
 10
101.342134577529
 20
-150.7439425621404
 30
0.0
 10
101.4141370731707
 20
-150.7715033260224
 30
0.0
 10
101.4690863461605
 20
-150.6846869197941
 30
0.0
 10
101.4923407406859
 20
-150.6106173668612
 30
0.0
 10
101.5071546512725
 20
-150.5365478139284
 30
0.0
 10
101.5071546512725
 20
-150.5365478139284
 30
0.0
 10
101.2088093822498
 20
-150.5365478139284
 30
0.0
 10
101.2088093822498
 20
-150.5365478139284
 30
0.0
  0
SPLINE
  5
10D
330
108
100
AcDbEntity
  8
レイヤー 1
100
AcDbSpline
210
0.0
220
0.0
230
1.0
 70
    11
 71
     3
 72
    20
 73
    16
 74
     0
 42
0.0000000001
 43
0.0000000001
 40
0.0
 40
0.0
 40
0.0
 40
0.0
 40
1.0
 40
1.0
 40
1.0
 40
2.0
 40
2.0
 40
2.0
 40
3.0
 40
3.0
 40
3.0
 40
4.0
 40
4.0
 40
4.0
 40
5.0
 40
5.0
 40
5.0
 40
5.0
 10
101.1454196253213
 20
-149.6862982481687
 30
0.0
 10
101.1454196253213
 20
-149.6862982481687
 30
0.0
 10
101.113724746857
 20
-149.6862982481687
 30
0.0
 10
101.113724746857
 20
-149.6862982481687
 30
0.0
 10
101.1602335359078
 20
-149.7855169981439
 30
0.0
 10
101.1919284143721
 20
-149.8661322324987
 30
0.0
 10
101.2258626049018
 20
-149.9929117463559
 30
0.0
 10
101.2258626049018
 20
-149.9929117463559
 30
0.0
 10
101.4330850983396
 20
-149.9929117463559
 30
0.0
 10
101.4330850983396
 20
-149.9929117463559
 30
0.0
 10
101.4647799768039
 20
-149.8998941682542
 30
0.0
 10
101.4880343713294
 20
-149.815144819317
 30
0.0
 10
101.5114610206291
 20
-149.6862982481687
 30
0.0
 10
101.5114610206291
 20
-149.6862982481687
 30
0.0
 10
101.1454196253213
 20
-149.6862982481687
 30
0.0
 10
101.1454196253213
 20
-149.6862982481687
 30
0.0
  0
SPLINE
  5
10E
330
108
100
AcDbEntity
  8
レイヤー 1
100
AcDbSpline
210
0.0
220
0.0
230
1.0
 70
     9
 71
     3
 72
   242
 73
   238
 74
     0
 42
0.0000000001
 43
0.0000000001
 40
0.0
 40
0.0
 40
0.0
 40
0.0
 40
1.0
 40
1.0
 40
1.0
 40
2.0
 40
2.0
 40
2.0
 40
3.0
 40
3.0
 40
3.0
 40
4.0
 40
4.0
 40
4.0
 40
5.0
 40
5.0
 40
5.0
 40
6.0
 40
6.0
 40
6.0
 40
7.0
 40
7.0
 40
7.0
 40
8.0
 40
8.0
 40
8.0
 40
9.0
 40
9.0
 40
9.0
 40
10.0
 40
10.0
 40
10.0
 40
11.0
 40
11.0
 40
11.0
 40
12.0
 40
12.0
 40
12.0
 40
13.0
 40
13.0
 40
13.0
 40
14.0
 40
14.0
 40
14.0
 40
15.0
 40
15.0
 40
15.0
 40
16.0
 40
16.0
 40
16.0
 40
17.0
 40
17.0
 40
17.0
 40
18.0
 40
18.0
 40
18.0
 40
19.0
 40
19.0
 40
19.0
 40
20.0
 40
20.0
 40
20.0
 40
21.0
 40
21.0
 40
21.0
 40
22.0
 40
22.0
 40
22.0
 40
23.0
 40
23.0
 40
23.0
 40
24.0
 40
24.0
 40
24.0
 40
25.0
 40
25.0
 40
25.0
 40
26.0
 40
26.0
 40
26.0
 40
27.0
 40
27.0
 40
27.0
 40
28.0
 40
28.0
 40
28.0
 40
29.0
 40
29.0
 40
29.0
 40
30.0
 40
30.0
 40
30.0
 40
31.0
 40
31.0
 40
31.0
 40
32.0
 40
32.0
 40
32.0
 40
33.0
 40
33.0
 40
33.0
 40
34.0
 40
34.0
 40
34.0
 40
35.0
 40
35.0
 40
35.0
 40
36.0
 40
36.0
 40
36.0
 40
37.0
 40
37.0
 40
37.0
 40
38.0
 40
38.0
 40
38.0
 40
39.0
 40
39.0
 40
39.0
 40
40.0
 40
40.0
 40
40.0
 40
41.0
 40
41.0
 40
41.0
 40
42.0
 40
42.0
 40
42.0
 40
43.0
 40
43.0
 40
43.0
 40
44.0
 40
44.0
 40
44.0
 40
45.0
 40
45.0
 40
45.0
 40
46.0
 40
46.0
 40
46.0
 40
47.0
 40
47.0
 40
47.0
 40
48.0
 40
48.0
 40
48.0
 40
49.0
 40
49.0
 40
49.0
 40
50.0
 40
50.0
 40
50.0
 40
51.0
 40
51.0
 40
51.0
 40
52.0
 40
52.0
 40
52.0
 40
53.0
 40
53.0
 40
53.0
 40
54.0
 40
54.0
 40
54.0
 40
55.0
 40
55.0
 40
55.0
 40
56.0
 40
56.0
 40
56.0
 40
57.0
 40
57.0
 40
57.0
 40
58.0
 40
58.0
 40
58.0
 40
59.0
 40
59.0
 40
59.0
 40
60.0
 40
60.0
 40
60.0
 40
61.0
 40
61.0
 40
61.0
 40
62.0
 40
62.0
 40
62.0
 40
63.0
 40
63.0
 40
63.0
 40
64.0
 40
64.0
 40
64.0
 40
65.0
 40
65.0
 40
65.0
 40
66.0
 40
66.0
 40
66.0
 40
67.0
 40
67.0
 40
67.0
 40
68.0
 40
68.0
 40
68.0
 40
69.0
 40
69.0
 40
69.0
 40
70.0
 40
70.0
 40
70.0
 40
71.0
 40
71.0
 40
71.0
 40
72.0
 40
72.0
 40
72.0
 40
73.0
 40
73.0
 40
73.0
 40
74.0
 40
74.0
 40
74.0
 40
75.0
 40
75.0
 40
75.0
 40
76.0
 40
76.0
 40
76.0
 40
77.0
 40
77.0
 40
77.0
 40
78.0
 40
78.0
 40
78.0
 40
79.0
 40
79.0
 40
79.0
 40
79.0
 10
101.7736327870566
 20
-150.1517306482259
 30
0.0
 10
101.7736327870566
 20
-150.1517306482259
 30
0.0
 10
101.5199015045679
 20
-150.1517306482259
 30
0.0
 10
101.5199015045679
 20
-150.1517306482259
 30
0.0
 10
101.5199015045679
 20
-150.1517306482259
 30
0.0
 10
101.2427435727796
 20
-150.1517306482259
 30
0.0
 10
101.2427435727796
 20
-150.1517306482259
 30
0.0
 10
101.2427435727796
 20
-150.1517306482259
 30
0.0
 10
101.369695341411
 20
-150.1941053226945
 30
0.0
 10
101.369695341411
 20
-150.1941053226945
 30
0.0
 10
101.380202882641
 20
-150.1982394372768
 30
0.0
 10
101.3929497359365
 20
-150.2044406091503
 30
0.0
 10
101.3929497359365
 20
-150.2171874624457
 30
0.0
 10
101.3929497359365
 20
-150.2385470544543
 30
0.0
 10
101.3612548574722
 20
-150.2447482263277
 30
0.0
 10
101.3400675202379
 20
-150.24888234091
 30
0.0
 10
101.3293877242336
 20
-150.2723089902097
 30
0.0
 10
101.2997599030605
 20
-150.3377658044295
 30
0.0
 10
101.2808118778916
 20
-150.3822075361892
 30
0.0
 10
101.2808118778916
 20
-150.3822075361892
 30
0.0
 10
101.5515963830322
 20
-150.3822075361892
 30
0.0
 10
101.5515963830322
 20
-150.3822075361892
 30
0.0
 10
101.6425469038428
 20
-150.3822075361892
 30
0.0
 10
101.8392618560506
 20
-150.3780734216068
 30
0.0
 10
101.9810275352686
 20
-150.3694606828937
 30
0.0
 10
101.9810275352686
 20
-150.3694606828937
 30
0.0
 10
101.9810275352686
 20
-150.5472276099326
 30
0.0
 10
101.9810275352686
 20
-150.5472276099326
 30
0.0
 10
101.8985174983969
 20
-150.5430934953503
 30
0.0
 10
101.8773301611626
 20
-150.5430934953503
 30
0.0
 10
101.6974961768325
 20
-150.538959380768
 30
0.0
 10
101.6658012983683
 20
-150.6932996585072
 30
0.0
 10
101.6213595666085
 20
-150.7735703833136
 30
0.0
 10
101.5769178348488
 20
-150.8435058216641
 30
0.0
 10
101.6974961768325
 20
-150.9027614640104
 30
0.0
 10
101.8032606082297
 20
-150.9702853355213
 30
0.0
 10
101.9069579823357
 20
-151.0529676271673
 30
0.0
 10
101.9069579823357
 20
-151.0529676271673
 30
0.0
 10
101.7884466976431
 20
-151.2200547582019
 30
0.0
 10
101.7884466976431
 20
-151.2200547582019
 30
0.0
 10
101.7651923031177
 20
-151.2011067330331
 30
0.0
 10
101.7526177045966
 20
-151.1924939943199
 30
0.0
 10
101.6404798465517
 20
-151.1077446453828
 30
0.0
 10
101.5917317454354
 20
-151.069848595045
 30
0.0
 10
101.5324761030891
 20
-151.0336750924499
 30
0.0
 10
101.4522053782828
 20
-150.9892333606902
 30
0.0
 10
101.2406765154884
 20
-151.1756130264422
 30
0.0
 10
101.0353488245675
 20
-151.1986951661933
 30
0.0
 10
100.745616294258
 20
-151.2283229873665
 30
0.0
 10
100.745616294258
 20
-151.2283229873665
 30
0.0
 10
100.641918920152
 20
-151.0484890030365
 30
0.0
 10
100.641918920152
 20
-151.0484890030365
 30
0.0
 10
100.9592122143435
 20
-151.0443548884542
 30
0.0
 10
101.134739829317
 20
-151.0188611818633
 30
0.0
 10
101.2871853045393
 20
-150.9089626358839
 30
0.0
 10
101.1686740198467
 20
-150.8583197322507
 30
0.0
 10
101.0797905563272
 20
-150.8307589683687
 30
0.0
 10
101.0437893085064
 20
-150.8180121150733
 30
0.0
 10
101.0248412833375
 20
-150.8455728789552
 30
0.0
 10
101.0100273727509
 20
-150.8645209041241
 30
0.0
 10
100.982466608869
 20
-150.8982828398796
 30
0.0
 10
100.982466608869
 20
-150.8982828398796
 30
0.0
 10
100.7857516566612
 20
-150.8159450577821
 30
0.0
 10
100.7857516566612
 20
-150.8159450577821
 30
0.0
 10
100.8682616935329
 20
-150.7356743329758
 30
0.0
 10
100.9295843931704
 20
-150.6402451880344
 30
0.0
 10
100.9867729782255
 20
-150.538959380768
 30
0.0
 10
100.7962591978912
 20
-150.5430934953503
 30
0.0
 10
100.7752441154312
 20
-150.5430934953503
 30
0.0
 10
100.6927340785594
 20
-150.5472276099326
 30
0.0
 10
100.6927340785594
 20
-150.5472276099326
 30
0.0
 10
100.6927340785594
 20
-150.3694606828937
 30
0.0
 10
100.6927340785594
 20
-150.3694606828937
 30
0.0
 10
100.832260445712
 20
-150.3760063643157
 30
0.0
 10
101.0417222512152
 20
-150.380140478898
 30
0.0
 10
101.0670437030318
 20
-150.380140478898
 30
0.0
 10
101.0840969256838
 20
-150.3463785431426
 30
0.0
 10
101.1390461986735
 20
-150.2258002011588
 30
0.0
 10
101.1581664786167
 20
-150.1517306482259
 30
0.0
 10
101.1390461986735
 20
-150.1517306482259
 30
0.0
 10
100.9612792716346
 20
-150.1579318200994
 30
0.0
 10
100.766631376718
 20
-150.1706786733948
 30
0.0
 10
100.766631376718
 20
-150.1706786733948
 30
0.0
 10
100.766631376718
 20
-150.304003868674
 30
0.0
 10
100.766631376718
 20
-150.304003868674
 30
0.0
 10
100.718055530376
 20
-150.3294975752648
 30
0.0
 10
100.6587998880297
 20
-150.3611924537291
 30
0.0
 10
100.5254746927505
 20
-150.4266492679489
 30
0.0
 10
100.5254746927505
 20
-150.4266492679489
 30
0.0
 10
100.5254746927505
 20
-150.5727213165235
 30
0.0
 10
100.5254746927505
 20
-150.5727213165235
 30
0.0
 10
100.5254746927505
 20
-150.5727213165235
 30
0.0
 10
100.5254746927505
 20
-151.0402207738719
 30
0.0
 10
100.5254746927505
 20
-151.0402207738719
 30
0.0
 10
100.5254746927505
 20
-151.1670002877291
 30
0.0
 10
100.4896456997039
 20
-151.2262559300754
 30
0.0
 10
100.2061143412679
 20
-151.2179877009108
 30
0.0
 10
100.2061143412679
 20
-151.2179877009108
 30
0.0
 10
100.1024169671619
 20
-151.0105929526987
 30
0.0
 10
100.1024169671619
 20
-151.0105929526987
 30
0.0
 10
100.1659789788647
 20
-151.0233398059942
 30
0.0
 10
100.2145548252068
 20
-151.0274739205765
 30
0.0
 10
100.2546901876099
 20
-151.0274739205765
 30
0.0
 10
100.3309990526082
 20
-151.0274739205765
 30
0.0
 10
100.3415065938382
 20
-151.0040472712767
 30
0.0
 10
100.3415065938382
 20
-150.938590457057
 30
0.0
 10
100.3415065938382
 20
-150.938590457057
 30
0.0
 10
100.3415065938382
 20
-150.5093315595949
 30
0.0
 10
100.3415065938382
 20
-150.5093315595949
 30
0.0
 10
100.2441826463799
 20
-150.5492946672238
 30
0.0
 10
100.2273016785022
 20
-150.5558403486458
 30
0.0
 10
100.1807928894513
 20
-150.5747883738146
 30
0.0
 10
100.1764865200947
 20
-150.5958034562747
 30
0.0
 10
100.1721801507382
 20
-150.6254312774478
 30
0.0
 10
100.1532321255693
 20
-150.6254312774478
 30
0.0
 10
100.1447916416305
 20
-150.6254312774478
 30
0.0
 10
100.1341118456262
 20
-150.6212971628655
 30
0.0
 10
100.1279106737527
 20
-150.5978705135658
 30
0.0
 10
100.1279106737527
 20
-150.5978705135658
 30
0.0
 10
100.0750284580541
 20
-150.4056341854889
 30
0.0
 10
100.0750284580541
 20
-150.4056341854889
 30
0.0
 10
100.2209282518545
 20
-150.359125396438
 30
0.0
 10
100.2865573208485
 20
-150.3356987471383
 30
0.0
 10
100.3415065938382
 20
-150.3146836646783
 30
0.0
 10
100.3415065938382
 20
-150.3146836646783
 30
0.0
 10
100.3415065938382
 20
-149.9019612255453
 30
0.0
 10
100.3415065938382
 20
-149.9019612255453
 30
0.0
 10
100.3415065938382
 20
-149.9019612255453
 30
0.0
 10
100.2886243781396
 20
-149.9019612255453
 30
0.0
 10
100.2886243781396
 20
-149.9019612255453
 30
0.0
 10
100.2886243781396
 20
-149.9019612255453
 30
0.0
 10
100.2104207106244
 20
-149.9019612255453
 30
0.0
 10
100.2104207106244
 20
-149.9019612255453
 30
0.0
 10
100.1427245843393
 20
-149.9019612255453
 30
0.0
 10
100.1341118456262
 20
-149.9019612255453
 30
0.0
 10
100.0982828525796
 20
-149.9085069069673
 30
0.0
 10
100.0982828525796
 20
-149.9085069069673
 30
0.0
 10
100.0982828525796
 20
-149.7138590120507
 30
0.0
 10
100.0982828525796
 20
-149.7138590120507
 30
0.0
 10
100.1256713616873
 20
-149.7200601839241
 30
0.0
 10
100.1341118456262
 20
-149.7200601839241
 30
0.0
 10
100.2040472839768
 20
-149.7200601839241
 30
0.0
 10
100.2040472839768
 20
-149.7200601839241
 30
0.0
 10
100.3372002244816
 20
-149.7200601839241
 30
0.0
 10
100.3372002244816
 20
-149.7200601839241
 30
0.0
 10
100.3372002244816
 20
-149.6501247455736
 30
0.0
 10
100.3372002244816
 20
-149.5677869634761
 30
0.0
 10
100.3351331671905
 20
-149.5636528488938
 30
0.0
 10
100.3266926832516
 20
-149.3838188645637
 30
0.0
 10
100.3266926832516
 20
-149.3645263298463
 30
0.0
 10
100.3246256259605
 20
-149.3180175407955
 30
0.0
 10
100.3246256259605
 20
-149.3180175407955
 30
0.0
 10
100.5402886033371
 20
-149.3266302795086
 30
0.0
 10
100.5402886033371
 20
-149.3266302795086
 30
0.0
 10
100.5509683993414
 20
-149.3266302795086
 30
0.0
 10
100.5721557365757
 20
-149.3286973367997
 30
0.0
 10
100.5721557365757
 20
-149.3455783046775
 30
0.0
 10
100.5721557365757
 20
-149.3645263298463
 30
0.0
 10
100.5573418259891
 20
-149.3752061258506
 30
0.0
 10
100.5318481193983
 20
-149.3941541510195
 30
0.0
 10
100.5318481193983
 20
-149.4451415642012
 30
0.0
 10
100.5254746927505
 20
-149.6735513948733
 30
0.0
 10
100.527714004816
 20
-149.7200601839241
 30
0.0
 10
100.6567328307386
 20
-149.7200601839241
 30
0.0
 10
100.669479684034
 20
-149.7200601839241
 30
0.0
 10
100.766631376718
 20
-149.7117919547595
 30
0.0
 10
100.766631376718
 20
-149.7117919547595
 30
0.0
 10
100.766631376718
 20
-149.9060953401276
 30
0.0
 10
100.766631376718
 20
-149.9060953401276
 30
0.0
 10
100.728563071606
 20
-149.9040282828365
 30
0.0
 10
100.6608669453209
 20
-149.8998941682542
 30
0.0
 10
100.5254746927505
 20
-149.9019612255453
 30
0.0
 10
100.5254746927505
 20
-149.9019612255453
 30
0.0
 10
100.5254746927505
 20
-150.2406141117454
 30
0.0
 10
100.5254746927505
 20
-150.2406141117454
 30
0.0
 10
100.5805962205146
 20
-150.2171874624457
 30
0.0
 10
100.6460530347343
 20
-150.1896266985637
 30
0.0
 10
100.6948011358506
 20
-150.1665445588125
 30
0.0
 10
100.6948011358506
 20
-150.1665445588125
 30
0.0
 10
100.6948011358506
 20
-149.9887776317736
 30
0.0
 10
100.6948011358506
 20
-149.9887776317736
 30
0.0
 10
100.8090060511866
 20
-150.001524485069
 30
0.0
 10
100.9275173358792
 20
-150.001524485069
 30
0.0
 10
101.0437893085064
 20
-150.001524485069
 30
0.0
 10
101.0205349139809
 20
-149.9060953401276
 30
0.0
 10
100.9931464048732
 20
-149.8237575580301
 30
0.0
 10
100.9295843931704
 20
-149.690432362751
 30
0.0
 10
100.8851426614106
 20
-149.6924994200421
 30
0.0
 10
100.8026326245389
 20
-149.696978044173
 30
0.0
 10
100.7645643194269
 20
-149.6990451014641
 30
0.0
 10
100.7645643194269
 20
-149.6990451014641
 30
0.0
 10
100.7645643194269
 20
-149.5192111171341
 30
0.0
 10
100.7645643194269
 20
-149.5192111171341
 30
0.0
 10
100.8894490307672
 20
-149.5274793462987
 30
0.0
 10
101.0629095884495
 20
-149.5319579704295
 30
0.0
 10
101.1454196253213
 20
-149.5319579704295
 30
0.0
 10
101.1454196253213
 20
-149.5319579704295
 30
0.0
 10
101.227929662193
 20
-149.5319579704295
 30
0.0
 10
101.227929662193
 20
-149.5319579704295
 30
0.0
 10
101.227929662193
 20
-149.3690049539772
 30
0.0
 10
101.227929662193
 20
-149.3583251579729
 30
0.0
 10
101.2258626049018
 20
-149.3032036302089
 30
0.0
 10
101.2258626049018
 20
-149.3032036302089
 30
0.0
 10
101.4499660662173
 20
-149.3286973367997
 30
0.0
 10
101.4499660662173
 20
-149.3286973367997
 30
0.0
 10
101.4542724355739
 20
-149.3286973367997
 30
0.0
 10
101.4754597728082
 20
-149.3307643940909
 30
0.0
 10
101.4754597728082
 20
-149.3476453619686
 30
0.0
 10
101.4754597728082
 20
-149.3624592725552
 30
0.0
 10
101.4647799768039
 20
-149.3710720112683
 30
0.0
 10
101.4373914676962
 20
-149.3858859218549
 30
0.0
 10
101.4310180410485
 20
-149.4513427360747
 30
0.0
 10
101.4289509837573
 20
-149.4727023280832
 30
0.0
 10
101.4289509837573
 20
-149.5319579704295
 30
0.0
 10
101.4289509837573
 20
-149.5319579704295
 30
0.0
 10
101.5240356191502
 20
-149.5319579704295
 30
0.0
 10
101.5240356191502
 20
-149.5319579704295
 30
0.0
 10
101.606545656022
 20
-149.5319579704295
 30
0.0
 10
101.7800062137043
 20
-149.5274793462987
 30
0.0
 10
101.9048909250446
 20
-149.5192111171341
 30
0.0
 10
101.9048909250446
 20
-149.5192111171341
 30
0.0
 10
101.9048909250446
 20
-149.6990451014641
 30
0.0
 10
101.9048909250446
 20
-149.6990451014641
 30
0.0
 10
101.8752631038714
 20
-149.696978044173
 30
0.0
 10
101.7567518191788
 20
-149.6924994200421
 30
0.0
 10
101.7166164567757
 20
-149.690432362751
 30
0.0
 10
101.7018025461891
 20
-149.7410752663842
 30
0.0
 10
101.6678683556594
 20
-149.8533853792033
 30
0.0
 10
101.6024115414396
 20
-149.9929117463559
 30
0.0
 10
101.644613961134
 20
-149.9929117463559
 30
0.0
 10
101.9217718929223
 20
-149.973963721187
 30
0.0
 10
101.9830945925598
 20
-149.9718966638959
 30
0.0
 10
101.9830945925598
 20
-149.9718966638959
 30
0.0
 10
101.9830945925598
 20
-150.1558647628082
 30
0.0
 10
101.9830945925598
 20
-150.1558647628082
 30
0.0
 10
101.9534667713866
 20
-150.1558647628082
 30
0.0
 10
101.9365858035089
 20
-150.1517306482259
 30
0.0
 10
101.7736327870566
 20
-150.1517306482259
 30
0.0
  0
HATCH
  5
10F
330
108
100
AcDbEntity
  8
レイヤー 1
 62
    18
420
        0
440
 33554687
100
AcDbHatch
 10
0.0
 20
0.0
 30
0.0
210
0.0
220
0.0
230
1.0
  2
SOLID
 70
     1
 71
     1
 91
        3
 92
        1
 93
        1
 72
     4
 94
        3
 73
     0
 74
     0
 95
       17
 96
       13
 40
0.0
 40
0.0
 40
0.0
 40
0.0
 40
1.0
 40
1.0
 40
1.0
 40
2.0
 40
2.0
 40
2.0
 40
3.0
 40
3.0
 40
3.0
 40
4.0
 40
4.0
 40
4.0
 40
4.0
 10
101.2088093822498
 20
-150.5365478139284
 10
101.1919284143721
 20
-150.5661756351015
 10
101.1411132559647
 20
-150.6595377227518
 10
101.1306057147347
 20
-150.6784857479206
 10
101.3209472402947
 20
-150.7377413902669
 10
101.342134577529
 20
-150.7439425621404
 10
101.4141370731707
 20
-150.7715033260224
 10
101.4690863461605
 20
-150.6846869197941
 10
101.4923407406859
 20
-150.6106173668612
 10
101.5071546512725
 20
-150.5365478139284
 10
101.5071546512725
 20
-150.5365478139284
 10
101.2088093822498
 20
-150.5365478139284
 10
101.2088093822498
 20
-150.5365478139284
 97
        0
 97
        1
330
10C
 92
        1
 93
        1
 72
     4
 94
        3
 73
     0
 74
     0
 95
       20
 96
       16
 40
0.0
 40
0.0
 40
0.0
 40
0.0
 40
1.0
 40
1.0
 40
1.0
 40
2.0
 40
2.0
 40
2.0
 40
3.0
 40
3.0
 40
3.0
 40
4.0
 40
4.0
 40
4.0
 40
5.0
 40
5.0
 40
5.0
 40
5.0
 10
101.1454196253213
 20
-149.6862982481687
 10
101.1454196253213
 20
-149.6862982481687
 10
101.113724746857
 20
-149.6862982481687
 10
101.113724746857
 20
-149.6862982481687
 10
101.1602335359078
 20
-149.7855169981439
 10
101.1919284143721
 20
-149.8661322324987
 10
101.2258626049018
 20
-149.9929117463559
 10
101.2258626049018
 20
-149.9929117463559
 10
101.4330850983396
 20
-149.9929117463559
 10
101.4330850983396
 20
-149.9929117463559
 10
101.4647799768039
 20
-149.8998941682542
 10
101.4880343713294
 20
-149.815144819317
 10
101.5114610206291
 20
-149.6862982481687
 10
101.5114610206291
 20
-149.6862982481687
 10
101.1454196253213
 20
-149.6862982481687
 10
101.1454196253213
 20
-149.6862982481687
 97
        0
 97
        1
330
10D
 92
        1
 93
        1
 72
     4
 94
        3
 73
     0
 74
     0
 95
      242
 96
      238
 40
0.0
 40
0.0
 40
0.0
 40
0.0
 40
1.0
 40
1.0
 40
1.0
 40
2.0
 40
2.0
 40
2.0
 40
3.0
 40
3.0
 40
3.0
 40
4.0
 40
4.0
 40
4.0
 40
5.0
 40
5.0
 40
5.0
 40
6.0
 40
6.0
 40
6.0
 40
7.0
 40
7.0
 40
7.0
 40
8.0
 40
8.0
 40
8.0
 40
9.0
 40
9.0
 40
9.0
 40
10.0
 40
10.0
 40
10.0
 40
11.0
 40
11.0
 40
11.0
 40
12.0
 40
12.0
 40
12.0
 40
13.0
 40
13.0
 40
13.0
 40
14.0
 40
14.0
 40
14.0
 40
15.0
 40
15.0
 40
15.0
 40
16.0
 40
16.0
 40
16.0
 40
17.0
 40
17.0
 40
17.0
 40
18.0
 40
18.0
 40
18.0
 40
19.0
 40
19.0
 40
19.0
 40
20.0
 40
20.0
 40
20.0
 40
21.0
 40
21.0
 40
21.0
 40
22.0
 40
22.0
 40
22.0
 40
23.0
 40
23.0
 40
23.0
 40
24.0
 40
24.0
 40
24.0
 40
25.0
 40
25.0
 40
25.0
 40
26.0
 40
26.0
 40
26.0
 40
27.0
 40
27.0
 40
27.0
 40
28.0
 40
28.0
 40
28.0
 40
29.0
 40
29.0
 40
29.0
 40
30.0
 40
30.0
 40
30.0
 40
31.0
 40
31.0
 40
31.0
 40
32.0
 40
32.0
 40
32.0
 40
33.0
 40
33.0
 40
33.0
 40
34.0
 40
34.0
 40
34.0
 40
35.0
 40
35.0
 40
35.0
 40
36.0
 40
36.0
 40
36.0
 40
37.0
 40
37.0
 40
37.0
 40
38.0
 40
38.0
 40
38.0
 40
39.0
 40
39.0
 40
39.0
 40
40.0
 40
40.0
 40
40.0
 40
41.0
 40
41.0
 40
41.0
 40
42.0
 40
42.0
 40
42.0
 40
43.0
 40
43.0
 40
43.0
 40
44.0
 40
44.0
 40
44.0
 40
45.0
 40
45.0
 40
45.0
 40
46.0
 40
46.0
 40
46.0
 40
47.0
 40
47.0
 40
47.0
 40
48.0
 40
48.0
 40
48.0
 40
49.0
 40
49.0
 40
49.0
 40
50.0
 40
50.0
 40
50.0
 40
51.0
 40
51.0
 40
51.0
 40
52.0
 40
52.0
 40
52.0
 40
53.0
 40
53.0
 40
53.0
 40
54.0
 40
54.0
 40
54.0
 40
55.0
 40
55.0
 40
55.0
 40
56.0
 40
56.0
 40
56.0
 40
57.0
 40
57.0
 40
57.0
 40
58.0
 40
58.0
 40
58.0
 40
59.0
 40
59.0
 40
59.0
 40
60.0
 40
60.0
 40
60.0
 40
61.0
 40
61.0
 40
61.0
 40
62.0
 40
62.0
 40
62.0
 40
63.0
 40
63.0
 40
63.0
 40
64.0
 40
64.0
 40
64.0
 40
65.0
 40
65.0
 40
65.0
 40
66.0
 40
66.0
 40
66.0
 40
67.0
 40
67.0
 40
67.0
 40
68.0
 40
68.0
 40
68.0
 40
69.0
 40
69.0
 40
69.0
 40
70.0
 40
70.0
 40
70.0
 40
71.0
 40
71.0
 40
71.0
 40
72.0
 40
72.0
 40
72.0
 40
73.0
 40
73.0
 40
73.0
 40
74.0
 40
74.0
 40
74.0
 40
75.0
 40
75.0
 40
75.0
 40
76.0
 40
76.0
 40
76.0
 40
77.0
 40
77.0
 40
77.0
 40
78.0
 40
78.0
 40
78.0
 40
79.0
 40
79.0
 40
79.0
 40
79.0
 10
101.7736327870566
 20
-150.1517306482259
 10
101.7736327870566
 20
-150.1517306482259
 10
101.5199015045679
 20
-150.1517306482259
 10
101.5199015045679
 20
-150.1517306482259
 10
101.5199015045679
 20
-150.1517306482259
 10
101.2427435727796
 20
-150.1517306482259
 10
101.2427435727796
 20
-150.1517306482259
 10
101.2427435727796
 20
-150.1517306482259
 10
101.369695341411
 20
-150.1941053226945
 10
101.369695341411
 20
-150.1941053226945
 10
101.380202882641
 20
-150.1982394372768
 10
101.3929497359365
 20
-150.2044406091503
 10
101.3929497359365
 20
-150.2171874624457
 10
101.3929497359365
 20
-150.2385470544543
 10
101.3612548574722
 20
-150.2447482263277
 10
101.3400675202379
 20
-150.24888234091
 10
101.3293877242336
 20
-150.2723089902097
 10
101.2997599030605
 20
-150.3377658044295
 10
101.2808118778916
 20
-150.3822075361892
 10
101.2808118778916
 20
-150.3822075361892
 10
101.5515963830322
 20
-150.3822075361892
 10
101.5515963830322
 20
-150.3822075361892
 10
101.6425469038428
 20
-150.3822075361892
 10
101.8392618560506
 20
-150.3780734216068
 10
101.9810275352686
 20
-150.3694606828937
 10
101.9810275352686
 20
-150.3694606828937
 10
101.9810275352686
 20
-150.5472276099326
 10
101.9810275352686
 20
-150.5472276099326
 10
101.8985174983969
 20
-150.5430934953503
 10
101.8773301611626
 20
-150.5430934953503
 10
101.6974961768325
 20
-150.538959380768
 10
101.6658012983683
 20
-150.6932996585072
 10
101.6213595666085
 20
-150.7735703833136
 10
101.5769178348488
 20
-150.8435058216641
 10
101.6974961768325
 20
-150.9027614640104
 10
101.8032606082297
 20
-150.9702853355213
 10
101.9069579823357
 20
-151.0529676271673
 10
101.9069579823357
 20
-151.0529676271673
 10
101.7884466976431
 20
-151.2200547582019
 10
101.7884466976431
 20
-151.2200547582019
 10
101.7651923031177
 20
-151.2011067330331
 10
101.7526177045966
 20
-151.1924939943199
 10
101.6404798465517
 20
-151.1077446453828
 10
101.5917317454354
 20
-151.069848595045
 10
101.5324761030891
 20
-151.0336750924499
 10
101.4522053782828
 20
-150.9892333606902
 10
101.2406765154884
 20
-151.1756130264422
 10
101.0353488245675
 20
-151.1986951661933
 10
100.745616294258
 20
-151.2283229873665
 10
100.745616294258
 20
-151.2283229873665
 10
100.641918920152
 20
-151.0484890030365
 10
100.641918920152
 20
-151.0484890030365
 10
100.9592122143435
 20
-151.0443548884542
 10
101.134739829317
 20
-151.0188611818633
 10
101.2871853045393
 20
-150.9089626358839
 10
101.1686740198467
 20
-150.8583197322507
 10
101.0797905563272
 20
-150.8307589683687
 10
101.0437893085064
 20
-150.8180121150733
 10
101.0248412833375
 20
-150.8455728789552
 10
101.0100273727509
 20
-150.8645209041241
 10
100.982466608869
 20
-150.8982828398796
 10
100.982466608869
 20
-150.8982828398796
 10
100.7857516566612
 20
-150.8159450577821
 10
100.7857516566612
 20
-150.8159450577821
 10
100.8682616935329
 20
-150.7356743329758
 10
100.9295843931704
 20
-150.6402451880344
 10
100.9867729782255
 20
-150.538959380768
 10
100.7962591978912
 20
-150.5430934953503
 10
100.7752441154312
 20
-150.5430934953503
 10
100.6927340785594
 20
-150.5472276099326
 10
100.6927340785594
 20
-150.5472276099326
 10
100.6927340785594
 20
-150.3694606828937
 10
100.6927340785594
 20
-150.3694606828937
 10
100.832260445712
 20
-150.3760063643157
 10
101.0417222512152
 20
-150.380140478898
 10
101.0670437030318
 20
-150.380140478898
 10
101.0840969256838
 20
-150.3463785431426
 10
101.1390461986735
 20
-150.2258002011588
 10
101.1581664786167
 20
-150.1517306482259
 10
101.1390461986735
 20
-150.1517306482259
 10
100.9612792716346
 20
-150.1579318200994
 10
100.766631376718
 20
-150.1706786733948
 10
100.766631376718
 20
-150.1706786733948
 10
100.766631376718
 20
-150.304003868674
 10
100.766631376718
 20
-150.304003868674
 10
100.718055530376
 20
-150.3294975752648
 10
100.6587998880297
 20
-150.3611924537291
 10
100.5254746927505
 20
-150.4266492679489
 10
100.5254746927505
 20
-150.4266492679489
 10
100.5254746927505
 20
-150.5727213165235
 10
100.5254746927505
 20
-150.5727213165235
 10
100.5254746927505
 20
-150.5727213165235
 10
100.5254746927505
 20
-151.0402207738719
 10
100.5254746927505
 20
-151.0402207738719
 10
100.5254746927505
 20
-151.1670002877291
 10
100.4896456997039
 20
-151.2262559300754
 10
100.2061143412679
 20
-151.2179877009108
 10
100.2061143412679
 20
-151.2179877009108
 10
100.1024169671619
 20
-151.0105929526987
 10
100.1024169671619
 20
-151.0105929526987
 10
100.1659789788647
 20
-151.0233398059942
 10
100.2145548252068
 20
-151.0274739205765
 10
100.2546901876099
 20
-151.0274739205765
 10
100.3309990526082
 20
-151.0274739205765
 10
100.3415065938382
 20
-151.0040472712767
 10
100.3415065938382
 20
-150.938590457057
 10
100.3415065938382
 20
-150.938590457057
 10
100.3415065938382
 20
-150.5093315595949
 10
100.3415065938382
 20
-150.5093315595949
 10
100.2441826463799
 20
-150.5492946672238
 10
100.2273016785022
 20
-150.5558403486458
 10
100.1807928894513
 20
-150.5747883738146
 10
100.1764865200947
 20
-150.5958034562747
 10
100.1721801507382
 20
-150.6254312774478
 10
100.1532321255693
 20
-150.6254312774478
 10
100.1447916416305
 20
-150.6254312774478
 10
100.1341118456262
 20
-150.6212971628655
 10
100.1279106737527
 20
-150.5978705135658
 10
100.1279106737527
 20
-150.5978705135658
 10
100.0750284580541
 20
-150.4056341854889
 10
100.0750284580541
 20
-150.4056341854889
 10
100.2209282518545
 20
-150.359125396438
 10
100.2865573208485
 20
-150.3356987471383
 10
100.3415065938382
 20
-150.3146836646783
 10
100.3415065938382
 20
-150.3146836646783
 10
100.3415065938382
 20
-149.9019612255453
 10
100.3415065938382
 20
-149.9019612255453
 10
100.3415065938382
 20
-149.9019612255453
 10
100.2886243781396
 20
-149.9019612255453
 10
100.2886243781396
 20
-149.9019612255453
 10
100.2886243781396
 20
-149.9019612255453
 10
100.2104207106244
 20
-149.9019612255453
 10
100.2104207106244
 20
-149.9019612255453
 10
100.1427245843393
 20
-149.9019612255453
 10
100.1341118456262
 20
-149.9019612255453
 10
100.0982828525796
 20
-149.9085069069673
 10
100.0982828525796
 20
-149.9085069069673
 10
100.0982828525796
 20
-149.7138590120507
 10
100.0982828525796
 20
-149.7138590120507
 10
100.1256713616873
 20
-149.7200601839241
 10
100.1341118456262
 20
-149.7200601839241
 10
100.2040472839768
 20
-149.7200601839241
 10
100.2040472839768
 20
-149.7200601839241
 10
100.3372002244816
 20
-149.7200601839241
 10
100.3372002244816
 20
-149.7200601839241
 10
100.3372002244816
 20
-149.6501247455736
 10
100.3372002244816
 20
-149.5677869634761
 10
100.3351331671905
 20
-149.5636528488938
 10
100.3266926832516
 20
-149.3838188645637
 10
100.3266926832516
 20
-149.3645263298463
 10
100.3246256259605
 20
-149.3180175407955
 10
100.3246256259605
 20
-149.3180175407955
 10
100.5402886033371
 20
-149.3266302795086
 10
100.5402886033371
 20
-149.3266302795086
 10
100.5509683993414
 20
-149.3266302795086
 10
100.5721557365757
 20
-149.3286973367997
 10
100.5721557365757
 20
-149.3455783046775
 10
100.5721557365757
 20
-149.3645263298463
 10
100.5573418259891
 20
-149.3752061258506
 10
100.5318481193983
 20
-149.3941541510195
 10
100.5318481193983
 20
-149.4451415642012
 10
100.5254746927505
 20
-149.6735513948733
 10
100.527714004816
 20
-149.7200601839241
 10
100.6567328307386
 20
-149.7200601839241
 10
100.669479684034
 20
-149.7200601839241
 10
100.766631376718
 20
-149.7117919547595
 10
100.766631376718
 20
-149.7117919547595
 10
100.766631376718
 20
-149.9060953401276
 10
100.766631376718
 20
-149.9060953401276
 10
100.728563071606
 20
-149.9040282828365
 10
100.6608669453209
 20
-149.8998941682542
 10
100.5254746927505
 20
-149.9019612255453
 10
100.5254746927505
 20
-149.9019612255453
 10
100.5254746927505
 20
-150.2406141117454
 10
100.5254746927505
 20
-150.2406141117454
 10
100.5805962205146
 20
-150.2171874624457
 10
100.6460530347343
 20
-150.1896266985637
 10
100.6948011358506
 20
-150.1665445588125
 10
100.6948011358506
 20
-150.1665445588125
 10
100.6948011358506
 20
-149.9887776317736
 10
100.6948011358506
 20
-149.9887776317736
 10
100.8090060511866
 20
-150.001524485069
 10
100.9275173358792
 20
-150.001524485069
 10
101.0437893085064
 20
-150.001524485069
 10
101.0205349139809
 20
-149.9060953401276
 10
100.9931464048732
 20
-149.8237575580301
 10
100.9295843931704
 20
-149.690432362751
 10
100.8851426614106
 20
-149.6924994200421
 10
100.8026326245389
 20
-149.696978044173
 10
100.7645643194269
 20
-149.6990451014641
 10
100.7645643194269
 20
-149.6990451014641
 10
100.7645643194269
 20
-149.5192111171341
 10
100.7645643194269
 20
-149.5192111171341
 10
100.8894490307672
 20
-149.5274793462987
 10
101.0629095884495
 20
-149.5319579704295
 10
101.1454196253213
 20
-149.5319579704295
 10
101.1454196253213
 20
-149.5319579704295
 10
101.227929662193
 20
-149.5319579704295
 10
101.227929662193
 20
-149.5319579704295
 10
101.227929662193
 20
-149.3690049539772
 10
101.227929662193
 20
-149.3583251579729
 10
101.2258626049018
 20
-149.3032036302089
 10
101.2258626049018
 20
-149.3032036302089
 10
101.4499660662173
 20
-149.3286973367997
 10
101.4499660662173
 20
-149.3286973367997
 10
101.4542724355739
 20
-149.3286973367997
 10
101.4754597728082
 20
-149.3307643940909
 10
101.4754597728082
 20
-149.3476453619686
 10
101.4754597728082
 20
-149.3624592725552
 10
101.4647799768039
 20
-149.3710720112683
 10
101.4373914676962
 20
-149.3858859218549
 10
101.4310180410485
 20
-149.4513427360747
 10
101.4289509837573
 20
-149.4727023280832
 10
101.4289509837573
 20
-149.5319579704295
 10
101.4289509837573
 20
-149.5319579704295
 10
101.5240356191502
 20
-149.5319579704295
 10
101.5240356191502
 20
-149.5319579704295
 10
101.606545656022
 20
-149.5319579704295
 10
101.7800062137043
 20
-149.5274793462987
 10
101.9048909250446
 20
-149.5192111171341
 10
101.9048909250446
 20
-149.5192111171341
 10
101.9048909250446
 20
-149.6990451014641
 10
101.9048909250446
 20
-149.6990451014641
 10
101.8752631038714
 20
-149.696978044173
 10
101.7567518191788
 20
-149.6924994200421
 10
101.7166164567757
 20
-149.690432362751
 10
101.7018025461891
 20
-149.7410752663842
 10
101.6678683556594
 20
-149.8533853792033
 10
101.6024115414396
 20
-149.9929117463559
 10
101.644613961134
 20
-149.9929117463559
 10
101.9217718929223
 20
-149.973963721187
 10
101.9830945925598
 20
-149.9718966638959
 10
101.9830945925598
 20
-149.9718966638959
 10
101.9830945925598
 20
-150.1558647628082
 10
101.9830945925598
 20
-150.1558647628082
 10
101.9534667713866
 20
-150.1558647628082
 10
101.9365858035089
 20
-150.1517306482259
 10
101.7736327870566
 20
-150.1517306482259
 97
        0
 97
        1
330
10E
 75
     2
 76
     1
 98
        1
 10
0.0
 20
0.0
450
        0
451
        0
460
0.0
461
0.0
452
        0
462
0.0
453
        0
470

  0
SPLINE
  5
110
330
108
100
AcDbEntity
  8
レイヤー 1
100
AcDbSpline
210
0.0
220
0.0
230
1.0
 70
    11
 71
     3
 72
    17
 73
    13
 74
     0
 42
0.0000000001
 43
0.0000000001
 40
0.0
 40
0.0
 40
0.0
 40
0.0
 40
1.0
 40
1.0
 40
1.0
 40
2.0
 40
2.0
 40
2.0
 40
3.0
 40
3.0
 40
3.0
 40
4.0
 40
4.0
 40
4.0
 40
4.0
 10
103.6301947440577
 20
-150.9513373103524
 30
0.0
 10
103.6301947440577
 20
-150.9513373103524
 30
0.0
 10
102.923605660033
 20
-150.9513373103524
 30
0.0
 10
102.923605660033
 20
-150.9513373103524
 30
0.0
 10
102.923605660033
 20
-150.9513373103524
 30
0.0
 10
102.923605660033
 20
-151.0657144804627
 30
0.0
 10
102.923605660033
 20
-151.0657144804627
 30
0.0
 10
102.923605660033
 20
-151.0657144804627
 30
0.0
 10
103.6301947440577
 20
-151.0657144804627
 30
0.0
 10
103.6301947440577
 20
-151.0657144804627
 30
0.0
 10
103.6301947440577
 20
-151.0657144804627
 30
0.0
 10
103.6301947440577
 20
-150.9513373103524
 30
0.0
 10
103.6301947440577
 20
-150.9513373103524
 30
0.0
  0
SPLINE
  5
111
330
108
100
AcDbEntity
  8
レイヤー 1
100
AcDbSpline
210
0.0
220
0.0
230
1.0
 70
    11
 71
     3
 72
    17
 73
    13
 74
     0
 42
0.0000000001
 43
0.0000000001
 40
0.0
 40
0.0
 40
0.0
 40
0.0
 40
1.0
 40
1.0
 40
1.0
 40
2.0
 40
2.0
 40
2.0
 40
3.0
 40
3.0
 40
3.0
 40
4.0
 40
4.0
 40
4.0
 40
4.0
 10
103.6301947440577
 20
-150.7081135690938
 30
0.0
 10
103.6301947440577
 20
-150.7081135690938
 30
0.0
 10
102.923605660033
 20
-150.7081135690938
 30
0.0
 10
102.923605660033
 20
-150.7081135690938
 30
0.0
 10
102.923605660033
 20
-150.7081135690938
 30
0.0
 10
102.923605660033
 20
-150.8221462296555
 30
0.0
 10
102.923605660033
 20
-150.8221462296555
 30
0.0
 10
102.923605660033
 20
-150.8221462296555
 30
0.0
 10
103.6301947440577
 20
-150.8221462296555
 30
0.0
 10
103.6301947440577
 20
-150.8221462296555
 30
0.0
 10
103.6301947440577
 20
-150.8221462296555
 30
0.0
 10
103.6301947440577
 20
-150.7081135690938
 30
0.0
 10
103.6301947440577
 20
-150.7081135690938
 30
0.0
  0
SPLINE
  5
112
330
108
100
AcDbEntity
  8
レイヤー 1
100
AcDbSpline
210
0.0
220
0.0
230
1.0
 70
    11
 71
     3
 72
    17
 73
    13
 74
     0
 42
0.0000000001
 43
0.0000000001
 40
0.0
 40
0.0
 40
0.0
 40
0.0
 40
1.0
 40
1.0
 40
1.0
 40
2.0
 40
2.0
 40
2.0
 40
3.0
 40
3.0
 40
3.0
 40
4.0
 40
4.0
 40
4.0
 40
4.0
 10
103.6301947440577
 20
-150.4752251142909
 30
0.0
 10
103.6301947440577
 20
-150.4752251142909
 30
0.0
 10
102.923605660033
 20
-150.4752251142909
 30
0.0
 10
102.923605660033
 20
-150.4752251142909
 30
0.0
 10
102.923605660033
 20
-150.4752251142909
 30
0.0
 10
102.923605660033
 20
-150.5830566029792
 30
0.0
 10
102.923605660033
 20
-150.5830566029792
 30
0.0
 10
102.923605660033
 20
-150.5830566029792
 30
0.0
 10
103.6301947440577
 20
-150.5830566029792
 30
0.0
 10
103.6301947440577
 20
-150.5830566029792
 30
0.0
 10
103.6301947440577
 20
-150.5830566029792
 30
0.0
 10
103.6301947440577
 20
-150.4752251142909
 30
0.0
 10
103.6301947440577
 20
-150.4752251142909
 30
0.0
  0
SPLINE
  5
113
330
108
100
AcDbEntity
  8
レイヤー 1
100
AcDbSpline
210
0.0
220
0.0
230
1.0
 70
     9
 71
     3
 72
   203
 73
   199
 74
     0
 42
0.0000000001
 43
0.0000000001
 40
0.0
 40
0.0
 40
0.0
 40
0.0
 40
1.0
 40
1.0
 40
1.0
 40
2.0
 40
2.0
 40
2.0
 40
3.0
 40
3.0
 40
3.0
 40
4.0
 40
4.0
 40
4.0
 40
5.0
 40
5.0
 40
5.0
 40
6.0
 40
6.0
 40
6.0
 40
7.0
 40
7.0
 40
7.0
 40
8.0
 40
8.0
 40
8.0
 40
9.0
 40
9.0
 40
9.0
 40
10.0
 40
10.0
 40
10.0
 40
11.0
 40
11.0
 40
11.0
 40
12.0
 40
12.0
 40
12.0
 40
13.0
 40
13.0
 40
13.0
 40
14.0
 40
14.0
 40
14.0
 40
15.0
 40
15.0
 40
15.0
 40
16.0
 40
16.0
 40
16.0
 40
17.0
 40
17.0
 40
17.0
 40
18.0
 40
18.0
 40
18.0
 40
19.0
 40
19.0
 40
19.0
 40
20.0
 40
20.0
 40
20.0
 40
21.0
 40
21.0
 40
21.0
 40
22.0
 40
22.0
 40
22.0
 40
23.0
 40
23.0
 40
23.0
 40
24.0
 40
24.0
 40
24.0
 40
25.0
 40
25.0
 40
25.0
 40
26.0
 40
26.0
 40
26.0
 40
27.0
 40
27.0
 40
27.0
 40
28.0
 40
28.0
 40
28.0
 40
29.0
 40
29.0
 40
29.0
 40
30.0
 40
30.0
 40
30.0
 40
31.0
 40
31.0
 40
31.0
 40
32.0
 40
32.0
 40
32.0
 40
33.0
 40
33.0
 40
33.0
 40
34.0
 40
34.0
 40
34.0
 40
35.0
 40
35.0
 40
35.0
 40
36.0
 40
36.0
 40
36.0
 40
37.0
 40
37.0
 40
37.0
 40
38.0
 40
38.0
 40
38.0
 40
39.0
 40
39.0
 40
39.0
 40
40.0
 40
40.0
 40
40.0
 40
41.0
 40
41.0
 40
41.0
 40
42.0
 40
42.0
 40
42.0
 40
43.0
 40
43.0
 40
43.0
 40
44.0
 40
44.0
 40
44.0
 40
45.0
 40
45.0
 40
45.0
 40
46.0
 40
46.0
 40
46.0
 40
47.0
 40
47.0
 40
47.0
 40
48.0
 40
48.0
 40
48.0
 40
49.0
 40
49.0
 40
49.0
 40
50.0
 40
50.0
 40
50.0
 40
51.0
 40
51.0
 40
51.0
 40
52.0
 40
52.0
 40
52.0
 40
53.0
 40
53.0
 40
53.0
 40
54.0
 40
54.0
 40
54.0
 40
55.0
 40
55.0
 40
55.0
 40
56.0
 40
56.0
 40
56.0
 40
57.0
 40
57.0
 40
57.0
 40
58.0
 40
58.0
 40
58.0
 40
59.0
 40
59.0
 40
59.0
 40
60.0
 40
60.0
 40
60.0
 40
61.0
 40
61.0
 40
61.0
 40
62.0
 40
62.0
 40
62.0
 40
63.0
 40
63.0
 40
63.0
 40
64.0
 40
64.0
 40
64.0
 40
65.0
 40
65.0
 40
65.0
 40
66.0
 40
66.0
 40
66.0
 40
66.0
 10
103.4651746703142
 20
-150.2192545197369
 30
0.0
 10
103.4651746703142
 20
-150.2192545197369
 30
0.0
 10
102.9067246921552
 20
-150.2192545197369
 30
0.0
 10
102.9067246921552
 20
-150.2192545197369
 30
0.0
 10
102.896044896151
 20
-150.2636962514966
 30
0.0
 10
102.8876044122121
 20
-150.2953911299609
 30
0.0
 10
102.8748575589167
 20
-150.3336316898471
 30
0.0
 10
102.9003512655075
 20
-150.3336316898471
 30
0.0
 10
102.9151651760941
 20
-150.3356987471383
 30
0.0
 10
102.9215386027418
 20
-150.3356987471383
 30
0.0
 10
102.9215386027418
 20
-150.3356987471383
 30
0.0
 10
103.1098130710107
 20
-150.3356987471383
 30
0.0
 10
103.1098130710107
 20
-150.3356987471383
 30
0.0
 10
103.1098130710107
 20
-150.3356987471383
 30
0.0
 10
103.4841226954831
 20
-150.3356987471383
 30
0.0
 10
103.4841226954831
 20
-150.3356987471383
 30
0.0
 10
103.5349378538906
 20
-150.3356987471383
 30
0.0
 10
103.8184692123266
 20
-150.3229518938429
 30
0.0
 10
103.8501640907909
 20
-150.3229518938429
 30
0.0
 10
103.8480970334997
 20
-150.3505126577249
 30
0.0
 10
103.8458577214343
 20
-150.3694606828937
 30
0.0
 10
103.8458577214343
 20
-150.3990885040669
 30
0.0
 10
103.8437906641432
 20
-150.4307833825312
 30
0.0
 10
103.8437906641432
 20
-150.5661756351015
 30
0.0
 10
103.8437906641432
 20
-150.5937363989835
 30
0.0
 10
103.8437906641432
 20
-150.5937363989835
 30
0.0
 10
103.8437906641432
 20
-150.8390271975333
 30
0.0
 10
103.8437906641432
 20
-150.8390271975333
 30
0.0
 10
103.8437906641432
 20
-150.883468929293
 30
0.0
 10
103.8480970334997
 20
-151.0805283910493
 30
0.0
 10
103.8522311480821
 20
-151.2328016114973
 30
0.0
 10
103.8522311480821
 20
-151.2328016114973
 30
0.0
 10
103.6258883747011
 20
-151.2328016114973
 30
0.0
 10
103.6258883747011
 20
-151.2328016114973
 30
0.0
 10
103.6258883747011
 20
-151.2328016114973
 30
0.0
 10
103.6281276867666
 20
-151.1986951661933
 30
0.0
 10
103.6281276867666
 20
-151.1986951661933
 30
0.0
 10
103.6281276867666
 20
-151.1986951661933
 30
0.0
 10
102.9256727173241
 20
-151.1986951661933
 30
0.0
 10
102.9256727173241
 20
-151.1986951661933
 30
0.0
 10
102.9256727173241
 20
-151.1986951661933
 30
0.0
 10
102.9277397746153
 20
-151.2328016114973
 30
0.0
 10
102.9277397746153
 20
-151.2328016114973
 30
0.0
 10
102.9277397746153
 20
-151.2328016114973
 30
0.0
 10
102.7098374851732
 20
-151.2328016114973
 30
0.0
 10
102.7098374851732
 20
-151.2328016114973
 30
0.0
 10
102.7141438545298
 20
-151.1776800837334
 30
0.0
 10
102.7141438545298
 20
-151.1649332304379
 30
0.0
 10
102.7205172811775
 20
-151.0509005698762
 30
0.0
 10
102.7225843384686
 20
-151.0233398059942
 30
0.0
 10
102.7246513957598
 20
-150.890014610715
 30
0.0
 10
102.7246513957598
 20
-150.8710665855461
 30
0.0
 10
102.7246513957598
 20
-150.8710665855461
 30
0.0
 10
102.7246513957598
 20
-150.6678059519164
 30
0.0
 10
102.7246513957598
 20
-150.6678059519164
 30
0.0
 10
102.5851250286072
 20
-150.917575374597
 30
0.0
 10
102.4157985855071
 20
-151.0484890030365
 30
0.0
 10
102.31003415411
 20
-151.1142903268047
 30
0.0
 10
102.31003415411
 20
-151.1142903268047
 30
0.0
 10
102.1365735964276
 20
-150.9744194501036
 30
0.0
 10
102.1365735964276
 20
-150.9744194501036
 30
0.0
 10
102.2254570599471
 20
-150.9237765464704
 30
0.0
 10
102.3692897964563
 20
-150.8369601402421
 30
0.0
 10
102.5067491063177
 20
-150.6423122453255
 30
0.0
 10
102.5978718819026
 20
-150.5155327314683
 30
0.0
 10
102.6633286961223
 20
-150.3715277401849
 30
0.0
 10
102.6972628866521
 20
-150.2192545197369
 30
0.0
 10
102.4686808012057
 20
-150.221321577028
 30
0.0
 10
102.2888468168757
 20
-150.22786725845
 30
0.0
 10
102.1937621814828
 20
-150.2299343157411
 30
0.0
 10
102.1937621814828
 20
-150.2299343157411
 30
0.0
 10
102.1937621814828
 20
-150.0521673887022
 30
0.0
 10
102.1937621814828
 20
-150.0521673887022
 30
0.0
 10
102.3904771336906
 20
-150.0587130701242
 30
0.0
 10
102.6740084921266
 20
-150.0628471847065
 30
0.0
 10
102.8242146552835
 20
-150.0628471847065
 30
0.0
 10
102.8242146552835
 20
-150.0628471847065
 30
0.0
 10
103.037810575369
 20
-150.0628471847065
 30
0.0
 10
103.037810575369
 20
-150.0628471847065
 30
0.0
 10
103.037810575369
 20
-150.0628471847065
 30
0.0
 10
103.037810575369
 20
-149.9550156960182
 30
0.0
 10
103.037810575369
 20
-149.9550156960182
 30
0.0
 10
103.037810575369
 20
-149.9550156960182
 30
0.0
 10
102.8919107815687
 20
-149.9550156960182
 30
0.0
 10
102.8919107815687
 20
-149.9550156960182
 30
0.0
 10
102.7225843384686
 20
-149.9550156960182
 30
0.0
 10
102.5534301501429
 20
-149.9591498106005
 30
0.0
 10
102.386170764334
 20
-149.9653509824739
 30
0.0
 10
102.386170764334
 20
-149.9653509824739
 30
0.0
 10
102.386170764334
 20
-149.794129736857
 30
0.0
 10
102.386170764334
 20
-149.794129736857
 30
0.0
 10
102.5406832968474
 20
-149.8048095328613
 30
0.0
 10
102.7268907078252
 20
-149.8048095328613
 30
0.0
 10
102.8919107815687
 20
-149.8048095328613
 30
0.0
 10
102.8919107815687
 20
-149.8048095328613
 30
0.0
 10
103.037810575369
 20
-149.8048095328613
 30
0.0
 10
103.037810575369
 20
-149.8048095328613
 30
0.0
 10
103.037810575369
 20
-149.8048095328613
 30
0.0
 10
103.037810575369
 20
-149.6862982481687
 30
0.0
 10
103.037810575369
 20
-149.6862982481687
 30
0.0
 10
103.037810575369
 20
-149.6862982481687
 30
0.0
 10
102.9067246921552
 20
-149.6862982481687
 30
0.0
 10
102.9067246921552
 20
-149.6862982481687
 30
0.0
 10
102.8600436483301
 20
-149.6862982481687
 30
0.0
 10
102.6569552694746
 20
-149.6945664773333
 30
0.0
 10
102.6147528497803
 20
-149.6945664773333
 30
0.0
 10
102.4116644709248
 20
-149.6990451014641
 30
0.0
 10
102.3355278607008
 20
-149.7011121587553
 30
0.0
 10
102.2571519384114
 20
-149.7031792160464
 30
0.0
 10
102.2571519384114
 20
-149.7031792160464
 30
0.0
 10
102.2571519384114
 20
-149.5192111171341
 30
0.0
 10
102.2571519384114
 20
-149.5192111171341
 30
0.0
 10
102.3713568537474
 20
-149.5274793462987
 30
0.0
 10
102.4157985855071
 20
-149.5274793462987
 30
0.0
 10
102.7987209486927
 20
-149.5360920850118
 30
0.0
 10
102.7353311917641
 20
-149.4410074496189
 30
0.0
 10
102.7077704278821
 20
-149.4134466857369
 30
0.0
 10
102.6717691800612
 20
-149.3772731831418
 30
0.0
 10
102.6717691800612
 20
-149.3772731831418
 30
0.0
 10
102.8474690498089
 20
-149.2949354010443
 30
0.0
 10
102.8474690498089
 20
-149.2949354010443
 30
0.0
 10
102.8876044122121
 20
-149.3307643940909
 30
0.0
 10
102.9320461439718
 20
-149.3731390685595
 30
0.0
 10
103.0061156969047
 20
-149.483037614539
 30
0.0
 10
103.0061156969047
 20
-149.483037614539
 30
0.0
 10
102.8919107815687
 20
-149.5381591423029
 30
0.0
 10
102.8919107815687
 20
-149.5381591423029
 30
0.0
 10
102.8919107815687
 20
-149.5381591423029
 30
0.0
 10
102.9024183227987
 20
-149.5381591423029
 30
0.0
 10
102.9024183227987
 20
-149.5381591423029
 30
0.0
 10
102.9024183227987
 20
-149.5381591423029
 30
0.0
 10
103.4248670531368
 20
-149.5381591423029
 30
0.0
 10
103.4248670531368
 20
-149.5381591423029
 30
0.0
 10
103.4248670531368
 20
-149.5381591423029
 30
0.0
 10
103.3297824177439
 20
-149.4937174105432
 30
0.0
 10
103.3297824177439
 20
-149.4937174105432
 30
0.0
 10
103.3573431816259
 20
-149.4558213602055
 30
0.0
 10
103.4143595119068
 20
-149.3752061258506
 30
0.0
 10
103.4291734224934
 20
-149.3011365729178
 30
0.0
 10
103.4291734224934
 20
-149.3011365729178
 30
0.0
 10
103.6427693425789
 20
-149.3645263298463
 30
0.0
 10
103.6427693425789
 20
-149.3645263298463
 30
0.0
 10
103.651382081292
 20
-149.366937896686
 30
0.0
 10
103.672397163752
 20
-149.3772731831418
 30
0.0
 10
103.672397163752
 20
-149.3986327751503
 30
0.0
 10
103.672397163752
 20
-149.4365288254881
 30
0.0
 10
103.6069403495323
 20
-149.4365288254881
 30
0.0
 10
103.5878200695891
 20
-149.4365288254881
 30
0.0
 10
103.5773125283591
 20
-149.4558213602055
 30
0.0
 10
103.5540581338337
 20
-149.4957844678344
 30
0.0
 10
103.5244303126605
 20
-149.5360920850118
 30
0.0
 10
103.9242336437238
 20
-149.5295464035898
 30
0.0
 10
103.9538614648969
 20
-149.5274793462987
 30
0.0
 10
104.0299980751209
 20
-149.5212781744252
 30
0.0
 10
104.0299980751209
 20
-149.5212781744252
 30
0.0
 10
104.0299980751209
 20
-149.7031792160464
 30
0.0
 10
104.0299980751209
 20
-149.7031792160464
 30
0.0
 10
104.0108777951778
 20
-149.7031792160464
 30
0.0
 10
103.9855563433612
 20
-149.7011121587553
 30
0.0
 10
103.765586996628
 20
-149.6924994200421
 30
0.0
 10
103.7147718382206
 20
-149.690432362751
 30
0.0
 10
103.4948024914874
 20
-149.6862982481687
 30
0.0
 10
103.4503607597277
 20
-149.6862982481687
 30
0.0
 10
103.4503607597277
 20
-149.6862982481687
 30
0.0
 10
103.2345255275768
 20
-149.6862982481687
 30
0.0
 10
103.2345255275768
 20
-149.6862982481687
 30
0.0
 10
103.2345255275768
 20
-149.6862982481687
 30
0.0
 10
103.2345255275768
 20
-149.8048095328613
 30
0.0
 10
103.2345255275768
 20
-149.8048095328613
 30
0.0
 10
103.2345255275768
 20
-149.8048095328613
 30
0.0
 10
103.4079860852591
 20
-149.8048095328613
 30
0.0
 10
103.4079860852591
 20
-149.8048095328613
 30
0.0
 10
103.5709391017114
 20
-149.8048095328613
 30
0.0
 10
103.7612806272715
 20
-149.8048095328613
 30
0.0
 10
103.9178602170761
 20
-149.794129736857
 30
0.0
 10
103.9178602170761
 20
-149.794129736857
 30
0.0
 10
103.9178602170761
 20
-149.9653509824739
 30
0.0
 10
103.9178602170761
 20
-149.9653509824739
 30
0.0
 10
103.7083984115729
 20
-149.9570827533093
 30
0.0
 10
103.5116834593651
 20
-149.9550156960182
 30
0.0
 10
103.4079860852591
 20
-149.9550156960182
 30
0.0
 10
103.4079860852591
 20
-149.9550156960182
 30
0.0
 10
103.2345255275768
 20
-149.9550156960182
 30
0.0
 10
103.2345255275768
 20
-149.9550156960182
 30
0.0
 10
103.2345255275768
 20
-149.9550156960182
 30
0.0
 10
103.2345255275768
 20
-150.0628471847065
 30
0.0
 10
103.2345255275768
 20
-150.0628471847065
 30
0.0
 10
103.2345255275768
 20
-150.0628471847065
 30
0.0
 10
103.4651746703142
 20
-150.0628471847065
 30
0.0
 10
103.4651746703142
 20
-150.0628471847065
 30
0.0
 10
103.5984998655934
 20
-150.0628471847065
 30
0.0
 10
103.8861653386118
 20
-150.0587130701242
 30
0.0
 10
104.0956271441149
 20
-150.0521673887022
 30
0.0
 10
104.0956271441149
 20
-150.0521673887022
 30
0.0
 10
104.0956271441149
 20
-150.2299343157411
 30
0.0
 10
104.0956271441149
 20
-150.2299343157411
 30
0.0
 10
103.9030463064895
 20
-150.2237331438677
 30
0.0
 10
103.5898871268803
 20
-150.2192545197369
 30
0.0
 10
103.4651746703142
 20
-150.2192545197369
 30
0.0
  0
HATCH
  5
114
330
108
100
AcDbEntity
  8
レイヤー 1
 62
    18
420
        0
440
 33554687
100
AcDbHatch
 10
0.0
 20
0.0
 30
0.0
210
0.0
220
0.0
230
1.0
  2
SOLID
 70
     1
 71
     1
 91
        4
 92
        1
 93
        1
 72
     4
 94
        3
 73
     0
 74
     0
 95
       17
 96
       13
 40
0.0
 40
0.0
 40
0.0
 40
0.0
 40
1.0
 40
1.0
 40
1.0
 40
2.0
 40
2.0
 40
2.0
 40
3.0
 40
3.0
 40
3.0
 40
4.0
 40
4.0
 40
4.0
 40
4.0
 10
103.6301947440577
 20
-150.9513373103524
 10
103.6301947440577
 20
-150.9513373103524
 10
102.923605660033
 20
-150.9513373103524
 10
102.923605660033
 20
-150.9513373103524
 10
102.923605660033
 20
-150.9513373103524
 10
102.923605660033
 20
-151.0657144804627
 10
102.923605660033
 20
-151.0657144804627
 10
102.923605660033
 20
-151.0657144804627
 10
103.6301947440577
 20
-151.0657144804627
 10
103.6301947440577
 20
-151.0657144804627
 10
103.6301947440577
 20
-151.0657144804627
 10
103.6301947440577
 20
-150.9513373103524
 10
103.6301947440577
 20
-150.9513373103524
 97
        0
 97
        1
330
110
 92
        1
 93
        1
 72
     4
 94
        3
 73
     0
 74
     0
 95
       17
 96
       13
 40
0.0
 40
0.0
 40
0.0
 40
0.0
 40
1.0
 40
1.0
 40
1.0
 40
2.0
 40
2.0
 40
2.0
 40
3.0
 40
3.0
 40
3.0
 40
4.0
 40
4.0
 40
4.0
 40
4.0
 10
103.6301947440577
 20
-150.7081135690938
 10
103.6301947440577
 20
-150.7081135690938
 10
102.923605660033
 20
-150.7081135690938
 10
102.923605660033
 20
-150.7081135690938
 10
102.923605660033
 20
-150.7081135690938
 10
102.923605660033
 20
-150.8221462296555
 10
102.923605660033
 20
-150.8221462296555
 10
102.923605660033
 20
-150.8221462296555
 10
103.6301947440577
 20
-150.8221462296555
 10
103.6301947440577
 20
-150.8221462296555
 10
103.6301947440577
 20
-150.8221462296555
 10
103.6301947440577
 20
-150.7081135690938
 10
103.6301947440577
 20
-150.7081135690938
 97
        0
 97
        1
330
111
 92
        1
 93
        1
 72
     4
 94
        3
 73
     0
 74
     0
 95
       17
 96
       13
 40
0.0
 40
0.0
 40
0.0
 40
0.0
 40
1.0
 40
1.0
 40
1.0
 40
2.0
 40
2.0
 40
2.0
 40
3.0
 40
3.0
 40
3.0
 40
4.0
 40
4.0
 40
4.0
 40
4.0
 10
103.6301947440577
 20
-150.4752251142909
 10
103.6301947440577
 20
-150.4752251142909
 10
102.923605660033
 20
-150.4752251142909
 10
102.923605660033
 20
-150.4752251142909
 10
102.923605660033
 20
-150.4752251142909
 10
102.923605660033
 20
-150.5830566029792
 10
102.923605660033
 20
-150.5830566029792
 10
102.923605660033
 20
-150.5830566029792
 10
103.6301947440577
 20
-150.5830566029792
 10
103.6301947440577
 20
-150.5830566029792
 10
103.6301947440577
 20
-150.5830566029792
 10
103.6301947440577
 20
-150.4752251142909
 10
103.6301947440577
 20
-150.4752251142909
 97
        0
 97
        1
330
112
 92
        1
 93
        1
 72
     4
 94
        3
 73
     0
 74
     0
 95
      203
 96
      199
 40
0.0
 40
0.0
 40
0.0
 40
0.0
 40
1.0
 40
1.0
 40
1.0
 40
2.0
 40
2.0
 40
2.0
 40
3.0
 40
3.0
 40
3.0
 40
4.0
 40
4.0
 40
4.0
 40
5.0
 40
5.0
 40
5.0
 40
6.0
 40
6.0
 40
6.0
 40
7.0
 40
7.0
 40
7.0
 40
8.0
 40
8.0
 40
8.0
 40
9.0
 40
9.0
 40
9.0
 40
10.0
 40
10.0
 40
10.0
 40
11.0
 40
11.0
 40
11.0
 40
12.0
 40
12.0
 40
12.0
 40
13.0
 40
13.0
 40
13.0
 40
14.0
 40
14.0
 40
14.0
 40
15.0
 40
15.0
 40
15.0
 40
16.0
 40
16.0
 40
16.0
 40
17.0
 40
17.0
 40
17.0
 40
18.0
 40
18.0
 40
18.0
 40
19.0
 40
19.0
 40
19.0
 40
20.0
 40
20.0
 40
20.0
 40
21.0
 40
21.0
 40
21.0
 40
22.0
 40
22.0
 40
22.0
 40
23.0
 40
23.0
 40
23.0
 40
24.0
 40
24.0
 40
24.0
 40
25.0
 40
25.0
 40
25.0
 40
26.0
 40
26.0
 40
26.0
 40
27.0
 40
27.0
 40
27.0
 40
28.0
 40
28.0
 40
28.0
 40
29.0
 40
29.0
 40
29.0
 40
30.0
 40
30.0
 40
30.0
 40
31.0
 40
31.0
 40
31.0
 40
32.0
 40
32.0
 40
32.0
 40
33.0
 40
33.0
 40
33.0
 40
34.0
 40
34.0
 40
34.0
 40
35.0
 40
35.0
 40
35.0
 40
36.0
 40
36.0
 40
36.0
 40
37.0
 40
37.0
 40
37.0
 40
38.0
 40
38.0
 40
38.0
 40
39.0
 40
39.0
 40
39.0
 40
40.0
 40
40.0
 40
40.0
 40
41.0
 40
41.0
 40
41.0
 40
42.0
 40
42.0
 40
42.0
 40
43.0
 40
43.0
 40
43.0
 40
44.0
 40
44.0
 40
44.0
 40
45.0
 40
45.0
 40
45.0
 40
46.0
 40
46.0
 40
46.0
 40
47.0
 40
47.0
 40
47.0
 40
48.0
 40
48.0
 40
48.0
 40
49.0
 40
49.0
 40
49.0
 40
50.0
 40
50.0
 40
50.0
 40
51.0
 40
51.0
 40
51.0
 40
52.0
 40
52.0
 40
52.0
 40
53.0
 40
53.0
 40
53.0
 40
54.0
 40
54.0
 40
54.0
 40
55.0
 40
55.0
 40
55.0
 40
56.0
 40
56.0
 40
56.0
 40
57.0
 40
57.0
 40
57.0
 40
58.0
 40
58.0
 40
58.0
 40
59.0
 40
59.0
 40
59.0
 40
60.0
 40
60.0
 40
60.0
 40
61.0
 40
61.0
 40
61.0
 40
62.0
 40
62.0
 40
62.0
 40
63.0
 40
63.0
 40
63.0
 40
64.0
 40
64.0
 40
64.0
 40
65.0
 40
65.0
 40
65.0
 40
66.0
 40
66.0
 40
66.0
 40
66.0
 10
103.4651746703142
 20
-150.2192545197369
 10
103.4651746703142
 20
-150.2192545197369
 10
102.9067246921552
 20
-150.2192545197369
 10
102.9067246921552
 20
-150.2192545197369
 10
102.896044896151
 20
-150.2636962514966
 10
102.8876044122121
 20
-150.2953911299609
 10
102.8748575589167
 20
-150.3336316898471
 10
102.9003512655075
 20
-150.3336316898471
 10
102.9151651760941
 20
-150.3356987471383
 10
102.9215386027418
 20
-150.3356987471383
 10
102.9215386027418
 20
-150.3356987471383
 10
103.1098130710107
 20
-150.3356987471383
 10
103.1098130710107
 20
-150.3356987471383
 10
103.1098130710107
 20
-150.3356987471383
 10
103.4841226954831
 20
-150.3356987471383
 10
103.4841226954831
 20
-150.3356987471383
 10
103.5349378538906
 20
-150.3356987471383
 10
103.8184692123266
 20
-150.3229518938429
 10
103.8501640907909
 20
-150.3229518938429
 10
103.8480970334997
 20
-150.3505126577249
 10
103.8458577214343
 20
-150.3694606828937
 10
103.8458577214343
 20
-150.3990885040669
 10
103.8437906641432
 20
-150.4307833825312
 10
103.8437906641432
 20
-150.5661756351015
 10
103.8437906641432
 20
-150.5937363989835
 10
103.8437906641432
 20
-150.5937363989835
 10
103.8437906641432
 20
-150.8390271975333
 10
103.8437906641432
 20
-150.8390271975333
 10
103.8437906641432
 20
-150.883468929293
 10
103.8480970334997
 20
-151.0805283910493
 10
103.8522311480821
 20
-151.2328016114973
 10
103.8522311480821
 20
-151.2328016114973
 10
103.6258883747011
 20
-151.2328016114973
 10
103.6258883747011
 20
-151.2328016114973
 10
103.6258883747011
 20
-151.2328016114973
 10
103.6281276867666
 20
-151.1986951661933
 10
103.6281276867666
 20
-151.1986951661933
 10
103.6281276867666
 20
-151.1986951661933
 10
102.9256727173241
 20
-151.1986951661933
 10
102.9256727173241
 20
-151.1986951661933
 10
102.9256727173241
 20
-151.1986951661933
 10
102.9277397746153
 20
-151.2328016114973
 10
102.9277397746153
 20
-151.2328016114973
 10
102.9277397746153
 20
-151.2328016114973
 10
102.7098374851732
 20
-151.2328016114973
 10
102.7098374851732
 20
-151.2328016114973
 10
102.7141438545298
 20
-151.1776800837334
 10
102.7141438545298
 20
-151.1649332304379
 10
102.7205172811775
 20
-151.0509005698762
 10
102.7225843384686
 20
-151.0233398059942
 10
102.7246513957598
 20
-150.890014610715
 10
102.7246513957598
 20
-150.8710665855461
 10
102.7246513957598
 20
-150.8710665855461
 10
102.7246513957598
 20
-150.6678059519164
 10
102.7246513957598
 20
-150.6678059519164
 10
102.5851250286072
 20
-150.917575374597
 10
102.4157985855071
 20
-151.0484890030365
 10
102.31003415411
 20
-151.1142903268047
 10
102.31003415411
 20
-151.1142903268047
 10
102.1365735964276
 20
-150.9744194501036
 10
102.1365735964276
 20
-150.9744194501036
 10
102.2254570599471
 20
-150.9237765464704
 10
102.3692897964563
 20
-150.8369601402421
 10
102.5067491063177
 20
-150.6423122453255
 10
102.5978718819026
 20
-150.5155327314683
 10
102.6633286961223
 20
-150.3715277401849
 10
102.6972628866521
 20
-150.2192545197369
 10
102.4686808012057
 20
-150.221321577028
 10
102.2888468168757
 20
-150.22786725845
 10
102.1937621814828
 20
-150.2299343157411
 10
102.1937621814828
 20
-150.2299343157411
 10
102.1937621814828
 20
-150.0521673887022
 10
102.1937621814828
 20
-150.0521673887022
 10
102.3904771336906
 20
-150.0587130701242
 10
102.6740084921266
 20
-150.0628471847065
 10
102.8242146552835
 20
-150.0628471847065
 10
102.8242146552835
 20
-150.0628471847065
 10
103.037810575369
 20
-150.0628471847065
 10
103.037810575369
 20
-150.0628471847065
 10
103.037810575369
 20
-150.0628471847065
 10
103.037810575369
 20
-149.9550156960182
 10
103.037810575369
 20
-149.9550156960182
 10
103.037810575369
 20
-149.9550156960182
 10
102.8919107815687
 20
-149.9550156960182
 10
102.8919107815687
 20
-149.9550156960182
 10
102.7225843384686
 20
-149.9550156960182
 10
102.5534301501429
 20
-149.9591498106005
 10
102.386170764334
 20
-149.9653509824739
 10
102.386170764334
 20
-149.9653509824739
 10
102.386170764334
 20
-149.794129736857
 10
102.386170764334
 20
-149.794129736857
 10
102.5406832968474
 20
-149.8048095328613
 10
102.7268907078252
 20
-149.8048095328613
 10
102.8919107815687
 20
-149.8048095328613
 10
102.8919107815687
 20
-149.8048095328613
 10
103.037810575369
 20
-149.8048095328613
 10
103.037810575369
 20
-149.8048095328613
 10
103.037810575369
 20
-149.8048095328613
 10
103.037810575369
 20
-149.6862982481687
 10
103.037810575369
 20
-149.6862982481687
 10
103.037810575369
 20
-149.6862982481687
 10
102.9067246921552
 20
-149.6862982481687
 10
102.9067246921552
 20
-149.6862982481687
 10
102.8600436483301
 20
-149.6862982481687
 10
102.6569552694746
 20
-149.6945664773333
 10
102.6147528497803
 20
-149.6945664773333
 10
102.4116644709248
 20
-149.6990451014641
 10
102.3355278607008
 20
-149.7011121587553
 10
102.2571519384114
 20
-149.7031792160464
 10
102.2571519384114
 20
-149.7031792160464
 10
102.2571519384114
 20
-149.5192111171341
 10
102.2571519384114
 20
-149.5192111171341
 10
102.3713568537474
 20
-149.5274793462987
 10
102.4157985855071
 20
-149.5274793462987
 10
102.7987209486927
 20
-149.5360920850118
 10
102.7353311917641
 20
-149.4410074496189
 10
102.7077704278821
 20
-149.4134466857369
 10
102.6717691800612
 20
-149.3772731831418
 10
102.6717691800612
 20
-149.3772731831418
 10
102.8474690498089
 20
-149.2949354010443
 10
102.8474690498089
 20
-149.2949354010443
 10
102.8876044122121
 20
-149.3307643940909
 10
102.9320461439718
 20
-149.3731390685595
 10
103.0061156969047
 20
-149.483037614539
 10
103.0061156969047
 20
-149.483037614539
 10
102.8919107815687
 20
-149.5381591423029
 10
102.8919107815687
 20
-149.5381591423029
 10
102.8919107815687
 20
-149.5381591423029
 10
102.9024183227987
 20
-149.5381591423029
 10
102.9024183227987
 20
-149.5381591423029
 10
102.9024183227987
 20
-149.5381591423029
 10
103.4248670531368
 20
-149.5381591423029
 10
103.4248670531368
 20
-149.5381591423029
 10
103.4248670531368
 20
-149.5381591423029
 10
103.3297824177439
 20
-149.4937174105432
 10
103.3297824177439
 20
-149.4937174105432
 10
103.3573431816259
 20
-149.4558213602055
 10
103.4143595119068
 20
-149.3752061258506
 10
103.4291734224934
 20
-149.3011365729178
 10
103.4291734224934
 20
-149.3011365729178
 10
103.6427693425789
 20
-149.3645263298463
 10
103.6427693425789
 20
-149.3645263298463
 10
103.651382081292
 20
-149.366937896686
 10
103.672397163752
 20
-149.3772731831418
 10
103.672397163752
 20
-149.3986327751503
 10
103.672397163752
 20
-149.4365288254881
 10
103.6069403495323
 20
-149.4365288254881
 10
103.5878200695891
 20
-149.4365288254881
 10
103.5773125283591
 20
-149.4558213602055
 10
103.5540581338337
 20
-149.4957844678344
 10
103.5244303126605
 20
-149.5360920850118
 10
103.9242336437238
 20
-149.5295464035898
 10
103.9538614648969
 20
-149.5274793462987
 10
104.0299980751209
 20
-149.5212781744252
 10
104.0299980751209
 20
-149.5212781744252
 10
104.0299980751209
 20
-149.7031792160464
 10
104.0299980751209
 20
-149.7031792160464
 10
104.0108777951778
 20
-149.7031792160464
 10
103.9855563433612
 20
-149.7011121587553
 10
103.765586996628
 20
-149.6924994200421
 10
103.7147718382206
 20
-149.690432362751
 10
103.4948024914874
 20
-149.6862982481687
 10
103.4503607597277
 20
-149.6862982481687
 10
103.4503607597277
 20
-149.6862982481687
 10
103.2345255275768
 20
-149.6862982481687
 10
103.2345255275768
 20
-149.6862982481687
 10
103.2345255275768
 20
-149.6862982481687
 10
103.2345255275768
 20
-149.8048095328613
 10
103.2345255275768
 20
-149.8048095328613
 10
103.2345255275768
 20
-149.8048095328613
 10
103.4079860852591
 20
-149.8048095328613
 10
103.4079860852591
 20
-149.8048095328613
 10
103.5709391017114
 20
-149.8048095328613
 10
103.7612806272715
 20
-149.8048095328613
 10
103.9178602170761
 20
-149.794129736857
 10
103.9178602170761
 20
-149.794129736857
 10
103.9178602170761
 20
-149.9653509824739
 10
103.9178602170761
 20
-149.9653509824739
 10
103.7083984115729
 20
-149.9570827533093
 10
103.5116834593651
 20
-149.9550156960182
 10
103.4079860852591
 20
-149.9550156960182
 10
103.4079860852591
 20
-149.9550156960182
 10
103.2345255275768
 20
-149.9550156960182
 10
103.2345255275768
 20
-149.9550156960182
 10
103.2345255275768
 20
-149.9550156960182
 10
103.2345255275768
 20
-150.0628471847065
 10
103.2345255275768
 20
-150.0628471847065
 10
103.2345255275768
 20
-150.0628471847065
 10
103.4651746703142
 20
-150.0628471847065
 10
103.4651746703142
 20
-150.0628471847065
 10
103.5984998655934
 20
-150.0628471847065
 10
103.8861653386118
 20
-150.0587130701242
 10
104.0956271441149
 20
-150.0521673887022
 10
104.0956271441149
 20
-150.0521673887022
 10
104.0956271441149
 20
-150.2299343157411
 10
104.0956271441149
 20
-150.2299343157411
 10
103.9030463064895
 20
-150.2237331438677
 10
103.5898871268803
 20
-150.2192545197369
 10
103.4651746703142
 20
-150.2192545197369
 97
        0
 97
        1
330
113
 75
     2
 76
     1
 98
        1
 10
0.0
 20
0.0
450
        0
451
        0
460
0.0
461
0.0
452
        0
462
0.0
453
        0
470

  0
SPLINE
  5
115
330
108
100
AcDbEntity
  8
レイヤー 1
100
AcDbSpline
210
0.0
220
0.0
230
1.0
 70
     9
 71
     3
 72
    29
 73
    25
 74
     0
 42
0.0000000001
 43
0.0000000001
 40
0.0
 40
0.0
 40
0.0
 40
0.0
 40
1.0
 40
1.0
 40
1.0
 40
2.0
 40
2.0
 40
2.0
 40
3.0
 40
3.0
 40
3.0
 40
4.0
 40
4.0
 40
4.0
 40
5.0
 40
5.0
 40
5.0
 40
6.0
 40
6.0
 40
6.0
 40
7.0
 40
7.0
 40
7.0
 40
8.0
 40
8.0
 40
8.0
 40
8.0
 10
105.3406846524843
 20
-149.6673502229998
 30
0.0
 10
105.3406846524843
 20
-149.6673502229998
 30
0.0
 10
104.9873901104719
 20
-149.6673502229998
 30
0.0
 10
104.9873901104719
 20
-149.6673502229998
 30
0.0
 10
104.875252252427
 20
-149.6673502229998
 30
0.0
 10
104.7355536305001
 20
-149.6735513948733
 30
0.0
 10
104.6277221418118
 20
-149.6862982481687
 30
0.0
 10
104.6277221418118
 20
-149.6862982481687
 30
0.0
 10
104.6277221418118
 20
-149.4513427360747
 30
0.0
 10
104.6277221418118
 20
-149.4513427360747
 30
0.0
 10
104.7462334265044
 20
-149.4661566466612
 30
0.0
 10
104.9302015254167
 20
-149.4702907612435
 30
0.0
 10
104.9873901104719
 20
-149.4702907612435
 30
0.0
 10
104.9873901104719
 20
-149.4702907612435
 30
0.0
 10
105.3406846524843
 20
-149.4702907612435
 30
0.0
 10
105.3406846524843
 20
-149.4702907612435
 30
0.0
 10
105.3596326776531
 20
-149.4702907612435
 30
0.0
 10
105.5628933112829
 20
-149.4702907612435
 30
0.0
 10
105.7044867357266
 20
-149.4513427360747
 30
0.0
 10
105.7044867357266
 20
-149.4513427360747
 30
0.0
 10
105.7044867357266
 20
-149.6862982481687
 30
0.0
 10
105.7044867357266
 20
-149.6862982481687
 30
0.0
 10
105.5480794006963
 20
-149.6673502229998
 30
0.0
 10
105.357565620362
 20
-149.6673502229998
 30
0.0
 10
105.3406846524843
 20
-149.6673502229998
 30
0.0
  0
SPLINE
  5
116
330
108
100
AcDbEntity
  8
レイヤー 1
100
AcDbSpline
210
0.0
220
0.0
230
1.0
 70
     9
 71
     3
 72
    47
 73
    43
 74
     0
 42
0.0000000001
 43
0.0000000001
 40
0.0
 40
0.0
 40
0.0
 40
0.0
 40
1.0
 40
1.0
 40
1.0
 40
2.0
 40
2.0
 40
2.0
 40
3.0
 40
3.0
 40
3.0
 40
4.0
 40
4.0
 40
4.0
 40
5.0
 40
5.0
 40
5.0
 40
6.0
 40
6.0
 40
6.0
 40
7.0
 40
7.0
 40
7.0
 40
8.0
 40
8.0
 40
8.0
 40
9.0
 40
9.0
 40
9.0
 40
10.0
 40
10.0
 40
10.0
 40
11.0
 40
11.0
 40
11.0
 40
12.0
 40
12.0
 40
12.0
 40
13.0
 40
13.0
 40
13.0
 40
14.0
 40
14.0
 40
14.0
 40
14.0
 10
105.4421427145249
 20
-150.1961723799857
 30
0.0
 10
105.4421427145249
 20
-150.1961723799857
 30
0.0
 10
105.3406846524843
 20
-150.1961723799857
 30
0.0
 10
105.3406846524843
 20
-150.1961723799857
 30
0.0
 10
105.3406846524843
 20
-150.2826442766654
 30
0.0
 10
105.31949731525
 20
-150.6719400664987
 30
0.0
 10
105.1227823630422
 20
-150.8920816680061
 30
0.0
 10
104.9703368878199
 20
-151.0612358563319
 30
0.0
 10
104.7631143943821
 20
-151.1311712946825
 30
0.0
 10
104.6785373002192
 20
-151.1587320585645
 30
0.0
 10
104.6785373002192
 20
-151.1587320585645
 30
0.0
 10
104.4838894053026
 20
-150.9916449275299
 30
0.0
 10
104.4838894053026
 20
-150.9916449275299
 30
0.0
 10
104.5812133527609
 20
-150.9788980742344
 30
0.0
 10
104.7567409677344
 20
-150.9554714249347
 30
0.0
 10
104.9450154360033
 20
-150.7673692114401
 30
0.0
 10
105.0190849889362
 20
-150.6953667157984
 30
0.0
 10
105.1227823630422
 20
-150.5558403486458
 30
0.0
 10
105.1227823630422
 20
-150.1961723799857
 30
0.0
 10
105.1227823630422
 20
-150.1961723799857
 30
0.0
 10
104.8921332203047
 20
-150.1961723799857
 30
0.0
 10
104.8921332203047
 20
-150.1961723799857
 30
0.0
 10
104.705925809327
 20
-150.1961723799857
 30
0.0
 10
104.5197183983492
 20
-150.200306494568
 30
0.0
 10
104.3336832421457
 20
-150.2151204051545
 30
0.0
 10
104.3336832421457
 20
-150.2151204051545
 30
0.0
 10
104.3336832421457
 20
-149.9949788036471
 30
0.0
 10
104.3336832421457
 20
-149.9949788036471
 30
0.0
 10
104.5219577104146
 20
-150.0097927142336
 30
0.0
 10
104.8075561261418
 20
-150.0142713383645
 30
0.0
 10
104.8921332203047
 20
-150.0142713383645
 30
0.0
 10
104.8921332203047
 20
-150.0142713383645
 30
0.0
 10
105.4421427145249
 20
-150.0142713383645
 30
0.0
 10
105.4421427145249
 20
-150.0142713383645
 30
0.0
 10
105.461262994468
 20
-150.0142713383645
 30
0.0
 10
105.7785562886595
 20
-150.0142713383645
 30
0.0
 10
106.0069661193316
 20
-149.9949788036471
 30
0.0
 10
106.0069661193316
 20
-149.9949788036471
 30
0.0
 10
106.0069661193316
 20
-150.2151204051545
 30
0.0
 10
106.0069661193316
 20
-150.2151204051545
 30
0.0
 10
105.8188639058369
 20
-150.200306494568
 30
0.0
 10
105.6304171827938
 20
-150.1961723799857
 30
0.0
 10
105.4421427145249
 20
-150.1961723799857
 30
0.0
  0
HATCH
  5
117
330
108
100
AcDbEntity
  8
レイヤー 1
 62
    18
420
        0
440
 33554687
100
AcDbHatch
 10
0.0
 20
0.0
 30
0.0
210
0.0
220
0.0
230
1.0
  2
SOLID
 70
     1
 71
     1
 91
        2
 92
        1
 93
        1
 72
     4
 94
        3
 73
     0
 74
     0
 95
       29
 96
       25
 40
0.0
 40
0.0
 40
0.0
 40
0.0
 40
1.0
 40
1.0
 40
1.0
 40
2.0
 40
2.0
 40
2.0
 40
3.0
 40
3.0
 40
3.0
 40
4.0
 40
4.0
 40
4.0
 40
5.0
 40
5.0
 40
5.0
 40
6.0
 40
6.0
 40
6.0
 40
7.0
 40
7.0
 40
7.0
 40
8.0
 40
8.0
 40
8.0
 40
8.0
 10
105.3406846524843
 20
-149.6673502229998
 10
105.3406846524843
 20
-149.6673502229998
 10
104.9873901104719
 20
-149.6673502229998
 10
104.9873901104719
 20
-149.6673502229998
 10
104.875252252427
 20
-149.6673502229998
 10
104.7355536305001
 20
-149.6735513948733
 10
104.6277221418118
 20
-149.6862982481687
 10
104.6277221418118
 20
-149.6862982481687
 10
104.6277221418118
 20
-149.4513427360747
 10
104.6277221418118
 20
-149.4513427360747
 10
104.7462334265044
 20
-149.4661566466612
 10
104.9302015254167
 20
-149.4702907612435
 10
104.9873901104719
 20
-149.4702907612435
 10
104.9873901104719
 20
-149.4702907612435
 10
105.3406846524843
 20
-149.4702907612435
 10
105.3406846524843
 20
-149.4702907612435
 10
105.3596326776531
 20
-149.4702907612435
 10
105.5628933112829
 20
-149.4702907612435
 10
105.7044867357266
 20
-149.4513427360747
 10
105.7044867357266
 20
-149.4513427360747
 10
105.7044867357266
 20
-149.6862982481687
 10
105.7044867357266
 20
-149.6862982481687
 10
105.5480794006963
 20
-149.6673502229998
 10
105.357565620362
 20
-149.6673502229998
 10
105.3406846524843
 20
-149.6673502229998
 97
        0
 97
        1
330
115
 92
        1
 93
        1
 72
     4
 94
        3
 73
     0
 74
     0
 95
       47
 96
       43
 40
0.0
 40
0.0
 40
0.0
 40
0.0
 40
1.0
 40
1.0
 40
1.0
 40
2.0
 40
2.0
 40
2.0
 40
3.0
 40
3.0
 40
3.0
 40
4.0
 40
4.0
 40
4.0
 40
5.0
 40
5.0
 40
5.0
 40
6.0
 40
6.0
 40
6.0
 40
7.0
 40
7.0
 40
7.0
 40
8.0
 40
8.0
 40
8.0
 40
9.0
 40
9.0
 40
9.0
 40
10.0
 40
10.0
 40
10.0
 40
11.0
 40
11.0
 40
11.0
 40
12.0
 40
12.0
 40
12.0
 40
13.0
 40
13.0
 40
13.0
 40
14.0
 40
14.0
 40
14.0
 40
14.0
 10
105.4421427145249
 20
-150.1961723799857
 10
105.4421427145249
 20
-150.1961723799857
 10
105.3406846524843
 20
-150.1961723799857
 10
105.3406846524843
 20
-150.1961723799857
 10
105.3406846524843
 20
-150.2826442766654
 10
105.31949731525
 20
-150.6719400664987
 10
105.1227823630422
 20
-150.8920816680061
 10
104.9703368878199
 20
-151.0612358563319
 10
104.7631143943821
 20
-151.1311712946825
 10
104.6785373002192
 20
-151.1587320585645
 10
104.6785373002192
 20
-151.1587320585645
 10
104.4838894053026
 20
-150.9916449275299
 10
104.4838894053026
 20
-150.9916449275299
 10
104.5812133527609
 20
-150.9788980742344
 10
104.7567409677344
 20
-150.9554714249347
 10
104.9450154360033
 20
-150.7673692114401
 10
105.0190849889362
 20
-150.6953667157984
 10
105.1227823630422
 20
-150.5558403486458
 10
105.1227823630422
 20
-150.1961723799857
 10
105.1227823630422
 20
-150.1961723799857
 10
104.8921332203047
 20
-150.1961723799857
 10
104.8921332203047
 20
-150.1961723799857
 10
104.705925809327
 20
-150.1961723799857
 10
104.5197183983492
 20
-150.200306494568
 10
104.3336832421457
 20
-150.2151204051545
 10
104.3336832421457
 20
-150.2151204051545
 10
104.3336832421457
 20
-149.9949788036471
 10
104.3336832421457
 20
-149.9949788036471
 10
104.5219577104146
 20
-150.0097927142336
 10
104.8075561261418
 20
-150.0142713383645
 10
104.8921332203047
 20
-150.0142713383645
 10
104.8921332203047
 20
-150.0142713383645
 10
105.4421427145249
 20
-150.0142713383645
 10
105.4421427145249
 20
-150.0142713383645
 10
105.461262994468
 20
-150.0142713383645
 10
105.7785562886595
 20
-150.0142713383645
 10
106.0069661193316
 20
-149.9949788036471
 10
106.0069661193316
 20
-149.9949788036471
 10
106.0069661193316
 20
-150.2151204051545
 10
106.0069661193316
 20
-150.2151204051545
 10
105.8188639058369
 20
-150.200306494568
 10
105.6304171827938
 20
-150.1961723799857
 10
105.4421427145249
 20
-150.1961723799857
 97
        0
 97
        1
330
116
 75
     2
 76
     1
 98
        1
 10
0.0
 20
0.0
450
        0
451
        0
460
0.0
461
0.0
452
        0
462
0.0
453
        0
470

  0
SPLINE
  5
118
330
108
100
AcDbEntity
  8
レイヤー 1
100
AcDbSpline
210
0.0
220
0.0
230
1.0
 70
     9
 71
     3
 72
    29
 73
    25
 74
     0
 42
0.0000000001
 43
0.0000000001
 40
0.0
 40
0.0
 40
0.0
 40
0.0
 40
1.0
 40
1.0
 40
1.0
 40
2.0
 40
2.0
 40
2.0
 40
3.0
 40
3.0
 40
3.0
 40
4.0
 40
4.0
 40
4.0
 40
5.0
 40
5.0
 40
5.0
 40
6.0
 40
6.0
 40
6.0
 40
7.0
 40
7.0
 40
7.0
 40
8.0
 40
8.0
 40
8.0
 40
8.0
 10
107.2878526207475
 20
-150.359125396438
 30
0.0
 10
107.2878526207475
 20
-150.359125396438
 30
0.0
 10
106.8034721955213
 20
-150.359125396438
 30
0.0
 10
106.8034721955213
 20
-150.359125396438
 30
0.0
 10
106.7759114316393
 20
-150.359125396438
 30
0.0
 10
106.4586181374478
 20
-150.359125396438
 30
0.0
 10
106.2470892746535
 20
-150.3842745934803
 30
0.0
 10
106.2470892746535
 20
-150.3842745934803
 30
0.0
 10
106.2470892746535
 20
-150.1537977055171
 30
0.0
 10
106.2470892746535
 20
-150.1537977055171
 30
0.0
 10
106.4059081765235
 20
-150.1768798452683
 30
0.0
 10
106.5960774473093
 20
-150.179291412108
 30
0.0
 10
106.8034721955213
 20
-150.179291412108
 30
0.0
 10
106.8034721955213
 20
-150.179291412108
 30
0.0
 10
107.2878526207475
 20
-150.179291412108
 30
0.0
 10
107.2878526207475
 20
-150.179291412108
 30
0.0
 10
107.4742322864995
 20
-150.179291412108
 30
0.0
 10
107.660267442703
 20
-150.1768798452683
 30
0.0
 10
107.8442355416153
 20
-150.1537977055171
 30
0.0
 10
107.8442355416153
 20
-150.1537977055171
 30
0.0
 10
107.8442355416153
 20
-150.3842745934803
 30
0.0
 10
107.8442355416153
 20
-150.3842745934803
 30
0.0
 10
107.660267442703
 20
-150.3611924537291
 30
0.0
 10
107.412909586862
 20
-150.359125396438
 30
0.0
 10
107.2878526207475
 20
-150.359125396438
 30
0.0
  0
HATCH
  5
119
330
108
100
AcDbEntity
  8
レイヤー 1
 62
    18
420
        0
440
 33554687
100
AcDbHatch
 10
0.0
 20
0.0
 30
0.0
210
0.0
220
0.0
230
1.0
  2
SOLID
 70
     1
 71
     1
 91
        1
 92
        1
 93
        1
 72
     4
 94
        3
 73
     0
 74
     0
 95
       29
 96
       25
 40
0.0
 40
0.0
 40
0.0
 40
0.0
 40
1.0
 40
1.0
 40
1.0
 40
2.0
 40
2.0
 40
2.0
 40
3.0
 40
3.0
 40
3.0
 40
4.0
 40
4.0
 40
4.0
 40
5.0
 40
5.0
 40
5.0
 40
6.0
 40
6.0
 40
6.0
 40
7.0
 40
7.0
 40
7.0
 40
8.0
 40
8.0
 40
8.0
 40
8.0
 10
107.2878526207475
 20
-150.359125396438
 10
107.2878526207475
 20
-150.359125396438
 10
106.8034721955213
 20
-150.359125396438
 10
106.8034721955213
 20
-150.359125396438
 10
106.7759114316393
 20
-150.359125396438
 10
106.4586181374478
 20
-150.359125396438
 10
106.2470892746535
 20
-150.3842745934803
 10
106.2470892746535
 20
-150.3842745934803
 10
106.2470892746535
 20
-150.1537977055171
 10
106.2470892746535
 20
-150.1537977055171
 10
106.4059081765235
 20
-150.1768798452683
 10
106.5960774473093
 20
-150.179291412108
 10
106.8034721955213
 20
-150.179291412108
 10
106.8034721955213
 20
-150.179291412108
 10
107.2878526207475
 20
-150.179291412108
 10
107.2878526207475
 20
-150.179291412108
 10
107.4742322864995
 20
-150.179291412108
 10
107.660267442703
 20
-150.1768798452683
 10
107.8442355416153
 20
-150.1537977055171
 10
107.8442355416153
 20
-150.1537977055171
 10
107.8442355416153
 20
-150.3842745934803
 10
107.8442355416153
 20
-150.3842745934803
 10
107.660267442703
 20
-150.3611924537291
 10
107.412909586862
 20
-150.359125396438
 10
107.2878526207475
 20
-150.359125396438
 97
        0
 97
        1
330
118
 75
     2
 76
     1
 98
        1
 10
0.0
 20
0.0
450
        0
451
        0
460
0.0
461
0.0
452
        0
462
0.0
453
        0
470

  0
SPLINE
  5
11A
330
108
100
AcDbEntity
  8
レイヤー 1
100
AcDbSpline
210
0.0
220
0.0
230
1.0
 70
     9
 71
     3
 72
    47
 73
    43
 74
     0
 42
0.0000000001
 43
0.0000000001
 40
0.0
 40
0.0
 40
0.0
 40
0.0
 40
1.0
 40
1.0
 40
1.0
 40
2.0
 40
2.0
 40
2.0
 40
3.0
 40
3.0
 40
3.0
 40
4.0
 40
4.0
 40
4.0
 40
5.0
 40
5.0
 40
5.0
 40
6.0
 40
6.0
 40
6.0
 40
7.0
 40
7.0
 40
7.0
 40
8.0
 40
8.0
 40
8.0
 40
9.0
 40
9.0
 40
9.0
 40
10.0
 40
10.0
 40
10.0
 40
11.0
 40
11.0
 40
11.0
 40
12.0
 40
12.0
 40
12.0
 40
13.0
 40
13.0
 40
13.0
 40
14.0
 40
14.0
 40
14.0
 40
14.0
 10
109.508216660991
 20
-149.7645019156839
 30
0.0
 10
109.4382812226404
 20
-150.0438991595376
 30
0.0
 10
109.3621446124164
 20
-150.3484456004337
 30
0.0
 10
109.0489854328072
 20
-150.6805528052118
 30
0.0
 10
108.811962863422
 20
-150.9303222278924
 30
0.0
 10
108.5666720648722
 20
-151.0295409778676
 30
0.0
 10
108.460907633475
 20
-151.0719156523362
 30
0.0
 10
108.460907633475
 20
-151.0719156523362
 30
0.0
 10
108.2662597385584
 20
-150.890014610715
 30
0.0
 10
108.2662597385584
 20
-150.890014610715
 30
0.0
 10
108.4522948947619
 20
-150.8435058216641
 30
0.0
 10
108.8143744302617
 20
-150.7504882435624
 30
0.0
 10
109.1103081324446
 20
-150.255428022332
 30
0.0
 10
109.2711940916058
 20
-149.9887776317736
 30
0.0
 10
109.2839409449012
 20
-149.815144819317
 30
0.0
 10
109.2922091740658
 20
-149.7241942985064
 30
0.0
 10
109.2922091740658
 20
-149.7241942985064
 30
0.0
 10
108.7868136663797
 20
-149.7241942985064
 30
0.0
 10
108.7868136663797
 20
-149.7241942985064
 30
0.0
 10
108.6683023816871
 20
-149.7241942985064
 30
0.0
 10
108.2473117133895
 20
-149.7434868332238
 30
0.0
 10
108.0950384929415
 20
-149.7538221196796
 30
0.0
 10
108.0950384929415
 20
-149.7538221196796
 30
0.0
 10
108.0950384929415
 20
-149.5443603141764
 30
0.0
 10
108.0950384929415
 20
-149.5443603141764
 30
0.0
 10
108.2366319173853
 20
-149.5571071674718
 30
0.0
 10
108.5139621039479
 20
-149.5615857916026
 30
0.0
 10
108.6300618218008
 20
-149.5615857916026
 30
0.0
 10
108.6300618218008
 20
-149.5615857916026
 30
0.0
 10
108.9855956758786
 20
-149.5615857916026
 30
0.0
 10
108.9855956758786
 20
-149.5615857916026
 30
0.0
 10
109.0131564397606
 20
-149.5615857916026
 30
0.0
 10
109.1736978893732
 20
-149.559174224763
 30
0.0
 10
109.2839409449012
 20
-149.5443603141764
 30
0.0
 10
109.3411295299564
 20
-149.5381591423029
 30
0.0
 10
109.3580104978341
 20
-149.5192111171341
 30
0.0
 10
109.3810926375853
 20
-149.4957844678344
 30
0.0
 10
109.3810926375853
 20
-149.4957844678344
 30
0.0
 10
109.5695393606284
 20
-149.6459906309913
 30
0.0
 10
109.5695393606284
 20
-149.6459906309913
 30
0.0
 10
109.5547254500419
 20
-149.6756184521644
 30
0.0
 10
109.5440456540376
 20
-149.6945664773333
 30
0.0
 10
109.508216660991
 20
-149.7645019156839
 30
0.0
  0
HATCH
  5
11B
330
108
100
AcDbEntity
  8
レイヤー 1
 62
    18
420
        0
440
 33554687
100
AcDbHatch
 10
0.0
 20
0.0
 30
0.0
210
0.0
220
0.0
230
1.0
  2
SOLID
 70
     1
 71
     1
 91
        1
 92
        1
 93
        1
 72
     4
 94
        3
 73
     0
 74
     0
 95
       47
 96
       43
 40
0.0
 40
0.0
 40
0.0
 40
0.0
 40
1.0
 40
1.0
 40
1.0
 40
2.0
 40
2.0
 40
2.0
 40
3.0
 40
3.0
 40
3.0
 40
4.0
 40
4.0
 40
4.0
 40
5.0
 40
5.0
 40
5.0
 40
6.0
 40
6.0
 40
6.0
 40
7.0
 40
7.0
 40
7.0
 40
8.0
 40
8.0
 40
8.0
 40
9.0
 40
9.0
 40
9.0
 40
10.0
 40
10.0
 40
10.0
 40
11.0
 40
11.0
 40
11.0
 40
12.0
 40
12.0
 40
12.0
 40
13.0
 40
13.0
 40
13.0
 40
14.0
 40
14.0
 40
14.0
 40
14.0
 10
109.508216660991
 20
-149.7645019156839
 10
109.4382812226404
 20
-150.0438991595376
 10
109.3621446124164
 20
-150.3484456004337
 10
109.0489854328072
 20
-150.6805528052118
 10
108.811962863422
 20
-150.9303222278924
 10
108.5666720648722
 20
-151.0295409778676
 10
108.460907633475
 20
-151.0719156523362
 10
108.460907633475
 20
-151.0719156523362
 10
108.2662597385584
 20
-150.890014610715
 10
108.2662597385584
 20
-150.890014610715
 10
108.4522948947619
 20
-150.8435058216641
 10
108.8143744302617
 20
-150.7504882435624
 10
109.1103081324446
 20
-150.255428022332
 10
109.2711940916058
 20
-149.9887776317736
 10
109.2839409449012
 20
-149.815144819317
 10
109.2922091740658
 20
-149.7241942985064
 10
109.2922091740658
 20
-149.7241942985064
 10
108.7868136663797
 20
-149.7241942985064
 10
108.7868136663797
 20
-149.7241942985064
 10
108.6683023816871
 20
-149.7241942985064
 10
108.2473117133895
 20
-149.7434868332238
 10
108.0950384929415
 20
-149.7538221196796
 10
108.0950384929415
 20
-149.7538221196796
 10
108.0950384929415
 20
-149.5443603141764
 10
108.0950384929415
 20
-149.5443603141764
 10
108.2366319173853
 20
-149.5571071674718
 10
108.5139621039479
 20
-149.5615857916026
 10
108.6300618218008
 20
-149.5615857916026
 10
108.6300618218008
 20
-149.5615857916026
 10
108.9855956758786
 20
-149.5615857916026
 10
108.9855956758786
 20
-149.5615857916026
 10
109.0131564397606
 20
-149.5615857916026
 10
109.1736978893732
 20
-149.559174224763
 10
109.2839409449012
 20
-149.5443603141764
 10
109.3411295299564
 20
-149.5381591423029
 10
109.3580104978341
 20
-149.5192111171341
 10
109.3810926375853
 20
-149.4957844678344
 10
109.3810926375853
 20
-149.4957844678344
 10
109.5695393606284
 20
-149.6459906309913
 10
109.5695393606284
 20
-149.6459906309913
 10
109.5547254500419
 20
-149.6756184521644
 10
109.5440456540376
 20
-149.6945664773333
 10
109.508216660991
 20
-149.7645019156839
 97
        0
 97
        1
330
11A
 75
     2
 76
     1
 98
        1
 10
0.0
 20
0.0
450
        0
451
        0
460
0.0
461
0.0
452
        0
462
0.0
453
        0
470

  0
SPLINE
  5
11C
330
108
100
AcDbEntity
  8
レイヤー 1
100
AcDbSpline
210
0.0
220
0.0
230
1.0
 70
    11
 71
     3
 72
    17
 73
    13
 74
     0
 42
0.0000000001
 43
0.0000000001
 40
0.0
 40
0.0
 40
0.0
 40
0.0
 40
1.0
 40
1.0
 40
1.0
 40
2.0
 40
2.0
 40
2.0
 40
3.0
 40
3.0
 40
3.0
 40
4.0
 40
4.0
 40
4.0
 40
4.0
 10
109.8982014699213
 20
-149.5467718810161
 30
0.0
 10
109.8982014699213
 20
-149.6060275233624
 30
0.0
 10
109.9450547685207
 20
-149.6525363124133
 30
0.0
 10
110.0039659013184
 20
-149.6525363124133
 30
0.0
 10
110.0632215436647
 20
-149.6525363124133
 30
0.0
 10
110.1121418995553
 20
-149.6060275233624
 30
0.0
 10
110.1121418995553
 20
-149.5467718810161
 30
0.0
 10
110.1121418995553
 20
-149.4875162386698
 30
0.0
 10
110.0632215436647
 20
-149.4385958827792
 30
0.0
 10
110.0039659013184
 20
-149.4385958827792
 30
0.0
 10
109.9450547685207
 20
-149.4385958827792
 30
0.0
 10
109.8982014699213
 20
-149.4875162386698
 30
0.0
 10
109.8982014699213
 20
-149.5467718810161
 30
0.0
  0
SPLINE
  5
11D
330
108
100
AcDbEntity
  8
レイヤー 1
100
AcDbSpline
210
0.0
220
0.0
230
1.0
 70
     9
 71
     3
 72
    17
 73
    13
 74
     0
 42
0.0000000001
 43
0.0000000001
 40
0.0
 40
0.0
 40
0.0
 40
0.0
 40
1.0
 40
1.0
 40
1.0
 40
2.0
 40
2.0
 40
2.0
 40
3.0
 40
3.0
 40
3.0
 40
4.0
 40
4.0
 40
4.0
 40
4.0
 10
110.2134277068216
 20
-149.5467718810161
 30
0.0
 10
110.2134277068216
 20
-149.6608045415779
 30
0.0
 10
110.1204101287199
 20
-149.7558891769707
 30
0.0
 10
110.0039659013184
 20
-149.7558891769707
 30
0.0
 10
109.8899332407567
 20
-149.7558891769707
 30
0.0
 10
109.7948486053638
 20
-149.6608045415779
 30
0.0
 10
109.7948486053638
 20
-149.5467718810161
 30
0.0
 10
109.7948486053638
 20
-149.4303276536146
 30
0.0
 10
109.8899332407567
 20
-149.3373100755129
 30
0.0
 10
110.0039659013184
 20
-149.3373100755129
 30
0.0
 10
110.1183430714287
 20
-149.3373100755129
 30
0.0
 10
110.2134277068216
 20
-149.4303276536146
 30
0.0
 10
110.2134277068216
 20
-149.5467718810161
 30
0.0
  0
HATCH
  5
11E
330
108
100
AcDbEntity
  8
レイヤー 1
 62
    18
420
        0
440
 33554687
100
AcDbHatch
 10
0.0
 20
0.0
 30
0.0
210
0.0
220
0.0
230
1.0
  2
SOLID
 70
     1
 71
     1
 91
        2
 92
        1
 93
        1
 72
     4
 94
        3
 73
     0
 74
     0
 95
       17
 96
       13
 40
0.0
 40
0.0
 40
0.0
 40
0.0
 40
1.0
 40
1.0
 40
1.0
 40
2.0
 40
2.0
 40
2.0
 40
3.0
 40
3.0
 40
3.0
 40
4.0
 40
4.0
 40
4.0
 40
4.0
 10
109.8982014699213
 20
-149.5467718810161
 10
109.8982014699213
 20
-149.6060275233624
 10
109.9450547685207
 20
-149.6525363124133
 10
110.0039659013184
 20
-149.6525363124133
 10
110.0632215436647
 20
-149.6525363124133
 10
110.1121418995553
 20
-149.6060275233624
 10
110.1121418995553
 20
-149.5467718810161
 10
110.1121418995553
 20
-149.4875162386698
 10
110.0632215436647
 20
-149.4385958827792
 10
110.0039659013184
 20
-149.4385958827792
 10
109.9450547685207
 20
-149.4385958827792
 10
109.8982014699213
 20
-149.4875162386698
 10
109.8982014699213
 20
-149.5467718810161
 97
        0
 97
        1
330
11C
 92
        1
 93
        1
 72
     4
 94
        3
 73
     0
 74
     0
 95
       17
 96
       13
 40
0.0
 40
0.0
 40
0.0
 40
0.0
 40
1.0
 40
1.0
 40
1.0
 40
2.0
 40
2.0
 40
2.0
 40
3.0
 40
3.0
 40
3.0
 40
4.0
 40
4.0
 40
4.0
 40
4.0
 10
110.2134277068216
 20
-149.5467718810161
 10
110.2134277068216
 20
-149.6608045415779
 10
110.1204101287199
 20
-149.7558891769707
 10
110.0039659013184
 20
-149.7558891769707
 10
109.8899332407567
 20
-149.7558891769707
 10
109.7948486053638
 20
-149.6608045415779
 10
109.7948486053638
 20
-149.5467718810161
 10
109.7948486053638
 20
-149.4303276536146
 10
109.8899332407567
 20
-149.3373100755129
 10
110.0039659013184
 20
-149.3373100755129
 10
110.1183430714287
 20
-149.3373100755129
 10
110.2134277068216
 20
-149.4303276536146
 10
110.2134277068216
 20
-149.5467718810161
 97
        0
 97
        1
330
11D
 75
     2
 76
     1
 98
        1
 10
0.0
 20
0.0
450
        0
451
        0
460
0.0
461
0.0
452
        0
462
0.0
453
        0
470

  0
ENDBLK
  5
10B
330
108
100
AcDbEntity
  8
0
100
AcDbBlockEnd
  0
ENDSEC
  0
SECTION
  2
ENTITIES
  0
LINE
  5
79
330
70
100
AcDbEntity
  8
レイヤー 1
 62
   250
420
  2299925
370
    25
100
AcDbLine
 10
119.7092780050899
 20
-153.9274464282367
 30
0.0
 11
112.7094423755998
 21
-153.9274464282367
 31
0.0
  0
LINE
  5
7A
330
70
100
AcDbEntity
  8
レイヤー 1
 62
   250
420
  2299925
370
    25
100
AcDbLine
 10
92.70789538588145
 20
-145.427724485917
 30
0.0
 11
92.70789538588145
 21
-145.9279280969032
 31
0.0
  0
LINE
  5
7B
330
70
100
AcDbEntity
  8
レイヤー 1
 62
   250
420
  2299925
370
    25
100
AcDbLine
 10
112.7094423755998
 20
-145.9279280969032
 30
0.0
 11
92.70789538588145
 21
-145.9279280969032
 31
0.0
  0
LINE
  5
7C
330
70
100
AcDbEntity
  8
レイヤー 1
 62
   250
420
  2299925
370
    25
100
AcDbLine
 10
92.70789538588145
 20
-145.427724485917
 30
0.0
 11
93.22189259499053
 21
-145.8097828191551
 31
0.0
  0
LINE
  5
7D
330
70
100
AcDbEntity
  8
レイヤー 1
 62
   250
420
  2299925
370
    25
100
AcDbLine
 10
93.22189259499053
 20
-145.8097828191551
 30
0.0
 11
93.70696202706012
 21
-145.3922350414816
 31
0.0
  0
LINE
  5
7E
330
70
100
AcDbEntity
  8
レイヤー 1
 62
   250
420
  2299925
370
    25
100
AcDbLine
 10
94.22099451394576
 20
-145.7742933747196
 30
0.0
 11
94.70673422377572
 21
-145.3563928192683
 31
0.0
  0
LINE
  5
7F
330
70
100
AcDbEntity
  8
レイヤー 1
 62
   250
420
  2299925
370
    25
100
AcDbLine
 10
93.70696202706012
 20
-145.3922350414816
 30
0.0
 11
94.22099451394576
 21
-145.7742933747196
 31
0.0
  0
LINE
  5
80
330
70
100
AcDbEntity
  8
レイヤー 1
 62
   250
420
  2299925
370
    25
100
AcDbLine
 10
94.70673422377572
 20
-145.3563928192683
 30
0.0
 11
95.22076671066166
 21
-145.7384511525063
 31
0.0
  0
LINE
  5
81
330
70
100
AcDbEntity
  8
レイヤー 1
 62
   250
420
  2299925
370
    25
100
AcDbLine
 10
95.22076671066166
 20
-145.7384511525063
 30
0.0
 11
95.70583614273095
 21
-145.3209033748328
 31
0.0
  0
LINE
  5
82
330
70
100
AcDbEntity
  8
レイヤー 1
 62
   250
420
  2299925
370
    25
100
AcDbLine
 10
95.70583614273095
 20
-145.3209033748328
 30
0.0
 11
96.21983335184001
 21
-145.7026442080706
 31
0.0
  0
LINE
  5
83
330
70
100
AcDbEntity
  8
レイヤー 1
 62
   250
420
  2299925
370
    25
100
AcDbLine
 10
96.21983335184001
 20
-145.7026442080706
 30
0.0
 11
96.7052555616781
 21
-145.2850964303974
 31
0.0
  0
LINE
  5
84
330
70
100
AcDbEntity
  8
レイヤー 1
 62
   250
420
  2299925
370
    25
100
AcDbLine
 10
96.7052555616781
 20
-145.2850964303974
 30
0.0
 11
97.21925277078716
 21
-145.6668019858573
 31
0.0
  0
LINE
  5
85
330
70
100
AcDbEntity
  8
レイヤー 1
 62
   250
420
  2299925
370
    25
100
AcDbLine
 10
97.21925277078716
 20
-145.6668019858573
 30
0.0
 11
97.70467498062522
 21
-145.2492542081839
 31
0.0
  0
LINE
  5
86
330
70
100
AcDbEntity
  8
レイヤー 1
 62
   250
420
  2299925
370
    25
100
AcDbLine
 10
97.70467498062522
 20
-145.2492542081839
 30
0.0
 11
98.21867218973428
 21
-145.6313125414219
 31
0.0
  0
LINE
  5
87
330
70
100
AcDbEntity
  8
レイヤー 1
 62
   250
420
  2299925
370
    25
100
AcDbLine
 10
98.21867218973428
 20
-145.6313125414219
 30
0.0
 11
98.70409439957235
 21
-145.2137647637484
 31
0.0
  0
LINE
  5
88
330
70
100
AcDbEntity
  8
レイヤー 1
 62
   250
420
  2299925
370
    25
100
AcDbLine
 10
98.70409439957235
 20
-145.2137647637484
 30
0.0
 11
99.21773883091262
 21
-145.595823096986
 31
0.0
  0
LINE
  5
89
330
70
100
AcDbEntity
  8
レイヤー 1
 62
   250
420
  2299925
370
    25
100
AcDbLine
 10
99.21773883091262
 20
-145.595823096986
 30
0.0
 11
99.70351381851948
 21
-145.1779578193133
 31
0.0
  0
LINE
  5
8A
330
70
100
AcDbEntity
  8
レイヤー 1
 62
   250
420
  2299925
370
    25
100
AcDbLine
 10
100.2175110276288
 20
-145.5600161525507
 30
0.0
 11
100.7025804596981
 21
-145.1424683748775
 31
0.0
  0
LINE
  5
8B
330
70
100
AcDbEntity
  8
レイヤー 1
 62
   250
420
  2299925
370
    25
100
AcDbLine
 10
99.70351381851948
 20
-145.1779578193133
 30
0.0
 11
100.2175110276288
 21
-145.5600161525507
 31
0.0
  0
LINE
  5
8C
330
70
100
AcDbEntity
  8
レイヤー 1
 62
   250
420
  2299925
370
    25
100
AcDbLine
 10
100.7025804596981
 20
-145.1424683748775
 30
0.0
 11
101.2166129465837
 21
-145.5241739303374
 31
0.0
  0
LINE
  5
8D
330
70
100
AcDbEntity
  8
レイヤー 1
 62
   250
420
  2299925
370
    25
100
AcDbLine
 10
101.2166129465837
 20
-145.5241739303374
 30
0.0
 11
101.7023526564137
 21
-145.1066261526642
 31
0.0
  0
LINE
  5
8E
330
70
100
AcDbEntity
  8
レイヤー 1
 62
   250
420
  2299925
370
    25
100
AcDbLine
 10
102.2163498655228
 20
-145.4883317081242
 30
0.0
 11
102.7014192975921
 21
-145.0708192082288
 31
0.0
  0
LINE
  5
8F
330
70
100
AcDbEntity
  8
レイヤー 1
 62
   250
420
  2299925
370
    25
100
AcDbLine
 10
101.7023526564137
 20
-145.1066261526642
 30
0.0
 11
102.2163498655228
 21
-145.4883317081242
 31
0.0
  0
LINE
  5
90
330
70
100
AcDbEntity
  8
レイヤー 1
 62
   250
420
  2299925
370
    25
100
AcDbLine
 10
103.215451784478
 20
-145.4528775414662
 30
0.0
 11
103.701191494308
 21
-145.0353297637933
 31
0.0
  0
LINE
  5
91
330
70
100
AcDbEntity
  8
レイヤー 1
 62
   250
420
  2299925
370
    25
100
AcDbLine
 10
102.7014192975921
 20
-145.0708192082288
 30
0.0
 11
103.215451784478
 21
-145.4528775414662
 31
0.0
  0
LINE
  5
92
330
70
100
AcDbEntity
  8
レイヤー 1
 62
   250
420
  2299925
370
    25
100
AcDbLine
 10
103.701191494308
 20
-145.0353297637933
 30
0.0
 11
104.2152239811942
 21
-145.417388097031
 31
0.0
  0
LINE
  5
93
330
70
100
AcDbEntity
  8
レイヤー 1
 62
   250
420
  2299925
370
    25
100
AcDbLine
 10
104.2152239811942
 20
-145.417388097031
 30
0.0
 11
104.7002934132632
 21
-144.9994875415801
 31
0.0
  0
LINE
  5
94
330
70
100
AcDbEntity
  8
レイヤー 1
 62
   250
420
  2299925
370
    25
100
AcDbLine
 10
104.7002934132632
 20
-144.9994875415801
 30
0.0
 11
105.2142906223723
 21
-145.3815458748175
 31
0.0
  0
LINE
  5
95
330
70
100
AcDbEntity
  8
レイヤー 1
 62
   250
420
  2299925
370
    25
100
AcDbLine
 10
105.2142906223723
 20
-145.3815458748175
 30
0.0
 11
105.6993600544419
 21
-144.963998097144
 31
0.0
  0
LINE
  5
96
330
70
100
AcDbEntity
  8
レイヤー 1
 62
   250
420
  2299925
370
    25
100
AcDbLine
 10
105.6993600544419
 20
-144.963998097144
 30
0.0
 11
106.2133572635509
 21
-145.3457389303824
 31
0.0
  0
LINE
  5
97
330
70
100
AcDbEntity
  8
レイヤー 1
 62
   250
420
  2299925
370
    25
100
AcDbLine
 10
106.2133572635509
 20
-145.3457389303824
 30
0.0
 11
106.6991322511578
 21
-144.9281911527092
 31
0.0
  0
LINE
  5
98
330
70
100
AcDbEntity
  8
レイヤー 1
 62
   250
420
  2299925
370
    25
100
AcDbLine
 10
106.6991322511578
 20
-144.9281911527092
 30
0.0
 11
107.2131294602668
 21
-145.3098967081691
 31
0.0
  0
LINE
  5
99
330
70
100
AcDbEntity
  8
レイヤー 1
 62
   250
420
  2299925
370
    25
100
AcDbLine
 10
107.2131294602668
 20
-145.3098967081691
 30
0.0
 11
107.6981988923361
 21
-144.8923489304956
 31
0.0
  0
LINE
  5
9A
330
70
100
AcDbEntity
  8
レイヤー 1
 62
   250
420
  2299925
370
    25
100
AcDbLine
 10
107.6981988923361
 20
-144.8923489304956
 30
0.0
 11
108.2121961014452
 21
-145.2744072637336
 31
0.0
  0
LINE
  5
9B
330
70
100
AcDbEntity
  8
レイヤー 1
 62
   250
420
  2299925
370
    25
100
AcDbLine
 10
108.2121961014452
 20
-145.2744072637336
 30
0.0
 11
108.6979710890521
 21
-144.8568594860601
 31
0.0
  0
LINE
  5
9C
330
70
100
AcDbEntity
  8
レイヤー 1
 62
   250
420
  2299925
370
    25
100
AcDbLine
 10
108.6979710890521
 20
-144.8568594860601
 30
0.0
 11
109.2119682981611
 21
-145.2389178192978
 31
0.0
  0
LINE
  5
9D
330
70
100
AcDbEntity
  8
レイヤー 1
 62
   250
420
  2299925
370
    25
100
AcDbLine
 10
109.2119682981611
 20
-145.2389178192978
 30
0.0
 11
109.6970377302304
 21
-144.8210172638469
 31
0.0
  0
LINE
  5
9E
330
70
100
AcDbEntity
  8
レイヤー 1
 62
   250
420
  2299925
370
    25
100
AcDbLine
 10
109.6970377302304
 20
-144.8210172638469
 30
0.0
 11
110.2110349393395
 21
-145.2031108748624
 31
0.0
  0
LINE
  5
9F
330
70
100
AcDbEntity
  8
レイヤー 1
 62
   250
420
  2299925
370
    25
100
AcDbLine
 10
110.2110349393395
 20
-145.2031108748624
 30
0.0
 11
110.6968099269463
 21
-144.7855630971889
 31
0.0
  0
LINE
  5
A0
330
70
100
AcDbEntity
  8
レイヤー 1
 62
   250
420
  2299925
370
    25
100
AcDbLine
 10
110.6968099269463
 20
-144.7855630971889
 30
0.0
 11
111.2108071360554
 21
-145.1672686526491
 31
0.0
  0
LINE
  5
A1
330
70
100
AcDbEntity
  8
レイヤー 1
 62
   250
420
  2299925
370
    25
100
AcDbLine
 10
111.2108071360554
 20
-145.1672686526491
 30
0.0
 11
111.6958765681247
 21
-144.7497208749757
 31
0.0
  0
LINE
  5
A2
330
70
100
AcDbEntity
  8
レイヤー 1
 62
   250
420
  2299925
370
    25
100
AcDbLine
 10
111.6958765681247
 20
-144.7497208749757
 30
0.0
 11
112.2099090550106
 21
-145.1314264304359
 31
0.0
  0
LINE
  5
A3
330
70
100
AcDbEntity
  8
レイヤー 1
 62
   250
420
  2299925
370
    25
100
AcDbLine
 10
112.2099090550106
 20
-145.1314264304359
 30
0.0
 11
112.6956487648406
 21
-144.7138786527621
 31
0.0
  0
LINE
  5
A4
330
70
100
AcDbEntity
  8
レイヤー 1
 62
   250
420
  2299925
370
    25
100
AcDbLine
 10
112.7696459740586
 20
-144.6656539305522
 30
0.0
 11
113.7092145723157
 21
-144.6656539305522
 31
0.0
  0
LINE
  5
A5
330
70
100
AcDbEntity
  8
レイヤー 1
 62
   250
420
  2299925
370
    25
100
AcDbLine
 10
113.7092145723157
 20
-144.6656539305522
 30
0.0
 11
113.7092145723157
 21
-152.9276742062648
 31
0.0
  0
LINE
  5
A6
330
70
100
AcDbEntity
  8
レイヤー 1
 62
   250
420
  2299925
370
    25
100
AcDbLine
 10
112.7094423755998
 20
-145.9279280969032
 30
0.0
 11
112.7094423755998
 21
-153.9274464282367
 31
0.0
  0
LINE
  5
A7
330
70
100
AcDbEntity
  8
レイヤー 1
 62
   250
420
  2299925
370
    25
100
AcDbLine
 10
118.7088355306133
 20
-152.9276742062648
 30
0.0
 11
113.7092145723157
 21
-152.9276742062648
 31
0.0
  0
LINE
  5
A8
330
70
100
AcDbEntity
  8
レイヤー 1
 62
   250
420
  2299925
370
    25
100
AcDbLine
 10
118.7088355027982
 20
-144.6656539305522
 30
0.0
 11
118.7088355027982
 21
-152.9276742062648
 31
0.0
  0
LINE
  5
A9
330
70
100
AcDbEntity
  8
レイヤー 1
 62
   250
420
  2299925
370
    25
100
AcDbLine
 10
119.7092779772748
 20
-144.6656539305522
 30
0.0
 11
119.7092779772748
 21
-153.9274464282367
 31
0.0
  0
SPLINE
  5
AA
330
70
100
AcDbEntity
  8
レイヤー 1
 62
   250
420
  2299925
370
     9
100
AcDbSpline
210
0.0
220
0.0
230
1.0
 70
     9
 71
     3
 72
    17
 73
    13
 74
     0
 42
0.0000000001
 43
0.0000000001
 40
0.0
 40
0.0
 40
0.0
 40
0.0
 40
1.0
 40
1.0
 40
1.0
 40
2.0
 40
2.0
 40
2.0
 40
3.0
 40
3.0
 40
3.0
 40
4.0
 40
4.0
 40
4.0
 40
4.0
 10
92.80780204999929
 20
-140.6658947648857
 30
0.0
 10
92.80780204999929
 20
-140.610438098232
 30
0.0
 10
92.76303455114142
 20
-140.5656353204663
 30
0.0
 10
92.70789538588145
 20
-140.5656353204663
 30
0.0
 10
92.65279149839839
 20
-140.5656353204663
 30
0.0
 10
92.60798872176362
 20
-140.610438098232
 30
0.0
 10
92.60798872176362
 20
-140.6658947648857
 30
0.0
 10
92.60798872176362
 20
-140.7210339315384
 30
0.0
 10
92.65279149839839
 20
-140.7658014315273
 30
0.0
 10
92.70789538588145
 20
-140.7658014315273
 30
0.0
 10
92.76303455114142
 20
-140.7658014315273
 30
0.0
 10
92.80780204999929
 20
-140.7210339315384
 30
0.0
 10
92.80780204999929
 20
-140.6658947648857
 30
0.0
  0
SPLINE
  5
AB
330
70
100
AcDbEntity
  8
レイヤー 1
 62
   250
420
  2299925
370
     9
100
AcDbSpline
210
0.0
220
0.0
230
1.0
 70
     9
 71
     3
 72
    17
 73
    13
 74
     0
 42
0.0000000001
 43
0.0000000001
 40
0.0
 40
0.0
 40
0.0
 40
0.0
 40
1.0
 40
1.0
 40
1.0
 40
2.0
 40
2.0
 40
2.0
 40
3.0
 40
3.0
 40
3.0
 40
4.0
 40
4.0
 40
4.0
 40
4.0
 10
88.80804298537531
 20
-145.427724485917
 30
0.0
 10
88.80804298537531
 20
-145.3725853192646
 30
0.0
 10
88.7632754865171
 20
-145.3278178192754
 30
0.0
 10
88.70778354348869
 20
-145.3278178192754
 30
0.0
 10
88.65267965600562
 20
-145.3278178192754
 30
0.0
 10
88.60787687937053
 20
-145.3725853192646
 30
0.0
 10
88.60787687937053
 20
-145.427724485917
 30
0.0
 10
88.60787687937053
 20
-145.4828283747926
 30
0.0
 10
88.65267965600562
 20
-145.527631152559
 30
0.0
 10
88.70778354348869
 20
-145.527631152559
 30
0.0
 10
88.7632754865171
 20
-145.527631152559
 30
0.0
 10
88.80804298537531
 20
-145.4828283747926
 30
0.0
 10
88.80804298537531
 20
-145.427724485917
 30
0.0
  0
SPLINE
  5
AC
330
70
100
AcDbEntity
  8
レイヤー 1
 62
   250
420
  2299925
370
     9
100
AcDbSpline
210
0.0
220
0.0
230
1.0
 70
     9
 71
     3
 72
    17
 73
    13
 74
     0
 42
0.0000000001
 43
0.0000000001
 40
0.0
 40
0.0
 40
0.0
 40
0.0
 40
1.0
 40
1.0
 40
1.0
 40
2.0
 40
2.0
 40
2.0
 40
3.0
 40
3.0
 40
3.0
 40
4.0
 40
4.0
 40
4.0
 40
4.0
 10
88.80804298537531
 20
-145.9279280969032
 30
0.0
 10
88.80804298537531
 20
-145.8728242080283
 30
0.0
 10
88.7632754865171
 20
-145.8280214302616
 30
0.0
 10
88.70778354348869
 20
-145.8280214302616
 30
0.0
 10
88.65267965600562
 20
-145.8280214302616
 30
0.0
 10
88.60787687937053
 20
-145.8728242080283
 30
0.0
 10
88.60787687937053
 20
-145.9279280969032
 30
0.0
 10
88.60787687937053
 20
-145.9830672635563
 30
0.0
 10
88.65267965600562
 20
-146.0278347635449
 30
0.0
 10
88.70778354348869
 20
-146.0278347635449
 30
0.0
 10
88.7632754865171
 20
-146.0278347635449
 30
0.0
 10
88.80804298537531
 20
-145.9830672635563
 30
0.0
 10
88.80804298537531
 20
-145.9279280969032
 30
0.0
  0
SPLINE
  5
AD
330
70
100
AcDbEntity
  8
レイヤー 1
 62
   250
420
  2299925
370
     9
100
AcDbSpline
210
0.0
220
0.0
230
1.0
 70
     9
 71
     3
 72
    17
 73
    13
 74
     0
 42
0.0000000001
 43
0.0000000001
 40
0.0
 40
0.0
 40
0.0
 40
0.0
 40
1.0
 40
1.0
 40
1.0
 40
2.0
 40
2.0
 40
2.0
 40
3.0
 40
3.0
 40
3.0
 40
4.0
 40
4.0
 40
4.0
 40
4.0
 10
88.80804298537531
 20
-153.9274464282367
 30
0.0
 10
88.80804298537531
 20
-153.8723425393611
 30
0.0
 10
88.7632754865171
 20
-153.8275397615944
 30
0.0
 10
88.70778354348869
 20
-153.8275397615944
 30
0.0
 10
88.65267965600562
 20
-153.8275397615944
 30
0.0
 10
88.60787687937053
 20
-153.8723425393611
 30
0.0
 10
88.60787687937053
 20
-153.9274464282367
 30
0.0
 10
88.60787687937053
 20
-153.9825855948891
 30
0.0
 10
88.65267965600562
 20
-154.027353094879
 30
0.0
 10
88.70778354348869
 20
-154.027353094879
 30
0.0
 10
88.7632754865171
 20
-154.027353094879
 30
0.0
 10
88.80804298537531
 20
-153.9825855948891
 30
0.0
 10
88.80804298537531
 20
-153.9274464282367
 30
0.0
  0
SPLINE
  5
AE
330
70
100
AcDbEntity
  8
レイヤー 1
 62
   250
420
  2299925
370
     9
100
AcDbSpline
210
0.0
220
0.0
230
1.0
 70
     9
 71
     3
 72
    17
 73
    13
 74
     0
 42
0.0000000001
 43
0.0000000001
 40
0.0
 40
0.0
 40
0.0
 40
0.0
 40
1.0
 40
1.0
 40
1.0
 40
2.0
 40
2.0
 40
2.0
 40
3.0
 40
3.0
 40
3.0
 40
4.0
 40
4.0
 40
4.0
 40
4.0
 10
113.8091212364335
 20
-140.6658947648857
 30
0.0
 10
113.8091212364335
 20
-140.610438098232
 30
0.0
 10
113.7643184597988
 20
-140.5656353204663
 30
0.0
 10
113.7092145723157
 20
-140.5656353204663
 30
0.0
 10
113.6540754070557
 20
-140.5656353204663
 30
0.0
 10
113.6093079081978
 20
-140.610438098232
 30
0.0
 10
113.6093079081978
 20
-140.6658947648857
 30
0.0
 10
113.6093079081978
 20
-140.7210339315384
 30
0.0
 10
113.6540754070557
 20
-140.7658014315273
 30
0.0
 10
113.7092145723157
 20
-140.7658014315273
 30
0.0
 10
113.7643184597988
 20
-140.7658014315273
 30
0.0
 10
113.8091212364335
 20
-140.7210339315384
 30
0.0
 10
113.8091212364335
 20
-140.6658947648857
 30
0.0
  0
SPLINE
  5
AF
330
70
100
AcDbEntity
  8
レイヤー 1
 62
   250
420
  2299925
370
     9
100
AcDbSpline
210
0.0
220
0.0
230
1.0
 70
     9
 71
     3
 72
    17
 73
    13
 74
     0
 42
0.0000000001
 43
0.0000000001
 40
0.0
 40
0.0
 40
0.0
 40
0.0
 40
1.0
 40
1.0
 40
1.0
 40
2.0
 40
2.0
 40
2.0
 40
3.0
 40
3.0
 40
3.0
 40
4.0
 40
4.0
 40
4.0
 40
4.0
 10
118.8087421669161
 20
-140.6658947648857
 30
0.0
 10
118.8087421669161
 20
-140.610438098232
 30
0.0
 10
118.7639746680582
 20
-140.5656353204663
 30
0.0
 10
118.7088355027982
 20
-140.5656353204663
 30
0.0
 10
118.6537316153151
 20
-140.5656353204663
 30
0.0
 10
118.6089288386804
 20
-140.610438098232
 30
0.0
 10
118.6089288386804
 20
-140.6658947648857
 30
0.0
 10
118.6089288386804
 20
-140.7210339315384
 30
0.0
 10
118.6537316153151
 20
-140.7658014315273
 30
0.0
 10
118.7088355027982
 20
-140.7658014315273
 30
0.0
 10
118.7639746680582
 20
-140.7658014315273
 30
0.0
 10
118.8087421669161
 20
-140.7210339315384
 30
0.0
 10
118.8087421669161
 20
-140.6658947648857
 30
0.0
  0
LINE
  5
B0
330
70
100
AcDbEntity
  8
レイヤー 1
 62
   250
420
  2299925
370
     9
100
AcDbLine
 10
88.70778354348869
 20
-145.427724485917
 30
0.0
 11
88.70778354348869
 21
-140.169995042788
 31
0.0
  0
LINE
  5
B1
330
70
100
AcDbEntity
  8
レイヤー 1
 62
   250
420
  2299925
370
     9
100
AcDbLine
 10
88.70778354348869
 20
-145.427724485917
 30
0.0
 11
88.70778354348869
 21
-145.9279280969032
 31
0.0
  0
LINE
  5
B2
330
70
100
AcDbEntity
  8
レイヤー 1
 62
   250
420
  2299925
370
     9
100
AcDbLine
 10
90.1678248951285
 20
-145.427724485917
 30
0.0
 11
87.70769384678056
 21
-145.427724485917
 31
0.0
  0
LINE
  5
B3
330
70
100
AcDbEntity
  8
レイヤー 1
 62
   250
420
  2299925
370
     9
100
AcDbLine
 10
90.1678248951285
 20
-145.9279280969032
 30
0.0
 11
87.70769384678056
 21
-145.9279280969032
 31
0.0
  0
INSERT
  5
B5
330
70
100
AcDbEntity
  8
レイヤー 1
100
AcDbBlockReference
  2
Block_0
 10
0.0
 20
0.0
 30
0.0
  0
LINE
  5
C3
330
70
100
AcDbEntity
  8
レイヤー 1
 62
   250
420
  2299925
370
     9
100
AcDbLine
 10
92.70789538588145
 20
-140.6658947648857
 30
0.0
 11
113.7092145723157
 21
-140.6658947648857
 31
0.0
  0
LINE
  5
C4
330
70
100
AcDbEntity
  8
レイヤー 1
 62
   250
420
  2299925
370
     9
100
AcDbLine
 10
92.70789538588145
 20
-142.8880067087745
 30
0.0
 11
92.70789538588145
 21
-139.6659814318021
 31
0.0
  0
INSERT
  5
C6
330
70
100
AcDbEntity
  8
レイヤー 1
100
AcDbBlockReference
  2
Block_2
 10
0.0
 20
0.0
 30
0.0
  0
LINE
  5
D1
330
70
100
AcDbEntity
  8
レイヤー 1
 62
   250
420
  2299925
370
     9
100
AcDbLine
 10
88.70778354348869
 20
-145.9279280969032
 30
0.0
 11
88.70778354348869
 21
-153.9274464282367
 31
0.0
  0
LINE
  5
D2
330
70
100
AcDbEntity
  8
レイヤー 1
 62
   250
420
  2299925
370
     9
100
AcDbLine
 10
110.1697246626156
 20
-153.9274464282367
 30
0.0
 11
87.70769384678056
 21
-153.9274464282367
 31
0.0
  0
INSERT
  5
D4
330
70
100
AcDbEntity
  8
レイヤー 1
100
AcDbBlockReference
  2
Block_4
 10
0.0
 20
0.0
 30
0.0
  0
LINE
  5
DB
330
70
100
AcDbEntity
  8
レイヤー 1
 62
   250
420
  2299925
370
     9
100
AcDbLine
 10
113.7092145723157
 20
-140.6658947648857
 30
0.0
 11
118.7088355306133
 21
-140.6658947648857
 31
0.0
  0
LINE
  5
DC
330
70
100
AcDbEntity
  8
レイヤー 1
 62
   250
420
  2299925
370
     9
100
AcDbLine
 10
113.7092145723157
 20
-142.1259361534094
 30
0.0
 11
113.7092145723157
 21
-139.6659814318021
 31
0.0
  0
LINE
  5
DD
330
70
100
AcDbEntity
  8
レイヤー 1
 62
   250
420
  2299925
370
     9
100
AcDbLine
 10
118.7088355027982
 20
-142.1259361534094
 30
0.0
 11
118.7088355027982
 21
-139.6659814318021
 31
0.0
  0
INSERT
  5
DF
330
70
100
AcDbEntity
  8
レイヤー 1
100
AcDbBlockReference
  2
Block_5
 10
0.0
 20
0.0
 30
0.0
  0
SPLINE
  5
E4
330
70
100
AcDbEntity
  8
レイヤー 1
 62
   250
420
  2299925
370
     9
100
AcDbSpline
210
0.0
220
0.0
230
1.0
 70
     9
 71
     3
 72
    17
 73
    13
 74
     0
 42
0.0000000001
 43
0.0000000001
 40
0.0
 40
0.0
 40
0.0
 40
0.0
 40
1.0
 40
1.0
 40
1.0
 40
2.0
 40
2.0
 40
2.0
 40
3.0
 40
3.0
 40
3.0
 40
4.0
 40
4.0
 40
4.0
 40
4.0
 10
112.8093490397176
 20
-158.0409058716522
 30
0.0
 10
112.8093490397176
 20
-157.9857667049998
 30
0.0
 10
112.7638786722739
 20
-157.9409992050112
 30
0.0
 10
112.7087368200622
 20
-157.9409992050112
 30
0.0
 10
112.6536329325792
 20
-157.9409992050112
 30
0.0
 10
112.6088301559444
 20
-157.9857667049998
 30
0.0
 10
112.6088301559444
 20
-158.0409058716522
 30
0.0
 10
112.6088301559444
 20
-158.0960097605278
 30
0.0
 10
112.6536329325792
 20
-158.1408125382945
 30
0.0
 10
112.7087368200622
 20
-158.1408125382945
 30
0.0
 10
112.7638786722739
 20
-158.1408125382945
 30
0.0
 10
112.8093490397176
 20
-158.0960097605278
 30
0.0
 10
112.8093490397176
 20
-158.0409058716522
 30
0.0
  0
CIRCLE
  5
E5
330
70
100
AcDbEntity
  8
レイヤー 1
 62
   250
420
  2299925
370
     9
100
AcDbCircle
 10
119.7092779772748
 20
-158.0409058716526
 30
0.0
 40
0.0999066653795761
  0
LINE
  5
E6
330
70
100
AcDbEntity
  8
レイヤー 1
 62
   250
420
  2299925
370
     9
100
AcDbLine
 10
119.7092780050899
 20
-158.0409058716522
 30
0.0
 11
112.7087368200622
 21
-158.0409058716522
 31
0.0
  0
LINE
  5
E7
330
70
100
AcDbEntity
  8
レイヤー 1
 62
   250
420
  2299925
370
     9
100
AcDbLine
 10
119.7092779772748
 20
-156.5808644831285
 30
0.0
 11
119.7092779772748
 21
-159.0413483714028
 31
0.0
  0
LINE
  5
E8
330
70
100
AcDbEntity
  8
レイヤー 1
 62
   250
420
  2299925
370
     9
100
AcDbLine
 10
112.7087368200622
 20
-156.5808644831285
 30
0.0
 11
112.7087368200622
 21
-159.0413483714028
 31
0.0
  0
INSERT
  5
EA
330
70
100
AcDbEntity
  8
レイヤー 1
100
AcDbBlockReference
  2
Block_6
 10
0.0
 20
0.0
 30
0.0
  0
LINE
  5
EF
330
70
100
AcDbEntity
  8
レイヤー 1
 62
   250
420
  2299925
370
    25
100
AcDbLine
 10
119.7092779772748
 20
-144.6656539305522
 30
0.0
 11
118.7088355027982
 21
-144.6656539305522
 31
0.0
  0
LINE
  5
F0
330
70
100
AcDbEntity
  8
レイヤー 1
 62
   250
420
  2299925
370
     9
100
AcDbLine
 10
117.1507300135321
 20
-150.0730669847555
 30
0.0
 11
124.6509536984424
 21
-150.0730669847555
 31
0.0
  0
INSERT
  5
F2
330
70
100
AcDbEntity
  8
レイヤー 1
100
AcDbBlockReference
  2
Block_7
 10
0.0
 20
0.0
 30
0.0
  0
LINE
  5
F7
330
70
100
AcDbEntity
  8
レイヤー 1
  6
AI-Linetype-0
 62
   154
420
    23468
370
    25
100
AcDbLine
 10
92.70789538588145
 20
-146.8033461522399
 30
0.0
 11
102.7076281863225
 21
-146.8033461522399
 31
0.0
  0
INSERT
  5
FA
330
70
100
AcDbEntity
  8
レイヤー 1
100
AcDbBlockReference
  2
Block_8
 10
0.0
 20
0.0
 30
0.0
  0
ENDSEC
  0
SECTION
  2
OBJECTS
  0
DICTIONARY
  5
C
330
0
100
AcDbDictionary
281
     1
  3
ACAD_COLOR
350
63
  3
ACAD_DETAILVIEWSTYLE
350
6A
  3
ACAD_GROUP
350
D
  3
ACAD_LAYOUT
350
62
  3
ACAD_MATERIAL
350
10
  3
ACAD_MLEADERSTYLE
350
66
  3
ACAD_MLINESTYLE
350
5F
  3
ACAD_PLOTSETTINGS
350
61
  3
ACAD_PLOTSTYLENAME
350
E
  3
ACAD_SCALELIST
350
42
  3
ACAD_SECTIONVIEWSTYLE
350
68
  3
ACAD_TABLESTYLE
350
64
  3
ACAD_VISUALSTYLE
350
29
  3
ACDB_RECOMPOSE_DATA
350
127
  3
AcDbVariableDictionary
350
11F
  0
DICTIONARY
  5
63
102
{ACAD_REACTORS
330
C
102
}
330
C
100
AcDbDictionary
281
     1
  0
DICTIONARY
  5
6A
102
{ACAD_REACTORS
330
C
102
}
330
C
100
AcDbDictionary
281
     1
  3
Imperial24
350
6B
  0
DICTIONARY
  5
D
102
{ACAD_REACTORS
330
C
102
}
330
C
100
AcDbDictionary
281
     1
  0
DICTIONARY
  5
62
102
{ACAD_REACTORS
330
C
102
}
330
C
100
AcDbDictionary
281
     1
  3
Layout1
350
6F
  3
Layout2
350
77
  3
Model
350
73
  0
DICTIONARY
  5
10
102
{ACAD_REACTORS
330
C
102
}
330
C
100
AcDbDictionary
281
     1
  3
ByBlock
350
19
  3
ByLayer
350
11
  3
Global
350
21
  0
DICTIONARY
  5
66
102
{ACAD_REACTORS
330
C
102
}
330
C
100
AcDbDictionary
281
     1
  3
Standard
350
67
  0
DICTIONARY
  5
5F
102
{ACAD_REACTORS
330
C
102
}
330
C
100
AcDbDictionary
281
     1
  3
Standard
350
60
  0
DICTIONARY
  5
61
102
{ACAD_REACTORS
330
C
102
}
330
C
100
AcDbDictionary
281
     1
  0
ACDBDICTIONARYWDFLT
  5
E
102
{ACAD_REACTORS
330
C
102
}
330
C
100
AcDbDictionary
281
     1
  3
Normal
350
F
100
AcDbDictionaryWithDefault
340
F
  0
DICTIONARY
  5
42
102
{ACAD_REACTORS
330
C
102
}
330
C
100
AcDbDictionary
281
     1
  3
A0
350
43
  3
A1
350
44
  3
A2
350
45
  3
A3
350
46
  3
A4
350
47
  3
A5
350
48
  3
A6
350
49
  3
A7
350
4A
  3
A8
350
4B
  3
A9
350
4C
  3
B0
350
4D
  3
B1
350
4E
  3
B2
350
4F
  3
B3
350
50
  3
B4
350
51
  3
B5
350
52
  3
B6
350
53
  0
DICTIONARY
  5
68
102
{ACAD_REACTORS
330
C
102
}
330
C
100
AcDbDictionary
281
     1
  3
Imperial24
350
69
  0
DICTIONARY
  5
64
102
{ACAD_REACTORS
330
C
102
}
330
C
100
AcDbDictionary
281
     1
  3
Standard
350
65
  0
DICTIONARY
  5
29
102
{ACAD_REACTORS
330
C
102
}
330
C
100
AcDbDictionary
281
     1
  3
2dWireframe
350
2F
  3
Basic
350
2E
  3
Brighten
350
35
  3
ColorChange
350
39
  3
Conceptual
350
32
  3
Dim
350
34
  3
EdgeColorOff
350
41
  3
Facepattern
350
38
  3
Flat
350
2A
  3
FlatWithEdges
350
2B
  3
Gouraud
350
2C
  3
GouraudWithEdges
350
2D
  3
Hidden
350
31
  3
JitterOff
350
3F
  3
Linepattern
350
37
  3
OverhangOff
350
40
  3
Realistic
350
33
  3
Shaded
350
3E
  3
Shaded with edges
350
3D
  3
Shades of Gray
350
3A
  3
Sketchy
350
3B
  3
Thicken
350
36
  3
Wireframe
350
30
  3
X-Ray
350
3C
  0
XRECORD
  5
127
102
{ACAD_REACTORS
330
C
102
}
330
C
100
AcDbXrecord
280
     1
 90
        1
330
65
  0
DICTIONARY
  5
11F
102
{ACAD_REACTORS
330
C
102
}
330
C
100
AcDbDictionary
281
     1
  3
CANNOSCALE
350
124
  3
CMLEADERSTYLE
350
121
  3
CTABLESTYLE
350
120
  3
CVIEWDETAILSTYLE
350
122
  3
CVIEWSECTIONSTYLE
350
123
  0
ACDBDETAILVIEWSTYLE
  5
6B
102
{ACAD_XDICTIONARY
360
15C
102
}
102
{ACAD_REACTORS
330
6A
102
}
330
6A
100
AcDbModelDocViewStyle
 70
     0
  3
Imperial24
290
     0
100
AcDbDetailViewStyle
 70
     0
 71
     0
 90
        3
 71
     1
340
55
 62
   256
 40
0.24
340
0
 62
   256
 40
0.24
300

 40
0.36
280
     3
 71
     2
340
5D
 90
       25
 62
   256
 71
     3
340
55
 62
   256
 40
0.24
 90
        1
 40
0.75
 90
        1
300
%<\AcVar ViewType \f "%tc1">% %<\AcVar ViewDetailId>%\PSCALE %<\AcVar ViewScale \f "%sn">%
 71
     4
340
5D
 90
       25
 62
   256
340
5D
 90
       25
 62
   256
280
     0
  0
LAYOUT
  5
6F
102
{ACAD_REACTORS
330
62
102
}
330
62
100
AcDbPlotSettings
  1

  2

  4

  6

 40
0.0
 41
0.0
 42
0.0
 43
0.0
 44
0.0
 45
0.0
 46
0.0
 47
0.0
 48
0.0
 49
0.0
140
0.0
141
0.0
142
1.0
143
1.0
 70
   688
 72
     0
 73
     0
 74
     5
  7

 75
    16
147
1.0
 76
     0
 77
     2
 78
   300
148
0.0
149
0.0
100
AcDbLayout
  1
Layout1
 70
     1
 71
     1
 10
0.0
 20
0.0
 11
12.0
 21
9.0
 12
0.0
 22
0.0
 32
0.0
 14
0.0
 24
0.0
 34
0.0
 15
0.0
 25
0.0
 35
0.0
146
0.0
 13
0.0
 23
0.0
 33
0.0
 16
1.0
 26
0.0
 36
0.0
 17
0.0
 27
1.0
 37
0.0
 76
     0
330
6C
  0
LAYOUT
  5
77
102
{ACAD_REACTORS
330
62
102
}
330
62
100
AcDbPlotSettings
  1

  2

  4

  6

 40
0.0
 41
0.0
 42
0.0
 43
0.0
 44
0.0
 45
0.0
 46
0.0
 47
0.0
 48
0.0
 49
0.0
140
0.0
141
0.0
142
1.0
143
1.0
 70
   688
 72
     0
 73
     0
 74
     5
  7

 75
    16
147
1.0
 76
     0
 77
     2
 78
   300
148
0.0
149
0.0
100
AcDbLayout
  1
Layout2
 70
     1
 71
     2
 10
0.0
 20
0.0
 11
12.0
 21
9.0
 12
0.0
 22
0.0
 32
0.0
 14
0.0
 24
0.0
 34
0.0
 15
0.0
 25
0.0
 35
0.0
146
0.0
 13
0.0
 23
0.0
 33
0.0
 16
1.0
 26
0.0
 36
0.0
 17
0.0
 27
1.0
 37
0.0
 76
     0
330
74
  0
LAYOUT
  5
73
102
{ACAD_REACTORS
330
62
102
}
330
62
100
AcDbPlotSettings
  1

  2

  4

  6

 40
0.0
 41
0.0
 42
0.0
 43
0.0
 44
0.0
 45
0.0
 46
0.0
 47
0.0
 48
0.0
 49
0.0
140
0.0
141
0.0
142
1.0
143
1.0
 70
  1712
 72
     0
 73
     0
 74
     0
  7

 75
     0
147
1.0
 76
     0
 77
     2
 78
   300
148
0.0
149
0.0
100
AcDbLayout
  1
Model
 70
     1
 71
     0
 10
0.0
 20
0.0
 11
12.0
 21
9.0
 12
0.0
 22
0.0
 32
0.0
 14
0.0
 24
0.0
 34
0.0
 15
0.0
 25
0.0
 35
0.0
146
0.0
 13
0.0
 23
0.0
 33
0.0
 16
1.0
 26
0.0
 36
0.0
 17
0.0
 27
1.0
 37
0.0
 76
     0
330
70
  0
MATERIAL
  5
19
102
{ACAD_XDICTIONARY
360
1A
102
}
102
{ACAD_REACTORS
330
10
102
}
330
10
100
AcDbMaterial
  1
ByBlock
 72
     0
 43
0.0208333333333333
 43
0.0
 43
0.0
 43
0.0
 43
0.0
 43
0.0208333333333333
 43
0.0
 43
0.0
 43
0.0
 43
0.0
 43
1.0
 43
0.0
 43
0.0
 43
0.0
 43
0.0
 43
1.0
 77
     0
 47
0.0208333333333333
 47
0.0
 47
0.0
 47
0.0
 47
0.0
 47
0.0208333333333333
 47
0.0
 47
0.0
 47
0.0
 47
0.0
 47
1.0
 47
0.0
 47
0.0
 47
0.0
 47
0.0
 47
1.0
171
     0
 49
0.0208333333333333
 49
0.0
 49
0.0
 49
0.0
 49
0.0
 49
0.0208333333333333
 49
0.0
 49
0.0
 49
0.0
 49
0.0
 49
1.0
 49
0.0
 49
0.0
 49
0.0
 49
0.0
 49
1.0
175
     0
142
0.0208333333333333
142
0.0
142
0.0
142
0.0
142
0.0
142
0.0208333333333333
142
0.0
142
0.0
142
0.0
142
0.0
142
1.0
142
0.0
142
0.0
142
0.0
142
0.0
142
1.0
179
     0
144
0.0208333333333333
144
0.0
144
0.0
144
0.0
144
0.0
144
0.0208333333333333
144
0.0
144
0.0
144
0.0
144
0.0
144
1.0
144
0.0
144
0.0
144
0.0
144
0.0
144
1.0
147
0.0208333333333333
147
0.0
147
0.0
147
0.0
147
0.0
147
0.0208333333333333
147
0.0
147
0.0
147
0.0
147
0.0
147
1.0
147
0.0
147
0.0
147
0.0
147
0.0
147
1.0
  0
MATERIAL
  5
11
102
{ACAD_XDICTIONARY
360
12
102
}
102
{ACAD_REACTORS
330
10
102
}
330
10
100
AcDbMaterial
  1
ByLayer
 72
     0
 43
0.0208333333333333
 43
0.0
 43
0.0
 43
0.0
 43
0.0
 43
0.0208333333333333
 43
0.0
 43
0.0
 43
0.0
 43
0.0
 43
1.0
 43
0.0
 43
0.0
 43
0.0
 43
0.0
 43
1.0
 77
     0
 47
0.0208333333333333
 47
0.0
 47
0.0
 47
0.0
 47
0.0
 47
0.0208333333333333
 47
0.0
 47
0.0
 47
0.0
 47
0.0
 47
1.0
 47
0.0
 47
0.0
 47
0.0
 47
0.0
 47
1.0
171
     0
 49
0.0208333333333333
 49
0.0
 49
0.0
 49
0.0
 49
0.0
 49
0.0208333333333333
 49
0.0
 49
0.0
 49
0.0
 49
0.0
 49
1.0
 49
0.0
 49
0.0
 49
0.0
 49
0.0
 49
1.0
175
     0
142
0.0208333333333333
142
0.0
142
0.0
142
0.0
142
0.0
142
0.0208333333333333
142
0.0
142
0.0
142
0.0
142
0.0
142
1.0
142
0.0
142
0.0
142
0.0
142
0.0
142
1.0
179
     0
144
0.0208333333333333
144
0.0
144
0.0
144
0.0
144
0.0
144
0.0208333333333333
144
0.0
144
0.0
144
0.0
144
0.0
144
1.0
144
0.0
144
0.0
144
0.0
144
0.0
144
1.0
147
0.0208333333333333
147
0.0
147
0.0
147
0.0
147
0.0
147
0.0208333333333333
147
0.0
147
0.0
147
0.0
147
0.0
147
1.0
147
0.0
147
0.0
147
0.0
147
0.0
147
1.0
  0
MATERIAL
  5
21
102
{ACAD_XDICTIONARY
360
22
102
}
102
{ACAD_REACTORS
330
10
102
}
330
10
100
AcDbMaterial
  1
Global
 72
     0
 43
0.0208333333333333
 43
0.0
 43
0.0
 43
0.0
 43
0.0
 43
0.0208333333333333
 43
0.0
 43
0.0
 43
0.0
 43
0.0
 43
1.0
 43
0.0
 43
0.0
 43
0.0
 43
0.0
 43
1.0
 77
     0
 47
0.0208333333333333
 47
0.0
 47
0.0
 47
0.0
 47
0.0
 47
0.0208333333333333
 47
0.0
 47
0.0
 47
0.0
 47
0.0
 47
1.0
 47
0.0
 47
0.0
 47
0.0
 47
0.0
 47
1.0
171
     0
 49
0.0208333333333333
 49
0.0
 49
0.0
 49
0.0
 49
0.0
 49
0.0208333333333333
 49
0.0
 49
0.0
 49
0.0
 49
0.0
 49
1.0
 49
0.0
 49
0.0
 49
0.0
 49
0.0
 49
1.0
175
     0
142
0.0208333333333333
142
0.0
142
0.0
142
0.0
142
0.0
142
0.0208333333333333
142
0.0
142
0.0
142
0.0
142
0.0
142
1.0
142
0.0
142
0.0
142
0.0
142
0.0
142
1.0
179
     0
144
0.0208333333333333
144
0.0
144
0.0
144
0.0
144
0.0
144
0.0208333333333333
144
0.0
144
0.0
144
0.0
144
0.0
144
1.0
144
0.0
144
0.0
144
0.0
144
0.0
144
1.0
147
0.0208333333333333
147
0.0
147
0.0
147
0.0
147
0.0
147
0.0208333333333333
147
0.0
147
0.0
147
0.0
147
0.0
147
1.0
147
0.0
147
0.0
147
0.0
147
0.0
147
1.0
  0
MLEADERSTYLE
  5
67
102
{ACAD_XDICTIONARY
360
158
102
}
102
{ACAD_REACTORS
330
66
102
}
330
66
100
AcDbMLeaderStyle
179
     2
170
     2
171
     1
172
     0
 90
        2
 40
0.0
 41
0.0
173
     1
 91
-1056964608
340
5B
 92
       -2
290
     1
 42
0.09
291
     1
 43
0.36
  3
Standard
 44
0.18
300

342
55
174
     1
178
     6
175
     1
176
     0
 93
-1056964608
 45
0.18
292
     0
297
     0
 46
0.18
 94
-1056964608
 47
1.0
 49
1.0
140
1.0
293
     1
141
0.0
294
     1
177
     0
142
1.0
295
     0
296
     0
143
0.125
271
     0
272
     9
273
     9
  0
MLINESTYLE
  5
60
102
{ACAD_REACTORS
330
5F
102
}
330
5F
100
AcDbMlineStyle
  2
STANDARD
 70
     0
  3

 62
   256
 51
90.0
 52
90.0
 71
     2
 49
0.5
 62
   256
  6
BYLAYER
 49
-0.5
 62
   256
  6
BYLAYER
  0
ACDBPLACEHOLDER
  5
F
102
{ACAD_REACTORS
330
E
102
}
330
E
  0
SCALE
  5
43
102
{ACAD_REACTORS
330
42
102
}
330
42
100
AcDbScale
 70
     0
300
1:1
140
1.0
141
1.0
290
     1
  0
SCALE
  5
44
102
{ACAD_REACTORS
330
42
102
}
330
42
100
AcDbScale
 70
     0
300
1/128" = 1'-0"
140
0.0078125
141
12.0
290
     0
  0
SCALE
  5
45
102
{ACAD_REACTORS
330
42
102
}
330
42
100
AcDbScale
 70
     0
300
1/64" = 1'-0"
140
0.015625
141
12.0
290
     0
  0
SCALE
  5
46
102
{ACAD_REACTORS
330
42
102
}
330
42
100
AcDbScale
 70
     0
300
1/32" = 1'-0"
140
0.03125
141
12.0
290
     0
  0
SCALE
  5
47
102
{ACAD_REACTORS
330
42
102
}
330
42
100
AcDbScale
 70
     0
300
1/16" = 1'-0"
140
0.0625
141
12.0
290
     0
  0
SCALE
  5
48
102
{ACAD_REACTORS
330
42
102
}
330
42
100
AcDbScale
 70
     0
300
3/32" = 1'-0"
140
0.09375
141
12.0
290
     0
  0
SCALE
  5
49
102
{ACAD_REACTORS
330
42
102
}
330
42
100
AcDbScale
 70
     0
300
1/8" = 1'-0"
140
0.125
141
12.0
290
     0
  0
SCALE
  5
4A
102
{ACAD_REACTORS
330
42
102
}
330
42
100
AcDbScale
 70
     0
300
3/16" = 1'-0"
140
0.1875
141
12.0
290
     0
  0
SCALE
  5
4B
102
{ACAD_REACTORS
330
42
102
}
330
42
100
AcDbScale
 70
     0
300
1/4" = 1'-0"
140
0.25
141
12.0
290
     0
  0
SCALE
  5
4C
102
{ACAD_REACTORS
330
42
102
}
330
42
100
AcDbScale
 70
     0
300
3/8" = 1'-0"
140
0.375
141
12.0
290
     0
  0
SCALE
  5
4D
102
{ACAD_REACTORS
330
42
102
}
330
42
100
AcDbScale
 70
     0
300
1/2" = 1'-0"
140
0.5
141
12.0
290
     0
  0
SCALE
  5
4E
102
{ACAD_REACTORS
330
42
102
}
330
42
100
AcDbScale
 70
     0
300
3/4" = 1'-0"
140
0.75
141
12.0
290
     0
  0
SCALE
  5
4F
102
{ACAD_REACTORS
330
42
102
}
330
42
100
AcDbScale
 70
     0
300
1" = 1'-0"
140
1.0
141
12.0
290
     0
  0
SCALE
  5
50
102
{ACAD_REACTORS
330
42
102
}
330
42
100
AcDbScale
 70
     0
300
1-1/2" = 1'-0"
140
1.5
141
12.0
290
     0
  0
SCALE
  5
51
102
{ACAD_REACTORS
330
42
102
}
330
42
100
AcDbScale
 70
     0
300
3" = 1'-0"
140
3.0
141
12.0
290
     0
  0
SCALE
  5
52
102
{ACAD_REACTORS
330
42
102
}
330
42
100
AcDbScale
 70
     0
300
6" = 1'-0"
140
6.0
141
12.0
290
     0
  0
SCALE
  5
53
102
{ACAD_REACTORS
330
42
102
}
330
42
100
AcDbScale
 70
     0
300
1'-0" = 1'-0"
140
12.0
141
12.0
290
     0
  0
ACDBSECTIONVIEWSTYLE
  5
69
102
{ACAD_XDICTIONARY
360
15A
102
}
102
{ACAD_REACTORS
330
68
102
}
330
68
100
AcDbModelDocViewStyle
 70
     0
  3
Imperial24
290
     0
100
AcDbSectionViewStyle
 70
     0
 71
     0
 90
       78
 71
     1
340
55
 62
   256
 40
0.24
340
0
340
0
 62
   256
 40
0.24
300
I, O, Q, S, X, Z
 40
0.48
 90
        3
 40
0.18
 90
        1
 71
     2
340
5D
 90
       25
 62
   256
340
5D
 90
       50
 62
   256
 40
0.24
 40
0.0
 40
0.24
 71
     3
340
55
 62
   256
 40
0.24
 90
        1
 40
0.75
 90
        1
300
%<\AcVar ViewType \f "%tc1">% %<\AcVar ViewSectionStartId>%-%<\AcVar ViewSectionEndId>%\PSCALE %<\AcVar ViewScale \f "%sn">%
 71
     4
 62
   256
 62
   257
300
ANSI31
 40
1.0
 90
        0
290
     0
290
     0
 90
        6
 40
0.0
 40
1.570796326794896
 40
0.2617993877991494
 40
1.308996938995747
 40
-0.2617993877991494
 40
1.832595714594046
  0
TABLESTYLE
  5
65
102
{ACAD_XDICTIONARY
360
125
102
}
102
{ACAD_REACTORS
330
64
102
}
330
64
100
AcDbTableStyle
280
     0
  3
Standard
 70
     0
 71
     0
 40
0.06
 41
0.06
280
     0
281
     0
  7
Standard
140
0.18
170
     2
 62
     0
 63
     7
283
     0
 90
      512
 91
        0
  1

274
    -2
284
     1
 64
     0
275
    -2
285
     1
 65
     0
276
    -2
286
     1
 66
     0
277
    -2
287
     1
 67
     0
278
    -2
288
     1
 68
     0
279
    -2
289
     1
 69
     0
  7
Standard
140
0.25
170
     5
 62
     0
 63
     7
283
     0
 90
      512
 91
        0
  1

274
    -2
284
     1
 64
     0
275
    -2
285
     1
 65
     0
276
    -2
286
     1
 66
     0
277
    -2
287
     1
 67
     0
278
    -2
288
     1
 68
     0
279
    -2
289
     1
 69
     0
  7
Standard
140
0.18
170
     5
 62
     0
 63
     7
283
     0
 90
      512
 91
        0
  1

274
    -2
284
     1
 64
     0
275
    -2
285
     1
 65
     0
276
    -2
286
     1
 66
     0
277
    -2
287
     1
 67
     0
278
    -2
288
     1
 68
     0
279
    -2
289
     1
 69
     0
  0
VISUALSTYLE
  5
2F
102
{ACAD_XDICTIONARY
360
132
102
}
102
{ACAD_REACTORS
330
29
102
}
330
29
100
AcDbVisualStyle
  2
2dWireframe
 70
     4
177
     2
291
     0
 71
     0
176
     1
 72
     2
176
     1
 73
     0
176
     1
 90
        0
176
     1
 40
0.6
176
     1
 41
30.0
176
     1
 63
     7
421
 16777215
176
     1
 74
     1
176
     1
 91
        4
176
     1
 64
     7
176
     1
 65
   257
176
     1
 75
     1
176
     1
175
     1
176
     1
 42
1.0
176
     1
 92
        0
176
     1
 66
   257
176
     1
 43
1.0
176
     1
 76
     1
176
     1
 77
     6
176
     1
 78
     2
176
     1
 67
     7
176
     1
 79
     5
176
     1
170
     0
176
     1
171
     0
176
     1
290
     0
176
     1
 93
        1
176
     1
 44
0.0
176
     1
173
     0
176
     1
1001
ACAD
1000
AcDbSavedByObjectVersion
1070
     0
  0
VISUALSTYLE
  5
2E
102
{ACAD_XDICTIONARY
360
130
102
}
102
{ACAD_REACTORS
330
29
102
}
330
29
100
AcDbVisualStyle
  2
Basic
 70
     7
177
     2
291
     1
 71
     1
176
     1
 72
     0
176
     1
 73
     1
176
     1
 90
        0
176
     1
 40
0.6
176
     1
 41
30.0
176
     1
 63
     7
421
 16777215
176
     1
 74
     0
176
     1
 91
        4
176
     1
 64
     7
176
     1
 65
   257
176
     1
 75
     1
176
     1
175
     1
176
     1
 42
1.0
176
     1
 92
        8
176
     1
 66
     7
176
     1
 43
1.0
176
     1
 76
     1
176
     1
 77
     6
176
     1
 78
     2
176
     1
 67
     7
176
     1
 79
     5
176
     1
170
     0
176
     1
171
     0
176
     1
290
     0
176
     1
 93
        1
176
     1
 44
0.0
176
     1
173
     0
176
     1
1001
ACAD
1000
AcDbSavedByObjectVersion
1070
     0
  0
VISUALSTYLE
  5
35
102
{ACAD_XDICTIONARY
360
13E
102
}
102
{ACAD_REACTORS
330
29
102
}
330
29
100
AcDbVisualStyle
  2
Brighten
 70
    12
177
     2
291
     1
 71
     2
176
     1
 72
     2
176
     1
 73
     0
176
     1
 90
        0
176
     1
 40
0.6
176
     1
 41
30.0
176
     1
 63
     7
421
 16777215
176
     1
 74
     1
176
     1
 91
        4
176
     1
 64
     7
176
     1
 65
   257
176
     1
 75
     1
176
     1
175
     1
176
     1
 42
1.0
176
     1
 92
        8
176
     1
 66
     7
176
     1
 43
1.0
176
     1
 76
     1
176
     1
 77
     6
176
     1
 78
     2
176
     1
 67
     7
176
     1
 79
     5
176
     1
170
     0
176
     1
171
     0
176
     1
290
     0
176
     1
 93
        1
176
     1
 44
50.0
176
     1
173
     0
176
     1
1001
ACAD
1000
AcDbSavedByObjectVersion
1070
     0
  0
VISUALSTYLE
  5
39
102
{ACAD_XDICTIONARY
360
146
102
}
102
{ACAD_REACTORS
330
29
102
}
330
29
100
AcDbVisualStyle
  2
ColorChange
 70
    16
177
     2
291
     1
 71
     2
176
     1
 72
     2
176
     1
 73
     3
176
     1
 90
        0
176
     1
 40
0.6
176
     1
 41
30.0
176
     1
 63
     8
421
  8421504
176
     1
 74
     1
176
     1
 91
        4
176
     1
 64
     7
176
     1
 65
   257
176
     1
 75
     1
176
     1
175
     1
176
     1
 42
1.0
176
     1
 92
        8
176
     1
 66
     8
424
  8421504
176
     1
 43
1.0
176
     1
 76
     1
176
     1
 77
     6
176
     1
 78
     2
176
     1
 67
     7
176
     1
 79
     5
176
     1
170
     0
176
     1
171
     0
176
     1
290
     0
176
     1
 93
        1
176
     1
 44
0.0
176
     1
173
     0
176
     1
1001
ACAD
1000
AcDbSavedByObjectVersion
1070
     0
  0
VISUALSTYLE
  5
32
102
{ACAD_XDICTIONARY
360
138
102
}
102
{ACAD_REACTORS
330
29
102
}
330
29
100
AcDbVisualStyle
  2
Conceptual
 70
     9
177
     2
291
     0
 71
     3
176
     1
 72
     2
176
     1
 73
     0
176
     1
 90
        0
176
     1
 40
0.6
176
     1
 41
30.0
176
     1
 63
     7
421
 16777215
176
     1
 74
     2
176
     1
 91
        2
176
     1
 64
     7
176
     1
 65
   257
176
     1
 75
     1
176
     1
175
     1
176
     1
 42
179.0
176
     1
 92
        8
176
     1
 66
     7
176
     1
 43
1.0
176
     1
 76
     1
176
     1
 77
     6
176
     1
 78
     2
176
     1
 67
     7
176
     1
 79
     3
176
     1
170
     0
176
     1
171
     0
176
     1
290
     0
176
     1
 93
        1
176
     1
 44
0.0
176
     1
173
     0
176
     1
1001
ACAD
1000
AcDbSavedByObjectVersion
1070
     0
  0
VISUALSTYLE
  5
34
102
{ACAD_XDICTIONARY
360
13C
102
}
102
{ACAD_REACTORS
330
29
102
}
330
29
100
AcDbVisualStyle
  2
Dim
 70
    11
177
     2
291
     1
 71
     2
176
     1
 72
     2
176
     1
 73
     0
176
     1
 90
        0
176
     1
 40
0.6
176
     1
 41
30.0
176
     1
 63
     7
421
 16777215
176
     1
 74
     1
176
     1
 91
        4
176
     1
 64
     7
176
     1
 65
   257
176
     1
 75
     1
176
     1
175
     1
176
     1
 42
1.0
176
     1
 92
        8
176
     1
 66
     7
176
     1
 43
1.0
176
     1
 76
     1
176
     1
 77
     6
176
     1
 78
     2
176
     1
 67
     7
176
     1
 79
     5
176
     1
170
     0
176
     1
171
     0
176
     1
290
     0
176
     1
 93
        1
176
     1
 44
-50.0
176
     1
173
     0
176
     1
1001
ACAD
1000
AcDbSavedByObjectVersion
1070
     0
  0
VISUALSTYLE
  5
41
102
{ACAD_XDICTIONARY
360
156
102
}
102
{ACAD_REACTORS
330
29
102
}
330
29
100
AcDbVisualStyle
  2
EdgeColorOff
 70
    22
177
     2
291
     1
 71
     2
176
     0
 72
     2
176
     0
 73
     0
176
     0
 90
        0
176
     0
 40
0.6
176
     0
 41
30.0
176
     0
 63
     7
421
 16777215
176
     0
 74
     1
176
     0
 91
        4
176
     0
 64
     7
176
     0
 65
   257
176
     0
 75
     1
176
     0
175
     1
176
     0
 42
1.0
176
     0
 92
        8
176
     2
 66
     7
176
     0
 43
1.0
176
     0
 76
     1
176
     0
 77
     6
176
     0
 78
     2
176
     0
 67
     7
176
     0
 79
     5
176
     0
170
     0
176
     0
171
     0
176
     0
290
     0
176
     0
 93
        1
176
     0
 44
0.0
176
     0
173
     0
176
     0
1001
ACAD
1000
AcDbSavedByObjectVersion
1070
     0
  0
VISUALSTYLE
  5
38
102
{ACAD_XDICTIONARY
360
144
102
}
102
{ACAD_REACTORS
330
29
102
}
330
29
100
AcDbVisualStyle
  2
Facepattern
 70
    15
177
     2
291
     1
 71
     2
176
     1
 72
     2
176
     1
 73
     0
176
     1
 90
        0
176
     1
 40
0.6
176
     1
 41
30.0
176
     1
 63
     7
421
 16777215
176
     1
 74
     1
176
     1
 91
        4
176
     1
 64
     7
176
     1
 65
   257
176
     1
 75
     1
176
     1
175
     1
176
     1
 42
1.0
176
     1
 92
        8
176
     1
 66
     7
176
     1
 43
1.0
176
     1
 76
     1
176
     1
 77
     6
176
     1
 78
     2
176
     1
 67
     7
176
     1
 79
     5
176
     1
170
     0
176
     1
171
     0
176
     1
290
     0
176
     1
 93
        1
176
     1
 44
0.0
176
     1
173
     0
176
     1
1001
ACAD
1000
AcDbSavedByObjectVersion
1070
     0
  0
VISUALSTYLE
  5
2A
102
{ACAD_XDICTIONARY
360
128
102
}
102
{ACAD_REACTORS
330
29
102
}
330
29
100
AcDbVisualStyle
  2
Flat
 70
     0
177
     2
291
     1
 71
     2
176
     1
 72
     1
176
     1
 73
     1
176
     1
 90
        2
176
     1
 40
0.6
176
     1
 41
30.0
176
     1
 63
     7
421
 16777215
176
     1
 74
     0
176
     1
 91
        0
176
     1
 64
     7
176
     1
 65
   257
176
     1
 75
     1
176
     1
175
     1
176
     1
 42
1.0
176
     1
 92
        8
176
     1
 66
     7
176
     1
 43
1.0
176
     1
 76
     1
176
     1
 77
     6
176
     1
 78
     2
176
     1
 67
     7
176
     1
 79
     5
176
     1
170
     0
176
     1
171
     0
176
     1
290
     0
176
     1
 93
       13
176
     1
 44
0.0
176
     1
173
     0
176
     1
1001
ACAD
1000
AcDbSavedByObjectVersion
1070
     0
  0
VISUALSTYLE
  5
2B
102
{ACAD_XDICTIONARY
360
12A
102
}
102
{ACAD_REACTORS
330
29
102
}
330
29
100
AcDbVisualStyle
  2
FlatWithEdges
 70
     1
177
     2
291
     1
 71
     2
176
     1
 72
     1
176
     1
 73
     1
176
     1
 90
        2
176
     1
 40
0.6
176
     1
 41
30.0
176
     1
 63
     7
421
 16777215
176
     1
 74
     1
176
     1
 91
        0
176
     1
 64
     7
176
     1
 65
   257
176
     1
 75
     1
176
     1
175
     1
176
     1
 42
1.0
176
     1
 92
        0
176
     1
 66
   257
176
     1
 43
1.0
176
     1
 76
     1
176
     1
 77
     6
176
     1
 78
     2
176
     1
 67
     7
176
     1
 79
     5
176
     1
170
     0
176
     1
171
     0
176
     1
290
     0
176
     1
 93
       13
176
     1
 44
0.0
176
     1
173
     0
176
     1
1001
ACAD
1000
AcDbSavedByObjectVersion
1070
     0
  0
VISUALSTYLE
  5
2C
102
{ACAD_XDICTIONARY
360
12C
102
}
102
{ACAD_REACTORS
330
29
102
}
330
29
100
AcDbVisualStyle
  2
Gouraud
 70
     2
177
     2
291
     1
 71
     2
176
     1
 72
     2
176
     1
 73
     1
176
     1
 90
        2
176
     1
 40
0.6
176
     1
 41
30.0
176
     1
 63
     7
421
 16777215
176
     1
 74
     0
176
     1
 91
        0
176
     1
 64
     7
176
     1
 65
   257
176
     1
 75
     1
176
     1
175
     1
176
     1
 42
1.0
176
     1
 92
        0
176
     1
 66
     7
176
     1
 43
1.0
176
     1
 76
     1
176
     1
 77
     6
176
     1
 78
     2
176
     1
 67
     7
176
     1
 79
     5
176
     1
170
     0
176
     1
171
     0
176
     1
290
     0
176
     1
 93
       13
176
     1
 44
0.0
176
     1
173
     0
176
     1
1001
ACAD
1000
AcDbSavedByObjectVersion
1070
     0
  0
VISUALSTYLE
  5
2D
102
{ACAD_XDICTIONARY
360
12E
102
}
102
{ACAD_REACTORS
330
29
102
}
330
29
100
AcDbVisualStyle
  2
GouraudWithEdges
 70
     3
177
     2
291
     1
 71
     2
176
     1
 72
     2
176
     1
 73
     1
176
     1
 90
        2
176
     1
 40
0.6
176
     1
 41
30.0
176
     1
 63
     7
421
 16777215
176
     1
 74
     1
176
     1
 91
        0
176
     1
 64
     7
176
     1
 65
   257
176
     1
 75
     1
176
     1
175
     1
176
     1
 42
1.0
176
     1
 92
        0
176
     1
 66
   257
176
     1
 43
1.0
176
     1
 76
     1
176
     1
 77
     6
176
     1
 78
     2
176
     1
 67
     7
176
     1
 79
     5
176
     1
170
     0
176
     1
171
     0
176
     1
290
     0
176
     1
 93
       13
176
     1
 44
0.0
176
     1
173
     0
176
     1
1001
ACAD
1000
AcDbSavedByObjectVersion
1070
     0
  0
VISUALSTYLE
  5
31
102
{ACAD_XDICTIONARY
360
136
102
}
102
{ACAD_REACTORS
330
29
102
}
330
29
100
AcDbVisualStyle
  2
Hidden
 70
     6
177
     2
291
     0
 71
     1
176
     1
 72
     2
176
     1
 73
     2
176
     1
 90
        0
176
     1
 40
0.6
176
     1
 41
30.0
176
     1
 63
     7
421
 16777215
176
     1
 74
     2
176
     1
 91
        2
176
     1
 64
     7
176
     1
 65
   257
176
     1
 75
     2
176
     1
175
     1
176
     1
 42
40.0
176
     1
 92
        0
176
     1
 66
   257
176
     1
 43
1.0
176
     1
 76
     1
176
     1
 77
     6
176
     1
 78
     2
176
     1
 67
     7
176
     1
 79
     3
176
     1
170
     0
176
     1
171
     0
176
     1
290
     0
176
     1
 93
        1
176
     1
 44
0.0
176
     1
173
     0
176
     1
1001
ACAD
1000
AcDbSavedByObjectVersion
1070
     0
  0
VISUALSTYLE
  5
3F
102
{ACAD_XDICTIONARY
360
152
102
}
102
{ACAD_REACTORS
330
29
102
}
330
29
100
AcDbVisualStyle
  2
JitterOff
 70
    20
177
     2
291
     1
 71
     2
176
     0
 72
     2
176
     0
 73
     0
176
     0
 90
        0
176
     0
 40
0.6
176
     0
 41
30.0
176
     0
 63
     7
421
 16777215
176
     0
 74
     1
176
     0
 91
        4
176
     0
 64
     7
176
     0
 65
   257
176
     0
 75
     1
176
     0
175
     1
176
     0
 42
1.0
176
     0
 92
       10
176
     2
 66
     7
176
     0
 43
1.0
176
     0
 76
     1
176
     0
 77
     6
176
     0
 78
     2
176
     0
 67
     7
176
     0
 79
     5
176
     0
170
     0
176
     0
171
     0
176
     0
290
     0
176
     0
 93
        1
176
     0
 44
0.0
176
     0
173
     0
176
     0
1001
ACAD
1000
AcDbSavedByObjectVersion
1070
     0
  0
VISUALSTYLE
  5
37
102
{ACAD_XDICTIONARY
360
142
102
}
102
{ACAD_REACTORS
330
29
102
}
330
29
100
AcDbVisualStyle
  2
Linepattern
 70
    14
177
     2
291
     1
 71
     2
176
     1
 72
     2
176
     1
 73
     0
176
     1
 90
        0
176
     1
 40
0.6
176
     1
 41
30.0
176
     1
 63
     7
421
 16777215
176
     1
 74
     1
176
     1
 91
        4
176
     1
 64
     7
176
     1
 65
   257
176
     1
 75
     7
176
     1
175
     7
176
     1
 42
1.0
176
     1
 92
        8
176
     1
 66
     7
176
     1
 43
1.0
176
     1
 76
     1
176
     1
 77
     6
176
     1
 78
     2
176
     1
 67
     7
176
     1
 79
     5
176
     1
170
     0
176
     1
171
     0
176
     1
290
     0
176
     1
 93
        1
176
     1
 44
0.0
176
     1
173
     0
176
     1
1001
ACAD
1000
AcDbSavedByObjectVersion
1070
     0
  0
VISUALSTYLE
  5
40
102
{ACAD_XDICTIONARY
360
154
102
}
102
{ACAD_REACTORS
330
29
102
}
330
29
100
AcDbVisualStyle
  2
OverhangOff
 70
    21
177
     2
291
     1
 71
     2
176
     0
 72
     2
176
     0
 73
     0
176
     0
 90
        0
176
     0
 40
0.6
176
     0
 41
30.0
176
     0
 63
     7
421
 16777215
176
     0
 74
     1
176
     0
 91
        4
176
     0
 64
     7
176
     0
 65
   257
176
     0
 75
     1
176
     0
175
     1
176
     0
 42
1.0
176
     0
 92
        9
176
     2
 66
     7
176
     0
 43
1.0
176
     0
 76
     1
176
     0
 77
     6
176
     0
 78
     2
176
     0
 67
     7
176
     0
 79
     5
176
     0
170
     0
176
     0
171
     0
176
     0
290
     0
176
     0
 93
        1
176
     0
 44
0.0
176
     0
173
     0
176
     0
1001
ACAD
1000
AcDbSavedByObjectVersion
1070
     0
  0
VISUALSTYLE
  5
33
102
{ACAD_XDICTIONARY
360
13A
102
}
102
{ACAD_REACTORS
330
29
102
}
330
29
100
AcDbVisualStyle
  2
Realistic
 70
     8
177
     2
291
     0
 71
     2
176
     1
 72
     3
176
     1
 73
     0
176
     1
 90
        2
176
     1
 40
0.6
176
     1
 41
30.0
176
     1
 63
     7
421
 16777215
176
     1
 74
     0
176
     1
 91
        0
176
     1
 64
     7
176
     1
 65
   257
176
     1
 75
     1
176
     1
175
     1
176
     1
 42
1.0
176
     1
 92
        8
176
     1
 66
   257
176
     1
 43
1.0
176
     1
 76
     1
176
     1
 77
     6
176
     1
 78
     2
176
     1
 67
     7
176
     1
 79
     3
176
     1
170
     0
176
     1
171
     0
176
     1
290
     0
176
     1
 93
       13
176
     1
 44
0.0
176
     1
173
     0
176
     1
1001
ACAD
1000
AcDbSavedByObjectVersion
1070
     0
  0
VISUALSTYLE
  5
3E
102
{ACAD_XDICTIONARY
360
150
102
}
102
{ACAD_REACTORS
330
29
102
}
330
29
100
AcDbVisualStyle
  2
Shaded
 70
    27
177
     2
291
     0
 71
     2
176
     1
 72
     2
176
     1
 73
     1
176
     1
 90
        2
176
     1
 40
0.6
176
     1
 41
30.0
176
     1
 63
     7
421
 16777215
176
     1
 74
     0
176
     1
 91
        4
176
     1
 64
     7
176
     1
 65
   257
176
     1
 75
     1
176
     1
175
     1
176
     1
 42
1.0
176
     1
 92
        8
176
     1
 66
   257
176
     1
 43
1.0
176
     1
 76
     1
176
     1
 77
     6
176
     1
 78
     2
176
     1
 67
     8
425
  7895160
176
     1
 79
     3
176
     1
170
     0
176
     1
171
     0
176
     1
290
     0
176
     1
 93
        5
176
     1
 44
0.0
176
     1
173
     0
176
     1
1001
ACAD
1000
AcDbSavedByObjectVersion
1070
     0
  0
VISUALSTYLE
  5
3D
102
{ACAD_XDICTIONARY
360
14E
102
}
102
{ACAD_REACTORS
330
29
102
}
330
29
100
AcDbVisualStyle
  2
Shaded with edges
 70
    26
177
     2
291
     0
 71
     2
176
     1
 72
     2
176
     1
 73
     1
176
     1
 90
        2
176
     1
 40
0.6
176
     1
 41
30.0
176
     1
 63
     7
421
 16777215
176
     1
 74
     1
176
     1
 91
        2
176
     1
 64
     7
176
     1
 65
   257
176
     1
 75
     2
176
     1
175
     1
176
     1
 42
1.0
176
     1
 92
        8
176
     1
 66
   257
176
     1
 43
1.0
176
     1
 76
     1
176
     1
 77
     6
176
     1
 78
     2
176
     1
 67
     7
176
     1
 79
     3
176
     1
170
     0
176
     1
171
     0
176
     1
290
     0
176
     1
 93
        5
176
     1
 44
0.0
176
     1
173
     0
176
     1
1001
ACAD
1000
AcDbSavedByObjectVersion
1070
     0
  0
VISUALSTYLE
  5
3A
102
{ACAD_XDICTIONARY
360
148
102
}
102
{ACAD_REACTORS
330
29
102
}
330
29
100
AcDbVisualStyle
  2
Shades of Gray
 70
    23
177
     2
291
     0
 71
     2
176
     1
 72
     2
176
     1
 73
     3
176
     1
 90
        0
176
     1
 40
0.6
176
     1
 41
30.0
176
     1
 63
     7
421
 16777215
176
     1
 74
     2
176
     1
 91
        2
176
     1
 64
     7
176
     1
 65
     7
176
     1
 75
     1
176
     1
175
     1
176
     1
 42
40.0
176
     1
 92
        8
176
     1
 66
     7
176
     1
 43
1.0
176
     1
 76
     1
176
     1
 77
     6
176
     1
 78
     2
176
     1
 67
     7
176
     1
 79
     3
176
     1
170
     0
176
     1
171
     0
176
     1
290
     0
176
     1
 93
        1
176
     1
 44
0.0
176
     1
173
     0
176
     1
1001
ACAD
1000
AcDbSavedByObjectVersion
1070
     0
  0
VISUALSTYLE
  5
3B
102
{ACAD_XDICTIONARY
360
14A
102
}
102
{ACAD_REACTORS
330
29
102
}
330
29
100
AcDbVisualStyle
  2
Sketchy
 70
    24
177
     2
291
     0
 71
     1
176
     1
 72
     2
176
     1
 73
     2
176
     1
 90
        0
176
     1
 40
0.6
176
     1
 41
30.0
176
     1
 63
     7
421
 16777215
176
     1
 74
     2
176
     1
 91
        2
176
     1
 64
     7
176
     1
 65
     7
176
     1
 75
     1
176
     1
175
     1
176
     1
 42
40.0
176
     1
 92
       11
176
     1
 66
     7
176
     1
 43
1.0
176
     1
 76
     1
176
     1
 77
     6
176
     1
 78
     2
176
     1
 67
     7
176
     1
 79
     6
176
     1
170
     0
176
     1
171
     0
176
     1
290
     0
176
     1
 93
        1
176
     1
 44
0.0
176
     1
173
     0
176
     1
1001
ACAD
1000
AcDbSavedByObjectVersion
1070
     0
  0
VISUALSTYLE
  5
36
102
{ACAD_XDICTIONARY
360
140
102
}
102
{ACAD_REACTORS
330
29
102
}
330
29
100
AcDbVisualStyle
  2
Thicken
 70
    13
177
     2
291
     1
 71
     2
176
     1
 72
     2
176
     1
 73
     0
176
     1
 90
        0
176
     1
 40
0.6
176
     1
 41
30.0
176
     1
 63
     7
421
 16777215
176
     1
 74
     1
176
     1
 91
        4
176
     1
 64
     7
176
     1
 65
   257
176
     1
 75
     1
176
     1
175
     1
176
     1
 42
1.0
176
     1
 92
       12
176
     1
 66
     7
176
     1
 43
1.0
176
     1
 76
     1
176
     1
 77
     6
176
     1
 78
     2
176
     1
 67
     7
176
     1
 79
     5
176
     1
170
     0
176
     1
171
     0
176
     1
290
     0
176
     1
 93
        1
176
     1
 44
0.0
176
     1
173
     0
176
     1
1001
ACAD
1000
AcDbSavedByObjectVersion
1070
     0
  0
VISUALSTYLE
  5
30
102
{ACAD_XDICTIONARY
360
134
102
}
102
{ACAD_REACTORS
330
29
102
}
330
29
100
AcDbVisualStyle
  2
Wireframe
 70
     5
177
     2
291
     0
 71
     0
176
     1
 72
     2
176
     1
 73
     0
176
     1
 90
        0
176
     1
 40
0.6
176
     1
 41
30.0
176
     1
 63
     7
421
 16777215
176
     1
 74
     1
176
     1
 91
        4
176
     1
 64
     7
176
     1
 65
   257
176
     1
 75
     1
176
     1
175
     1
176
     1
 42
1.0
176
     1
 92
        0
176
     1
 66
   257
176
     1
 43
1.0
176
     1
 76
     1
176
     1
 77
     6
176
     1
 78
     2
176
     1
 67
     7
176
     1
 79
     3
176
     1
170
     0
176
     1
171
     0
176
     1
290
     0
176
     1
 93
        1
176
     1
 44
0.0
176
     1
173
     0
176
     1
1001
ACAD
1000
AcDbSavedByObjectVersion
1070
     0
  0
VISUALSTYLE
  5
3C
102
{ACAD_XDICTIONARY
360
14C
102
}
102
{ACAD_REACTORS
330
29
102
}
330
29
100
AcDbVisualStyle
  2
X-Ray
 70
    25
177
     2
291
     0
 71
     2
176
     1
 72
     2
176
     1
 73
     1
176
     1
 90
        1
176
     1
 40
0.5
176
     1
 41
30.0
176
     1
 63
     7
421
 16777215
176
     1
 74
     1
176
     1
 91
        0
176
     1
 64
     7
176
     1
 65
   257
176
     1
 75
     1
176
     1
175
     1
176
     1
 42
1.0
176
     1
 92
        8
176
     1
 66
     7
176
     1
 43
1.0
176
     1
 76
     1
176
     1
 77
     6
176
     1
 78
     2
176
     1
 67
     7
176
     1
 79
     3
176
     1
170
     0
176
     1
171
     0
176
     1
290
     0
176
     1
 93
       13
176
     1
 44
0.0
176
     1
173
     0
176
     1
1001
ACAD
1000
AcDbSavedByObjectVersion
1070
     0
  0
DICTIONARYVAR
  5
124
102
{ACAD_REACTORS
330
11F
102
}
330
11F
100
DictionaryVariables
280
     0
  1
1:1
  0
DICTIONARYVAR
  5
121
102
{ACAD_REACTORS
330
11F
102
}
330
11F
100
DictionaryVariables
280
     0
  1
STANDARD
  0
DICTIONARYVAR
  5
120
102
{ACAD_REACTORS
330
11F
102
}
330
11F
100
DictionaryVariables
280
     0
  1
STANDARD
  0
DICTIONARYVAR
  5
122
102
{ACAD_REACTORS
330
11F
102
}
330
11F
100
DictionaryVariables
280
     0
  1
Imperial24
  0
DICTIONARYVAR
  5
123
102
{ACAD_REACTORS
330
11F
102
}
330
11F
100
DictionaryVariables
280
     0
  1
Imperial24
  0
DICTIONARY
  5
15C
330
6B
100
AcDbDictionary
280
     1
281
     1
  3
ACAD_XREC_ROUNDTRIP
360
15D
  0
DICTIONARY
  5
1A
330
19
100
AcDbDictionary
280
     1
281
     1
  3
BUMPTILE
360
1C
  3
DIFFUSETILE
360
1B
  3
OPACITYTILE
360
1F
  3
REFLECTIONTILE
360
1E
  3
REFRACTIONTILE
360
20
  3
SPECULARTILE
360
1D
  0
DICTIONARY
  5
12
330
11
100
AcDbDictionary
280
     1
281
     1
  3
BUMPTILE
360
14
  3
DIFFUSETILE
360
13
  3
OPACITYTILE
360
17
  3
REFLECTIONTILE
360
16
  3
REFRACTIONTILE
360
18
  3
SPECULARTILE
360
15
  0
DICTIONARY
  5
22
330
21
100
AcDbDictionary
280
     1
281
     1
  3
BUMPTILE
360
24
  3
DIFFUSETILE
360
23
  3
OPACITYTILE
360
27
  3
REFLECTIONTILE
360
26
  3
REFRACTIONTILE
360
28
  3
SPECULARTILE
360
25
  0
DICTIONARY
  5
158
330
67
100
AcDbDictionary
280
     1
281
     1
  3
ACAD_XREC_ROUNDTRIP
360
159
  0
DICTIONARY
  5
15A
330
69
100
AcDbDictionary
280
     1
281
     1
  3
ACAD_XREC_ROUNDTRIP
360
15B
  0
DICTIONARY
  5
125
330
65
100
AcDbDictionary
280
     1
281
     1
  3
ACAD_ROUNDTRIP_2008_TABLESTYLE_CELLSTYLEMAP
360
126
  0
DICTIONARY
  5
132
330
2F
100
AcDbDictionary
280
     1
281
     1
  3
ACAD_XREC_ROUNDTRIP
360
133
  0
DICTIONARY
  5
130
330
2E
100
AcDbDictionary
280
     1
281
     1
  3
ACAD_XREC_ROUNDTRIP
360
131
  0
DICTIONARY
  5
13E
330
35
100
AcDbDictionary
280
     1
281
     1
  3
ACAD_XREC_ROUNDTRIP
360
13F
  0
DICTIONARY
  5
146
330
39
100
AcDbDictionary
280
     1
281
     1
  3
ACAD_XREC_ROUNDTRIP
360
147
  0
DICTIONARY
  5
138
330
32
100
AcDbDictionary
280
     1
281
     1
  3
ACAD_XREC_ROUNDTRIP
360
139
  0
DICTIONARY
  5
13C
330
34
100
AcDbDictionary
280
     1
281
     1
  3
ACAD_XREC_ROUNDTRIP
360
13D
  0
DICTIONARY
  5
156
330
41
100
AcDbDictionary
280
     1
281
     1
  3
ACAD_XREC_ROUNDTRIP
360
157
  0
DICTIONARY
  5
144
330
38
100
AcDbDictionary
280
     1
281
     1
  3
ACAD_XREC_ROUNDTRIP
360
145
  0
DICTIONARY
  5
128
330
2A
100
AcDbDictionary
280
     1
281
     1
  3
ACAD_XREC_ROUNDTRIP
360
129
  0
DICTIONARY
  5
12A
330
2B
100
AcDbDictionary
280
     1
281
     1
  3
ACAD_XREC_ROUNDTRIP
360
12B
  0
DICTIONARY
  5
12C
330
2C
100
AcDbDictionary
280
     1
281
     1
  3
ACAD_XREC_ROUNDTRIP
360
12D
  0
DICTIONARY
  5
12E
330
2D
100
AcDbDictionary
280
     1
281
     1
  3
ACAD_XREC_ROUNDTRIP
360
12F
  0
DICTIONARY
  5
136
330
31
100
AcDbDictionary
280
     1
281
     1
  3
ACAD_XREC_ROUNDTRIP
360
137
  0
DICTIONARY
  5
152
330
3F
100
AcDbDictionary
280
     1
281
     1
  3
ACAD_XREC_ROUNDTRIP
360
153
  0
DICTIONARY
  5
142
330
37
100
AcDbDictionary
280
     1
281
     1
  3
ACAD_XREC_ROUNDTRIP
360
143
  0
DICTIONARY
  5
154
330
40
100
AcDbDictionary
280
     1
281
     1
  3
ACAD_XREC_ROUNDTRIP
360
155
  0
DICTIONARY
  5
13A
330
33
100
AcDbDictionary
280
     1
281
     1
  3
ACAD_XREC_ROUNDTRIP
360
13B
  0
DICTIONARY
  5
150
330
3E
100
AcDbDictionary
280
     1
281
     1
  3
ACAD_XREC_ROUNDTRIP
360
151
  0
DICTIONARY
  5
14E
330
3D
100
AcDbDictionary
280
     1
281
     1
  3
ACAD_XREC_ROUNDTRIP
360
14F
  0
DICTIONARY
  5
148
330
3A
100
AcDbDictionary
280
     1
281
     1
  3
ACAD_XREC_ROUNDTRIP
360
149
  0
DICTIONARY
  5
14A
330
3B
100
AcDbDictionary
280
     1
281
     1
  3
ACAD_XREC_ROUNDTRIP
360
14B
  0
DICTIONARY
  5
140
330
36
100
AcDbDictionary
280
     1
281
     1
  3
ACAD_XREC_ROUNDTRIP
360
141
  0
DICTIONARY
  5
134
330
30
100
AcDbDictionary
280
     1
281
     1
  3
ACAD_XREC_ROUNDTRIP
360
135
  0
DICTIONARY
  5
14C
330
3C
100
AcDbDictionary
280
     1
281
     1
  3
ACAD_XREC_ROUNDTRIP
360
14D
  0
XRECORD
  5
15D
102
{ACAD_REACTORS
330
15C
102
}
330
15C
100
AcDbXrecord
280
     1
102
DISPLAYNAME
  1
Imperial24
102
FLAGS
 90
        0
  0
XRECORD
  5
1C
102
{ACAD_REACTORS
330
1A
102
}
330
1A
100
AcDbXrecord
280
     1
270
     1
271
     1
  0
XRECORD
  5
1B
102
{ACAD_REACTORS
330
1A
102
}
330
1A
100
AcDbXrecord
280
     1
270
     1
271
     1
  0
XRECORD
  5
1F
102
{ACAD_REACTORS
330
1A
102
}
330
1A
100
AcDbXrecord
280
     1
270
     1
271
     1
  0
XRECORD
  5
1E
102
{ACAD_REACTORS
330
1A
102
}
330
1A
100
AcDbXrecord
280
     1
270
     1
271
     1
  0
XRECORD
  5
20
102
{ACAD_REACTORS
330
1A
102
}
330
1A
100
AcDbXrecord
280
     1
270
     1
271
     1
  0
XRECORD
  5
1D
102
{ACAD_REACTORS
330
1A
102
}
330
1A
100
AcDbXrecord
280
     1
270
     1
271
     1
  0
XRECORD
  5
14
102
{ACAD_REACTORS
330
12
102
}
330
12
100
AcDbXrecord
280
     1
270
     1
271
     1
  0
XRECORD
  5
13
102
{ACAD_REACTORS
330
12
102
}
330
12
100
AcDbXrecord
280
     1
270
     1
271
     1
  0
XRECORD
  5
17
102
{ACAD_REACTORS
330
12
102
}
330
12
100
AcDbXrecord
280
     1
270
     1
271
     1
  0
XRECORD
  5
16
102
{ACAD_REACTORS
330
12
102
}
330
12
100
AcDbXrecord
280
     1
270
     1
271
     1
  0
XRECORD
  5
18
102
{ACAD_REACTORS
330
12
102
}
330
12
100
AcDbXrecord
280
     1
270
     1
271
     1
  0
XRECORD
  5
15
102
{ACAD_REACTORS
330
12
102
}
330
12
100
AcDbXrecord
280
     1
270
     1
271
     1
  0
XRECORD
  5
24
102
{ACAD_REACTORS
330
22
102
}
330
22
100
AcDbXrecord
280
     1
270
     1
271
     1
  0
XRECORD
  5
23
102
{ACAD_REACTORS
330
22
102
}
330
22
100
AcDbXrecord
280
     1
270
     1
271
     1
  0
XRECORD
  5
27
102
{ACAD_REACTORS
330
22
102
}
330
22
100
AcDbXrecord
280
     1
270
     1
271
     1
  0
XRECORD
  5
26
102
{ACAD_REACTORS
330
22
102
}
330
22
100
AcDbXrecord
280
     1
270
     1
271
     1
  0
XRECORD
  5
28
102
{ACAD_REACTORS
330
22
102
}
330
22
100
AcDbXrecord
280
     1
270
     1
271
     1
  0
XRECORD
  5
25
102
{ACAD_REACTORS
330
22
102
}
330
22
100
AcDbXrecord
280
     1
270
     1
271
     1
  0
XRECORD
  5
159
102
{ACAD_REACTORS
330
158
102
}
330
158
100
AcDbXrecord
280
     1
102
ACAD_ROUNDTRIP_2012_MLEADER_STYLE
298
     1
  0
XRECORD
  5
15B
102
{ACAD_REACTORS
330
15A
102
}
330
15A
100
AcDbXrecord
280
     1
102
DISPLAYNAME
  1
Imperial24
102
FLAGS
 90
        0
  0
CELLSTYLEMAP
  5
126
102
{ACAD_REACTORS
330
125
102
}
330
125
100
AcDbCellStyleMap
 90
        3
300
CELLSTYLE
  1
TABLEFORMAT_BEGIN
 90
        5
170
     1
 91
        0
 92
    32768
 62
   257
 93
        1
300
CONTENTFORMAT
  1
CONTENTFORMAT_BEGIN
 90
        0
 91
        0
 92
      512
 93
        0
300

 40
0.0
140
1.0
 94
        5
 62
     0
340
55
144
0.25
309
CONTENTFORMAT_END
171
     0
 94
        0
309
TABLEFORMAT_END
  1
CELLSTYLE_BEGIN
 90
        1
 91
        1
300
_TITLE
309
CELLSTYLE_END
300
CELLSTYLE
  1
TABLEFORMAT_BEGIN
 90
        5
170
     1
 91
        0
 92
        0
 62
   257
 93
        1
300
CONTENTFORMAT
  1
CONTENTFORMAT_BEGIN
 90
        0
 91
        0
 92
      512
 93
        0
300

 40
0.0
140
1.0
 94
        5
 62
     0
340
55
144
0.18
309
CONTENTFORMAT_END
171
     0
 94
        0
309
TABLEFORMAT_END
  1
CELLSTYLE_BEGIN
 90
        2
 91
        1
300
_HEADER
309
CELLSTYLE_END
300
CELLSTYLE
  1
TABLEFORMAT_BEGIN
 90
        5
170
     1
 91
        0
 92
        0
 62
   257
 93
        1
300
CONTENTFORMAT
  1
CONTENTFORMAT_BEGIN
 90
        0
 91
        0
 92
      512
 93
        0
300

 40
0.0
140
1.0
 94
        2
 62
     0
340
55
144
0.18
309
CONTENTFORMAT_END
171
     0
 94
        0
309
TABLEFORMAT_END
  1
CELLSTYLE_BEGIN
 90
        3
 91
        2
300
_DATA
309
CELLSTYLE_END
  0
XRECORD
  5
133
102
{ACAD_REACTORS
330
132
102
}
330
132
100
AcDbXrecord
280
     1
102
RTVSPost2010Prop28
280
     1
102
RTVSPost2010PropOp28
 70
     1
102
RTVSPost2010Prop29
280
     1
102
RTVSPost2010PropOp29
 70
     1
102
RTVSPost2010Prop30
280
     0
102
RTVSPost2010PropOp30
 70
     1
102
RTVSPost2010Prop31
280
     0
102
RTVSPost2010PropOp31
 70
     1
102
RTVSPost2010Prop32
280
     0
102
RTVSPost2010PropOp32
 70
     1
102
RTVSPost2010Prop33
280
     0
102
RTVSPost2010PropOp33
 70
     1
102
RTVSPost2010Prop34
280
     0
102
RTVSPost2010PropOp34
 70
     1
102
RTVSPost2010Prop35
280
     0
102
RTVSPost2010PropOp35
 70
     1
102
RTVSPost2010Prop36
280
     0
102
RTVSPost2010PropOp36
 70
     1
102
RTVSPost2010Prop37
 90
       50
102
RTVSPost2010PropOp37
 70
     1
102
RTVSPost2010Prop38
140
0.0
102
RTVSPost2010PropOp38
 70
     1
102
RTVSPost2010Prop39
140
1.0
102
RTVSPost2010PropOp39
 70
     1
102
RTVSPost2010Prop40
 90
        0
102
RTVSPost2010PropOp40
 70
     1
102
RTVSPost2010Prop41ColorIndex
 90
       18
102
RTVSPost2010Prop41ColorRGB
 90
        0
102
RTVSPost2010PropOp41
 70
     1
102
RTVSPost2010Prop42
 90
       50
102
RTVSPost2010PropOp42
 70
     1
102
RTVSPost2010Prop43
 90
        3
102
RTVSPost2010PropOp43
 70
     1
102
RTVSPost2010Prop44ColorIndex
 90
        5
102
RTVSPost2010Prop44ColorRGB
 90
      255
102
RTVSPost2010PropOp44
 70
     1
102
RTVSPost2010Prop45
280
     0
102
RTVSPost2010PropOp45
 70
     1
102
RTVSPost2010Prop46
 90
       50
102
RTVSPost2010PropOp46
 70
     1
102
RTVSPost2010Prop47
 90
       50
102
RTVSPost2010PropOp47
 70
     1
102
RTVSPost2010Prop48
 90
       50
102
RTVSPost2010PropOp48
 70
     1
102
RTVSPost2010Prop49
280
     0
102
RTVSPost2010PropOp49
 70
     1
102
RTVSPost2010Prop50
 90
       50
102
RTVSPost2010PropOp50
 70
     1
102
RTVSPost2010Prop51ColorIndex
 90
      256
102
RTVSPost2010Prop51ColorRGB
 90
-16777216
102
RTVSPost2010PropOp51
 70
     0
102
RTVSPost2010Prop52
140
1.0
102
RTVSPost2010PropOp52
 70
     0
102
RTVSPost2010Prop53
 90
        2
102
RTVSPost2010PropOp53
 70
     1
102
RTVSPost2010Prop54
  1
strokes_ogs.tif
102
RTVSPost2010PropOp54
 70
     1
102
RTVSPost2010Prop55
280
     0
102
RTVSPost2010PropOp55
 70
     1
102
RTVSPost2010Prop56
140
1.0
102
RTVSPost2010PropOp56
 70
     1
102
RTVSPost2010Prop57
140
1.0
102
RTVSPost2010PropOp57
 70
     1
  0
XRECORD
  5
131
102
{ACAD_REACTORS
330
130
102
}
330
130
100
AcDbXrecord
280
     1
102
RTVSPost2010Prop28
280
     0
102
RTVSPost2010PropOp28
 70
     1
102
RTVSPost2010Prop29
280
     1
102
RTVSPost2010PropOp29
 70
     1
102
RTVSPost2010Prop30
280
     1
102
RTVSPost2010PropOp30
 70
     1
102
RTVSPost2010Prop31
280
     0
102
RTVSPost2010PropOp31
 70
     1
102
RTVSPost2010Prop32
280
     0
102
RTVSPost2010PropOp32
 70
     1
102
RTVSPost2010Prop33
280
     0
102
RTVSPost2010PropOp33
 70
     1
102
RTVSPost2010Prop34
280
     0
102
RTVSPost2010PropOp34
 70
     1
102
RTVSPost2010Prop35
280
     0
102
RTVSPost2010PropOp35
 70
     1
102
RTVSPost2010Prop36
280
     0
102
RTVSPost2010PropOp36
 70
     1
102
RTVSPost2010Prop37
 90
       50
102
RTVSPost2010PropOp37
 70
     1
102
RTVSPost2010Prop38
140
0.0
102
RTVSPost2010PropOp38
 70
     1
102
RTVSPost2010Prop39
140
1.0
102
RTVSPost2010PropOp39
 70
     1
102
RTVSPost2010Prop40
 90
        0
102
RTVSPost2010PropOp40
 70
     1
102
RTVSPost2010Prop41ColorIndex
 90
       18
102
RTVSPost2010Prop41ColorRGB
 90
        0
102
RTVSPost2010PropOp41
 70
     1
102
RTVSPost2010Prop42
 90
       50
102
RTVSPost2010PropOp42
 70
     1
102
RTVSPost2010Prop43
 90
        3
102
RTVSPost2010PropOp43
 70
     1
102
RTVSPost2010Prop44ColorIndex
 90
        5
102
RTVSPost2010Prop44ColorRGB
 90
      255
102
RTVSPost2010PropOp44
 70
     1
102
RTVSPost2010Prop45
280
     0
102
RTVSPost2010PropOp45
 70
     1
102
RTVSPost2010Prop46
 90
       50
102
RTVSPost2010PropOp46
 70
     1
102
RTVSPost2010Prop47
 90
       50
102
RTVSPost2010PropOp47
 70
     1
102
RTVSPost2010Prop48
 90
       50
102
RTVSPost2010PropOp48
 70
     1
102
RTVSPost2010Prop49
280
     0
102
RTVSPost2010PropOp49
 70
     1
102
RTVSPost2010Prop50
 90
       50
102
RTVSPost2010PropOp50
 70
     1
102
RTVSPost2010Prop51ColorIndex
 90
      256
102
RTVSPost2010Prop51ColorRGB
 90
-16777216
102
RTVSPost2010PropOp51
 70
     0
102
RTVSPost2010Prop52
140
1.0
102
RTVSPost2010PropOp52
 70
     0
102
RTVSPost2010Prop53
 90
        2
102
RTVSPost2010PropOp53
 70
     1
102
RTVSPost2010Prop54
  1
strokes_ogs.tif
102
RTVSPost2010PropOp54
 70
     1
102
RTVSPost2010Prop55
280
     0
102
RTVSPost2010PropOp55
 70
     1
102
RTVSPost2010Prop56
140
1.0
102
RTVSPost2010PropOp56
 70
     1
102
RTVSPost2010Prop57
140
1.0
102
RTVSPost2010PropOp57
 70
     1
  0
XRECORD
  5
13F
102
{ACAD_REACTORS
330
13E
102
}
330
13E
100
AcDbXrecord
280
     1
102
RTVSPost2010Prop28
280
     0
102
RTVSPost2010PropOp28
 70
     1
102
RTVSPost2010Prop29
280
     1
102
RTVSPost2010PropOp29
 70
     1
102
RTVSPost2010Prop30
280
     1
102
RTVSPost2010PropOp30
 70
     1
102
RTVSPost2010Prop31
280
     0
102
RTVSPost2010PropOp31
 70
     1
102
RTVSPost2010Prop32
280
     0
102
RTVSPost2010PropOp32
 70
     1
102
RTVSPost2010Prop33
280
     0
102
RTVSPost2010PropOp33
 70
     1
102
RTVSPost2010Prop34
280
     0
102
RTVSPost2010PropOp34
 70
     1
102
RTVSPost2010Prop35
280
     0
102
RTVSPost2010PropOp35
 70
     1
102
RTVSPost2010Prop36
280
     0
102
RTVSPost2010PropOp36
 70
     1
102
RTVSPost2010Prop37
 90
       50
102
RTVSPost2010PropOp37
 70
     1
102
RTVSPost2010Prop38
140
0.0
102
RTVSPost2010PropOp38
 70
     1
102
RTVSPost2010Prop39
140
1.0
102
RTVSPost2010PropOp39
 70
     1
102
RTVSPost2010Prop40
 90
        0
102
RTVSPost2010PropOp40
 70
     1
102
RTVSPost2010Prop41ColorIndex
 90
       18
102
RTVSPost2010Prop41ColorRGB
 90
        0
102
RTVSPost2010PropOp41
 70
     1
102
RTVSPost2010Prop42
 90
       50
102
RTVSPost2010PropOp42
 70
     1
102
RTVSPost2010Prop43
 90
        3
102
RTVSPost2010PropOp43
 70
     1
102
RTVSPost2010Prop44ColorIndex
 90
        5
102
RTVSPost2010Prop44ColorRGB
 90
      255
102
RTVSPost2010PropOp44
 70
     1
102
RTVSPost2010Prop45
280
     0
102
RTVSPost2010PropOp45
 70
     1
102
RTVSPost2010Prop46
 90
       50
102
RTVSPost2010PropOp46
 70
     1
102
RTVSPost2010Prop47
 90
       50
102
RTVSPost2010PropOp47
 70
     1
102
RTVSPost2010Prop48
 90
       50
102
RTVSPost2010PropOp48
 70
     1
102
RTVSPost2010Prop49
280
     0
102
RTVSPost2010PropOp49
 70
     1
102
RTVSPost2010Prop50
 90
       50
102
RTVSPost2010PropOp50
 70
     1
102
RTVSPost2010Prop51ColorIndex
 90
      256
102
RTVSPost2010Prop51ColorRGB
 90
-16777216
102
RTVSPost2010PropOp51
 70
     0
102
RTVSPost2010Prop52
140
1.0
102
RTVSPost2010PropOp52
 70
     0
102
RTVSPost2010Prop53
 90
        2
102
RTVSPost2010PropOp53
 70
     1
102
RTVSPost2010Prop54
  1
strokes_ogs.tif
102
RTVSPost2010PropOp54
 70
     1
102
RTVSPost2010Prop55
280
     0
102
RTVSPost2010PropOp55
 70
     1
102
RTVSPost2010Prop56
140
1.0
102
RTVSPost2010PropOp56
 70
     1
102
RTVSPost2010Prop57
140
1.0
102
RTVSPost2010PropOp57
 70
     1
  0
XRECORD
  5
147
102
{ACAD_REACTORS
330
146
102
}
330
146
100
AcDbXrecord
280
     1
102
RTVSPost2010Prop28
280
     0
102
RTVSPost2010PropOp28
 70
     1
102
RTVSPost2010Prop29
280
     1
102
RTVSPost2010PropOp29
 70
     1
102
RTVSPost2010Prop30
280
     1
102
RTVSPost2010PropOp30
 70
     1
102
RTVSPost2010Prop31
280
     0
102
RTVSPost2010PropOp31
 70
     1
102
RTVSPost2010Prop32
280
     0
102
RTVSPost2010PropOp32
 70
     1
102
RTVSPost2010Prop33
280
     0
102
RTVSPost2010PropOp33
 70
     1
102
RTVSPost2010Prop34
280
     0
102
RTVSPost2010PropOp34
 70
     1
102
RTVSPost2010Prop35
280
     0
102
RTVSPost2010PropOp35
 70
     1
102
RTVSPost2010Prop36
280
     0
102
RTVSPost2010PropOp36
 70
     1
102
RTVSPost2010Prop37
 90
       50
102
RTVSPost2010PropOp37
 70
     1
102
RTVSPost2010Prop38
140
0.0
102
RTVSPost2010PropOp38
 70
     1
102
RTVSPost2010Prop39
140
1.0
102
RTVSPost2010PropOp39
 70
     1
102
RTVSPost2010Prop40
 90
        0
102
RTVSPost2010PropOp40
 70
     1
102
RTVSPost2010Prop41ColorIndex
 90
       18
102
RTVSPost2010Prop41ColorRGB
 90
        0
102
RTVSPost2010PropOp41
 70
     1
102
RTVSPost2010Prop42
 90
       50
102
RTVSPost2010PropOp42
 70
     1
102
RTVSPost2010Prop43
 90
        3
102
RTVSPost2010PropOp43
 70
     1
102
RTVSPost2010Prop44ColorIndex
 90
        5
102
RTVSPost2010Prop44ColorRGB
 90
      255
102
RTVSPost2010PropOp44
 70
     1
102
RTVSPost2010Prop45
280
     0
102
RTVSPost2010PropOp45
 70
     1
102
RTVSPost2010Prop46
 90
       50
102
RTVSPost2010PropOp46
 70
     1
102
RTVSPost2010Prop47
 90
       50
102
RTVSPost2010PropOp47
 70
     1
102
RTVSPost2010Prop48
 90
       50
102
RTVSPost2010PropOp48
 70
     1
102
RTVSPost2010Prop49
280
     0
102
RTVSPost2010PropOp49
 70
     1
102
RTVSPost2010Prop50
 90
       50
102
RTVSPost2010PropOp50
 70
     1
102
RTVSPost2010Prop51ColorIndex
 90
      256
102
RTVSPost2010Prop51ColorRGB
 90
-16777216
102
RTVSPost2010PropOp51
 70
     0
102
RTVSPost2010Prop52
140
1.0
102
RTVSPost2010PropOp52
 70
     0
102
RTVSPost2010Prop53
 90
        2
102
RTVSPost2010PropOp53
 70
     1
102
RTVSPost2010Prop54
  1
strokes_ogs.tif
102
RTVSPost2010PropOp54
 70
     1
102
RTVSPost2010Prop55
280
     0
102
RTVSPost2010PropOp55
 70
     1
102
RTVSPost2010Prop56
140
1.0
102
RTVSPost2010PropOp56
 70
     1
102
RTVSPost2010Prop57
140
1.0
102
RTVSPost2010PropOp57
 70
     1
  0
XRECORD
  5
139
102
{ACAD_REACTORS
330
138
102
}
330
138
100
AcDbXrecord
280
     1
102
RTVSPost2010Prop28
280
     0
102
RTVSPost2010PropOp28
 70
     1
102
RTVSPost2010Prop29
280
     1
102
RTVSPost2010PropOp29
 70
     1
102
RTVSPost2010Prop30
280
     1
102
RTVSPost2010PropOp30
 70
     1
102
RTVSPost2010Prop31
280
     0
102
RTVSPost2010PropOp31
 70
     1
102
RTVSPost2010Prop32
280
     0
102
RTVSPost2010PropOp32
 70
     1
102
RTVSPost2010Prop33
280
     0
102
RTVSPost2010PropOp33
 70
     1
102
RTVSPost2010Prop34
280
     0
102
RTVSPost2010PropOp34
 70
     1
102
RTVSPost2010Prop35
280
     0
102
RTVSPost2010PropOp35
 70
     1
102
RTVSPost2010Prop36
280
     0
102
RTVSPost2010PropOp36
 70
     1
102
RTVSPost2010Prop37
 90
       50
102
RTVSPost2010PropOp37
 70
     1
102
RTVSPost2010Prop38
140
0.0
102
RTVSPost2010PropOp38
 70
     1
102
RTVSPost2010Prop39
140
1.0
102
RTVSPost2010PropOp39
 70
     1
102
RTVSPost2010Prop40
 90
        0
102
RTVSPost2010PropOp40
 70
     1
102
RTVSPost2010Prop41ColorIndex
 90
       18
102
RTVSPost2010Prop41ColorRGB
 90
        0
102
RTVSPost2010PropOp41
 70
     1
102
RTVSPost2010Prop42
 90
       50
102
RTVSPost2010PropOp42
 70
     1
102
RTVSPost2010Prop43
 90
        3
102
RTVSPost2010PropOp43
 70
     1
102
RTVSPost2010Prop44ColorIndex
 90
        5
102
RTVSPost2010Prop44ColorRGB
 90
      255
102
RTVSPost2010PropOp44
 70
     1
102
RTVSPost2010Prop45
280
     0
102
RTVSPost2010PropOp45
 70
     1
102
RTVSPost2010Prop46
 90
       50
102
RTVSPost2010PropOp46
 70
     1
102
RTVSPost2010Prop47
 90
       50
102
RTVSPost2010PropOp47
 70
     1
102
RTVSPost2010Prop48
 90
       50
102
RTVSPost2010PropOp48
 70
     1
102
RTVSPost2010Prop49
280
     0
102
RTVSPost2010PropOp49
 70
     1
102
RTVSPost2010Prop50
 90
       50
102
RTVSPost2010PropOp50
 70
     1
102
RTVSPost2010Prop51ColorIndex
 90
      256
102
RTVSPost2010Prop51ColorRGB
 90
-16777216
102
RTVSPost2010PropOp51
 70
     0
102
RTVSPost2010Prop52
140
1.0
102
RTVSPost2010PropOp52
 70
     0
102
RTVSPost2010Prop53
 90
        2
102
RTVSPost2010PropOp53
 70
     1
102
RTVSPost2010Prop54
  1
strokes_ogs.tif
102
RTVSPost2010PropOp54
 70
     1
102
RTVSPost2010Prop55
280
     0
102
RTVSPost2010PropOp55
 70
     1
102
RTVSPost2010Prop56
140
1.0
102
RTVSPost2010PropOp56
 70
     1
102
RTVSPost2010Prop57
140
1.0
102
RTVSPost2010PropOp57
 70
     1
  0
XRECORD
  5
13D
102
{ACAD_REACTORS
330
13C
102
}
330
13C
100
AcDbXrecord
280
     1
102
RTVSPost2010Prop28
280
     0
102
RTVSPost2010PropOp28
 70
     1
102
RTVSPost2010Prop29
280
     1
102
RTVSPost2010PropOp29
 70
     1
102
RTVSPost2010Prop30
280
     1
102
RTVSPost2010PropOp30
 70
     1
102
RTVSPost2010Prop31
280
     0
102
RTVSPost2010PropOp31
 70
     1
102
RTVSPost2010Prop32
280
     0
102
RTVSPost2010PropOp32
 70
     1
102
RTVSPost2010Prop33
280
     0
102
RTVSPost2010PropOp33
 70
     1
102
RTVSPost2010Prop34
280
     0
102
RTVSPost2010PropOp34
 70
     1
102
RTVSPost2010Prop35
280
     0
102
RTVSPost2010PropOp35
 70
     1
102
RTVSPost2010Prop36
280
     0
102
RTVSPost2010PropOp36
 70
     1
102
RTVSPost2010Prop37
 90
       50
102
RTVSPost2010PropOp37
 70
     1
102
RTVSPost2010Prop38
140
0.0
102
RTVSPost2010PropOp38
 70
     1
102
RTVSPost2010Prop39
140
1.0
102
RTVSPost2010PropOp39
 70
     1
102
RTVSPost2010Prop40
 90
        0
102
RTVSPost2010PropOp40
 70
     1
102
RTVSPost2010Prop41ColorIndex
 90
       18
102
RTVSPost2010Prop41ColorRGB
 90
        0
102
RTVSPost2010PropOp41
 70
     1
102
RTVSPost2010Prop42
 90
       50
102
RTVSPost2010PropOp42
 70
     1
102
RTVSPost2010Prop43
 90
        3
102
RTVSPost2010PropOp43
 70
     1
102
RTVSPost2010Prop44ColorIndex
 90
        5
102
RTVSPost2010Prop44ColorRGB
 90
      255
102
RTVSPost2010PropOp44
 70
     1
102
RTVSPost2010Prop45
280
     0
102
RTVSPost2010PropOp45
 70
     1
102
RTVSPost2010Prop46
 90
       50
102
RTVSPost2010PropOp46
 70
     1
102
RTVSPost2010Prop47
 90
       50
102
RTVSPost2010PropOp47
 70
     1
102
RTVSPost2010Prop48
 90
       50
102
RTVSPost2010PropOp48
 70
     1
102
RTVSPost2010Prop49
280
     0
102
RTVSPost2010PropOp49
 70
     1
102
RTVSPost2010Prop50
 90
       50
102
RTVSPost2010PropOp50
 70
     1
102
RTVSPost2010Prop51ColorIndex
 90
      256
102
RTVSPost2010Prop51ColorRGB
 90
-16777216
102
RTVSPost2010PropOp51
 70
     0
102
RTVSPost2010Prop52
140
1.0
102
RTVSPost2010PropOp52
 70
     0
102
RTVSPost2010Prop53
 90
        2
102
RTVSPost2010PropOp53
 70
     1
102
RTVSPost2010Prop54
  1
strokes_ogs.tif
102
RTVSPost2010PropOp54
 70
     1
102
RTVSPost2010Prop55
280
     0
102
RTVSPost2010PropOp55
 70
     1
102
RTVSPost2010Prop56
140
1.0
102
RTVSPost2010PropOp56
 70
     1
102
RTVSPost2010Prop57
140
1.0
102
RTVSPost2010PropOp57
 70
     1
  0
XRECORD
  5
157
102
{ACAD_REACTORS
330
156
102
}
330
156
100
AcDbXrecord
280
     1
102
RTVSPost2010Prop28
280
     0
102
RTVSPost2010PropOp28
 70
     0
102
RTVSPost2010Prop29
280
     1
102
RTVSPost2010PropOp29
 70
     0
102
RTVSPost2010Prop30
280
     1
102
RTVSPost2010PropOp30
 70
     0
102
RTVSPost2010Prop31
280
     0
102
RTVSPost2010PropOp31
 70
     0
102
RTVSPost2010Prop32
280
     0
102
RTVSPost2010PropOp32
 70
     0
102
RTVSPost2010Prop33
280
     0
102
RTVSPost2010PropOp33
 70
     0
102
RTVSPost2010Prop34
280
     0
102
RTVSPost2010PropOp34
 70
     0
102
RTVSPost2010Prop35
280
     0
102
RTVSPost2010PropOp35
 70
     0
102
RTVSPost2010Prop36
280
     0
102
RTVSPost2010PropOp36
 70
     0
102
RTVSPost2010Prop37
 90
       50
102
RTVSPost2010PropOp37
 70
     0
102
RTVSPost2010Prop38
140
0.0
102
RTVSPost2010PropOp38
 70
     0
102
RTVSPost2010Prop39
140
1.0
102
RTVSPost2010PropOp39
 70
     0
102
RTVSPost2010Prop40
 90
        0
102
RTVSPost2010PropOp40
 70
     0
102
RTVSPost2010Prop41ColorIndex
 90
       18
102
RTVSPost2010Prop41ColorRGB
 90
        0
102
RTVSPost2010PropOp41
 70
     0
102
RTVSPost2010Prop42
 90
       50
102
RTVSPost2010PropOp42
 70
     0
102
RTVSPost2010Prop43
 90
        3
102
RTVSPost2010PropOp43
 70
     0
102
RTVSPost2010Prop44ColorIndex
 90
        5
102
RTVSPost2010Prop44ColorRGB
 90
      255
102
RTVSPost2010PropOp44
 70
     0
102
RTVSPost2010Prop45
280
     0
102
RTVSPost2010PropOp45
 70
     0
102
RTVSPost2010Prop46
 90
       50
102
RTVSPost2010PropOp46
 70
     0
102
RTVSPost2010Prop47
 90
       50
102
RTVSPost2010PropOp47
 70
     0
102
RTVSPost2010Prop48
 90
       50
102
RTVSPost2010PropOp48
 70
     0
102
RTVSPost2010Prop49
280
     0
102
RTVSPost2010PropOp49
 70
     0
102
RTVSPost2010Prop50
 90
       50
102
RTVSPost2010PropOp50
 70
     0
102
RTVSPost2010Prop51ColorIndex
 90
      256
102
RTVSPost2010Prop51ColorRGB
 90
-16777216
102
RTVSPost2010PropOp51
 70
     0
102
RTVSPost2010Prop52
140
1.0
102
RTVSPost2010PropOp52
 70
     0
102
RTVSPost2010Prop53
 90
        2
102
RTVSPost2010PropOp53
 70
     0
102
RTVSPost2010Prop54
  1
strokes_ogs.tif
102
RTVSPost2010PropOp54
 70
     0
102
RTVSPost2010Prop55
280
     0
102
RTVSPost2010PropOp55
 70
     0
102
RTVSPost2010Prop56
140
1.0
102
RTVSPost2010PropOp56
 70
     0
102
RTVSPost2010Prop57
140
1.0
102
RTVSPost2010PropOp57
 70
     0
  0
XRECORD
  5
145
102
{ACAD_REACTORS
330
144
102
}
330
144
100
AcDbXrecord
280
     1
102
RTVSPost2010Prop28
280
     0
102
RTVSPost2010PropOp28
 70
     1
102
RTVSPost2010Prop29
280
     1
102
RTVSPost2010PropOp29
 70
     1
102
RTVSPost2010Prop30
280
     1
102
RTVSPost2010PropOp30
 70
     1
102
RTVSPost2010Prop31
280
     0
102
RTVSPost2010PropOp31
 70
     1
102
RTVSPost2010Prop32
280
     0
102
RTVSPost2010PropOp32
 70
     1
102
RTVSPost2010Prop33
280
     0
102
RTVSPost2010PropOp33
 70
     1
102
RTVSPost2010Prop34
280
     0
102
RTVSPost2010PropOp34
 70
     1
102
RTVSPost2010Prop35
280
     0
102
RTVSPost2010PropOp35
 70
     1
102
RTVSPost2010Prop36
280
     0
102
RTVSPost2010PropOp36
 70
     1
102
RTVSPost2010Prop37
 90
       50
102
RTVSPost2010PropOp37
 70
     1
102
RTVSPost2010Prop38
140
0.0
102
RTVSPost2010PropOp38
 70
     1
102
RTVSPost2010Prop39
140
1.0
102
RTVSPost2010PropOp39
 70
     1
102
RTVSPost2010Prop40
 90
        0
102
RTVSPost2010PropOp40
 70
     1
102
RTVSPost2010Prop41ColorIndex
 90
       18
102
RTVSPost2010Prop41ColorRGB
 90
        0
102
RTVSPost2010PropOp41
 70
     1
102
RTVSPost2010Prop42
 90
       50
102
RTVSPost2010PropOp42
 70
     1
102
RTVSPost2010Prop43
 90
        3
102
RTVSPost2010PropOp43
 70
     1
102
RTVSPost2010Prop44ColorIndex
 90
        5
102
RTVSPost2010Prop44ColorRGB
 90
      255
102
RTVSPost2010PropOp44
 70
     1
102
RTVSPost2010Prop45
280
     0
102
RTVSPost2010PropOp45
 70
     1
102
RTVSPost2010Prop46
 90
       50
102
RTVSPost2010PropOp46
 70
     1
102
RTVSPost2010Prop47
 90
       50
102
RTVSPost2010PropOp47
 70
     1
102
RTVSPost2010Prop48
 90
       50
102
RTVSPost2010PropOp48
 70
     1
102
RTVSPost2010Prop49
280
     0
102
RTVSPost2010PropOp49
 70
     1
102
RTVSPost2010Prop50
 90
       50
102
RTVSPost2010PropOp50
 70
     1
102
RTVSPost2010Prop51ColorIndex
 90
      256
102
RTVSPost2010Prop51ColorRGB
 90
-16777216
102
RTVSPost2010PropOp51
 70
     0
102
RTVSPost2010Prop52
140
1.0
102
RTVSPost2010PropOp52
 70
     0
102
RTVSPost2010Prop53
 90
        2
102
RTVSPost2010PropOp53
 70
     1
102
RTVSPost2010Prop54
  1
strokes_ogs.tif
102
RTVSPost2010PropOp54
 70
     1
102
RTVSPost2010Prop55
280
     0
102
RTVSPost2010PropOp55
 70
     1
102
RTVSPost2010Prop56
140
1.0
102
RTVSPost2010PropOp56
 70
     1
102
RTVSPost2010Prop57
140
1.0
102
RTVSPost2010PropOp57
 70
     1
  0
XRECORD
  5
129
102
{ACAD_REACTORS
330
128
102
}
330
128
100
AcDbXrecord
280
     1
102
RTVSPost2010Prop28
280
     0
102
RTVSPost2010PropOp28
 70
     1
102
RTVSPost2010Prop29
280
     1
102
RTVSPost2010PropOp29
 70
     1
102
RTVSPost2010Prop30
280
     1
102
RTVSPost2010PropOp30
 70
     1
102
RTVSPost2010Prop31
280
     0
102
RTVSPost2010PropOp31
 70
     1
102
RTVSPost2010Prop32
280
     0
102
RTVSPost2010PropOp32
 70
     1
102
RTVSPost2010Prop33
280
     0
102
RTVSPost2010PropOp33
 70
     1
102
RTVSPost2010Prop34
280
     0
102
RTVSPost2010PropOp34
 70
     1
102
RTVSPost2010Prop35
280
     0
102
RTVSPost2010PropOp35
 70
     1
102
RTVSPost2010Prop36
280
     0
102
RTVSPost2010PropOp36
 70
     1
102
RTVSPost2010Prop37
 90
       50
102
RTVSPost2010PropOp37
 70
     1
102
RTVSPost2010Prop38
140
0.0
102
RTVSPost2010PropOp38
 70
     1
102
RTVSPost2010Prop39
140
1.0
102
RTVSPost2010PropOp39
 70
     1
102
RTVSPost2010Prop40
 90
        0
102
RTVSPost2010PropOp40
 70
     1
102
RTVSPost2010Prop41ColorIndex
 90
       18
102
RTVSPost2010Prop41ColorRGB
 90
        0
102
RTVSPost2010PropOp41
 70
     1
102
RTVSPost2010Prop42
 90
       50
102
RTVSPost2010PropOp42
 70
     1
102
RTVSPost2010Prop43
 90
        3
102
RTVSPost2010PropOp43
 70
     1
102
RTVSPost2010Prop44ColorIndex
 90
        5
102
RTVSPost2010Prop44ColorRGB
 90
      255
102
RTVSPost2010PropOp44
 70
     1
102
RTVSPost2010Prop45
280
     0
102
RTVSPost2010PropOp45
 70
     1
102
RTVSPost2010Prop46
 90
       50
102
RTVSPost2010PropOp46
 70
     1
102
RTVSPost2010Prop47
 90
       50
102
RTVSPost2010PropOp47
 70
     1
102
RTVSPost2010Prop48
 90
       50
102
RTVSPost2010PropOp48
 70
     1
102
RTVSPost2010Prop49
280
     0
102
RTVSPost2010PropOp49
 70
     1
102
RTVSPost2010Prop50
 90
       50
102
RTVSPost2010PropOp50
 70
     1
102
RTVSPost2010Prop51ColorIndex
 90
      256
102
RTVSPost2010Prop51ColorRGB
 90
-16777216
102
RTVSPost2010PropOp51
 70
     0
102
RTVSPost2010Prop52
140
1.0
102
RTVSPost2010PropOp52
 70
     0
102
RTVSPost2010Prop53
 90
        2
102
RTVSPost2010PropOp53
 70
     1
102
RTVSPost2010Prop54
  1
strokes_ogs.tif
102
RTVSPost2010PropOp54
 70
     1
102
RTVSPost2010Prop55
280
     0
102
RTVSPost2010PropOp55
 70
     1
102
RTVSPost2010Prop56
140
1.0
102
RTVSPost2010PropOp56
 70
     1
102
RTVSPost2010Prop57
140
1.0
102
RTVSPost2010PropOp57
 70
     1
  0
XRECORD
  5
12B
102
{ACAD_REACTORS
330
12A
102
}
330
12A
100
AcDbXrecord
280
     1
102
RTVSPost2010Prop28
280
     0
102
RTVSPost2010PropOp28
 70
     1
102
RTVSPost2010Prop29
280
     1
102
RTVSPost2010PropOp29
 70
     1
102
RTVSPost2010Prop30
280
     1
102
RTVSPost2010PropOp30
 70
     1
102
RTVSPost2010Prop31
280
     0
102
RTVSPost2010PropOp31
 70
     1
102
RTVSPost2010Prop32
280
     0
102
RTVSPost2010PropOp32
 70
     1
102
RTVSPost2010Prop33
280
     0
102
RTVSPost2010PropOp33
 70
     1
102
RTVSPost2010Prop34
280
     0
102
RTVSPost2010PropOp34
 70
     1
102
RTVSPost2010Prop35
280
     0
102
RTVSPost2010PropOp35
 70
     1
102
RTVSPost2010Prop36
280
     0
102
RTVSPost2010PropOp36
 70
     1
102
RTVSPost2010Prop37
 90
       50
102
RTVSPost2010PropOp37
 70
     1
102
RTVSPost2010Prop38
140
0.0
102
RTVSPost2010PropOp38
 70
     1
102
RTVSPost2010Prop39
140
1.0
102
RTVSPost2010PropOp39
 70
     1
102
RTVSPost2010Prop40
 90
        0
102
RTVSPost2010PropOp40
 70
     1
102
RTVSPost2010Prop41ColorIndex
 90
       18
102
RTVSPost2010Prop41ColorRGB
 90
        0
102
RTVSPost2010PropOp41
 70
     1
102
RTVSPost2010Prop42
 90
       50
102
RTVSPost2010PropOp42
 70
     1
102
RTVSPost2010Prop43
 90
        3
102
RTVSPost2010PropOp43
 70
     1
102
RTVSPost2010Prop44ColorIndex
 90
        5
102
RTVSPost2010Prop44ColorRGB
 90
      255
102
RTVSPost2010PropOp44
 70
     1
102
RTVSPost2010Prop45
280
     0
102
RTVSPost2010PropOp45
 70
     1
102
RTVSPost2010Prop46
 90
       50
102
RTVSPost2010PropOp46
 70
     1
102
RTVSPost2010Prop47
 90
       50
102
RTVSPost2010PropOp47
 70
     1
102
RTVSPost2010Prop48
 90
       50
102
RTVSPost2010PropOp48
 70
     1
102
RTVSPost2010Prop49
280
     0
102
RTVSPost2010PropOp49
 70
     1
102
RTVSPost2010Prop50
 90
       50
102
RTVSPost2010PropOp50
 70
     1
102
RTVSPost2010Prop51ColorIndex
 90
      256
102
RTVSPost2010Prop51ColorRGB
 90
-16777216
102
RTVSPost2010PropOp51
 70
     0
102
RTVSPost2010Prop52
140
1.0
102
RTVSPost2010PropOp52
 70
     0
102
RTVSPost2010Prop53
 90
        2
102
RTVSPost2010PropOp53
 70
     1
102
RTVSPost2010Prop54
  1
strokes_ogs.tif
102
RTVSPost2010PropOp54
 70
     1
102
RTVSPost2010Prop55
280
     0
102
RTVSPost2010PropOp55
 70
     1
102
RTVSPost2010Prop56
140
1.0
102
RTVSPost2010PropOp56
 70
     1
102
RTVSPost2010Prop57
140
1.0
102
RTVSPost2010PropOp57
 70
     1
  0
XRECORD
  5
12D
102
{ACAD_REACTORS
330
12C
102
}
330
12C
100
AcDbXrecord
280
     1
102
RTVSPost2010Prop28
280
     0
102
RTVSPost2010PropOp28
 70
     1
102
RTVSPost2010Prop29
280
     1
102
RTVSPost2010PropOp29
 70
     1
102
RTVSPost2010Prop30
280
     1
102
RTVSPost2010PropOp30
 70
     1
102
RTVSPost2010Prop31
280
     0
102
RTVSPost2010PropOp31
 70
     1
102
RTVSPost2010Prop32
280
     0
102
RTVSPost2010PropOp32
 70
     1
102
RTVSPost2010Prop33
280
     0
102
RTVSPost2010PropOp33
 70
     1
102
RTVSPost2010Prop34
280
     0
102
RTVSPost2010PropOp34
 70
     1
102
RTVSPost2010Prop35
280
     0
102
RTVSPost2010PropOp35
 70
     1
102
RTVSPost2010Prop36
280
     0
102
RTVSPost2010PropOp36
 70
     1
102
RTVSPost2010Prop37
 90
       50
102
RTVSPost2010PropOp37
 70
     1
102
RTVSPost2010Prop38
140
0.0
102
RTVSPost2010PropOp38
 70
     1
102
RTVSPost2010Prop39
140
1.0
102
RTVSPost2010PropOp39
 70
     1
102
RTVSPost2010Prop40
 90
        0
102
RTVSPost2010PropOp40
 70
     1
102
RTVSPost2010Prop41ColorIndex
 90
       18
102
RTVSPost2010Prop41ColorRGB
 90
        0
102
RTVSPost2010PropOp41
 70
     1
102
RTVSPost2010Prop42
 90
       50
102
RTVSPost2010PropOp42
 70
     1
102
RTVSPost2010Prop43
 90
        3
102
RTVSPost2010PropOp43
 70
     1
102
RTVSPost2010Prop44ColorIndex
 90
        5
102
RTVSPost2010Prop44ColorRGB
 90
      255
102
RTVSPost2010PropOp44
 70
     1
102
RTVSPost2010Prop45
280
     0
102
RTVSPost2010PropOp45
 70
     1
102
RTVSPost2010Prop46
 90
       50
102
RTVSPost2010PropOp46
 70
     1
102
RTVSPost2010Prop47
 90
       50
102
RTVSPost2010PropOp47
 70
     1
102
RTVSPost2010Prop48
 90
       50
102
RTVSPost2010PropOp48
 70
     1
102
RTVSPost2010Prop49
280
     0
102
RTVSPost2010PropOp49
 70
     1
102
RTVSPost2010Prop50
 90
       50
102
RTVSPost2010PropOp50
 70
     1
102
RTVSPost2010Prop51ColorIndex
 90
      256
102
RTVSPost2010Prop51ColorRGB
 90
-16777216
102
RTVSPost2010PropOp51
 70
     0
102
RTVSPost2010Prop52
140
1.0
102
RTVSPost2010PropOp52
 70
     0
102
RTVSPost2010Prop53
 90
        2
102
RTVSPost2010PropOp53
 70
     1
102
RTVSPost2010Prop54
  1
strokes_ogs.tif
102
RTVSPost2010PropOp54
 70
     1
102
RTVSPost2010Prop55
280
     0
102
RTVSPost2010PropOp55
 70
     1
102
RTVSPost2010Prop56
140
1.0
102
RTVSPost2010PropOp56
 70
     1
102
RTVSPost2010Prop57
140
1.0
102
RTVSPost2010PropOp57
 70
     1
  0
XRECORD
  5
12F
102
{ACAD_REACTORS
330
12E
102
}
330
12E
100
AcDbXrecord
280
     1
102
RTVSPost2010Prop28
280
     0
102
RTVSPost2010PropOp28
 70
     1
102
RTVSPost2010Prop29
280
     1
102
RTVSPost2010PropOp29
 70
     1
102
RTVSPost2010Prop30
280
     1
102
RTVSPost2010PropOp30
 70
     1
102
RTVSPost2010Prop31
280
     0
102
RTVSPost2010PropOp31
 70
     1
102
RTVSPost2010Prop32
280
     0
102
RTVSPost2010PropOp32
 70
     1
102
RTVSPost2010Prop33
280
     0
102
RTVSPost2010PropOp33
 70
     1
102
RTVSPost2010Prop34
280
     0
102
RTVSPost2010PropOp34
 70
     1
102
RTVSPost2010Prop35
280
     0
102
RTVSPost2010PropOp35
 70
     1
102
RTVSPost2010Prop36
280
     0
102
RTVSPost2010PropOp36
 70
     1
102
RTVSPost2010Prop37
 90
       50
102
RTVSPost2010PropOp37
 70
     1
102
RTVSPost2010Prop38
140
0.0
102
RTVSPost2010PropOp38
 70
     1
102
RTVSPost2010Prop39
140
1.0
102
RTVSPost2010PropOp39
 70
     1
102
RTVSPost2010Prop40
 90
        0
102
RTVSPost2010PropOp40
 70
     1
102
RTVSPost2010Prop41ColorIndex
 90
       18
102
RTVSPost2010Prop41ColorRGB
 90
        0
102
RTVSPost2010PropOp41
 70
     1
102
RTVSPost2010Prop42
 90
       50
102
RTVSPost2010PropOp42
 70
     1
102
RTVSPost2010Prop43
 90
        3
102
RTVSPost2010PropOp43
 70
     1
102
RTVSPost2010Prop44ColorIndex
 90
        5
102
RTVSPost2010Prop44ColorRGB
 90
      255
102
RTVSPost2010PropOp44
 70
     1
102
RTVSPost2010Prop45
280
     0
102
RTVSPost2010PropOp45
 70
     1
102
RTVSPost2010Prop46
 90
       50
102
RTVSPost2010PropOp46
 70
     1
102
RTVSPost2010Prop47
 90
       50
102
RTVSPost2010PropOp47
 70
     1
102
RTVSPost2010Prop48
 90
       50
102
RTVSPost2010PropOp48
 70
     1
102
RTVSPost2010Prop49
280
     0
102
RTVSPost2010PropOp49
 70
     1
102
RTVSPost2010Prop50
 90
       50
102
RTVSPost2010PropOp50
 70
     1
102
RTVSPost2010Prop51ColorIndex
 90
      256
102
RTVSPost2010Prop51ColorRGB
 90
-16777216
102
RTVSPost2010PropOp51
 70
     0
102
RTVSPost2010Prop52
140
1.0
102
RTVSPost2010PropOp52
 70
     0
102
RTVSPost2010Prop53
 90
        2
102
RTVSPost2010PropOp53
 70
     1
102
RTVSPost2010Prop54
  1
strokes_ogs.tif
102
RTVSPost2010PropOp54
 70
     1
102
RTVSPost2010Prop55
280
     0
102
RTVSPost2010PropOp55
 70
     1
102
RTVSPost2010Prop56
140
1.0
102
RTVSPost2010PropOp56
 70
     1
102
RTVSPost2010Prop57
140
1.0
102
RTVSPost2010PropOp57
 70
     1
  0
XRECORD
  5
137
102
{ACAD_REACTORS
330
136
102
}
330
136
100
AcDbXrecord
280
     1
102
RTVSPost2010Prop28
280
     0
102
RTVSPost2010PropOp28
 70
     1
102
RTVSPost2010Prop29
280
     1
102
RTVSPost2010PropOp29
 70
     1
102
RTVSPost2010Prop30
280
     1
102
RTVSPost2010PropOp30
 70
     1
102
RTVSPost2010Prop31
280
     0
102
RTVSPost2010PropOp31
 70
     1
102
RTVSPost2010Prop32
280
     0
102
RTVSPost2010PropOp32
 70
     1
102
RTVSPost2010Prop33
280
     0
102
RTVSPost2010PropOp33
 70
     1
102
RTVSPost2010Prop34
280
     0
102
RTVSPost2010PropOp34
 70
     1
102
RTVSPost2010Prop35
280
     0
102
RTVSPost2010PropOp35
 70
     1
102
RTVSPost2010Prop36
280
     0
102
RTVSPost2010PropOp36
 70
     1
102
RTVSPost2010Prop37
 90
       50
102
RTVSPost2010PropOp37
 70
     1
102
RTVSPost2010Prop38
140
0.0
102
RTVSPost2010PropOp38
 70
     1
102
RTVSPost2010Prop39
140
1.0
102
RTVSPost2010PropOp39
 70
     1
102
RTVSPost2010Prop40
 90
        0
102
RTVSPost2010PropOp40
 70
     1
102
RTVSPost2010Prop41ColorIndex
 90
       18
102
RTVSPost2010Prop41ColorRGB
 90
        0
102
RTVSPost2010PropOp41
 70
     1
102
RTVSPost2010Prop42
 90
       50
102
RTVSPost2010PropOp42
 70
     1
102
RTVSPost2010Prop43
 90
        3
102
RTVSPost2010PropOp43
 70
     1
102
RTVSPost2010Prop44ColorIndex
 90
        5
102
RTVSPost2010Prop44ColorRGB
 90
      255
102
RTVSPost2010PropOp44
 70
     1
102
RTVSPost2010Prop45
280
     0
102
RTVSPost2010PropOp45
 70
     1
102
RTVSPost2010Prop46
 90
       50
102
RTVSPost2010PropOp46
 70
     1
102
RTVSPost2010Prop47
 90
       50
102
RTVSPost2010PropOp47
 70
     1
102
RTVSPost2010Prop48
 90
       50
102
RTVSPost2010PropOp48
 70
     1
102
RTVSPost2010Prop49
280
     0
102
RTVSPost2010PropOp49
 70
     1
102
RTVSPost2010Prop50
 90
       50
102
RTVSPost2010PropOp50
 70
     1
102
RTVSPost2010Prop51ColorIndex
 90
      256
102
RTVSPost2010Prop51ColorRGB
 90
-16777216
102
RTVSPost2010PropOp51
 70
     0
102
RTVSPost2010Prop52
140
1.0
102
RTVSPost2010PropOp52
 70
     0
102
RTVSPost2010Prop53
 90
        2
102
RTVSPost2010PropOp53
 70
     1
102
RTVSPost2010Prop54
  1
strokes_ogs.tif
102
RTVSPost2010PropOp54
 70
     1
102
RTVSPost2010Prop55
280
     0
102
RTVSPost2010PropOp55
 70
     1
102
RTVSPost2010Prop56
140
1.0
102
RTVSPost2010PropOp56
 70
     1
102
RTVSPost2010Prop57
140
1.0
102
RTVSPost2010PropOp57
 70
     1
  0
XRECORD
  5
153
102
{ACAD_REACTORS
330
152
102
}
330
152
100
AcDbXrecord
280
     1
102
RTVSPost2010Prop28
280
     0
102
RTVSPost2010PropOp28
 70
     0
102
RTVSPost2010Prop29
280
     1
102
RTVSPost2010PropOp29
 70
     0
102
RTVSPost2010Prop30
280
     1
102
RTVSPost2010PropOp30
 70
     0
102
RTVSPost2010Prop31
280
     0
102
RTVSPost2010PropOp31
 70
     0
102
RTVSPost2010Prop32
280
     0
102
RTVSPost2010PropOp32
 70
     0
102
RTVSPost2010Prop33
280
     0
102
RTVSPost2010PropOp33
 70
     0
102
RTVSPost2010Prop34
280
     0
102
RTVSPost2010PropOp34
 70
     0
102
RTVSPost2010Prop35
280
     0
102
RTVSPost2010PropOp35
 70
     0
102
RTVSPost2010Prop36
280
     0
102
RTVSPost2010PropOp36
 70
     0
102
RTVSPost2010Prop37
 90
       50
102
RTVSPost2010PropOp37
 70
     0
102
RTVSPost2010Prop38
140
0.0
102
RTVSPost2010PropOp38
 70
     0
102
RTVSPost2010Prop39
140
1.0
102
RTVSPost2010PropOp39
 70
     0
102
RTVSPost2010Prop40
 90
        0
102
RTVSPost2010PropOp40
 70
     0
102
RTVSPost2010Prop41ColorIndex
 90
       18
102
RTVSPost2010Prop41ColorRGB
 90
        0
102
RTVSPost2010PropOp41
 70
     0
102
RTVSPost2010Prop42
 90
       50
102
RTVSPost2010PropOp42
 70
     0
102
RTVSPost2010Prop43
 90
        3
102
RTVSPost2010PropOp43
 70
     0
102
RTVSPost2010Prop44ColorIndex
 90
        5
102
RTVSPost2010Prop44ColorRGB
 90
      255
102
RTVSPost2010PropOp44
 70
     0
102
RTVSPost2010Prop45
280
     0
102
RTVSPost2010PropOp45
 70
     0
102
RTVSPost2010Prop46
 90
       50
102
RTVSPost2010PropOp46
 70
     0
102
RTVSPost2010Prop47
 90
       50
102
RTVSPost2010PropOp47
 70
     0
102
RTVSPost2010Prop48
 90
       50
102
RTVSPost2010PropOp48
 70
     0
102
RTVSPost2010Prop49
280
     0
102
RTVSPost2010PropOp49
 70
     0
102
RTVSPost2010Prop50
 90
       50
102
RTVSPost2010PropOp50
 70
     0
102
RTVSPost2010Prop51ColorIndex
 90
      256
102
RTVSPost2010Prop51ColorRGB
 90
-16777216
102
RTVSPost2010PropOp51
 70
     0
102
RTVSPost2010Prop52
140
1.0
102
RTVSPost2010PropOp52
 70
     0
102
RTVSPost2010Prop53
 90
        2
102
RTVSPost2010PropOp53
 70
     0
102
RTVSPost2010Prop54
  1
strokes_ogs.tif
102
RTVSPost2010PropOp54
 70
     0
102
RTVSPost2010Prop55
280
     0
102
RTVSPost2010PropOp55
 70
     0
102
RTVSPost2010Prop56
140
1.0
102
RTVSPost2010PropOp56
 70
     0
102
RTVSPost2010Prop57
140
1.0
102
RTVSPost2010PropOp57
 70
     0
  0
XRECORD
  5
143
102
{ACAD_REACTORS
330
142
102
}
330
142
100
AcDbXrecord
280
     1
102
RTVSPost2010Prop28
280
     0
102
RTVSPost2010PropOp28
 70
     1
102
RTVSPost2010Prop29
280
     1
102
RTVSPost2010PropOp29
 70
     1
102
RTVSPost2010Prop30
280
     1
102
RTVSPost2010PropOp30
 70
     1
102
RTVSPost2010Prop31
280
     0
102
RTVSPost2010PropOp31
 70
     1
102
RTVSPost2010Prop32
280
     0
102
RTVSPost2010PropOp32
 70
     1
102
RTVSPost2010Prop33
280
     0
102
RTVSPost2010PropOp33
 70
     1
102
RTVSPost2010Prop34
280
     0
102
RTVSPost2010PropOp34
 70
     1
102
RTVSPost2010Prop35
280
     0
102
RTVSPost2010PropOp35
 70
     1
102
RTVSPost2010Prop36
280
     0
102
RTVSPost2010PropOp36
 70
     1
102
RTVSPost2010Prop37
 90
       50
102
RTVSPost2010PropOp37
 70
     1
102
RTVSPost2010Prop38
140
0.0
102
RTVSPost2010PropOp38
 70
     1
102
RTVSPost2010Prop39
140
1.0
102
RTVSPost2010PropOp39
 70
     1
102
RTVSPost2010Prop40
 90
        0
102
RTVSPost2010PropOp40
 70
     1
102
RTVSPost2010Prop41ColorIndex
 90
       18
102
RTVSPost2010Prop41ColorRGB
 90
        0
102
RTVSPost2010PropOp41
 70
     1
102
RTVSPost2010Prop42
 90
       50
102
RTVSPost2010PropOp42
 70
     1
102
RTVSPost2010Prop43
 90
        3
102
RTVSPost2010PropOp43
 70
     1
102
RTVSPost2010Prop44ColorIndex
 90
        5
102
RTVSPost2010Prop44ColorRGB
 90
      255
102
RTVSPost2010PropOp44
 70
     1
102
RTVSPost2010Prop45
280
     0
102
RTVSPost2010PropOp45
 70
     1
102
RTVSPost2010Prop46
 90
       50
102
RTVSPost2010PropOp46
 70
     1
102
RTVSPost2010Prop47
 90
       50
102
RTVSPost2010PropOp47
 70
     1
102
RTVSPost2010Prop48
 90
       50
102
RTVSPost2010PropOp48
 70
     1
102
RTVSPost2010Prop49
280
     0
102
RTVSPost2010PropOp49
 70
     1
102
RTVSPost2010Prop50
 90
       50
102
RTVSPost2010PropOp50
 70
     1
102
RTVSPost2010Prop51ColorIndex
 90
      256
102
RTVSPost2010Prop51ColorRGB
 90
-16777216
102
RTVSPost2010PropOp51
 70
     0
102
RTVSPost2010Prop52
140
1.0
102
RTVSPost2010PropOp52
 70
     0
102
RTVSPost2010Prop53
 90
        2
102
RTVSPost2010PropOp53
 70
     1
102
RTVSPost2010Prop54
  1
strokes_ogs.tif
102
RTVSPost2010PropOp54
 70
     1
102
RTVSPost2010Prop55
280
     0
102
RTVSPost2010PropOp55
 70
     1
102
RTVSPost2010Prop56
140
1.0
102
RTVSPost2010PropOp56
 70
     1
102
RTVSPost2010Prop57
140
1.0
102
RTVSPost2010PropOp57
 70
     1
  0
XRECORD
  5
155
102
{ACAD_REACTORS
330
154
102
}
330
154
100
AcDbXrecord
280
     1
102
RTVSPost2010Prop28
280
     0
102
RTVSPost2010PropOp28
 70
     0
102
RTVSPost2010Prop29
280
     1
102
RTVSPost2010PropOp29
 70
     0
102
RTVSPost2010Prop30
280
     1
102
RTVSPost2010PropOp30
 70
     0
102
RTVSPost2010Prop31
280
     0
102
RTVSPost2010PropOp31
 70
     0
102
RTVSPost2010Prop32
280
     0
102
RTVSPost2010PropOp32
 70
     0
102
RTVSPost2010Prop33
280
     0
102
RTVSPost2010PropOp33
 70
     0
102
RTVSPost2010Prop34
280
     0
102
RTVSPost2010PropOp34
 70
     0
102
RTVSPost2010Prop35
280
     0
102
RTVSPost2010PropOp35
 70
     0
102
RTVSPost2010Prop36
280
     0
102
RTVSPost2010PropOp36
 70
     0
102
RTVSPost2010Prop37
 90
       50
102
RTVSPost2010PropOp37
 70
     0
102
RTVSPost2010Prop38
140
0.0
102
RTVSPost2010PropOp38
 70
     0
102
RTVSPost2010Prop39
140
1.0
102
RTVSPost2010PropOp39
 70
     0
102
RTVSPost2010Prop40
 90
        0
102
RTVSPost2010PropOp40
 70
     0
102
RTVSPost2010Prop41ColorIndex
 90
       18
102
RTVSPost2010Prop41ColorRGB
 90
        0
102
RTVSPost2010PropOp41
 70
     0
102
RTVSPost2010Prop42
 90
       50
102
RTVSPost2010PropOp42
 70
     0
102
RTVSPost2010Prop43
 90
        3
102
RTVSPost2010PropOp43
 70
     0
102
RTVSPost2010Prop44ColorIndex
 90
        5
102
RTVSPost2010Prop44ColorRGB
 90
      255
102
RTVSPost2010PropOp44
 70
     0
102
RTVSPost2010Prop45
280
     0
102
RTVSPost2010PropOp45
 70
     0
102
RTVSPost2010Prop46
 90
       50
102
RTVSPost2010PropOp46
 70
     0
102
RTVSPost2010Prop47
 90
       50
102
RTVSPost2010PropOp47
 70
     0
102
RTVSPost2010Prop48
 90
       50
102
RTVSPost2010PropOp48
 70
     0
102
RTVSPost2010Prop49
280
     0
102
RTVSPost2010PropOp49
 70
     0
102
RTVSPost2010Prop50
 90
       50
102
RTVSPost2010PropOp50
 70
     0
102
RTVSPost2010Prop51ColorIndex
 90
      256
102
RTVSPost2010Prop51ColorRGB
 90
-16777216
102
RTVSPost2010PropOp51
 70
     0
102
RTVSPost2010Prop52
140
1.0
102
RTVSPost2010PropOp52
 70
     0
102
RTVSPost2010Prop53
 90
        2
102
RTVSPost2010PropOp53
 70
     0
102
RTVSPost2010Prop54
  1
strokes_ogs.tif
102
RTVSPost2010PropOp54
 70
     0
102
RTVSPost2010Prop55
280
     0
102
RTVSPost2010PropOp55
 70
     0
102
RTVSPost2010Prop56
140
1.0
102
RTVSPost2010PropOp56
 70
     0
102
RTVSPost2010Prop57
140
1.0
102
RTVSPost2010PropOp57
 70
     0
  0
XRECORD
  5
13B
102
{ACAD_REACTORS
330
13A
102
}
330
13A
100
AcDbXrecord
280
     1
102
RTVSPost2010Prop28
280
     0
102
RTVSPost2010PropOp28
 70
     1
102
RTVSPost2010Prop29
280
     1
102
RTVSPost2010PropOp29
 70
     1
102
RTVSPost2010Prop30
280
     1
102
RTVSPost2010PropOp30
 70
     1
102
RTVSPost2010Prop31
280
     0
102
RTVSPost2010PropOp31
 70
     1
102
RTVSPost2010Prop32
280
     0
102
RTVSPost2010PropOp32
 70
     1
102
RTVSPost2010Prop33
280
     0
102
RTVSPost2010PropOp33
 70
     1
102
RTVSPost2010Prop34
280
     0
102
RTVSPost2010PropOp34
 70
     1
102
RTVSPost2010Prop35
280
     0
102
RTVSPost2010PropOp35
 70
     1
102
RTVSPost2010Prop36
280
     0
102
RTVSPost2010PropOp36
 70
     1
102
RTVSPost2010Prop37
 90
       50
102
RTVSPost2010PropOp37
 70
     1
102
RTVSPost2010Prop38
140
0.0
102
RTVSPost2010PropOp38
 70
     1
102
RTVSPost2010Prop39
140
1.0
102
RTVSPost2010PropOp39
 70
     1
102
RTVSPost2010Prop40
 90
        0
102
RTVSPost2010PropOp40
 70
     1
102
RTVSPost2010Prop41ColorIndex
 90
       18
102
RTVSPost2010Prop41ColorRGB
 90
        0
102
RTVSPost2010PropOp41
 70
     1
102
RTVSPost2010Prop42
 90
       50
102
RTVSPost2010PropOp42
 70
     1
102
RTVSPost2010Prop43
 90
        3
102
RTVSPost2010PropOp43
 70
     1
102
RTVSPost2010Prop44ColorIndex
 90
        5
102
RTVSPost2010Prop44ColorRGB
 90
      255
102
RTVSPost2010PropOp44
 70
     1
102
RTVSPost2010Prop45
280
     0
102
RTVSPost2010PropOp45
 70
     1
102
RTVSPost2010Prop46
 90
       50
102
RTVSPost2010PropOp46
 70
     1
102
RTVSPost2010Prop47
 90
       50
102
RTVSPost2010PropOp47
 70
     1
102
RTVSPost2010Prop48
 90
       50
102
RTVSPost2010PropOp48
 70
     1
102
RTVSPost2010Prop49
280
     0
102
RTVSPost2010PropOp49
 70
     1
102
RTVSPost2010Prop50
 90
       50
102
RTVSPost2010PropOp50
 70
     1
102
RTVSPost2010Prop51ColorIndex
 90
      256
102
RTVSPost2010Prop51ColorRGB
 90
-16777216
102
RTVSPost2010PropOp51
 70
     0
102
RTVSPost2010Prop52
140
1.0
102
RTVSPost2010PropOp52
 70
     0
102
RTVSPost2010Prop53
 90
        2
102
RTVSPost2010PropOp53
 70
     1
102
RTVSPost2010Prop54
  1
strokes_ogs.tif
102
RTVSPost2010PropOp54
 70
     1
102
RTVSPost2010Prop55
280
     0
102
RTVSPost2010PropOp55
 70
     1
102
RTVSPost2010Prop56
140
1.0
102
RTVSPost2010PropOp56
 70
     1
102
RTVSPost2010Prop57
140
1.0
102
RTVSPost2010PropOp57
 70
     1
  0
XRECORD
  5
151
102
{ACAD_REACTORS
330
150
102
}
330
150
100
AcDbXrecord
280
     1
102
RTVSPost2010Prop28
280
     0
102
RTVSPost2010PropOp28
 70
     1
102
RTVSPost2010Prop29
280
     1
102
RTVSPost2010PropOp29
 70
     1
102
RTVSPost2010Prop30
280
     1
102
RTVSPost2010PropOp30
 70
     1
102
RTVSPost2010Prop31
280
     0
102
RTVSPost2010PropOp31
 70
     1
102
RTVSPost2010Prop32
280
     0
102
RTVSPost2010PropOp32
 70
     1
102
RTVSPost2010Prop33
280
     0
102
RTVSPost2010PropOp33
 70
     1
102
RTVSPost2010Prop34
280
     0
102
RTVSPost2010PropOp34
 70
     1
102
RTVSPost2010Prop35
280
     0
102
RTVSPost2010PropOp35
 70
     1
102
RTVSPost2010Prop36
280
     0
102
RTVSPost2010PropOp36
 70
     1
102
RTVSPost2010Prop37
 90
       50
102
RTVSPost2010PropOp37
 70
     1
102
RTVSPost2010Prop38
140
0.0
102
RTVSPost2010PropOp38
 70
     1
102
RTVSPost2010Prop39
140
1.0
102
RTVSPost2010PropOp39
 70
     1
102
RTVSPost2010Prop40
 90
        0
102
RTVSPost2010PropOp40
 70
     1
102
RTVSPost2010Prop41ColorIndex
 90
       18
102
RTVSPost2010Prop41ColorRGB
 90
        0
102
RTVSPost2010PropOp41
 70
     1
102
RTVSPost2010Prop42
 90
       50
102
RTVSPost2010PropOp42
 70
     1
102
RTVSPost2010Prop43
 90
        3
102
RTVSPost2010PropOp43
 70
     1
102
RTVSPost2010Prop44ColorIndex
 90
        5
102
RTVSPost2010Prop44ColorRGB
 90
      255
102
RTVSPost2010PropOp44
 70
     1
102
RTVSPost2010Prop45
280
     0
102
RTVSPost2010PropOp45
 70
     1
102
RTVSPost2010Prop46
 90
       50
102
RTVSPost2010PropOp46
 70
     1
102
RTVSPost2010Prop47
 90
       50
102
RTVSPost2010PropOp47
 70
     1
102
RTVSPost2010Prop48
 90
       50
102
RTVSPost2010PropOp48
 70
     1
102
RTVSPost2010Prop49
280
     0
102
RTVSPost2010PropOp49
 70
     1
102
RTVSPost2010Prop50
 90
       50
102
RTVSPost2010PropOp50
 70
     1
102
RTVSPost2010Prop51ColorIndex
 90
      256
102
RTVSPost2010Prop51ColorRGB
 90
-16777216
102
RTVSPost2010PropOp51
 70
     0
102
RTVSPost2010Prop52
140
1.0
102
RTVSPost2010PropOp52
 70
     0
102
RTVSPost2010Prop53
 90
        2
102
RTVSPost2010PropOp53
 70
     1
102
RTVSPost2010Prop54
  1
strokes_ogs.tif
102
RTVSPost2010PropOp54
 70
     1
102
RTVSPost2010Prop55
280
     0
102
RTVSPost2010PropOp55
 70
     1
102
RTVSPost2010Prop56
140
1.0
102
RTVSPost2010PropOp56
 70
     1
102
RTVSPost2010Prop57
140
1.0
102
RTVSPost2010PropOp57
 70
     1
  0
XRECORD
  5
14F
102
{ACAD_REACTORS
330
14E
102
}
330
14E
100
AcDbXrecord
280
     1
102
RTVSPost2010Prop28
280
     0
102
RTVSPost2010PropOp28
 70
     1
102
RTVSPost2010Prop29
280
     1
102
RTVSPost2010PropOp29
 70
     1
102
RTVSPost2010Prop30
280
     1
102
RTVSPost2010PropOp30
 70
     1
102
RTVSPost2010Prop31
280
     0
102
RTVSPost2010PropOp31
 70
     1
102
RTVSPost2010Prop32
280
     0
102
RTVSPost2010PropOp32
 70
     1
102
RTVSPost2010Prop33
280
     0
102
RTVSPost2010PropOp33
 70
     1
102
RTVSPost2010Prop34
280
     0
102
RTVSPost2010PropOp34
 70
     1
102
RTVSPost2010Prop35
280
     0
102
RTVSPost2010PropOp35
 70
     1
102
RTVSPost2010Prop36
280
     0
102
RTVSPost2010PropOp36
 70
     1
102
RTVSPost2010Prop37
 90
       50
102
RTVSPost2010PropOp37
 70
     1
102
RTVSPost2010Prop38
140
0.0
102
RTVSPost2010PropOp38
 70
     1
102
RTVSPost2010Prop39
140
1.0
102
RTVSPost2010PropOp39
 70
     1
102
RTVSPost2010Prop40
 90
        0
102
RTVSPost2010PropOp40
 70
     1
102
RTVSPost2010Prop41ColorIndex
 90
       18
102
RTVSPost2010Prop41ColorRGB
 90
        0
102
RTVSPost2010PropOp41
 70
     1
102
RTVSPost2010Prop42
 90
       50
102
RTVSPost2010PropOp42
 70
     1
102
RTVSPost2010Prop43
 90
        3
102
RTVSPost2010PropOp43
 70
     1
102
RTVSPost2010Prop44ColorIndex
 90
        5
102
RTVSPost2010Prop44ColorRGB
 90
      255
102
RTVSPost2010PropOp44
 70
     1
102
RTVSPost2010Prop45
280
     0
102
RTVSPost2010PropOp45
 70
     1
102
RTVSPost2010Prop46
 90
       50
102
RTVSPost2010PropOp46
 70
     1
102
RTVSPost2010Prop47
 90
       50
102
RTVSPost2010PropOp47
 70
     1
102
RTVSPost2010Prop48
 90
       50
102
RTVSPost2010PropOp48
 70
     1
102
RTVSPost2010Prop49
280
     0
102
RTVSPost2010PropOp49
 70
     1
102
RTVSPost2010Prop50
 90
       50
102
RTVSPost2010PropOp50
 70
     1
102
RTVSPost2010Prop51ColorIndex
 90
      256
102
RTVSPost2010Prop51ColorRGB
 90
-16777216
102
RTVSPost2010PropOp51
 70
     0
102
RTVSPost2010Prop52
140
1.0
102
RTVSPost2010PropOp52
 70
     0
102
RTVSPost2010Prop53
 90
        2
102
RTVSPost2010PropOp53
 70
     1
102
RTVSPost2010Prop54
  1
strokes_ogs.tif
102
RTVSPost2010PropOp54
 70
     1
102
RTVSPost2010Prop55
280
     0
102
RTVSPost2010PropOp55
 70
     1
102
RTVSPost2010Prop56
140
1.0
102
RTVSPost2010PropOp56
 70
     1
102
RTVSPost2010Prop57
140
1.0
102
RTVSPost2010PropOp57
 70
     1
  0
XRECORD
  5
149
102
{ACAD_REACTORS
330
148
102
}
330
148
100
AcDbXrecord
280
     1
102
RTVSPost2010Prop28
280
     0
102
RTVSPost2010PropOp28
 70
     1
102
RTVSPost2010Prop29
280
     1
102
RTVSPost2010PropOp29
 70
     1
102
RTVSPost2010Prop30
280
     1
102
RTVSPost2010PropOp30
 70
     1
102
RTVSPost2010Prop31
280
     0
102
RTVSPost2010PropOp31
 70
     1
102
RTVSPost2010Prop32
280
     0
102
RTVSPost2010PropOp32
 70
     1
102
RTVSPost2010Prop33
280
     0
102
RTVSPost2010PropOp33
 70
     1
102
RTVSPost2010Prop34
280
     0
102
RTVSPost2010PropOp34
 70
     1
102
RTVSPost2010Prop35
280
     0
102
RTVSPost2010PropOp35
 70
     1
102
RTVSPost2010Prop36
280
     0
102
RTVSPost2010PropOp36
 70
     1
102
RTVSPost2010Prop37
 90
       50
102
RTVSPost2010PropOp37
 70
     1
102
RTVSPost2010Prop38
140
0.0
102
RTVSPost2010PropOp38
 70
     1
102
RTVSPost2010Prop39
140
1.0
102
RTVSPost2010PropOp39
 70
     1
102
RTVSPost2010Prop40
 90
        0
102
RTVSPost2010PropOp40
 70
     1
102
RTVSPost2010Prop41ColorIndex
 90
       18
102
RTVSPost2010Prop41ColorRGB
 90
        0
102
RTVSPost2010PropOp41
 70
     1
102
RTVSPost2010Prop42
 90
       50
102
RTVSPost2010PropOp42
 70
     1
102
RTVSPost2010Prop43
 90
        3
102
RTVSPost2010PropOp43
 70
     1
102
RTVSPost2010Prop44ColorIndex
 90
        5
102
RTVSPost2010Prop44ColorRGB
 90
      255
102
RTVSPost2010PropOp44
 70
     1
102
RTVSPost2010Prop45
280
     0
102
RTVSPost2010PropOp45
 70
     1
102
RTVSPost2010Prop46
 90
       50
102
RTVSPost2010PropOp46
 70
     1
102
RTVSPost2010Prop47
 90
       50
102
RTVSPost2010PropOp47
 70
     1
102
RTVSPost2010Prop48
 90
       50
102
RTVSPost2010PropOp48
 70
     1
102
RTVSPost2010Prop49
280
     0
102
RTVSPost2010PropOp49
 70
     1
102
RTVSPost2010Prop50
 90
       50
102
RTVSPost2010PropOp50
 70
     1
102
RTVSPost2010Prop51ColorIndex
 90
      256
102
RTVSPost2010Prop51ColorRGB
 90
-16777216
102
RTVSPost2010PropOp51
 70
     0
102
RTVSPost2010Prop52
140
1.0
102
RTVSPost2010PropOp52
 70
     0
102
RTVSPost2010Prop53
 90
        2
102
RTVSPost2010PropOp53
 70
     1
102
RTVSPost2010Prop54
  1
strokes_ogs.tif
102
RTVSPost2010PropOp54
 70
     1
102
RTVSPost2010Prop55
280
     0
102
RTVSPost2010PropOp55
 70
     1
102
RTVSPost2010Prop56
140
1.0
102
RTVSPost2010PropOp56
 70
     1
102
RTVSPost2010Prop57
140
1.0
102
RTVSPost2010PropOp57
 70
     1
  0
XRECORD
  5
14B
102
{ACAD_REACTORS
330
14A
102
}
330
14A
100
AcDbXrecord
280
     1
102
RTVSPost2010Prop28
280
     0
102
RTVSPost2010PropOp28
 70
     1
102
RTVSPost2010Prop29
280
     1
102
RTVSPost2010PropOp29
 70
     1
102
RTVSPost2010Prop30
280
     1
102
RTVSPost2010PropOp30
 70
     1
102
RTVSPost2010Prop31
280
     0
102
RTVSPost2010PropOp31
 70
     1
102
RTVSPost2010Prop32
280
     0
102
RTVSPost2010PropOp32
 70
     1
102
RTVSPost2010Prop33
280
     0
102
RTVSPost2010PropOp33
 70
     1
102
RTVSPost2010Prop34
280
     0
102
RTVSPost2010PropOp34
 70
     1
102
RTVSPost2010Prop35
280
     0
102
RTVSPost2010PropOp35
 70
     1
102
RTVSPost2010Prop36
280
     0
102
RTVSPost2010PropOp36
 70
     1
102
RTVSPost2010Prop37
 90
       50
102
RTVSPost2010PropOp37
 70
     1
102
RTVSPost2010Prop38
140
0.0
102
RTVSPost2010PropOp38
 70
     1
102
RTVSPost2010Prop39
140
1.0
102
RTVSPost2010PropOp39
 70
     1
102
RTVSPost2010Prop40
 90
        0
102
RTVSPost2010PropOp40
 70
     1
102
RTVSPost2010Prop41ColorIndex
 90
       18
102
RTVSPost2010Prop41ColorRGB
 90
        0
102
RTVSPost2010PropOp41
 70
     1
102
RTVSPost2010Prop42
 90
       50
102
RTVSPost2010PropOp42
 70
     1
102
RTVSPost2010Prop43
 90
        3
102
RTVSPost2010PropOp43
 70
     1
102
RTVSPost2010Prop44ColorIndex
 90
        5
102
RTVSPost2010Prop44ColorRGB
 90
      255
102
RTVSPost2010PropOp44
 70
     1
102
RTVSPost2010Prop45
280
     0
102
RTVSPost2010PropOp45
 70
     1
102
RTVSPost2010Prop46
 90
       50
102
RTVSPost2010PropOp46
 70
     1
102
RTVSPost2010Prop47
 90
       50
102
RTVSPost2010PropOp47
 70
     1
102
RTVSPost2010Prop48
 90
       50
102
RTVSPost2010PropOp48
 70
     1
102
RTVSPost2010Prop49
280
     0
102
RTVSPost2010PropOp49
 70
     1
102
RTVSPost2010Prop50
 90
       50
102
RTVSPost2010PropOp50
 70
     1
102
RTVSPost2010Prop51ColorIndex
 90
      256
102
RTVSPost2010Prop51ColorRGB
 90
-16777216
102
RTVSPost2010PropOp51
 70
     0
102
RTVSPost2010Prop52
140
1.0
102
RTVSPost2010PropOp52
 70
     0
102
RTVSPost2010Prop53
 90
        2
102
RTVSPost2010PropOp53
 70
     1
102
RTVSPost2010Prop54
  1
strokes_ogs.tif
102
RTVSPost2010PropOp54
 70
     1
102
RTVSPost2010Prop55
280
     0
102
RTVSPost2010PropOp55
 70
     1
102
RTVSPost2010Prop56
140
1.0
102
RTVSPost2010PropOp56
 70
     1
102
RTVSPost2010Prop57
140
1.0
102
RTVSPost2010PropOp57
 70
     1
  0
XRECORD
  5
141
102
{ACAD_REACTORS
330
140
102
}
330
140
100
AcDbXrecord
280
     1
102
RTVSPost2010Prop28
280
     0
102
RTVSPost2010PropOp28
 70
     1
102
RTVSPost2010Prop29
280
     1
102
RTVSPost2010PropOp29
 70
     1
102
RTVSPost2010Prop30
280
     1
102
RTVSPost2010PropOp30
 70
     1
102
RTVSPost2010Prop31
280
     0
102
RTVSPost2010PropOp31
 70
     1
102
RTVSPost2010Prop32
280
     0
102
RTVSPost2010PropOp32
 70
     1
102
RTVSPost2010Prop33
280
     0
102
RTVSPost2010PropOp33
 70
     1
102
RTVSPost2010Prop34
280
     0
102
RTVSPost2010PropOp34
 70
     1
102
RTVSPost2010Prop35
280
     0
102
RTVSPost2010PropOp35
 70
     1
102
RTVSPost2010Prop36
280
     0
102
RTVSPost2010PropOp36
 70
     1
102
RTVSPost2010Prop37
 90
       50
102
RTVSPost2010PropOp37
 70
     1
102
RTVSPost2010Prop38
140
0.0
102
RTVSPost2010PropOp38
 70
     1
102
RTVSPost2010Prop39
140
1.0
102
RTVSPost2010PropOp39
 70
     1
102
RTVSPost2010Prop40
 90
        0
102
RTVSPost2010PropOp40
 70
     1
102
RTVSPost2010Prop41ColorIndex
 90
       18
102
RTVSPost2010Prop41ColorRGB
 90
        0
102
RTVSPost2010PropOp41
 70
     1
102
RTVSPost2010Prop42
 90
       50
102
RTVSPost2010PropOp42
 70
     1
102
RTVSPost2010Prop43
 90
        3
102
RTVSPost2010PropOp43
 70
     1
102
RTVSPost2010Prop44ColorIndex
 90
        5
102
RTVSPost2010Prop44ColorRGB
 90
      255
102
RTVSPost2010PropOp44
 70
     1
102
RTVSPost2010Prop45
280
     0
102
RTVSPost2010PropOp45
 70
     1
102
RTVSPost2010Prop46
 90
       50
102
RTVSPost2010PropOp46
 70
     1
102
RTVSPost2010Prop47
 90
       50
102
RTVSPost2010PropOp47
 70
     1
102
RTVSPost2010Prop48
 90
       50
102
RTVSPost2010PropOp48
 70
     1
102
RTVSPost2010Prop49
280
     0
102
RTVSPost2010PropOp49
 70
     1
102
RTVSPost2010Prop50
 90
       50
102
RTVSPost2010PropOp50
 70
     1
102
RTVSPost2010Prop51ColorIndex
 90
      256
102
RTVSPost2010Prop51ColorRGB
 90
-16777216
102
RTVSPost2010PropOp51
 70
     0
102
RTVSPost2010Prop52
140
1.0
102
RTVSPost2010PropOp52
 70
     0
102
RTVSPost2010Prop53
 90
        2
102
RTVSPost2010PropOp53
 70
     1
102
RTVSPost2010Prop54
  1
strokes_ogs.tif
102
RTVSPost2010PropOp54
 70
     1
102
RTVSPost2010Prop55
280
     0
102
RTVSPost2010PropOp55
 70
     1
102
RTVSPost2010Prop56
140
1.0
102
RTVSPost2010PropOp56
 70
     1
102
RTVSPost2010Prop57
140
1.0
102
RTVSPost2010PropOp57
 70
     1
  0
XRECORD
  5
135
102
{ACAD_REACTORS
330
134
102
}
330
134
100
AcDbXrecord
280
     1
102
RTVSPost2010Prop28
280
     0
102
RTVSPost2010PropOp28
 70
     1
102
RTVSPost2010Prop29
280
     1
102
RTVSPost2010PropOp29
 70
     1
102
RTVSPost2010Prop30
280
     1
102
RTVSPost2010PropOp30
 70
     1
102
RTVSPost2010Prop31
280
     0
102
RTVSPost2010PropOp31
 70
     1
102
RTVSPost2010Prop32
280
     0
102
RTVSPost2010PropOp32
 70
     1
102
RTVSPost2010Prop33
280
     0
102
RTVSPost2010PropOp33
 70
     1
102
RTVSPost2010Prop34
280
     0
102
RTVSPost2010PropOp34
 70
     1
102
RTVSPost2010Prop35
280
     0
102
RTVSPost2010PropOp35
 70
     1
102
RTVSPost2010Prop36
280
     0
102
RTVSPost2010PropOp36
 70
     1
102
RTVSPost2010Prop37
 90
       50
102
RTVSPost2010PropOp37
 70
     1
102
RTVSPost2010Prop38
140
0.0
102
RTVSPost2010PropOp38
 70
     1
102
RTVSPost2010Prop39
140
1.0
102
RTVSPost2010PropOp39
 70
     1
102
RTVSPost2010Prop40
 90
        0
102
RTVSPost2010PropOp40
 70
     1
102
RTVSPost2010Prop41ColorIndex
 90
       18
102
RTVSPost2010Prop41ColorRGB
 90
        0
102
RTVSPost2010PropOp41
 70
     1
102
RTVSPost2010Prop42
 90
       50
102
RTVSPost2010PropOp42
 70
     1
102
RTVSPost2010Prop43
 90
        3
102
RTVSPost2010PropOp43
 70
     1
102
RTVSPost2010Prop44ColorIndex
 90
        5
102
RTVSPost2010Prop44ColorRGB
 90
      255
102
RTVSPost2010PropOp44
 70
     1
102
RTVSPost2010Prop45
280
     0
102
RTVSPost2010PropOp45
 70
     1
102
RTVSPost2010Prop46
 90
       50
102
RTVSPost2010PropOp46
 70
     1
102
RTVSPost2010Prop47
 90
       50
102
RTVSPost2010PropOp47
 70
     1
102
RTVSPost2010Prop48
 90
       50
102
RTVSPost2010PropOp48
 70
     1
102
RTVSPost2010Prop49
280
     0
102
RTVSPost2010PropOp49
 70
     1
102
RTVSPost2010Prop50
 90
       50
102
RTVSPost2010PropOp50
 70
     1
102
RTVSPost2010Prop51ColorIndex
 90
      256
102
RTVSPost2010Prop51ColorRGB
 90
-16777216
102
RTVSPost2010PropOp51
 70
     0
102
RTVSPost2010Prop52
140
1.0
102
RTVSPost2010PropOp52
 70
     0
102
RTVSPost2010Prop53
 90
        2
102
RTVSPost2010PropOp53
 70
     1
102
RTVSPost2010Prop54
  1
strokes_ogs.tif
102
RTVSPost2010PropOp54
 70
     1
102
RTVSPost2010Prop55
280
     0
102
RTVSPost2010PropOp55
 70
     1
102
RTVSPost2010Prop56
140
1.0
102
RTVSPost2010PropOp56
 70
     1
102
RTVSPost2010Prop57
140
1.0
102
RTVSPost2010PropOp57
 70
     1
  0
XRECORD
  5
14D
102
{ACAD_REACTORS
330
14C
102
}
330
14C
100
AcDbXrecord
280
     1
102
RTVSPost2010Prop28
280
     0
102
RTVSPost2010PropOp28
 70
     1
102
RTVSPost2010Prop29
280
     1
102
RTVSPost2010PropOp29
 70
     1
102
RTVSPost2010Prop30
280
     1
102
RTVSPost2010PropOp30
 70
     1
102
RTVSPost2010Prop31
280
     0
102
RTVSPost2010PropOp31
 70
     1
102
RTVSPost2010Prop32
280
     0
102
RTVSPost2010PropOp32
 70
     1
102
RTVSPost2010Prop33
280
     0
102
RTVSPost2010PropOp33
 70
     1
102
RTVSPost2010Prop34
280
     0
102
RTVSPost2010PropOp34
 70
     1
102
RTVSPost2010Prop35
280
     0
102
RTVSPost2010PropOp35
 70
     1
102
RTVSPost2010Prop36
280
     0
102
RTVSPost2010PropOp36
 70
     1
102
RTVSPost2010Prop37
 90
       50
102
RTVSPost2010PropOp37
 70
     1
102
RTVSPost2010Prop38
140
0.0
102
RTVSPost2010PropOp38
 70
     1
102
RTVSPost2010Prop39
140
1.0
102
RTVSPost2010PropOp39
 70
     1
102
RTVSPost2010Prop40
 90
        0
102
RTVSPost2010PropOp40
 70
     1
102
RTVSPost2010Prop41ColorIndex
 90
       18
102
RTVSPost2010Prop41ColorRGB
 90
        0
102
RTVSPost2010PropOp41
 70
     1
102
RTVSPost2010Prop42
 90
       50
102
RTVSPost2010PropOp42
 70
     1
102
RTVSPost2010Prop43
 90
        3
102
RTVSPost2010PropOp43
 70
     1
102
RTVSPost2010Prop44ColorIndex
 90
        5
102
RTVSPost2010Prop44ColorRGB
 90
      255
102
RTVSPost2010PropOp44
 70
     1
102
RTVSPost2010Prop45
280
     0
102
RTVSPost2010PropOp45
 70
     1
102
RTVSPost2010Prop46
 90
       50
102
RTVSPost2010PropOp46
 70
     1
102
RTVSPost2010Prop47
 90
       50
102
RTVSPost2010PropOp47
 70
     1
102
RTVSPost2010Prop48
 90
       50
102
RTVSPost2010PropOp48
 70
     1
102
RTVSPost2010Prop49
280
     0
102
RTVSPost2010PropOp49
 70
     1
102
RTVSPost2010Prop50
 90
       50
102
RTVSPost2010PropOp50
 70
     1
102
RTVSPost2010Prop51ColorIndex
 90
      256
102
RTVSPost2010Prop51ColorRGB
 90
-16777216
102
RTVSPost2010PropOp51
 70
     0
102
RTVSPost2010Prop52
140
1.0
102
RTVSPost2010PropOp52
 70
     0
102
RTVSPost2010Prop53
 90
        2
102
RTVSPost2010PropOp53
 70
     1
102
RTVSPost2010Prop54
  1
strokes_ogs.tif
102
RTVSPost2010PropOp54
 70
     1
102
RTVSPost2010Prop55
280
     0
102
RTVSPost2010PropOp55
 70
     1
102
RTVSPost2010Prop56
140
1.0
102
RTVSPost2010PropOp56
 70
     1
102
RTVSPost2010Prop57
140
1.0
102
RTVSPost2010PropOp57
 70
     1
  0
ENDSEC
  0
EOF
