  0
SECTION
  2
HEADER
  9
$ACADVER
  1
AC1024
  9
$ACADMAINTVER
 70
   226
  9
$DWGCODEPAGE
  3
ANSI_932
  9
$INSBASE
 10
0.0
 20
0.0
 30
0.0
  9
$EXTMIN
 10
1.000000000000000E+20
 20
1.000000000000000E+20
 30
1.000000000000000E+20
  9
$EXTMAX
 10
-1.000000000000000E+20
 20
-1.000000000000000E+20
 30
-1.000000000000000E+20
  9
$LIMMIN
 10
0.0
 20
0.0
  9
$LIMMAX
 10
12.0
 20
9.0
  9
$ORTHOMODE
 70
     0
  9
$REGENMODE
 70
     1
  9
$FILLMODE
 70
     1
  9
$QTEXTMODE
 70
     0
  9
$MIRRTEXT
 70
     0
  9
$LTSCALE
 40
1.0
  9
$ATTMODE
 70
     1
  9
$TEXTSIZE
 40
0.2
  9
$TRACEWID
 40
0.05
  9
$TEXTSTYLE
  7
Standard
  9
$CLAYER
  8
0
  9
$CELTYPE
  6
ByLayer
  9
$CECOLOR
 62
   256
  9
$CELTSCALE
 40
1.0
  9
$DISPSILH
 70
     0
  9
$DIMSCALE
 40
1.0
  9
$DIMASZ
 40
0.18
  9
$DIMEXO
 40
0.0625
  9
$DIMDLI
 40
0.38
  9
$DIMRND
 40
0.0
  9
$DIMDLE
 40
0.0
  9
$DIMEXE
 40
0.18
  9
$DIMTP
 40
0.0
  9
$DIMTM
 40
0.0
  9
$DIMTXT
 40
0.18
  9
$DIMCEN
 40
0.09
  9
$DIMTSZ
 40
0.0
  9
$DIMTOL
 70
     0
  9
$DIMLIM
 70
     0
  9
$DIMTIH
 70
     1
  9
$DIMTOH
 70
     1
  9
$DIMSE1
 70
     0
  9
$DIMSE2
 70
     0
  9
$DIMTAD
 70
     0
  9
$DIMZIN
 70
     0
  9
$DIMBLK
  1

  9
$DIMASO
 70
     1
  9
$DIMSHO
 70
     1
  9
$DIMPOST
  1

  9
$DIMAPOST
  1

  9
$DIMALT
 70
     0
  9
$DIMALTD
 70
     2
  9
$DIMALTF
 40
25.4
  9
$DIMLFAC
 40
1.0
  9
$DIMTOFL
 70
     0
  9
$DIMTVP
 40
0.0
  9
$DIMTIX
 70
     0
  9
$DIMSOXD
 70
     0
  9
$DIMSAH
 70
     0
  9
$DIMBLK1
  1

  9
$DIMBLK2
  1

  9
$DIMSTYLE
  2
Standard
  9
$DIMCLRD
 70
     0
  9
$DIMCLRE
 70
     0
  9
$DIMCLRT
 70
     0
  9
$DIMTFAC
 40
1.0
  9
$DIMGAP
 40
0.09
  9
$DIMJUST
 70
     0
  9
$DIMSD1
 70
     0
  9
$DIMSD2
 70
     0
  9
$DIMTOLJ
 70
     1
  9
$DIMTZIN
 70
     0
  9
$DIMALTZ
 70
     0
  9
$DIMALTTZ
 70
     0
  9
$DIMUPT
 70
     0
  9
$DIMDEC
 70
     4
  9
$DIMTDEC
 70
     4
  9
$DIMALTU
 70
     2
  9
$DIMALTTD
 70
     2
  9
$DIMTXSTY
  7
Standard
  9
$DIMAUNIT
 70
     0
  9
$DIMADEC
 70
     0
  9
$DIMALTRND
 40
0.0
  9
$DIMAZIN
 70
     0
  9
$DIMDSEP
 70
    46
  9
$DIMATFIT
 70
     3
  9
$DIMFRAC
 70
     0
  9
$DIMLDRBLK
  1

  9
$DIMLUNIT
 70
     2
  9
$DIMLWD
 70
    -2
  9
$DIMLWE
 70
    -2
  9
$DIMTMOVE
 70
     0
  9
$DIMFXL
 40
1.0
  9
$DIMFXLON
 70
     0
  9
$DIMJOGANG
 40
0.7853981633974483
  9
$DIMTFILL
 70
     0
  9
$DIMTFILLCLR
 70
     0
  9
$DIMARCSYM
 70
     0
  9
$DIMLTYPE
  6

  9
$DIMLTEX1
  6

  9
$DIMLTEX2
  6

  9
$DIMTXTDIRECTION
 70
     0
  9
$LUNITS
 70
     2
  9
$LUPREC
 70
     4
  9
$SKETCHINC
 40
0.1
  9
$FILLETRAD
 40
0.0
  9
$AUNITS
 70
     0
  9
$AUPREC
 70
     0
  9
$MENU
  1
.
  9
$ELEVATION
 40
0.0
  9
$PELEVATION
 40
0.0
  9
$THICKNESS
 40
0.0
  9
$LIMCHECK
 70
     0
  9
$CHAMFERA
 40
0.0
  9
$CHAMFERB
 40
0.0
  9
$CHAMFERC
 40
0.0
  9
$CHAMFERD
 40
0.0
  9
$SKPOLY
 70
     0
  9
$TDCREATE
 40
2459569.489178241
  9
$TDUCREATE
 40
2459569.114178241
  9
$TDUPDATE
 40
2459569.489178241
  9
$TDUUPDATE
 40
2459569.114178241
  9
$TDINDWG
 40
0.0000000000
  9
$TDUSRTIMER
 40
0.0000000000
  9
$USRTIMER
 70
     1
  9
$ANGBASE
 50
0.0
  9
$ANGDIR
 70
     0
  9
$PDMODE
 70
     0
  9
$PDSIZE
 40
0.0
  9
$PLINEWID
 40
0.0
  9
$SPLFRAME
 70
     0
  9
$SPLINETYPE
 70
     6
  9
$SPLINESEGS
 70
     8
  9
$HANDSEED
  5
167
  9
$SURFTAB1
 70
     6
  9
$SURFTAB2
 70
     6
  9
$SURFTYPE
 70
     6
  9
$SURFU
 70
     6
  9
$SURFV
 70
     6
  9
$UCSBASE
  2

  9
$UCSNAME
  2

  9
$UCSORG
 10
0.0
 20
0.0
 30
0.0
  9
$UCSXDIR
 10
1.0
 20
0.0
 30
0.0
  9
$UCSYDIR
 10
0.0
 20
1.0
 30
0.0
  9
$UCSORTHOREF
  2

  9
$UCSORTHOVIEW
 70
     0
  9
$UCSORGTOP
 10
0.0
 20
0.0
 30
0.0
  9
$UCSORGBOTTOM
 10
0.0
 20
0.0
 30
0.0
  9
$UCSORGLEFT
 10
0.0
 20
0.0
 30
0.0
  9
$UCSORGRIGHT
 10
0.0
 20
0.0
 30
0.0
  9
$UCSORGFRONT
 10
0.0
 20
0.0
 30
0.0
  9
$UCSORGBACK
 10
0.0
 20
0.0
 30
0.0
  9
$PUCSBASE
  2

  9
$PUCSNAME
  2

  9
$PUCSORG
 10
0.0
 20
0.0
 30
0.0
  9
$PUCSXDIR
 10
1.0
 20
0.0
 30
0.0
  9
$PUCSYDIR
 10
0.0
 20
1.0
 30
0.0
  9
$PUCSORTHOREF
  2

  9
$PUCSORTHOVIEW
 70
     0
  9
$PUCSORGTOP
 10
0.0
 20
0.0
 30
0.0
  9
$PUCSORGBOTTOM
 10
0.0
 20
0.0
 30
0.0
  9
$PUCSORGLEFT
 10
0.0
 20
0.0
 30
0.0
  9
$PUCSORGRIGHT
 10
0.0
 20
0.0
 30
0.0
  9
$PUCSORGFRONT
 10
0.0
 20
0.0
 30
0.0
  9
$PUCSORGBACK
 10
0.0
 20
0.0
 30
0.0
  9
$USERI1
 70
     0
  9
$USERI2
 70
     0
  9
$USERI3
 70
     0
  9
$USERI4
 70
     0
  9
$USERI5
 70
     0
  9
$USERR1
 40
0.0
  9
$USERR2
 40
0.0
  9
$USERR3
 40
0.0
  9
$USERR4
 40
0.0
  9
$USERR5
 40
0.0
  9
$WORLDVIEW
 70
     1
  9
$SHADEDGE
 70
     3
  9
$SHADEDIF
 70
    70
  9
$TILEMODE
 70
     1
  9
$MAXACTVP
 70
    64
  9
$PINSBASE
 10
0.0
 20
0.0
 30
0.0
  9
$PLIMCHECK
 70
     0
  9
$PEXTMIN
 10
1.000000000000000E+20
 20
1.000000000000000E+20
 30
1.000000000000000E+20
  9
$PEXTMAX
 10
-1.000000000000000E+20
 20
-1.000000000000000E+20
 30
-1.000000000000000E+20
  9
$PLIMMIN
 10
0.0
 20
0.0
  9
$PLIMMAX
 10
12.0
 20
9.0
  9
$UNITMODE
 70
     0
  9
$VISRETAIN
 70
     1
  9
$PLINEGEN
 70
     0
  9
$PSLTSCALE
 70
     1
  9
$TREEDEPTH
 70
  3020
  9
$CMLSTYLE
  2
Standard
  9
$CMLJUST
 70
     0
  9
$CMLSCALE
 40
1.0
  9
$PROXYGRAPHICS
 70
     1
  9
$MEASUREMENT
 70
     0
  9
$CELWEIGHT
370
    -1
  9
$ENDCAPS
280
     0
  9
$JOINSTYLE
280
     0
  9
$LWDISPLAY
290
     1
  9
$INSUNITS
 70
     4
  9
$HYPERLINKBASE
  1

  9
$STYLESHEET
  1

  9
$XEDIT
290
     1
  9
$CEPSNTYPE
380
     0
  9
$PSTYLEMODE
290
     1
  9
$FINGERPRINTGUID
  2
{8EBC25BD-CE5E-854F-9E42-D3FAD2A1E4FA}
  9
$VERSIONGUID
  2
{6DB95148-B1D1-7140-A064-2051E53E5462}
  9
$EXTNAMES
290
     1
  9
$PSVPSCALE
 40
0.0
  9
$OLESTARTUP
290
     0
  9
$SORTENTS
280
   127
  9
$INDEXCTL
280
     0
  9
$HIDETEXT
280
     1
  9
$XCLIPFRAME
280
     2
  9
$HALOGAP
280
     0
  9
$OBSCOLOR
 70
   257
  9
$OBSLTYPE
280
     0
  9
$INTERSECTIONDISPLAY
280
     0
  9
$INTERSECTIONCOLOR
 70
   257
  9
$DIMASSOC
280
     2
  9
$PROJECTNAME
  1

  9
$CAMERADISPLAY
290
     0
  9
$LENSLENGTH
 40
50.0
  9
$CAMERAHEIGHT
 40
0.0
  9
$STEPSPERSEC
 40
2.0
  9
$STEPSIZE
 40
6.0
  9
$3DDWFPREC
 40
2.0
  9
$PSOLWIDTH
 40
0.25
  9
$PSOLHEIGHT
 40
4.0
  9
$LOFTANG1
 40
1.570796326794896
  9
$LOFTANG2
 40
1.570796326794896
  9
$LOFTMAG1
 40
0.0
  9
$LOFTMAG2
 40
0.0
  9
$LOFTPARAM
 70
     7
  9
$LOFTNORMALS
280
     1
  9
$LATITUDE
 40
37.795
  9
$LONGITUDE
 40
-122.394
  9
$NORTHDIRECTION
 40
0.0
  9
$TIMEZONE
 70
 -8000
  9
$LIGHTGLYPHDISPLAY
280
     1
  9
$TILEMODELIGHTSYNCH
280
     1
  9
$CMATERIAL
347
11
  9
$SOLIDHIST
280
     0
  9
$SHOWHIST
280
     1
  9
$DWFFRAME
280
     2
  9
$DGNFRAME
280
     0
  9
$REALWORLDSCALE
290
     1
  9
$INTERFERECOLOR
 62
     1
  9
$INTERFEREOBJVS
345
33
  9
$INTERFEREVPVS
346
30
  9
$CSHADOW
280
     0
  9
$SHADOWPLANELOCATION
 40
0.0
  0
ENDSEC
  0
SECTION
  2
CLASSES
  0
CLASS
  1
ACDBDICTIONARYWDFLT
  2
AcDbDictionaryWithDefault
  3
ObjectDBX Classes
 90
        0
 91
        1
280
     0
281
     0
  0
CLASS
  1
MATERIAL
  2
AcDbMaterial
  3
ObjectDBX Classes
 90
     1153
 91
        3
280
     0
281
     0
  0
CLASS
  1
VISUALSTYLE
  2
AcDbVisualStyle
  3
ObjectDBX Classes
 90
     4095
 91
       24
280
     0
281
     0
  0
CLASS
  1
SCALE
  2
AcDbScale
  3
ObjectDBX Classes
 90
     1153
 91
       17
280
     0
281
     0
  0
CLASS
  1
TABLESTYLE
  2
AcDbTableStyle
  3
ObjectDBX Classes
 90
     4095
 91
        1
280
     0
281
     0
  0
CLASS
  1
MLEADERSTYLE
  2
AcDbMLeaderStyle
  3
ACDB_MLEADERSTYLE_CLASS
 90
     4095
 91
        1
280
     0
281
     0
  0
CLASS
  1
ACDBSECTIONVIEWSTYLE
  2
AcDbSectionViewStyle
  3
ObjectDBX Classes
 90
     1025
 91
        1
280
     0
281
     0
  0
CLASS
  1
ACDBDETAILVIEWSTYLE
  2
AcDbDetailViewStyle
  3
ObjectDBX Classes
 90
     1025
 91
        1
280
     0
281
     0
  0
CLASS
  1
DICTIONARYVAR
  2
AcDbDictionaryVar
  3
ObjectDBX Classes
 90
        0
 91
        5
280
     0
281
     0
  0
CLASS
  1
CELLSTYLEMAP
  2
AcDbCellStyleMap
  3
ObjectDBX Classes
 90
     1152
 91
        1
280
     0
281
     0
  0
ENDSEC
  0
SECTION
  2
TABLES
  0
TABLE
  2
VPORT
  5
8
330
0
100
AcDbSymbolTable
 70
     1
  0
VPORT
  5
57
330
8
100
AcDbSymbolTableRecord
100
AcDbViewportTableRecord
  2
*Active
 70
     0
 10
0.0
 20
0.0
 11
1.0
 21
1.0
 12
0.0
 22
0.0
 13
0.0
 23
0.0
 14
1.0
 24
1.0
 15
0.0
 25
0.0
 16
0.0
 26
0.0
 36
1.0
 17
104.9999999737534
 27
-148.4999999628701
 37
0.0
 40
302.939999924255
 41
0.7070707070707534
 42
50.0
 43
0.0
 44
0.0
 50
0.0
 51
0.0
 71
     0
 72
   100
 73
     1
 74
     0
 75
     1
 76
     0
 77
     0
 78
     0
281
     0
 65
     1
110
0.0
120
0.0
130
0.0
111
1.0
121
0.0
131
0.0
112
0.0
122
1.0
132
0.0
 79
     0
146
0.0
 60
     3
 61
     5
292
     1
282
     1
141
0.0
142
0.0
 63
   250
421
  3355443
  0
ENDTAB
  0
TABLE
  2
LTYPE
  5
5
330
0
100
AcDbSymbolTable
 70
     2
  0
LTYPE
  5
5B
330
5
100
AcDbSymbolTableRecord
100
AcDbLinetypeTableRecord
  2
ByBlock
 70
     0
  3

 72
    65
 73
     0
 40
0.0
  0
LTYPE
  5
5C
330
5
100
AcDbSymbolTableRecord
100
AcDbLinetypeTableRecord
  2
ByLayer
 70
     0
  3

 72
    65
 73
     0
 40
0.0
  0
LTYPE
  5
5D
330
5
100
AcDbSymbolTableRecord
100
AcDbLinetypeTableRecord
  2
Continuous
 70
     0
  3
Solid line
 72
    65
 73
     0
 40
0.0
  0
LTYPE
  5
101
330
5
100
AcDbSymbolTableRecord
100
AcDbLinetypeTableRecord
  2
AI-Linetype-0
 70
     0
  3
Adobe Illustrator Linetype No. 0
 72
    65
 73
     2
 40
1.411111110758333
 49
0.7055555553791667
 74
     0
 49
-0.7055555553791667
 74
     0
  0
ENDTAB
  0
TABLE
  2
LAYER
  5
2
330
0
100
AcDbSymbolTable
 70
     2
  0
LAYER
  5
54
330
2
100
AcDbSymbolTableRecord
100
AcDbLayerTableRecord
  2
0
 70
     0
 62
     7
  6
Continuous
370
    -3
390
F
347
21
  0
LAYER
  5
78
330
2
100
AcDbSymbolTableRecord
100
AcDbLayerTableRecord
  2
レイヤー 1
 70
     0
 62
     7
  6
Continuous
370
     0
390
F
347
21
  0
ENDTAB
  0
TABLE
  2
STYLE
  5
3
330
0
100
AcDbSymbolTable
 70
     2
  0
STYLE
  5
55
330
3
100
AcDbSymbolTableRecord
100
AcDbTextStyleTableRecord
  2
Standard
 70
     0
 40
0.0
 41
1.0
 50
0.0
 71
     0
 42
0.2
  3
txt
  4

  0
STYLE
  5
5A
330
3
100
AcDbSymbolTableRecord
100
AcDbTextStyleTableRecord
  2
Annotative
 70
     0
 40
0.0
 41
1.0
 50
0.0
 71
     0
 42
0.2
  3
txt
  4

1001
AcadAnnotative
1000
AnnotativeData
1002
{
1070
     1
1070
     1
1002
}
  0
ENDTAB
  0
TABLE
  2
VIEW
  5
6
330
0
100
AcDbSymbolTable
 70
     0
  0
ENDTAB
  0
TABLE
  2
UCS
  5
7
330
0
100
AcDbSymbolTable
 70
     0
  0
ENDTAB
  0
TABLE
  2
APPID
  5
9
330
0
100
AcDbSymbolTable
 70
     2
  0
APPID
  5
56
330
9
100
AcDbSymbolTableRecord
100
AcDbRegAppTableRecord
  2
ACAD
 70
     0
  0
APPID
  5
5E
330
9
100
AcDbSymbolTableRecord
100
AcDbRegAppTableRecord
  2
AcadAnnotative
 70
     0
  0
ENDTAB
  0
TABLE
  2
DIMSTYLE
  5
A
330
0
100
AcDbSymbolTable
 70
     2
100
AcDbDimStyleTable
 71
     0
  0
DIMSTYLE
105
58
330
A
100
AcDbSymbolTableRecord
100
AcDbDimStyleTableRecord
  2
Standard
 70
     0
340
55
  0
DIMSTYLE
105
59
330
A
100
AcDbSymbolTableRecord
100
AcDbDimStyleTableRecord
  2
Annotative
 70
     0
340
55
1001
AcadAnnotative
1000
AnnotativeData
1002
{
1070
     1
1070
     1
1002
}
  0
ENDTAB
  0
TABLE
  2
BLOCK_RECORD
  5
1
330
0
100
AcDbSymbolTable
 70
    15
  0
BLOCK_RECORD
  5
70
330
1
100
AcDbSymbolTableRecord
100
AcDbBlockTableRecord
  2
*Model_Space
340
73
 70
     0
280
     1
281
     0
  0
BLOCK_RECORD
  5
6C
330
1
100
AcDbSymbolTableRecord
100
AcDbBlockTableRecord
  2
*Paper_Space
340
6F
 70
     0
280
     1
281
     0
  0
BLOCK_RECORD
  5
74
330
1
100
AcDbSymbolTableRecord
100
AcDbBlockTableRecord
  2
*Paper_Space0
340
77
 70
     0
280
     1
281
     0
  0
BLOCK_RECORD
  5
79
330
1
100
AcDbSymbolTableRecord
100
AcDbBlockTableRecord
  2
Block_0
340
0
102
{BLKREFS
331
7A
102
}
 70
     0
280
     1
281
     0
  0
BLOCK_RECORD
  5
B8
330
1
100
AcDbSymbolTableRecord
100
AcDbBlockTableRecord
  2
Block_1
340
0
102
{BLKREFS
331
B9
102
}
 70
     0
280
     1
281
     0
  0
BLOCK_RECORD
  5
BC
330
1
100
AcDbSymbolTableRecord
100
AcDbBlockTableRecord
  2
Block_2
340
0
102
{BLKREFS
331
BD
102
}
 70
     0
280
     1
281
     0
  0
BLOCK_RECORD
  5
C9
330
1
100
AcDbSymbolTableRecord
100
AcDbBlockTableRecord
  2
Block_3
340
0
102
{BLKREFS
331
CA
102
}
 70
     0
280
     1
281
     0
  0
BLOCK_RECORD
  5
CD
330
1
100
AcDbSymbolTableRecord
100
AcDbBlockTableRecord
  2
Block_4
340
0
102
{BLKREFS
331
CE
102
}
 70
     0
280
     1
281
     0
  0
BLOCK_RECORD
  5
D7
330
1
100
AcDbSymbolTableRecord
100
AcDbBlockTableRecord
  2
Block_5
340
0
102
{BLKREFS
331
D8
102
}
 70
     0
280
     1
281
     0
  0
BLOCK_RECORD
  5
E0
330
1
100
AcDbSymbolTableRecord
100
AcDbBlockTableRecord
  2
Block_6
340
0
102
{BLKREFS
331
E1
102
}
 70
     0
280
     1
281
     0
  0
BLOCK_RECORD
  5
EC
330
1
100
AcDbSymbolTableRecord
100
AcDbBlockTableRecord
  2
Block_7
340
0
102
{BLKREFS
331
ED
102
}
 70
     0
280
     1
281
     0
  0
BLOCK_RECORD
  5
F0
330
1
100
AcDbSymbolTableRecord
100
AcDbBlockTableRecord
  2
Block_8
340
0
102
{BLKREFS
331
F1
102
}
 70
     0
280
     1
281
     0
  0
BLOCK_RECORD
  5
FA
330
1
100
AcDbSymbolTableRecord
100
AcDbBlockTableRecord
  2
Block_9
340
0
102
{BLKREFS
331
FB
102
}
 70
     0
280
     1
281
     0
  0
BLOCK_RECORD
  5
102
330
1
100
AcDbSymbolTableRecord
100
AcDbBlockTableRecord
  2
Block_10
340
0
102
{BLKREFS
331
103
102
}
 70
     0
280
     1
281
     0
  0
BLOCK_RECORD
  5
106
330
1
100
AcDbSymbolTableRecord
100
AcDbBlockTableRecord
  2
Block_11
340
0
102
{BLKREFS
331
107
102
}
 70
     0
280
     1
281
     0
  0
BLOCK_RECORD
  5
10D
330
1
100
AcDbSymbolTableRecord
100
AcDbBlockTableRecord
  2
Block_12
340
0
102
{BLKREFS
331
10E
102
}
 70
     0
280
     1
281
     0
  0
BLOCK_RECORD
  5
111
330
1
100
AcDbSymbolTableRecord
100
AcDbBlockTableRecord
  2
Block_13
340
0
102
{BLKREFS
331
112
102
}
 70
     0
280
     1
281
     0
  0
ENDTAB
  0
ENDSEC
  0
SECTION
  2
BLOCKS
  0
BLOCK
  5
71
330
70
100
AcDbEntity
  8
0
100
AcDbBlockBegin
  2
*Model_Space
 70
     0
 10
0.0
 20
0.0
 30
0.0
  3
*Model_Space
  1

  0
ENDBLK
  5
72
330
70
100
AcDbEntity
  8
0
100
AcDbBlockEnd
  0
BLOCK
  5
6D
330
6C
100
AcDbEntity
 67
     1
  8
0
100
AcDbBlockBegin
  2
*Paper_Space
 70
     0
 10
0.0
 20
0.0
 30
0.0
  3
*Paper_Space
  1

  0
ENDBLK
  5
6E
330
6C
100
AcDbEntity
 67
     1
  8
0
100
AcDbBlockEnd
  0
BLOCK
  5
75
330
74
100
AcDbEntity
 67
     1
  8
0
100
AcDbBlockBegin
  2
*Paper_Space0
 70
     0
 10
0.0
 20
0.0
 30
0.0
  3
*Paper_Space0
  1

  0
ENDBLK
  5
76
330
74
100
AcDbEntity
 67
     1
  8
0
100
AcDbBlockEnd
  0
BLOCK
  5
7B
330
79
100
AcDbEntity
  8
0
100
AcDbBlockBegin
  2
Block_0
 70
     0
 10
0.0
 20
0.0
 30
0.0
  3
Block_0
  1

  0
LINE
  5
7D
330
79
100
AcDbEntity
  8
レイヤー 1
 62
   250
420
  2299925
370
    25
100
AcDbLine
 10
121.8326572563916
 20
-152.6573181390406
 30
0.0
 11
110.8327889408898
 21
-152.6573181390406
 31
0.0
  0
LINE
  5
7E
330
79
100
AcDbEntity
  8
レイヤー 1
 62
   250
420
  2299925
370
    25
100
AcDbLine
 10
90.83123936040623
 20
-147.1572303626376
 30
0.0
 11
90.83123936040623
 21
-147.6574339736234
 31
0.0
  0
LINE
  5
7F
330
79
100
AcDbEntity
  8
レイヤー 1
 62
   250
420
  2299925
370
    25
100
AcDbLine
 10
110.8327889408898
 20
-147.6574339736234
 30
0.0
 11
90.83123936040623
 21
-147.6574339736234
 31
0.0
  0
LINE
  5
80
330
79
100
AcDbEntity
  8
レイヤー 1
 62
   250
420
  2299925
370
    25
100
AcDbLine
 10
90.83123936040623
 20
-147.1572303626376
 30
0.0
 11
91.34527184729281
 21
-147.5392886958753
 31
0.0
  0
LINE
  5
81
330
79
100
AcDbEntity
  8
レイヤー 1
 62
   250
420
  2299925
370
    25
100
AcDbLine
 10
91.34527184729281
 20
-147.5392886958753
 30
0.0
 11
91.8303412793618
 21
-147.1217409182021
 31
0.0
  0
LINE
  5
82
330
79
100
AcDbEntity
  8
レイヤー 1
 62
   250
420
  2299925
370
    25
100
AcDbLine
 10
92.34433848847084
 20
-147.5037992514398
 30
0.0
 11
92.8301134760777
 21
-147.0858986959885
 31
0.0
  0
LINE
  5
83
330
79
100
AcDbEntity
  8
レイヤー 1
 62
   250
420
  2299925
370
    25
100
AcDbLine
 10
91.8303412793618
 20
-147.1217409182021
 30
0.0
 11
92.34433848847084
 21
-147.5037992514398
 31
0.0
  0
LINE
  5
84
330
79
100
AcDbEntity
  8
レイヤー 1
 62
   250
420
  2299925
370
    25
100
AcDbLine
 10
92.8301134760777
 20
-147.0858986959885
 30
0.0
 11
93.34411068518674
 21
-147.4679570292265
 31
0.0
  0
LINE
  5
85
330
79
100
AcDbEntity
  8
レイヤー 1
 62
   250
420
  2299925
370
    25
100
AcDbLine
 10
93.34411068518674
 20
-147.4679570292265
 30
0.0
 11
93.82918011725605
 21
-147.050409251553
 31
0.0
  0
LINE
  5
86
330
79
100
AcDbEntity
  8
レイヤー 1
 62
   250
420
  2299925
370
    25
100
AcDbLine
 10
93.82918011725605
 20
-147.050409251553
 30
0.0
 11
94.34317732636541
 21
-147.4321500847911
 31
0.0
  0
LINE
  5
87
330
79
100
AcDbEntity
  8
レイヤー 1
 62
   250
420
  2299925
370
    25
100
AcDbLine
 10
94.34317732636541
 20
-147.4321500847911
 30
0.0
 11
94.82859953620318
 21
-147.0146023071176
 31
0.0
  0
LINE
  5
88
330
79
100
AcDbEntity
  8
レイヤー 1
 62
   250
420
  2299925
370
    25
100
AcDbLine
 10
94.82859953620318
 20
-147.0146023071176
 30
0.0
 11
95.34259674531224
 21
-147.3963078625779
 31
0.0
  0
LINE
  5
89
330
79
100
AcDbEntity
  8
レイヤー 1
 62
   250
420
  2299925
370
    25
100
AcDbLine
 10
95.34259674531224
 20
-147.3963078625779
 30
0.0
 11
95.8280189551503
 21
-146.9787600849044
 31
0.0
  0
LINE
  5
8A
330
79
100
AcDbEntity
  8
レイヤー 1
 62
   250
420
  2299925
370
    25
100
AcDbLine
 10
95.8280189551503
 20
-146.9787600849044
 30
0.0
 11
96.34201616425936
 21
-147.360818418142
 31
0.0
  0
LINE
  5
8B
330
79
100
AcDbEntity
  8
レイヤー 1
 62
   250
420
  2299925
370
    25
100
AcDbLine
 10
96.34201616425936
 20
-147.360818418142
 30
0.0
 11
96.82743837409745
 21
-146.9432706404689
 31
0.0
  0
LINE
  5
8C
330
79
100
AcDbEntity
  8
レイヤー 1
 62
   250
420
  2299925
370
    25
100
AcDbLine
 10
96.82743837409745
 20
-146.9432706404689
 30
0.0
 11
97.34111808321459
 21
-147.3253289737066
 31
0.0
  0
LINE
  5
8D
330
79
100
AcDbEntity
  8
レイヤー 1
 62
   250
420
  2299925
370
    25
100
AcDbLine
 10
97.34111808321459
 20
-147.3253289737066
 30
0.0
 11
97.8268577930449
 21
-146.9074284182556
 31
0.0
  0
LINE
  5
8E
330
79
100
AcDbEntity
  8
レイヤー 1
 62
   250
420
  2299925
370
    25
100
AcDbLine
 10
98.34089027993051
 20
-147.2895220292712
 30
0.0
 11
98.82595971199981
 21
-146.8719742515977
 31
0.0
  0
LINE
  5
8F
330
79
100
AcDbEntity
  8
レイヤー 1
 62
   250
420
  2299925
370
    25
100
AcDbLine
 10
97.8268577930449
 20
-146.9074284182556
 30
0.0
 11
98.34089027993051
 21
-147.2895220292712
 31
0.0
  0
LINE
  5
90
330
79
100
AcDbEntity
  8
レイヤー 1
 62
   250
420
  2299925
370
    25
100
AcDbLine
 10
98.82595971199981
 20
-146.8719742515977
 30
0.0
 11
99.33995692110887
 21
-147.2536798070579
 31
0.0
  0
LINE
  5
91
330
79
100
AcDbEntity
  8
レイヤー 1
 62
   250
420
  2299925
370
    25
100
AcDbLine
 10
99.33995692110887
 20
-147.2536798070579
 30
0.0
 11
99.82569663093883
 21
-146.8361320293844
 31
0.0
  0
LINE
  5
92
330
79
100
AcDbEntity
  8
レイヤー 1
 62
   250
420
  2299925
370
    25
100
AcDbLine
 10
100.3397291178248
 20
-147.2178375848447
 30
0.0
 11
100.8247985498937
 21
-146.8002898071712
 31
0.0
  0
LINE
  5
93
330
79
100
AcDbEntity
  8
レイヤー 1
 62
   250
420
  2299925
370
    25
100
AcDbLine
 10
99.82569663093883
 20
-146.8361320293844
 30
0.0
 11
100.3397291178248
 21
-147.2178375848447
 31
0.0
  0
LINE
  5
94
330
79
100
AcDbEntity
  8
レイヤー 1
 62
   250
420
  2299925
370
    25
100
AcDbLine
 10
101.3387957590034
 20
-147.1823481404089
 30
0.0
 11
101.8245707466099
 21
-146.7648356405129
 31
0.0
  0
LINE
  5
95
330
79
100
AcDbEntity
  8
レイヤー 1
 62
   250
420
  2299925
370
    25
100
AcDbLine
 10
100.8247985498937
 20
-146.8002898071712
 30
0.0
 11
101.3387957590034
 21
-147.1823481404089
 31
0.0
  0
LINE
  5
96
330
79
100
AcDbEntity
  8
レイヤー 1
 62
   250
420
  2299925
370
    25
100
AcDbLine
 10
101.8245707466099
 20
-146.7648356405129
 30
0.0
 11
102.338567955719
 21
-147.1468939737512
 31
0.0
  0
LINE
  5
97
330
79
100
AcDbEntity
  8
レイヤー 1
 62
   250
420
  2299925
370
    25
100
AcDbLine
 10
102.338567955719
 20
-147.1468939737512
 30
0.0
 11
102.8236373877883
 21
-146.7289934183003
 31
0.0
  0
LINE
  5
98
330
79
100
AcDbEntity
  8
レイヤー 1
 62
   250
420
  2299925
370
    25
100
AcDbLine
 10
102.8236373877883
 20
-146.7289934183003
 30
0.0
 11
103.3376345968974
 21
-147.111051751538
 31
0.0
  0
LINE
  5
99
330
79
100
AcDbEntity
  8
レイヤー 1
 62
   250
420
  2299925
370
    25
100
AcDbLine
 10
103.3376345968974
 20
-147.111051751538
 30
0.0
 11
103.8227040289667
 21
-146.6935039738645
 31
0.0
  0
LINE
  5
9A
330
79
100
AcDbEntity
  8
レイヤー 1
 62
   250
420
  2299925
370
    25
100
AcDbLine
 10
103.8227040289667
 20
-146.6935039738645
 30
0.0
 11
104.336701238076
 21
-147.0752095293247
 31
0.0
  0
LINE
  5
9B
330
79
100
AcDbEntity
  8
レイヤー 1
 62
   250
420
  2299925
370
    25
100
AcDbLine
 10
104.336701238076
 20
-147.0752095293247
 30
0.0
 11
104.8224762256825
 21
-146.6576617516512
 31
0.0
  0
LINE
  5
9C
330
79
100
AcDbEntity
  8
レイヤー 1
 62
   250
420
  2299925
370
    25
100
AcDbLine
 10
104.8224762256825
 20
-146.6576617516512
 30
0.0
 11
105.3364734347916
 21
-147.0394025848893
 31
0.0
  0
LINE
  5
9D
330
79
100
AcDbEntity
  8
レイヤー 1
 62
   250
420
  2299925
370
    25
100
AcDbLine
 10
105.3364734347916
 20
-147.0394025848893
 30
0.0
 11
105.8215428668606
 21
-146.6218548072158
 31
0.0
  0
LINE
  5
9E
330
79
100
AcDbEntity
  8
レイヤー 1
 62
   250
420
  2299925
370
    25
100
AcDbLine
 10
105.8215428668606
 20
-146.6218548072158
 30
0.0
 11
106.3355778309031
 21
-147.0039131404535
 31
0.0
  0
LINE
  5
9F
330
79
100
AcDbEntity
  8
レイヤー 1
 62
   250
420
  2299925
370
    25
100
AcDbLine
 10
106.3355778309031
 20
-147.0039131404535
 30
0.0
 11
106.8213150635765
 21
-146.5863653627803
 31
0.0
  0
LINE
  5
A0
330
79
100
AcDbEntity
  8
レイヤー 1
 62
   250
420
  2299925
370
    25
100
AcDbLine
 10
106.8213150635765
 20
-146.5863653627803
 30
0.0
 11
107.3353122726856
 21
-146.968423696018
 31
0.0
  0
LINE
  5
A1
330
79
100
AcDbEntity
  8
レイヤー 1
 62
   250
420
  2299925
370
    25
100
AcDbLine
 10
107.3353122726856
 20
-146.968423696018
 30
0.0
 11
107.8203817047548
 21
-146.5505231405671
 31
0.0
  0
LINE
  5
A2
330
79
100
AcDbEntity
  8
レイヤー 1
 62
   250
420
  2299925
370
    25
100
AcDbLine
 10
107.8203817047548
 20
-146.5505231405671
 30
0.0
 11
108.334416719292
 21
-146.9325814738048
 31
0.0
  0
LINE
  5
A3
330
79
100
AcDbEntity
  8
レイヤー 1
 62
   250
420
  2299925
370
    25
100
AcDbLine
 10
108.334416719292
 20
-146.9325814738048
 30
0.0
 11
108.8201539014708
 21
-146.5150336961313
 31
0.0
  0
LINE
  5
A4
330
79
100
AcDbEntity
  8
レイヤー 1
 62
   250
420
  2299925
370
    25
100
AcDbLine
 10
108.8201539014708
 20
-146.5150336961313
 30
0.0
 11
109.3341889412646
 21
-146.8967745293694
 31
0.0
  0
LINE
  5
A5
330
79
100
AcDbEntity
  8
レイヤー 1
 62
   250
420
  2299925
370
    25
100
AcDbLine
 10
109.3341889412646
 20
-146.8967745293694
 30
0.0
 11
109.8192583855877
 21
-146.4792267516958
 31
0.0
  0
LINE
  5
A6
330
79
100
AcDbEntity
  8
レイヤー 1
 62
   250
420
  2299925
370
    25
100
AcDbLine
 10
109.8192583855877
 20
-146.4792267516958
 30
0.0
 11
110.3332556076816
 21
-146.8609323071561
 31
0.0
  0
LINE
  5
A7
330
79
100
AcDbEntity
  8
レイヤー 1
 62
   250
420
  2299925
370
    25
100
AcDbLine
 10
110.3332556076816
 20
-146.8609323071561
 30
0.0
 11
110.818992739365
 21
-146.4433845294826
 31
0.0
  0
LINE
  5
A8
330
79
100
AcDbEntity
  8
レイヤー 1
 62
   250
420
  2299925
370
    25
100
AcDbLine
 10
110.8930278297637
 20
-146.3951598072724
 30
0.0
 11
111.8325611628623
 21
-146.3951598072724
 31
0.0
  0
LINE
  5
A9
330
79
100
AcDbEntity
  8
レイヤー 1
 62
   250
420
  2299925
370
    25
100
AcDbLine
 10
111.8325611628623
 20
-146.3951598072724
 30
0.0
 11
111.8325611628623
 21
-151.6571931392903
 31
0.0
  0
LINE
  5
AA
330
79
100
AcDbEntity
  8
レイヤー 1
 62
   250
420
  2299925
370
    25
100
AcDbLine
 10
110.8327889408898
 20
-147.6574339736234
 30
0.0
 11
110.8327889408898
 21
-152.6573181390406
 31
0.0
  0
LINE
  5
AB
330
79
100
AcDbEntity
  8
レイヤー 1
 62
   250
420
  2299925
370
    25
100
AcDbLine
 10
120.8321795041381
 20
-151.6571931392903
 30
0.0
 11
111.8325611628623
 21
-151.6571931392903
 31
0.0
  0
LINE
  5
AC
330
79
100
AcDbEntity
  8
レイヤー 1
 62
   250
420
  2299925
370
    25
100
AcDbLine
 10
120.8321794193671
 20
-146.3951598072724
 30
0.0
 11
120.8321794193671
 21
-151.6571931392903
 31
0.0
  0
LINE
  5
AD
330
79
100
AcDbEntity
  8
レイヤー 1
 62
   250
420
  2299925
370
    25
100
AcDbLine
 10
121.8326571716206
 20
-146.3951598072724
 30
0.0
 11
121.8326571716206
 21
-152.6573181390406
 31
0.0
  0
SPLINE
  5
AE
330
79
100
AcDbEntity
  8
レイヤー 1
 62
   250
420
  2299925
370
     9
100
AcDbSpline
210
0.0
220
0.0
230
1.0
 70
     9
 71
     3
 72
    17
 73
    13
 74
     0
 42
0.0000000001
 43
0.0000000001
 40
0.0
 40
0.0
 40
0.0
 40
0.0
 40
1.0
 40
1.0
 40
1.0
 40
2.0
 40
2.0
 40
2.0
 40
3.0
 40
3.0
 40
3.0
 40
4.0
 40
4.0
 40
4.0
 40
4.0
 10
90.93114602452438
 20
-142.3954006416052
 30
0.0
 10
90.93114602452438
 20
-142.3399439749529
 30
0.0
 10
90.88638061254334
 20
-142.2951411971865
 30
0.0
 10
90.83123936040623
 20
-142.2951411971865
 30
0.0
 10
90.77613547292349
 20
-142.2951411971865
 30
0.0
 10
90.73133269628872
 20
-142.3399439749529
 30
0.0
 10
90.73133269628872
 20
-142.3954006416052
 30
0.0
 10
90.73133269628872
 20
-142.4505398082586
 30
0.0
 10
90.77613547292349
 20
-142.4953073082475
 30
0.0
 10
90.83123936040623
 20
-142.4953073082475
 30
0.0
 10
90.88638061254334
 20
-142.4953073082475
 30
0.0
 10
90.93114602452438
 20
-142.4505398082586
 30
0.0
 10
90.93114602452438
 20
-142.3954006416052
 30
0.0
  0
SPLINE
  5
AF
330
79
100
AcDbEntity
  8
レイヤー 1
 62
   250
420
  2299925
370
     9
100
AcDbSpline
210
0.0
220
0.0
230
1.0
 70
     9
 71
     3
 72
    17
 73
    13
 74
     0
 42
0.0000000001
 43
0.0000000001
 40
0.0
 40
0.0
 40
0.0
 40
0.0
 40
1.0
 40
1.0
 40
1.0
 40
2.0
 40
2.0
 40
2.0
 40
3.0
 40
3.0
 40
3.0
 40
4.0
 40
4.0
 40
4.0
 40
4.0
 10
86.93142223767695
 20
-147.1572303626376
 30
0.0
 10
86.93142223767695
 20
-147.1020911959845
 30
0.0
 10
86.88661946104218
 20
-147.0573236959959
 30
0.0
 10
86.83116279579033
 20
-147.0573236959959
 30
0.0
 10
86.77602363053038
 20
-147.0573236959959
 30
0.0
 10
86.7312561316725
 20
-147.1020911959845
 30
0.0
 10
86.7312561316725
 20
-147.1572303626376
 30
0.0
 10
86.7312561316725
 20
-147.2123342515125
 30
0.0
 10
86.77602363053038
 20
-147.2571370292792
 30
0.0
 10
86.83116279579033
 20
-147.2571370292792
 30
0.0
 10
86.88661946104218
 20
-147.2571370292792
 30
0.0
 10
86.93142223767695
 20
-147.2123342515125
 30
0.0
 10
86.93142223767695
 20
-147.1572303626376
 30
0.0
  0
SPLINE
  5
B0
330
79
100
AcDbEntity
  8
レイヤー 1
 62
   250
420
  2299925
370
     9
100
AcDbSpline
210
0.0
220
0.0
230
1.0
 70
     9
 71
     3
 72
    17
 73
    13
 74
     0
 42
0.0000000001
 43
0.0000000001
 40
0.0
 40
0.0
 40
0.0
 40
0.0
 40
1.0
 40
1.0
 40
1.0
 40
2.0
 40
2.0
 40
2.0
 40
3.0
 40
3.0
 40
3.0
 40
4.0
 40
4.0
 40
4.0
 40
4.0
 10
86.93142223767695
 20
-147.6574339736234
 30
0.0
 10
86.93142223767695
 20
-147.6023300847485
 30
0.0
 10
86.88661946104218
 20
-147.5575273069818
 30
0.0
 10
86.83116279579033
 20
-147.5575273069818
 30
0.0
 10
86.77602363053038
 20
-147.5575273069818
 30
0.0
 10
86.7312561316725
 20
-147.6023300847485
 30
0.0
 10
86.7312561316725
 20
-147.6574339736234
 30
0.0
 10
86.7312561316725
 20
-147.7125731402765
 30
0.0
 10
86.77602363053038
 20
-147.7573406402651
 30
0.0
 10
86.83116279579033
 20
-147.7573406402651
 30
0.0
 10
86.88661946104218
 20
-147.7573406402651
 30
0.0
 10
86.93142223767695
 20
-147.7125731402765
 30
0.0
 10
86.93142223767695
 20
-147.6574339736234
 30
0.0
  0
SPLINE
  5
B1
330
79
100
AcDbEntity
  8
レイヤー 1
 62
   250
420
  2299925
370
     9
100
AcDbSpline
210
0.0
220
0.0
230
1.0
 70
     9
 71
     3
 72
    17
 73
    13
 74
     0
 42
0.0000000001
 43
0.0000000001
 40
0.0
 40
0.0
 40
0.0
 40
0.0
 40
1.0
 40
1.0
 40
1.0
 40
2.0
 40
2.0
 40
2.0
 40
3.0
 40
3.0
 40
3.0
 40
4.0
 40
4.0
 40
4.0
 40
4.0
 10
86.93142223767695
 20
-152.6573181390406
 30
0.0
 10
86.93142223767695
 20
-152.6021789723869
 30
0.0
 10
86.88661946104218
 20
-152.5574114723984
 30
0.0
 10
86.83116279579033
 20
-152.5574114723984
 30
0.0
 10
86.77602363053038
 20
-152.5574114723984
 30
0.0
 10
86.7312561316725
 20
-152.6021789723869
 30
0.0
 10
86.7312561316725
 20
-152.6573181390406
 30
0.0
 10
86.7312561316725
 20
-152.7124220279149
 30
0.0
 10
86.77602363053038
 20
-152.7572248056816
 30
0.0
 10
86.83116279579033
 20
-152.7572248056816
 30
0.0
 10
86.88661946104218
 20
-152.7572248056816
 30
0.0
 10
86.93142223767695
 20
-152.7124220279149
 30
0.0
 10
86.93142223767695
 20
-152.6573181390406
 30
0.0
  0
SPLINE
  5
B2
330
79
100
AcDbEntity
  8
レイヤー 1
 62
   250
420
  2299925
370
     9
100
AcDbSpline
210
0.0
220
0.0
230
1.0
 70
     9
 71
     3
 72
    17
 73
    13
 74
     0
 42
0.0000000001
 43
0.0000000001
 40
0.0
 40
0.0
 40
0.0
 40
0.0
 40
1.0
 40
1.0
 40
1.0
 40
2.0
 40
2.0
 40
2.0
 40
3.0
 40
3.0
 40
3.0
 40
4.0
 40
4.0
 40
4.0
 40
4.0
 10
111.932465210958
 20
-142.3954006416052
 30
0.0
 10
111.932465210958
 20
-142.3399439749529
 30
0.0
 10
111.8876624343232
 20
-142.2951411971865
 30
0.0
 10
111.8325611628623
 20
-142.2951411971865
 30
0.0
 10
111.7774193815802
 20
-142.2951411971865
 30
0.0
 10
111.7326518827223
 20
-142.3399439749529
 30
0.0
 10
111.7326518827223
 20
-142.3954006416052
 30
0.0
 10
111.7326518827223
 20
-142.4505398082586
 30
0.0
 10
111.7774193815802
 20
-142.4953073082475
 30
0.0
 10
111.8325611628623
 20
-142.4953073082475
 30
0.0
 10
111.8876624343232
 20
-142.4953073082475
 30
0.0
 10
111.932465210958
 20
-142.4505398082586
 30
0.0
 10
111.932465210958
 20
-142.3954006416052
 30
0.0
  0
SPLINE
  5
B3
330
79
100
AcDbEntity
  8
レイヤー 1
 62
   250
420
  2299925
370
     9
100
AcDbSpline
210
0.0
220
0.0
230
1.0
 70
     9
 71
     3
 72
    17
 73
    13
 74
     0
 42
0.0000000001
 43
0.0000000001
 40
0.0
 40
0.0
 40
0.0
 40
0.0
 40
1.0
 40
1.0
 40
1.0
 40
2.0
 40
2.0
 40
2.0
 40
3.0
 40
3.0
 40
3.0
 40
4.0
 40
4.0
 40
4.0
 40
4.0
 10
120.9320888535945
 20
-142.3954006416052
 30
0.0
 10
120.9320888535945
 20
-142.3399439749529
 30
0.0
 10
120.8873185846271
 20
-142.2951411971865
 30
0.0
 10
120.8321794193671
 20
-142.2951411971865
 30
0.0
 10
120.777075531884
 20
-142.2951411971865
 30
0.0
 10
120.7322727552493
 20
-142.3399439749529
 30
0.0
 10
120.7322727552493
 20
-142.3954006416052
 30
0.0
 10
120.7322727552493
 20
-142.4505398082586
 30
0.0
 10
120.777075531884
 20
-142.4953073082475
 30
0.0
 10
120.8321794193671
 20
-142.4953073082475
 30
0.0
 10
120.8873185846271
 20
-142.4953073082475
 30
0.0
 10
120.9320888535945
 20
-142.4505398082586
 30
0.0
 10
120.9320888535945
 20
-142.3954006416052
 30
0.0
  0
LINE
  5
B4
330
79
100
AcDbEntity
  8
レイヤー 1
 62
   250
420
  2299925
370
     9
100
AcDbLine
 10
86.83116279579033
 20
-147.1572303626376
 30
0.0
 11
86.83116279579033
 21
-141.8993245306187
 31
0.0
  0
LINE
  5
B5
330
79
100
AcDbEntity
  8
レイヤー 1
 62
   250
420
  2299925
370
     9
100
AcDbLine
 10
86.83116279579033
 20
-147.1572303626376
 30
0.0
 11
86.83116279579033
 21
-147.6574339736234
 31
0.0
  0
LINE
  5
B6
330
79
100
AcDbEntity
  8
レイヤー 1
 62
   250
420
  2299925
370
     9
100
AcDbLine
 10
88.29116886965358
 20
-147.1572303626376
 30
0.0
 11
85.83103782130566
 21
-147.1572303626376
 31
0.0
  0
LINE
  5
B7
330
79
100
AcDbEntity
  8
レイヤー 1
 62
   250
420
  2299925
370
     9
100
AcDbLine
 10
88.29116886965358
 20
-147.6574339736234
 30
0.0
 11
85.83103782130566
 21
-147.6574339736234
 31
0.0
  0
INSERT
  5
B9
330
79
100
AcDbEntity
  8
レイヤー 1
100
AcDbBlockReference
  2
Block_1
 10
0.0
 20
0.0
 30
0.0
  0
LINE
  5
C7
330
79
100
AcDbEntity
  8
レイヤー 1
 62
   250
420
  2299925
370
     9
100
AcDbLine
 10
90.83123936040623
 20
-142.3954006416052
 30
0.0
 11
111.8325611628623
 21
-142.3954006416052
 31
0.0
  0
LINE
  5
C8
330
79
100
AcDbEntity
  8
レイヤー 1
 62
   250
420
  2299925
370
     9
100
AcDbLine
 10
90.83123936040623
 20
-144.6174773077169
 30
0.0
 11
90.83123936040623
 21
-141.3952756418559
 31
0.0
  0
INSERT
  5
CA
330
79
100
AcDbEntity
  8
レイヤー 1
100
AcDbBlockReference
  2
Block_3
 10
0.0
 20
0.0
 30
0.0
  0
LINE
  5
D5
330
79
100
AcDbEntity
  8
レイヤー 1
 62
   250
420
  2299925
370
     9
100
AcDbLine
 10
86.83116279579033
 20
-147.6574339736234
 30
0.0
 11
86.83116279579033
 21
-152.6573181390406
 31
0.0
  0
LINE
  5
D6
330
79
100
AcDbEntity
  8
レイヤー 1
 62
   250
420
  2299925
370
     9
100
AcDbLine
 10
108.29306863714
 20
-152.6573181390406
 30
0.0
 11
85.83103782130566
 21
-152.6573181390406
 31
0.0
  0
INSERT
  5
D8
330
79
100
AcDbEntity
  8
レイヤー 1
100
AcDbBlockReference
  2
Block_5
 10
0.0
 20
0.0
 30
0.0
  0
LINE
  5
DD
330
79
100
AcDbEntity
  8
レイヤー 1
 62
   250
420
  2299925
370
     9
100
AcDbLine
 10
111.8325611628623
 20
-142.3954006416052
 30
0.0
 11
120.8321795041381
 21
-142.3954006416052
 31
0.0
  0
LINE
  5
DE
330
79
100
AcDbEntity
  8
レイヤー 1
 62
   250
420
  2299925
370
     9
100
AcDbLine
 10
111.8325611628623
 20
-143.8554420301296
 30
0.0
 11
111.8325611628623
 21
-141.3952756418559
 31
0.0
  0
LINE
  5
DF
330
79
100
AcDbEntity
  8
レイヤー 1
 62
   250
420
  2299925
370
     9
100
AcDbLine
 10
120.8321794193671
 20
-143.8554420301296
 30
0.0
 11
120.8321794193671
 21
-141.3952756418559
 31
0.0
  0
INSERT
  5
E1
330
79
100
AcDbEntity
  8
レイヤー 1
100
AcDbBlockReference
  2
Block_6
 10
0.0
 20
0.0
 30
0.0
  0
SPLINE
  5
E7
330
79
100
AcDbEntity
  8
レイヤー 1
 62
   250
420
  2299925
370
     9
100
AcDbSpline
210
0.0
220
0.0
230
1.0
 70
     9
 71
     3
 72
    17
 73
    13
 74
     0
 42
0.0000000001
 43
0.0000000001
 40
0.0
 40
0.0
 40
0.0
 40
0.0
 40
1.0
 40
1.0
 40
1.0
 40
2.0
 40
2.0
 40
2.0
 40
3.0
 40
3.0
 40
3.0
 40
4.0
 40
4.0
 40
4.0
 40
4.0
 10
110.9326930142421
 20
-156.7707423046786
 30
0.0
 10
110.9326930142421
 20
-156.7156384158037
 30
0.0
 10
110.8872199598466
 20
-156.670835638037
 30
0.0
 10
110.8321160723636
 20
-156.670835638037
 30
0.0
 10
110.7769769071036
 20
-156.670835638037
 30
0.0
 10
110.7322094082457
 20
-156.7156384158037
 30
0.0
 10
110.7322094082457
 20
-156.7707423046786
 30
0.0
 10
110.7322094082457
 20
-156.8258814713317
 30
0.0
 10
110.7769769071036
 20
-156.8706489713203
 30
0.0
 10
110.8321160723636
 20
-156.8706489713203
 30
0.0
 10
110.8872199598466
 20
-156.8706489713203
 30
0.0
 10
110.9326930142421
 20
-156.8258814713317
 30
0.0
 10
110.9326930142421
 20
-156.7707423046786
 30
0.0
  0
SPLINE
  5
E8
330
79
100
AcDbEntity
  8
レイヤー 1
 62
   250
420
  2299925
370
     9
100
AcDbSpline
210
0.0
220
0.0
230
1.0
 70
     9
 71
     3
 72
    17
 73
    13
 74
     0
 42
0.0000000001
 43
0.0000000001
 40
0.0
 40
0.0
 40
0.0
 40
0.0
 40
1.0
 40
1.0
 40
1.0
 40
2.0
 40
2.0
 40
2.0
 40
3.0
 40
3.0
 40
3.0
 40
4.0
 40
4.0
 40
4.0
 40
4.0
 10
121.9325666311219
 20
-156.7707423046786
 30
0.0
 10
121.9325666311219
 20
-156.7156384158037
 30
0.0
 10
121.8877638533552
 20
-156.670835638037
 30
0.0
 10
121.8326571716206
 20
-156.670835638037
 30
0.0
 10
121.7768477286
 20
-156.670835638037
 30
0.0
 10
121.7327505075028
 20
-156.7156384158037
 30
0.0
 10
121.7327505075028
 20
-156.7707423046786
 30
0.0
 10
121.7327505075028
 20
-156.8258814713317
 30
0.0
 10
121.7768477286
 20
-156.8706489713203
 30
0.0
 10
121.8326571716206
 20
-156.8706489713203
 30
0.0
 10
121.8877638533552
 20
-156.8706489713203
 30
0.0
 10
121.9325666311219
 20
-156.8258814713317
 30
0.0
 10
121.9325666311219
 20
-156.7707423046786
 30
0.0
  0
LINE
  5
E9
330
79
100
AcDbEntity
  8
レイヤー 1
 62
   250
420
  2299925
370
     9
100
AcDbLine
 10
121.8326572563916
 20
-156.7707423046786
 30
0.0
 11
110.8321160723636
 21
-156.7707423046786
 31
0.0
  0
LINE
  5
EA
330
79
100
AcDbEntity
  8
レイヤー 1
 62
   250
420
  2299925
370
     9
100
AcDbLine
 10
121.8326571716206
 20
-155.3107361939324
 30
0.0
 11
121.8326571716206
 21
-157.7708673044289
 31
0.0
  0
LINE
  5
EB
330
79
100
AcDbEntity
  8
レイヤー 1
 62
   250
420
  2299925
370
     9
100
AcDbLine
 10
110.8321160723636
 20
-155.3107361939324
 30
0.0
 11
110.8321160723636
 21
-157.7708673044289
 31
0.0
  0
INSERT
  5
ED
330
79
100
AcDbEntity
  8
レイヤー 1
100
AcDbBlockReference
  2
Block_7
 10
0.0
 20
0.0
 30
0.0
  0
LINE
  5
F8
330
79
100
AcDbEntity
  8
レイヤー 1
 62
   250
420
  2299925
370
    25
100
AcDbLine
 10
121.8326571716206
 20
-146.3951598072724
 30
0.0
 11
120.8321794193671
 21
-146.3951598072724
 31
0.0
  0
LINE
  5
F9
330
79
100
AcDbEntity
  8
レイヤー 1
 62
   250
420
  2299925
370
     9
100
AcDbLine
 10
118.7740739587037
 20
-150.3025970285179
 30
0.0
 11
126.7742976434899
 21
-150.3025970285179
 31
0.0
  0
INSERT
  5
FB
330
79
100
AcDbEntity
  8
レイヤー 1
100
AcDbBlockReference
  2
Block_9
 10
0.0
 20
0.0
 30
0.0
  0
LINE
  5
100
330
79
100
AcDbEntity
  8
レイヤー 1
  6
AI-Linetype-0
 62
   154
420
    23468
370
    25
100
AcDbLine
 10
90.83123936040623
 20
-148.5328520289604
 30
0.0
 11
100.8309721608476
 21
-148.5328520289604
 31
0.0
  0
INSERT
  5
103
330
79
100
AcDbEntity
  8
レイヤー 1
100
AcDbBlockReference
  2
Block_10
 10
0.0
 20
0.0
 30
0.0
  0
ENDBLK
  5
7C
330
79
100
AcDbEntity
  8
0
100
AcDbBlockEnd
  0
BLOCK
  5
BA
330
B8
100
AcDbEntity
  8
0
100
AcDbBlockBegin
  2
Block_1
 70
     0
 10
0.0
 20
0.0
 30
0.0
  3
Block_1
  1

  0
INSERT
  5
BD
330
B8
100
AcDbEntity
  8
レイヤー 1
100
AcDbBlockReference
  2
Block_2
 10
0.0
 20
0.0
 30
0.0
  0
ENDBLK
  5
BB
330
B8
100
AcDbEntity
  8
0
100
AcDbBlockEnd
  0
BLOCK
  5
BE
330
BC
100
AcDbEntity
  8
0
100
AcDbBlockBegin
  2
Block_2
 70
     0
 10
0.0
 20
0.0
 30
0.0
  3
Block_2
  1

  0
SPLINE
  5
C0
330
BC
100
AcDbEntity
  8
レイヤー 1
100
AcDbSpline
210
0.0
220
0.0
230
1.0
 70
     9
 71
     3
 72
    17
 73
    13
 74
     0
 42
0.0000000001
 43
0.0000000001
 40
0.0
 40
0.0
 40
0.0
 40
0.0
 40
1.0
 40
1.0
 40
1.0
 40
2.0
 40
2.0
 40
2.0
 40
3.0
 40
3.0
 40
3.0
 40
4.0
 40
4.0
 40
4.0
 40
4.0
 10
83.98677705148594
 20
-148.2712252776023
 30
0.0
 10
83.98677705148594
 20
-148.5209947002829
 30
0.0
 10
84.27013615514775
 20
-148.5675034893338
 30
0.0
 10
84.61499021322126
 20
-148.5675034893338
 30
0.0
 10
84.93452281947817
 20
-148.5675034893338
 30
0.0
 10
85.24337562973082
 20
-148.5313299867387
 30
0.0
 10
85.24337562973082
 20
-148.2712252776023
 30
0.0
 10
85.24337562973082
 20
-148.0235229122128
 30
0.0
 10
84.96191132858591
 20
-147.9749470658708
 30
0.0
 10
84.61499021322126
 20
-147.9749470658708
 30
0.0
 10
84.29562986173859
 20
-147.9749470658708
 30
0.0
 10
83.98677705148594
 20
-148.0131876257571
 30
0.0
 10
83.98677705148594
 20
-148.2712252776023
 30
0.0
  0
SPLINE
  5
C1
330
BC
100
AcDbEntity
  8
レイヤー 1
100
AcDbSpline
210
0.0
220
0.0
230
1.0
 70
     9
 71
     3
 72
    29
 73
    25
 74
     0
 42
0.0000000001
 43
0.0000000001
 40
0.0
 40
0.0
 40
0.0
 40
0.0
 40
1.0
 40
1.0
 40
1.0
 40
2.0
 40
2.0
 40
2.0
 40
3.0
 40
3.0
 40
3.0
 40
4.0
 40
4.0
 40
4.0
 40
5.0
 40
5.0
 40
5.0
 40
6.0
 40
6.0
 40
6.0
 40
7.0
 40
7.0
 40
7.0
 40
8.0
 40
8.0
 40
8.0
 40
8.0
 10
85.20944143920111
 20
-147.873316749056
 30
0.0
 10
85.41890324470431
 20
-147.9814927472928
 30
0.0
 10
85.43802352464744
 20
-148.1547810502009
 30
0.0
 10
85.43802352464744
 20
-148.2712252776023
 30
0.0
 10
85.43802352464744
 20
-148.4321112367635
 30
0.0
 10
85.39151473559657
 20
-148.5737046612072
 30
0.0
 10
85.20944143920111
 20
-148.6687892966002
 30
0.0
 10
85.01496579905875
 20
-148.7724866707062
 30
0.0
 10
84.77794322967357
 20
-148.7917792054236
 30
0.0
 10
84.61499021322126
 20
-148.7917792054236
 30
0.0
 10
84.47115747671208
 20
-148.7917792054236
 30
0.0
 10
84.21949325151457
 20
-148.7745537279973
 30
0.0
 10
84.02053898724139
 20
-148.6687892966002
 30
0.0
 10
83.81745060838593
 20
-148.5609578079118
 30
0.0
 10
83.79419621386048
 20
-148.4000718487506
 30
0.0
 10
83.79419621386048
 20
-148.2712252776023
 30
0.0
 10
83.79419621386048
 20
-148.1124063757323
 30
0.0
 10
83.83863794562021
 20
-147.9687458939974
 30
0.0
 10
84.02053898724139
 20
-147.873316749056
 30
0.0
 10
84.21311982486686
 20
-147.7740979990808
 30
0.0
 10
84.44152965553893
 20
-147.7506713497811
 30
0.0
 10
84.61499021322126
 20
-147.7506713497811
 30
0.0
 10
84.78638371361244
 20
-147.7506713497811
 30
0.0
 10
85.01703285634992
 20
-147.7720309417896
 30
0.0
 10
85.20944143920111
 20
-147.873316749056
 30
0.0
  0
HATCH
  5
C2
330
BC
100
AcDbEntity
  8
レイヤー 1
 62
   250
420
  2299925
440
 33554687
100
AcDbHatch
 10
0.0
 20
0.0
 30
0.0
210
0.0
220
0.0
230
1.0
  2
SOLID
 70
     1
 71
     1
 91
        2
 92
        1
 93
        1
 72
     4
 94
        3
 73
     0
 74
     0
 95
       17
 96
       13
 40
0.0
 40
0.0
 40
0.0
 40
0.0
 40
1.0
 40
1.0
 40
1.0
 40
2.0
 40
2.0
 40
2.0
 40
3.0
 40
3.0
 40
3.0
 40
4.0
 40
4.0
 40
4.0
 40
4.0
 10
83.98677705148594
 20
-148.2712252776023
 10
83.98677705148594
 20
-148.5209947002829
 10
84.27013615514775
 20
-148.5675034893338
 10
84.61499021322126
 20
-148.5675034893338
 10
84.93452281947817
 20
-148.5675034893338
 10
85.24337562973082
 20
-148.5313299867387
 10
85.24337562973082
 20
-148.2712252776023
 10
85.24337562973082
 20
-148.0235229122128
 10
84.96191132858591
 20
-147.9749470658708
 10
84.61499021322126
 20
-147.9749470658708
 10
84.29562986173859
 20
-147.9749470658708
 10
83.98677705148594
 20
-148.0131876257571
 10
83.98677705148594
 20
-148.2712252776023
 97
        0
 97
        1
330
C0
 92
        1
 93
        1
 72
     4
 94
        3
 73
     0
 74
     0
 95
       29
 96
       25
 40
0.0
 40
0.0
 40
0.0
 40
0.0
 40
1.0
 40
1.0
 40
1.0
 40
2.0
 40
2.0
 40
2.0
 40
3.0
 40
3.0
 40
3.0
 40
4.0
 40
4.0
 40
4.0
 40
5.0
 40
5.0
 40
5.0
 40
6.0
 40
6.0
 40
6.0
 40
7.0
 40
7.0
 40
7.0
 40
8.0
 40
8.0
 40
8.0
 40
8.0
 10
85.20944143920111
 20
-147.873316749056
 10
85.41890324470431
 20
-147.9814927472928
 10
85.43802352464744
 20
-148.1547810502009
 10
85.43802352464744
 20
-148.2712252776023
 10
85.43802352464744
 20
-148.4321112367635
 10
85.39151473559657
 20
-148.5737046612072
 10
85.20944143920111
 20
-148.6687892966002
 10
85.01496579905875
 20
-148.7724866707062
 10
84.77794322967357
 20
-148.7917792054236
 10
84.61499021322126
 20
-148.7917792054236
 10
84.47115747671208
 20
-148.7917792054236
 10
84.21949325151457
 20
-148.7745537279973
 10
84.02053898724139
 20
-148.6687892966002
 10
83.81745060838593
 20
-148.5609578079118
 10
83.79419621386048
 20
-148.4000718487506
 10
83.79419621386048
 20
-148.2712252776023
 10
83.79419621386048
 20
-148.1124063757323
 10
83.83863794562021
 20
-147.9687458939974
 10
84.02053898724139
 20
-147.873316749056
 10
84.21311982486686
 20
-147.7740979990808
 10
84.44152965553893
 20
-147.7506713497811
 10
84.61499021322126
 20
-147.7506713497811
 10
84.78638371361244
 20
-147.7506713497811
 10
85.01703285634992
 20
-147.7720309417896
 10
85.20944143920111
 20
-147.873316749056
 97
        0
 97
        1
330
C1
 75
     2
 76
     1
 98
        1
 10
0.0
 20
0.0
450
        0
451
        0
460
0.0
461
0.0
452
        0
462
0.0
453
        0
470

  0
SPLINE
  5
C3
330
BC
100
AcDbEntity
  8
レイヤー 1
100
AcDbSpline
210
0.0
220
0.0
230
1.0
 70
    11
 71
     3
 72
    17
 73
    13
 74
     0
 42
0.0000000001
 43
0.0000000001
 40
0.0
 40
0.0
 40
0.0
 40
0.0
 40
1.0
 40
1.0
 40
1.0
 40
2.0
 40
2.0
 40
2.0
 40
3.0
 40
3.0
 40
3.0
 40
4.0
 40
4.0
 40
4.0
 40
4.0
 10
85.38720836623999
 20
-147.5343193533074
 30
0.0
 10
85.38720836623999
 20
-147.5343193533074
 30
0.0
 10
85.1355441410425
 20
-147.5343193533074
 30
0.0
 10
85.1355441410425
 20
-147.5343193533074
 30
0.0
 10
85.1355441410425
 20
-147.5343193533074
 30
0.0
 10
85.1355441410425
 20
-147.2824828733356
 30
0.0
 10
85.1355441410425
 20
-147.2824828733356
 30
0.0
 10
85.1355441410425
 20
-147.2824828733356
 30
0.0
 10
85.38720836623999
 20
-147.2824828733356
 30
0.0
 10
85.38720836623999
 20
-147.2824828733356
 30
0.0
 10
85.38720836623999
 20
-147.2824828733356
 30
0.0
 10
85.38720836623999
 20
-147.5343193533074
 30
0.0
 10
85.38720836623999
 20
-147.5343193533074
 30
0.0
  0
HATCH
  5
C4
330
BC
100
AcDbEntity
  8
レイヤー 1
 62
   250
420
  2299925
440
 33554687
100
AcDbHatch
 10
0.0
 20
0.0
 30
0.0
210
0.0
220
0.0
230
1.0
  2
SOLID
 70
     1
 71
     1
 91
        1
 92
        1
 93
        1
 72
     4
 94
        3
 73
     0
 74
     0
 95
       17
 96
       13
 40
0.0
 40
0.0
 40
0.0
 40
0.0
 40
1.0
 40
1.0
 40
1.0
 40
2.0
 40
2.0
 40
2.0
 40
3.0
 40
3.0
 40
3.0
 40
4.0
 40
4.0
 40
4.0
 40
4.0
 10
85.38720836623999
 20
-147.5343193533074
 10
85.38720836623999
 20
-147.5343193533074
 10
85.1355441410425
 20
-147.5343193533074
 10
85.1355441410425
 20
-147.5343193533074
 10
85.1355441410425
 20
-147.5343193533074
 10
85.1355441410425
 20
-147.2824828733356
 10
85.1355441410425
 20
-147.2824828733356
 10
85.1355441410425
 20
-147.2824828733356
 10
85.38720836623999
 20
-147.2824828733356
 10
85.38720836623999
 20
-147.2824828733356
 10
85.38720836623999
 20
-147.2824828733356
 10
85.38720836623999
 20
-147.5343193533074
 10
85.38720836623999
 20
-147.5343193533074
 97
        0
 97
        1
330
C3
 75
     2
 76
     1
 98
        1
 10
0.0
 20
0.0
450
        0
451
        0
460
0.0
461
0.0
452
        0
462
0.0
453
        0
470

  0
SPLINE
  5
C5
330
BC
100
AcDbEntity
  8
レイヤー 1
100
AcDbSpline
210
0.0
220
0.0
230
1.0
 70
     9
 71
     3
 72
    53
 73
    49
 74
     0
 42
0.0000000001
 43
0.0000000001
 40
0.0
 40
0.0
 40
0.0
 40
0.0
 40
1.0
 40
1.0
 40
1.0
 40
2.0
 40
2.0
 40
2.0
 40
3.0
 40
3.0
 40
3.0
 40
4.0
 40
4.0
 40
4.0
 40
5.0
 40
5.0
 40
5.0
 40
6.0
 40
6.0
 40
6.0
 40
7.0
 40
7.0
 40
7.0
 40
8.0
 40
8.0
 40
8.0
 40
9.0
 40
9.0
 40
9.0
 40
10.0
 40
10.0
 40
10.0
 40
11.0
 40
11.0
 40
11.0
 40
12.0
 40
12.0
 40
12.0
 40
13.0
 40
13.0
 40
13.0
 40
14.0
 40
14.0
 40
14.0
 40
15.0
 40
15.0
 40
15.0
 40
16.0
 40
16.0
 40
16.0
 40
16.0
 10
85.43802352464744
 20
-146.5652139933066
 30
0.0
 10
85.43802352464744
 20
-146.6434176608218
 30
0.0
 10
85.42114255676972
 20
-146.7450479776366
 30
0.0
 10
85.35758054506684
 20
-146.8466782944515
 30
0.0
 10
85.24750974431311
 20
-147.0199665973596
 30
0.0
 10
85.11642386109937
 20
-147.0413261893681
 30
0.0
 10
85.00859237241105
 20
-147.060274214537
 30
0.0
 10
85.00859237241105
 20
-147.060274214537
 30
0.0
 10
85.00859237241105
 20
-146.8380655557384
 30
0.0
 10
85.00859237241105
 20
-146.8380655557384
 30
0.0
 10
85.20737438190996
 20
-146.7832885375229
 30
0.0
 10
85.23700220308311
 20
-146.6561645141172
 30
0.0
 10
85.23700220308311
 20
-146.5631469360154
 30
0.0
 10
85.23700220308311
 20
-146.4236205688628
 30
0.0
 10
85.13761119833366
 20
-146.2713473484148
 30
0.0
 10
84.90489499830502
 20
-146.2713473484148
 30
0.0
 10
84.64892440375097
 20
-146.2713473484148
 30
0.0
 10
84.57916122017465
 20
-146.4511813327448
 30
0.0
 10
84.57916122017465
 20
-146.5717596747285
 30
0.0
 10
84.57916122017465
 20
-146.6034545531929
 30
0.0
 10
84.57916122017465
 20
-146.7450479776366
 30
0.0
 10
84.70818004609727
 20
-146.8339314411561
 30
0.0
 10
84.70818004609727
 20
-146.8339314411561
 30
0.0
 10
84.68905976615413
 20
-147.0096313109038
 30
0.0
 10
84.68905976615413
 20
-147.0096313109038
 30
0.0
 10
84.68905976615413
 20
-147.0096313109038
 30
0.0
 10
83.84294431497677
 20
-146.8890529689201
 30
0.0
 10
83.84294431497677
 20
-146.8890529689201
 30
0.0
 10
83.84294431497677
 20
-146.8890529689201
 30
0.0
 10
83.84294431497677
 20
-146.1104613892536
 30
0.0
 10
83.84294431497677
 20
-146.1104613892536
 30
0.0
 10
83.84294431497677
 20
-146.1104613892536
 30
0.0
 10
84.03759220989339
 20
-146.1104613892536
 30
0.0
 10
84.03759220989339
 20
-146.1104613892536
 30
0.0
 10
84.03759220989339
 20
-146.1104613892536
 30
0.0
 10
84.03759220989339
 20
-146.7260999524678
 30
0.0
 10
84.03759220989339
 20
-146.7260999524678
 30
0.0
 10
84.03759220989339
 20
-146.7260999524678
 30
0.0
 10
84.46064993548207
 20
-146.7915567666875
 30
0.0
 10
84.46064993548207
 20
-146.7915567666875
 30
0.0
 10
84.42671574495234
 20
-146.73023406705
 30
0.0
 10
84.38658038254919
 20
-146.6478962849526
 30
0.0
 10
84.38658038254919
 20
-146.52938500026
 30
0.0
 10
84.38658038254919
 20
-146.2754814629971
 30
0.0
 10
84.57278779352694
 20
-146.0384588936119
 30
0.0
 10
84.88577471836189
 20
-146.0384588936119
 30
0.0
 10
85.20324026732767
 20
-146.0384588936119
 30
0.0
 10
85.43802352464744
 20
-146.2627346097017
 30
0.0
 10
85.43802352464744
 20
-146.5652139933066
 30
0.0
  0
HATCH
  5
C6
330
BC
100
AcDbEntity
  8
レイヤー 1
 62
   250
420
  2299925
440
 33554687
100
AcDbHatch
 10
0.0
 20
0.0
 30
0.0
210
0.0
220
0.0
230
1.0
  2
SOLID
 70
     1
 71
     1
 91
        1
 92
        1
 93
        1
 72
     4
 94
        3
 73
     0
 74
     0
 95
       53
 96
       49
 40
0.0
 40
0.0
 40
0.0
 40
0.0
 40
1.0
 40
1.0
 40
1.0
 40
2.0
 40
2.0
 40
2.0
 40
3.0
 40
3.0
 40
3.0
 40
4.0
 40
4.0
 40
4.0
 40
5.0
 40
5.0
 40
5.0
 40
6.0
 40
6.0
 40
6.0
 40
7.0
 40
7.0
 40
7.0
 40
8.0
 40
8.0
 40
8.0
 40
9.0
 40
9.0
 40
9.0
 40
10.0
 40
10.0
 40
10.0
 40
11.0
 40
11.0
 40
11.0
 40
12.0
 40
12.0
 40
12.0
 40
13.0
 40
13.0
 40
13.0
 40
14.0
 40
14.0
 40
14.0
 40
15.0
 40
15.0
 40
15.0
 40
16.0
 40
16.0
 40
16.0
 40
16.0
 10
85.43802352464744
 20
-146.5652139933066
 10
85.43802352464744
 20
-146.6434176608218
 10
85.42114255676972
 20
-146.7450479776366
 10
85.35758054506684
 20
-146.8466782944515
 10
85.24750974431311
 20
-147.0199665973596
 10
85.11642386109937
 20
-147.0413261893681
 10
85.00859237241105
 20
-147.060274214537
 10
85.00859237241105
 20
-147.060274214537
 10
85.00859237241105
 20
-146.8380655557384
 10
85.00859237241105
 20
-146.8380655557384
 10
85.20737438190996
 20
-146.7832885375229
 10
85.23700220308311
 20
-146.6561645141172
 10
85.23700220308311
 20
-146.5631469360154
 10
85.23700220308311
 20
-146.4236205688628
 10
85.13761119833366
 20
-146.2713473484148
 10
84.90489499830502
 20
-146.2713473484148
 10
84.64892440375097
 20
-146.2713473484148
 10
84.57916122017465
 20
-146.4511813327448
 10
84.57916122017465
 20
-146.5717596747285
 10
84.57916122017465
 20
-146.6034545531929
 10
84.57916122017465
 20
-146.7450479776366
 10
84.70818004609727
 20
-146.8339314411561
 10
84.70818004609727
 20
-146.8339314411561
 10
84.68905976615413
 20
-147.0096313109038
 10
84.68905976615413
 20
-147.0096313109038
 10
84.68905976615413
 20
-147.0096313109038
 10
83.84294431497677
 20
-146.8890529689201
 10
83.84294431497677
 20
-146.8890529689201
 10
83.84294431497677
 20
-146.8890529689201
 10
83.84294431497677
 20
-146.1104613892536
 10
83.84294431497677
 20
-146.1104613892536
 10
83.84294431497677
 20
-146.1104613892536
 10
84.03759220989339
 20
-146.1104613892536
 10
84.03759220989339
 20
-146.1104613892536
 10
84.03759220989339
 20
-146.1104613892536
 10
84.03759220989339
 20
-146.7260999524678
 10
84.03759220989339
 20
-146.7260999524678
 10
84.03759220989339
 20
-146.7260999524678
 10
84.46064993548207
 20
-146.7915567666875
 10
84.46064993548207
 20
-146.7915567666875
 10
84.42671574495234
 20
-146.73023406705
 10
84.38658038254919
 20
-146.6478962849526
 10
84.38658038254919
 20
-146.52938500026
 10
84.38658038254919
 20
-146.2754814629971
 10
84.57278779352694
 20
-146.0384588936119
 10
84.88577471836189
 20
-146.0384588936119
 10
85.20324026732767
 20
-146.0384588936119
 10
85.43802352464744
 20
-146.2627346097017
 10
85.43802352464744
 20
-146.5652139933066
 97
        0
 97
        1
330
C5
 75
     2
 76
     1
 98
        1
 10
0.0
 20
0.0
450
        0
451
        0
460
0.0
461
0.0
452
        0
462
0.0
453
        0
470

  0
ENDBLK
  5
BF
330
BC
100
AcDbEntity
  8
0
100
AcDbBlockEnd
  0
BLOCK
  5
CB
330
C9
100
AcDbEntity
  8
0
100
AcDbBlockBegin
  2
Block_3
 70
     0
 10
0.0
 20
0.0
 30
0.0
  3
Block_3
  1

  0
INSERT
  5
CE
330
C9
100
AcDbEntity
  8
レイヤー 1
100
AcDbBlockReference
  2
Block_4
 10
0.0
 20
0.0
 30
0.0
  0
ENDBLK
  5
CC
330
C9
100
AcDbEntity
  8
0
100
AcDbBlockEnd
  0
BLOCK
  5
CF
330
CD
100
AcDbEntity
  8
0
100
AcDbBlockBegin
  2
Block_4
 70
     0
 10
0.0
 20
0.0
 30
0.0
  3
Block_4
  1

  0
SPLINE
  5
D1
330
CD
100
AcDbEntity
  8
レイヤー 1
100
AcDbSpline
210
0.0
220
0.0
230
1.0
 70
     9
 71
     3
 72
    44
 73
    40
 74
     0
 42
0.0000000001
 43
0.0000000001
 40
0.0
 40
0.0
 40
0.0
 40
0.0
 40
1.0
 40
1.0
 40
1.0
 40
2.0
 40
2.0
 40
2.0
 40
3.0
 40
3.0
 40
3.0
 40
4.0
 40
4.0
 40
4.0
 40
5.0
 40
5.0
 40
5.0
 40
6.0
 40
6.0
 40
6.0
 40
7.0
 40
7.0
 40
7.0
 40
8.0
 40
8.0
 40
8.0
 40
9.0
 40
9.0
 40
9.0
 40
10.0
 40
10.0
 40
10.0
 40
11.0
 40
11.0
 40
11.0
 40
12.0
 40
12.0
 40
12.0
 40
13.0
 40
13.0
 40
13.0
 40
13.0
 10
100.8358777959716
 20
-141.1016370632489
 30
0.0
 10
100.6179755065295
 20
-141.2602837103446
 30
0.0
 10
100.5247856736535
 20
-141.3343532632775
 30
0.0
 10
100.4762098273115
 20
-141.4781859997867
 30
0.0
 10
100.4762098273115
 20
-141.4781859997867
 30
0.0
 10
101.2546291522037
 20
-141.4781859997867
 30
0.0
 10
101.2546291522037
 20
-141.4781859997867
 30
0.0
 10
101.2546291522037
 20
-141.4781859997867
 30
0.0
 10
101.2546291522037
 20
-141.6833414359333
 30
0.0
 10
101.2546291522037
 20
-141.6833414359333
 30
0.0
 10
101.2546291522037
 20
-141.6833414359333
 30
0.0
 10
100.2266126594051
 20
-141.6833414359333
 30
0.0
 10
100.2266126594051
 20
-141.6833414359333
 30
0.0
 10
100.2583075378694
 20
-141.3257405245644
 30
0.0
 10
100.3237643520892
 20
-141.2475368570492
 30
0.0
 10
100.7089260273401
 20
-140.9491915880266
 30
0.0
 10
100.9648966218942
 20
-140.7504095785277
 30
0.0
 10
101.0303534361139
 20
-140.6827134522425
 30
0.0
 10
101.0303534361139
 20
-140.545254142381
 30
0.0
 10
101.0303534361139
 20
-140.4267428576884
 30
0.0
 10
100.9585231952465
 20
-140.2954847197004
 30
0.0
 10
100.7618082430387
 20
-140.2954847197004
 30
0.0
 10
100.5015312791281
 20
-140.2954847197004
 30
0.0
 10
100.4930907951892
 20
-140.5261338624379
 30
0.0
 10
100.4887844258327
 20
-140.6425780898393
 30
0.0
 10
100.4887844258327
 20
-140.6425780898393
 30
0.0
 10
100.2646809645171
 20
-140.6425780898393
 30
0.0
 10
100.2646809645171
 20
-140.6425780898393
 30
0.0
 10
100.273121448456
 20
-140.5156263212079
 30
0.0
 10
100.283628989686
 20
-140.403488463163
 30
0.0
 10
100.3640719692666
 20
-140.2849771784704
 30
0.0
 10
100.4739705152461
 20
-140.1242634740835
 30
0.0
 10
100.6601779262238
 20
-140.0903292835538
 30
0.0
 10
100.7766221536253
 20
-140.0903292835538
 30
0.0
 10
101.0537800854136
 20
-140.0903292835538
 30
0.0
 10
101.2610025788514
 20
-140.2744696372404
 30
0.0
 10
101.2610025788514
 20
-140.5473211996722
 30
0.0
 10
101.2610025788514
 20
-140.7757310303443
 30
0.0
 10
101.1447306062242
 20
-140.8752942898679
 30
0.0
 10
100.8358777959716
 20
-141.1016370632489
 30
0.0
  0
HATCH
  5
D2
330
CD
100
AcDbEntity
  8
レイヤー 1
 62
   250
420
  2299925
440
 33554687
100
AcDbHatch
 10
0.0
 20
0.0
 30
0.0
210
0.0
220
0.0
230
1.0
  2
SOLID
 70
     1
 71
     1
 91
        1
 92
        1
 93
        1
 72
     4
 94
        3
 73
     0
 74
     0
 95
       44
 96
       40
 40
0.0
 40
0.0
 40
0.0
 40
0.0
 40
1.0
 40
1.0
 40
1.0
 40
2.0
 40
2.0
 40
2.0
 40
3.0
 40
3.0
 40
3.0
 40
4.0
 40
4.0
 40
4.0
 40
5.0
 40
5.0
 40
5.0
 40
6.0
 40
6.0
 40
6.0
 40
7.0
 40
7.0
 40
7.0
 40
8.0
 40
8.0
 40
8.0
 40
9.0
 40
9.0
 40
9.0
 40
10.0
 40
10.0
 40
10.0
 40
11.0
 40
11.0
 40
11.0
 40
12.0
 40
12.0
 40
12.0
 40
13.0
 40
13.0
 40
13.0
 40
13.0
 10
100.8358777959716
 20
-141.1016370632489
 10
100.6179755065295
 20
-141.2602837103446
 10
100.5247856736535
 20
-141.3343532632775
 10
100.4762098273115
 20
-141.4781859997867
 10
100.4762098273115
 20
-141.4781859997867
 10
101.2546291522037
 20
-141.4781859997867
 10
101.2546291522037
 20
-141.4781859997867
 10
101.2546291522037
 20
-141.4781859997867
 10
101.2546291522037
 20
-141.6833414359333
 10
101.2546291522037
 20
-141.6833414359333
 10
101.2546291522037
 20
-141.6833414359333
 10
100.2266126594051
 20
-141.6833414359333
 10
100.2266126594051
 20
-141.6833414359333
 10
100.2583075378694
 20
-141.3257405245644
 10
100.3237643520892
 20
-141.2475368570492
 10
100.7089260273401
 20
-140.9491915880266
 10
100.9648966218942
 20
-140.7504095785277
 10
101.0303534361139
 20
-140.6827134522425
 10
101.0303534361139
 20
-140.545254142381
 10
101.0303534361139
 20
-140.4267428576884
 10
100.9585231952465
 20
-140.2954847197004
 10
100.7618082430387
 20
-140.2954847197004
 10
100.5015312791281
 20
-140.2954847197004
 10
100.4930907951892
 20
-140.5261338624379
 10
100.4887844258327
 20
-140.6425780898393
 10
100.4887844258327
 20
-140.6425780898393
 10
100.2646809645171
 20
-140.6425780898393
 10
100.2646809645171
 20
-140.6425780898393
 10
100.273121448456
 20
-140.5156263212079
 10
100.283628989686
 20
-140.403488463163
 10
100.3640719692666
 20
-140.2849771784704
 10
100.4739705152461
 20
-140.1242634740835
 10
100.6601779262238
 20
-140.0903292835538
 10
100.7766221536253
 20
-140.0903292835538
 10
101.0537800854136
 20
-140.0903292835538
 10
101.2610025788514
 20
-140.2744696372404
 10
101.2610025788514
 20
-140.5473211996722
 10
101.2610025788514
 20
-140.7757310303443
 10
101.1447306062242
 20
-140.8752942898679
 10
100.8358777959716
 20
-141.1016370632489
 97
        0
 97
        1
330
D1
 75
     2
 76
     1
 98
        1
 10
0.0
 20
0.0
450
        0
451
        0
460
0.0
461
0.0
452
        0
462
0.0
453
        0
470

  0
SPLINE
  5
D3
330
CD
100
AcDbEntity
  8
レイヤー 1
100
AcDbSpline
210
0.0
220
0.0
230
1.0
 70
    11
 71
     3
 72
    26
 73
    22
 74
     0
 42
0.0000000001
 43
0.0000000001
 40
0.0
 40
0.0
 40
0.0
 40
0.0
 40
1.0
 40
1.0
 40
1.0
 40
2.0
 40
2.0
 40
2.0
 40
3.0
 40
3.0
 40
3.0
 40
4.0
 40
4.0
 40
4.0
 40
5.0
 40
5.0
 40
5.0
 40
6.0
 40
6.0
 40
6.0
 40
7.0
 40
7.0
 40
7.0
 40
7.0
 10
101.8709567345149
 20
-141.6833414359333
 30
0.0
 10
101.8709567345149
 20
-141.6833414359333
 30
0.0
 10
101.8709567345149
 20
-140.5790160781365
 30
0.0
 10
101.8709567345149
 20
-140.5790160781365
 30
0.0
 10
101.8709567345149
 20
-140.5790160781365
 30
0.0
 10
101.5409165870279
 20
-140.5790160781365
 30
0.0
 10
101.5409165870279
 20
-140.5790160781365
 30
0.0
 10
101.5409165870279
 20
-140.5790160781365
 30
0.0
 10
101.5409165870279
 20
-140.4308769722707
 30
0.0
 10
101.5409165870279
 20
-140.4308769722707
 30
0.0
 10
101.873023791806
 20
-140.4162353164584
 30
0.0
 10
101.9195325808569
 20
-140.2532823000061
 30
0.0
 10
101.9491604020301
 20
-140.1390773846701
 30
0.0
 10
101.9491604020301
 20
-140.1390773846701
 30
0.0
 10
102.0952324506047
 20
-140.1390773846701
 30
0.0
 10
102.0952324506047
 20
-140.1390773846701
 30
0.0
 10
102.0952324506047
 20
-140.1390773846701
 30
0.0
 10
102.0952324506047
 20
-141.6833414359333
 30
0.0
 10
102.0952324506047
 20
-141.6833414359333
 30
0.0
 10
102.0952324506047
 20
-141.6833414359333
 30
0.0
 10
101.8709567345149
 20
-141.6833414359333
 30
0.0
 10
101.8709567345149
 20
-141.6833414359333
 30
0.0
  0
HATCH
  5
D4
330
CD
100
AcDbEntity
  8
レイヤー 1
 62
   250
420
  2299925
440
 33554687
100
AcDbHatch
 10
0.0
 20
0.0
 30
0.0
210
0.0
220
0.0
230
1.0
  2
SOLID
 70
     1
 71
     1
 91
        1
 92
        1
 93
        1
 72
     4
 94
        3
 73
     0
 74
     0
 95
       26
 96
       22
 40
0.0
 40
0.0
 40
0.0
 40
0.0
 40
1.0
 40
1.0
 40
1.0
 40
2.0
 40
2.0
 40
2.0
 40
3.0
 40
3.0
 40
3.0
 40
4.0
 40
4.0
 40
4.0
 40
5.0
 40
5.0
 40
5.0
 40
6.0
 40
6.0
 40
6.0
 40
7.0
 40
7.0
 40
7.0
 40
7.0
 10
101.8709567345149
 20
-141.6833414359333
 10
101.8709567345149
 20
-141.6833414359333
 10
101.8709567345149
 20
-140.5790160781365
 10
101.8709567345149
 20
-140.5790160781365
 10
101.8709567345149
 20
-140.5790160781365
 10
101.5409165870279
 20
-140.5790160781365
 10
101.5409165870279
 20
-140.5790160781365
 10
101.5409165870279
 20
-140.5790160781365
 10
101.5409165870279
 20
-140.4308769722707
 10
101.5409165870279
 20
-140.4308769722707
 10
101.873023791806
 20
-140.4162353164584
 10
101.9195325808569
 20
-140.2532823000061
 10
101.9491604020301
 20
-140.1390773846701
 10
101.9491604020301
 20
-140.1390773846701
 10
102.0952324506047
 20
-140.1390773846701
 10
102.0952324506047
 20
-140.1390773846701
 10
102.0952324506047
 20
-140.1390773846701
 10
102.0952324506047
 20
-141.6833414359333
 10
102.0952324506047
 20
-141.6833414359333
 10
102.0952324506047
 20
-141.6833414359333
 10
101.8709567345149
 20
-141.6833414359333
 10
101.8709567345149
 20
-141.6833414359333
 97
        0
 97
        1
330
D3
 75
     2
 76
     1
 98
        1
 10
0.0
 20
0.0
450
        0
451
        0
460
0.0
461
0.0
452
        0
462
0.0
453
        0
470

  0
ENDBLK
  5
D0
330
CD
100
AcDbEntity
  8
0
100
AcDbBlockEnd
  0
BLOCK
  5
D9
330
D7
100
AcDbEntity
  8
0
100
AcDbBlockBegin
  2
Block_5
 70
     0
 10
0.0
 20
0.0
 30
0.0
  3
Block_5
  1

  0
SPLINE
  5
DB
330
D7
100
AcDbEntity
  8
レイヤー 1
100
AcDbSpline
210
0.0
220
0.0
230
1.0
 70
     9
 71
     3
 72
    53
 73
    49
 74
     0
 42
0.0000000001
 43
0.0000000001
 40
0.0
 40
0.0
 40
0.0
 40
0.0
 40
1.0
 40
1.0
 40
1.0
 40
2.0
 40
2.0
 40
2.0
 40
3.0
 40
3.0
 40
3.0
 40
4.0
 40
4.0
 40
4.0
 40
5.0
 40
5.0
 40
5.0
 40
6.0
 40
6.0
 40
6.0
 40
7.0
 40
7.0
 40
7.0
 40
8.0
 40
8.0
 40
8.0
 40
9.0
 40
9.0
 40
9.0
 40
10.0
 40
10.0
 40
10.0
 40
11.0
 40
11.0
 40
11.0
 40
12.0
 40
12.0
 40
12.0
 40
13.0
 40
13.0
 40
13.0
 40
14.0
 40
14.0
 40
14.0
 40
15.0
 40
15.0
 40
15.0
 40
16.0
 40
16.0
 40
16.0
 40
16.0
 10
86.16855602229467
 20
-150.1765353357197
 30
0.0
 10
86.16855602229467
 20
-150.2547390032349
 30
0.0
 10
86.15150279964268
 20
-150.3563693200498
 30
0.0
 10
86.08811304271409
 20
-150.4579996368646
 30
0.0
 10
85.97804224196035
 20
-150.6312879397727
 30
0.0
 10
85.84695635874659
 20
-150.6526475317813
 30
0.0
 10
85.73912487005827
 20
-150.6715955569501
 30
0.0
 10
85.73912487005827
 20
-150.6715955569501
 30
0.0
 10
85.73912487005827
 20
-150.4493868981515
 30
0.0
 10
85.73912487005827
 20
-150.4493868981515
 30
0.0
 10
85.93790687955719
 20
-150.394609879936
 30
0.0
 10
85.96753470073034
 20
-150.2674858565303
 30
0.0
 10
85.96753470073034
 20
-150.1744682784286
 30
0.0
 10
85.96753470073034
 20
-150.034941911276
 30
0.0
 10
85.86814369598089
 20
-149.8826686908279
 30
0.0
 10
85.63542749595226
 20
-149.8826686908279
 30
0.0
 10
85.37945690139819
 20
-149.8826686908279
 30
0.0
 10
85.30969371782189
 20
-150.062502675158
 30
0.0
 10
85.30969371782189
 20
-150.1830810171417
 30
0.0
 10
85.30969371782189
 20
-150.214775895606
 30
0.0
 10
85.30969371782189
 20
-150.3563693200498
 30
0.0
 10
85.43871254374449
 20
-150.4452527835692
 30
0.0
 10
85.43871254374449
 20
-150.4452527835692
 30
0.0
 10
85.41959226380136
 20
-150.620952653317
 30
0.0
 10
85.41959226380136
 20
-150.620952653317
 30
0.0
 10
85.41959226380136
 20
-150.620952653317
 30
0.0
 10
84.57347681262399
 20
-150.5003743113332
 30
0.0
 10
84.57347681262399
 20
-150.5003743113332
 30
0.0
 10
84.57347681262399
 20
-150.5003743113332
 30
0.0
 10
84.57347681262399
 20
-149.7217827316668
 30
0.0
 10
84.57347681262399
 20
-149.7217827316668
 30
0.0
 10
84.57347681262399
 20
-149.7217827316668
 30
0.0
 10
84.7681247075406
 20
-149.7217827316668
 30
0.0
 10
84.7681247075406
 20
-149.7217827316668
 30
0.0
 10
84.7681247075406
 20
-149.7217827316668
 30
0.0
 10
84.7681247075406
 20
-150.3374212948809
 30
0.0
 10
84.7681247075406
 20
-150.3374212948809
 30
0.0
 10
84.7681247075406
 20
-150.3374212948809
 30
0.0
 10
85.19118243312929
 20
-150.4028781091006
 30
0.0
 10
85.19118243312929
 20
-150.4028781091006
 30
0.0
 10
85.15724824259958
 20
-150.3415554094632
 30
0.0
 10
85.11711288019641
 20
-150.2592176273657
 30
0.0
 10
85.11711288019641
 20
-150.1407063426731
 30
0.0
 10
85.11711288019641
 20
-149.8868028054102
 30
0.0
 10
85.30332029117417
 20
-149.649780236025
 30
0.0
 10
85.61630721600911
 20
-149.649780236025
 30
0.0
 10
85.9337727649749
 20
-149.649780236025
 30
0.0
 10
86.16855602229467
 20
-149.8740559521148
 30
0.0
 10
86.16855602229467
 20
-150.1765353357197
 30
0.0
  0
HATCH
  5
DC
330
D7
100
AcDbEntity
  8
レイヤー 1
 62
   250
420
  2299925
440
 33554687
100
AcDbHatch
 10
0.0
 20
0.0
 30
0.0
210
0.0
220
0.0
230
1.0
  2
SOLID
 70
     1
 71
     1
 91
        1
 92
        1
 93
        1
 72
     4
 94
        3
 73
     0
 74
     0
 95
       53
 96
       49
 40
0.0
 40
0.0
 40
0.0
 40
0.0
 40
1.0
 40
1.0
 40
1.0
 40
2.0
 40
2.0
 40
2.0
 40
3.0
 40
3.0
 40
3.0
 40
4.0
 40
4.0
 40
4.0
 40
5.0
 40
5.0
 40
5.0
 40
6.0
 40
6.0
 40
6.0
 40
7.0
 40
7.0
 40
7.0
 40
8.0
 40
8.0
 40
8.0
 40
9.0
 40
9.0
 40
9.0
 40
10.0
 40
10.0
 40
10.0
 40
11.0
 40
11.0
 40
11.0
 40
12.0
 40
12.0
 40
12.0
 40
13.0
 40
13.0
 40
13.0
 40
14.0
 40
14.0
 40
14.0
 40
15.0
 40
15.0
 40
15.0
 40
16.0
 40
16.0
 40
16.0
 40
16.0
 10
86.16855602229467
 20
-150.1765353357197
 10
86.16855602229467
 20
-150.2547390032349
 10
86.15150279964268
 20
-150.3563693200498
 10
86.08811304271409
 20
-150.4579996368646
 10
85.97804224196035
 20
-150.6312879397727
 10
85.84695635874659
 20
-150.6526475317813
 10
85.73912487005827
 20
-150.6715955569501
 10
85.73912487005827
 20
-150.6715955569501
 10
85.73912487005827
 20
-150.4493868981515
 10
85.73912487005827
 20
-150.4493868981515
 10
85.93790687955719
 20
-150.394609879936
 10
85.96753470073034
 20
-150.2674858565303
 10
85.96753470073034
 20
-150.1744682784286
 10
85.96753470073034
 20
-150.034941911276
 10
85.86814369598089
 20
-149.8826686908279
 10
85.63542749595226
 20
-149.8826686908279
 10
85.37945690139819
 20
-149.8826686908279
 10
85.30969371782189
 20
-150.062502675158
 10
85.30969371782189
 20
-150.1830810171417
 10
85.30969371782189
 20
-150.214775895606
 10
85.30969371782189
 20
-150.3563693200498
 10
85.43871254374449
 20
-150.4452527835692
 10
85.43871254374449
 20
-150.4452527835692
 10
85.41959226380136
 20
-150.620952653317
 10
85.41959226380136
 20
-150.620952653317
 10
85.41959226380136
 20
-150.620952653317
 10
84.57347681262399
 20
-150.5003743113332
 10
84.57347681262399
 20
-150.5003743113332
 10
84.57347681262399
 20
-150.5003743113332
 10
84.57347681262399
 20
-149.7217827316668
 10
84.57347681262399
 20
-149.7217827316668
 10
84.57347681262399
 20
-149.7217827316668
 10
84.7681247075406
 20
-149.7217827316668
 10
84.7681247075406
 20
-149.7217827316668
 10
84.7681247075406
 20
-149.7217827316668
 10
84.7681247075406
 20
-150.3374212948809
 10
84.7681247075406
 20
-150.3374212948809
 10
84.7681247075406
 20
-150.3374212948809
 10
85.19118243312929
 20
-150.4028781091006
 10
85.19118243312929
 20
-150.4028781091006
 10
85.15724824259958
 20
-150.3415554094632
 10
85.11711288019641
 20
-150.2592176273657
 10
85.11711288019641
 20
-150.1407063426731
 10
85.11711288019641
 20
-149.8868028054102
 10
85.30332029117417
 20
-149.649780236025
 10
85.61630721600911
 20
-149.649780236025
 10
85.9337727649749
 20
-149.649780236025
 10
86.16855602229467
 20
-149.8740559521148
 10
86.16855602229467
 20
-150.1765353357197
 97
        0
 97
        1
330
DB
 75
     2
 76
     1
 98
        1
 10
0.0
 20
0.0
450
        0
451
        0
460
0.0
461
0.0
452
        0
462
0.0
453
        0
470

  0
ENDBLK
  5
DA
330
D7
100
AcDbEntity
  8
0
100
AcDbBlockEnd
  0
BLOCK
  5
E2
330
E0
100
AcDbEntity
  8
0
100
AcDbBlockBegin
  2
Block_6
 70
     0
 10
0.0
 20
0.0
 30
0.0
  3
Block_6
  1

  0
SPLINE
  5
E4
330
E0
100
AcDbEntity
  8
レイヤー 1
100
AcDbSpline
210
0.0
220
0.0
230
1.0
 70
     9
 71
     3
 72
    17
 73
    13
 74
     0
 42
0.0000000001
 43
0.0000000001
 40
0.0
 40
0.0
 40
0.0
 40
0.0
 40
1.0
 40
1.0
 40
1.0
 40
2.0
 40
2.0
 40
2.0
 40
3.0
 40
3.0
 40
3.0
 40
4.0
 40
4.0
 40
4.0
 40
4.0
 10
116.3298502313342
 20
-140.2818765925337
 30
0.0
 10
116.2113389466416
 20
-140.2818765925337
 30
0.0
 10
116.0356390768938
 20
-140.3388929228146
 30
0.0
 10
116.0356390768938
 20
-140.6244913385418
 30
0.0
 10
116.0356390768938
 20
-140.8508341119227
 30
0.0
 10
116.175509953595
 20
-140.9460910020898
 30
0.0
 10
116.3109022061653
 20
-140.9460910020898
 30
0.0
 10
116.5730739725928
 20
-140.9460910020898
 30
0.0
 10
116.6113145324791
 20
-140.7366291965866
 30
0.0
 10
116.6113145324791
 20
-140.6203572239595
 30
0.0
 10
116.6113145324791
 20
-140.4446573542117
 30
0.0
 10
116.5158853875377
 20
-140.2818765925337
 30
0.0
 10
116.3298502313342
 20
-140.2818765925337
 30
0.0
  0
SPLINE
  5
E5
330
E0
100
AcDbEntity
  8
レイヤー 1
100
AcDbSpline
210
0.0
220
0.0
230
1.0
 70
     9
 71
     3
 72
    32
 73
    28
 74
     0
 42
0.0000000001
 43
0.0000000001
 40
0.0
 40
0.0
 40
0.0
 40
0.0
 40
1.0
 40
1.0
 40
1.0
 40
2.0
 40
2.0
 40
2.0
 40
3.0
 40
3.0
 40
3.0
 40
4.0
 40
4.0
 40
4.0
 40
5.0
 40
5.0
 40
5.0
 40
6.0
 40
6.0
 40
6.0
 40
7.0
 40
7.0
 40
7.0
 40
8.0
 40
8.0
 40
8.0
 40
9.0
 40
9.0
 40
9.0
 40
9.0
 10
116.2895426141568
 20
-141.7331230656952
 30
0.0
 10
116.1162543112487
 20
-141.7331230656952
 30
0.0
 10
115.8706190031504
 20
-141.6631876273446
 30
0.0
 10
115.8327229528126
 20
-141.3310804225665
 30
0.0
 10
115.8327229528126
 20
-141.3310804225665
 30
0.0
 10
116.0463188728981
 20
-141.3310804225665
 30
0.0
 10
116.0463188728981
 20
-141.3310804225665
 30
0.0
 10
116.0569986689024
 20
-141.3903360649128
 30
0.0
 10
116.0886935473667
 20
-141.5384751707786
 30
0.0
 10
116.2916096714479
 20
-141.5384751707786
 30
0.0
 10
116.5837537685971
 20
-141.5384751707786
 30
0.0
 10
116.6216498189349
 20
-141.2084350232916
 30
0.0
 10
116.6343966722303
 20
-141.003279587145
 30
0.0
 10
116.5434461514197
 20
-141.0835503119513
 30
0.0
 10
116.4759222799088
 20
-141.1407388970065
 30
0.0
 10
116.2940212382876
 20
-141.1407388970065
 30
0.0
 10
116.1141872539575
 20
-141.1407388970065
 30
0.0
 10
115.8113633608041
 20
-141.0349744656093
 30
0.0
 10
115.8113633608041
 20
-140.6287977078983
 30
0.0
 10
115.8113633608041
 20
-140.3092651016414
 30
0.0
 10
116.0104898798515
 20
-140.0892957549082
 30
0.0
 10
116.327783174043
 20
-140.0892957549082
 30
0.0
 10
116.8417914204423
 20
-140.0892957549082
 30
0.0
 10
116.8524712164466
 20
-140.6436116184849
 30
0.0
 10
116.8524712164466
 20
-140.8572075385704
 30
0.0
 10
116.8524712164466
 20
-141.0878566813079
 30
0.0
 10
116.8331786817292
 20
-141.7331230656952
 30
0.0
 10
116.2895426141568
 20
-141.7331230656952
 30
0.0
  0
HATCH
  5
E6
330
E0
100
AcDbEntity
  8
レイヤー 1
 62
   250
420
  2299925
440
 33554687
100
AcDbHatch
 10
0.0
 20
0.0
 30
0.0
210
0.0
220
0.0
230
1.0
  2
SOLID
 70
     1
 71
     1
 91
        2
 92
        1
 93
        1
 72
     4
 94
        3
 73
     0
 74
     0
 95
       17
 96
       13
 40
0.0
 40
0.0
 40
0.0
 40
0.0
 40
1.0
 40
1.0
 40
1.0
 40
2.0
 40
2.0
 40
2.0
 40
3.0
 40
3.0
 40
3.0
 40
4.0
 40
4.0
 40
4.0
 40
4.0
 10
116.3298502313342
 20
-140.2818765925337
 10
116.2113389466416
 20
-140.2818765925337
 10
116.0356390768938
 20
-140.3388929228146
 10
116.0356390768938
 20
-140.6244913385418
 10
116.0356390768938
 20
-140.8508341119227
 10
116.175509953595
 20
-140.9460910020898
 10
116.3109022061653
 20
-140.9460910020898
 10
116.5730739725928
 20
-140.9460910020898
 10
116.6113145324791
 20
-140.7366291965866
 10
116.6113145324791
 20
-140.6203572239595
 10
116.6113145324791
 20
-140.4446573542117
 10
116.5158853875377
 20
-140.2818765925337
 10
116.3298502313342
 20
-140.2818765925337
 97
        0
 97
        1
330
E4
 92
        1
 93
        1
 72
     4
 94
        3
 73
     0
 74
     0
 95
       32
 96
       28
 40
0.0
 40
0.0
 40
0.0
 40
0.0
 40
1.0
 40
1.0
 40
1.0
 40
2.0
 40
2.0
 40
2.0
 40
3.0
 40
3.0
 40
3.0
 40
4.0
 40
4.0
 40
4.0
 40
5.0
 40
5.0
 40
5.0
 40
6.0
 40
6.0
 40
6.0
 40
7.0
 40
7.0
 40
7.0
 40
8.0
 40
8.0
 40
8.0
 40
9.0
 40
9.0
 40
9.0
 40
9.0
 10
116.2895426141568
 20
-141.7331230656952
 10
116.1162543112487
 20
-141.7331230656952
 10
115.8706190031504
 20
-141.6631876273446
 10
115.8327229528126
 20
-141.3310804225665
 10
115.8327229528126
 20
-141.3310804225665
 10
116.0463188728981
 20
-141.3310804225665
 10
116.0463188728981
 20
-141.3310804225665
 10
116.0569986689024
 20
-141.3903360649128
 10
116.0886935473667
 20
-141.5384751707786
 10
116.2916096714479
 20
-141.5384751707786
 10
116.5837537685971
 20
-141.5384751707786
 10
116.6216498189349
 20
-141.2084350232916
 10
116.6343966722303
 20
-141.003279587145
 10
116.5434461514197
 20
-141.0835503119513
 10
116.4759222799088
 20
-141.1407388970065
 10
116.2940212382876
 20
-141.1407388970065
 10
116.1141872539575
 20
-141.1407388970065
 10
115.8113633608041
 20
-141.0349744656093
 10
115.8113633608041
 20
-140.6287977078983
 10
115.8113633608041
 20
-140.3092651016414
 10
116.0104898798515
 20
-140.0892957549082
 10
116.327783174043
 20
-140.0892957549082
 10
116.8417914204423
 20
-140.0892957549082
 10
116.8524712164466
 20
-140.6436116184849
 10
116.8524712164466
 20
-140.8572075385704
 10
116.8524712164466
 20
-141.0878566813079
 10
116.8331786817292
 20
-141.7331230656952
 10
116.2895426141568
 20
-141.7331230656952
 97
        0
 97
        1
330
E5
 75
     2
 76
     1
 98
        1
 10
0.0
 20
0.0
450
        0
451
        0
460
0.0
461
0.0
452
        0
462
0.0
453
        0
470

  0
ENDBLK
  5
E3
330
E0
100
AcDbEntity
  8
0
100
AcDbBlockEnd
  0
BLOCK
  5
EE
330
EC
100
AcDbEntity
  8
0
100
AcDbBlockBegin
  2
Block_7
 70
     0
 10
0.0
 20
0.0
 30
0.0
  3
Block_7
  1

  0
INSERT
  5
F1
330
EC
100
AcDbEntity
  8
レイヤー 1
100
AcDbBlockReference
  2
Block_8
 10
0.0
 20
0.0
 30
0.0
  0
ENDBLK
  5
EF
330
EC
100
AcDbEntity
  8
0
100
AcDbBlockEnd
  0
BLOCK
  5
F2
330
F0
100
AcDbEntity
  8
0
100
AcDbBlockBegin
  2
Block_8
 70
     0
 10
0.0
 20
0.0
 30
0.0
  3
Block_8
  1

  0
SPLINE
  5
F4
330
F0
100
AcDbEntity
  8
レイヤー 1
100
AcDbSpline
210
0.0
220
0.0
230
1.0
 70
    11
 71
     3
 72
    26
 73
    22
 74
     0
 42
0.0000000001
 43
0.0000000001
 40
0.0
 40
0.0
 40
0.0
 40
0.0
 40
1.0
 40
1.0
 40
1.0
 40
2.0
 40
2.0
 40
2.0
 40
3.0
 40
3.0
 40
3.0
 40
4.0
 40
4.0
 40
4.0
 40
5.0
 40
5.0
 40
5.0
 40
6.0
 40
6.0
 40
6.0
 40
7.0
 40
7.0
 40
7.0
 40
7.0
 10
115.6949191334026
 20
-156.0590358767838
 30
0.0
 10
115.6949191334026
 20
-156.0590358767838
 30
0.0
 10
115.6949191334026
 20
-154.9548827737613
 30
0.0
 10
115.6949191334026
 20
-154.9548827737613
 30
0.0
 10
115.6949191334026
 20
-154.9548827737613
 30
0.0
 10
115.3648789859157
 20
-154.9548827737613
 30
0.0
 10
115.3648789859157
 20
-154.9548827737613
 30
0.0
 10
115.3648789859157
 20
-154.9548827737613
 30
0.0
 10
115.3648789859157
 20
-154.8067436678955
 30
0.0
 10
115.3648789859157
 20
-154.8067436678955
 30
0.0
 10
115.6969861906938
 20
-154.7919297573089
 30
0.0
 10
115.7434949797446
 20
-154.6289767408566
 30
0.0
 10
115.7731228009178
 20
-154.5145995707463
 30
0.0
 10
115.7731228009178
 20
-154.5145995707463
 30
0.0
 10
115.9191948494924
 20
-154.5145995707463
 30
0.0
 10
115.9191948494924
 20
-154.5145995707463
 30
0.0
 10
115.9191948494924
 20
-154.5145995707463
 30
0.0
 10
115.9191948494924
 20
-156.0590358767838
 30
0.0
 10
115.9191948494924
 20
-156.0590358767838
 30
0.0
 10
115.9191948494924
 20
-156.0590358767838
 30
0.0
 10
115.6949191334026
 20
-156.0590358767838
 30
0.0
 10
115.6949191334026
 20
-156.0590358767838
 30
0.0
  0
HATCH
  5
F5
330
F0
100
AcDbEntity
  8
レイヤー 1
 62
   250
420
  2299925
440
 33554687
100
AcDbHatch
 10
0.0
 20
0.0
 30
0.0
210
0.0
220
0.0
230
1.0
  2
SOLID
 70
     1
 71
     1
 91
        1
 92
        1
 93
        1
 72
     4
 94
        3
 73
     0
 74
     0
 95
       26
 96
       22
 40
0.0
 40
0.0
 40
0.0
 40
0.0
 40
1.0
 40
1.0
 40
1.0
 40
2.0
 40
2.0
 40
2.0
 40
3.0
 40
3.0
 40
3.0
 40
4.0
 40
4.0
 40
4.0
 40
5.0
 40
5.0
 40
5.0
 40
6.0
 40
6.0
 40
6.0
 40
7.0
 40
7.0
 40
7.0
 40
7.0
 10
115.6949191334026
 20
-156.0590358767838
 10
115.6949191334026
 20
-156.0590358767838
 10
115.6949191334026
 20
-154.9548827737613
 10
115.6949191334026
 20
-154.9548827737613
 10
115.6949191334026
 20
-154.9548827737613
 10
115.3648789859157
 20
-154.9548827737613
 10
115.3648789859157
 20
-154.9548827737613
 10
115.3648789859157
 20
-154.9548827737613
 10
115.3648789859157
 20
-154.8067436678955
 10
115.3648789859157
 20
-154.8067436678955
 10
115.6969861906938
 20
-154.7919297573089
 10
115.7434949797446
 20
-154.6289767408566
 10
115.7731228009178
 20
-154.5145995707463
 10
115.7731228009178
 20
-154.5145995707463
 10
115.9191948494924
 20
-154.5145995707463
 10
115.9191948494924
 20
-154.5145995707463
 10
115.9191948494924
 20
-154.5145995707463
 10
115.9191948494924
 20
-156.0590358767838
 10
115.9191948494924
 20
-156.0590358767838
 10
115.9191948494924
 20
-156.0590358767838
 10
115.6949191334026
 20
-156.0590358767838
 10
115.6949191334026
 20
-156.0590358767838
 97
        0
 97
        1
330
F4
 75
     2
 76
     1
 98
        1
 10
0.0
 20
0.0
450
        0
451
        0
460
0.0
461
0.0
452
        0
462
0.0
453
        0
470

  0
SPLINE
  5
F6
330
F0
100
AcDbEntity
  8
レイヤー 1
100
AcDbSpline
210
0.0
220
0.0
230
1.0
 70
    11
 71
     3
 72
    26
 73
    22
 74
     0
 42
0.0000000001
 43
0.0000000001
 40
0.0
 40
0.0
 40
0.0
 40
0.0
 40
1.0
 40
1.0
 40
1.0
 40
2.0
 40
2.0
 40
2.0
 40
3.0
 40
3.0
 40
3.0
 40
4.0
 40
4.0
 40
4.0
 40
5.0
 40
5.0
 40
5.0
 40
6.0
 40
6.0
 40
6.0
 40
7.0
 40
7.0
 40
7.0
 40
7.0
 10
116.871763751164
 20
-156.0590358767838
 30
0.0
 10
116.871763751164
 20
-156.0590358767838
 30
0.0
 10
116.871763751164
 20
-154.9548827737613
 30
0.0
 10
116.871763751164
 20
-154.9548827737613
 30
0.0
 10
116.871763751164
 20
-154.9548827737613
 30
0.0
 10
116.541723603677
 20
-154.9548827737613
 30
0.0
 10
116.541723603677
 20
-154.9548827737613
 30
0.0
 10
116.541723603677
 20
-154.9548827737613
 30
0.0
 10
116.541723603677
 20
-154.8067436678955
 30
0.0
 10
116.541723603677
 20
-154.8067436678955
 30
0.0
 10
116.8738308084551
 20
-154.7919297573089
 30
0.0
 10
116.920339597506
 20
-154.6289767408566
 30
0.0
 10
116.9499674186792
 20
-154.5145995707463
 30
0.0
 10
116.9499674186792
 20
-154.5145995707463
 30
0.0
 10
117.0960394672537
 20
-154.5145995707463
 30
0.0
 10
117.0960394672537
 20
-154.5145995707463
 30
0.0
 10
117.0960394672537
 20
-154.5145995707463
 30
0.0
 10
117.0960394672537
 20
-156.0590358767838
 30
0.0
 10
117.0960394672537
 20
-156.0590358767838
 30
0.0
 10
117.0960394672537
 20
-156.0590358767838
 30
0.0
 10
116.871763751164
 20
-156.0590358767838
 30
0.0
 10
116.871763751164
 20
-156.0590358767838
 30
0.0
  0
HATCH
  5
F7
330
F0
100
AcDbEntity
  8
レイヤー 1
 62
   250
420
  2299925
440
 33554687
100
AcDbHatch
 10
0.0
 20
0.0
 30
0.0
210
0.0
220
0.0
230
1.0
  2
SOLID
 70
     1
 71
     1
 91
        1
 92
        1
 93
        1
 72
     4
 94
        3
 73
     0
 74
     0
 95
       26
 96
       22
 40
0.0
 40
0.0
 40
0.0
 40
0.0
 40
1.0
 40
1.0
 40
1.0
 40
2.0
 40
2.0
 40
2.0
 40
3.0
 40
3.0
 40
3.0
 40
4.0
 40
4.0
 40
4.0
 40
5.0
 40
5.0
 40
5.0
 40
6.0
 40
6.0
 40
6.0
 40
7.0
 40
7.0
 40
7.0
 40
7.0
 10
116.871763751164
 20
-156.0590358767838
 10
116.871763751164
 20
-156.0590358767838
 10
116.871763751164
 20
-154.9548827737613
 10
116.871763751164
 20
-154.9548827737613
 10
116.871763751164
 20
-154.9548827737613
 10
116.541723603677
 20
-154.9548827737613
 10
116.541723603677
 20
-154.9548827737613
 10
116.541723603677
 20
-154.9548827737613
 10
116.541723603677
 20
-154.8067436678955
 10
116.541723603677
 20
-154.8067436678955
 10
116.8738308084551
 20
-154.7919297573089
 10
116.920339597506
 20
-154.6289767408566
 10
116.9499674186792
 20
-154.5145995707463
 10
116.9499674186792
 20
-154.5145995707463
 10
117.0960394672537
 20
-154.5145995707463
 10
117.0960394672537
 20
-154.5145995707463
 10
117.0960394672537
 20
-154.5145995707463
 10
117.0960394672537
 20
-156.0590358767838
 10
117.0960394672537
 20
-156.0590358767838
 10
117.0960394672537
 20
-156.0590358767838
 10
116.871763751164
 20
-156.0590358767838
 10
116.871763751164
 20
-156.0590358767838
 97
        0
 97
        1
330
F6
 75
     2
 76
     1
 98
        1
 10
0.0
 20
0.0
450
        0
451
        0
460
0.0
461
0.0
452
        0
462
0.0
453
        0
470

  0
ENDBLK
  5
F3
330
F0
100
AcDbEntity
  8
0
100
AcDbBlockEnd
  0
BLOCK
  5
FC
330
FA
100
AcDbEntity
  8
0
100
AcDbBlockBegin
  2
Block_9
 70
     0
 10
0.0
 20
0.0
 30
0.0
  3
Block_9
  1

  0
SPLINE
  5
FE
330
FA
100
AcDbEntity
  8
レイヤー 1
100
AcDbSpline
210
0.0
220
0.0
230
1.0
 70
    11
 71
     3
 72
    26
 73
    22
 74
     0
 42
0.0000000001
 43
0.0000000001
 40
0.0
 40
0.0
 40
0.0
 40
0.0
 40
1.0
 40
1.0
 40
1.0
 40
2.0
 40
2.0
 40
2.0
 40
3.0
 40
3.0
 40
3.0
 40
4.0
 40
4.0
 40
4.0
 40
5.0
 40
5.0
 40
5.0
 40
6.0
 40
6.0
 40
6.0
 40
7.0
 40
7.0
 40
7.0
 40
7.0
 10
123.7340494482331
 20
-149.5360920850118
 30
0.0
 10
123.7340494482331
 20
-149.5360920850118
 30
0.0
 10
123.7340494482331
 20
-148.431766727215
 30
0.0
 10
123.7340494482331
 20
-148.431766727215
 30
0.0
 10
123.7340494482331
 20
-148.431766727215
 30
0.0
 10
123.4040093007462
 20
-148.431766727215
 30
0.0
 10
123.4040093007462
 20
-148.431766727215
 30
0.0
 10
123.4040093007462
 20
-148.431766727215
 30
0.0
 10
123.4040093007462
 20
-148.2836276213492
 30
0.0
 10
123.4040093007462
 20
-148.2836276213492
 30
0.0
 10
123.7361165055243
 20
-148.2689859655369
 30
0.0
 10
123.7826252945751
 20
-148.1060329490846
 30
0.0
 10
123.8122531157483
 20
-147.9918280337486
 30
0.0
 10
123.8122531157483
 20
-147.9918280337486
 30
0.0
 10
123.9583251643229
 20
-147.9918280337486
 30
0.0
 10
123.9583251643229
 20
-147.9918280337486
 30
0.0
 10
123.9583251643229
 20
-147.9918280337486
 30
0.0
 10
123.9583251643229
 20
-149.5360920850118
 30
0.0
 10
123.9583251643229
 20
-149.5360920850118
 30
0.0
 10
123.9583251643229
 20
-149.5360920850118
 30
0.0
 10
123.7340494482331
 20
-149.5360920850118
 30
0.0
 10
123.7340494482331
 20
-149.5360920850118
 30
0.0
  0
HATCH
  5
FF
330
FA
100
AcDbEntity
  8
レイヤー 1
 62
   250
420
  2299925
440
 33554687
100
AcDbHatch
 10
0.0
 20
0.0
 30
0.0
210
0.0
220
0.0
230
1.0
  2
SOLID
 70
     1
 71
     1
 91
        1
 92
        1
 93
        1
 72
     4
 94
        3
 73
     0
 74
     0
 95
       26
 96
       22
 40
0.0
 40
0.0
 40
0.0
 40
0.0
 40
1.0
 40
1.0
 40
1.0
 40
2.0
 40
2.0
 40
2.0
 40
3.0
 40
3.0
 40
3.0
 40
4.0
 40
4.0
 40
4.0
 40
5.0
 40
5.0
 40
5.0
 40
6.0
 40
6.0
 40
6.0
 40
7.0
 40
7.0
 40
7.0
 40
7.0
 10
123.7340494482331
 20
-149.5360920850118
 10
123.7340494482331
 20
-149.5360920850118
 10
123.7340494482331
 20
-148.431766727215
 10
123.7340494482331
 20
-148.431766727215
 10
123.7340494482331
 20
-148.431766727215
 10
123.4040093007462
 20
-148.431766727215
 10
123.4040093007462
 20
-148.431766727215
 10
123.4040093007462
 20
-148.431766727215
 10
123.4040093007462
 20
-148.2836276213492
 10
123.4040093007462
 20
-148.2836276213492
 10
123.7361165055243
 20
-148.2689859655369
 10
123.7826252945751
 20
-148.1060329490846
 10
123.8122531157483
 20
-147.9918280337486
 10
123.8122531157483
 20
-147.9918280337486
 10
123.9583251643229
 20
-147.9918280337486
 10
123.9583251643229
 20
-147.9918280337486
 10
123.9583251643229
 20
-147.9918280337486
 10
123.9583251643229
 20
-149.5360920850118
 10
123.9583251643229
 20
-149.5360920850118
 10
123.9583251643229
 20
-149.5360920850118
 10
123.7340494482331
 20
-149.5360920850118
 10
123.7340494482331
 20
-149.5360920850118
 97
        0
 97
        1
330
FE
 75
     2
 76
     1
 98
        1
 10
0.0
 20
0.0
450
        0
451
        0
460
0.0
461
0.0
452
        0
462
0.0
453
        0
470

  0
ENDBLK
  5
FD
330
FA
100
AcDbEntity
  8
0
100
AcDbBlockEnd
  0
BLOCK
  5
104
330
102
100
AcDbEntity
  8
0
100
AcDbBlockBegin
  2
Block_10
 70
     0
 10
0.0
 20
0.0
 30
0.0
  3
Block_10
  1

  0
INSERT
  5
107
330
102
100
AcDbEntity
  8
レイヤー 1
100
AcDbBlockReference
  2
Block_11
 10
0.0
 20
0.0
 30
0.0
  0
INSERT
  5
10E
330
102
100
AcDbEntity
  8
レイヤー 1
100
AcDbBlockReference
  2
Block_12
 10
0.0
 20
0.0
 30
0.0
  0
ENDBLK
  5
105
330
102
100
AcDbEntity
  8
0
100
AcDbBlockEnd
  0
BLOCK
  5
108
330
106
100
AcDbEntity
  8
0
100
AcDbBlockBegin
  2
Block_11
 70
     0
 10
0.0
 20
0.0
 30
0.0
  3
Block_11
  1

  0
LINE
  5
10A
330
106
100
AcDbEntity
  8
レイヤー 1
 62
    18
420
        0
370
     9
100
AcDbLine
 10
95.08817341846947
 20
-148.6616864733724
 30
0.0
 11
95.89949173110467
 21
-149.2463098065595
 31
0.0
  0
LINE
  5
10B
330
106
100
AcDbEntity
  8
レイヤー 1
 62
    18
420
        0
370
     9
100
AcDbLine
 10
95.08817341846947
 20
-148.6616864733724
 30
0.0
 11
97.66581474159757
 21
-151.8187653614724
 31
0.0
  0
LINE
  5
10C
330
106
100
AcDbEntity
  8
レイヤー 1
 62
    18
420
        0
370
     9
100
AcDbLine
 10
95.08817341846947
 20
-148.6616864733724
 30
0.0
 11
95.4984892413351
 21
-149.5737934175886
 31
0.0
  0
ENDBLK
  5
109
330
106
100
AcDbEntity
  8
0
100
AcDbBlockEnd
  0
BLOCK
  5
10F
330
10D
100
AcDbEntity
  8
0
100
AcDbBlockBegin
  2
Block_12
 70
     0
 10
0.0
 20
0.0
 30
0.0
  3
Block_12
  1

  0
INSERT
  5
112
330
10D
100
AcDbEntity
  8
レイヤー 1
100
AcDbBlockReference
  2
Block_13
 10
0.0
 20
0.0
 30
0.0
  0
ENDBLK
  5
110
330
10D
100
AcDbEntity
  8
0
100
AcDbBlockEnd
  0
BLOCK
  5
113
330
111
100
AcDbEntity
  8
0
100
AcDbBlockBegin
  2
Block_13
 70
     0
 10
0.0
 20
0.0
 30
0.0
  3
Block_13
  1

  0
SPLINE
  5
115
330
111
100
AcDbEntity
  8
レイヤー 1
100
AcDbSpline
210
0.0
220
0.0
230
1.0
 70
     9
 71
     3
 72
    17
 73
    13
 74
     0
 42
0.0000000001
 43
0.0000000001
 40
0.0
 40
0.0
 40
0.0
 40
0.0
 40
1.0
 40
1.0
 40
1.0
 40
2.0
 40
2.0
 40
2.0
 40
3.0
 40
3.0
 40
3.0
 40
4.0
 40
4.0
 40
4.0
 40
4.0
 10
99.3322658714343
 20
-151.6179632867483
 30
0.0
 10
99.31538490355658
 20
-151.6475911079214
 30
0.0
 10
99.26456974514914
 20
-151.7406086860232
 30
0.0
 10
99.25406220391913
 20
-151.759556711192
 30
0.0
 10
99.44440372947918
 20
-151.8188123535383
 30
0.0
 10
99.46559106671347
 20
-151.8253580349603
 30
0.0
 10
99.53759356235519
 20
-151.8525742892938
 30
0.0
 10
99.59254283534493
 20
-151.766102392614
 30
0.0
 10
99.61579722987037
 20
-151.6920328396811
 30
0.0
 10
99.63061114045693
 20
-151.6179632867483
 30
0.0
 10
99.63061114045693
 20
-151.6179632867483
 30
0.0
 10
99.3322658714343
 20
-151.6179632867483
 30
0.0
 10
99.3322658714343
 20
-151.6179632867483
 30
0.0
  0
SPLINE
  5
116
330
111
100
AcDbEntity
  8
レイヤー 1
100
AcDbSpline
210
0.0
220
0.0
230
1.0
 70
    11
 71
     3
 72
    20
 73
    16
 74
     0
 42
0.0000000001
 43
0.0000000001
 40
0.0
 40
0.0
 40
0.0
 40
0.0
 40
1.0
 40
1.0
 40
1.0
 40
2.0
 40
2.0
 40
2.0
 40
3.0
 40
3.0
 40
3.0
 40
4.0
 40
4.0
 40
4.0
 40
5.0
 40
5.0
 40
5.0
 40
5.0
 10
99.2688761145057
 20
-150.7673692114401
 30
0.0
 10
99.2688761145057
 20
-150.7673692114401
 30
0.0
 10
99.23718123604141
 20
-150.7673692114401
 30
0.0
 10
99.23718123604141
 20
-150.7673692114401
 30
0.0
 10
99.28369002509228
 20
-150.8669324709638
 30
0.0
 10
99.31538490355658
 20
-150.9472031957701
 30
0.0
 10
99.34931909408629
 20
-151.0743272191758
 30
0.0
 10
99.34931909408629
 20
-151.0743272191758
 30
0.0
 10
99.55654158752407
 20
-151.0743272191758
 30
0.0
 10
99.55654158752407
 20
-151.0743272191758
 30
0.0
 10
99.58823646598837
 20
-150.9813096410741
 30
0.0
 10
99.6114908605138
 20
-150.8965602921369
 30
0.0
 10
99.63491750981349
 20
-150.7673692114401
 30
0.0
 10
99.63491750981349
 20
-150.7673692114401
 30
0.0
 10
99.2688761145057
 20
-150.7673692114401
 30
0.0
 10
99.2688761145057
 20
-150.7673692114401
 30
0.0
  0
SPLINE
  5
117
330
111
100
AcDbEntity
  8
レイヤー 1
100
AcDbSpline
210
0.0
220
0.0
230
1.0
 70
     9
 71
     3
 72
   242
 73
   238
 74
     0
 42
0.0000000001
 43
0.0000000001
 40
0.0
 40
0.0
 40
0.0
 40
0.0
 40
1.0
 40
1.0
 40
1.0
 40
2.0
 40
2.0
 40
2.0
 40
3.0
 40
3.0
 40
3.0
 40
4.0
 40
4.0
 40
4.0
 40
5.0
 40
5.0
 40
5.0
 40
6.0
 40
6.0
 40
6.0
 40
7.0
 40
7.0
 40
7.0
 40
8.0
 40
8.0
 40
8.0
 40
9.0
 40
9.0
 40
9.0
 40
10.0
 40
10.0
 40
10.0
 40
11.0
 40
11.0
 40
11.0
 40
12.0
 40
12.0
 40
12.0
 40
13.0
 40
13.0
 40
13.0
 40
14.0
 40
14.0
 40
14.0
 40
15.0
 40
15.0
 40
15.0
 40
16.0
 40
16.0
 40
16.0
 40
17.0
 40
17.0
 40
17.0
 40
18.0
 40
18.0
 40
18.0
 40
19.0
 40
19.0
 40
19.0
 40
20.0
 40
20.0
 40
20.0
 40
21.0
 40
21.0
 40
21.0
 40
22.0
 40
22.0
 40
22.0
 40
23.0
 40
23.0
 40
23.0
 40
24.0
 40
24.0
 40
24.0
 40
25.0
 40
25.0
 40
25.0
 40
26.0
 40
26.0
 40
26.0
 40
27.0
 40
27.0
 40
27.0
 40
28.0
 40
28.0
 40
28.0
 40
29.0
 40
29.0
 40
29.0
 40
30.0
 40
30.0
 40
30.0
 40
31.0
 40
31.0
 40
31.0
 40
32.0
 40
32.0
 40
32.0
 40
33.0
 40
33.0
 40
33.0
 40
34.0
 40
34.0
 40
34.0
 40
35.0
 40
35.0
 40
35.0
 40
36.0
 40
36.0
 40
36.0
 40
37.0
 40
37.0
 40
37.0
 40
38.0
 40
38.0
 40
38.0
 40
39.0
 40
39.0
 40
39.0
 40
40.0
 40
40.0
 40
40.0
 40
41.0
 40
41.0
 40
41.0
 40
42.0
 40
42.0
 40
42.0
 40
43.0
 40
43.0
 40
43.0
 40
44.0
 40
44.0
 40
44.0
 40
45.0
 40
45.0
 40
45.0
 40
46.0
 40
46.0
 40
46.0
 40
47.0
 40
47.0
 40
47.0
 40
48.0
 40
48.0
 40
48.0
 40
49.0
 40
49.0
 40
49.0
 40
50.0
 40
50.0
 40
50.0
 40
51.0
 40
51.0
 40
51.0
 40
52.0
 40
52.0
 40
52.0
 40
53.0
 40
53.0
 40
53.0
 40
54.0
 40
54.0
 40
54.0
 40
55.0
 40
55.0
 40
55.0
 40
56.0
 40
56.0
 40
56.0
 40
57.0
 40
57.0
 40
57.0
 40
58.0
 40
58.0
 40
58.0
 40
59.0
 40
59.0
 40
59.0
 40
60.0
 40
60.0
 40
60.0
 40
61.0
 40
61.0
 40
61.0
 40
62.0
 40
62.0
 40
62.0
 40
63.0
 40
63.0
 40
63.0
 40
64.0
 40
64.0
 40
64.0
 40
65.0
 40
65.0
 40
65.0
 40
66.0
 40
66.0
 40
66.0
 40
67.0
 40
67.0
 40
67.0
 40
68.0
 40
68.0
 40
68.0
 40
69.0
 40
69.0
 40
69.0
 40
70.0
 40
70.0
 40
70.0
 40
71.0
 40
71.0
 40
71.0
 40
72.0
 40
72.0
 40
72.0
 40
73.0
 40
73.0
 40
73.0
 40
74.0
 40
74.0
 40
74.0
 40
75.0
 40
75.0
 40
75.0
 40
76.0
 40
76.0
 40
76.0
 40
77.0
 40
77.0
 40
77.0
 40
78.0
 40
78.0
 40
78.0
 40
79.0
 40
79.0
 40
79.0
 40
79.0
 10
99.897089276241
 20
-151.2328016114973
 30
0.0
 10
99.897089276241
 20
-151.2328016114973
 30
0.0
 10
99.64335799375236
 20
-151.2328016114973
 30
0.0
 10
99.64335799375236
 20
-151.2328016114973
 30
0.0
 10
99.64335799375236
 20
-151.2328016114973
 30
0.0
 10
99.36620006196401
 20
-151.2328016114973
 30
0.0
 10
99.36620006196401
 20
-151.2328016114973
 30
0.0
 10
99.36620006196401
 20
-151.2328016114973
 30
0.0
 10
99.49315183059546
 20
-151.2751762859659
 30
0.0
 10
99.49315183059546
 20
-151.2751762859659
 30
0.0
 10
99.50365937182548
 20
-151.2793104005482
 30
0.0
 10
99.51640622512091
 20
-151.2858560819702
 30
0.0
 10
99.51640622512091
 20
-151.2986029352656
 30
0.0
 10
99.51640622512091
 20
-151.3196180177256
 30
0.0
 10
99.48471134665661
 20
-151.3258191895991
 30
0.0
 10
99.46352400942231
 20
-151.3302978137299
 30
0.0
 10
99.45284421341805
 20
-151.3533799534811
 30
0.0
 10
99.42321639224489
 20
-151.4191812772494
 30
0.0
 10
99.40426836707601
 20
-151.4636230090091
 30
0.0
 10
99.40426836707601
 20
-151.4636230090091
 30
0.0
 10
99.67505287221666
 20
-151.4636230090091
 30
0.0
 10
99.67505287221666
 20
-151.4636230090091
 30
0.0
 10
99.76600339302725
 20
-151.4636230090091
 30
0.0
 10
99.96271834523502
 20
-151.4591443848783
 30
0.0
 10
100.104484024453
 20
-151.4508761557136
 30
0.0
 10
100.104484024453
 20
-151.4508761557136
 30
0.0
 10
100.104484024453
 20
-151.6286430827525
 30
0.0
 10
100.104484024453
 20
-151.6286430827525
 30
0.0
 10
100.0219739875813
 20
-151.6241644586217
 30
0.0
 10
100.000786650347
 20
-151.6241644586217
 30
0.0
 10
99.82095266601699
 20
-151.6200303440394
 30
0.0
 10
99.78925778755268
 20
-151.7743706217786
 30
0.0
 10
99.74481605579297
 20
-151.8549858561335
 30
0.0
 10
99.70037432403325
 20
-151.9245767849355
 30
0.0
 10
99.82095266601699
 20
-151.9838324272818
 30
0.0
 10
99.92671709741415
 20
-152.0517008083412
 30
0.0
 10
100.0304144715201
 20
-152.1340385904387
 30
0.0
 10
100.0304144715201
 20
-152.1340385904387
 30
0.0
 10
99.91190318682759
 20
-152.3011257214733
 30
0.0
 10
99.91190318682759
 20
-152.3011257214733
 30
0.0
 10
99.88864879230215
 20
-152.2821776963044
 30
0.0
 10
99.87607419378099
 20
-152.2735649575913
 30
0.0
 10
99.76393633573611
 20
-152.1891601182027
 30
0.0
 10
99.71518823461982
 20
-152.1509195583164
 30
0.0
 10
99.65593259227352
 20
-152.1150905652698
 30
0.0
 10
99.57566186746721
 20
-152.0706488335101
 30
0.0
 10
99.36413300467286
 20
-152.2566839897136
 30
0.0
 10
99.15880531375197
 20
-152.2801106390133
 30
0.0
 10
98.86907278344246
 20
-152.3097384601864
 30
0.0
 10
98.86907278344246
 20
-152.3097384601864
 30
0.0
 10
98.76537540933645
 20
-152.1299044758564
 30
0.0
 10
98.76537540933645
 20
-152.1299044758564
 30
0.0
 10
99.08266870352795
 20
-152.1257703612741
 30
0.0
 10
99.25819631850144
 20
-152.1002766546833
 30
0.0
 10
99.41064179372373
 20
-151.9903781087038
 30
0.0
 10
99.29213050903115
 20
-151.9393906955221
 30
0.0
 10
99.2032470455117
 20
-151.9118299316401
 30
0.0
 10
99.16724579769084
 20
-151.8994275878932
 30
0.0
 10
99.14829777252196
 20
-151.9266438422266
 30
0.0
 10
99.1334838619354
 20
-151.945936376944
 30
0.0
 10
99.10592309805338
 20
-151.9796983126995
 30
0.0
 10
99.10592309805338
 20
-151.9796983126995
 30
0.0
 10
98.90920814584562
 20
-151.8970160210535
 30
0.0
 10
98.90920814584562
 20
-151.8970160210535
 30
0.0
 10
98.99171818271735
 20
-151.8167452962472
 30
0.0
 10
99.0530408823548
 20
-151.7216606608543
 30
0.0
 10
99.11022946740995
 20
-151.6200303440394
 30
0.0
 10
98.91971568707564
 20
-151.6241644586217
 30
0.0
 10
98.89870060461561
 20
-151.6241644586217
 30
0.0
 10
98.81619056774388
 20
-151.6286430827525
 30
0.0
 10
98.81619056774388
 20
-151.6286430827525
 30
0.0
 10
98.81619056774388
 20
-151.4508761557136
 30
0.0
 10
98.81619056774388
 20
-151.4508761557136
 30
0.0
 10
98.9557169348965
 20
-151.4570773275871
 30
0.0
 10
99.16517874039968
 20
-151.4612114421694
 30
0.0
 10
99.19050019221627
 20
-151.4612114421694
 30
0.0
 10
99.20755341486826
 20
-151.427449506414
 30
0.0
 10
99.262502687858
 20
-151.3068711644302
 30
0.0
 10
99.28162296780113
 20
-151.2328016114973
 30
0.0
 10
99.262502687858
 20
-151.2328016114973
 30
0.0
 10
99.0847357608191
 20
-151.2393472929193
 30
0.0
 10
98.89008786590249
 20
-151.2520941462147
 30
0.0
 10
98.89008786590249
 20
-151.2520941462147
 30
0.0
 10
98.89008786590249
 20
-151.3850748319454
 30
0.0
 10
98.89008786590249
 20
-151.3850748319454
 30
0.0
 10
98.84151201956045
 20
-151.4105685385362
 30
0.0
 10
98.78225637721417
 20
-151.4422634170005
 30
0.0
 10
98.64893118193499
 20
-151.5080647407688
 30
0.0
 10
98.64893118193499
 20
-151.5080647407688
 30
0.0
 10
98.64893118193499
 20
-151.6537922797949
 30
0.0
 10
98.64893118193499
 20
-151.6537922797949
 30
0.0
 10
98.64893118193499
 20
-151.6537922797949
 30
0.0
 10
98.64893118193499
 20
-152.1212917371433
 30
0.0
 10
98.64893118193499
 20
-152.1212917371433
 30
0.0
 10
98.64893118193499
 20
-152.248415760549
 30
0.0
 10
98.61310218888839
 20
-152.3076714028953
 30
0.0
 10
98.32957083045235
 20
-152.2990586641822
 30
0.0
 10
98.32957083045235
 20
-152.2990586641822
 30
0.0
 10
98.22587345634632
 20
-152.0916639159701
 30
0.0
 10
98.22587345634632
 20
-152.0916639159701
 30
0.0
 10
98.28943546804918
 20
-152.1044107692655
 30
0.0
 10
98.3380113143912
 20
-152.1088893933964
 30
0.0
 10
98.37814667679436
 20
-152.1088893933964
 30
0.0
 10
98.45445554179264
 20
-152.1088893933964
 30
0.0
 10
98.46496308302265
 20
-152.0854627440967
 30
0.0
 10
98.46496308302265
 20
-152.0200059298769
 30
0.0
 10
98.46496308302265
 20
-152.0200059298769
 30
0.0
 10
98.46496308302265
 20
-151.5904025228663
 30
0.0
 10
98.46496308302265
 20
-151.5904025228663
 30
0.0
 10
98.36763913556435
 20
-151.6307101400437
 30
0.0
 10
98.35075816768663
 20
-151.6369113119172
 30
0.0
 10
98.30424937863575
 20
-151.655859337086
 30
0.0
 10
98.2999430092792
 20
-151.6772189290946
 30
0.0
 10
98.29563663992262
 20
-151.7068467502677
 30
0.0
 10
98.27668861475375
 20
-151.7068467502677
 30
0.0
 10
98.26824813081488
 20
-151.7068467502677
 30
0.0
 10
98.25756833481062
 20
-151.7027126356854
 30
0.0
 10
98.25136716293716
 20
-151.6792859863857
 30
0.0
 10
98.25136716293716
 20
-151.6792859863857
 30
0.0
 10
98.19848494723858
 20
-151.4867051487603
 30
0.0
 10
98.19848494723858
 20
-151.4867051487603
 30
0.0
 10
98.3443847410389
 20
-151.4401963597094
 30
0.0
 10
98.41001381003293
 20
-151.4171142199582
 30
0.0
 10
98.46496308302265
 20
-151.3957546279497
 30
0.0
 10
98.46496308302265
 20
-151.3957546279497
 30
0.0
 10
98.46496308302265
 20
-150.9833766983653
 30
0.0
 10
98.46496308302265
 20
-150.9833766983653
 30
0.0
 10
98.46496308302265
 20
-150.9833766983653
 30
0.0
 10
98.41208086732407
 20
-150.9833766983653
 30
0.0
 10
98.41208086732407
 20
-150.9833766983653
 30
0.0
 10
98.41208086732407
 20
-150.9833766983653
 30
0.0
 10
98.33387719980891
 20
-150.9833766983653
 30
0.0
 10
98.33387719980891
 20
-150.9833766983653
 30
0.0
 10
98.26618107352373
 20
-150.9833766983653
 30
0.0
 10
98.25756833481062
 20
-150.9833766983653
 30
0.0
 10
98.22173934176403
 20
-150.9895778702387
 30
0.0
 10
98.22173934176403
 20
-150.9895778702387
 30
0.0
 10
98.22173934176403
 20
-150.7949299753221
 30
0.0
 10
98.22173934176403
 20
-150.7949299753221
 30
0.0
 10
98.24912785087175
 20
-150.8014756567441
 30
0.0
 10
98.25756833481062
 20
-150.8014756567441
 30
0.0
 10
98.32750377316118
 20
-150.8014756567441
 30
0.0
 10
98.32750377316118
 20
-150.8014756567441
 30
0.0
 10
98.46065671366609
 20
-150.8014756567441
 30
0.0
 10
98.46065671366609
 20
-150.8014756567441
 30
0.0
 10
98.46065671366609
 20
-150.7315402183935
 30
0.0
 10
98.46065671366609
 20
-150.6488579267475
 30
0.0
 10
98.45858965637495
 20
-150.6447238121652
 30
0.0
 10
98.45014917243609
 20
-150.4648898278352
 30
0.0
 10
98.45014917243609
 20
-150.4459418026663
 30
0.0
 10
98.44808211514493
 20
-150.3994330136154
 30
0.0
 10
98.44808211514493
 20
-150.3994330136154
 30
0.0
 10
98.66374509252157
 20
-150.40770124278
 30
0.0
 10
98.66374509252157
 20
-150.40770124278
 30
0.0
 10
98.67442488852585
 20
-150.40770124278
 30
0.0
 10
98.69561222576013
 20
-150.4101128096197
 30
0.0
 10
98.69561222576013
 20
-150.4269937774974
 30
0.0
 10
98.69561222576013
 20
-150.4459418026663
 30
0.0
 10
98.68079831517356
 20
-150.4566215986706
 30
0.0
 10
98.65530460858272
 20
-150.4755696238394
 30
0.0
 10
98.65530460858272
 20
-150.5262125274726
 30
0.0
 10
98.64893118193499
 20
-150.7549668676932
 30
0.0
 10
98.65117049400041
 20
-150.8014756567441
 30
0.0
 10
98.78018931992301
 20
-150.8014756567441
 30
0.0
 10
98.79293617321843
 20
-150.8014756567441
 30
0.0
 10
98.89008786590249
 20
-150.7928629180309
 30
0.0
 10
98.89008786590249
 20
-150.7928629180309
 30
0.0
 10
98.89008786590249
 20
-150.9875108129475
 30
0.0
 10
98.89008786590249
 20
-150.9875108129475
 30
0.0
 10
98.85201956079047
 20
-150.9854437556564
 30
0.0
 10
98.78432343450532
 20
-150.9813096410741
 30
0.0
 10
98.64893118193499
 20
-150.9833766983653
 30
0.0
 10
98.64893118193499
 20
-150.9833766983653
 30
0.0
 10
98.64893118193499
 20
-151.3216850750168
 30
0.0
 10
98.64893118193499
 20
-151.3216850750168
 30
0.0
 10
98.70405270969898
 20
-151.2986029352656
 30
0.0
 10
98.76950952391874
 20
-151.2710421713836
 30
0.0
 10
98.81825762503503
 20
-151.2476155220839
 30
0.0
 10
98.81825762503503
 20
-151.2476155220839
 30
0.0
 10
98.81825762503503
 20
-151.069848595045
 30
0.0
 10
98.81825762503503
 20
-151.069848595045
 30
0.0
 10
98.93246254037105
 20
-151.0825954483405
 30
0.0
 10
99.05097382506365
 20
-151.0825954483405
 30
0.0
 10
99.16724579769084
 20
-151.0825954483405
 30
0.0
 10
99.1439914031654
 20
-150.9875108129475
 30
0.0
 10
99.11660289405766
 20
-150.9048285213015
 30
0.0
 10
99.0530408823548
 20
-150.7718478355709
 30
0.0
 10
99.00859915059507
 20
-150.7739148928621
 30
0.0
 10
98.92608911372335
 20
-150.7780490074444
 30
0.0
 10
98.88802080861132
 20
-150.7801160647355
 30
0.0
 10
98.88802080861132
 20
-150.7801160647355
 30
0.0
 10
98.88802080861132
 20
-150.6002820804055
 30
0.0
 10
98.88802080861132
 20
-150.6002820804055
 30
0.0
 10
99.01290551995165
 20
-150.6088948191186
 30
0.0
 10
99.18636607763396
 20
-150.6130289337009
 30
0.0
 10
99.2688761145057
 20
-150.6130289337009
 30
0.0
 10
99.2688761145057
 20
-150.6130289337009
 30
0.0
 10
99.35138615137745
 20
-150.6130289337009
 30
0.0
 10
99.35138615137745
 20
-150.6130289337009
 30
0.0
 10
99.35138615137745
 20
-150.4500759172486
 30
0.0
 10
99.35138615137745
 20
-150.4397406307928
 30
0.0
 10
99.34931909408629
 20
-150.3846191030288
 30
0.0
 10
99.34931909408629
 20
-150.3846191030288
 30
0.0
 10
99.57342255540179
 20
-150.4101128096197
 30
0.0
 10
99.57342255540179
 20
-150.4101128096197
 30
0.0
 10
99.57772892475835
 20
-150.4101128096197
 30
0.0
 10
99.59891626199265
 20
-150.4121798669108
 30
0.0
 10
99.59891626199265
 20
-150.4290608347885
 30
0.0
 10
99.59891626199265
 20
-150.4438747453751
 30
0.0
 10
99.58823646598837
 20
-150.4521429745397
 30
0.0
 10
99.56084795688063
 20
-150.4669568851263
 30
0.0
 10
99.55447453023291
 20
-150.5327582088946
 30
0.0
 10
99.55240747294176
 20
-150.5537732913546
 30
0.0
 10
99.55240747294176
 20
-150.6130289337009
 30
0.0
 10
99.55240747294176
 20
-150.6130289337009
 30
0.0
 10
99.64749210833467
 20
-150.6130289337009
 30
0.0
 10
99.64749210833467
 20
-150.6130289337009
 30
0.0
 10
99.7300021452064
 20
-150.6130289337009
 30
0.0
 10
99.90346270288872
 20
-150.6088948191186
 30
0.0
 10
100.028347414229
 20
-150.6002820804055
 30
0.0
 10
100.028347414229
 20
-150.6002820804055
 30
0.0
 10
100.028347414229
 20
-150.7801160647355
 30
0.0
 10
100.028347414229
 20
-150.7801160647355
 30
0.0
 10
99.99871959305588
 20
-150.7780490074444
 30
0.0
 10
99.88020830836328
 20
-150.7739148928621
 30
0.0
 10
99.84007294596013
 20
-150.7718478355709
 30
0.0
 10
99.82525903537355
 20
-150.8224907392041
 30
0.0
 10
99.79132484484384
 20
-150.9344563424747
 30
0.0
 10
99.7258680306241
 20
-151.0743272191758
 30
0.0
 10
99.7680704503184
 20
-151.0743272191758
 30
0.0
 10
100.0452283821067
 20
-151.0550346844584
 30
0.0
 10
100.1065510817442
 20
-151.0529676271673
 30
0.0
 10
100.1065510817442
 20
-151.0529676271673
 30
0.0
 10
100.1065510817442
 20
-151.2372802356282
 30
0.0
 10
100.1065510817442
 20
-151.2372802356282
 30
0.0
 10
100.076923260571
 20
-151.2372802356282
 30
0.0
 10
100.0600422926933
 20
-151.2328016114973
 30
0.0
 10
99.897089276241
 20
-151.2328016114973
 30
0.0
  0
HATCH
  5
118
330
111
100
AcDbEntity
  8
レイヤー 1
 62
    18
420
        0
440
 33554687
100
AcDbHatch
 10
0.0
 20
0.0
 30
0.0
210
0.0
220
0.0
230
1.0
  2
SOLID
 70
     1
 71
     1
 91
        3
 92
        1
 93
        1
 72
     4
 94
        3
 73
     0
 74
     0
 95
       17
 96
       13
 40
0.0
 40
0.0
 40
0.0
 40
0.0
 40
1.0
 40
1.0
 40
1.0
 40
2.0
 40
2.0
 40
2.0
 40
3.0
 40
3.0
 40
3.0
 40
4.0
 40
4.0
 40
4.0
 40
4.0
 10
99.3322658714343
 20
-151.6179632867483
 10
99.31538490355658
 20
-151.6475911079214
 10
99.26456974514914
 20
-151.7406086860232
 10
99.25406220391913
 20
-151.759556711192
 10
99.44440372947918
 20
-151.8188123535383
 10
99.46559106671347
 20
-151.8253580349603
 10
99.53759356235519
 20
-151.8525742892938
 10
99.59254283534493
 20
-151.766102392614
 10
99.61579722987037
 20
-151.6920328396811
 10
99.63061114045693
 20
-151.6179632867483
 10
99.63061114045693
 20
-151.6179632867483
 10
99.3322658714343
 20
-151.6179632867483
 10
99.3322658714343
 20
-151.6179632867483
 97
        0
 97
        1
330
115
 92
        1
 93
        1
 72
     4
 94
        3
 73
     0
 74
     0
 95
       20
 96
       16
 40
0.0
 40
0.0
 40
0.0
 40
0.0
 40
1.0
 40
1.0
 40
1.0
 40
2.0
 40
2.0
 40
2.0
 40
3.0
 40
3.0
 40
3.0
 40
4.0
 40
4.0
 40
4.0
 40
5.0
 40
5.0
 40
5.0
 40
5.0
 10
99.2688761145057
 20
-150.7673692114401
 10
99.2688761145057
 20
-150.7673692114401
 10
99.23718123604141
 20
-150.7673692114401
 10
99.23718123604141
 20
-150.7673692114401
 10
99.28369002509228
 20
-150.8669324709638
 10
99.31538490355658
 20
-150.9472031957701
 10
99.34931909408629
 20
-151.0743272191758
 10
99.34931909408629
 20
-151.0743272191758
 10
99.55654158752407
 20
-151.0743272191758
 10
99.55654158752407
 20
-151.0743272191758
 10
99.58823646598837
 20
-150.9813096410741
 10
99.6114908605138
 20
-150.8965602921369
 10
99.63491750981349
 20
-150.7673692114401
 10
99.63491750981349
 20
-150.7673692114401
 10
99.2688761145057
 20
-150.7673692114401
 10
99.2688761145057
 20
-150.7673692114401
 97
        0
 97
        1
330
116
 92
        1
 93
        1
 72
     4
 94
        3
 73
     0
 74
     0
 95
      242
 96
      238
 40
0.0
 40
0.0
 40
0.0
 40
0.0
 40
1.0
 40
1.0
 40
1.0
 40
2.0
 40
2.0
 40
2.0
 40
3.0
 40
3.0
 40
3.0
 40
4.0
 40
4.0
 40
4.0
 40
5.0
 40
5.0
 40
5.0
 40
6.0
 40
6.0
 40
6.0
 40
7.0
 40
7.0
 40
7.0
 40
8.0
 40
8.0
 40
8.0
 40
9.0
 40
9.0
 40
9.0
 40
10.0
 40
10.0
 40
10.0
 40
11.0
 40
11.0
 40
11.0
 40
12.0
 40
12.0
 40
12.0
 40
13.0
 40
13.0
 40
13.0
 40
14.0
 40
14.0
 40
14.0
 40
15.0
 40
15.0
 40
15.0
 40
16.0
 40
16.0
 40
16.0
 40
17.0
 40
17.0
 40
17.0
 40
18.0
 40
18.0
 40
18.0
 40
19.0
 40
19.0
 40
19.0
 40
20.0
 40
20.0
 40
20.0
 40
21.0
 40
21.0
 40
21.0
 40
22.0
 40
22.0
 40
22.0
 40
23.0
 40
23.0
 40
23.0
 40
24.0
 40
24.0
 40
24.0
 40
25.0
 40
25.0
 40
25.0
 40
26.0
 40
26.0
 40
26.0
 40
27.0
 40
27.0
 40
27.0
 40
28.0
 40
28.0
 40
28.0
 40
29.0
 40
29.0
 40
29.0
 40
30.0
 40
30.0
 40
30.0
 40
31.0
 40
31.0
 40
31.0
 40
32.0
 40
32.0
 40
32.0
 40
33.0
 40
33.0
 40
33.0
 40
34.0
 40
34.0
 40
34.0
 40
35.0
 40
35.0
 40
35.0
 40
36.0
 40
36.0
 40
36.0
 40
37.0
 40
37.0
 40
37.0
 40
38.0
 40
38.0
 40
38.0
 40
39.0
 40
39.0
 40
39.0
 40
40.0
 40
40.0
 40
40.0
 40
41.0
 40
41.0
 40
41.0
 40
42.0
 40
42.0
 40
42.0
 40
43.0
 40
43.0
 40
43.0
 40
44.0
 40
44.0
 40
44.0
 40
45.0
 40
45.0
 40
45.0
 40
46.0
 40
46.0
 40
46.0
 40
47.0
 40
47.0
 40
47.0
 40
48.0
 40
48.0
 40
48.0
 40
49.0
 40
49.0
 40
49.0
 40
50.0
 40
50.0
 40
50.0
 40
51.0
 40
51.0
 40
51.0
 40
52.0
 40
52.0
 40
52.0
 40
53.0
 40
53.0
 40
53.0
 40
54.0
 40
54.0
 40
54.0
 40
55.0
 40
55.0
 40
55.0
 40
56.0
 40
56.0
 40
56.0
 40
57.0
 40
57.0
 40
57.0
 40
58.0
 40
58.0
 40
58.0
 40
59.0
 40
59.0
 40
59.0
 40
60.0
 40
60.0
 40
60.0
 40
61.0
 40
61.0
 40
61.0
 40
62.0
 40
62.0
 40
62.0
 40
63.0
 40
63.0
 40
63.0
 40
64.0
 40
64.0
 40
64.0
 40
65.0
 40
65.0
 40
65.0
 40
66.0
 40
66.0
 40
66.0
 40
67.0
 40
67.0
 40
67.0
 40
68.0
 40
68.0
 40
68.0
 40
69.0
 40
69.0
 40
69.0
 40
70.0
 40
70.0
 40
70.0
 40
71.0
 40
71.0
 40
71.0
 40
72.0
 40
72.0
 40
72.0
 40
73.0
 40
73.0
 40
73.0
 40
74.0
 40
74.0
 40
74.0
 40
75.0
 40
75.0
 40
75.0
 40
76.0
 40
76.0
 40
76.0
 40
77.0
 40
77.0
 40
77.0
 40
78.0
 40
78.0
 40
78.0
 40
79.0
 40
79.0
 40
79.0
 40
79.0
 10
99.897089276241
 20
-151.2328016114973
 10
99.897089276241
 20
-151.2328016114973
 10
99.64335799375236
 20
-151.2328016114973
 10
99.64335799375236
 20
-151.2328016114973
 10
99.64335799375236
 20
-151.2328016114973
 10
99.36620006196401
 20
-151.2328016114973
 10
99.36620006196401
 20
-151.2328016114973
 10
99.36620006196401
 20
-151.2328016114973
 10
99.49315183059546
 20
-151.2751762859659
 10
99.49315183059546
 20
-151.2751762859659
 10
99.50365937182548
 20
-151.2793104005482
 10
99.51640622512091
 20
-151.2858560819702
 10
99.51640622512091
 20
-151.2986029352656
 10
99.51640622512091
 20
-151.3196180177256
 10
99.48471134665661
 20
-151.3258191895991
 10
99.46352400942231
 20
-151.3302978137299
 10
99.45284421341805
 20
-151.3533799534811
 10
99.42321639224489
 20
-151.4191812772494
 10
99.40426836707601
 20
-151.4636230090091
 10
99.40426836707601
 20
-151.4636230090091
 10
99.67505287221666
 20
-151.4636230090091
 10
99.67505287221666
 20
-151.4636230090091
 10
99.76600339302725
 20
-151.4636230090091
 10
99.96271834523502
 20
-151.4591443848783
 10
100.104484024453
 20
-151.4508761557136
 10
100.104484024453
 20
-151.4508761557136
 10
100.104484024453
 20
-151.6286430827525
 10
100.104484024453
 20
-151.6286430827525
 10
100.0219739875813
 20
-151.6241644586217
 10
100.000786650347
 20
-151.6241644586217
 10
99.82095266601699
 20
-151.6200303440394
 10
99.78925778755268
 20
-151.7743706217786
 10
99.74481605579297
 20
-151.8549858561335
 10
99.70037432403325
 20
-151.9245767849355
 10
99.82095266601699
 20
-151.9838324272818
 10
99.92671709741415
 20
-152.0517008083412
 10
100.0304144715201
 20
-152.1340385904387
 10
100.0304144715201
 20
-152.1340385904387
 10
99.91190318682759
 20
-152.3011257214733
 10
99.91190318682759
 20
-152.3011257214733
 10
99.88864879230215
 20
-152.2821776963044
 10
99.87607419378099
 20
-152.2735649575913
 10
99.76393633573611
 20
-152.1891601182027
 10
99.71518823461982
 20
-152.1509195583164
 10
99.65593259227352
 20
-152.1150905652698
 10
99.57566186746721
 20
-152.0706488335101
 10
99.36413300467286
 20
-152.2566839897136
 10
99.15880531375197
 20
-152.2801106390133
 10
98.86907278344246
 20
-152.3097384601864
 10
98.86907278344246
 20
-152.3097384601864
 10
98.76537540933645
 20
-152.1299044758564
 10
98.76537540933645
 20
-152.1299044758564
 10
99.08266870352795
 20
-152.1257703612741
 10
99.25819631850144
 20
-152.1002766546833
 10
99.41064179372373
 20
-151.9903781087038
 10
99.29213050903115
 20
-151.9393906955221
 10
99.2032470455117
 20
-151.9118299316401
 10
99.16724579769084
 20
-151.8994275878932
 10
99.14829777252196
 20
-151.9266438422266
 10
99.1334838619354
 20
-151.945936376944
 10
99.10592309805338
 20
-151.9796983126995
 10
99.10592309805338
 20
-151.9796983126995
 10
98.90920814584562
 20
-151.8970160210535
 10
98.90920814584562
 20
-151.8970160210535
 10
98.99171818271735
 20
-151.8167452962472
 10
99.0530408823548
 20
-151.7216606608543
 10
99.11022946740995
 20
-151.6200303440394
 10
98.91971568707564
 20
-151.6241644586217
 10
98.89870060461561
 20
-151.6241644586217
 10
98.81619056774388
 20
-151.6286430827525
 10
98.81619056774388
 20
-151.6286430827525
 10
98.81619056774388
 20
-151.4508761557136
 10
98.81619056774388
 20
-151.4508761557136
 10
98.9557169348965
 20
-151.4570773275871
 10
99.16517874039968
 20
-151.4612114421694
 10
99.19050019221627
 20
-151.4612114421694
 10
99.20755341486826
 20
-151.427449506414
 10
99.262502687858
 20
-151.3068711644302
 10
99.28162296780113
 20
-151.2328016114973
 10
99.262502687858
 20
-151.2328016114973
 10
99.0847357608191
 20
-151.2393472929193
 10
98.89008786590249
 20
-151.2520941462147
 10
98.89008786590249
 20
-151.2520941462147
 10
98.89008786590249
 20
-151.3850748319454
 10
98.89008786590249
 20
-151.3850748319454
 10
98.84151201956045
 20
-151.4105685385362
 10
98.78225637721417
 20
-151.4422634170005
 10
98.64893118193499
 20
-151.5080647407688
 10
98.64893118193499
 20
-151.5080647407688
 10
98.64893118193499
 20
-151.6537922797949
 10
98.64893118193499
 20
-151.6537922797949
 10
98.64893118193499
 20
-151.6537922797949
 10
98.64893118193499
 20
-152.1212917371433
 10
98.64893118193499
 20
-152.1212917371433
 10
98.64893118193499
 20
-152.248415760549
 10
98.61310218888839
 20
-152.3076714028953
 10
98.32957083045235
 20
-152.2990586641822
 10
98.32957083045235
 20
-152.2990586641822
 10
98.22587345634632
 20
-152.0916639159701
 10
98.22587345634632
 20
-152.0916639159701
 10
98.28943546804918
 20
-152.1044107692655
 10
98.3380113143912
 20
-152.1088893933964
 10
98.37814667679436
 20
-152.1088893933964
 10
98.45445554179264
 20
-152.1088893933964
 10
98.46496308302265
 20
-152.0854627440967
 10
98.46496308302265
 20
-152.0200059298769
 10
98.46496308302265
 20
-152.0200059298769
 10
98.46496308302265
 20
-151.5904025228663
 10
98.46496308302265
 20
-151.5904025228663
 10
98.36763913556435
 20
-151.6307101400437
 10
98.35075816768663
 20
-151.6369113119172
 10
98.30424937863575
 20
-151.655859337086
 10
98.2999430092792
 20
-151.6772189290946
 10
98.29563663992262
 20
-151.7068467502677
 10
98.27668861475375
 20
-151.7068467502677
 10
98.26824813081488
 20
-151.7068467502677
 10
98.25756833481062
 20
-151.7027126356854
 10
98.25136716293716
 20
-151.6792859863857
 10
98.25136716293716
 20
-151.6792859863857
 10
98.19848494723858
 20
-151.4867051487603
 10
98.19848494723858
 20
-151.4867051487603
 10
98.3443847410389
 20
-151.4401963597094
 10
98.41001381003293
 20
-151.4171142199582
 10
98.46496308302265
 20
-151.3957546279497
 10
98.46496308302265
 20
-151.3957546279497
 10
98.46496308302265
 20
-150.9833766983653
 10
98.46496308302265
 20
-150.9833766983653
 10
98.46496308302265
 20
-150.9833766983653
 10
98.41208086732407
 20
-150.9833766983653
 10
98.41208086732407
 20
-150.9833766983653
 10
98.41208086732407
 20
-150.9833766983653
 10
98.33387719980891
 20
-150.9833766983653
 10
98.33387719980891
 20
-150.9833766983653
 10
98.26618107352373
 20
-150.9833766983653
 10
98.25756833481062
 20
-150.9833766983653
 10
98.22173934176403
 20
-150.9895778702387
 10
98.22173934176403
 20
-150.9895778702387
 10
98.22173934176403
 20
-150.7949299753221
 10
98.22173934176403
 20
-150.7949299753221
 10
98.24912785087175
 20
-150.8014756567441
 10
98.25756833481062
 20
-150.8014756567441
 10
98.32750377316118
 20
-150.8014756567441
 10
98.32750377316118
 20
-150.8014756567441
 10
98.46065671366609
 20
-150.8014756567441
 10
98.46065671366609
 20
-150.8014756567441
 10
98.46065671366609
 20
-150.7315402183935
 10
98.46065671366609
 20
-150.6488579267475
 10
98.45858965637495
 20
-150.6447238121652
 10
98.45014917243609
 20
-150.4648898278352
 10
98.45014917243609
 20
-150.4459418026663
 10
98.44808211514493
 20
-150.3994330136154
 10
98.44808211514493
 20
-150.3994330136154
 10
98.66374509252157
 20
-150.40770124278
 10
98.66374509252157
 20
-150.40770124278
 10
98.67442488852585
 20
-150.40770124278
 10
98.69561222576013
 20
-150.4101128096197
 10
98.69561222576013
 20
-150.4269937774974
 10
98.69561222576013
 20
-150.4459418026663
 10
98.68079831517356
 20
-150.4566215986706
 10
98.65530460858272
 20
-150.4755696238394
 10
98.65530460858272
 20
-150.5262125274726
 10
98.64893118193499
 20
-150.7549668676932
 10
98.65117049400041
 20
-150.8014756567441
 10
98.78018931992301
 20
-150.8014756567441
 10
98.79293617321843
 20
-150.8014756567441
 10
98.89008786590249
 20
-150.7928629180309
 10
98.89008786590249
 20
-150.7928629180309
 10
98.89008786590249
 20
-150.9875108129475
 10
98.89008786590249
 20
-150.9875108129475
 10
98.85201956079047
 20
-150.9854437556564
 10
98.78432343450532
 20
-150.9813096410741
 10
98.64893118193499
 20
-150.9833766983653
 10
98.64893118193499
 20
-150.9833766983653
 10
98.64893118193499
 20
-151.3216850750168
 10
98.64893118193499
 20
-151.3216850750168
 10
98.70405270969898
 20
-151.2986029352656
 10
98.76950952391874
 20
-151.2710421713836
 10
98.81825762503503
 20
-151.2476155220839
 10
98.81825762503503
 20
-151.2476155220839
 10
98.81825762503503
 20
-151.069848595045
 10
98.81825762503503
 20
-151.069848595045
 10
98.93246254037105
 20
-151.0825954483405
 10
99.05097382506365
 20
-151.0825954483405
 10
99.16724579769084
 20
-151.0825954483405
 10
99.1439914031654
 20
-150.9875108129475
 10
99.11660289405766
 20
-150.9048285213015
 10
99.0530408823548
 20
-150.7718478355709
 10
99.00859915059507
 20
-150.7739148928621
 10
98.92608911372335
 20
-150.7780490074444
 10
98.88802080861132
 20
-150.7801160647355
 10
98.88802080861132
 20
-150.7801160647355
 10
98.88802080861132
 20
-150.6002820804055
 10
98.88802080861132
 20
-150.6002820804055
 10
99.01290551995165
 20
-150.6088948191186
 10
99.18636607763396
 20
-150.6130289337009
 10
99.2688761145057
 20
-150.6130289337009
 10
99.2688761145057
 20
-150.6130289337009
 10
99.35138615137745
 20
-150.6130289337009
 10
99.35138615137745
 20
-150.6130289337009
 10
99.35138615137745
 20
-150.4500759172486
 10
99.35138615137745
 20
-150.4397406307928
 10
99.34931909408629
 20
-150.3846191030288
 10
99.34931909408629
 20
-150.3846191030288
 10
99.57342255540179
 20
-150.4101128096197
 10
99.57342255540179
 20
-150.4101128096197
 10
99.57772892475835
 20
-150.4101128096197
 10
99.59891626199265
 20
-150.4121798669108
 10
99.59891626199265
 20
-150.4290608347885
 10
99.59891626199265
 20
-150.4438747453751
 10
99.58823646598837
 20
-150.4521429745397
 10
99.56084795688063
 20
-150.4669568851263
 10
99.55447453023291
 20
-150.5327582088946
 10
99.55240747294176
 20
-150.5537732913546
 10
99.55240747294176
 20
-150.6130289337009
 10
99.55240747294176
 20
-150.6130289337009
 10
99.64749210833467
 20
-150.6130289337009
 10
99.64749210833467
 20
-150.6130289337009
 10
99.7300021452064
 20
-150.6130289337009
 10
99.90346270288872
 20
-150.6088948191186
 10
100.028347414229
 20
-150.6002820804055
 10
100.028347414229
 20
-150.6002820804055
 10
100.028347414229
 20
-150.7801160647355
 10
100.028347414229
 20
-150.7801160647355
 10
99.99871959305588
 20
-150.7780490074444
 10
99.88020830836328
 20
-150.7739148928621
 10
99.84007294596013
 20
-150.7718478355709
 10
99.82525903537355
 20
-150.8224907392041
 10
99.79132484484384
 20
-150.9344563424747
 10
99.7258680306241
 20
-151.0743272191758
 10
99.7680704503184
 20
-151.0743272191758
 10
100.0452283821067
 20
-151.0550346844584
 10
100.1065510817442
 20
-151.0529676271673
 10
100.1065510817442
 20
-151.0529676271673
 10
100.1065510817442
 20
-151.2372802356282
 10
100.1065510817442
 20
-151.2372802356282
 10
100.076923260571
 20
-151.2372802356282
 10
100.0600422926933
 20
-151.2328016114973
 10
99.897089276241
 20
-151.2328016114973
 97
        0
 97
        1
330
117
 75
     2
 76
     1
 98
        1
 10
0.0
 20
0.0
450
        0
451
        0
460
0.0
461
0.0
452
        0
462
0.0
453
        0
470

  0
SPLINE
  5
119
330
111
100
AcDbEntity
  8
レイヤー 1
100
AcDbSpline
210
0.0
220
0.0
230
1.0
 70
    11
 71
     3
 72
    17
 73
    13
 74
     0
 42
0.0000000001
 43
0.0000000001
 40
0.0
 40
0.0
 40
0.0
 40
0.0
 40
1.0
 40
1.0
 40
1.0
 40
2.0
 40
2.0
 40
2.0
 40
3.0
 40
3.0
 40
3.0
 40
4.0
 40
4.0
 40
4.0
 40
4.0
 10
101.7536512332421
 20
-152.0324082736238
 30
0.0
 10
101.7536512332421
 20
-152.0324082736238
 30
0.0
 10
101.0470621492174
 20
-152.0324082736238
 30
0.0
 10
101.0470621492174
 20
-152.0324082736238
 30
0.0
 10
101.0470621492174
 20
-152.0324082736238
 30
0.0
 10
101.0470621492174
 20
-152.1467854437341
 30
0.0
 10
101.0470621492174
 20
-152.1467854437341
 30
0.0
 10
101.0470621492174
 20
-152.1467854437341
 30
0.0
 10
101.7536512332421
 20
-152.1467854437341
 30
0.0
 10
101.7536512332421
 20
-152.1467854437341
 30
0.0
 10
101.7536512332421
 20
-152.1467854437341
 30
0.0
 10
101.7536512332421
 20
-152.0324082736238
 30
0.0
 10
101.7536512332421
 20
-152.0324082736238
 30
0.0
  0
SPLINE
  5
11A
330
111
100
AcDbEntity
  8
レイヤー 1
100
AcDbSpline
210
0.0
220
0.0
230
1.0
 70
    11
 71
     3
 72
    17
 73
    13
 74
     0
 42
0.0000000001
 43
0.0000000001
 40
0.0
 40
0.0
 40
0.0
 40
0.0
 40
1.0
 40
1.0
 40
1.0
 40
2.0
 40
2.0
 40
2.0
 40
3.0
 40
3.0
 40
3.0
 40
4.0
 40
4.0
 40
4.0
 40
4.0
 10
101.7536512332421
 20
-151.7891845323652
 30
0.0
 10
101.7536512332421
 20
-151.7891845323652
 30
0.0
 10
101.0470621492174
 20
-151.7891845323652
 30
0.0
 10
101.0470621492174
 20
-151.7891845323652
 30
0.0
 10
101.0470621492174
 20
-151.7891845323652
 30
0.0
 10
101.0470621492174
 20
-151.9035617024755
 30
0.0
 10
101.0470621492174
 20
-151.9035617024755
 30
0.0
 10
101.0470621492174
 20
-151.9035617024755
 30
0.0
 10
101.7536512332421
 20
-151.9035617024755
 30
0.0
 10
101.7536512332421
 20
-151.9035617024755
 30
0.0
 10
101.7536512332421
 20
-151.9035617024755
 30
0.0
 10
101.7536512332421
 20
-151.7891845323652
 30
0.0
 10
101.7536512332421
 20
-151.7891845323652
 30
0.0
  0
SPLINE
  5
11B
330
111
100
AcDbEntity
  8
レイヤー 1
100
AcDbSpline
210
0.0
220
0.0
230
1.0
 70
    11
 71
     3
 72
    17
 73
    13
 74
     0
 42
0.0000000001
 43
0.0000000001
 40
0.0
 40
0.0
 40
0.0
 40
0.0
 40
1.0
 40
1.0
 40
1.0
 40
2.0
 40
2.0
 40
2.0
 40
3.0
 40
3.0
 40
3.0
 40
4.0
 40
4.0
 40
4.0
 40
4.0
 10
101.7536512332421
 20
-151.5566405871108
 30
0.0
 10
101.7536512332421
 20
-151.5566405871108
 30
0.0
 10
101.0470621492174
 20
-151.5566405871108
 30
0.0
 10
101.0470621492174
 20
-151.5566405871108
 30
0.0
 10
101.0470621492174
 20
-151.5566405871108
 30
0.0
 10
101.0470621492174
 20
-151.6644720757991
 30
0.0
 10
101.0470621492174
 20
-151.6644720757991
 30
0.0
 10
101.0470621492174
 20
-151.6644720757991
 30
0.0
 10
101.7536512332421
 20
-151.6644720757991
 30
0.0
 10
101.7536512332421
 20
-151.6644720757991
 30
0.0
 10
101.7536512332421
 20
-151.6644720757991
 30
0.0
 10
101.7536512332421
 20
-151.5566405871108
 30
0.0
 10
101.7536512332421
 20
-151.5566405871108
 30
0.0
  0
SPLINE
  5
11C
330
111
100
AcDbEntity
  8
レイヤー 1
100
AcDbSpline
210
0.0
220
0.0
230
1.0
 70
     9
 71
     3
 72
   203
 73
   199
 74
     0
 42
0.0000000001
 43
0.0000000001
 40
0.0
 40
0.0
 40
0.0
 40
0.0
 40
1.0
 40
1.0
 40
1.0
 40
2.0
 40
2.0
 40
2.0
 40
3.0
 40
3.0
 40
3.0
 40
4.0
 40
4.0
 40
4.0
 40
5.0
 40
5.0
 40
5.0
 40
6.0
 40
6.0
 40
6.0
 40
7.0
 40
7.0
 40
7.0
 40
8.0
 40
8.0
 40
8.0
 40
9.0
 40
9.0
 40
9.0
 40
10.0
 40
10.0
 40
10.0
 40
11.0
 40
11.0
 40
11.0
 40
12.0
 40
12.0
 40
12.0
 40
13.0
 40
13.0
 40
13.0
 40
14.0
 40
14.0
 40
14.0
 40
15.0
 40
15.0
 40
15.0
 40
16.0
 40
16.0
 40
16.0
 40
17.0
 40
17.0
 40
17.0
 40
18.0
 40
18.0
 40
18.0
 40
19.0
 40
19.0
 40
19.0
 40
20.0
 40
20.0
 40
20.0
 40
21.0
 40
21.0
 40
21.0
 40
22.0
 40
22.0
 40
22.0
 40
23.0
 40
23.0
 40
23.0
 40
24.0
 40
24.0
 40
24.0
 40
25.0
 40
25.0
 40
25.0
 40
26.0
 40
26.0
 40
26.0
 40
27.0
 40
27.0
 40
27.0
 40
28.0
 40
28.0
 40
28.0
 40
29.0
 40
29.0
 40
29.0
 40
30.0
 40
30.0
 40
30.0
 40
31.0
 40
31.0
 40
31.0
 40
32.0
 40
32.0
 40
32.0
 40
33.0
 40
33.0
 40
33.0
 40
34.0
 40
34.0
 40
34.0
 40
35.0
 40
35.0
 40
35.0
 40
36.0
 40
36.0
 40
36.0
 40
37.0
 40
37.0
 40
37.0
 40
38.0
 40
38.0
 40
38.0
 40
39.0
 40
39.0
 40
39.0
 40
40.0
 40
40.0
 40
40.0
 40
41.0
 40
41.0
 40
41.0
 40
42.0
 40
42.0
 40
42.0
 40
43.0
 40
43.0
 40
43.0
 40
44.0
 40
44.0
 40
44.0
 40
45.0
 40
45.0
 40
45.0
 40
46.0
 40
46.0
 40
46.0
 40
47.0
 40
47.0
 40
47.0
 40
48.0
 40
48.0
 40
48.0
 40
49.0
 40
49.0
 40
49.0
 40
50.0
 40
50.0
 40
50.0
 40
51.0
 40
51.0
 40
51.0
 40
52.0
 40
52.0
 40
52.0
 40
53.0
 40
53.0
 40
53.0
 40
54.0
 40
54.0
 40
54.0
 40
55.0
 40
55.0
 40
55.0
 40
56.0
 40
56.0
 40
56.0
 40
57.0
 40
57.0
 40
57.0
 40
58.0
 40
58.0
 40
58.0
 40
59.0
 40
59.0
 40
59.0
 40
60.0
 40
60.0
 40
60.0
 40
61.0
 40
61.0
 40
61.0
 40
62.0
 40
62.0
 40
62.0
 40
63.0
 40
63.0
 40
63.0
 40
64.0
 40
64.0
 40
64.0
 40
65.0
 40
65.0
 40
65.0
 40
66.0
 40
66.0
 40
66.0
 40
66.0
 10
101.5886311594986
 20
-151.3006699925568
 30
0.0
 10
101.5886311594986
 20
-151.3006699925568
 30
0.0
 10
101.0301811813397
 20
-151.3006699925568
 30
0.0
 10
101.0301811813397
 20
-151.3006699925568
 30
0.0
 10
101.0195013853354
 20
-151.3451117243165
 30
0.0
 10
101.0110609013965
 20
-151.3768066027808
 30
0.0
 10
100.9983140481011
 20
-151.4147026531185
 30
0.0
 10
101.0238077546919
 20
-151.4147026531185
 30
0.0
 10
101.0386216652785
 20
-151.4171142199582
 30
0.0
 10
101.0449950919262
 20
-151.4171142199582
 30
0.0
 10
101.0449950919262
 20
-151.4171142199582
 30
0.0
 10
101.2332695601951
 20
-151.4171142199582
 30
0.0
 10
101.2332695601951
 20
-151.4171142199582
 30
0.0
 10
101.2332695601951
 20
-151.4171142199582
 30
0.0
 10
101.6075791846675
 20
-151.4171142199582
 30
0.0
 10
101.6075791846675
 20
-151.4171142199582
 30
0.0
 10
101.658394343075
 20
-151.4171142199582
 30
0.0
 10
101.941925701511
 20
-151.4043673666628
 30
0.0
 10
101.9736205799753
 20
-151.4043673666628
 30
0.0
 10
101.9715535226842
 20
-151.4319281305448
 30
0.0
 10
101.9693142106188
 20
-151.4508761557136
 30
0.0
 10
101.9693142106188
 20
-151.4805039768868
 30
0.0
 10
101.9672471533276
 20
-151.5121988553511
 30
0.0
 10
101.9672471533276
 20
-151.6475911079214
 30
0.0
 10
101.9672471533276
 20
-151.6751518718034
 30
0.0
 10
101.9672471533276
 20
-151.6751518718034
 30
0.0
 10
101.9672471533276
 20
-151.9204426703532
 30
0.0
 10
101.9672471533276
 20
-151.9204426703532
 30
0.0
 10
101.9672471533276
 20
-151.9648844021129
 30
0.0
 10
101.9715535226842
 20
-152.1615993543207
 30
0.0
 10
101.9756876372665
 20
-152.3138725747687
 30
0.0
 10
101.9756876372665
 20
-152.3138725747687
 30
0.0
 10
101.7493448638856
 20
-152.3138725747687
 30
0.0
 10
101.7493448638856
 20
-152.3138725747687
 30
0.0
 10
101.7493448638856
 20
-152.3138725747687
 30
0.0
 10
101.751584175951
 20
-152.2801106390133
 30
0.0
 10
101.751584175951
 20
-152.2801106390133
 30
0.0
 10
101.751584175951
 20
-152.2801106390133
 30
0.0
 10
101.0491292065085
 20
-152.2801106390133
 30
0.0
 10
101.0491292065085
 20
-152.2801106390133
 30
0.0
 10
101.0491292065085
 20
-152.2801106390133
 30
0.0
 10
101.0511962637997
 20
-152.3138725747687
 30
0.0
 10
101.0511962637997
 20
-152.3138725747687
 30
0.0
 10
101.0511962637997
 20
-152.3138725747687
 30
0.0
 10
100.8332939743576
 20
-152.3138725747687
 30
0.0
 10
100.8332939743576
 20
-152.3138725747687
 30
0.0
 10
100.8376003437142
 20
-152.2587510470047
 30
0.0
 10
100.8376003437142
 20
-152.2463487032578
 30
0.0
 10
100.8439737703619
 20
-152.1319715331476
 30
0.0
 10
100.8460408276531
 20
-152.1044107692655
 30
0.0
 10
100.8481078849442
 20
-151.9710855739864
 30
0.0
 10
100.8481078849442
 20
-151.9521375488175
 30
0.0
 10
100.8481078849442
 20
-151.9521375488175
 30
0.0
 10
100.8481078849442
 20
-151.7492214247363
 30
0.0
 10
100.8481078849442
 20
-151.7492214247363
 30
0.0
 10
100.7085815177916
 20
-151.9986463378684
 30
0.0
 10
100.5392550746916
 20
-152.1299044758564
 30
0.0
 10
100.4334906432944
 20
-152.1953612900761
 30
0.0
 10
100.4334906432944
 20
-152.1953612900761
 30
0.0
 10
100.2600300856121
 20
-152.0558349229235
 30
0.0
 10
100.2600300856121
 20
-152.0558349229235
 30
0.0
 10
100.3489135491315
 20
-152.0051920192903
 30
0.0
 10
100.4927462856407
 20
-151.918375613062
 30
0.0
 10
100.6302055955021
 20
-151.7237277181454
 30
0.0
 10
100.721328371087
 20
-151.5966036947397
 30
0.0
 10
100.7867851853068
 20
-151.4529432130048
 30
0.0
 10
100.8207193758365
 20
-151.3006699925568
 30
0.0
 10
100.5921372903902
 20
-151.3027370498479
 30
0.0
 10
100.4123033060601
 20
-151.3089382217214
 30
0.0
 10
100.3172186706672
 20
-151.3110052790125
 30
0.0
 10
100.3172186706672
 20
-151.3110052790125
 30
0.0
 10
100.3172186706672
 20
-151.1335828615221
 30
0.0
 10
100.3172186706672
 20
-151.1335828615221
 30
0.0
 10
100.513933622875
 20
-151.1397840333956
 30
0.0
 10
100.797464981311
 20
-151.1439181479779
 30
0.0
 10
100.9476711444679
 20
-151.1439181479779
 30
0.0
 10
100.9476711444679
 20
-151.1439181479779
 30
0.0
 10
101.1612670645534
 20
-151.1439181479779
 30
0.0
 10
101.1612670645534
 20
-151.1439181479779
 30
0.0
 10
101.1612670645534
 20
-151.1439181479779
 30
0.0
 10
101.1612670645534
 20
-151.0360866592896
 30
0.0
 10
101.1612670645534
 20
-151.0360866592896
 30
0.0
 10
101.1612670645534
 20
-151.0360866592896
 30
0.0
 10
101.0153672707531
 20
-151.0360866592896
 30
0.0
 10
101.0153672707531
 20
-151.0360866592896
 30
0.0
 10
100.8460408276531
 20
-151.0360866592896
 30
0.0
 10
100.6768866393273
 20
-151.0402207738719
 30
0.0
 10
100.5096272535184
 20
-151.0467664552938
 30
0.0
 10
100.5096272535184
 20
-151.0467664552938
 30
0.0
 10
100.5096272535184
 20
-150.8755452096769
 30
0.0
 10
100.5096272535184
 20
-150.8755452096769
 30
0.0
 10
100.6641397860319
 20
-150.8858804961327
 30
0.0
 10
100.8503471970096
 20
-150.8858804961327
 30
0.0
 10
101.0153672707531
 20
-150.8858804961327
 30
0.0
 10
101.0153672707531
 20
-150.8858804961327
 30
0.0
 10
101.1612670645534
 20
-150.8858804961327
 30
0.0
 10
101.1612670645534
 20
-150.8858804961327
 30
0.0
 10
101.1612670645534
 20
-150.8858804961327
 30
0.0
 10
101.1612670645534
 20
-150.7673692114401
 30
0.0
 10
101.1612670645534
 20
-150.7673692114401
 30
0.0
 10
101.1612670645534
 20
-150.7673692114401
 30
0.0
 10
101.0301811813397
 20
-150.7673692114401
 30
0.0
 10
101.0301811813397
 20
-150.7673692114401
 30
0.0
 10
100.9835001375145
 20
-150.7673692114401
 30
0.0
 10
100.7804117586591
 20
-150.7759819501532
 30
0.0
 10
100.7382093389647
 20
-150.7759819501532
 30
0.0
 10
100.5351209601093
 20
-150.7801160647355
 30
0.0
 10
100.4589843498852
 20
-150.7821831220267
 30
0.0
 10
100.3806084275958
 20
-150.7842501793178
 30
0.0
 10
100.3806084275958
 20
-150.7842501793178
 30
0.0
 10
100.3806084275958
 20
-150.6002820804055
 30
0.0
 10
100.3806084275958
 20
-150.6002820804055
 30
0.0
 10
100.4948133429318
 20
-150.6088948191186
 30
0.0
 10
100.5392550746916
 20
-150.6088948191186
 30
0.0
 10
100.9221774378771
 20
-150.6171630482832
 30
0.0
 10
100.8587876809485
 20
-150.5220784128903
 30
0.0
 10
100.8312269170665
 20
-150.4945176490083
 30
0.0
 10
100.7952256692456
 20
-150.4586886559617
 30
0.0
 10
100.7952256692456
 20
-150.4586886559617
 30
0.0
 10
100.9709255389934
 20
-150.3760063643157
 30
0.0
 10
100.9709255389934
 20
-150.3760063643157
 30
0.0
 10
101.0110609013965
 20
-150.4121798669108
 30
0.0
 10
101.0555026331562
 20
-150.4545545413794
 30
0.0
 10
101.1295721860891
 20
-150.5644530873589
 30
0.0
 10
101.1295721860891
 20
-150.5644530873589
 30
0.0
 10
101.0153672707531
 20
-150.6195746151229
 30
0.0
 10
101.0153672707531
 20
-150.6195746151229
 30
0.0
 10
101.0153672707531
 20
-150.6195746151229
 30
0.0
 10
101.0258748119831
 20
-150.6195746151229
 30
0.0
 10
101.0258748119831
 20
-150.6195746151229
 30
0.0
 10
101.0258748119831
 20
-150.6195746151229
 30
0.0
 10
101.5483235423212
 20
-150.6195746151229
 30
0.0
 10
101.5483235423212
 20
-150.6195746151229
 30
0.0
 10
101.5483235423212
 20
-150.6195746151229
 30
0.0
 10
101.4532389069283
 20
-150.5751328833632
 30
0.0
 10
101.4532389069283
 20
-150.5751328833632
 30
0.0
 10
101.4807996708103
 20
-150.5368923234769
 30
0.0
 10
101.5378160010912
 20
-150.4566215986706
 30
0.0
 10
101.5526299116778
 20
-150.3825520457377
 30
0.0
 10
101.5526299116778
 20
-150.3825520457377
 30
0.0
 10
101.7662258317633
 20
-150.4459418026663
 30
0.0
 10
101.7662258317633
 20
-150.4459418026663
 30
0.0
 10
101.7748385704764
 20
-150.4480088599574
 30
0.0
 10
101.7958536529364
 20
-150.4586886559617
 30
0.0
 10
101.7958536529364
 20
-150.4797037384217
 30
0.0
 10
101.7958536529364
 20
-150.517944298308
 30
0.0
 10
101.7303968387167
 20
-150.517944298308
 30
0.0
 10
101.7112765587736
 20
-150.517944298308
 30
0.0
 10
101.7007690175435
 20
-150.5368923234769
 30
0.0
 10
101.6775146230181
 20
-150.5771999406543
 30
0.0
 10
101.6478868018449
 20
-150.6171630482832
 30
0.0
 10
102.0476901329082
 20
-150.6109618764097
 30
0.0
 10
102.0773179540813
 20
-150.6088948191186
 30
0.0
 10
102.1534545643054
 20
-150.6023491376966
 30
0.0
 10
102.1534545643054
 20
-150.6023491376966
 30
0.0
 10
102.1534545643054
 20
-150.7842501793178
 30
0.0
 10
102.1534545643054
 20
-150.7842501793178
 30
0.0
 10
102.1343342843622
 20
-150.7842501793178
 30
0.0
 10
102.1090128325456
 20
-150.7821831220267
 30
0.0
 10
101.8890434858124
 20
-150.7739148928621
 30
0.0
 10
101.838228327405
 20
-150.7718478355709
 30
0.0
 10
101.6182589806718
 20
-150.7673692114401
 30
0.0
 10
101.5738172489121
 20
-150.7673692114401
 30
0.0
 10
101.5738172489121
 20
-150.7673692114401
 30
0.0
 10
101.3579820167612
 20
-150.7673692114401
 30
0.0
 10
101.3579820167612
 20
-150.7673692114401
 30
0.0
 10
101.3579820167612
 20
-150.7673692114401
 30
0.0
 10
101.3579820167612
 20
-150.8858804961327
 30
0.0
 10
101.3579820167612
 20
-150.8858804961327
 30
0.0
 10
101.3579820167612
 20
-150.8858804961327
 30
0.0
 10
101.5314425744435
 20
-150.8858804961327
 30
0.0
 10
101.5314425744435
 20
-150.8858804961327
 30
0.0
 10
101.6943955908958
 20
-150.8858804961327
 30
0.0
 10
101.8847371164559
 20
-150.8858804961327
 30
0.0
 10
102.0413167062605
 20
-150.8755452096769
 30
0.0
 10
102.0413167062605
 20
-150.8755452096769
 30
0.0
 10
102.0413167062605
 20
-151.0467664552938
 30
0.0
 10
102.0413167062605
 20
-151.0467664552938
 30
0.0
 10
101.8318549007573
 20
-151.0381537165807
 30
0.0
 10
101.6351399485495
 20
-151.0360866592896
 30
0.0
 10
101.5314425744435
 20
-151.0360866592896
 30
0.0
 10
101.5314425744435
 20
-151.0360866592896
 30
0.0
 10
101.3579820167612
 20
-151.0360866592896
 30
0.0
 10
101.3579820167612
 20
-151.0360866592896
 30
0.0
 10
101.3579820167612
 20
-151.0360866592896
 30
0.0
 10
101.3579820167612
 20
-151.1439181479779
 30
0.0
 10
101.3579820167612
 20
-151.1439181479779
 30
0.0
 10
101.3579820167612
 20
-151.1439181479779
 30
0.0
 10
101.5886311594986
 20
-151.1439181479779
 30
0.0
 10
101.5886311594986
 20
-151.1439181479779
 30
0.0
 10
101.7219563547778
 20
-151.1439181479779
 30
0.0
 10
102.0096218277962
 20
-151.1397840333956
 30
0.0
 10
102.2190836332994
 20
-151.1335828615221
 30
0.0
 10
102.2190836332994
 20
-151.1335828615221
 30
0.0
 10
102.2190836332994
 20
-151.3110052790125
 30
0.0
 10
102.2190836332994
 20
-151.3110052790125
 30
0.0
 10
102.0265027956739
 20
-151.3048041071391
 30
0.0
 10
101.7133436160647
 20
-151.3006699925568
 30
0.0
 10
101.5886311594986
 20
-151.3006699925568
 30
0.0
  0
HATCH
  5
11D
330
111
100
AcDbEntity
  8
レイヤー 1
 62
    18
420
        0
440
 33554687
100
AcDbHatch
 10
0.0
 20
0.0
 30
0.0
210
0.0
220
0.0
230
1.0
  2
SOLID
 70
     1
 71
     1
 91
        4
 92
        1
 93
        1
 72
     4
 94
        3
 73
     0
 74
     0
 95
       17
 96
       13
 40
0.0
 40
0.0
 40
0.0
 40
0.0
 40
1.0
 40
1.0
 40
1.0
 40
2.0
 40
2.0
 40
2.0
 40
3.0
 40
3.0
 40
3.0
 40
4.0
 40
4.0
 40
4.0
 40
4.0
 10
101.7536512332421
 20
-152.0324082736238
 10
101.7536512332421
 20
-152.0324082736238
 10
101.0470621492174
 20
-152.0324082736238
 10
101.0470621492174
 20
-152.0324082736238
 10
101.0470621492174
 20
-152.0324082736238
 10
101.0470621492174
 20
-152.1467854437341
 10
101.0470621492174
 20
-152.1467854437341
 10
101.0470621492174
 20
-152.1467854437341
 10
101.7536512332421
 20
-152.1467854437341
 10
101.7536512332421
 20
-152.1467854437341
 10
101.7536512332421
 20
-152.1467854437341
 10
101.7536512332421
 20
-152.0324082736238
 10
101.7536512332421
 20
-152.0324082736238
 97
        0
 97
        1
330
119
 92
        1
 93
        1
 72
     4
 94
        3
 73
     0
 74
     0
 95
       17
 96
       13
 40
0.0
 40
0.0
 40
0.0
 40
0.0
 40
1.0
 40
1.0
 40
1.0
 40
2.0
 40
2.0
 40
2.0
 40
3.0
 40
3.0
 40
3.0
 40
4.0
 40
4.0
 40
4.0
 40
4.0
 10
101.7536512332421
 20
-151.7891845323652
 10
101.7536512332421
 20
-151.7891845323652
 10
101.0470621492174
 20
-151.7891845323652
 10
101.0470621492174
 20
-151.7891845323652
 10
101.0470621492174
 20
-151.7891845323652
 10
101.0470621492174
 20
-151.9035617024755
 10
101.0470621492174
 20
-151.9035617024755
 10
101.0470621492174
 20
-151.9035617024755
 10
101.7536512332421
 20
-151.9035617024755
 10
101.7536512332421
 20
-151.9035617024755
 10
101.7536512332421
 20
-151.9035617024755
 10
101.7536512332421
 20
-151.7891845323652
 10
101.7536512332421
 20
-151.7891845323652
 97
        0
 97
        1
330
11A
 92
        1
 93
        1
 72
     4
 94
        3
 73
     0
 74
     0
 95
       17
 96
       13
 40
0.0
 40
0.0
 40
0.0
 40
0.0
 40
1.0
 40
1.0
 40
1.0
 40
2.0
 40
2.0
 40
2.0
 40
3.0
 40
3.0
 40
3.0
 40
4.0
 40
4.0
 40
4.0
 40
4.0
 10
101.7536512332421
 20
-151.5566405871108
 10
101.7536512332421
 20
-151.5566405871108
 10
101.0470621492174
 20
-151.5566405871108
 10
101.0470621492174
 20
-151.5566405871108
 10
101.0470621492174
 20
-151.5566405871108
 10
101.0470621492174
 20
-151.6644720757991
 10
101.0470621492174
 20
-151.6644720757991
 10
101.0470621492174
 20
-151.6644720757991
 10
101.7536512332421
 20
-151.6644720757991
 10
101.7536512332421
 20
-151.6644720757991
 10
101.7536512332421
 20
-151.6644720757991
 10
101.7536512332421
 20
-151.5566405871108
 10
101.7536512332421
 20
-151.5566405871108
 97
        0
 97
        1
330
11B
 92
        1
 93
        1
 72
     4
 94
        3
 73
     0
 74
     0
 95
      203
 96
      199
 40
0.0
 40
0.0
 40
0.0
 40
0.0
 40
1.0
 40
1.0
 40
1.0
 40
2.0
 40
2.0
 40
2.0
 40
3.0
 40
3.0
 40
3.0
 40
4.0
 40
4.0
 40
4.0
 40
5.0
 40
5.0
 40
5.0
 40
6.0
 40
6.0
 40
6.0
 40
7.0
 40
7.0
 40
7.0
 40
8.0
 40
8.0
 40
8.0
 40
9.0
 40
9.0
 40
9.0
 40
10.0
 40
10.0
 40
10.0
 40
11.0
 40
11.0
 40
11.0
 40
12.0
 40
12.0
 40
12.0
 40
13.0
 40
13.0
 40
13.0
 40
14.0
 40
14.0
 40
14.0
 40
15.0
 40
15.0
 40
15.0
 40
16.0
 40
16.0
 40
16.0
 40
17.0
 40
17.0
 40
17.0
 40
18.0
 40
18.0
 40
18.0
 40
19.0
 40
19.0
 40
19.0
 40
20.0
 40
20.0
 40
20.0
 40
21.0
 40
21.0
 40
21.0
 40
22.0
 40
22.0
 40
22.0
 40
23.0
 40
23.0
 40
23.0
 40
24.0
 40
24.0
 40
24.0
 40
25.0
 40
25.0
 40
25.0
 40
26.0
 40
26.0
 40
26.0
 40
27.0
 40
27.0
 40
27.0
 40
28.0
 40
28.0
 40
28.0
 40
29.0
 40
29.0
 40
29.0
 40
30.0
 40
30.0
 40
30.0
 40
31.0
 40
31.0
 40
31.0
 40
32.0
 40
32.0
 40
32.0
 40
33.0
 40
33.0
 40
33.0
 40
34.0
 40
34.0
 40
34.0
 40
35.0
 40
35.0
 40
35.0
 40
36.0
 40
36.0
 40
36.0
 40
37.0
 40
37.0
 40
37.0
 40
38.0
 40
38.0
 40
38.0
 40
39.0
 40
39.0
 40
39.0
 40
40.0
 40
40.0
 40
40.0
 40
41.0
 40
41.0
 40
41.0
 40
42.0
 40
42.0
 40
42.0
 40
43.0
 40
43.0
 40
43.0
 40
44.0
 40
44.0
 40
44.0
 40
45.0
 40
45.0
 40
45.0
 40
46.0
 40
46.0
 40
46.0
 40
47.0
 40
47.0
 40
47.0
 40
48.0
 40
48.0
 40
48.0
 40
49.0
 40
49.0
 40
49.0
 40
50.0
 40
50.0
 40
50.0
 40
51.0
 40
51.0
 40
51.0
 40
52.0
 40
52.0
 40
52.0
 40
53.0
 40
53.0
 40
53.0
 40
54.0
 40
54.0
 40
54.0
 40
55.0
 40
55.0
 40
55.0
 40
56.0
 40
56.0
 40
56.0
 40
57.0
 40
57.0
 40
57.0
 40
58.0
 40
58.0
 40
58.0
 40
59.0
 40
59.0
 40
59.0
 40
60.0
 40
60.0
 40
60.0
 40
61.0
 40
61.0
 40
61.0
 40
62.0
 40
62.0
 40
62.0
 40
63.0
 40
63.0
 40
63.0
 40
64.0
 40
64.0
 40
64.0
 40
65.0
 40
65.0
 40
65.0
 40
66.0
 40
66.0
 40
66.0
 40
66.0
 10
101.5886311594986
 20
-151.3006699925568
 10
101.5886311594986
 20
-151.3006699925568
 10
101.0301811813397
 20
-151.3006699925568
 10
101.0301811813397
 20
-151.3006699925568
 10
101.0195013853354
 20
-151.3451117243165
 10
101.0110609013965
 20
-151.3768066027808
 10
100.9983140481011
 20
-151.4147026531185
 10
101.0238077546919
 20
-151.4147026531185
 10
101.0386216652785
 20
-151.4171142199582
 10
101.0449950919262
 20
-151.4171142199582
 10
101.0449950919262
 20
-151.4171142199582
 10
101.2332695601951
 20
-151.4171142199582
 10
101.2332695601951
 20
-151.4171142199582
 10
101.2332695601951
 20
-151.4171142199582
 10
101.6075791846675
 20
-151.4171142199582
 10
101.6075791846675
 20
-151.4171142199582
 10
101.658394343075
 20
-151.4171142199582
 10
101.941925701511
 20
-151.4043673666628
 10
101.9736205799753
 20
-151.4043673666628
 10
101.9715535226842
 20
-151.4319281305448
 10
101.9693142106188
 20
-151.4508761557136
 10
101.9693142106188
 20
-151.4805039768868
 10
101.9672471533276
 20
-151.5121988553511
 10
101.9672471533276
 20
-151.6475911079214
 10
101.9672471533276
 20
-151.6751518718034
 10
101.9672471533276
 20
-151.6751518718034
 10
101.9672471533276
 20
-151.9204426703532
 10
101.9672471533276
 20
-151.9204426703532
 10
101.9672471533276
 20
-151.9648844021129
 10
101.9715535226842
 20
-152.1615993543207
 10
101.9756876372665
 20
-152.3138725747687
 10
101.9756876372665
 20
-152.3138725747687
 10
101.7493448638856
 20
-152.3138725747687
 10
101.7493448638856
 20
-152.3138725747687
 10
101.7493448638856
 20
-152.3138725747687
 10
101.751584175951
 20
-152.2801106390133
 10
101.751584175951
 20
-152.2801106390133
 10
101.751584175951
 20
-152.2801106390133
 10
101.0491292065085
 20
-152.2801106390133
 10
101.0491292065085
 20
-152.2801106390133
 10
101.0491292065085
 20
-152.2801106390133
 10
101.0511962637997
 20
-152.3138725747687
 10
101.0511962637997
 20
-152.3138725747687
 10
101.0511962637997
 20
-152.3138725747687
 10
100.8332939743576
 20
-152.3138725747687
 10
100.8332939743576
 20
-152.3138725747687
 10
100.8376003437142
 20
-152.2587510470047
 10
100.8376003437142
 20
-152.2463487032578
 10
100.8439737703619
 20
-152.1319715331476
 10
100.8460408276531
 20
-152.1044107692655
 10
100.8481078849442
 20
-151.9710855739864
 10
100.8481078849442
 20
-151.9521375488175
 10
100.8481078849442
 20
-151.9521375488175
 10
100.8481078849442
 20
-151.7492214247363
 10
100.8481078849442
 20
-151.7492214247363
 10
100.7085815177916
 20
-151.9986463378684
 10
100.5392550746916
 20
-152.1299044758564
 10
100.4334906432944
 20
-152.1953612900761
 10
100.4334906432944
 20
-152.1953612900761
 10
100.2600300856121
 20
-152.0558349229235
 10
100.2600300856121
 20
-152.0558349229235
 10
100.3489135491315
 20
-152.0051920192903
 10
100.4927462856407
 20
-151.918375613062
 10
100.6302055955021
 20
-151.7237277181454
 10
100.721328371087
 20
-151.5966036947397
 10
100.7867851853068
 20
-151.4529432130048
 10
100.8207193758365
 20
-151.3006699925568
 10
100.5921372903902
 20
-151.3027370498479
 10
100.4123033060601
 20
-151.3089382217214
 10
100.3172186706672
 20
-151.3110052790125
 10
100.3172186706672
 20
-151.3110052790125
 10
100.3172186706672
 20
-151.1335828615221
 10
100.3172186706672
 20
-151.1335828615221
 10
100.513933622875
 20
-151.1397840333956
 10
100.797464981311
 20
-151.1439181479779
 10
100.9476711444679
 20
-151.1439181479779
 10
100.9476711444679
 20
-151.1439181479779
 10
101.1612670645534
 20
-151.1439181479779
 10
101.1612670645534
 20
-151.1439181479779
 10
101.1612670645534
 20
-151.1439181479779
 10
101.1612670645534
 20
-151.0360866592896
 10
101.1612670645534
 20
-151.0360866592896
 10
101.1612670645534
 20
-151.0360866592896
 10
101.0153672707531
 20
-151.0360866592896
 10
101.0153672707531
 20
-151.0360866592896
 10
100.8460408276531
 20
-151.0360866592896
 10
100.6768866393273
 20
-151.0402207738719
 10
100.5096272535184
 20
-151.0467664552938
 10
100.5096272535184
 20
-151.0467664552938
 10
100.5096272535184
 20
-150.8755452096769
 10
100.5096272535184
 20
-150.8755452096769
 10
100.6641397860319
 20
-150.8858804961327
 10
100.8503471970096
 20
-150.8858804961327
 10
101.0153672707531
 20
-150.8858804961327
 10
101.0153672707531
 20
-150.8858804961327
 10
101.1612670645534
 20
-150.8858804961327
 10
101.1612670645534
 20
-150.8858804961327
 10
101.1612670645534
 20
-150.8858804961327
 10
101.1612670645534
 20
-150.7673692114401
 10
101.1612670645534
 20
-150.7673692114401
 10
101.1612670645534
 20
-150.7673692114401
 10
101.0301811813397
 20
-150.7673692114401
 10
101.0301811813397
 20
-150.7673692114401
 10
100.9835001375145
 20
-150.7673692114401
 10
100.7804117586591
 20
-150.7759819501532
 10
100.7382093389647
 20
-150.7759819501532
 10
100.5351209601093
 20
-150.7801160647355
 10
100.4589843498852
 20
-150.7821831220267
 10
100.3806084275958
 20
-150.7842501793178
 10
100.3806084275958
 20
-150.7842501793178
 10
100.3806084275958
 20
-150.6002820804055
 10
100.3806084275958
 20
-150.6002820804055
 10
100.4948133429318
 20
-150.6088948191186
 10
100.5392550746916
 20
-150.6088948191186
 10
100.9221774378771
 20
-150.6171630482832
 10
100.8587876809485
 20
-150.5220784128903
 10
100.8312269170665
 20
-150.4945176490083
 10
100.7952256692456
 20
-150.4586886559617
 10
100.7952256692456
 20
-150.4586886559617
 10
100.9709255389934
 20
-150.3760063643157
 10
100.9709255389934
 20
-150.3760063643157
 10
101.0110609013965
 20
-150.4121798669108
 10
101.0555026331562
 20
-150.4545545413794
 10
101.1295721860891
 20
-150.5644530873589
 10
101.1295721860891
 20
-150.5644530873589
 10
101.0153672707531
 20
-150.6195746151229
 10
101.0153672707531
 20
-150.6195746151229
 10
101.0153672707531
 20
-150.6195746151229
 10
101.0258748119831
 20
-150.6195746151229
 10
101.0258748119831
 20
-150.6195746151229
 10
101.0258748119831
 20
-150.6195746151229
 10
101.5483235423212
 20
-150.6195746151229
 10
101.5483235423212
 20
-150.6195746151229
 10
101.5483235423212
 20
-150.6195746151229
 10
101.4532389069283
 20
-150.5751328833632
 10
101.4532389069283
 20
-150.5751328833632
 10
101.4807996708103
 20
-150.5368923234769
 10
101.5378160010912
 20
-150.4566215986706
 10
101.5526299116778
 20
-150.3825520457377
 10
101.5526299116778
 20
-150.3825520457377
 10
101.7662258317633
 20
-150.4459418026663
 10
101.7662258317633
 20
-150.4459418026663
 10
101.7748385704764
 20
-150.4480088599574
 10
101.7958536529364
 20
-150.4586886559617
 10
101.7958536529364
 20
-150.4797037384217
 10
101.7958536529364
 20
-150.517944298308
 10
101.7303968387167
 20
-150.517944298308
 10
101.7112765587736
 20
-150.517944298308
 10
101.7007690175435
 20
-150.5368923234769
 10
101.6775146230181
 20
-150.5771999406543
 10
101.6478868018449
 20
-150.6171630482832
 10
102.0476901329082
 20
-150.6109618764097
 10
102.0773179540813
 20
-150.6088948191186
 10
102.1534545643054
 20
-150.6023491376966
 10
102.1534545643054
 20
-150.6023491376966
 10
102.1534545643054
 20
-150.7842501793178
 10
102.1534545643054
 20
-150.7842501793178
 10
102.1343342843622
 20
-150.7842501793178
 10
102.1090128325456
 20
-150.7821831220267
 10
101.8890434858124
 20
-150.7739148928621
 10
101.838228327405
 20
-150.7718478355709
 10
101.6182589806718
 20
-150.7673692114401
 10
101.5738172489121
 20
-150.7673692114401
 10
101.5738172489121
 20
-150.7673692114401
 10
101.3579820167612
 20
-150.7673692114401
 10
101.3579820167612
 20
-150.7673692114401
 10
101.3579820167612
 20
-150.7673692114401
 10
101.3579820167612
 20
-150.8858804961327
 10
101.3579820167612
 20
-150.8858804961327
 10
101.3579820167612
 20
-150.8858804961327
 10
101.5314425744435
 20
-150.8858804961327
 10
101.5314425744435
 20
-150.8858804961327
 10
101.6943955908958
 20
-150.8858804961327
 10
101.8847371164559
 20
-150.8858804961327
 10
102.0413167062605
 20
-150.8755452096769
 10
102.0413167062605
 20
-150.8755452096769
 10
102.0413167062605
 20
-151.0467664552938
 10
102.0413167062605
 20
-151.0467664552938
 10
101.8318549007573
 20
-151.0381537165807
 10
101.6351399485495
 20
-151.0360866592896
 10
101.5314425744435
 20
-151.0360866592896
 10
101.5314425744435
 20
-151.0360866592896
 10
101.3579820167612
 20
-151.0360866592896
 10
101.3579820167612
 20
-151.0360866592896
 10
101.3579820167612
 20
-151.0360866592896
 10
101.3579820167612
 20
-151.1439181479779
 10
101.3579820167612
 20
-151.1439181479779
 10
101.3579820167612
 20
-151.1439181479779
 10
101.5886311594986
 20
-151.1439181479779
 10
101.5886311594986
 20
-151.1439181479779
 10
101.7219563547778
 20
-151.1439181479779
 10
102.0096218277962
 20
-151.1397840333956
 10
102.2190836332994
 20
-151.1335828615221
 10
102.2190836332994
 20
-151.1335828615221
 10
102.2190836332994
 20
-151.3110052790125
 10
102.2190836332994
 20
-151.3110052790125
 10
102.0265027956739
 20
-151.3048041071391
 10
101.7133436160647
 20
-151.3006699925568
 10
101.5886311594986
 20
-151.3006699925568
 97
        0
 97
        1
330
11C
 75
     2
 76
     1
 98
        1
 10
0.0
 20
0.0
450
        0
451
        0
460
0.0
461
0.0
452
        0
462
0.0
453
        0
470

  0
SPLINE
  5
11E
330
111
100
AcDbEntity
  8
レイヤー 1
100
AcDbSpline
210
0.0
220
0.0
230
1.0
 70
     9
 71
     3
 72
    29
 73
    25
 74
     0
 42
0.0000000001
 43
0.0000000001
 40
0.0
 40
0.0
 40
0.0
 40
0.0
 40
1.0
 40
1.0
 40
1.0
 40
2.0
 40
2.0
 40
2.0
 40
3.0
 40
3.0
 40
3.0
 40
4.0
 40
4.0
 40
4.0
 40
5.0
 40
5.0
 40
5.0
 40
6.0
 40
6.0
 40
6.0
 40
7.0
 40
7.0
 40
7.0
 40
8.0
 40
8.0
 40
8.0
 40
8.0
 10
103.4641411416687
 20
-150.7484211862712
 30
0.0
 10
103.4641411416687
 20
-150.7484211862712
 30
0.0
 10
103.1108465996563
 20
-150.7484211862712
 30
0.0
 10
103.1108465996563
 20
-150.7484211862712
 30
0.0
 10
102.9987087416114
 20
-150.7484211862712
 30
0.0
 10
102.8590101196845
 20
-150.7549668676932
 30
0.0
 10
102.7511786309962
 20
-150.7673692114401
 30
0.0
 10
102.7511786309962
 20
-150.7673692114401
 30
0.0
 10
102.7511786309962
 20
-150.5327582088946
 30
0.0
 10
102.7511786309962
 20
-150.5327582088946
 30
0.0
 10
102.8696899156888
 20
-150.5475721194811
 30
0.0
 10
103.0536580146012
 20
-150.5517062340634
 30
0.0
 10
103.1108465996563
 20
-150.5517062340634
 30
0.0
 10
103.1108465996563
 20
-150.5517062340634
 30
0.0
 10
103.4641411416687
 20
-150.5517062340634
 30
0.0
 10
103.4641411416687
 20
-150.5517062340634
 30
0.0
 10
103.4830891668375
 20
-150.5517062340634
 30
0.0
 10
103.686177545693
 20
-150.5517062340634
 30
0.0
 10
103.8279432249111
 20
-150.5327582088946
 30
0.0
 10
103.8279432249111
 20
-150.5327582088946
 30
0.0
 10
103.8279432249111
 20
-150.7673692114401
 30
0.0
 10
103.8279432249111
 20
-150.7673692114401
 30
0.0
 10
103.6713636351064
 20
-150.7484211862712
 30
0.0
 10
103.4810221095464
 20
-150.7484211862712
 30
0.0
 10
103.4641411416687
 20
-150.7484211862712
 30
0.0
  0
SPLINE
  5
11F
330
111
100
AcDbEntity
  8
レイヤー 1
100
AcDbSpline
210
0.0
220
0.0
230
1.0
 70
     9
 71
     3
 72
    47
 73
    43
 74
     0
 42
0.0000000001
 43
0.0000000001
 40
0.0
 40
0.0
 40
0.0
 40
0.0
 40
1.0
 40
1.0
 40
1.0
 40
2.0
 40
2.0
 40
2.0
 40
3.0
 40
3.0
 40
3.0
 40
4.0
 40
4.0
 40
4.0
 40
5.0
 40
5.0
 40
5.0
 40
6.0
 40
6.0
 40
6.0
 40
7.0
 40
7.0
 40
7.0
 40
8.0
 40
8.0
 40
8.0
 40
9.0
 40
9.0
 40
9.0
 40
10.0
 40
10.0
 40
10.0
 40
11.0
 40
11.0
 40
11.0
 40
12.0
 40
12.0
 40
12.0
 40
13.0
 40
13.0
 40
13.0
 40
14.0
 40
14.0
 40
14.0
 40
14.0
 10
103.5655992037093
 20
-151.2772433432571
 30
0.0
 10
103.5655992037093
 20
-151.2772433432571
 30
0.0
 10
103.4641411416687
 20
-151.2772433432571
 30
0.0
 10
103.4641411416687
 20
-151.2772433432571
 30
0.0
 10
103.4641411416687
 20
-151.3640597494854
 30
0.0
 10
103.4429538044344
 20
-151.7533555393186
 30
0.0
 10
103.2462388522266
 20
-151.9734971408261
 30
0.0
 10
103.0937933770043
 20
-152.1426513291518
 30
0.0
 10
102.8865708835665
 20
-152.2122422579539
 30
0.0
 10
102.8019937894036
 20
-152.2398030218359
 30
0.0
 10
102.8019937894036
 20
-152.2398030218359
 30
0.0
 10
102.607345894487
 20
-152.0727158908013
 30
0.0
 10
102.607345894487
 20
-152.0727158908013
 30
0.0
 10
102.7046698419453
 20
-152.0599690375058
 30
0.0
 10
102.8801974569188
 20
-152.0368868977547
 30
0.0
 10
103.0684719251877
 20
-151.8484401747115
 30
0.0
 10
103.1425414781206
 20
-151.7764376790698
 30
0.0
 10
103.2462388522266
 20
-151.6369113119172
 30
0.0
 10
103.2462388522266
 20
-151.2772433432571
 30
0.0
 10
103.2462388522266
 20
-151.2772433432571
 30
0.0
 10
103.0155897094891
 20
-151.2772433432571
 30
0.0
 10
103.0155897094891
 20
-151.2772433432571
 30
0.0
 10
102.8293822985114
 20
-151.2772433432571
 30
0.0
 10
102.6431748875336
 20
-151.2817219673879
 30
0.0
 10
102.4571397313301
 20
-151.2965358779745
 30
0.0
 10
102.4571397313301
 20
-151.2965358779745
 30
0.0
 10
102.4571397313301
 20
-151.076394276467
 30
0.0
 10
102.4571397313301
 20
-151.076394276467
 30
0.0
 10
102.645414199599
 20
-151.0912081870536
 30
0.0
 10
102.9310126153263
 20
-151.0953423016359
 30
0.0
 10
103.0155897094891
 20
-151.0953423016359
 30
0.0
 10
103.0155897094891
 20
-151.0953423016359
 30
0.0
 10
103.5655992037093
 20
-151.0953423016359
 30
0.0
 10
103.5655992037093
 20
-151.0953423016359
 30
0.0
 10
103.5847194836524
 20
-151.0953423016359
 30
0.0
 10
103.9020127778439
 20
-151.0953423016359
 30
0.0
 10
104.130422608516
 20
-151.076394276467
 30
0.0
 10
104.130422608516
 20
-151.076394276467
 30
0.0
 10
104.130422608516
 20
-151.2965358779745
 30
0.0
 10
104.130422608516
 20
-151.2965358779745
 30
0.0
 10
103.9421481402471
 20
-151.2817219673879
 30
0.0
 10
103.7538736719782
 20
-151.2772433432571
 30
0.0
 10
103.5655992037093
 20
-151.2772433432571
 30
0.0
  0
HATCH
  5
120
330
111
100
AcDbEntity
  8
レイヤー 1
 62
    18
420
        0
440
 33554687
100
AcDbHatch
 10
0.0
 20
0.0
 30
0.0
210
0.0
220
0.0
230
1.0
  2
SOLID
 70
     1
 71
     1
 91
        2
 92
        1
 93
        1
 72
     4
 94
        3
 73
     0
 74
     0
 95
       29
 96
       25
 40
0.0
 40
0.0
 40
0.0
 40
0.0
 40
1.0
 40
1.0
 40
1.0
 40
2.0
 40
2.0
 40
2.0
 40
3.0
 40
3.0
 40
3.0
 40
4.0
 40
4.0
 40
4.0
 40
5.0
 40
5.0
 40
5.0
 40
6.0
 40
6.0
 40
6.0
 40
7.0
 40
7.0
 40
7.0
 40
8.0
 40
8.0
 40
8.0
 40
8.0
 10
103.4641411416687
 20
-150.7484211862712
 10
103.4641411416687
 20
-150.7484211862712
 10
103.1108465996563
 20
-150.7484211862712
 10
103.1108465996563
 20
-150.7484211862712
 10
102.9987087416114
 20
-150.7484211862712
 10
102.8590101196845
 20
-150.7549668676932
 10
102.7511786309962
 20
-150.7673692114401
 10
102.7511786309962
 20
-150.7673692114401
 10
102.7511786309962
 20
-150.5327582088946
 10
102.7511786309962
 20
-150.5327582088946
 10
102.8696899156888
 20
-150.5475721194811
 10
103.0536580146012
 20
-150.5517062340634
 10
103.1108465996563
 20
-150.5517062340634
 10
103.1108465996563
 20
-150.5517062340634
 10
103.4641411416687
 20
-150.5517062340634
 10
103.4641411416687
 20
-150.5517062340634
 10
103.4830891668375
 20
-150.5517062340634
 10
103.686177545693
 20
-150.5517062340634
 10
103.8279432249111
 20
-150.5327582088946
 10
103.8279432249111
 20
-150.5327582088946
 10
103.8279432249111
 20
-150.7673692114401
 10
103.8279432249111
 20
-150.7673692114401
 10
103.6713636351064
 20
-150.7484211862712
 10
103.4810221095464
 20
-150.7484211862712
 10
103.4641411416687
 20
-150.7484211862712
 97
        0
 97
        1
330
11E
 92
        1
 93
        1
 72
     4
 94
        3
 73
     0
 74
     0
 95
       47
 96
       43
 40
0.0
 40
0.0
 40
0.0
 40
0.0
 40
1.0
 40
1.0
 40
1.0
 40
2.0
 40
2.0
 40
2.0
 40
3.0
 40
3.0
 40
3.0
 40
4.0
 40
4.0
 40
4.0
 40
5.0
 40
5.0
 40
5.0
 40
6.0
 40
6.0
 40
6.0
 40
7.0
 40
7.0
 40
7.0
 40
8.0
 40
8.0
 40
8.0
 40
9.0
 40
9.0
 40
9.0
 40
10.0
 40
10.0
 40
10.0
 40
11.0
 40
11.0
 40
11.0
 40
12.0
 40
12.0
 40
12.0
 40
13.0
 40
13.0
 40
13.0
 40
14.0
 40
14.0
 40
14.0
 40
14.0
 10
103.5655992037093
 20
-151.2772433432571
 10
103.5655992037093
 20
-151.2772433432571
 10
103.4641411416687
 20
-151.2772433432571
 10
103.4641411416687
 20
-151.2772433432571
 10
103.4641411416687
 20
-151.3640597494854
 10
103.4429538044344
 20
-151.7533555393186
 10
103.2462388522266
 20
-151.9734971408261
 10
103.0937933770043
 20
-152.1426513291518
 10
102.8865708835665
 20
-152.2122422579539
 10
102.8019937894036
 20
-152.2398030218359
 10
102.8019937894036
 20
-152.2398030218359
 10
102.607345894487
 20
-152.0727158908013
 10
102.607345894487
 20
-152.0727158908013
 10
102.7046698419453
 20
-152.0599690375058
 10
102.8801974569188
 20
-152.0368868977547
 10
103.0684719251877
 20
-151.8484401747115
 10
103.1425414781206
 20
-151.7764376790698
 10
103.2462388522266
 20
-151.6369113119172
 10
103.2462388522266
 20
-151.2772433432571
 10
103.2462388522266
 20
-151.2772433432571
 10
103.0155897094891
 20
-151.2772433432571
 10
103.0155897094891
 20
-151.2772433432571
 10
102.8293822985114
 20
-151.2772433432571
 10
102.6431748875336
 20
-151.2817219673879
 10
102.4571397313301
 20
-151.2965358779745
 10
102.4571397313301
 20
-151.2965358779745
 10
102.4571397313301
 20
-151.076394276467
 10
102.4571397313301
 20
-151.076394276467
 10
102.645414199599
 20
-151.0912081870536
 10
102.9310126153263
 20
-151.0953423016359
 10
103.0155897094891
 20
-151.0953423016359
 10
103.0155897094891
 20
-151.0953423016359
 10
103.5655992037093
 20
-151.0953423016359
 10
103.5655992037093
 20
-151.0953423016359
 10
103.5847194836524
 20
-151.0953423016359
 10
103.9020127778439
 20
-151.0953423016359
 10
104.130422608516
 20
-151.076394276467
 10
104.130422608516
 20
-151.076394276467
 10
104.130422608516
 20
-151.2965358779745
 10
104.130422608516
 20
-151.2965358779745
 10
103.9421481402471
 20
-151.2817219673879
 10
103.7538736719782
 20
-151.2772433432571
 10
103.5655992037093
 20
-151.2772433432571
 97
        0
 97
        1
330
11F
 75
     2
 76
     1
 98
        1
 10
0.0
 20
0.0
450
        0
451
        0
460
0.0
461
0.0
452
        0
462
0.0
453
        0
470

  0
SPLINE
  5
121
330
111
100
AcDbEntity
  8
レイヤー 1
100
AcDbSpline
210
0.0
220
0.0
230
1.0
 70
     9
 71
     3
 72
    29
 73
    25
 74
     0
 42
0.0000000001
 43
0.0000000001
 40
0.0
 40
0.0
 40
0.0
 40
0.0
 40
1.0
 40
1.0
 40
1.0
 40
2.0
 40
2.0
 40
2.0
 40
3.0
 40
3.0
 40
3.0
 40
4.0
 40
4.0
 40
4.0
 40
5.0
 40
5.0
 40
5.0
 40
6.0
 40
6.0
 40
6.0
 40
7.0
 40
7.0
 40
7.0
 40
8.0
 40
8.0
 40
8.0
 40
8.0
 10
105.4113091099319
 20
-151.4401963597094
 30
0.0
 10
105.4113091099319
 20
-151.4401963597094
 30
0.0
 10
104.9269286847057
 20
-151.4401963597094
 30
0.0
 10
104.9269286847057
 20
-151.4401963597094
 30
0.0
 10
104.8993679208237
 20
-151.4401963597094
 30
0.0
 10
104.5820746266322
 20
-151.4401963597094
 30
0.0
 10
104.3705457638379
 20
-151.4656900663002
 30
0.0
 10
104.3705457638379
 20
-151.4656900663002
 30
0.0
 10
104.3705457638379
 20
-151.2348686687885
 30
0.0
 10
104.3705457638379
 20
-151.2348686687885
 30
0.0
 10
104.5291924109337
 20
-151.2582953180882
 30
0.0
 10
104.7195339364937
 20
-151.2603623753794
 30
0.0
 10
104.9269286847057
 20
-151.2603623753794
 30
0.0
 10
104.9269286847057
 20
-151.2603623753794
 30
0.0
 10
105.4113091099319
 20
-151.2603623753794
 30
0.0
 10
105.4113091099319
 20
-151.2603623753794
 30
0.0
 10
105.5976887756839
 20
-151.2603623753794
 30
0.0
 10
105.7837239318874
 20
-151.2582953180882
 30
0.0
 10
105.9676920307997
 20
-151.2348686687885
 30
0.0
 10
105.9676920307997
 20
-151.2348686687885
 30
0.0
 10
105.9676920307997
 20
-151.4656900663002
 30
0.0
 10
105.9676920307997
 20
-151.4656900663002
 30
0.0
 10
105.7837239318874
 20
-151.4422634170005
 30
0.0
 10
105.5363660760464
 20
-151.4401963597094
 30
0.0
 10
105.4113091099319
 20
-151.4401963597094
 30
0.0
  0
HATCH
  5
122
330
111
100
AcDbEntity
  8
レイヤー 1
 62
    18
420
        0
440
 33554687
100
AcDbHatch
 10
0.0
 20
0.0
 30
0.0
210
0.0
220
0.0
230
1.0
  2
SOLID
 70
     1
 71
     1
 91
        1
 92
        1
 93
        1
 72
     4
 94
        3
 73
     0
 74
     0
 95
       29
 96
       25
 40
0.0
 40
0.0
 40
0.0
 40
0.0
 40
1.0
 40
1.0
 40
1.0
 40
2.0
 40
2.0
 40
2.0
 40
3.0
 40
3.0
 40
3.0
 40
4.0
 40
4.0
 40
4.0
 40
5.0
 40
5.0
 40
5.0
 40
6.0
 40
6.0
 40
6.0
 40
7.0
 40
7.0
 40
7.0
 40
8.0
 40
8.0
 40
8.0
 40
8.0
 10
105.4113091099319
 20
-151.4401963597094
 10
105.4113091099319
 20
-151.4401963597094
 10
104.9269286847057
 20
-151.4401963597094
 10
104.9269286847057
 20
-151.4401963597094
 10
104.8993679208237
 20
-151.4401963597094
 10
104.5820746266322
 20
-151.4401963597094
 10
104.3705457638379
 20
-151.4656900663002
 10
104.3705457638379
 20
-151.4656900663002
 10
104.3705457638379
 20
-151.2348686687885
 10
104.3705457638379
 20
-151.2348686687885
 10
104.5291924109337
 20
-151.2582953180882
 10
104.7195339364937
 20
-151.2603623753794
 10
104.9269286847057
 20
-151.2603623753794
 10
104.9269286847057
 20
-151.2603623753794
 10
105.4113091099319
 20
-151.2603623753794
 10
105.4113091099319
 20
-151.2603623753794
 10
105.5976887756839
 20
-151.2603623753794
 10
105.7837239318874
 20
-151.2582953180882
 10
105.9676920307997
 20
-151.2348686687885
 10
105.9676920307997
 20
-151.2348686687885
 10
105.9676920307997
 20
-151.4656900663002
 10
105.9676920307997
 20
-151.4656900663002
 10
105.7837239318874
 20
-151.4422634170005
 10
105.5363660760464
 20
-151.4401963597094
 10
105.4113091099319
 20
-151.4401963597094
 97
        0
 97
        1
330
121
 75
     2
 76
     1
 98
        1
 10
0.0
 20
0.0
450
        0
451
        0
460
0.0
461
0.0
452
        0
462
0.0
453
        0
470

  0
SPLINE
  5
123
330
111
100
AcDbEntity
  8
レイヤー 1
100
AcDbSpline
210
0.0
220
0.0
230
1.0
 70
     9
 71
     3
 72
    47
 73
    43
 74
     0
 42
0.0000000001
 43
0.0000000001
 40
0.0
 40
0.0
 40
0.0
 40
0.0
 40
1.0
 40
1.0
 40
1.0
 40
2.0
 40
2.0
 40
2.0
 40
3.0
 40
3.0
 40
3.0
 40
4.0
 40
4.0
 40
4.0
 40
5.0
 40
5.0
 40
5.0
 40
6.0
 40
6.0
 40
6.0
 40
7.0
 40
7.0
 40
7.0
 40
8.0
 40
8.0
 40
8.0
 40
9.0
 40
9.0
 40
9.0
 40
10.0
 40
10.0
 40
10.0
 40
11.0
 40
11.0
 40
11.0
 40
12.0
 40
12.0
 40
12.0
 40
13.0
 40
13.0
 40
13.0
 40
14.0
 40
14.0
 40
14.0
 40
14.0
 10
107.6316731501754
 20
-150.8459173885038
 30
0.0
 10
107.5617377118248
 20
-151.124970122809
 30
0.0
 10
107.4856011016008
 20
-151.4295165637051
 30
0.0
 10
107.1724419219916
 20
-151.7616237684832
 30
0.0
 10
106.9354193526064
 20
-152.0113931911638
 30
0.0
 10
106.6901285540566
 20
-152.1109564506875
 30
0.0
 10
106.5843641226594
 20
-152.1529866156076
 30
0.0
 10
106.5843641226594
 20
-152.1529866156076
 30
0.0
 10
106.3897162277428
 20
-151.9710855739864
 30
0.0
 10
106.3897162277428
 20
-151.9710855739864
 30
0.0
 10
106.5757513839463
 20
-151.9245767849355
 30
0.0
 10
106.9378309194461
 20
-151.8315592068338
 30
0.0
 10
107.233764621629
 20
-151.3364989856034
 30
0.0
 10
107.3946505807902
 20
-151.069848595045
 30
0.0
 10
107.4073974340856
 20
-150.8965602921369
 30
0.0
 10
107.4156656632502
 20
-150.8056097713263
 30
0.0
 10
107.4156656632502
 20
-150.8056097713263
 30
0.0
 10
106.9102701555641
 20
-150.8056097713263
 30
0.0
 10
106.9102701555641
 20
-150.8056097713263
 30
0.0
 10
106.7917588708715
 20
-150.8056097713263
 30
0.0
 10
106.370768202574
 20
-150.8245577964953
 30
0.0
 10
106.2184949821259
 20
-150.8352375924995
 30
0.0
 10
106.2184949821259
 20
-150.8352375924995
 30
0.0
 10
106.2184949821259
 20
-150.6257757869963
 30
0.0
 10
106.2184949821259
 20
-150.6257757869963
 30
0.0
 10
106.3600884065697
 20
-150.6385226402917
 30
0.0
 10
106.6374185931323
 20
-150.642656754874
 30
0.0
 10
106.7535183109852
 20
-150.642656754874
 30
0.0
 10
106.7535183109852
 20
-150.642656754874
 30
0.0
 10
107.109052165063
 20
-150.642656754874
 30
0.0
 10
107.109052165063
 20
-150.642656754874
 30
0.0
 10
107.136612928945
 20
-150.642656754874
 30
0.0
 10
107.2971543785576
 20
-150.6405896975829
 30
0.0
 10
107.4073974340856
 20
-150.6257757869963
 30
0.0
 10
107.4645860191408
 20
-150.6195746151229
 30
0.0
 10
107.4814669870185
 20
-150.6002820804055
 30
0.0
 10
107.5045491267697
 20
-150.5771999406543
 30
0.0
 10
107.5045491267697
 20
-150.5771999406543
 30
0.0
 10
107.6929958498128
 20
-150.7274061038112
 30
0.0
 10
107.6929958498128
 20
-150.7274061038112
 30
0.0
 10
107.6781819392263
 20
-150.7570339249843
 30
0.0
 10
107.667502143222
 20
-150.7759819501532
 30
0.0
 10
107.6316731501754
 20
-150.8459173885038
 30
0.0
  0
HATCH
  5
124
330
111
100
AcDbEntity
  8
レイヤー 1
 62
    18
420
        0
440
 33554687
100
AcDbHatch
 10
0.0
 20
0.0
 30
0.0
210
0.0
220
0.0
230
1.0
  2
SOLID
 70
     1
 71
     1
 91
        1
 92
        1
 93
        1
 72
     4
 94
        3
 73
     0
 74
     0
 95
       47
 96
       43
 40
0.0
 40
0.0
 40
0.0
 40
0.0
 40
1.0
 40
1.0
 40
1.0
 40
2.0
 40
2.0
 40
2.0
 40
3.0
 40
3.0
 40
3.0
 40
4.0
 40
4.0
 40
4.0
 40
5.0
 40
5.0
 40
5.0
 40
6.0
 40
6.0
 40
6.0
 40
7.0
 40
7.0
 40
7.0
 40
8.0
 40
8.0
 40
8.0
 40
9.0
 40
9.0
 40
9.0
 40
10.0
 40
10.0
 40
10.0
 40
11.0
 40
11.0
 40
11.0
 40
12.0
 40
12.0
 40
12.0
 40
13.0
 40
13.0
 40
13.0
 40
14.0
 40
14.0
 40
14.0
 40
14.0
 10
107.6316731501754
 20
-150.8459173885038
 10
107.5617377118248
 20
-151.124970122809
 10
107.4856011016008
 20
-151.4295165637051
 10
107.1724419219916
 20
-151.7616237684832
 10
106.9354193526064
 20
-152.0113931911638
 10
106.6901285540566
 20
-152.1109564506875
 10
106.5843641226594
 20
-152.1529866156076
 10
106.5843641226594
 20
-152.1529866156076
 10
106.3897162277428
 20
-151.9710855739864
 10
106.3897162277428
 20
-151.9710855739864
 10
106.5757513839463
 20
-151.9245767849355
 10
106.9378309194461
 20
-151.8315592068338
 10
107.233764621629
 20
-151.3364989856034
 10
107.3946505807902
 20
-151.069848595045
 10
107.4073974340856
 20
-150.8965602921369
 10
107.4156656632502
 20
-150.8056097713263
 10
107.4156656632502
 20
-150.8056097713263
 10
106.9102701555641
 20
-150.8056097713263
 10
106.9102701555641
 20
-150.8056097713263
 10
106.7917588708715
 20
-150.8056097713263
 10
106.370768202574
 20
-150.8245577964953
 10
106.2184949821259
 20
-150.8352375924995
 10
106.2184949821259
 20
-150.8352375924995
 10
106.2184949821259
 20
-150.6257757869963
 10
106.2184949821259
 20
-150.6257757869963
 10
106.3600884065697
 20
-150.6385226402917
 10
106.6374185931323
 20
-150.642656754874
 10
106.7535183109852
 20
-150.642656754874
 10
106.7535183109852
 20
-150.642656754874
 10
107.109052165063
 20
-150.642656754874
 10
107.109052165063
 20
-150.642656754874
 10
107.136612928945
 20
-150.642656754874
 10
107.2971543785576
 20
-150.6405896975829
 10
107.4073974340856
 20
-150.6257757869963
 10
107.4645860191408
 20
-150.6195746151229
 10
107.4814669870185
 20
-150.6002820804055
 10
107.5045491267697
 20
-150.5771999406543
 10
107.5045491267697
 20
-150.5771999406543
 10
107.6929958498128
 20
-150.7274061038112
 10
107.6929958498128
 20
-150.7274061038112
 10
107.6781819392263
 20
-150.7570339249843
 10
107.667502143222
 20
-150.7759819501532
 10
107.6316731501754
 20
-150.8459173885038
 97
        0
 97
        1
330
123
 75
     2
 76
     1
 98
        1
 10
0.0
 20
0.0
450
        0
451
        0
460
0.0
461
0.0
452
        0
462
0.0
453
        0
470

  0
SPLINE
  5
125
330
111
100
AcDbEntity
  8
レイヤー 1
100
AcDbSpline
210
0.0
220
0.0
230
1.0
 70
    11
 71
     3
 72
    17
 73
    13
 74
     0
 42
0.0000000001
 43
0.0000000001
 40
0.0
 40
0.0
 40
0.0
 40
0.0
 40
1.0
 40
1.0
 40
1.0
 40
2.0
 40
2.0
 40
2.0
 40
3.0
 40
3.0
 40
3.0
 40
4.0
 40
4.0
 40
4.0
 40
4.0
 10
108.0216579591057
 20
-150.6278428442875
 30
0.0
 10
108.0216579591057
 20
-150.6870984866338
 30
0.0
 10
108.0685112577051
 20
-150.7336072756846
 30
0.0
 10
108.1277669000514
 20
-150.7336072756846
 30
0.0
 10
108.1866780328492
 20
-150.7336072756846
 30
0.0
 10
108.2355983887397
 20
-150.6870984866338
 30
0.0
 10
108.2355983887397
 20
-150.6278428442875
 30
0.0
 10
108.2355983887397
 20
-150.5685872019412
 30
0.0
 10
108.1866780328492
 20
-150.5200113555991
 30
0.0
 10
108.1277669000514
 20
-150.5200113555991
 30
0.0
 10
108.0685112577051
 20
-150.5200113555991
 30
0.0
 10
108.0216579591057
 20
-150.5685872019412
 30
0.0
 10
108.0216579591057
 20
-150.6278428442875
 30
0.0
  0
SPLINE
  5
126
330
111
100
AcDbEntity
  8
レイヤー 1
100
AcDbSpline
210
0.0
220
0.0
230
1.0
 70
     9
 71
     3
 72
    17
 73
    13
 74
     0
 42
0.0000000001
 43
0.0000000001
 40
0.0
 40
0.0
 40
0.0
 40
0.0
 40
1.0
 40
1.0
 40
1.0
 40
2.0
 40
2.0
 40
2.0
 40
3.0
 40
3.0
 40
3.0
 40
4.0
 40
4.0
 40
4.0
 40
4.0
 10
108.336884196006
 20
-150.6278428442875
 30
0.0
 10
108.336884196006
 20
-150.7422200143978
 30
0.0
 10
108.2438666179043
 20
-150.8373046497906
 30
0.0
 10
108.1277669000514
 20
-150.8373046497906
 30
0.0
 10
108.0133897299411
 20
-150.8373046497906
 30
0.0
 10
107.9183050945482
 20
-150.7422200143978
 30
0.0
 10
107.9183050945482
 20
-150.6278428442875
 30
0.0
 10
107.9183050945482
 20
-150.511398616886
 30
0.0
 10
108.0133897299411
 20
-150.4183810387843
 30
0.0
 10
108.1277669000514
 20
-150.4183810387843
 30
0.0
 10
108.2417995606131
 20
-150.4183810387843
 30
0.0
 10
108.336884196006
 20
-150.511398616886
 30
0.0
 10
108.336884196006
 20
-150.6278428442875
 30
0.0
  0
HATCH
  5
127
330
111
100
AcDbEntity
  8
レイヤー 1
 62
    18
420
        0
440
 33554687
100
AcDbHatch
 10
0.0
 20
0.0
 30
0.0
210
0.0
220
0.0
230
1.0
  2
SOLID
 70
     1
 71
     1
 91
        2
 92
        1
 93
        1
 72
     4
 94
        3
 73
     0
 74
     0
 95
       17
 96
       13
 40
0.0
 40
0.0
 40
0.0
 40
0.0
 40
1.0
 40
1.0
 40
1.0
 40
2.0
 40
2.0
 40
2.0
 40
3.0
 40
3.0
 40
3.0
 40
4.0
 40
4.0
 40
4.0
 40
4.0
 10
108.0216579591057
 20
-150.6278428442875
 10
108.0216579591057
 20
-150.6870984866338
 10
108.0685112577051
 20
-150.7336072756846
 10
108.1277669000514
 20
-150.7336072756846
 10
108.1866780328492
 20
-150.7336072756846
 10
108.2355983887397
 20
-150.6870984866338
 10
108.2355983887397
 20
-150.6278428442875
 10
108.2355983887397
 20
-150.5685872019412
 10
108.1866780328492
 20
-150.5200113555991
 10
108.1277669000514
 20
-150.5200113555991
 10
108.0685112577051
 20
-150.5200113555991
 10
108.0216579591057
 20
-150.5685872019412
 10
108.0216579591057
 20
-150.6278428442875
 97
        0
 97
        1
330
125
 92
        1
 93
        1
 72
     4
 94
        3
 73
     0
 74
     0
 95
       17
 96
       13
 40
0.0
 40
0.0
 40
0.0
 40
0.0
 40
1.0
 40
1.0
 40
1.0
 40
2.0
 40
2.0
 40
2.0
 40
3.0
 40
3.0
 40
3.0
 40
4.0
 40
4.0
 40
4.0
 40
4.0
 10
108.336884196006
 20
-150.6278428442875
 10
108.336884196006
 20
-150.7422200143978
 10
108.2438666179043
 20
-150.8373046497906
 10
108.1277669000514
 20
-150.8373046497906
 10
108.0133897299411
 20
-150.8373046497906
 10
107.9183050945482
 20
-150.7422200143978
 10
107.9183050945482
 20
-150.6278428442875
 10
107.9183050945482
 20
-150.511398616886
 10
108.0133897299411
 20
-150.4183810387843
 10
108.1277669000514
 20
-150.4183810387843
 10
108.2417995606131
 20
-150.4183810387843
 10
108.336884196006
 20
-150.511398616886
 10
108.336884196006
 20
-150.6278428442875
 97
        0
 97
        1
330
126
 75
     2
 76
     1
 98
        1
 10
0.0
 20
0.0
450
        0
451
        0
460
0.0
461
0.0
452
        0
462
0.0
453
        0
470

  0
ENDBLK
  5
114
330
111
100
AcDbEntity
  8
0
100
AcDbBlockEnd
  0
ENDSEC
  0
SECTION
  2
ENTITIES
  0
INSERT
  5
7A
330
70
100
AcDbEntity
  8
レイヤー 1
100
AcDbBlockReference
  2
Block_0
 10
0.0
 20
0.0
 30
0.0
  0
ENDSEC
  0
SECTION
  2
OBJECTS
  0
DICTIONARY
  5
C
330
0
100
AcDbDictionary
281
     1
  3
ACAD_COLOR
350
63
  3
ACAD_DETAILVIEWSTYLE
350
6A
  3
ACAD_GROUP
350
D
  3
ACAD_LAYOUT
350
62
  3
ACAD_MATERIAL
350
10
  3
ACAD_MLEADERSTYLE
350
66
  3
ACAD_MLINESTYLE
350
5F
  3
ACAD_PLOTSETTINGS
350
61
  3
ACAD_PLOTSTYLENAME
350
E
  3
ACAD_SCALELIST
350
42
  3
ACAD_SECTIONVIEWSTYLE
350
68
  3
ACAD_TABLESTYLE
350
64
  3
ACAD_VISUALSTYLE
350
29
  3
ACDB_RECOMPOSE_DATA
350
130
  3
AcDbVariableDictionary
350
128
  0
DICTIONARY
  5
63
102
{ACAD_REACTORS
330
C
102
}
330
C
100
AcDbDictionary
281
     1
  0
DICTIONARY
  5
6A
102
{ACAD_REACTORS
330
C
102
}
330
C
100
AcDbDictionary
281
     1
  3
Imperial24
350
6B
  0
DICTIONARY
  5
D
102
{ACAD_REACTORS
330
C
102
}
330
C
100
AcDbDictionary
281
     1
  0
DICTIONARY
  5
62
102
{ACAD_REACTORS
330
C
102
}
330
C
100
AcDbDictionary
281
     1
  3
Layout1
350
6F
  3
Layout2
350
77
  3
Model
350
73
  0
DICTIONARY
  5
10
102
{ACAD_REACTORS
330
C
102
}
330
C
100
AcDbDictionary
281
     1
  3
ByBlock
350
19
  3
ByLayer
350
11
  3
Global
350
21
  0
DICTIONARY
  5
66
102
{ACAD_REACTORS
330
C
102
}
330
C
100
AcDbDictionary
281
     1
  3
Standard
350
67
  0
DICTIONARY
  5
5F
102
{ACAD_REACTORS
330
C
102
}
330
C
100
AcDbDictionary
281
     1
  3
Standard
350
60
  0
DICTIONARY
  5
61
102
{ACAD_REACTORS
330
C
102
}
330
C
100
AcDbDictionary
281
     1
  0
ACDBDICTIONARYWDFLT
  5
E
102
{ACAD_REACTORS
330
C
102
}
330
C
100
AcDbDictionary
281
     1
  3
Normal
350
F
100
AcDbDictionaryWithDefault
340
F
  0
DICTIONARY
  5
42
102
{ACAD_REACTORS
330
C
102
}
330
C
100
AcDbDictionary
281
     1
  3
A0
350
43
  3
A1
350
44
  3
A2
350
45
  3
A3
350
46
  3
A4
350
47
  3
A5
350
48
  3
A6
350
49
  3
A7
350
4A
  3
A8
350
4B
  3
A9
350
4C
  3
B0
350
4D
  3
B1
350
4E
  3
B2
350
4F
  3
B3
350
50
  3
B4
350
51
  3
B5
350
52
  3
B6
350
53
  0
DICTIONARY
  5
68
102
{ACAD_REACTORS
330
C
102
}
330
C
100
AcDbDictionary
281
     1
  3
Imperial24
350
69
  0
DICTIONARY
  5
64
102
{ACAD_REACTORS
330
C
102
}
330
C
100
AcDbDictionary
281
     1
  3
Standard
350
65
  0
DICTIONARY
  5
29
102
{ACAD_REACTORS
330
C
102
}
330
C
100
AcDbDictionary
281
     1
  3
2dWireframe
350
2F
  3
Basic
350
2E
  3
Brighten
350
35
  3
ColorChange
350
39
  3
Conceptual
350
32
  3
Dim
350
34
  3
EdgeColorOff
350
41
  3
Facepattern
350
38
  3
Flat
350
2A
  3
FlatWithEdges
350
2B
  3
Gouraud
350
2C
  3
GouraudWithEdges
350
2D
  3
Hidden
350
31
  3
JitterOff
350
3F
  3
Linepattern
350
37
  3
OverhangOff
350
40
  3
Realistic
350
33
  3
Shaded
350
3E
  3
Shaded with edges
350
3D
  3
Shades of Gray
350
3A
  3
Sketchy
350
3B
  3
Thicken
350
36
  3
Wireframe
350
30
  3
X-Ray
350
3C
  0
XRECORD
  5
130
102
{ACAD_REACTORS
330
C
102
}
330
C
100
AcDbXrecord
280
     1
 90
        1
330
65
  0
DICTIONARY
  5
128
102
{ACAD_REACTORS
330
C
102
}
330
C
100
AcDbDictionary
281
     1
  3
CANNOSCALE
350
12D
  3
CMLEADERSTYLE
350
12A
  3
CTABLESTYLE
350
129
  3
CVIEWDETAILSTYLE
350
12B
  3
CVIEWSECTIONSTYLE
350
12C
  0
ACDBDETAILVIEWSTYLE
  5
6B
102
{ACAD_XDICTIONARY
360
165
102
}
102
{ACAD_REACTORS
330
6A
102
}
330
6A
100
AcDbModelDocViewStyle
 70
     0
  3
Imperial24
290
     0
100
AcDbDetailViewStyle
 70
     0
 71
     0
 90
        3
 71
     1
340
55
 62
   256
 40
0.24
340
0
 62
   256
 40
0.24
300

 40
0.36
280
     3
 71
     2
340
5D
 90
       25
 62
   256
 71
     3
340
55
 62
   256
 40
0.24
 90
        1
 40
0.75
 90
        1
300
%<\AcVar ViewType \f "%tc1">% %<\AcVar ViewDetailId>%\PSCALE %<\AcVar ViewScale \f "%sn">%
 71
     4
340
5D
 90
       25
 62
   256
340
5D
 90
       25
 62
   256
280
     0
  0
LAYOUT
  5
6F
102
{ACAD_REACTORS
330
62
102
}
330
62
100
AcDbPlotSettings
  1

  2

  4

  6

 40
0.0
 41
0.0
 42
0.0
 43
0.0
 44
0.0
 45
0.0
 46
0.0
 47
0.0
 48
0.0
 49
0.0
140
0.0
141
0.0
142
1.0
143
1.0
 70
   688
 72
     0
 73
     0
 74
     5
  7

 75
    16
147
1.0
 76
     0
 77
     2
 78
   300
148
0.0
149
0.0
100
AcDbLayout
  1
Layout1
 70
     1
 71
     1
 10
0.0
 20
0.0
 11
12.0
 21
9.0
 12
0.0
 22
0.0
 32
0.0
 14
0.0
 24
0.0
 34
0.0
 15
0.0
 25
0.0
 35
0.0
146
0.0
 13
0.0
 23
0.0
 33
0.0
 16
1.0
 26
0.0
 36
0.0
 17
0.0
 27
1.0
 37
0.0
 76
     0
330
6C
  0
LAYOUT
  5
77
102
{ACAD_REACTORS
330
62
102
}
330
62
100
AcDbPlotSettings
  1

  2

  4

  6

 40
0.0
 41
0.0
 42
0.0
 43
0.0
 44
0.0
 45
0.0
 46
0.0
 47
0.0
 48
0.0
 49
0.0
140
0.0
141
0.0
142
1.0
143
1.0
 70
   688
 72
     0
 73
     0
 74
     5
  7

 75
    16
147
1.0
 76
     0
 77
     2
 78
   300
148
0.0
149
0.0
100
AcDbLayout
  1
Layout2
 70
     1
 71
     2
 10
0.0
 20
0.0
 11
12.0
 21
9.0
 12
0.0
 22
0.0
 32
0.0
 14
0.0
 24
0.0
 34
0.0
 15
0.0
 25
0.0
 35
0.0
146
0.0
 13
0.0
 23
0.0
 33
0.0
 16
1.0
 26
0.0
 36
0.0
 17
0.0
 27
1.0
 37
0.0
 76
     0
330
74
  0
LAYOUT
  5
73
102
{ACAD_REACTORS
330
62
102
}
330
62
100
AcDbPlotSettings
  1

  2

  4

  6

 40
0.0
 41
0.0
 42
0.0
 43
0.0
 44
0.0
 45
0.0
 46
0.0
 47
0.0
 48
0.0
 49
0.0
140
0.0
141
0.0
142
1.0
143
1.0
 70
  1712
 72
     0
 73
     0
 74
     0
  7

 75
     0
147
1.0
 76
     0
 77
     2
 78
   300
148
0.0
149
0.0
100
AcDbLayout
  1
Model
 70
     1
 71
     0
 10
0.0
 20
0.0
 11
12.0
 21
9.0
 12
0.0
 22
0.0
 32
0.0
 14
0.0
 24
0.0
 34
0.0
 15
0.0
 25
0.0
 35
0.0
146
0.0
 13
0.0
 23
0.0
 33
0.0
 16
1.0
 26
0.0
 36
0.0
 17
0.0
 27
1.0
 37
0.0
 76
     0
330
70
  0
MATERIAL
  5
19
102
{ACAD_XDICTIONARY
360
1A
102
}
102
{ACAD_REACTORS
330
10
102
}
330
10
100
AcDbMaterial
  1
ByBlock
 72
     0
 43
0.0208333333333333
 43
0.0
 43
0.0
 43
0.0
 43
0.0
 43
0.0208333333333333
 43
0.0
 43
0.0
 43
0.0
 43
0.0
 43
1.0
 43
0.0
 43
0.0
 43
0.0
 43
0.0
 43
1.0
 77
     0
 47
0.0208333333333333
 47
0.0
 47
0.0
 47
0.0
 47
0.0
 47
0.0208333333333333
 47
0.0
 47
0.0
 47
0.0
 47
0.0
 47
1.0
 47
0.0
 47
0.0
 47
0.0
 47
0.0
 47
1.0
171
     0
 49
0.0208333333333333
 49
0.0
 49
0.0
 49
0.0
 49
0.0
 49
0.0208333333333333
 49
0.0
 49
0.0
 49
0.0
 49
0.0
 49
1.0
 49
0.0
 49
0.0
 49
0.0
 49
0.0
 49
1.0
175
     0
142
0.0208333333333333
142
0.0
142
0.0
142
0.0
142
0.0
142
0.0208333333333333
142
0.0
142
0.0
142
0.0
142
0.0
142
1.0
142
0.0
142
0.0
142
0.0
142
0.0
142
1.0
179
     0
144
0.0208333333333333
144
0.0
144
0.0
144
0.0
144
0.0
144
0.0208333333333333
144
0.0
144
0.0
144
0.0
144
0.0
144
1.0
144
0.0
144
0.0
144
0.0
144
0.0
144
1.0
147
0.0208333333333333
147
0.0
147
0.0
147
0.0
147
0.0
147
0.0208333333333333
147
0.0
147
0.0
147
0.0
147
0.0
147
1.0
147
0.0
147
0.0
147
0.0
147
0.0
147
1.0
  0
MATERIAL
  5
11
102
{ACAD_XDICTIONARY
360
12
102
}
102
{ACAD_REACTORS
330
10
102
}
330
10
100
AcDbMaterial
  1
ByLayer
 72
     0
 43
0.0208333333333333
 43
0.0
 43
0.0
 43
0.0
 43
0.0
 43
0.0208333333333333
 43
0.0
 43
0.0
 43
0.0
 43
0.0
 43
1.0
 43
0.0
 43
0.0
 43
0.0
 43
0.0
 43
1.0
 77
     0
 47
0.0208333333333333
 47
0.0
 47
0.0
 47
0.0
 47
0.0
 47
0.0208333333333333
 47
0.0
 47
0.0
 47
0.0
 47
0.0
 47
1.0
 47
0.0
 47
0.0
 47
0.0
 47
0.0
 47
1.0
171
     0
 49
0.0208333333333333
 49
0.0
 49
0.0
 49
0.0
 49
0.0
 49
0.0208333333333333
 49
0.0
 49
0.0
 49
0.0
 49
0.0
 49
1.0
 49
0.0
 49
0.0
 49
0.0
 49
0.0
 49
1.0
175
     0
142
0.0208333333333333
142
0.0
142
0.0
142
0.0
142
0.0
142
0.0208333333333333
142
0.0
142
0.0
142
0.0
142
0.0
142
1.0
142
0.0
142
0.0
142
0.0
142
0.0
142
1.0
179
     0
144
0.0208333333333333
144
0.0
144
0.0
144
0.0
144
0.0
144
0.0208333333333333
144
0.0
144
0.0
144
0.0
144
0.0
144
1.0
144
0.0
144
0.0
144
0.0
144
0.0
144
1.0
147
0.0208333333333333
147
0.0
147
0.0
147
0.0
147
0.0
147
0.0208333333333333
147
0.0
147
0.0
147
0.0
147
0.0
147
1.0
147
0.0
147
0.0
147
0.0
147
0.0
147
1.0
  0
MATERIAL
  5
21
102
{ACAD_XDICTIONARY
360
22
102
}
102
{ACAD_REACTORS
330
10
102
}
330
10
100
AcDbMaterial
  1
Global
 72
     0
 43
0.0208333333333333
 43
0.0
 43
0.0
 43
0.0
 43
0.0
 43
0.0208333333333333
 43
0.0
 43
0.0
 43
0.0
 43
0.0
 43
1.0
 43
0.0
 43
0.0
 43
0.0
 43
0.0
 43
1.0
 77
     0
 47
0.0208333333333333
 47
0.0
 47
0.0
 47
0.0
 47
0.0
 47
0.0208333333333333
 47
0.0
 47
0.0
 47
0.0
 47
0.0
 47
1.0
 47
0.0
 47
0.0
 47
0.0
 47
0.0
 47
1.0
171
     0
 49
0.0208333333333333
 49
0.0
 49
0.0
 49
0.0
 49
0.0
 49
0.0208333333333333
 49
0.0
 49
0.0
 49
0.0
 49
0.0
 49
1.0
 49
0.0
 49
0.0
 49
0.0
 49
0.0
 49
1.0
175
     0
142
0.0208333333333333
142
0.0
142
0.0
142
0.0
142
0.0
142
0.0208333333333333
142
0.0
142
0.0
142
0.0
142
0.0
142
1.0
142
0.0
142
0.0
142
0.0
142
0.0
142
1.0
179
     0
144
0.0208333333333333
144
0.0
144
0.0
144
0.0
144
0.0
144
0.0208333333333333
144
0.0
144
0.0
144
0.0
144
0.0
144
1.0
144
0.0
144
0.0
144
0.0
144
0.0
144
1.0
147
0.0208333333333333
147
0.0
147
0.0
147
0.0
147
0.0
147
0.0208333333333333
147
0.0
147
0.0
147
0.0
147
0.0
147
1.0
147
0.0
147
0.0
147
0.0
147
0.0
147
1.0
  0
MLEADERSTYLE
  5
67
102
{ACAD_XDICTIONARY
360
161
102
}
102
{ACAD_REACTORS
330
66
102
}
330
66
100
AcDbMLeaderStyle
179
     2
170
     2
171
     1
172
     0
 90
        2
 40
0.0
 41
0.0
173
     1
 91
-1056964608
340
5B
 92
       -2
290
     1
 42
0.09
291
     1
 43
0.36
  3
Standard
 44
0.18
300

342
55
174
     1
178
     6
175
     1
176
     0
 93
-1056964608
 45
0.18
292
     0
297
     0
 46
0.18
 94
-1056964608
 47
1.0
 49
1.0
140
1.0
293
     1
141
0.0
294
     1
177
     0
142
1.0
295
     0
296
     0
143
0.125
271
     0
272
     9
273
     9
  0
MLINESTYLE
  5
60
102
{ACAD_REACTORS
330
5F
102
}
330
5F
100
AcDbMlineStyle
  2
STANDARD
 70
     0
  3

 62
   256
 51
90.0
 52
90.0
 71
     2
 49
0.5
 62
   256
  6
BYLAYER
 49
-0.5
 62
   256
  6
BYLAYER
  0
ACDBPLACEHOLDER
  5
F
102
{ACAD_REACTORS
330
E
102
}
330
E
  0
SCALE
  5
43
102
{ACAD_REACTORS
330
42
102
}
330
42
100
AcDbScale
 70
     0
300
1:1
140
1.0
141
1.0
290
     1
  0
SCALE
  5
44
102
{ACAD_REACTORS
330
42
102
}
330
42
100
AcDbScale
 70
     0
300
1/128" = 1'-0"
140
0.0078125
141
12.0
290
     0
  0
SCALE
  5
45
102
{ACAD_REACTORS
330
42
102
}
330
42
100
AcDbScale
 70
     0
300
1/64" = 1'-0"
140
0.015625
141
12.0
290
     0
  0
SCALE
  5
46
102
{ACAD_REACTORS
330
42
102
}
330
42
100
AcDbScale
 70
     0
300
1/32" = 1'-0"
140
0.03125
141
12.0
290
     0
  0
SCALE
  5
47
102
{ACAD_REACTORS
330
42
102
}
330
42
100
AcDbScale
 70
     0
300
1/16" = 1'-0"
140
0.0625
141
12.0
290
     0
  0
SCALE
  5
48
102
{ACAD_REACTORS
330
42
102
}
330
42
100
AcDbScale
 70
     0
300
3/32" = 1'-0"
140
0.09375
141
12.0
290
     0
  0
SCALE
  5
49
102
{ACAD_REACTORS
330
42
102
}
330
42
100
AcDbScale
 70
     0
300
1/8" = 1'-0"
140
0.125
141
12.0
290
     0
  0
SCALE
  5
4A
102
{ACAD_REACTORS
330
42
102
}
330
42
100
AcDbScale
 70
     0
300
3/16" = 1'-0"
140
0.1875
141
12.0
290
     0
  0
SCALE
  5
4B
102
{ACAD_REACTORS
330
42
102
}
330
42
100
AcDbScale
 70
     0
300
1/4" = 1'-0"
140
0.25
141
12.0
290
     0
  0
SCALE
  5
4C
102
{ACAD_REACTORS
330
42
102
}
330
42
100
AcDbScale
 70
     0
300
3/8" = 1'-0"
140
0.375
141
12.0
290
     0
  0
SCALE
  5
4D
102
{ACAD_REACTORS
330
42
102
}
330
42
100
AcDbScale
 70
     0
300
1/2" = 1'-0"
140
0.5
141
12.0
290
     0
  0
SCALE
  5
4E
102
{ACAD_REACTORS
330
42
102
}
330
42
100
AcDbScale
 70
     0
300
3/4" = 1'-0"
140
0.75
141
12.0
290
     0
  0
SCALE
  5
4F
102
{ACAD_REACTORS
330
42
102
}
330
42
100
AcDbScale
 70
     0
300
1" = 1'-0"
140
1.0
141
12.0
290
     0
  0
SCALE
  5
50
102
{ACAD_REACTORS
330
42
102
}
330
42
100
AcDbScale
 70
     0
300
1-1/2" = 1'-0"
140
1.5
141
12.0
290
     0
  0
SCALE
  5
51
102
{ACAD_REACTORS
330
42
102
}
330
42
100
AcDbScale
 70
     0
300
3" = 1'-0"
140
3.0
141
12.0
290
     0
  0
SCALE
  5
52
102
{ACAD_REACTORS
330
42
102
}
330
42
100
AcDbScale
 70
     0
300
6" = 1'-0"
140
6.0
141
12.0
290
     0
  0
SCALE
  5
53
102
{ACAD_REACTORS
330
42
102
}
330
42
100
AcDbScale
 70
     0
300
1'-0" = 1'-0"
140
12.0
141
12.0
290
     0
  0
ACDBSECTIONVIEWSTYLE
  5
69
102
{ACAD_XDICTIONARY
360
163
102
}
102
{ACAD_REACTORS
330
68
102
}
330
68
100
AcDbModelDocViewStyle
 70
     0
  3
Imperial24
290
     0
100
AcDbSectionViewStyle
 70
     0
 71
     0
 90
       78
 71
     1
340
55
 62
   256
 40
0.24
340
0
340
0
 62
   256
 40
0.24
300
I, O, Q, S, X, Z
 40
0.48
 90
        3
 40
0.18
 90
        1
 71
     2
340
5D
 90
       25
 62
   256
340
5D
 90
       50
 62
   256
 40
0.24
 40
0.0
 40
0.24
 71
     3
340
55
 62
   256
 40
0.24
 90
        1
 40
0.75
 90
        1
300
%<\AcVar ViewType \f "%tc1">% %<\AcVar ViewSectionStartId>%-%<\AcVar ViewSectionEndId>%\PSCALE %<\AcVar ViewScale \f "%sn">%
 71
     4
 62
   256
 62
   257
300
ANSI31
 40
1.0
 90
        0
290
     0
290
     0
 90
        6
 40
0.0
 40
1.570796326794896
 40
0.2617993877991494
 40
1.308996938995747
 40
-0.2617993877991494
 40
1.832595714594046
  0
TABLESTYLE
  5
65
102
{ACAD_XDICTIONARY
360
12E
102
}
102
{ACAD_REACTORS
330
64
102
}
330
64
100
AcDbTableStyle
280
     0
  3
Standard
 70
     0
 71
     0
 40
0.06
 41
0.06
280
     0
281
     0
  7
Standard
140
0.18
170
     2
 62
     0
 63
     7
283
     0
 90
      512
 91
        0
  1

274
    -2
284
     1
 64
     0
275
    -2
285
     1
 65
     0
276
    -2
286
     1
 66
     0
277
    -2
287
     1
 67
     0
278
    -2
288
     1
 68
     0
279
    -2
289
     1
 69
     0
  7
Standard
140
0.25
170
     5
 62
     0
 63
     7
283
     0
 90
      512
 91
        0
  1

274
    -2
284
     1
 64
     0
275
    -2
285
     1
 65
     0
276
    -2
286
     1
 66
     0
277
    -2
287
     1
 67
     0
278
    -2
288
     1
 68
     0
279
    -2
289
     1
 69
     0
  7
Standard
140
0.18
170
     5
 62
     0
 63
     7
283
     0
 90
      512
 91
        0
  1

274
    -2
284
     1
 64
     0
275
    -2
285
     1
 65
     0
276
    -2
286
     1
 66
     0
277
    -2
287
     1
 67
     0
278
    -2
288
     1
 68
     0
279
    -2
289
     1
 69
     0
  0
VISUALSTYLE
  5
2F
102
{ACAD_XDICTIONARY
360
13B
102
}
102
{ACAD_REACTORS
330
29
102
}
330
29
100
AcDbVisualStyle
  2
2dWireframe
 70
     4
177
     2
291
     0
 71
     0
176
     1
 72
     2
176
     1
 73
     0
176
     1
 90
        0
176
     1
 40
0.6
176
     1
 41
30.0
176
     1
 63
     7
421
 16777215
176
     1
 74
     1
176
     1
 91
        4
176
     1
 64
     7
176
     1
 65
   257
176
     1
 75
     1
176
     1
175
     1
176
     1
 42
1.0
176
     1
 92
        0
176
     1
 66
   257
176
     1
 43
1.0
176
     1
 76
     1
176
     1
 77
     6
176
     1
 78
     2
176
     1
 67
     7
176
     1
 79
     5
176
     1
170
     0
176
     1
171
     0
176
     1
290
     0
176
     1
 93
        1
176
     1
 44
0.0
176
     1
173
     0
176
     1
1001
ACAD
1000
AcDbSavedByObjectVersion
1070
     0
  0
VISUALSTYLE
  5
2E
102
{ACAD_XDICTIONARY
360
139
102
}
102
{ACAD_REACTORS
330
29
102
}
330
29
100
AcDbVisualStyle
  2
Basic
 70
     7
177
     2
291
     1
 71
     1
176
     1
 72
     0
176
     1
 73
     1
176
     1
 90
        0
176
     1
 40
0.6
176
     1
 41
30.0
176
     1
 63
     7
421
 16777215
176
     1
 74
     0
176
     1
 91
        4
176
     1
 64
     7
176
     1
 65
   257
176
     1
 75
     1
176
     1
175
     1
176
     1
 42
1.0
176
     1
 92
        8
176
     1
 66
     7
176
     1
 43
1.0
176
     1
 76
     1
176
     1
 77
     6
176
     1
 78
     2
176
     1
 67
     7
176
     1
 79
     5
176
     1
170
     0
176
     1
171
     0
176
     1
290
     0
176
     1
 93
        1
176
     1
 44
0.0
176
     1
173
     0
176
     1
1001
ACAD
1000
AcDbSavedByObjectVersion
1070
     0
  0
VISUALSTYLE
  5
35
102
{ACAD_XDICTIONARY
360
147
102
}
102
{ACAD_REACTORS
330
29
102
}
330
29
100
AcDbVisualStyle
  2
Brighten
 70
    12
177
     2
291
     1
 71
     2
176
     1
 72
     2
176
     1
 73
     0
176
     1
 90
        0
176
     1
 40
0.6
176
     1
 41
30.0
176
     1
 63
     7
421
 16777215
176
     1
 74
     1
176
     1
 91
        4
176
     1
 64
     7
176
     1
 65
   257
176
     1
 75
     1
176
     1
175
     1
176
     1
 42
1.0
176
     1
 92
        8
176
     1
 66
     7
176
     1
 43
1.0
176
     1
 76
     1
176
     1
 77
     6
176
     1
 78
     2
176
     1
 67
     7
176
     1
 79
     5
176
     1
170
     0
176
     1
171
     0
176
     1
290
     0
176
     1
 93
        1
176
     1
 44
50.0
176
     1
173
     0
176
     1
1001
ACAD
1000
AcDbSavedByObjectVersion
1070
     0
  0
VISUALSTYLE
  5
39
102
{ACAD_XDICTIONARY
360
14F
102
}
102
{ACAD_REACTORS
330
29
102
}
330
29
100
AcDbVisualStyle
  2
ColorChange
 70
    16
177
     2
291
     1
 71
     2
176
     1
 72
     2
176
     1
 73
     3
176
     1
 90
        0
176
     1
 40
0.6
176
     1
 41
30.0
176
     1
 63
     8
421
  8421504
176
     1
 74
     1
176
     1
 91
        4
176
     1
 64
     7
176
     1
 65
   257
176
     1
 75
     1
176
     1
175
     1
176
     1
 42
1.0
176
     1
 92
        8
176
     1
 66
     8
424
  8421504
176
     1
 43
1.0
176
     1
 76
     1
176
     1
 77
     6
176
     1
 78
     2
176
     1
 67
     7
176
     1
 79
     5
176
     1
170
     0
176
     1
171
     0
176
     1
290
     0
176
     1
 93
        1
176
     1
 44
0.0
176
     1
173
     0
176
     1
1001
ACAD
1000
AcDbSavedByObjectVersion
1070
     0
  0
VISUALSTYLE
  5
32
102
{ACAD_XDICTIONARY
360
141
102
}
102
{ACAD_REACTORS
330
29
102
}
330
29
100
AcDbVisualStyle
  2
Conceptual
 70
     9
177
     2
291
     0
 71
     3
176
     1
 72
     2
176
     1
 73
     0
176
     1
 90
        0
176
     1
 40
0.6
176
     1
 41
30.0
176
     1
 63
     7
421
 16777215
176
     1
 74
     2
176
     1
 91
        2
176
     1
 64
     7
176
     1
 65
   257
176
     1
 75
     1
176
     1
175
     1
176
     1
 42
179.0
176
     1
 92
        8
176
     1
 66
     7
176
     1
 43
1.0
176
     1
 76
     1
176
     1
 77
     6
176
     1
 78
     2
176
     1
 67
     7
176
     1
 79
     3
176
     1
170
     0
176
     1
171
     0
176
     1
290
     0
176
     1
 93
        1
176
     1
 44
0.0
176
     1
173
     0
176
     1
1001
ACAD
1000
AcDbSavedByObjectVersion
1070
     0
  0
VISUALSTYLE
  5
34
102
{ACAD_XDICTIONARY
360
145
102
}
102
{ACAD_REACTORS
330
29
102
}
330
29
100
AcDbVisualStyle
  2
Dim
 70
    11
177
     2
291
     1
 71
     2
176
     1
 72
     2
176
     1
 73
     0
176
     1
 90
        0
176
     1
 40
0.6
176
     1
 41
30.0
176
     1
 63
     7
421
 16777215
176
     1
 74
     1
176
     1
 91
        4
176
     1
 64
     7
176
     1
 65
   257
176
     1
 75
     1
176
     1
175
     1
176
     1
 42
1.0
176
     1
 92
        8
176
     1
 66
     7
176
     1
 43
1.0
176
     1
 76
     1
176
     1
 77
     6
176
     1
 78
     2
176
     1
 67
     7
176
     1
 79
     5
176
     1
170
     0
176
     1
171
     0
176
     1
290
     0
176
     1
 93
        1
176
     1
 44
-50.0
176
     1
173
     0
176
     1
1001
ACAD
1000
AcDbSavedByObjectVersion
1070
     0
  0
VISUALSTYLE
  5
41
102
{ACAD_XDICTIONARY
360
15F
102
}
102
{ACAD_REACTORS
330
29
102
}
330
29
100
AcDbVisualStyle
  2
EdgeColorOff
 70
    22
177
     2
291
     1
 71
     2
176
     0
 72
     2
176
     0
 73
     0
176
     0
 90
        0
176
     0
 40
0.6
176
     0
 41
30.0
176
     0
 63
     7
421
 16777215
176
     0
 74
     1
176
     0
 91
        4
176
     0
 64
     7
176
     0
 65
   257
176
     0
 75
     1
176
     0
175
     1
176
     0
 42
1.0
176
     0
 92
        8
176
     2
 66
     7
176
     0
 43
1.0
176
     0
 76
     1
176
     0
 77
     6
176
     0
 78
     2
176
     0
 67
     7
176
     0
 79
     5
176
     0
170
     0
176
     0
171
     0
176
     0
290
     0
176
     0
 93
        1
176
     0
 44
0.0
176
     0
173
     0
176
     0
1001
ACAD
1000
AcDbSavedByObjectVersion
1070
     0
  0
VISUALSTYLE
  5
38
102
{ACAD_XDICTIONARY
360
14D
102
}
102
{ACAD_REACTORS
330
29
102
}
330
29
100
AcDbVisualStyle
  2
Facepattern
 70
    15
177
     2
291
     1
 71
     2
176
     1
 72
     2
176
     1
 73
     0
176
     1
 90
        0
176
     1
 40
0.6
176
     1
 41
30.0
176
     1
 63
     7
421
 16777215
176
     1
 74
     1
176
     1
 91
        4
176
     1
 64
     7
176
     1
 65
   257
176
     1
 75
     1
176
     1
175
     1
176
     1
 42
1.0
176
     1
 92
        8
176
     1
 66
     7
176
     1
 43
1.0
176
     1
 76
     1
176
     1
 77
     6
176
     1
 78
     2
176
     1
 67
     7
176
     1
 79
     5
176
     1
170
     0
176
     1
171
     0
176
     1
290
     0
176
     1
 93
        1
176
     1
 44
0.0
176
     1
173
     0
176
     1
1001
ACAD
1000
AcDbSavedByObjectVersion
1070
     0
  0
VISUALSTYLE
  5
2A
102
{ACAD_XDICTIONARY
360
131
102
}
102
{ACAD_REACTORS
330
29
102
}
330
29
100
AcDbVisualStyle
  2
Flat
 70
     0
177
     2
291
     1
 71
     2
176
     1
 72
     1
176
     1
 73
     1
176
     1
 90
        2
176
     1
 40
0.6
176
     1
 41
30.0
176
     1
 63
     7
421
 16777215
176
     1
 74
     0
176
     1
 91
        0
176
     1
 64
     7
176
     1
 65
   257
176
     1
 75
     1
176
     1
175
     1
176
     1
 42
1.0
176
     1
 92
        8
176
     1
 66
     7
176
     1
 43
1.0
176
     1
 76
     1
176
     1
 77
     6
176
     1
 78
     2
176
     1
 67
     7
176
     1
 79
     5
176
     1
170
     0
176
     1
171
     0
176
     1
290
     0
176
     1
 93
       13
176
     1
 44
0.0
176
     1
173
     0
176
     1
1001
ACAD
1000
AcDbSavedByObjectVersion
1070
     0
  0
VISUALSTYLE
  5
2B
102
{ACAD_XDICTIONARY
360
133
102
}
102
{ACAD_REACTORS
330
29
102
}
330
29
100
AcDbVisualStyle
  2
FlatWithEdges
 70
     1
177
     2
291
     1
 71
     2
176
     1
 72
     1
176
     1
 73
     1
176
     1
 90
        2
176
     1
 40
0.6
176
     1
 41
30.0
176
     1
 63
     7
421
 16777215
176
     1
 74
     1
176
     1
 91
        0
176
     1
 64
     7
176
     1
 65
   257
176
     1
 75
     1
176
     1
175
     1
176
     1
 42
1.0
176
     1
 92
        0
176
     1
 66
   257
176
     1
 43
1.0
176
     1
 76
     1
176
     1
 77
     6
176
     1
 78
     2
176
     1
 67
     7
176
     1
 79
     5
176
     1
170
     0
176
     1
171
     0
176
     1
290
     0
176
     1
 93
       13
176
     1
 44
0.0
176
     1
173
     0
176
     1
1001
ACAD
1000
AcDbSavedByObjectVersion
1070
     0
  0
VISUALSTYLE
  5
2C
102
{ACAD_XDICTIONARY
360
135
102
}
102
{ACAD_REACTORS
330
29
102
}
330
29
100
AcDbVisualStyle
  2
Gouraud
 70
     2
177
     2
291
     1
 71
     2
176
     1
 72
     2
176
     1
 73
     1
176
     1
 90
        2
176
     1
 40
0.6
176
     1
 41
30.0
176
     1
 63
     7
421
 16777215
176
     1
 74
     0
176
     1
 91
        0
176
     1
 64
     7
176
     1
 65
   257
176
     1
 75
     1
176
     1
175
     1
176
     1
 42
1.0
176
     1
 92
        0
176
     1
 66
     7
176
     1
 43
1.0
176
     1
 76
     1
176
     1
 77
     6
176
     1
 78
     2
176
     1
 67
     7
176
     1
 79
     5
176
     1
170
     0
176
     1
171
     0
176
     1
290
     0
176
     1
 93
       13
176
     1
 44
0.0
176
     1
173
     0
176
     1
1001
ACAD
1000
AcDbSavedByObjectVersion
1070
     0
  0
VISUALSTYLE
  5
2D
102
{ACAD_XDICTIONARY
360
137
102
}
102
{ACAD_REACTORS
330
29
102
}
330
29
100
AcDbVisualStyle
  2
GouraudWithEdges
 70
     3
177
     2
291
     1
 71
     2
176
     1
 72
     2
176
     1
 73
     1
176
     1
 90
        2
176
     1
 40
0.6
176
     1
 41
30.0
176
     1
 63
     7
421
 16777215
176
     1
 74
     1
176
     1
 91
        0
176
     1
 64
     7
176
     1
 65
   257
176
     1
 75
     1
176
     1
175
     1
176
     1
 42
1.0
176
     1
 92
        0
176
     1
 66
   257
176
     1
 43
1.0
176
     1
 76
     1
176
     1
 77
     6
176
     1
 78
     2
176
     1
 67
     7
176
     1
 79
     5
176
     1
170
     0
176
     1
171
     0
176
     1
290
     0
176
     1
 93
       13
176
     1
 44
0.0
176
     1
173
     0
176
     1
1001
ACAD
1000
AcDbSavedByObjectVersion
1070
     0
  0
VISUALSTYLE
  5
31
102
{ACAD_XDICTIONARY
360
13F
102
}
102
{ACAD_REACTORS
330
29
102
}
330
29
100
AcDbVisualStyle
  2
Hidden
 70
     6
177
     2
291
     0
 71
     1
176
     1
 72
     2
176
     1
 73
     2
176
     1
 90
        0
176
     1
 40
0.6
176
     1
 41
30.0
176
     1
 63
     7
421
 16777215
176
     1
 74
     2
176
     1
 91
        2
176
     1
 64
     7
176
     1
 65
   257
176
     1
 75
     2
176
     1
175
     1
176
     1
 42
40.0
176
     1
 92
        0
176
     1
 66
   257
176
     1
 43
1.0
176
     1
 76
     1
176
     1
 77
     6
176
     1
 78
     2
176
     1
 67
     7
176
     1
 79
     3
176
     1
170
     0
176
     1
171
     0
176
     1
290
     0
176
     1
 93
        1
176
     1
 44
0.0
176
     1
173
     0
176
     1
1001
ACAD
1000
AcDbSavedByObjectVersion
1070
     0
  0
VISUALSTYLE
  5
3F
102
{ACAD_XDICTIONARY
360
15B
102
}
102
{ACAD_REACTORS
330
29
102
}
330
29
100
AcDbVisualStyle
  2
JitterOff
 70
    20
177
     2
291
     1
 71
     2
176
     0
 72
     2
176
     0
 73
     0
176
     0
 90
        0
176
     0
 40
0.6
176
     0
 41
30.0
176
     0
 63
     7
421
 16777215
176
     0
 74
     1
176
     0
 91
        4
176
     0
 64
     7
176
     0
 65
   257
176
     0
 75
     1
176
     0
175
     1
176
     0
 42
1.0
176
     0
 92
       10
176
     2
 66
     7
176
     0
 43
1.0
176
     0
 76
     1
176
     0
 77
     6
176
     0
 78
     2
176
     0
 67
     7
176
     0
 79
     5
176
     0
170
     0
176
     0
171
     0
176
     0
290
     0
176
     0
 93
        1
176
     0
 44
0.0
176
     0
173
     0
176
     0
1001
ACAD
1000
AcDbSavedByObjectVersion
1070
     0
  0
VISUALSTYLE
  5
37
102
{ACAD_XDICTIONARY
360
14B
102
}
102
{ACAD_REACTORS
330
29
102
}
330
29
100
AcDbVisualStyle
  2
Linepattern
 70
    14
177
     2
291
     1
 71
     2
176
     1
 72
     2
176
     1
 73
     0
176
     1
 90
        0
176
     1
 40
0.6
176
     1
 41
30.0
176
     1
 63
     7
421
 16777215
176
     1
 74
     1
176
     1
 91
        4
176
     1
 64
     7
176
     1
 65
   257
176
     1
 75
     7
176
     1
175
     7
176
     1
 42
1.0
176
     1
 92
        8
176
     1
 66
     7
176
     1
 43
1.0
176
     1
 76
     1
176
     1
 77
     6
176
     1
 78
     2
176
     1
 67
     7
176
     1
 79
     5
176
     1
170
     0
176
     1
171
     0
176
     1
290
     0
176
     1
 93
        1
176
     1
 44
0.0
176
     1
173
     0
176
     1
1001
ACAD
1000
AcDbSavedByObjectVersion
1070
     0
  0
VISUALSTYLE
  5
40
102
{ACAD_XDICTIONARY
360
15D
102
}
102
{ACAD_REACTORS
330
29
102
}
330
29
100
AcDbVisualStyle
  2
OverhangOff
 70
    21
177
     2
291
     1
 71
     2
176
     0
 72
     2
176
     0
 73
     0
176
     0
 90
        0
176
     0
 40
0.6
176
     0
 41
30.0
176
     0
 63
     7
421
 16777215
176
     0
 74
     1
176
     0
 91
        4
176
     0
 64
     7
176
     0
 65
   257
176
     0
 75
     1
176
     0
175
     1
176
     0
 42
1.0
176
     0
 92
        9
176
     2
 66
     7
176
     0
 43
1.0
176
     0
 76
     1
176
     0
 77
     6
176
     0
 78
     2
176
     0
 67
     7
176
     0
 79
     5
176
     0
170
     0
176
     0
171
     0
176
     0
290
     0
176
     0
 93
        1
176
     0
 44
0.0
176
     0
173
     0
176
     0
1001
ACAD
1000
AcDbSavedByObjectVersion
1070
     0
  0
VISUALSTYLE
  5
33
102
{ACAD_XDICTIONARY
360
143
102
}
102
{ACAD_REACTORS
330
29
102
}
330
29
100
AcDbVisualStyle
  2
Realistic
 70
     8
177
     2
291
     0
 71
     2
176
     1
 72
     3
176
     1
 73
     0
176
     1
 90
        2
176
     1
 40
0.6
176
     1
 41
30.0
176
     1
 63
     7
421
 16777215
176
     1
 74
     0
176
     1
 91
        0
176
     1
 64
     7
176
     1
 65
   257
176
     1
 75
     1
176
     1
175
     1
176
     1
 42
1.0
176
     1
 92
        8
176
     1
 66
   257
176
     1
 43
1.0
176
     1
 76
     1
176
     1
 77
     6
176
     1
 78
     2
176
     1
 67
     7
176
     1
 79
     3
176
     1
170
     0
176
     1
171
     0
176
     1
290
     0
176
     1
 93
       13
176
     1
 44
0.0
176
     1
173
     0
176
     1
1001
ACAD
1000
AcDbSavedByObjectVersion
1070
     0
  0
VISUALSTYLE
  5
3E
102
{ACAD_XDICTIONARY
360
159
102
}
102
{ACAD_REACTORS
330
29
102
}
330
29
100
AcDbVisualStyle
  2
Shaded
 70
    27
177
     2
291
     0
 71
     2
176
     1
 72
     2
176
     1
 73
     1
176
     1
 90
        2
176
     1
 40
0.6
176
     1
 41
30.0
176
     1
 63
     7
421
 16777215
176
     1
 74
     0
176
     1
 91
        4
176
     1
 64
     7
176
     1
 65
   257
176
     1
 75
     1
176
     1
175
     1
176
     1
 42
1.0
176
     1
 92
        8
176
     1
 66
   257
176
     1
 43
1.0
176
     1
 76
     1
176
     1
 77
     6
176
     1
 78
     2
176
     1
 67
     8
425
  7895160
176
     1
 79
     3
176
     1
170
     0
176
     1
171
     0
176
     1
290
     0
176
     1
 93
        5
176
     1
 44
0.0
176
     1
173
     0
176
     1
1001
ACAD
1000
AcDbSavedByObjectVersion
1070
     0
  0
VISUALSTYLE
  5
3D
102
{ACAD_XDICTIONARY
360
157
102
}
102
{ACAD_REACTORS
330
29
102
}
330
29
100
AcDbVisualStyle
  2
Shaded with edges
 70
    26
177
     2
291
     0
 71
     2
176
     1
 72
     2
176
     1
 73
     1
176
     1
 90
        2
176
     1
 40
0.6
176
     1
 41
30.0
176
     1
 63
     7
421
 16777215
176
     1
 74
     1
176
     1
 91
        2
176
     1
 64
     7
176
     1
 65
   257
176
     1
 75
     2
176
     1
175
     1
176
     1
 42
1.0
176
     1
 92
        8
176
     1
 66
   257
176
     1
 43
1.0
176
     1
 76
     1
176
     1
 77
     6
176
     1
 78
     2
176
     1
 67
     7
176
     1
 79
     3
176
     1
170
     0
176
     1
171
     0
176
     1
290
     0
176
     1
 93
        5
176
     1
 44
0.0
176
     1
173
     0
176
     1
1001
ACAD
1000
AcDbSavedByObjectVersion
1070
     0
  0
VISUALSTYLE
  5
3A
102
{ACAD_XDICTIONARY
360
151
102
}
102
{ACAD_REACTORS
330
29
102
}
330
29
100
AcDbVisualStyle
  2
Shades of Gray
 70
    23
177
     2
291
     0
 71
     2
176
     1
 72
     2
176
     1
 73
     3
176
     1
 90
        0
176
     1
 40
0.6
176
     1
 41
30.0
176
     1
 63
     7
421
 16777215
176
     1
 74
     2
176
     1
 91
        2
176
     1
 64
     7
176
     1
 65
     7
176
     1
 75
     1
176
     1
175
     1
176
     1
 42
40.0
176
     1
 92
        8
176
     1
 66
     7
176
     1
 43
1.0
176
     1
 76
     1
176
     1
 77
     6
176
     1
 78
     2
176
     1
 67
     7
176
     1
 79
     3
176
     1
170
     0
176
     1
171
     0
176
     1
290
     0
176
     1
 93
        1
176
     1
 44
0.0
176
     1
173
     0
176
     1
1001
ACAD
1000
AcDbSavedByObjectVersion
1070
     0
  0
VISUALSTYLE
  5
3B
102
{ACAD_XDICTIONARY
360
153
102
}
102
{ACAD_REACTORS
330
29
102
}
330
29
100
AcDbVisualStyle
  2
Sketchy
 70
    24
177
     2
291
     0
 71
     1
176
     1
 72
     2
176
     1
 73
     2
176
     1
 90
        0
176
     1
 40
0.6
176
     1
 41
30.0
176
     1
 63
     7
421
 16777215
176
     1
 74
     2
176
     1
 91
        2
176
     1
 64
     7
176
     1
 65
     7
176
     1
 75
     1
176
     1
175
     1
176
     1
 42
40.0
176
     1
 92
       11
176
     1
 66
     7
176
     1
 43
1.0
176
     1
 76
     1
176
     1
 77
     6
176
     1
 78
     2
176
     1
 67
     7
176
     1
 79
     6
176
     1
170
     0
176
     1
171
     0
176
     1
290
     0
176
     1
 93
        1
176
     1
 44
0.0
176
     1
173
     0
176
     1
1001
ACAD
1000
AcDbSavedByObjectVersion
1070
     0
  0
VISUALSTYLE
  5
36
102
{ACAD_XDICTIONARY
360
149
102
}
102
{ACAD_REACTORS
330
29
102
}
330
29
100
AcDbVisualStyle
  2
Thicken
 70
    13
177
     2
291
     1
 71
     2
176
     1
 72
     2
176
     1
 73
     0
176
     1
 90
        0
176
     1
 40
0.6
176
     1
 41
30.0
176
     1
 63
     7
421
 16777215
176
     1
 74
     1
176
     1
 91
        4
176
     1
 64
     7
176
     1
 65
   257
176
     1
 75
     1
176
     1
175
     1
176
     1
 42
1.0
176
     1
 92
       12
176
     1
 66
     7
176
     1
 43
1.0
176
     1
 76
     1
176
     1
 77
     6
176
     1
 78
     2
176
     1
 67
     7
176
     1
 79
     5
176
     1
170
     0
176
     1
171
     0
176
     1
290
     0
176
     1
 93
        1
176
     1
 44
0.0
176
     1
173
     0
176
     1
1001
ACAD
1000
AcDbSavedByObjectVersion
1070
     0
  0
VISUALSTYLE
  5
30
102
{ACAD_XDICTIONARY
360
13D
102
}
102
{ACAD_REACTORS
330
29
102
}
330
29
100
AcDbVisualStyle
  2
Wireframe
 70
     5
177
     2
291
     0
 71
     0
176
     1
 72
     2
176
     1
 73
     0
176
     1
 90
        0
176
     1
 40
0.6
176
     1
 41
30.0
176
     1
 63
     7
421
 16777215
176
     1
 74
     1
176
     1
 91
        4
176
     1
 64
     7
176
     1
 65
   257
176
     1
 75
     1
176
     1
175
     1
176
     1
 42
1.0
176
     1
 92
        0
176
     1
 66
   257
176
     1
 43
1.0
176
     1
 76
     1
176
     1
 77
     6
176
     1
 78
     2
176
     1
 67
     7
176
     1
 79
     3
176
     1
170
     0
176
     1
171
     0
176
     1
290
     0
176
     1
 93
        1
176
     1
 44
0.0
176
     1
173
     0
176
     1
1001
ACAD
1000
AcDbSavedByObjectVersion
1070
     0
  0
VISUALSTYLE
  5
3C
102
{ACAD_XDICTIONARY
360
155
102
}
102
{ACAD_REACTORS
330
29
102
}
330
29
100
AcDbVisualStyle
  2
X-Ray
 70
    25
177
     2
291
     0
 71
     2
176
     1
 72
     2
176
     1
 73
     1
176
     1
 90
        1
176
     1
 40
0.5
176
     1
 41
30.0
176
     1
 63
     7
421
 16777215
176
     1
 74
     1
176
     1
 91
        0
176
     1
 64
     7
176
     1
 65
   257
176
     1
 75
     1
176
     1
175
     1
176
     1
 42
1.0
176
     1
 92
        8
176
     1
 66
     7
176
     1
 43
1.0
176
     1
 76
     1
176
     1
 77
     6
176
     1
 78
     2
176
     1
 67
     7
176
     1
 79
     3
176
     1
170
     0
176
     1
171
     0
176
     1
290
     0
176
     1
 93
       13
176
     1
 44
0.0
176
     1
173
     0
176
     1
1001
ACAD
1000
AcDbSavedByObjectVersion
1070
     0
  0
DICTIONARYVAR
  5
12D
102
{ACAD_REACTORS
330
128
102
}
330
128
100
DictionaryVariables
280
     0
  1
1:1
  0
DICTIONARYVAR
  5
12A
102
{ACAD_REACTORS
330
128
102
}
330
128
100
DictionaryVariables
280
     0
  1
STANDARD
  0
DICTIONARYVAR
  5
129
102
{ACAD_REACTORS
330
128
102
}
330
128
100
DictionaryVariables
280
     0
  1
STANDARD
  0
DICTIONARYVAR
  5
12B
102
{ACAD_REACTORS
330
128
102
}
330
128
100
DictionaryVariables
280
     0
  1
Imperial24
  0
DICTIONARYVAR
  5
12C
102
{ACAD_REACTORS
330
128
102
}
330
128
100
DictionaryVariables
280
     0
  1
Imperial24
  0
DICTIONARY
  5
165
330
6B
100
AcDbDictionary
280
     1
281
     1
  3
ACAD_XREC_ROUNDTRIP
360
166
  0
DICTIONARY
  5
1A
330
19
100
AcDbDictionary
280
     1
281
     1
  3
BUMPTILE
360
1C
  3
DIFFUSETILE
360
1B
  3
OPACITYTILE
360
1F
  3
REFLECTIONTILE
360
1E
  3
REFRACTIONTILE
360
20
  3
SPECULARTILE
360
1D
  0
DICTIONARY
  5
12
330
11
100
AcDbDictionary
280
     1
281
     1
  3
BUMPTILE
360
14
  3
DIFFUSETILE
360
13
  3
OPACITYTILE
360
17
  3
REFLECTIONTILE
360
16
  3
REFRACTIONTILE
360
18
  3
SPECULARTILE
360
15
  0
DICTIONARY
  5
22
330
21
100
AcDbDictionary
280
     1
281
     1
  3
BUMPTILE
360
24
  3
DIFFUSETILE
360
23
  3
OPACITYTILE
360
27
  3
REFLECTIONTILE
360
26
  3
REFRACTIONTILE
360
28
  3
SPECULARTILE
360
25
  0
DICTIONARY
  5
161
330
67
100
AcDbDictionary
280
     1
281
     1
  3
ACAD_XREC_ROUNDTRIP
360
162
  0
DICTIONARY
  5
163
330
69
100
AcDbDictionary
280
     1
281
     1
  3
ACAD_XREC_ROUNDTRIP
360
164
  0
DICTIONARY
  5
12E
330
65
100
AcDbDictionary
280
     1
281
     1
  3
ACAD_ROUNDTRIP_2008_TABLESTYLE_CELLSTYLEMAP
360
12F
  0
DICTIONARY
  5
13B
330
2F
100
AcDbDictionary
280
     1
281
     1
  3
ACAD_XREC_ROUNDTRIP
360
13C
  0
DICTIONARY
  5
139
330
2E
100
AcDbDictionary
280
     1
281
     1
  3
ACAD_XREC_ROUNDTRIP
360
13A
  0
DICTIONARY
  5
147
330
35
100
AcDbDictionary
280
     1
281
     1
  3
ACAD_XREC_ROUNDTRIP
360
148
  0
DICTIONARY
  5
14F
330
39
100
AcDbDictionary
280
     1
281
     1
  3
ACAD_XREC_ROUNDTRIP
360
150
  0
DICTIONARY
  5
141
330
32
100
AcDbDictionary
280
     1
281
     1
  3
ACAD_XREC_ROUNDTRIP
360
142
  0
DICTIONARY
  5
145
330
34
100
AcDbDictionary
280
     1
281
     1
  3
ACAD_XREC_ROUNDTRIP
360
146
  0
DICTIONARY
  5
15F
330
41
100
AcDbDictionary
280
     1
281
     1
  3
ACAD_XREC_ROUNDTRIP
360
160
  0
DICTIONARY
  5
14D
330
38
100
AcDbDictionary
280
     1
281
     1
  3
ACAD_XREC_ROUNDTRIP
360
14E
  0
DICTIONARY
  5
131
330
2A
100
AcDbDictionary
280
     1
281
     1
  3
ACAD_XREC_ROUNDTRIP
360
132
  0
DICTIONARY
  5
133
330
2B
100
AcDbDictionary
280
     1
281
     1
  3
ACAD_XREC_ROUNDTRIP
360
134
  0
DICTIONARY
  5
135
330
2C
100
AcDbDictionary
280
     1
281
     1
  3
ACAD_XREC_ROUNDTRIP
360
136
  0
DICTIONARY
  5
137
330
2D
100
AcDbDictionary
280
     1
281
     1
  3
ACAD_XREC_ROUNDTRIP
360
138
  0
DICTIONARY
  5
13F
330
31
100
AcDbDictionary
280
     1
281
     1
  3
ACAD_XREC_ROUNDTRIP
360
140
  0
DICTIONARY
  5
15B
330
3F
100
AcDbDictionary
280
     1
281
     1
  3
ACAD_XREC_ROUNDTRIP
360
15C
  0
DICTIONARY
  5
14B
330
37
100
AcDbDictionary
280
     1
281
     1
  3
ACAD_XREC_ROUNDTRIP
360
14C
  0
DICTIONARY
  5
15D
330
40
100
AcDbDictionary
280
     1
281
     1
  3
ACAD_XREC_ROUNDTRIP
360
15E
  0
DICTIONARY
  5
143
330
33
100
AcDbDictionary
280
     1
281
     1
  3
ACAD_XREC_ROUNDTRIP
360
144
  0
DICTIONARY
  5
159
330
3E
100
AcDbDictionary
280
     1
281
     1
  3
ACAD_XREC_ROUNDTRIP
360
15A
  0
DICTIONARY
  5
157
330
3D
100
AcDbDictionary
280
     1
281
     1
  3
ACAD_XREC_ROUNDTRIP
360
158
  0
DICTIONARY
  5
151
330
3A
100
AcDbDictionary
280
     1
281
     1
  3
ACAD_XREC_ROUNDTRIP
360
152
  0
DICTIONARY
  5
153
330
3B
100
AcDbDictionary
280
     1
281
     1
  3
ACAD_XREC_ROUNDTRIP
360
154
  0
DICTIONARY
  5
149
330
36
100
AcDbDictionary
280
     1
281
     1
  3
ACAD_XREC_ROUNDTRIP
360
14A
  0
DICTIONARY
  5
13D
330
30
100
AcDbDictionary
280
     1
281
     1
  3
ACAD_XREC_ROUNDTRIP
360
13E
  0
DICTIONARY
  5
155
330
3C
100
AcDbDictionary
280
     1
281
     1
  3
ACAD_XREC_ROUNDTRIP
360
156
  0
XRECORD
  5
166
102
{ACAD_REACTORS
330
165
102
}
330
165
100
AcDbXrecord
280
     1
102
DISPLAYNAME
  1
Imperial24
102
FLAGS
 90
        0
  0
XRECORD
  5
1C
102
{ACAD_REACTORS
330
1A
102
}
330
1A
100
AcDbXrecord
280
     1
270
     1
271
     1
  0
XRECORD
  5
1B
102
{ACAD_REACTORS
330
1A
102
}
330
1A
100
AcDbXrecord
280
     1
270
     1
271
     1
  0
XRECORD
  5
1F
102
{ACAD_REACTORS
330
1A
102
}
330
1A
100
AcDbXrecord
280
     1
270
     1
271
     1
  0
XRECORD
  5
1E
102
{ACAD_REACTORS
330
1A
102
}
330
1A
100
AcDbXrecord
280
     1
270
     1
271
     1
  0
XRECORD
  5
20
102
{ACAD_REACTORS
330
1A
102
}
330
1A
100
AcDbXrecord
280
     1
270
     1
271
     1
  0
XRECORD
  5
1D
102
{ACAD_REACTORS
330
1A
102
}
330
1A
100
AcDbXrecord
280
     1
270
     1
271
     1
  0
XRECORD
  5
14
102
{ACAD_REACTORS
330
12
102
}
330
12
100
AcDbXrecord
280
     1
270
     1
271
     1
  0
XRECORD
  5
13
102
{ACAD_REACTORS
330
12
102
}
330
12
100
AcDbXrecord
280
     1
270
     1
271
     1
  0
XRECORD
  5
17
102
{ACAD_REACTORS
330
12
102
}
330
12
100
AcDbXrecord
280
     1
270
     1
271
     1
  0
XRECORD
  5
16
102
{ACAD_REACTORS
330
12
102
}
330
12
100
AcDbXrecord
280
     1
270
     1
271
     1
  0
XRECORD
  5
18
102
{ACAD_REACTORS
330
12
102
}
330
12
100
AcDbXrecord
280
     1
270
     1
271
     1
  0
XRECORD
  5
15
102
{ACAD_REACTORS
330
12
102
}
330
12
100
AcDbXrecord
280
     1
270
     1
271
     1
  0
XRECORD
  5
24
102
{ACAD_REACTORS
330
22
102
}
330
22
100
AcDbXrecord
280
     1
270
     1
271
     1
  0
XRECORD
  5
23
102
{ACAD_REACTORS
330
22
102
}
330
22
100
AcDbXrecord
280
     1
270
     1
271
     1
  0
XRECORD
  5
27
102
{ACAD_REACTORS
330
22
102
}
330
22
100
AcDbXrecord
280
     1
270
     1
271
     1
  0
XRECORD
  5
26
102
{ACAD_REACTORS
330
22
102
}
330
22
100
AcDbXrecord
280
     1
270
     1
271
     1
  0
XRECORD
  5
28
102
{ACAD_REACTORS
330
22
102
}
330
22
100
AcDbXrecord
280
     1
270
     1
271
     1
  0
XRECORD
  5
25
102
{ACAD_REACTORS
330
22
102
}
330
22
100
AcDbXrecord
280
     1
270
     1
271
     1
  0
XRECORD
  5
162
102
{ACAD_REACTORS
330
161
102
}
330
161
100
AcDbXrecord
280
     1
102
ACAD_ROUNDTRIP_2012_MLEADER_STYLE
298
     1
  0
XRECORD
  5
164
102
{ACAD_REACTORS
330
163
102
}
330
163
100
AcDbXrecord
280
     1
102
DISPLAYNAME
  1
Imperial24
102
FLAGS
 90
        0
  0
CELLSTYLEMAP
  5
12F
102
{ACAD_REACTORS
330
12E
102
}
330
12E
100
AcDbCellStyleMap
 90
        3
300
CELLSTYLE
  1
TABLEFORMAT_BEGIN
 90
        5
170
     1
 91
        0
 92
    32768
 62
   257
 93
        1
300
CONTENTFORMAT
  1
CONTENTFORMAT_BEGIN
 90
        0
 91
        0
 92
      512
 93
        0
300

 40
0.0
140
1.0
 94
        5
 62
     0
340
55
144
0.25
309
CONTENTFORMAT_END
171
     0
 94
        0
309
TABLEFORMAT_END
  1
CELLSTYLE_BEGIN
 90
        1
 91
        1
300
_TITLE
309
CELLSTYLE_END
300
CELLSTYLE
  1
TABLEFORMAT_BEGIN
 90
        5
170
     1
 91
        0
 92
        0
 62
   257
 93
        1
300
CONTENTFORMAT
  1
CONTENTFORMAT_BEGIN
 90
        0
 91
        0
 92
      512
 93
        0
300

 40
0.0
140
1.0
 94
        5
 62
     0
340
55
144
0.18
309
CONTENTFORMAT_END
171
     0
 94
        0
309
TABLEFORMAT_END
  1
CELLSTYLE_BEGIN
 90
        2
 91
        1
300
_HEADER
309
CELLSTYLE_END
300
CELLSTYLE
  1
TABLEFORMAT_BEGIN
 90
        5
170
     1
 91
        0
 92
        0
 62
   257
 93
        1
300
CONTENTFORMAT
  1
CONTENTFORMAT_BEGIN
 90
        0
 91
        0
 92
      512
 93
        0
300

 40
0.0
140
1.0
 94
        2
 62
     0
340
55
144
0.18
309
CONTENTFORMAT_END
171
     0
 94
        0
309
TABLEFORMAT_END
  1
CELLSTYLE_BEGIN
 90
        3
 91
        2
300
_DATA
309
CELLSTYLE_END
  0
XRECORD
  5
13C
102
{ACAD_REACTORS
330
13B
102
}
330
13B
100
AcDbXrecord
280
     1
102
RTVSPost2010Prop28
280
     1
102
RTVSPost2010PropOp28
 70
     1
102
RTVSPost2010Prop29
280
     1
102
RTVSPost2010PropOp29
 70
     1
102
RTVSPost2010Prop30
280
     0
102
RTVSPost2010PropOp30
 70
     1
102
RTVSPost2010Prop31
280
     0
102
RTVSPost2010PropOp31
 70
     1
102
RTVSPost2010Prop32
280
     0
102
RTVSPost2010PropOp32
 70
     1
102
RTVSPost2010Prop33
280
     0
102
RTVSPost2010PropOp33
 70
     1
102
RTVSPost2010Prop34
280
     0
102
RTVSPost2010PropOp34
 70
     1
102
RTVSPost2010Prop35
280
     0
102
RTVSPost2010PropOp35
 70
     1
102
RTVSPost2010Prop36
280
     0
102
RTVSPost2010PropOp36
 70
     1
102
RTVSPost2010Prop37
 90
       50
102
RTVSPost2010PropOp37
 70
     1
102
RTVSPost2010Prop38
140
0.0
102
RTVSPost2010PropOp38
 70
     1
102
RTVSPost2010Prop39
140
1.0
102
RTVSPost2010PropOp39
 70
     1
102
RTVSPost2010Prop40
 90
        0
102
RTVSPost2010PropOp40
 70
     1
102
RTVSPost2010Prop41ColorIndex
 90
       18
102
RTVSPost2010Prop41ColorRGB
 90
        0
102
RTVSPost2010PropOp41
 70
     1
102
RTVSPost2010Prop42
 90
       50
102
RTVSPost2010PropOp42
 70
     1
102
RTVSPost2010Prop43
 90
        3
102
RTVSPost2010PropOp43
 70
     1
102
RTVSPost2010Prop44ColorIndex
 90
        5
102
RTVSPost2010Prop44ColorRGB
 90
      255
102
RTVSPost2010PropOp44
 70
     1
102
RTVSPost2010Prop45
280
     0
102
RTVSPost2010PropOp45
 70
     1
102
RTVSPost2010Prop46
 90
       50
102
RTVSPost2010PropOp46
 70
     1
102
RTVSPost2010Prop47
 90
       50
102
RTVSPost2010PropOp47
 70
     1
102
RTVSPost2010Prop48
 90
       50
102
RTVSPost2010PropOp48
 70
     1
102
RTVSPost2010Prop49
280
     0
102
RTVSPost2010PropOp49
 70
     1
102
RTVSPost2010Prop50
 90
       50
102
RTVSPost2010PropOp50
 70
     1
102
RTVSPost2010Prop51ColorIndex
 90
      256
102
RTVSPost2010Prop51ColorRGB
 90
-16777216
102
RTVSPost2010PropOp51
 70
     0
102
RTVSPost2010Prop52
140
1.0
102
RTVSPost2010PropOp52
 70
     0
102
RTVSPost2010Prop53
 90
        2
102
RTVSPost2010PropOp53
 70
     1
102
RTVSPost2010Prop54
  1
strokes_ogs.tif
102
RTVSPost2010PropOp54
 70
     1
102
RTVSPost2010Prop55
280
     0
102
RTVSPost2010PropOp55
 70
     1
102
RTVSPost2010Prop56
140
1.0
102
RTVSPost2010PropOp56
 70
     1
102
RTVSPost2010Prop57
140
1.0
102
RTVSPost2010PropOp57
 70
     1
  0
XRECORD
  5
13A
102
{ACAD_REACTORS
330
139
102
}
330
139
100
AcDbXrecord
280
     1
102
RTVSPost2010Prop28
280
     0
102
RTVSPost2010PropOp28
 70
     1
102
RTVSPost2010Prop29
280
     1
102
RTVSPost2010PropOp29
 70
     1
102
RTVSPost2010Prop30
280
     1
102
RTVSPost2010PropOp30
 70
     1
102
RTVSPost2010Prop31
280
     0
102
RTVSPost2010PropOp31
 70
     1
102
RTVSPost2010Prop32
280
     0
102
RTVSPost2010PropOp32
 70
     1
102
RTVSPost2010Prop33
280
     0
102
RTVSPost2010PropOp33
 70
     1
102
RTVSPost2010Prop34
280
     0
102
RTVSPost2010PropOp34
 70
     1
102
RTVSPost2010Prop35
280
     0
102
RTVSPost2010PropOp35
 70
     1
102
RTVSPost2010Prop36
280
     0
102
RTVSPost2010PropOp36
 70
     1
102
RTVSPost2010Prop37
 90
       50
102
RTVSPost2010PropOp37
 70
     1
102
RTVSPost2010Prop38
140
0.0
102
RTVSPost2010PropOp38
 70
     1
102
RTVSPost2010Prop39
140
1.0
102
RTVSPost2010PropOp39
 70
     1
102
RTVSPost2010Prop40
 90
        0
102
RTVSPost2010PropOp40
 70
     1
102
RTVSPost2010Prop41ColorIndex
 90
       18
102
RTVSPost2010Prop41ColorRGB
 90
        0
102
RTVSPost2010PropOp41
 70
     1
102
RTVSPost2010Prop42
 90
       50
102
RTVSPost2010PropOp42
 70
     1
102
RTVSPost2010Prop43
 90
        3
102
RTVSPost2010PropOp43
 70
     1
102
RTVSPost2010Prop44ColorIndex
 90
        5
102
RTVSPost2010Prop44ColorRGB
 90
      255
102
RTVSPost2010PropOp44
 70
     1
102
RTVSPost2010Prop45
280
     0
102
RTVSPost2010PropOp45
 70
     1
102
RTVSPost2010Prop46
 90
       50
102
RTVSPost2010PropOp46
 70
     1
102
RTVSPost2010Prop47
 90
       50
102
RTVSPost2010PropOp47
 70
     1
102
RTVSPost2010Prop48
 90
       50
102
RTVSPost2010PropOp48
 70
     1
102
RTVSPost2010Prop49
280
     0
102
RTVSPost2010PropOp49
 70
     1
102
RTVSPost2010Prop50
 90
       50
102
RTVSPost2010PropOp50
 70
     1
102
RTVSPost2010Prop51ColorIndex
 90
      256
102
RTVSPost2010Prop51ColorRGB
 90
-16777216
102
RTVSPost2010PropOp51
 70
     0
102
RTVSPost2010Prop52
140
1.0
102
RTVSPost2010PropOp52
 70
     0
102
RTVSPost2010Prop53
 90
        2
102
RTVSPost2010PropOp53
 70
     1
102
RTVSPost2010Prop54
  1
strokes_ogs.tif
102
RTVSPost2010PropOp54
 70
     1
102
RTVSPost2010Prop55
280
     0
102
RTVSPost2010PropOp55
 70
     1
102
RTVSPost2010Prop56
140
1.0
102
RTVSPost2010PropOp56
 70
     1
102
RTVSPost2010Prop57
140
1.0
102
RTVSPost2010PropOp57
 70
     1
  0
XRECORD
  5
148
102
{ACAD_REACTORS
330
147
102
}
330
147
100
AcDbXrecord
280
     1
102
RTVSPost2010Prop28
280
     0
102
RTVSPost2010PropOp28
 70
     1
102
RTVSPost2010Prop29
280
     1
102
RTVSPost2010PropOp29
 70
     1
102
RTVSPost2010Prop30
280
     1
102
RTVSPost2010PropOp30
 70
     1
102
RTVSPost2010Prop31
280
     0
102
RTVSPost2010PropOp31
 70
     1
102
RTVSPost2010Prop32
280
     0
102
RTVSPost2010PropOp32
 70
     1
102
RTVSPost2010Prop33
280
     0
102
RTVSPost2010PropOp33
 70
     1
102
RTVSPost2010Prop34
280
     0
102
RTVSPost2010PropOp34
 70
     1
102
RTVSPost2010Prop35
280
     0
102
RTVSPost2010PropOp35
 70
     1
102
RTVSPost2010Prop36
280
     0
102
RTVSPost2010PropOp36
 70
     1
102
RTVSPost2010Prop37
 90
       50
102
RTVSPost2010PropOp37
 70
     1
102
RTVSPost2010Prop38
140
0.0
102
RTVSPost2010PropOp38
 70
     1
102
RTVSPost2010Prop39
140
1.0
102
RTVSPost2010PropOp39
 70
     1
102
RTVSPost2010Prop40
 90
        0
102
RTVSPost2010PropOp40
 70
     1
102
RTVSPost2010Prop41ColorIndex
 90
       18
102
RTVSPost2010Prop41ColorRGB
 90
        0
102
RTVSPost2010PropOp41
 70
     1
102
RTVSPost2010Prop42
 90
       50
102
RTVSPost2010PropOp42
 70
     1
102
RTVSPost2010Prop43
 90
        3
102
RTVSPost2010PropOp43
 70
     1
102
RTVSPost2010Prop44ColorIndex
 90
        5
102
RTVSPost2010Prop44ColorRGB
 90
      255
102
RTVSPost2010PropOp44
 70
     1
102
RTVSPost2010Prop45
280
     0
102
RTVSPost2010PropOp45
 70
     1
102
RTVSPost2010Prop46
 90
       50
102
RTVSPost2010PropOp46
 70
     1
102
RTVSPost2010Prop47
 90
       50
102
RTVSPost2010PropOp47
 70
     1
102
RTVSPost2010Prop48
 90
       50
102
RTVSPost2010PropOp48
 70
     1
102
RTVSPost2010Prop49
280
     0
102
RTVSPost2010PropOp49
 70
     1
102
RTVSPost2010Prop50
 90
       50
102
RTVSPost2010PropOp50
 70
     1
102
RTVSPost2010Prop51ColorIndex
 90
      256
102
RTVSPost2010Prop51ColorRGB
 90
-16777216
102
RTVSPost2010PropOp51
 70
     0
102
RTVSPost2010Prop52
140
1.0
102
RTVSPost2010PropOp52
 70
     0
102
RTVSPost2010Prop53
 90
        2
102
RTVSPost2010PropOp53
 70
     1
102
RTVSPost2010Prop54
  1
strokes_ogs.tif
102
RTVSPost2010PropOp54
 70
     1
102
RTVSPost2010Prop55
280
     0
102
RTVSPost2010PropOp55
 70
     1
102
RTVSPost2010Prop56
140
1.0
102
RTVSPost2010PropOp56
 70
     1
102
RTVSPost2010Prop57
140
1.0
102
RTVSPost2010PropOp57
 70
     1
  0
XRECORD
  5
150
102
{ACAD_REACTORS
330
14F
102
}
330
14F
100
AcDbXrecord
280
     1
102
RTVSPost2010Prop28
280
     0
102
RTVSPost2010PropOp28
 70
     1
102
RTVSPost2010Prop29
280
     1
102
RTVSPost2010PropOp29
 70
     1
102
RTVSPost2010Prop30
280
     1
102
RTVSPost2010PropOp30
 70
     1
102
RTVSPost2010Prop31
280
     0
102
RTVSPost2010PropOp31
 70
     1
102
RTVSPost2010Prop32
280
     0
102
RTVSPost2010PropOp32
 70
     1
102
RTVSPost2010Prop33
280
     0
102
RTVSPost2010PropOp33
 70
     1
102
RTVSPost2010Prop34
280
     0
102
RTVSPost2010PropOp34
 70
     1
102
RTVSPost2010Prop35
280
     0
102
RTVSPost2010PropOp35
 70
     1
102
RTVSPost2010Prop36
280
     0
102
RTVSPost2010PropOp36
 70
     1
102
RTVSPost2010Prop37
 90
       50
102
RTVSPost2010PropOp37
 70
     1
102
RTVSPost2010Prop38
140
0.0
102
RTVSPost2010PropOp38
 70
     1
102
RTVSPost2010Prop39
140
1.0
102
RTVSPost2010PropOp39
 70
     1
102
RTVSPost2010Prop40
 90
        0
102
RTVSPost2010PropOp40
 70
     1
102
RTVSPost2010Prop41ColorIndex
 90
       18
102
RTVSPost2010Prop41ColorRGB
 90
        0
102
RTVSPost2010PropOp41
 70
     1
102
RTVSPost2010Prop42
 90
       50
102
RTVSPost2010PropOp42
 70
     1
102
RTVSPost2010Prop43
 90
        3
102
RTVSPost2010PropOp43
 70
     1
102
RTVSPost2010Prop44ColorIndex
 90
        5
102
RTVSPost2010Prop44ColorRGB
 90
      255
102
RTVSPost2010PropOp44
 70
     1
102
RTVSPost2010Prop45
280
     0
102
RTVSPost2010PropOp45
 70
     1
102
RTVSPost2010Prop46
 90
       50
102
RTVSPost2010PropOp46
 70
     1
102
RTVSPost2010Prop47
 90
       50
102
RTVSPost2010PropOp47
 70
     1
102
RTVSPost2010Prop48
 90
       50
102
RTVSPost2010PropOp48
 70
     1
102
RTVSPost2010Prop49
280
     0
102
RTVSPost2010PropOp49
 70
     1
102
RTVSPost2010Prop50
 90
       50
102
RTVSPost2010PropOp50
 70
     1
102
RTVSPost2010Prop51ColorIndex
 90
      256
102
RTVSPost2010Prop51ColorRGB
 90
-16777216
102
RTVSPost2010PropOp51
 70
     0
102
RTVSPost2010Prop52
140
1.0
102
RTVSPost2010PropOp52
 70
     0
102
RTVSPost2010Prop53
 90
        2
102
RTVSPost2010PropOp53
 70
     1
102
RTVSPost2010Prop54
  1
strokes_ogs.tif
102
RTVSPost2010PropOp54
 70
     1
102
RTVSPost2010Prop55
280
     0
102
RTVSPost2010PropOp55
 70
     1
102
RTVSPost2010Prop56
140
1.0
102
RTVSPost2010PropOp56
 70
     1
102
RTVSPost2010Prop57
140
1.0
102
RTVSPost2010PropOp57
 70
     1
  0
XRECORD
  5
142
102
{ACAD_REACTORS
330
141
102
}
330
141
100
AcDbXrecord
280
     1
102
RTVSPost2010Prop28
280
     0
102
RTVSPost2010PropOp28
 70
     1
102
RTVSPost2010Prop29
280
     1
102
RTVSPost2010PropOp29
 70
     1
102
RTVSPost2010Prop30
280
     1
102
RTVSPost2010PropOp30
 70
     1
102
RTVSPost2010Prop31
280
     0
102
RTVSPost2010PropOp31
 70
     1
102
RTVSPost2010Prop32
280
     0
102
RTVSPost2010PropOp32
 70
     1
102
RTVSPost2010Prop33
280
     0
102
RTVSPost2010PropOp33
 70
     1
102
RTVSPost2010Prop34
280
     0
102
RTVSPost2010PropOp34
 70
     1
102
RTVSPost2010Prop35
280
     0
102
RTVSPost2010PropOp35
 70
     1
102
RTVSPost2010Prop36
280
     0
102
RTVSPost2010PropOp36
 70
     1
102
RTVSPost2010Prop37
 90
       50
102
RTVSPost2010PropOp37
 70
     1
102
RTVSPost2010Prop38
140
0.0
102
RTVSPost2010PropOp38
 70
     1
102
RTVSPost2010Prop39
140
1.0
102
RTVSPost2010PropOp39
 70
     1
102
RTVSPost2010Prop40
 90
        0
102
RTVSPost2010PropOp40
 70
     1
102
RTVSPost2010Prop41ColorIndex
 90
       18
102
RTVSPost2010Prop41ColorRGB
 90
        0
102
RTVSPost2010PropOp41
 70
     1
102
RTVSPost2010Prop42
 90
       50
102
RTVSPost2010PropOp42
 70
     1
102
RTVSPost2010Prop43
 90
        3
102
RTVSPost2010PropOp43
 70
     1
102
RTVSPost2010Prop44ColorIndex
 90
        5
102
RTVSPost2010Prop44ColorRGB
 90
      255
102
RTVSPost2010PropOp44
 70
     1
102
RTVSPost2010Prop45
280
     0
102
RTVSPost2010PropOp45
 70
     1
102
RTVSPost2010Prop46
 90
       50
102
RTVSPost2010PropOp46
 70
     1
102
RTVSPost2010Prop47
 90
       50
102
RTVSPost2010PropOp47
 70
     1
102
RTVSPost2010Prop48
 90
       50
102
RTVSPost2010PropOp48
 70
     1
102
RTVSPost2010Prop49
280
     0
102
RTVSPost2010PropOp49
 70
     1
102
RTVSPost2010Prop50
 90
       50
102
RTVSPost2010PropOp50
 70
     1
102
RTVSPost2010Prop51ColorIndex
 90
      256
102
RTVSPost2010Prop51ColorRGB
 90
-16777216
102
RTVSPost2010PropOp51
 70
     0
102
RTVSPost2010Prop52
140
1.0
102
RTVSPost2010PropOp52
 70
     0
102
RTVSPost2010Prop53
 90
        2
102
RTVSPost2010PropOp53
 70
     1
102
RTVSPost2010Prop54
  1
strokes_ogs.tif
102
RTVSPost2010PropOp54
 70
     1
102
RTVSPost2010Prop55
280
     0
102
RTVSPost2010PropOp55
 70
     1
102
RTVSPost2010Prop56
140
1.0
102
RTVSPost2010PropOp56
 70
     1
102
RTVSPost2010Prop57
140
1.0
102
RTVSPost2010PropOp57
 70
     1
  0
XRECORD
  5
146
102
{ACAD_REACTORS
330
145
102
}
330
145
100
AcDbXrecord
280
     1
102
RTVSPost2010Prop28
280
     0
102
RTVSPost2010PropOp28
 70
     1
102
RTVSPost2010Prop29
280
     1
102
RTVSPost2010PropOp29
 70
     1
102
RTVSPost2010Prop30
280
     1
102
RTVSPost2010PropOp30
 70
     1
102
RTVSPost2010Prop31
280
     0
102
RTVSPost2010PropOp31
 70
     1
102
RTVSPost2010Prop32
280
     0
102
RTVSPost2010PropOp32
 70
     1
102
RTVSPost2010Prop33
280
     0
102
RTVSPost2010PropOp33
 70
     1
102
RTVSPost2010Prop34
280
     0
102
RTVSPost2010PropOp34
 70
     1
102
RTVSPost2010Prop35
280
     0
102
RTVSPost2010PropOp35
 70
     1
102
RTVSPost2010Prop36
280
     0
102
RTVSPost2010PropOp36
 70
     1
102
RTVSPost2010Prop37
 90
       50
102
RTVSPost2010PropOp37
 70
     1
102
RTVSPost2010Prop38
140
0.0
102
RTVSPost2010PropOp38
 70
     1
102
RTVSPost2010Prop39
140
1.0
102
RTVSPost2010PropOp39
 70
     1
102
RTVSPost2010Prop40
 90
        0
102
RTVSPost2010PropOp40
 70
     1
102
RTVSPost2010Prop41ColorIndex
 90
       18
102
RTVSPost2010Prop41ColorRGB
 90
        0
102
RTVSPost2010PropOp41
 70
     1
102
RTVSPost2010Prop42
 90
       50
102
RTVSPost2010PropOp42
 70
     1
102
RTVSPost2010Prop43
 90
        3
102
RTVSPost2010PropOp43
 70
     1
102
RTVSPost2010Prop44ColorIndex
 90
        5
102
RTVSPost2010Prop44ColorRGB
 90
      255
102
RTVSPost2010PropOp44
 70
     1
102
RTVSPost2010Prop45
280
     0
102
RTVSPost2010PropOp45
 70
     1
102
RTVSPost2010Prop46
 90
       50
102
RTVSPost2010PropOp46
 70
     1
102
RTVSPost2010Prop47
 90
       50
102
RTVSPost2010PropOp47
 70
     1
102
RTVSPost2010Prop48
 90
       50
102
RTVSPost2010PropOp48
 70
     1
102
RTVSPost2010Prop49
280
     0
102
RTVSPost2010PropOp49
 70
     1
102
RTVSPost2010Prop50
 90
       50
102
RTVSPost2010PropOp50
 70
     1
102
RTVSPost2010Prop51ColorIndex
 90
      256
102
RTVSPost2010Prop51ColorRGB
 90
-16777216
102
RTVSPost2010PropOp51
 70
     0
102
RTVSPost2010Prop52
140
1.0
102
RTVSPost2010PropOp52
 70
     0
102
RTVSPost2010Prop53
 90
        2
102
RTVSPost2010PropOp53
 70
     1
102
RTVSPost2010Prop54
  1
strokes_ogs.tif
102
RTVSPost2010PropOp54
 70
     1
102
RTVSPost2010Prop55
280
     0
102
RTVSPost2010PropOp55
 70
     1
102
RTVSPost2010Prop56
140
1.0
102
RTVSPost2010PropOp56
 70
     1
102
RTVSPost2010Prop57
140
1.0
102
RTVSPost2010PropOp57
 70
     1
  0
XRECORD
  5
160
102
{ACAD_REACTORS
330
15F
102
}
330
15F
100
AcDbXrecord
280
     1
102
RTVSPost2010Prop28
280
     0
102
RTVSPost2010PropOp28
 70
     0
102
RTVSPost2010Prop29
280
     1
102
RTVSPost2010PropOp29
 70
     0
102
RTVSPost2010Prop30
280
     1
102
RTVSPost2010PropOp30
 70
     0
102
RTVSPost2010Prop31
280
     0
102
RTVSPost2010PropOp31
 70
     0
102
RTVSPost2010Prop32
280
     0
102
RTVSPost2010PropOp32
 70
     0
102
RTVSPost2010Prop33
280
     0
102
RTVSPost2010PropOp33
 70
     0
102
RTVSPost2010Prop34
280
     0
102
RTVSPost2010PropOp34
 70
     0
102
RTVSPost2010Prop35
280
     0
102
RTVSPost2010PropOp35
 70
     0
102
RTVSPost2010Prop36
280
     0
102
RTVSPost2010PropOp36
 70
     0
102
RTVSPost2010Prop37
 90
       50
102
RTVSPost2010PropOp37
 70
     0
102
RTVSPost2010Prop38
140
0.0
102
RTVSPost2010PropOp38
 70
     0
102
RTVSPost2010Prop39
140
1.0
102
RTVSPost2010PropOp39
 70
     0
102
RTVSPost2010Prop40
 90
        0
102
RTVSPost2010PropOp40
 70
     0
102
RTVSPost2010Prop41ColorIndex
 90
       18
102
RTVSPost2010Prop41ColorRGB
 90
        0
102
RTVSPost2010PropOp41
 70
     0
102
RTVSPost2010Prop42
 90
       50
102
RTVSPost2010PropOp42
 70
     0
102
RTVSPost2010Prop43
 90
        3
102
RTVSPost2010PropOp43
 70
     0
102
RTVSPost2010Prop44ColorIndex
 90
        5
102
RTVSPost2010Prop44ColorRGB
 90
      255
102
RTVSPost2010PropOp44
 70
     0
102
RTVSPost2010Prop45
280
     0
102
RTVSPost2010PropOp45
 70
     0
102
RTVSPost2010Prop46
 90
       50
102
RTVSPost2010PropOp46
 70
     0
102
RTVSPost2010Prop47
 90
       50
102
RTVSPost2010PropOp47
 70
     0
102
RTVSPost2010Prop48
 90
       50
102
RTVSPost2010PropOp48
 70
     0
102
RTVSPost2010Prop49
280
     0
102
RTVSPost2010PropOp49
 70
     0
102
RTVSPost2010Prop50
 90
       50
102
RTVSPost2010PropOp50
 70
     0
102
RTVSPost2010Prop51ColorIndex
 90
      256
102
RTVSPost2010Prop51ColorRGB
 90
-16777216
102
RTVSPost2010PropOp51
 70
     0
102
RTVSPost2010Prop52
140
1.0
102
RTVSPost2010PropOp52
 70
     0
102
RTVSPost2010Prop53
 90
        2
102
RTVSPost2010PropOp53
 70
     0
102
RTVSPost2010Prop54
  1
strokes_ogs.tif
102
RTVSPost2010PropOp54
 70
     0
102
RTVSPost2010Prop55
280
     0
102
RTVSPost2010PropOp55
 70
     0
102
RTVSPost2010Prop56
140
1.0
102
RTVSPost2010PropOp56
 70
     0
102
RTVSPost2010Prop57
140
1.0
102
RTVSPost2010PropOp57
 70
     0
  0
XRECORD
  5
14E
102
{ACAD_REACTORS
330
14D
102
}
330
14D
100
AcDbXrecord
280
     1
102
RTVSPost2010Prop28
280
     0
102
RTVSPost2010PropOp28
 70
     1
102
RTVSPost2010Prop29
280
     1
102
RTVSPost2010PropOp29
 70
     1
102
RTVSPost2010Prop30
280
     1
102
RTVSPost2010PropOp30
 70
     1
102
RTVSPost2010Prop31
280
     0
102
RTVSPost2010PropOp31
 70
     1
102
RTVSPost2010Prop32
280
     0
102
RTVSPost2010PropOp32
 70
     1
102
RTVSPost2010Prop33
280
     0
102
RTVSPost2010PropOp33
 70
     1
102
RTVSPost2010Prop34
280
     0
102
RTVSPost2010PropOp34
 70
     1
102
RTVSPost2010Prop35
280
     0
102
RTVSPost2010PropOp35
 70
     1
102
RTVSPost2010Prop36
280
     0
102
RTVSPost2010PropOp36
 70
     1
102
RTVSPost2010Prop37
 90
       50
102
RTVSPost2010PropOp37
 70
     1
102
RTVSPost2010Prop38
140
0.0
102
RTVSPost2010PropOp38
 70
     1
102
RTVSPost2010Prop39
140
1.0
102
RTVSPost2010PropOp39
 70
     1
102
RTVSPost2010Prop40
 90
        0
102
RTVSPost2010PropOp40
 70
     1
102
RTVSPost2010Prop41ColorIndex
 90
       18
102
RTVSPost2010Prop41ColorRGB
 90
        0
102
RTVSPost2010PropOp41
 70
     1
102
RTVSPost2010Prop42
 90
       50
102
RTVSPost2010PropOp42
 70
     1
102
RTVSPost2010Prop43
 90
        3
102
RTVSPost2010PropOp43
 70
     1
102
RTVSPost2010Prop44ColorIndex
 90
        5
102
RTVSPost2010Prop44ColorRGB
 90
      255
102
RTVSPost2010PropOp44
 70
     1
102
RTVSPost2010Prop45
280
     0
102
RTVSPost2010PropOp45
 70
     1
102
RTVSPost2010Prop46
 90
       50
102
RTVSPost2010PropOp46
 70
     1
102
RTVSPost2010Prop47
 90
       50
102
RTVSPost2010PropOp47
 70
     1
102
RTVSPost2010Prop48
 90
       50
102
RTVSPost2010PropOp48
 70
     1
102
RTVSPost2010Prop49
280
     0
102
RTVSPost2010PropOp49
 70
     1
102
RTVSPost2010Prop50
 90
       50
102
RTVSPost2010PropOp50
 70
     1
102
RTVSPost2010Prop51ColorIndex
 90
      256
102
RTVSPost2010Prop51ColorRGB
 90
-16777216
102
RTVSPost2010PropOp51
 70
     0
102
RTVSPost2010Prop52
140
1.0
102
RTVSPost2010PropOp52
 70
     0
102
RTVSPost2010Prop53
 90
        2
102
RTVSPost2010PropOp53
 70
     1
102
RTVSPost2010Prop54
  1
strokes_ogs.tif
102
RTVSPost2010PropOp54
 70
     1
102
RTVSPost2010Prop55
280
     0
102
RTVSPost2010PropOp55
 70
     1
102
RTVSPost2010Prop56
140
1.0
102
RTVSPost2010PropOp56
 70
     1
102
RTVSPost2010Prop57
140
1.0
102
RTVSPost2010PropOp57
 70
     1
  0
XRECORD
  5
132
102
{ACAD_REACTORS
330
131
102
}
330
131
100
AcDbXrecord
280
     1
102
RTVSPost2010Prop28
280
     0
102
RTVSPost2010PropOp28
 70
     1
102
RTVSPost2010Prop29
280
     1
102
RTVSPost2010PropOp29
 70
     1
102
RTVSPost2010Prop30
280
     1
102
RTVSPost2010PropOp30
 70
     1
102
RTVSPost2010Prop31
280
     0
102
RTVSPost2010PropOp31
 70
     1
102
RTVSPost2010Prop32
280
     0
102
RTVSPost2010PropOp32
 70
     1
102
RTVSPost2010Prop33
280
     0
102
RTVSPost2010PropOp33
 70
     1
102
RTVSPost2010Prop34
280
     0
102
RTVSPost2010PropOp34
 70
     1
102
RTVSPost2010Prop35
280
     0
102
RTVSPost2010PropOp35
 70
     1
102
RTVSPost2010Prop36
280
     0
102
RTVSPost2010PropOp36
 70
     1
102
RTVSPost2010Prop37
 90
       50
102
RTVSPost2010PropOp37
 70
     1
102
RTVSPost2010Prop38
140
0.0
102
RTVSPost2010PropOp38
 70
     1
102
RTVSPost2010Prop39
140
1.0
102
RTVSPost2010PropOp39
 70
     1
102
RTVSPost2010Prop40
 90
        0
102
RTVSPost2010PropOp40
 70
     1
102
RTVSPost2010Prop41ColorIndex
 90
       18
102
RTVSPost2010Prop41ColorRGB
 90
        0
102
RTVSPost2010PropOp41
 70
     1
102
RTVSPost2010Prop42
 90
       50
102
RTVSPost2010PropOp42
 70
     1
102
RTVSPost2010Prop43
 90
        3
102
RTVSPost2010PropOp43
 70
     1
102
RTVSPost2010Prop44ColorIndex
 90
        5
102
RTVSPost2010Prop44ColorRGB
 90
      255
102
RTVSPost2010PropOp44
 70
     1
102
RTVSPost2010Prop45
280
     0
102
RTVSPost2010PropOp45
 70
     1
102
RTVSPost2010Prop46
 90
       50
102
RTVSPost2010PropOp46
 70
     1
102
RTVSPost2010Prop47
 90
       50
102
RTVSPost2010PropOp47
 70
     1
102
RTVSPost2010Prop48
 90
       50
102
RTVSPost2010PropOp48
 70
     1
102
RTVSPost2010Prop49
280
     0
102
RTVSPost2010PropOp49
 70
     1
102
RTVSPost2010Prop50
 90
       50
102
RTVSPost2010PropOp50
 70
     1
102
RTVSPost2010Prop51ColorIndex
 90
      256
102
RTVSPost2010Prop51ColorRGB
 90
-16777216
102
RTVSPost2010PropOp51
 70
     0
102
RTVSPost2010Prop52
140
1.0
102
RTVSPost2010PropOp52
 70
     0
102
RTVSPost2010Prop53
 90
        2
102
RTVSPost2010PropOp53
 70
     1
102
RTVSPost2010Prop54
  1
strokes_ogs.tif
102
RTVSPost2010PropOp54
 70
     1
102
RTVSPost2010Prop55
280
     0
102
RTVSPost2010PropOp55
 70
     1
102
RTVSPost2010Prop56
140
1.0
102
RTVSPost2010PropOp56
 70
     1
102
RTVSPost2010Prop57
140
1.0
102
RTVSPost2010PropOp57
 70
     1
  0
XRECORD
  5
134
102
{ACAD_REACTORS
330
133
102
}
330
133
100
AcDbXrecord
280
     1
102
RTVSPost2010Prop28
280
     0
102
RTVSPost2010PropOp28
 70
     1
102
RTVSPost2010Prop29
280
     1
102
RTVSPost2010PropOp29
 70
     1
102
RTVSPost2010Prop30
280
     1
102
RTVSPost2010PropOp30
 70
     1
102
RTVSPost2010Prop31
280
     0
102
RTVSPost2010PropOp31
 70
     1
102
RTVSPost2010Prop32
280
     0
102
RTVSPost2010PropOp32
 70
     1
102
RTVSPost2010Prop33
280
     0
102
RTVSPost2010PropOp33
 70
     1
102
RTVSPost2010Prop34
280
     0
102
RTVSPost2010PropOp34
 70
     1
102
RTVSPost2010Prop35
280
     0
102
RTVSPost2010PropOp35
 70
     1
102
RTVSPost2010Prop36
280
     0
102
RTVSPost2010PropOp36
 70
     1
102
RTVSPost2010Prop37
 90
       50
102
RTVSPost2010PropOp37
 70
     1
102
RTVSPost2010Prop38
140
0.0
102
RTVSPost2010PropOp38
 70
     1
102
RTVSPost2010Prop39
140
1.0
102
RTVSPost2010PropOp39
 70
     1
102
RTVSPost2010Prop40
 90
        0
102
RTVSPost2010PropOp40
 70
     1
102
RTVSPost2010Prop41ColorIndex
 90
       18
102
RTVSPost2010Prop41ColorRGB
 90
        0
102
RTVSPost2010PropOp41
 70
     1
102
RTVSPost2010Prop42
 90
       50
102
RTVSPost2010PropOp42
 70
     1
102
RTVSPost2010Prop43
 90
        3
102
RTVSPost2010PropOp43
 70
     1
102
RTVSPost2010Prop44ColorIndex
 90
        5
102
RTVSPost2010Prop44ColorRGB
 90
      255
102
RTVSPost2010PropOp44
 70
     1
102
RTVSPost2010Prop45
280
     0
102
RTVSPost2010PropOp45
 70
     1
102
RTVSPost2010Prop46
 90
       50
102
RTVSPost2010PropOp46
 70
     1
102
RTVSPost2010Prop47
 90
       50
102
RTVSPost2010PropOp47
 70
     1
102
RTVSPost2010Prop48
 90
       50
102
RTVSPost2010PropOp48
 70
     1
102
RTVSPost2010Prop49
280
     0
102
RTVSPost2010PropOp49
 70
     1
102
RTVSPost2010Prop50
 90
       50
102
RTVSPost2010PropOp50
 70
     1
102
RTVSPost2010Prop51ColorIndex
 90
      256
102
RTVSPost2010Prop51ColorRGB
 90
-16777216
102
RTVSPost2010PropOp51
 70
     0
102
RTVSPost2010Prop52
140
1.0
102
RTVSPost2010PropOp52
 70
     0
102
RTVSPost2010Prop53
 90
        2
102
RTVSPost2010PropOp53
 70
     1
102
RTVSPost2010Prop54
  1
strokes_ogs.tif
102
RTVSPost2010PropOp54
 70
     1
102
RTVSPost2010Prop55
280
     0
102
RTVSPost2010PropOp55
 70
     1
102
RTVSPost2010Prop56
140
1.0
102
RTVSPost2010PropOp56
 70
     1
102
RTVSPost2010Prop57
140
1.0
102
RTVSPost2010PropOp57
 70
     1
  0
XRECORD
  5
136
102
{ACAD_REACTORS
330
135
102
}
330
135
100
AcDbXrecord
280
     1
102
RTVSPost2010Prop28
280
     0
102
RTVSPost2010PropOp28
 70
     1
102
RTVSPost2010Prop29
280
     1
102
RTVSPost2010PropOp29
 70
     1
102
RTVSPost2010Prop30
280
     1
102
RTVSPost2010PropOp30
 70
     1
102
RTVSPost2010Prop31
280
     0
102
RTVSPost2010PropOp31
 70
     1
102
RTVSPost2010Prop32
280
     0
102
RTVSPost2010PropOp32
 70
     1
102
RTVSPost2010Prop33
280
     0
102
RTVSPost2010PropOp33
 70
     1
102
RTVSPost2010Prop34
280
     0
102
RTVSPost2010PropOp34
 70
     1
102
RTVSPost2010Prop35
280
     0
102
RTVSPost2010PropOp35
 70
     1
102
RTVSPost2010Prop36
280
     0
102
RTVSPost2010PropOp36
 70
     1
102
RTVSPost2010Prop37
 90
       50
102
RTVSPost2010PropOp37
 70
     1
102
RTVSPost2010Prop38
140
0.0
102
RTVSPost2010PropOp38
 70
     1
102
RTVSPost2010Prop39
140
1.0
102
RTVSPost2010PropOp39
 70
     1
102
RTVSPost2010Prop40
 90
        0
102
RTVSPost2010PropOp40
 70
     1
102
RTVSPost2010Prop41ColorIndex
 90
       18
102
RTVSPost2010Prop41ColorRGB
 90
        0
102
RTVSPost2010PropOp41
 70
     1
102
RTVSPost2010Prop42
 90
       50
102
RTVSPost2010PropOp42
 70
     1
102
RTVSPost2010Prop43
 90
        3
102
RTVSPost2010PropOp43
 70
     1
102
RTVSPost2010Prop44ColorIndex
 90
        5
102
RTVSPost2010Prop44ColorRGB
 90
      255
102
RTVSPost2010PropOp44
 70
     1
102
RTVSPost2010Prop45
280
     0
102
RTVSPost2010PropOp45
 70
     1
102
RTVSPost2010Prop46
 90
       50
102
RTVSPost2010PropOp46
 70
     1
102
RTVSPost2010Prop47
 90
       50
102
RTVSPost2010PropOp47
 70
     1
102
RTVSPost2010Prop48
 90
       50
102
RTVSPost2010PropOp48
 70
     1
102
RTVSPost2010Prop49
280
     0
102
RTVSPost2010PropOp49
 70
     1
102
RTVSPost2010Prop50
 90
       50
102
RTVSPost2010PropOp50
 70
     1
102
RTVSPost2010Prop51ColorIndex
 90
      256
102
RTVSPost2010Prop51ColorRGB
 90
-16777216
102
RTVSPost2010PropOp51
 70
     0
102
RTVSPost2010Prop52
140
1.0
102
RTVSPost2010PropOp52
 70
     0
102
RTVSPost2010Prop53
 90
        2
102
RTVSPost2010PropOp53
 70
     1
102
RTVSPost2010Prop54
  1
strokes_ogs.tif
102
RTVSPost2010PropOp54
 70
     1
102
RTVSPost2010Prop55
280
     0
102
RTVSPost2010PropOp55
 70
     1
102
RTVSPost2010Prop56
140
1.0
102
RTVSPost2010PropOp56
 70
     1
102
RTVSPost2010Prop57
140
1.0
102
RTVSPost2010PropOp57
 70
     1
  0
XRECORD
  5
138
102
{ACAD_REACTORS
330
137
102
}
330
137
100
AcDbXrecord
280
     1
102
RTVSPost2010Prop28
280
     0
102
RTVSPost2010PropOp28
 70
     1
102
RTVSPost2010Prop29
280
     1
102
RTVSPost2010PropOp29
 70
     1
102
RTVSPost2010Prop30
280
     1
102
RTVSPost2010PropOp30
 70
     1
102
RTVSPost2010Prop31
280
     0
102
RTVSPost2010PropOp31
 70
     1
102
RTVSPost2010Prop32
280
     0
102
RTVSPost2010PropOp32
 70
     1
102
RTVSPost2010Prop33
280
     0
102
RTVSPost2010PropOp33
 70
     1
102
RTVSPost2010Prop34
280
     0
102
RTVSPost2010PropOp34
 70
     1
102
RTVSPost2010Prop35
280
     0
102
RTVSPost2010PropOp35
 70
     1
102
RTVSPost2010Prop36
280
     0
102
RTVSPost2010PropOp36
 70
     1
102
RTVSPost2010Prop37
 90
       50
102
RTVSPost2010PropOp37
 70
     1
102
RTVSPost2010Prop38
140
0.0
102
RTVSPost2010PropOp38
 70
     1
102
RTVSPost2010Prop39
140
1.0
102
RTVSPost2010PropOp39
 70
     1
102
RTVSPost2010Prop40
 90
        0
102
RTVSPost2010PropOp40
 70
     1
102
RTVSPost2010Prop41ColorIndex
 90
       18
102
RTVSPost2010Prop41ColorRGB
 90
        0
102
RTVSPost2010PropOp41
 70
     1
102
RTVSPost2010Prop42
 90
       50
102
RTVSPost2010PropOp42
 70
     1
102
RTVSPost2010Prop43
 90
        3
102
RTVSPost2010PropOp43
 70
     1
102
RTVSPost2010Prop44ColorIndex
 90
        5
102
RTVSPost2010Prop44ColorRGB
 90
      255
102
RTVSPost2010PropOp44
 70
     1
102
RTVSPost2010Prop45
280
     0
102
RTVSPost2010PropOp45
 70
     1
102
RTVSPost2010Prop46
 90
       50
102
RTVSPost2010PropOp46
 70
     1
102
RTVSPost2010Prop47
 90
       50
102
RTVSPost2010PropOp47
 70
     1
102
RTVSPost2010Prop48
 90
       50
102
RTVSPost2010PropOp48
 70
     1
102
RTVSPost2010Prop49
280
     0
102
RTVSPost2010PropOp49
 70
     1
102
RTVSPost2010Prop50
 90
       50
102
RTVSPost2010PropOp50
 70
     1
102
RTVSPost2010Prop51ColorIndex
 90
      256
102
RTVSPost2010Prop51ColorRGB
 90
-16777216
102
RTVSPost2010PropOp51
 70
     0
102
RTVSPost2010Prop52
140
1.0
102
RTVSPost2010PropOp52
 70
     0
102
RTVSPost2010Prop53
 90
        2
102
RTVSPost2010PropOp53
 70
     1
102
RTVSPost2010Prop54
  1
strokes_ogs.tif
102
RTVSPost2010PropOp54
 70
     1
102
RTVSPost2010Prop55
280
     0
102
RTVSPost2010PropOp55
 70
     1
102
RTVSPost2010Prop56
140
1.0
102
RTVSPost2010PropOp56
 70
     1
102
RTVSPost2010Prop57
140
1.0
102
RTVSPost2010PropOp57
 70
     1
  0
XRECORD
  5
140
102
{ACAD_REACTORS
330
13F
102
}
330
13F
100
AcDbXrecord
280
     1
102
RTVSPost2010Prop28
280
     0
102
RTVSPost2010PropOp28
 70
     1
102
RTVSPost2010Prop29
280
     1
102
RTVSPost2010PropOp29
 70
     1
102
RTVSPost2010Prop30
280
     1
102
RTVSPost2010PropOp30
 70
     1
102
RTVSPost2010Prop31
280
     0
102
RTVSPost2010PropOp31
 70
     1
102
RTVSPost2010Prop32
280
     0
102
RTVSPost2010PropOp32
 70
     1
102
RTVSPost2010Prop33
280
     0
102
RTVSPost2010PropOp33
 70
     1
102
RTVSPost2010Prop34
280
     0
102
RTVSPost2010PropOp34
 70
     1
102
RTVSPost2010Prop35
280
     0
102
RTVSPost2010PropOp35
 70
     1
102
RTVSPost2010Prop36
280
     0
102
RTVSPost2010PropOp36
 70
     1
102
RTVSPost2010Prop37
 90
       50
102
RTVSPost2010PropOp37
 70
     1
102
RTVSPost2010Prop38
140
0.0
102
RTVSPost2010PropOp38
 70
     1
102
RTVSPost2010Prop39
140
1.0
102
RTVSPost2010PropOp39
 70
     1
102
RTVSPost2010Prop40
 90
        0
102
RTVSPost2010PropOp40
 70
     1
102
RTVSPost2010Prop41ColorIndex
 90
       18
102
RTVSPost2010Prop41ColorRGB
 90
        0
102
RTVSPost2010PropOp41
 70
     1
102
RTVSPost2010Prop42
 90
       50
102
RTVSPost2010PropOp42
 70
     1
102
RTVSPost2010Prop43
 90
        3
102
RTVSPost2010PropOp43
 70
     1
102
RTVSPost2010Prop44ColorIndex
 90
        5
102
RTVSPost2010Prop44ColorRGB
 90
      255
102
RTVSPost2010PropOp44
 70
     1
102
RTVSPost2010Prop45
280
     0
102
RTVSPost2010PropOp45
 70
     1
102
RTVSPost2010Prop46
 90
       50
102
RTVSPost2010PropOp46
 70
     1
102
RTVSPost2010Prop47
 90
       50
102
RTVSPost2010PropOp47
 70
     1
102
RTVSPost2010Prop48
 90
       50
102
RTVSPost2010PropOp48
 70
     1
102
RTVSPost2010Prop49
280
     0
102
RTVSPost2010PropOp49
 70
     1
102
RTVSPost2010Prop50
 90
       50
102
RTVSPost2010PropOp50
 70
     1
102
RTVSPost2010Prop51ColorIndex
 90
      256
102
RTVSPost2010Prop51ColorRGB
 90
-16777216
102
RTVSPost2010PropOp51
 70
     0
102
RTVSPost2010Prop52
140
1.0
102
RTVSPost2010PropOp52
 70
     0
102
RTVSPost2010Prop53
 90
        2
102
RTVSPost2010PropOp53
 70
     1
102
RTVSPost2010Prop54
  1
strokes_ogs.tif
102
RTVSPost2010PropOp54
 70
     1
102
RTVSPost2010Prop55
280
     0
102
RTVSPost2010PropOp55
 70
     1
102
RTVSPost2010Prop56
140
1.0
102
RTVSPost2010PropOp56
 70
     1
102
RTVSPost2010Prop57
140
1.0
102
RTVSPost2010PropOp57
 70
     1
  0
XRECORD
  5
15C
102
{ACAD_REACTORS
330
15B
102
}
330
15B
100
AcDbXrecord
280
     1
102
RTVSPost2010Prop28
280
     0
102
RTVSPost2010PropOp28
 70
     0
102
RTVSPost2010Prop29
280
     1
102
RTVSPost2010PropOp29
 70
     0
102
RTVSPost2010Prop30
280
     1
102
RTVSPost2010PropOp30
 70
     0
102
RTVSPost2010Prop31
280
     0
102
RTVSPost2010PropOp31
 70
     0
102
RTVSPost2010Prop32
280
     0
102
RTVSPost2010PropOp32
 70
     0
102
RTVSPost2010Prop33
280
     0
102
RTVSPost2010PropOp33
 70
     0
102
RTVSPost2010Prop34
280
     0
102
RTVSPost2010PropOp34
 70
     0
102
RTVSPost2010Prop35
280
     0
102
RTVSPost2010PropOp35
 70
     0
102
RTVSPost2010Prop36
280
     0
102
RTVSPost2010PropOp36
 70
     0
102
RTVSPost2010Prop37
 90
       50
102
RTVSPost2010PropOp37
 70
     0
102
RTVSPost2010Prop38
140
0.0
102
RTVSPost2010PropOp38
 70
     0
102
RTVSPost2010Prop39
140
1.0
102
RTVSPost2010PropOp39
 70
     0
102
RTVSPost2010Prop40
 90
        0
102
RTVSPost2010PropOp40
 70
     0
102
RTVSPost2010Prop41ColorIndex
 90
       18
102
RTVSPost2010Prop41ColorRGB
 90
        0
102
RTVSPost2010PropOp41
 70
     0
102
RTVSPost2010Prop42
 90
       50
102
RTVSPost2010PropOp42
 70
     0
102
RTVSPost2010Prop43
 90
        3
102
RTVSPost2010PropOp43
 70
     0
102
RTVSPost2010Prop44ColorIndex
 90
        5
102
RTVSPost2010Prop44ColorRGB
 90
      255
102
RTVSPost2010PropOp44
 70
     0
102
RTVSPost2010Prop45
280
     0
102
RTVSPost2010PropOp45
 70
     0
102
RTVSPost2010Prop46
 90
       50
102
RTVSPost2010PropOp46
 70
     0
102
RTVSPost2010Prop47
 90
       50
102
RTVSPost2010PropOp47
 70
     0
102
RTVSPost2010Prop48
 90
       50
102
RTVSPost2010PropOp48
 70
     0
102
RTVSPost2010Prop49
280
     0
102
RTVSPost2010PropOp49
 70
     0
102
RTVSPost2010Prop50
 90
       50
102
RTVSPost2010PropOp50
 70
     0
102
RTVSPost2010Prop51ColorIndex
 90
      256
102
RTVSPost2010Prop51ColorRGB
 90
-16777216
102
RTVSPost2010PropOp51
 70
     0
102
RTVSPost2010Prop52
140
1.0
102
RTVSPost2010PropOp52
 70
     0
102
RTVSPost2010Prop53
 90
        2
102
RTVSPost2010PropOp53
 70
     0
102
RTVSPost2010Prop54
  1
strokes_ogs.tif
102
RTVSPost2010PropOp54
 70
     0
102
RTVSPost2010Prop55
280
     0
102
RTVSPost2010PropOp55
 70
     0
102
RTVSPost2010Prop56
140
1.0
102
RTVSPost2010PropOp56
 70
     0
102
RTVSPost2010Prop57
140
1.0
102
RTVSPost2010PropOp57
 70
     0
  0
XRECORD
  5
14C
102
{ACAD_REACTORS
330
14B
102
}
330
14B
100
AcDbXrecord
280
     1
102
RTVSPost2010Prop28
280
     0
102
RTVSPost2010PropOp28
 70
     1
102
RTVSPost2010Prop29
280
     1
102
RTVSPost2010PropOp29
 70
     1
102
RTVSPost2010Prop30
280
     1
102
RTVSPost2010PropOp30
 70
     1
102
RTVSPost2010Prop31
280
     0
102
RTVSPost2010PropOp31
 70
     1
102
RTVSPost2010Prop32
280
     0
102
RTVSPost2010PropOp32
 70
     1
102
RTVSPost2010Prop33
280
     0
102
RTVSPost2010PropOp33
 70
     1
102
RTVSPost2010Prop34
280
     0
102
RTVSPost2010PropOp34
 70
     1
102
RTVSPost2010Prop35
280
     0
102
RTVSPost2010PropOp35
 70
     1
102
RTVSPost2010Prop36
280
     0
102
RTVSPost2010PropOp36
 70
     1
102
RTVSPost2010Prop37
 90
       50
102
RTVSPost2010PropOp37
 70
     1
102
RTVSPost2010Prop38
140
0.0
102
RTVSPost2010PropOp38
 70
     1
102
RTVSPost2010Prop39
140
1.0
102
RTVSPost2010PropOp39
 70
     1
102
RTVSPost2010Prop40
 90
        0
102
RTVSPost2010PropOp40
 70
     1
102
RTVSPost2010Prop41ColorIndex
 90
       18
102
RTVSPost2010Prop41ColorRGB
 90
        0
102
RTVSPost2010PropOp41
 70
     1
102
RTVSPost2010Prop42
 90
       50
102
RTVSPost2010PropOp42
 70
     1
102
RTVSPost2010Prop43
 90
        3
102
RTVSPost2010PropOp43
 70
     1
102
RTVSPost2010Prop44ColorIndex
 90
        5
102
RTVSPost2010Prop44ColorRGB
 90
      255
102
RTVSPost2010PropOp44
 70
     1
102
RTVSPost2010Prop45
280
     0
102
RTVSPost2010PropOp45
 70
     1
102
RTVSPost2010Prop46
 90
       50
102
RTVSPost2010PropOp46
 70
     1
102
RTVSPost2010Prop47
 90
       50
102
RTVSPost2010PropOp47
 70
     1
102
RTVSPost2010Prop48
 90
       50
102
RTVSPost2010PropOp48
 70
     1
102
RTVSPost2010Prop49
280
     0
102
RTVSPost2010PropOp49
 70
     1
102
RTVSPost2010Prop50
 90
       50
102
RTVSPost2010PropOp50
 70
     1
102
RTVSPost2010Prop51ColorIndex
 90
      256
102
RTVSPost2010Prop51ColorRGB
 90
-16777216
102
RTVSPost2010PropOp51
 70
     0
102
RTVSPost2010Prop52
140
1.0
102
RTVSPost2010PropOp52
 70
     0
102
RTVSPost2010Prop53
 90
        2
102
RTVSPost2010PropOp53
 70
     1
102
RTVSPost2010Prop54
  1
strokes_ogs.tif
102
RTVSPost2010PropOp54
 70
     1
102
RTVSPost2010Prop55
280
     0
102
RTVSPost2010PropOp55
 70
     1
102
RTVSPost2010Prop56
140
1.0
102
RTVSPost2010PropOp56
 70
     1
102
RTVSPost2010Prop57
140
1.0
102
RTVSPost2010PropOp57
 70
     1
  0
XRECORD
  5
15E
102
{ACAD_REACTORS
330
15D
102
}
330
15D
100
AcDbXrecord
280
     1
102
RTVSPost2010Prop28
280
     0
102
RTVSPost2010PropOp28
 70
     0
102
RTVSPost2010Prop29
280
     1
102
RTVSPost2010PropOp29
 70
     0
102
RTVSPost2010Prop30
280
     1
102
RTVSPost2010PropOp30
 70
     0
102
RTVSPost2010Prop31
280
     0
102
RTVSPost2010PropOp31
 70
     0
102
RTVSPost2010Prop32
280
     0
102
RTVSPost2010PropOp32
 70
     0
102
RTVSPost2010Prop33
280
     0
102
RTVSPost2010PropOp33
 70
     0
102
RTVSPost2010Prop34
280
     0
102
RTVSPost2010PropOp34
 70
     0
102
RTVSPost2010Prop35
280
     0
102
RTVSPost2010PropOp35
 70
     0
102
RTVSPost2010Prop36
280
     0
102
RTVSPost2010PropOp36
 70
     0
102
RTVSPost2010Prop37
 90
       50
102
RTVSPost2010PropOp37
 70
     0
102
RTVSPost2010Prop38
140
0.0
102
RTVSPost2010PropOp38
 70
     0
102
RTVSPost2010Prop39
140
1.0
102
RTVSPost2010PropOp39
 70
     0
102
RTVSPost2010Prop40
 90
        0
102
RTVSPost2010PropOp40
 70
     0
102
RTVSPost2010Prop41ColorIndex
 90
       18
102
RTVSPost2010Prop41ColorRGB
 90
        0
102
RTVSPost2010PropOp41
 70
     0
102
RTVSPost2010Prop42
 90
       50
102
RTVSPost2010PropOp42
 70
     0
102
RTVSPost2010Prop43
 90
        3
102
RTVSPost2010PropOp43
 70
     0
102
RTVSPost2010Prop44ColorIndex
 90
        5
102
RTVSPost2010Prop44ColorRGB
 90
      255
102
RTVSPost2010PropOp44
 70
     0
102
RTVSPost2010Prop45
280
     0
102
RTVSPost2010PropOp45
 70
     0
102
RTVSPost2010Prop46
 90
       50
102
RTVSPost2010PropOp46
 70
     0
102
RTVSPost2010Prop47
 90
       50
102
RTVSPost2010PropOp47
 70
     0
102
RTVSPost2010Prop48
 90
       50
102
RTVSPost2010PropOp48
 70
     0
102
RTVSPost2010Prop49
280
     0
102
RTVSPost2010PropOp49
 70
     0
102
RTVSPost2010Prop50
 90
       50
102
RTVSPost2010PropOp50
 70
     0
102
RTVSPost2010Prop51ColorIndex
 90
      256
102
RTVSPost2010Prop51ColorRGB
 90
-16777216
102
RTVSPost2010PropOp51
 70
     0
102
RTVSPost2010Prop52
140
1.0
102
RTVSPost2010PropOp52
 70
     0
102
RTVSPost2010Prop53
 90
        2
102
RTVSPost2010PropOp53
 70
     0
102
RTVSPost2010Prop54
  1
strokes_ogs.tif
102
RTVSPost2010PropOp54
 70
     0
102
RTVSPost2010Prop55
280
     0
102
RTVSPost2010PropOp55
 70
     0
102
RTVSPost2010Prop56
140
1.0
102
RTVSPost2010PropOp56
 70
     0
102
RTVSPost2010Prop57
140
1.0
102
RTVSPost2010PropOp57
 70
     0
  0
XRECORD
  5
144
102
{ACAD_REACTORS
330
143
102
}
330
143
100
AcDbXrecord
280
     1
102
RTVSPost2010Prop28
280
     0
102
RTVSPost2010PropOp28
 70
     1
102
RTVSPost2010Prop29
280
     1
102
RTVSPost2010PropOp29
 70
     1
102
RTVSPost2010Prop30
280
     1
102
RTVSPost2010PropOp30
 70
     1
102
RTVSPost2010Prop31
280
     0
102
RTVSPost2010PropOp31
 70
     1
102
RTVSPost2010Prop32
280
     0
102
RTVSPost2010PropOp32
 70
     1
102
RTVSPost2010Prop33
280
     0
102
RTVSPost2010PropOp33
 70
     1
102
RTVSPost2010Prop34
280
     0
102
RTVSPost2010PropOp34
 70
     1
102
RTVSPost2010Prop35
280
     0
102
RTVSPost2010PropOp35
 70
     1
102
RTVSPost2010Prop36
280
     0
102
RTVSPost2010PropOp36
 70
     1
102
RTVSPost2010Prop37
 90
       50
102
RTVSPost2010PropOp37
 70
     1
102
RTVSPost2010Prop38
140
0.0
102
RTVSPost2010PropOp38
 70
     1
102
RTVSPost2010Prop39
140
1.0
102
RTVSPost2010PropOp39
 70
     1
102
RTVSPost2010Prop40
 90
        0
102
RTVSPost2010PropOp40
 70
     1
102
RTVSPost2010Prop41ColorIndex
 90
       18
102
RTVSPost2010Prop41ColorRGB
 90
        0
102
RTVSPost2010PropOp41
 70
     1
102
RTVSPost2010Prop42
 90
       50
102
RTVSPost2010PropOp42
 70
     1
102
RTVSPost2010Prop43
 90
        3
102
RTVSPost2010PropOp43
 70
     1
102
RTVSPost2010Prop44ColorIndex
 90
        5
102
RTVSPost2010Prop44ColorRGB
 90
      255
102
RTVSPost2010PropOp44
 70
     1
102
RTVSPost2010Prop45
280
     0
102
RTVSPost2010PropOp45
 70
     1
102
RTVSPost2010Prop46
 90
       50
102
RTVSPost2010PropOp46
 70
     1
102
RTVSPost2010Prop47
 90
       50
102
RTVSPost2010PropOp47
 70
     1
102
RTVSPost2010Prop48
 90
       50
102
RTVSPost2010PropOp48
 70
     1
102
RTVSPost2010Prop49
280
     0
102
RTVSPost2010PropOp49
 70
     1
102
RTVSPost2010Prop50
 90
       50
102
RTVSPost2010PropOp50
 70
     1
102
RTVSPost2010Prop51ColorIndex
 90
      256
102
RTVSPost2010Prop51ColorRGB
 90
-16777216
102
RTVSPost2010PropOp51
 70
     0
102
RTVSPost2010Prop52
140
1.0
102
RTVSPost2010PropOp52
 70
     0
102
RTVSPost2010Prop53
 90
        2
102
RTVSPost2010PropOp53
 70
     1
102
RTVSPost2010Prop54
  1
strokes_ogs.tif
102
RTVSPost2010PropOp54
 70
     1
102
RTVSPost2010Prop55
280
     0
102
RTVSPost2010PropOp55
 70
     1
102
RTVSPost2010Prop56
140
1.0
102
RTVSPost2010PropOp56
 70
     1
102
RTVSPost2010Prop57
140
1.0
102
RTVSPost2010PropOp57
 70
     1
  0
XRECORD
  5
15A
102
{ACAD_REACTORS
330
159
102
}
330
159
100
AcDbXrecord
280
     1
102
RTVSPost2010Prop28
280
     0
102
RTVSPost2010PropOp28
 70
     1
102
RTVSPost2010Prop29
280
     1
102
RTVSPost2010PropOp29
 70
     1
102
RTVSPost2010Prop30
280
     1
102
RTVSPost2010PropOp30
 70
     1
102
RTVSPost2010Prop31
280
     0
102
RTVSPost2010PropOp31
 70
     1
102
RTVSPost2010Prop32
280
     0
102
RTVSPost2010PropOp32
 70
     1
102
RTVSPost2010Prop33
280
     0
102
RTVSPost2010PropOp33
 70
     1
102
RTVSPost2010Prop34
280
     0
102
RTVSPost2010PropOp34
 70
     1
102
RTVSPost2010Prop35
280
     0
102
RTVSPost2010PropOp35
 70
     1
102
RTVSPost2010Prop36
280
     0
102
RTVSPost2010PropOp36
 70
     1
102
RTVSPost2010Prop37
 90
       50
102
RTVSPost2010PropOp37
 70
     1
102
RTVSPost2010Prop38
140
0.0
102
RTVSPost2010PropOp38
 70
     1
102
RTVSPost2010Prop39
140
1.0
102
RTVSPost2010PropOp39
 70
     1
102
RTVSPost2010Prop40
 90
        0
102
RTVSPost2010PropOp40
 70
     1
102
RTVSPost2010Prop41ColorIndex
 90
       18
102
RTVSPost2010Prop41ColorRGB
 90
        0
102
RTVSPost2010PropOp41
 70
     1
102
RTVSPost2010Prop42
 90
       50
102
RTVSPost2010PropOp42
 70
     1
102
RTVSPost2010Prop43
 90
        3
102
RTVSPost2010PropOp43
 70
     1
102
RTVSPost2010Prop44ColorIndex
 90
        5
102
RTVSPost2010Prop44ColorRGB
 90
      255
102
RTVSPost2010PropOp44
 70
     1
102
RTVSPost2010Prop45
280
     0
102
RTVSPost2010PropOp45
 70
     1
102
RTVSPost2010Prop46
 90
       50
102
RTVSPost2010PropOp46
 70
     1
102
RTVSPost2010Prop47
 90
       50
102
RTVSPost2010PropOp47
 70
     1
102
RTVSPost2010Prop48
 90
       50
102
RTVSPost2010PropOp48
 70
     1
102
RTVSPost2010Prop49
280
     0
102
RTVSPost2010PropOp49
 70
     1
102
RTVSPost2010Prop50
 90
       50
102
RTVSPost2010PropOp50
 70
     1
102
RTVSPost2010Prop51ColorIndex
 90
      256
102
RTVSPost2010Prop51ColorRGB
 90
-16777216
102
RTVSPost2010PropOp51
 70
     0
102
RTVSPost2010Prop52
140
1.0
102
RTVSPost2010PropOp52
 70
     0
102
RTVSPost2010Prop53
 90
        2
102
RTVSPost2010PropOp53
 70
     1
102
RTVSPost2010Prop54
  1
strokes_ogs.tif
102
RTVSPost2010PropOp54
 70
     1
102
RTVSPost2010Prop55
280
     0
102
RTVSPost2010PropOp55
 70
     1
102
RTVSPost2010Prop56
140
1.0
102
RTVSPost2010PropOp56
 70
     1
102
RTVSPost2010Prop57
140
1.0
102
RTVSPost2010PropOp57
 70
     1
  0
XRECORD
  5
158
102
{ACAD_REACTORS
330
157
102
}
330
157
100
AcDbXrecord
280
     1
102
RTVSPost2010Prop28
280
     0
102
RTVSPost2010PropOp28
 70
     1
102
RTVSPost2010Prop29
280
     1
102
RTVSPost2010PropOp29
 70
     1
102
RTVSPost2010Prop30
280
     1
102
RTVSPost2010PropOp30
 70
     1
102
RTVSPost2010Prop31
280
     0
102
RTVSPost2010PropOp31
 70
     1
102
RTVSPost2010Prop32
280
     0
102
RTVSPost2010PropOp32
 70
     1
102
RTVSPost2010Prop33
280
     0
102
RTVSPost2010PropOp33
 70
     1
102
RTVSPost2010Prop34
280
     0
102
RTVSPost2010PropOp34
 70
     1
102
RTVSPost2010Prop35
280
     0
102
RTVSPost2010PropOp35
 70
     1
102
RTVSPost2010Prop36
280
     0
102
RTVSPost2010PropOp36
 70
     1
102
RTVSPost2010Prop37
 90
       50
102
RTVSPost2010PropOp37
 70
     1
102
RTVSPost2010Prop38
140
0.0
102
RTVSPost2010PropOp38
 70
     1
102
RTVSPost2010Prop39
140
1.0
102
RTVSPost2010PropOp39
 70
     1
102
RTVSPost2010Prop40
 90
        0
102
RTVSPost2010PropOp40
 70
     1
102
RTVSPost2010Prop41ColorIndex
 90
       18
102
RTVSPost2010Prop41ColorRGB
 90
        0
102
RTVSPost2010PropOp41
 70
     1
102
RTVSPost2010Prop42
 90
       50
102
RTVSPost2010PropOp42
 70
     1
102
RTVSPost2010Prop43
 90
        3
102
RTVSPost2010PropOp43
 70
     1
102
RTVSPost2010Prop44ColorIndex
 90
        5
102
RTVSPost2010Prop44ColorRGB
 90
      255
102
RTVSPost2010PropOp44
 70
     1
102
RTVSPost2010Prop45
280
     0
102
RTVSPost2010PropOp45
 70
     1
102
RTVSPost2010Prop46
 90
       50
102
RTVSPost2010PropOp46
 70
     1
102
RTVSPost2010Prop47
 90
       50
102
RTVSPost2010PropOp47
 70
     1
102
RTVSPost2010Prop48
 90
       50
102
RTVSPost2010PropOp48
 70
     1
102
RTVSPost2010Prop49
280
     0
102
RTVSPost2010PropOp49
 70
     1
102
RTVSPost2010Prop50
 90
       50
102
RTVSPost2010PropOp50
 70
     1
102
RTVSPost2010Prop51ColorIndex
 90
      256
102
RTVSPost2010Prop51ColorRGB
 90
-16777216
102
RTVSPost2010PropOp51
 70
     0
102
RTVSPost2010Prop52
140
1.0
102
RTVSPost2010PropOp52
 70
     0
102
RTVSPost2010Prop53
 90
        2
102
RTVSPost2010PropOp53
 70
     1
102
RTVSPost2010Prop54
  1
strokes_ogs.tif
102
RTVSPost2010PropOp54
 70
     1
102
RTVSPost2010Prop55
280
     0
102
RTVSPost2010PropOp55
 70
     1
102
RTVSPost2010Prop56
140
1.0
102
RTVSPost2010PropOp56
 70
     1
102
RTVSPost2010Prop57
140
1.0
102
RTVSPost2010PropOp57
 70
     1
  0
XRECORD
  5
152
102
{ACAD_REACTORS
330
151
102
}
330
151
100
AcDbXrecord
280
     1
102
RTVSPost2010Prop28
280
     0
102
RTVSPost2010PropOp28
 70
     1
102
RTVSPost2010Prop29
280
     1
102
RTVSPost2010PropOp29
 70
     1
102
RTVSPost2010Prop30
280
     1
102
RTVSPost2010PropOp30
 70
     1
102
RTVSPost2010Prop31
280
     0
102
RTVSPost2010PropOp31
 70
     1
102
RTVSPost2010Prop32
280
     0
102
RTVSPost2010PropOp32
 70
     1
102
RTVSPost2010Prop33
280
     0
102
RTVSPost2010PropOp33
 70
     1
102
RTVSPost2010Prop34
280
     0
102
RTVSPost2010PropOp34
 70
     1
102
RTVSPost2010Prop35
280
     0
102
RTVSPost2010PropOp35
 70
     1
102
RTVSPost2010Prop36
280
     0
102
RTVSPost2010PropOp36
 70
     1
102
RTVSPost2010Prop37
 90
       50
102
RTVSPost2010PropOp37
 70
     1
102
RTVSPost2010Prop38
140
0.0
102
RTVSPost2010PropOp38
 70
     1
102
RTVSPost2010Prop39
140
1.0
102
RTVSPost2010PropOp39
 70
     1
102
RTVSPost2010Prop40
 90
        0
102
RTVSPost2010PropOp40
 70
     1
102
RTVSPost2010Prop41ColorIndex
 90
       18
102
RTVSPost2010Prop41ColorRGB
 90
        0
102
RTVSPost2010PropOp41
 70
     1
102
RTVSPost2010Prop42
 90
       50
102
RTVSPost2010PropOp42
 70
     1
102
RTVSPost2010Prop43
 90
        3
102
RTVSPost2010PropOp43
 70
     1
102
RTVSPost2010Prop44ColorIndex
 90
        5
102
RTVSPost2010Prop44ColorRGB
 90
      255
102
RTVSPost2010PropOp44
 70
     1
102
RTVSPost2010Prop45
280
     0
102
RTVSPost2010PropOp45
 70
     1
102
RTVSPost2010Prop46
 90
       50
102
RTVSPost2010PropOp46
 70
     1
102
RTVSPost2010Prop47
 90
       50
102
RTVSPost2010PropOp47
 70
     1
102
RTVSPost2010Prop48
 90
       50
102
RTVSPost2010PropOp48
 70
     1
102
RTVSPost2010Prop49
280
     0
102
RTVSPost2010PropOp49
 70
     1
102
RTVSPost2010Prop50
 90
       50
102
RTVSPost2010PropOp50
 70
     1
102
RTVSPost2010Prop51ColorIndex
 90
      256
102
RTVSPost2010Prop51ColorRGB
 90
-16777216
102
RTVSPost2010PropOp51
 70
     0
102
RTVSPost2010Prop52
140
1.0
102
RTVSPost2010PropOp52
 70
     0
102
RTVSPost2010Prop53
 90
        2
102
RTVSPost2010PropOp53
 70
     1
102
RTVSPost2010Prop54
  1
strokes_ogs.tif
102
RTVSPost2010PropOp54
 70
     1
102
RTVSPost2010Prop55
280
     0
102
RTVSPost2010PropOp55
 70
     1
102
RTVSPost2010Prop56
140
1.0
102
RTVSPost2010PropOp56
 70
     1
102
RTVSPost2010Prop57
140
1.0
102
RTVSPost2010PropOp57
 70
     1
  0
XRECORD
  5
154
102
{ACAD_REACTORS
330
153
102
}
330
153
100
AcDbXrecord
280
     1
102
RTVSPost2010Prop28
280
     0
102
RTVSPost2010PropOp28
 70
     1
102
RTVSPost2010Prop29
280
     1
102
RTVSPost2010PropOp29
 70
     1
102
RTVSPost2010Prop30
280
     1
102
RTVSPost2010PropOp30
 70
     1
102
RTVSPost2010Prop31
280
     0
102
RTVSPost2010PropOp31
 70
     1
102
RTVSPost2010Prop32
280
     0
102
RTVSPost2010PropOp32
 70
     1
102
RTVSPost2010Prop33
280
     0
102
RTVSPost2010PropOp33
 70
     1
102
RTVSPost2010Prop34
280
     0
102
RTVSPost2010PropOp34
 70
     1
102
RTVSPost2010Prop35
280
     0
102
RTVSPost2010PropOp35
 70
     1
102
RTVSPost2010Prop36
280
     0
102
RTVSPost2010PropOp36
 70
     1
102
RTVSPost2010Prop37
 90
       50
102
RTVSPost2010PropOp37
 70
     1
102
RTVSPost2010Prop38
140
0.0
102
RTVSPost2010PropOp38
 70
     1
102
RTVSPost2010Prop39
140
1.0
102
RTVSPost2010PropOp39
 70
     1
102
RTVSPost2010Prop40
 90
        0
102
RTVSPost2010PropOp40
 70
     1
102
RTVSPost2010Prop41ColorIndex
 90
       18
102
RTVSPost2010Prop41ColorRGB
 90
        0
102
RTVSPost2010PropOp41
 70
     1
102
RTVSPost2010Prop42
 90
       50
102
RTVSPost2010PropOp42
 70
     1
102
RTVSPost2010Prop43
 90
        3
102
RTVSPost2010PropOp43
 70
     1
102
RTVSPost2010Prop44ColorIndex
 90
        5
102
RTVSPost2010Prop44ColorRGB
 90
      255
102
RTVSPost2010PropOp44
 70
     1
102
RTVSPost2010Prop45
280
     0
102
RTVSPost2010PropOp45
 70
     1
102
RTVSPost2010Prop46
 90
       50
102
RTVSPost2010PropOp46
 70
     1
102
RTVSPost2010Prop47
 90
       50
102
RTVSPost2010PropOp47
 70
     1
102
RTVSPost2010Prop48
 90
       50
102
RTVSPost2010PropOp48
 70
     1
102
RTVSPost2010Prop49
280
     0
102
RTVSPost2010PropOp49
 70
     1
102
RTVSPost2010Prop50
 90
       50
102
RTVSPost2010PropOp50
 70
     1
102
RTVSPost2010Prop51ColorIndex
 90
      256
102
RTVSPost2010Prop51ColorRGB
 90
-16777216
102
RTVSPost2010PropOp51
 70
     0
102
RTVSPost2010Prop52
140
1.0
102
RTVSPost2010PropOp52
 70
     0
102
RTVSPost2010Prop53
 90
        2
102
RTVSPost2010PropOp53
 70
     1
102
RTVSPost2010Prop54
  1
strokes_ogs.tif
102
RTVSPost2010PropOp54
 70
     1
102
RTVSPost2010Prop55
280
     0
102
RTVSPost2010PropOp55
 70
     1
102
RTVSPost2010Prop56
140
1.0
102
RTVSPost2010PropOp56
 70
     1
102
RTVSPost2010Prop57
140
1.0
102
RTVSPost2010PropOp57
 70
     1
  0
XRECORD
  5
14A
102
{ACAD_REACTORS
330
149
102
}
330
149
100
AcDbXrecord
280
     1
102
RTVSPost2010Prop28
280
     0
102
RTVSPost2010PropOp28
 70
     1
102
RTVSPost2010Prop29
280
     1
102
RTVSPost2010PropOp29
 70
     1
102
RTVSPost2010Prop30
280
     1
102
RTVSPost2010PropOp30
 70
     1
102
RTVSPost2010Prop31
280
     0
102
RTVSPost2010PropOp31
 70
     1
102
RTVSPost2010Prop32
280
     0
102
RTVSPost2010PropOp32
 70
     1
102
RTVSPost2010Prop33
280
     0
102
RTVSPost2010PropOp33
 70
     1
102
RTVSPost2010Prop34
280
     0
102
RTVSPost2010PropOp34
 70
     1
102
RTVSPost2010Prop35
280
     0
102
RTVSPost2010PropOp35
 70
     1
102
RTVSPost2010Prop36
280
     0
102
RTVSPost2010PropOp36
 70
     1
102
RTVSPost2010Prop37
 90
       50
102
RTVSPost2010PropOp37
 70
     1
102
RTVSPost2010Prop38
140
0.0
102
RTVSPost2010PropOp38
 70
     1
102
RTVSPost2010Prop39
140
1.0
102
RTVSPost2010PropOp39
 70
     1
102
RTVSPost2010Prop40
 90
        0
102
RTVSPost2010PropOp40
 70
     1
102
RTVSPost2010Prop41ColorIndex
 90
       18
102
RTVSPost2010Prop41ColorRGB
 90
        0
102
RTVSPost2010PropOp41
 70
     1
102
RTVSPost2010Prop42
 90
       50
102
RTVSPost2010PropOp42
 70
     1
102
RTVSPost2010Prop43
 90
        3
102
RTVSPost2010PropOp43
 70
     1
102
RTVSPost2010Prop44ColorIndex
 90
        5
102
RTVSPost2010Prop44ColorRGB
 90
      255
102
RTVSPost2010PropOp44
 70
     1
102
RTVSPost2010Prop45
280
     0
102
RTVSPost2010PropOp45
 70
     1
102
RTVSPost2010Prop46
 90
       50
102
RTVSPost2010PropOp46
 70
     1
102
RTVSPost2010Prop47
 90
       50
102
RTVSPost2010PropOp47
 70
     1
102
RTVSPost2010Prop48
 90
       50
102
RTVSPost2010PropOp48
 70
     1
102
RTVSPost2010Prop49
280
     0
102
RTVSPost2010PropOp49
 70
     1
102
RTVSPost2010Prop50
 90
       50
102
RTVSPost2010PropOp50
 70
     1
102
RTVSPost2010Prop51ColorIndex
 90
      256
102
RTVSPost2010Prop51ColorRGB
 90
-16777216
102
RTVSPost2010PropOp51
 70
     0
102
RTVSPost2010Prop52
140
1.0
102
RTVSPost2010PropOp52
 70
     0
102
RTVSPost2010Prop53
 90
        2
102
RTVSPost2010PropOp53
 70
     1
102
RTVSPost2010Prop54
  1
strokes_ogs.tif
102
RTVSPost2010PropOp54
 70
     1
102
RTVSPost2010Prop55
280
     0
102
RTVSPost2010PropOp55
 70
     1
102
RTVSPost2010Prop56
140
1.0
102
RTVSPost2010PropOp56
 70
     1
102
RTVSPost2010Prop57
140
1.0
102
RTVSPost2010PropOp57
 70
     1
  0
XRECORD
  5
13E
102
{ACAD_REACTORS
330
13D
102
}
330
13D
100
AcDbXrecord
280
     1
102
RTVSPost2010Prop28
280
     0
102
RTVSPost2010PropOp28
 70
     1
102
RTVSPost2010Prop29
280
     1
102
RTVSPost2010PropOp29
 70
     1
102
RTVSPost2010Prop30
280
     1
102
RTVSPost2010PropOp30
 70
     1
102
RTVSPost2010Prop31
280
     0
102
RTVSPost2010PropOp31
 70
     1
102
RTVSPost2010Prop32
280
     0
102
RTVSPost2010PropOp32
 70
     1
102
RTVSPost2010Prop33
280
     0
102
RTVSPost2010PropOp33
 70
     1
102
RTVSPost2010Prop34
280
     0
102
RTVSPost2010PropOp34
 70
     1
102
RTVSPost2010Prop35
280
     0
102
RTVSPost2010PropOp35
 70
     1
102
RTVSPost2010Prop36
280
     0
102
RTVSPost2010PropOp36
 70
     1
102
RTVSPost2010Prop37
 90
       50
102
RTVSPost2010PropOp37
 70
     1
102
RTVSPost2010Prop38
140
0.0
102
RTVSPost2010PropOp38
 70
     1
102
RTVSPost2010Prop39
140
1.0
102
RTVSPost2010PropOp39
 70
     1
102
RTVSPost2010Prop40
 90
        0
102
RTVSPost2010PropOp40
 70
     1
102
RTVSPost2010Prop41ColorIndex
 90
       18
102
RTVSPost2010Prop41ColorRGB
 90
        0
102
RTVSPost2010PropOp41
 70
     1
102
RTVSPost2010Prop42
 90
       50
102
RTVSPost2010PropOp42
 70
     1
102
RTVSPost2010Prop43
 90
        3
102
RTVSPost2010PropOp43
 70
     1
102
RTVSPost2010Prop44ColorIndex
 90
        5
102
RTVSPost2010Prop44ColorRGB
 90
      255
102
RTVSPost2010PropOp44
 70
     1
102
RTVSPost2010Prop45
280
     0
102
RTVSPost2010PropOp45
 70
     1
102
RTVSPost2010Prop46
 90
       50
102
RTVSPost2010PropOp46
 70
     1
102
RTVSPost2010Prop47
 90
       50
102
RTVSPost2010PropOp47
 70
     1
102
RTVSPost2010Prop48
 90
       50
102
RTVSPost2010PropOp48
 70
     1
102
RTVSPost2010Prop49
280
     0
102
RTVSPost2010PropOp49
 70
     1
102
RTVSPost2010Prop50
 90
       50
102
RTVSPost2010PropOp50
 70
     1
102
RTVSPost2010Prop51ColorIndex
 90
      256
102
RTVSPost2010Prop51ColorRGB
 90
-16777216
102
RTVSPost2010PropOp51
 70
     0
102
RTVSPost2010Prop52
140
1.0
102
RTVSPost2010PropOp52
 70
     0
102
RTVSPost2010Prop53
 90
        2
102
RTVSPost2010PropOp53
 70
     1
102
RTVSPost2010Prop54
  1
strokes_ogs.tif
102
RTVSPost2010PropOp54
 70
     1
102
RTVSPost2010Prop55
280
     0
102
RTVSPost2010PropOp55
 70
     1
102
RTVSPost2010Prop56
140
1.0
102
RTVSPost2010PropOp56
 70
     1
102
RTVSPost2010Prop57
140
1.0
102
RTVSPost2010PropOp57
 70
     1
  0
XRECORD
  5
156
102
{ACAD_REACTORS
330
155
102
}
330
155
100
AcDbXrecord
280
     1
102
RTVSPost2010Prop28
280
     0
102
RTVSPost2010PropOp28
 70
     1
102
RTVSPost2010Prop29
280
     1
102
RTVSPost2010PropOp29
 70
     1
102
RTVSPost2010Prop30
280
     1
102
RTVSPost2010PropOp30
 70
     1
102
RTVSPost2010Prop31
280
     0
102
RTVSPost2010PropOp31
 70
     1
102
RTVSPost2010Prop32
280
     0
102
RTVSPost2010PropOp32
 70
     1
102
RTVSPost2010Prop33
280
     0
102
RTVSPost2010PropOp33
 70
     1
102
RTVSPost2010Prop34
280
     0
102
RTVSPost2010PropOp34
 70
     1
102
RTVSPost2010Prop35
280
     0
102
RTVSPost2010PropOp35
 70
     1
102
RTVSPost2010Prop36
280
     0
102
RTVSPost2010PropOp36
 70
     1
102
RTVSPost2010Prop37
 90
       50
102
RTVSPost2010PropOp37
 70
     1
102
RTVSPost2010Prop38
140
0.0
102
RTVSPost2010PropOp38
 70
     1
102
RTVSPost2010Prop39
140
1.0
102
RTVSPost2010PropOp39
 70
     1
102
RTVSPost2010Prop40
 90
        0
102
RTVSPost2010PropOp40
 70
     1
102
RTVSPost2010Prop41ColorIndex
 90
       18
102
RTVSPost2010Prop41ColorRGB
 90
        0
102
RTVSPost2010PropOp41
 70
     1
102
RTVSPost2010Prop42
 90
       50
102
RTVSPost2010PropOp42
 70
     1
102
RTVSPost2010Prop43
 90
        3
102
RTVSPost2010PropOp43
 70
     1
102
RTVSPost2010Prop44ColorIndex
 90
        5
102
RTVSPost2010Prop44ColorRGB
 90
      255
102
RTVSPost2010PropOp44
 70
     1
102
RTVSPost2010Prop45
280
     0
102
RTVSPost2010PropOp45
 70
     1
102
RTVSPost2010Prop46
 90
       50
102
RTVSPost2010PropOp46
 70
     1
102
RTVSPost2010Prop47
 90
       50
102
RTVSPost2010PropOp47
 70
     1
102
RTVSPost2010Prop48
 90
       50
102
RTVSPost2010PropOp48
 70
     1
102
RTVSPost2010Prop49
280
     0
102
RTVSPost2010PropOp49
 70
     1
102
RTVSPost2010Prop50
 90
       50
102
RTVSPost2010PropOp50
 70
     1
102
RTVSPost2010Prop51ColorIndex
 90
      256
102
RTVSPost2010Prop51ColorRGB
 90
-16777216
102
RTVSPost2010PropOp51
 70
     0
102
RTVSPost2010Prop52
140
1.0
102
RTVSPost2010PropOp52
 70
     0
102
RTVSPost2010Prop53
 90
        2
102
RTVSPost2010PropOp53
 70
     1
102
RTVSPost2010Prop54
  1
strokes_ogs.tif
102
RTVSPost2010PropOp54
 70
     1
102
RTVSPost2010Prop55
280
     0
102
RTVSPost2010PropOp55
 70
     1
102
RTVSPost2010Prop56
140
1.0
102
RTVSPost2010PropOp56
 70
     1
102
RTVSPost2010Prop57
140
1.0
102
RTVSPost2010PropOp57
 70
     1
  0
ENDSEC
  0
EOF
