  0
SECTION
  2
HEADER
  9
$ACADVER
  1
AC1024
  9
$ACADMAINTVER
 70
   226
  9
$DWGCODEPAGE
  3
ANSI_932
  9
$INSBASE
 10
0.0
 20
0.0
 30
0.0
  9
$EXTMIN
 10
1.000000000000000E+20
 20
1.000000000000000E+20
 30
1.000000000000000E+20
  9
$EXTMAX
 10
-1.000000000000000E+20
 20
-1.000000000000000E+20
 30
-1.000000000000000E+20
  9
$LIMMIN
 10
0.0
 20
0.0
  9
$LIMMAX
 10
12.0
 20
9.0
  9
$ORTHOMODE
 70
     0
  9
$REGENMODE
 70
     1
  9
$FILLMODE
 70
     1
  9
$QTEXTMODE
 70
     0
  9
$MIRRTEXT
 70
     0
  9
$LTSCALE
 40
1.0
  9
$ATTMODE
 70
     1
  9
$TEXTSIZE
 40
0.2
  9
$TRACEWID
 40
0.05
  9
$TEXTSTYLE
  7
Standard
  9
$CLAYER
  8
0
  9
$CELTYPE
  6
ByLayer
  9
$CECOLOR
 62
   256
  9
$CELTSCALE
 40
1.0
  9
$DISPSILH
 70
     0
  9
$DIMSCALE
 40
1.0
  9
$DIMASZ
 40
0.18
  9
$DIMEXO
 40
0.0625
  9
$DIMDLI
 40
0.38
  9
$DIMRND
 40
0.0
  9
$DIMDLE
 40
0.0
  9
$DIMEXE
 40
0.18
  9
$DIMTP
 40
0.0
  9
$DIMTM
 40
0.0
  9
$DIMTXT
 40
0.18
  9
$DIMCEN
 40
0.09
  9
$DIMTSZ
 40
0.0
  9
$DIMTOL
 70
     0
  9
$DIMLIM
 70
     0
  9
$DIMTIH
 70
     1
  9
$DIMTOH
 70
     1
  9
$DIMSE1
 70
     0
  9
$DIMSE2
 70
     0
  9
$DIMTAD
 70
     0
  9
$DIMZIN
 70
     0
  9
$DIMBLK
  1

  9
$DIMASO
 70
     1
  9
$DIMSHO
 70
     1
  9
$DIMPOST
  1

  9
$DIMAPOST
  1

  9
$DIMALT
 70
     0
  9
$DIMALTD
 70
     2
  9
$DIMALTF
 40
25.4
  9
$DIMLFAC
 40
1.0
  9
$DIMTOFL
 70
     0
  9
$DIMTVP
 40
0.0
  9
$DIMTIX
 70
     0
  9
$DIMSOXD
 70
     0
  9
$DIMSAH
 70
     0
  9
$DIMBLK1
  1

  9
$DIMBLK2
  1

  9
$DIMSTYLE
  2
Standard
  9
$DIMCLRD
 70
     0
  9
$DIMCLRE
 70
     0
  9
$DIMCLRT
 70
     0
  9
$DIMTFAC
 40
1.0
  9
$DIMGAP
 40
0.09
  9
$DIMJUST
 70
     0
  9
$DIMSD1
 70
     0
  9
$DIMSD2
 70
     0
  9
$DIMTOLJ
 70
     1
  9
$DIMTZIN
 70
     0
  9
$DIMALTZ
 70
     0
  9
$DIMALTTZ
 70
     0
  9
$DIMUPT
 70
     0
  9
$DIMDEC
 70
     4
  9
$DIMTDEC
 70
     4
  9
$DIMALTU
 70
     2
  9
$DIMALTTD
 70
     2
  9
$DIMTXSTY
  7
Standard
  9
$DIMAUNIT
 70
     0
  9
$DIMADEC
 70
     0
  9
$DIMALTRND
 40
0.0
  9
$DIMAZIN
 70
     0
  9
$DIMDSEP
 70
    46
  9
$DIMATFIT
 70
     3
  9
$DIMFRAC
 70
     0
  9
$DIMLDRBLK
  1

  9
$DIMLUNIT
 70
     2
  9
$DIMLWD
 70
    -2
  9
$DIMLWE
 70
    -2
  9
$DIMTMOVE
 70
     0
  9
$DIMFXL
 40
1.0
  9
$DIMFXLON
 70
     0
  9
$DIMJOGANG
 40
0.7853981633974483
  9
$DIMTFILL
 70
     0
  9
$DIMTFILLCLR
 70
     0
  9
$DIMARCSYM
 70
     0
  9
$DIMLTYPE
  6

  9
$DIMLTEX1
  6

  9
$DIMLTEX2
  6

  9
$DIMTXTDIRECTION
 70
     0
  9
$LUNITS
 70
     2
  9
$LUPREC
 70
     4
  9
$SKETCHINC
 40
0.1
  9
$FILLETRAD
 40
0.0
  9
$AUNITS
 70
     0
  9
$AUPREC
 70
     0
  9
$MENU
  1
.
  9
$ELEVATION
 40
0.0
  9
$PELEVATION
 40
0.0
  9
$THICKNESS
 40
0.0
  9
$LIMCHECK
 70
     0
  9
$CHAMFERA
 40
0.0
  9
$CHAMFERB
 40
0.0
  9
$CHAMFERC
 40
0.0
  9
$CHAMFERD
 40
0.0
  9
$SKPOLY
 70
     0
  9
$TDCREATE
 40
2459569.489178241
  9
$TDUCREATE
 40
2459569.114178241
  9
$TDUPDATE
 40
2459569.489178241
  9
$TDUUPDATE
 40
2459569.114178241
  9
$TDINDWG
 40
0.0000000000
  9
$TDUSRTIMER
 40
0.0000000000
  9
$USRTIMER
 70
     1
  9
$ANGBASE
 50
0.0
  9
$ANGDIR
 70
     0
  9
$PDMODE
 70
     0
  9
$PDSIZE
 40
0.0
  9
$PLINEWID
 40
0.0
  9
$SPLFRAME
 70
     0
  9
$SPLINETYPE
 70
     6
  9
$SPLINESEGS
 70
     8
  9
$HANDSEED
  5
18D
  9
$SURFTAB1
 70
     6
  9
$SURFTAB2
 70
     6
  9
$SURFTYPE
 70
     6
  9
$SURFU
 70
     6
  9
$SURFV
 70
     6
  9
$UCSBASE
  2

  9
$UCSNAME
  2

  9
$UCSORG
 10
0.0
 20
0.0
 30
0.0
  9
$UCSXDIR
 10
1.0
 20
0.0
 30
0.0
  9
$UCSYDIR
 10
0.0
 20
1.0
 30
0.0
  9
$UCSORTHOREF
  2

  9
$UCSORTHOVIEW
 70
     0
  9
$UCSORGTOP
 10
0.0
 20
0.0
 30
0.0
  9
$UCSORGBOTTOM
 10
0.0
 20
0.0
 30
0.0
  9
$UCSORGLEFT
 10
0.0
 20
0.0
 30
0.0
  9
$UCSORGRIGHT
 10
0.0
 20
0.0
 30
0.0
  9
$UCSORGFRONT
 10
0.0
 20
0.0
 30
0.0
  9
$UCSORGBACK
 10
0.0
 20
0.0
 30
0.0
  9
$PUCSBASE
  2

  9
$PUCSNAME
  2

  9
$PUCSORG
 10
0.0
 20
0.0
 30
0.0
  9
$PUCSXDIR
 10
1.0
 20
0.0
 30
0.0
  9
$PUCSYDIR
 10
0.0
 20
1.0
 30
0.0
  9
$PUCSORTHOREF
  2

  9
$PUCSORTHOVIEW
 70
     0
  9
$PUCSORGTOP
 10
0.0
 20
0.0
 30
0.0
  9
$PUCSORGBOTTOM
 10
0.0
 20
0.0
 30
0.0
  9
$PUCSORGLEFT
 10
0.0
 20
0.0
 30
0.0
  9
$PUCSORGRIGHT
 10
0.0
 20
0.0
 30
0.0
  9
$PUCSORGFRONT
 10
0.0
 20
0.0
 30
0.0
  9
$PUCSORGBACK
 10
0.0
 20
0.0
 30
0.0
  9
$USERI1
 70
     0
  9
$USERI2
 70
     0
  9
$USERI3
 70
     0
  9
$USERI4
 70
     0
  9
$USERI5
 70
     0
  9
$USERR1
 40
0.0
  9
$USERR2
 40
0.0
  9
$USERR3
 40
0.0
  9
$USERR4
 40
0.0
  9
$USERR5
 40
0.0
  9
$WORLDVIEW
 70
     1
  9
$SHADEDGE
 70
     3
  9
$SHADEDIF
 70
    70
  9
$TILEMODE
 70
     1
  9
$MAXACTVP
 70
    64
  9
$PINSBASE
 10
0.0
 20
0.0
 30
0.0
  9
$PLIMCHECK
 70
     0
  9
$PEXTMIN
 10
1.000000000000000E+20
 20
1.000000000000000E+20
 30
1.000000000000000E+20
  9
$PEXTMAX
 10
-1.000000000000000E+20
 20
-1.000000000000000E+20
 30
-1.000000000000000E+20
  9
$PLIMMIN
 10
0.0
 20
0.0
  9
$PLIMMAX
 10
12.0
 20
9.0
  9
$UNITMODE
 70
     0
  9
$VISRETAIN
 70
     1
  9
$PLINEGEN
 70
     0
  9
$PSLTSCALE
 70
     1
  9
$TREEDEPTH
 70
  3020
  9
$CMLSTYLE
  2
Standard
  9
$CMLJUST
 70
     0
  9
$CMLSCALE
 40
1.0
  9
$PROXYGRAPHICS
 70
     1
  9
$MEASUREMENT
 70
     0
  9
$CELWEIGHT
370
    -1
  9
$ENDCAPS
280
     0
  9
$JOINSTYLE
280
     0
  9
$LWDISPLAY
290
     1
  9
$INSUNITS
 70
     4
  9
$HYPERLINKBASE
  1

  9
$STYLESHEET
  1

  9
$XEDIT
290
     1
  9
$CEPSNTYPE
380
     0
  9
$PSTYLEMODE
290
     1
  9
$FINGERPRINTGUID
  2
{DC71D2DB-E7D2-874B-9821-D2F1B96DEE1C}
  9
$VERSIONGUID
  2
{237B0EDF-197D-EE4B-B4EF-971B669AF63E}
  9
$EXTNAMES
290
     1
  9
$PSVPSCALE
 40
0.0
  9
$OLESTARTUP
290
     0
  9
$SORTENTS
280
   127
  9
$INDEXCTL
280
     0
  9
$HIDETEXT
280
     1
  9
$XCLIPFRAME
280
     2
  9
$HALOGAP
280
     0
  9
$OBSCOLOR
 70
   257
  9
$OBSLTYPE
280
     0
  9
$INTERSECTIONDISPLAY
280
     0
  9
$INTERSECTIONCOLOR
 70
   257
  9
$DIMASSOC
280
     2
  9
$PROJECTNAME
  1

  9
$CAMERADISPLAY
290
     0
  9
$LENSLENGTH
 40
50.0
  9
$CAMERAHEIGHT
 40
0.0
  9
$STEPSPERSEC
 40
2.0
  9
$STEPSIZE
 40
6.0
  9
$3DDWFPREC
 40
2.0
  9
$PSOLWIDTH
 40
0.25
  9
$PSOLHEIGHT
 40
4.0
  9
$LOFTANG1
 40
1.570796326794896
  9
$LOFTANG2
 40
1.570796326794896
  9
$LOFTMAG1
 40
0.0
  9
$LOFTMAG2
 40
0.0
  9
$LOFTPARAM
 70
     7
  9
$LOFTNORMALS
280
     1
  9
$LATITUDE
 40
37.795
  9
$LONGITUDE
 40
-122.394
  9
$NORTHDIRECTION
 40
0.0
  9
$TIMEZONE
 70
 -8000
  9
$LIGHTGLYPHDISPLAY
280
     1
  9
$TILEMODELIGHTSYNCH
280
     1
  9
$CMATERIAL
347
11
  9
$SOLIDHIST
280
     0
  9
$SHOWHIST
280
     1
  9
$DWFFRAME
280
     2
  9
$DGNFRAME
280
     0
  9
$REALWORLDSCALE
290
     1
  9
$INTERFERECOLOR
 62
     1
  9
$INTERFEREOBJVS
345
33
  9
$INTERFEREVPVS
346
30
  9
$CSHADOW
280
     0
  9
$SHADOWPLANELOCATION
 40
0.0
  0
ENDSEC
  0
SECTION
  2
CLASSES
  0
CLASS
  1
ACDBDICTIONARYWDFLT
  2
AcDbDictionaryWithDefault
  3
ObjectDBX Classes
 90
        0
 91
        1
280
     0
281
     0
  0
CLASS
  1
MATERIAL
  2
AcDbMaterial
  3
ObjectDBX Classes
 90
     1153
 91
        3
280
     0
281
     0
  0
CLASS
  1
VISUALSTYLE
  2
AcDbVisualStyle
  3
ObjectDBX Classes
 90
     4095
 91
       24
280
     0
281
     0
  0
CLASS
  1
SCALE
  2
AcDbScale
  3
ObjectDBX Classes
 90
     1153
 91
       17
280
     0
281
     0
  0
CLASS
  1
TABLESTYLE
  2
AcDbTableStyle
  3
ObjectDBX Classes
 90
     4095
 91
        1
280
     0
281
     0
  0
CLASS
  1
MLEADERSTYLE
  2
AcDbMLeaderStyle
  3
ACDB_MLEADERSTYLE_CLASS
 90
     4095
 91
        1
280
     0
281
     0
  0
CLASS
  1
ACDBSECTIONVIEWSTYLE
  2
AcDbSectionViewStyle
  3
ObjectDBX Classes
 90
     1025
 91
        1
280
     0
281
     0
  0
CLASS
  1
ACDBDETAILVIEWSTYLE
  2
AcDbDetailViewStyle
  3
ObjectDBX Classes
 90
     1025
 91
        1
280
     0
281
     0
  0
CLASS
  1
DICTIONARYVAR
  2
AcDbDictionaryVar
  3
ObjectDBX Classes
 90
        0
 91
        5
280
     0
281
     0
  0
CLASS
  1
CELLSTYLEMAP
  2
AcDbCellStyleMap
  3
ObjectDBX Classes
 90
     1152
 91
        1
280
     0
281
     0
  0
ENDSEC
  0
SECTION
  2
TABLES
  0
TABLE
  2
VPORT
  5
8
330
0
100
AcDbSymbolTable
 70
     1
  0
VPORT
  5
57
330
8
100
AcDbSymbolTableRecord
100
AcDbViewportTableRecord
  2
*Active
 70
     0
 10
0.0
 20
0.0
 11
1.0
 21
1.0
 12
0.0
 22
0.0
 13
0.0
 23
0.0
 14
1.0
 24
1.0
 15
0.0
 25
0.0
 16
0.0
 26
0.0
 36
1.0
 17
104.9999999737534
 27
-148.4999999628701
 37
0.0
 40
302.939999924255
 41
0.7070707070707534
 42
50.0
 43
0.0
 44
0.0
 50
0.0
 51
0.0
 71
     0
 72
   100
 73
     1
 74
     0
 75
     1
 76
     0
 77
     0
 78
     0
281
     0
 65
     1
110
0.0
120
0.0
130
0.0
111
1.0
121
0.0
131
0.0
112
0.0
122
1.0
132
0.0
 79
     0
146
0.0
 60
     3
 61
     5
292
     1
282
     1
141
0.0
142
0.0
 63
   250
421
  3355443
  0
ENDTAB
  0
TABLE
  2
LTYPE
  5
5
330
0
100
AcDbSymbolTable
 70
     2
  0
LTYPE
  5
5B
330
5
100
AcDbSymbolTableRecord
100
AcDbLinetypeTableRecord
  2
ByBlock
 70
     0
  3

 72
    65
 73
     0
 40
0.0
  0
LTYPE
  5
5C
330
5
100
AcDbSymbolTableRecord
100
AcDbLinetypeTableRecord
  2
ByLayer
 70
     0
  3

 72
    65
 73
     0
 40
0.0
  0
LTYPE
  5
5D
330
5
100
AcDbSymbolTableRecord
100
AcDbLinetypeTableRecord
  2
Continuous
 70
     0
  3
Solid line
 72
    65
 73
     0
 40
0.0
  0
LTYPE
  5
127
330
5
100
AcDbSymbolTableRecord
100
AcDbLinetypeTableRecord
  2
AI-Linetype-0
 70
     0
  3
Adobe Illustrator Linetype No. 0
 72
    65
 73
     2
 40
1.411111110758333
 49
0.7055555553791667
 74
     0
 49
-0.7055555553791667
 74
     0
  0
ENDTAB
  0
TABLE
  2
LAYER
  5
2
330
0
100
AcDbSymbolTable
 70
     2
  0
LAYER
  5
54
330
2
100
AcDbSymbolTableRecord
100
AcDbLayerTableRecord
  2
0
 70
     0
 62
     7
  6
Continuous
370
    -3
390
F
347
21
  0
LAYER
  5
78
330
2
100
AcDbSymbolTableRecord
100
AcDbLayerTableRecord
  2
レイヤー 1
 70
     0
 62
     7
  6
Continuous
370
     0
390
F
347
21
  0
ENDTAB
  0
TABLE
  2
STYLE
  5
3
330
0
100
AcDbSymbolTable
 70
     2
  0
STYLE
  5
55
330
3
100
AcDbSymbolTableRecord
100
AcDbTextStyleTableRecord
  2
Standard
 70
     0
 40
0.0
 41
1.0
 50
0.0
 71
     0
 42
0.2
  3
txt
  4

  0
STYLE
  5
5A
330
3
100
AcDbSymbolTableRecord
100
AcDbTextStyleTableRecord
  2
Annotative
 70
     0
 40
0.0
 41
1.0
 50
0.0
 71
     0
 42
0.2
  3
txt
  4

1001
AcadAnnotative
1000
AnnotativeData
1002
{
1070
     1
1070
     1
1002
}
  0
ENDTAB
  0
TABLE
  2
VIEW
  5
6
330
0
100
AcDbSymbolTable
 70
     0
  0
ENDTAB
  0
TABLE
  2
UCS
  5
7
330
0
100
AcDbSymbolTable
 70
     0
  0
ENDTAB
  0
TABLE
  2
APPID
  5
9
330
0
100
AcDbSymbolTable
 70
     2
  0
APPID
  5
56
330
9
100
AcDbSymbolTableRecord
100
AcDbRegAppTableRecord
  2
ACAD
 70
     0
  0
APPID
  5
5E
330
9
100
AcDbSymbolTableRecord
100
AcDbRegAppTableRecord
  2
AcadAnnotative
 70
     0
  0
ENDTAB
  0
TABLE
  2
DIMSTYLE
  5
A
330
0
100
AcDbSymbolTable
 70
     2
100
AcDbDimStyleTable
 71
     0
  0
DIMSTYLE
105
58
330
A
100
AcDbSymbolTableRecord
100
AcDbDimStyleTableRecord
  2
Standard
 70
     0
340
55
  0
DIMSTYLE
105
59
330
A
100
AcDbSymbolTableRecord
100
AcDbDimStyleTableRecord
  2
Annotative
 70
     0
340
55
1001
AcadAnnotative
1000
AnnotativeData
1002
{
1070
     1
1070
     1
1002
}
  0
ENDTAB
  0
TABLE
  2
BLOCK_RECORD
  5
1
330
0
100
AcDbSymbolTable
 70
    16
  0
BLOCK_RECORD
  5
70
330
1
100
AcDbSymbolTableRecord
100
AcDbBlockTableRecord
  2
*Model_Space
340
73
 70
     0
280
     1
281
     0
  0
BLOCK_RECORD
  5
6C
330
1
100
AcDbSymbolTableRecord
100
AcDbBlockTableRecord
  2
*Paper_Space
340
6F
 70
     0
280
     1
281
     0
  0
BLOCK_RECORD
  5
74
330
1
100
AcDbSymbolTableRecord
100
AcDbBlockTableRecord
  2
*Paper_Space0
340
77
 70
     0
280
     1
281
     0
  0
BLOCK_RECORD
  5
79
330
1
100
AcDbSymbolTableRecord
100
AcDbBlockTableRecord
  2
Block_0
340
0
102
{BLKREFS
331
7A
102
}
 70
     0
280
     1
281
     0
  0
BLOCK_RECORD
  5
B8
330
1
100
AcDbSymbolTableRecord
100
AcDbBlockTableRecord
  2
Block_1
340
0
102
{BLKREFS
331
B9
102
}
 70
     0
280
     1
281
     0
  0
BLOCK_RECORD
  5
BC
330
1
100
AcDbSymbolTableRecord
100
AcDbBlockTableRecord
  2
Block_2
340
0
102
{BLKREFS
331
BD
102
}
 70
     0
280
     1
281
     0
  0
BLOCK_RECORD
  5
C9
330
1
100
AcDbSymbolTableRecord
100
AcDbBlockTableRecord
  2
Block_3
340
0
102
{BLKREFS
331
CA
102
}
 70
     0
280
     1
281
     0
  0
BLOCK_RECORD
  5
CD
330
1
100
AcDbSymbolTableRecord
100
AcDbBlockTableRecord
  2
Block_4
340
0
102
{BLKREFS
331
CE
102
}
 70
     0
280
     1
281
     0
  0
BLOCK_RECORD
  5
D7
330
1
100
AcDbSymbolTableRecord
100
AcDbBlockTableRecord
  2
Block_5
340
0
102
{BLKREFS
331
D8
102
}
 70
     0
280
     1
281
     0
  0
BLOCK_RECORD
  5
E2
330
1
100
AcDbSymbolTableRecord
100
AcDbBlockTableRecord
  2
Block_6
340
0
102
{BLKREFS
331
E3
102
}
 70
     0
280
     1
281
     0
  0
BLOCK_RECORD
  5
EE
330
1
100
AcDbSymbolTableRecord
100
AcDbBlockTableRecord
  2
Block_7
340
0
102
{BLKREFS
331
EF
102
}
 70
     0
280
     1
281
     0
  0
BLOCK_RECORD
  5
F2
330
1
100
AcDbSymbolTableRecord
100
AcDbBlockTableRecord
  2
Block_8
340
0
102
{BLKREFS
331
F3
102
}
 70
     0
280
     1
281
     0
  0
BLOCK_RECORD
  5
FC
330
1
100
AcDbSymbolTableRecord
100
AcDbBlockTableRecord
  2
Block_9
340
0
102
{BLKREFS
331
FD
102
}
 70
     0
280
     1
281
     0
  0
BLOCK_RECORD
  5
102
330
1
100
AcDbSymbolTableRecord
100
AcDbBlockTableRecord
  2
Block_10
340
0
102
{BLKREFS
331
103
102
}
 70
     0
280
     1
281
     0
  0
BLOCK_RECORD
  5
128
330
1
100
AcDbSymbolTableRecord
100
AcDbBlockTableRecord
  2
Block_11
340
0
102
{BLKREFS
331
129
102
}
 70
     0
280
     1
281
     0
  0
BLOCK_RECORD
  5
12C
330
1
100
AcDbSymbolTableRecord
100
AcDbBlockTableRecord
  2
Block_12
340
0
102
{BLKREFS
331
12D
102
}
 70
     0
280
     1
281
     0
  0
BLOCK_RECORD
  5
133
330
1
100
AcDbSymbolTableRecord
100
AcDbBlockTableRecord
  2
Block_13
340
0
102
{BLKREFS
331
134
102
}
 70
     0
280
     1
281
     0
  0
BLOCK_RECORD
  5
137
330
1
100
AcDbSymbolTableRecord
100
AcDbBlockTableRecord
  2
Block_14
340
0
102
{BLKREFS
331
138
102
}
 70
     0
280
     1
281
     0
  0
ENDTAB
  0
ENDSEC
  0
SECTION
  2
BLOCKS
  0
BLOCK
  5
71
330
70
100
AcDbEntity
  8
0
100
AcDbBlockBegin
  2
*Model_Space
 70
     0
 10
0.0
 20
0.0
 30
0.0
  3
*Model_Space
  1

  0
ENDBLK
  5
72
330
70
100
AcDbEntity
  8
0
100
AcDbBlockEnd
  0
BLOCK
  5
6D
330
6C
100
AcDbEntity
 67
     1
  8
0
100
AcDbBlockBegin
  2
*Paper_Space
 70
     0
 10
0.0
 20
0.0
 30
0.0
  3
*Paper_Space
  1

  0
ENDBLK
  5
6E
330
6C
100
AcDbEntity
 67
     1
  8
0
100
AcDbBlockEnd
  0
BLOCK
  5
75
330
74
100
AcDbEntity
 67
     1
  8
0
100
AcDbBlockBegin
  2
*Paper_Space0
 70
     0
 10
0.0
 20
0.0
 30
0.0
  3
*Paper_Space0
  1

  0
ENDBLK
  5
76
330
74
100
AcDbEntity
 67
     1
  8
0
100
AcDbBlockEnd
  0
BLOCK
  5
7B
330
79
100
AcDbEntity
  8
0
100
AcDbBlockBegin
  2
Block_0
 70
     0
 10
0.0
 20
0.0
 30
0.0
  3
Block_0
  1

  0
LINE
  5
7D
330
79
100
AcDbEntity
  8
レイヤー 1
 62
   250
420
  2299925
370
    25
100
AcDbLine
 10
111.2861412439406
 20
-153.9282021357691
 30
0.0
 11
100.2863056154498
 21
-153.9282021357691
 31
0.0
  0
LINE
  5
7E
330
79
100
AcDbEntity
  8
レイヤー 1
 62
   250
420
  2299925
370
    25
100
AcDbLine
 10
80.28475862573177
 20
-145.4277746378946
 30
0.0
 11
80.28475862573177
 21
-145.9280135266583
 31
0.0
  0
LINE
  5
7F
330
79
100
AcDbEntity
  8
レイヤー 1
 62
   250
420
  2299925
370
    25
100
AcDbLine
 10
100.2863056154498
 20
-145.9280135266583
 30
0.0
 11
80.28475862573177
 21
-145.9280135266583
 31
0.0
  0
LINE
  5
80
330
79
100
AcDbEntity
  8
レイヤー 1
 62
   250
420
  2299925
370
    25
100
AcDbLine
 10
80.28475862573177
 20
-145.4277746378946
 30
0.0
 11
80.79875583484081
 21
-145.8101857489097
 31
0.0
  0
LINE
  5
81
330
79
100
AcDbEntity
  8
レイヤー 1
 62
   250
420
  2299925
370
    25
100
AcDbLine
 10
80.79875583484081
 20
-145.8101857489097
 30
0.0
 11
81.28382526691011
 21
-145.3926379712362
 31
0.0
  0
LINE
  5
82
330
79
100
AcDbEntity
  8
レイヤー 1
 62
   250
420
  2299925
370
    25
100
AcDbLine
 10
81.79785775379604
 20
-145.7743788044746
 30
0.0
 11
82.28359746362635
 21
-145.3568310268015
 31
0.0
  0
LINE
  5
83
330
79
100
AcDbEntity
  8
レイヤー 1
 62
   250
420
  2299925
370
    25
100
AcDbLine
 10
81.28382526691011
 20
-145.3926379712362
 30
0.0
 11
81.79785775379604
 21
-145.7743788044746
 31
0.0
  0
LINE
  5
84
330
79
100
AcDbEntity
  8
レイヤー 1
 62
   250
420
  2299925
370
    25
100
AcDbLine
 10
82.28359746362635
 20
-145.3568310268015
 30
0.0
 11
82.79762995051196
 21
-145.7385365822614
 31
0.0
  0
LINE
  5
85
330
79
100
AcDbEntity
  8
レイヤー 1
 62
   250
420
  2299925
370
    25
100
AcDbLine
 10
82.79762995051196
 20
-145.7385365822614
 30
0.0
 11
83.28269938258126
 21
-145.3209888045882
 31
0.0
  0
LINE
  5
86
330
79
100
AcDbEntity
  8
レイヤー 1
 62
   250
420
  2299925
370
    25
100
AcDbLine
 10
83.28269938258126
 20
-145.3209888045882
 30
0.0
 11
83.79669659169032
 21
-145.7026943600481
 31
0.0
  0
LINE
  5
87
330
79
100
AcDbEntity
  8
レイヤー 1
 62
   250
420
  2299925
370
    25
100
AcDbLine
 10
83.79669659169032
 20
-145.7026943600481
 30
0.0
 11
84.28211880152838
 21
-145.2851465823749
 31
0.0
  0
LINE
  5
88
330
79
100
AcDbEntity
  8
レイヤー 1
 62
   250
420
  2299925
370
    25
100
AcDbLine
 10
84.28211880152838
 20
-145.2851465823749
 30
0.0
 11
84.79611601063744
 21
-145.6668874156124
 31
0.0
  0
LINE
  5
89
330
79
100
AcDbEntity
  8
レイヤー 1
 62
   250
420
  2299925
370
    25
100
AcDbLine
 10
84.79611601063744
 20
-145.6668874156124
 30
0.0
 11
85.28153822047553
 21
-145.2493396379389
 31
0.0
  0
LINE
  5
8A
330
79
100
AcDbEntity
  8
レイヤー 1
 62
   250
420
  2299925
370
    25
100
AcDbLine
 10
85.28153822047553
 20
-145.2493396379389
 30
0.0
 11
85.79553542958491
 21
-145.6317507489547
 31
0.0
  0
LINE
  5
8B
330
79
100
AcDbEntity
  8
レイヤー 1
 62
   250
420
  2299925
370
    25
100
AcDbLine
 10
85.79553542958491
 20
-145.6317507489547
 30
0.0
 11
86.28095763942265
 21
-145.2142029712812
 31
0.0
  0
LINE
  5
8C
330
79
100
AcDbEntity
  8
レイヤー 1
 62
   250
420
  2299925
370
    25
100
AcDbLine
 10
86.28095763942265
 20
-145.2142029712812
 30
0.0
 11
86.79460207076294
 21
-145.5959085267414
 31
0.0
  0
LINE
  5
8D
330
79
100
AcDbEntity
  8
レイヤー 1
 62
   250
420
  2299925
370
    25
100
AcDbLine
 10
86.79460207076294
 20
-145.5959085267414
 30
0.0
 11
87.28037705836978
 21
-145.1783607490679
 31
0.0
  0
LINE
  5
8E
330
79
100
AcDbEntity
  8
レイヤー 1
 62
   250
420
  2299925
370
    25
100
AcDbLine
 10
87.79437426747884
 20
-145.5600663045282
 30
0.0
 11
88.27944369954845
 21
-145.1425538046322
 31
0.0
  0
LINE
  5
8F
330
79
100
AcDbEntity
  8
レイヤー 1
 62
   250
420
  2299925
370
    25
100
AcDbLine
 10
87.28037705836978
 20
-145.1783607490679
 30
0.0
 11
87.79437426747884
 21
-145.5600663045282
 31
0.0
  0
LINE
  5
90
330
79
100
AcDbEntity
  8
レイヤー 1
 62
   250
420
  2299925
370
    25
100
AcDbLine
 10
88.27944369954845
 20
-145.1425538046322
 30
0.0
 11
88.79347618643375
 21
-145.5242593600924
 31
0.0
  0
LINE
  5
91
330
79
100
AcDbEntity
  8
レイヤー 1
 62
   250
420
  2299925
370
    25
100
AcDbLine
 10
88.79347618643375
 20
-145.5242593600924
 30
0.0
 11
89.27921589626405
 21
-145.1067115824189
 31
0.0
  0
LINE
  5
92
330
79
100
AcDbEntity
  8
レイヤー 1
 62
   250
420
  2299925
370
    25
100
AcDbLine
 10
89.7932131053731
 20
-145.4884171378792
 30
0.0
 11
90.27828253744239
 21
-145.0708693602057
 31
0.0
  0
LINE
  5
93
330
79
100
AcDbEntity
  8
レイヤー 1
 62
   250
420
  2299925
370
    25
100
AcDbLine
 10
89.27921589626405
 20
-145.1067115824189
 30
0.0
 11
89.7932131053731
 21
-145.4884171378792
 31
0.0
  0
LINE
  5
94
330
79
100
AcDbEntity
  8
レイヤー 1
 62
   250
420
  2299925
370
    25
100
AcDbLine
 10
90.79231502432833
 20
-145.4532804712218
 30
0.0
 11
91.27805473415831
 21
-145.035732693548
 31
0.0
  0
LINE
  5
95
330
79
100
AcDbEntity
  8
レイヤー 1
 62
   250
420
  2299925
370
    25
100
AcDbLine
 10
90.27828253744239
 20
-145.0708693602057
 30
0.0
 11
90.79231502432833
 21
-145.4532804712218
 31
0.0
  0
LINE
  5
96
330
79
100
AcDbEntity
  8
レイヤー 1
 62
   250
420
  2299925
370
    25
100
AcDbLine
 10
91.27805473415831
 20
-145.035732693548
 30
0.0
 11
91.79208722104425
 21
-145.4174382490085
 31
0.0
  0
LINE
  5
97
330
79
100
AcDbEntity
  8
レイヤー 1
 62
   250
420
  2299925
370
    25
100
AcDbLine
 10
91.79208722104425
 20
-145.4174382490085
 30
0.0
 11
92.27715665311354
 21
-144.9999257491126
 31
0.0
  0
LINE
  5
98
330
79
100
AcDbEntity
  8
レイヤー 1
 62
   250
420
  2299925
370
    25
100
AcDbLine
 10
92.27715665311354
 20
-144.9999257491126
 30
0.0
 11
92.7911538622226
 21
-145.3816313045725
 31
0.0
  0
LINE
  5
99
330
79
100
AcDbEntity
  8
レイヤー 1
 62
   250
420
  2299925
370
    25
100
AcDbLine
 10
92.7911538622226
 20
-145.3816313045725
 30
0.0
 11
93.27622329429187
 21
-144.964083526899
 31
0.0
  0
LINE
  5
9A
330
79
100
AcDbEntity
  8
レイヤー 1
 62
   250
420
  2299925
370
    25
100
AcDbLine
 10
93.27622329429187
 20
-144.964083526899
 30
0.0
 11
93.79022050340095
 21
-145.3457890823592
 31
0.0
  0
LINE
  5
9B
330
79
100
AcDbEntity
  8
レイヤー 1
 62
   250
420
  2299925
370
    25
100
AcDbLine
 10
93.79022050340095
 20
-145.3457890823592
 30
0.0
 11
94.27599549100779
 21
-144.9282413046858
 31
0.0
  0
LINE
  5
9C
330
79
100
AcDbEntity
  8
レイヤー 1
 62
   250
420
  2299925
370
    25
100
AcDbLine
 10
94.27599549100779
 20
-144.9282413046858
 30
0.0
 11
94.78999270011717
 21
-145.3099821379235
 31
0.0
  0
LINE
  5
9D
330
79
100
AcDbEntity
  8
レイヤー 1
 62
   250
420
  2299925
370
    25
100
AcDbLine
 10
94.78999270011717
 20
-145.3099821379235
 30
0.0
 11
95.27506213218615
 21
-144.8924343602507
 31
0.0
  0
LINE
  5
9E
330
79
100
AcDbEntity
  8
レイヤー 1
 62
   250
420
  2299925
370
    25
100
AcDbLine
 10
95.27506213218615
 20
-144.8924343602507
 30
0.0
 11
95.78905934129553
 21
-145.2748454712658
 31
0.0
  0
LINE
  5
9F
330
79
100
AcDbEntity
  8
レイヤー 1
 62
   250
420
  2299925
370
    25
100
AcDbLine
 10
95.78905934129553
 20
-145.2748454712658
 30
0.0
 11
96.27483432890239
 21
-144.8572976935923
 31
0.0
  0
LINE
  5
A0
330
79
100
AcDbEntity
  8
レイヤー 1
 62
   250
420
  2299925
370
    25
100
AcDbLine
 10
96.27483432890239
 20
-144.8572976935923
 30
0.0
 11
96.78883153801113
 21
-145.2390032490525
 31
0.0
  0
LINE
  5
A1
330
79
100
AcDbEntity
  8
レイヤー 1
 62
   250
420
  2299925
370
    25
100
AcDbLine
 10
96.78883153801113
 20
-145.2390032490525
 30
0.0
 11
97.27390097008042
 21
-144.8214554713787
 31
0.0
  0
LINE
  5
A2
330
79
100
AcDbEntity
  8
レイヤー 1
 62
   250
420
  2299925
370
    25
100
AcDbLine
 10
97.27390097008042
 20
-144.8214554713787
 30
0.0
 11
97.78789817918948
 21
-145.2031610268393
 31
0.0
  0
LINE
  5
A3
330
79
100
AcDbEntity
  8
レイヤー 1
 62
   250
420
  2299925
370
    25
100
AcDbLine
 10
97.78789817918948
 20
-145.2031610268393
 30
0.0
 11
98.27367316679632
 21
-144.7856132491661
 31
0.0
  0
LINE
  5
A4
330
79
100
AcDbEntity
  8
レイヤー 1
 62
   250
420
  2299925
370
    25
100
AcDbLine
 10
98.27367316679632
 20
-144.7856132491661
 30
0.0
 11
98.78767037590506
 21
-145.1673540824042
 31
0.0
  0
LINE
  5
A5
330
79
100
AcDbEntity
  8
レイヤー 1
 62
   250
420
  2299925
370
    25
100
AcDbLine
 10
98.78767037590506
 20
-145.1673540824042
 30
0.0
 11
99.27273980797467
 21
-144.7498063047307
 31
0.0
  0
LINE
  5
A6
330
79
100
AcDbEntity
  8
レイヤー 1
 62
   250
420
  2299925
370
    25
100
AcDbLine
 10
99.27273980797467
 20
-144.7498063047307
 30
0.0
 11
99.78677229486061
 21
-145.1315118601909
 31
0.0
  0
LINE
  5
A7
330
79
100
AcDbEntity
  8
レイヤー 1
 62
   250
420
  2299925
370
    25
100
AcDbLine
 10
99.78677229486061
 20
-145.1315118601909
 30
0.0
 11
100.2725120046906
 21
-144.7139640825174
 31
0.0
  0
LINE
  5
A8
330
79
100
AcDbEntity
  8
レイヤー 1
 62
   250
420
  2299925
370
    25
100
AcDbLine
 10
100.3465092139086
 20
-144.665739360307
 30
0.0
 11
101.286077812166
 21
-144.665739360307
 31
0.0
  0
LINE
  5
A9
330
79
100
AcDbEntity
  8
レイヤー 1
 62
   250
420
  2299925
370
    25
100
AcDbLine
 10
101.286077812166
 20
-144.665739360307
 30
0.0
 11
101.286077812166
 21
-152.9277596360198
 31
0.0
  0
LINE
  5
AA
330
79
100
AcDbEntity
  8
レイヤー 1
 62
   250
420
  2299925
370
    25
100
AcDbLine
 10
100.2863056154498
 20
-145.9280135266583
 30
0.0
 11
100.2863056154498
 21
-153.9282021357691
 31
0.0
  0
LINE
  5
AB
330
79
100
AcDbEntity
  8
レイヤー 1
 62
   250
420
  2299925
370
    25
100
AcDbLine
 10
110.285698769464
 20
-152.9277596360198
 30
0.0
 11
101.286077812166
 21
-152.9277596360198
 31
0.0
  0
LINE
  5
AC
330
79
100
AcDbEntity
  8
レイヤー 1
 62
   250
420
  2299925
370
    25
100
AcDbLine
 10
110.285698684693
 20
-144.665739360307
 30
0.0
 11
110.285698684693
 21
-152.9277596360198
 31
0.0
  0
LINE
  5
AD
330
79
100
AcDbEntity
  8
レイヤー 1
 62
   250
420
  2299925
370
    25
100
AcDbLine
 10
111.2861411591696
 20
-144.665739360307
 30
0.0
 11
111.2861411591696
 21
-153.9282021357691
 31
0.0
  0
CIRCLE
  5
AE
330
79
100
AcDbEntity
  8
レイヤー 1
 62
   250
420
  2299925
370
     9
100
AcDbCircle
 10
80.28475862573168
 20
-140.6659801946405
 30
0.0
 40
0.0999066653800573
  0
SPLINE
  5
AF
330
79
100
AcDbEntity
  8
レイヤー 1
 62
   250
420
  2299925
370
     9
100
AcDbSpline
210
0.0
220
0.0
230
1.0
 70
     9
 71
     3
 72
    17
 73
    13
 74
     0
 42
0.0000000001
 43
0.0000000001
 40
0.0
 40
0.0
 40
0.0
 40
0.0
 40
1.0
 40
1.0
 40
1.0
 40
2.0
 40
2.0
 40
2.0
 40
3.0
 40
3.0
 40
3.0
 40
4.0
 40
4.0
 40
4.0
 40
4.0
 10
76.3849062252256
 20
-145.4277746378946
 30
0.0
 10
76.3849062252256
 20
-145.3726707490187
 30
0.0
 10
76.3401387263674
 20
-145.3278679712529
 30
0.0
 10
76.28464678333867
 20
-145.3278679712529
 30
0.0
 10
76.2295428958556
 20
-145.3278679712529
 30
0.0
 10
76.18474011922083
 20
-145.3726707490187
 30
0.0
 10
76.18474011922083
 20
-145.4277746378946
 30
0.0
 10
76.18474011922083
 20
-145.4829138045467
 30
0.0
 10
76.2295428958556
 20
-145.5276813045365
 30
0.0
 10
76.28464678333867
 20
-145.5276813045365
 30
0.0
 10
76.3401387263674
 20
-145.5276813045365
 30
0.0
 10
76.3849062252256
 20
-145.4829138045467
 30
0.0
 10
76.3849062252256
 20
-145.4277746378946
 30
0.0
  0
SPLINE
  5
B0
330
79
100
AcDbEntity
  8
レイヤー 1
 62
   250
420
  2299925
370
     9
100
AcDbSpline
210
0.0
220
0.0
230
1.0
 70
     9
 71
     3
 72
    17
 73
    13
 74
     0
 42
0.0000000001
 43
0.0000000001
 40
0.0
 40
0.0
 40
0.0
 40
0.0
 40
1.0
 40
1.0
 40
1.0
 40
2.0
 40
2.0
 40
2.0
 40
3.0
 40
3.0
 40
3.0
 40
4.0
 40
4.0
 40
4.0
 40
4.0
 10
76.3849062252256
 20
-145.9280135266583
 30
0.0
 10
76.3849062252256
 20
-145.8729096377834
 30
0.0
 10
76.3401387263674
 20
-145.828106860017
 30
0.0
 10
76.28464678333867
 20
-145.828106860017
 30
0.0
 10
76.2295428958556
 20
-145.828106860017
 30
0.0
 10
76.18474011922083
 20
-145.8729096377834
 30
0.0
 10
76.18474011922083
 20
-145.9280135266583
 30
0.0
 10
76.18474011922083
 20
-145.9831526933114
 30
0.0
 10
76.2295428958556
 20
-146.0279201932999
 30
0.0
 10
76.28464678333867
 20
-146.0279201932999
 30
0.0
 10
76.3401387263674
 20
-146.0279201932999
 30
0.0
 10
76.3849062252256
 20
-145.9831526933114
 30
0.0
 10
76.3849062252256
 20
-145.9280135266583
 30
0.0
  0
SPLINE
  5
B1
330
79
100
AcDbEntity
  8
レイヤー 1
 62
   250
420
  2299925
370
     9
100
AcDbSpline
210
0.0
220
0.0
230
1.0
 70
     9
 71
     3
 72
    17
 73
    13
 74
     0
 42
0.0000000001
 43
0.0000000001
 40
0.0
 40
0.0
 40
0.0
 40
0.0
 40
1.0
 40
1.0
 40
1.0
 40
2.0
 40
2.0
 40
2.0
 40
3.0
 40
3.0
 40
3.0
 40
4.0
 40
4.0
 40
4.0
 40
4.0
 10
76.3849062252256
 20
-153.9282021357691
 30
0.0
 10
76.3849062252256
 20
-153.8730982468948
 30
0.0
 10
76.3401387263674
 20
-153.8282954691281
 30
0.0
 10
76.28464678333867
 20
-153.8282954691281
 30
0.0
 10
76.2295428958556
 20
-153.8282954691281
 30
0.0
 10
76.18474011922083
 20
-153.8730982468948
 30
0.0
 10
76.18474011922083
 20
-153.9282021357691
 30
0.0
 10
76.18474011922083
 20
-153.9833413024228
 30
0.0
 10
76.2295428958556
 20
-154.0281440801883
 30
0.0
 10
76.28464678333867
 20
-154.0281440801883
 30
0.0
 10
76.3401387263674
 20
-154.0281440801883
 30
0.0
 10
76.3849062252256
 20
-153.9833413024228
 30
0.0
 10
76.3849062252256
 20
-153.9282021357691
 30
0.0
  0
CIRCLE
  5
B2
330
79
100
AcDbEntity
  8
レイヤー 1
 62
   250
420
  2299925
370
     9
100
AcDbCircle
 10
101.2860778121658
 20
-140.6659801946405
 30
0.0
 40
0.0999066653801776
  0
CIRCLE
  5
B3
330
79
100
AcDbEntity
  8
レイヤー 1
 62
   250
420
  2299925
370
     9
100
AcDbCircle
 10
110.285698684693
 20
-140.6659801946405
 30
0.0
 40
0.0999066653800974
  0
LINE
  5
B4
330
79
100
AcDbEntity
  8
レイヤー 1
 62
   250
420
  2299925
370
     9
100
AcDbLine
 10
76.28464678333867
 20
-145.4277746378946
 30
0.0
 11
76.28464678333867
 21
-140.169868805876
 31
0.0
  0
LINE
  5
B5
330
79
100
AcDbEntity
  8
レイヤー 1
 62
   250
420
  2299925
370
     9
100
AcDbLine
 10
76.28464678333867
 20
-145.4277746378946
 30
0.0
 11
76.28464678333867
 21
-145.9280135266583
 31
0.0
  0
LINE
  5
B6
330
79
100
AcDbEntity
  8
レイヤー 1
 62
   250
420
  2299925
370
     9
100
AcDbLine
 10
77.7446881349788
 20
-145.4277746378946
 30
0.0
 11
75.28455708663087
 21
-145.4277746378946
 31
0.0
  0
LINE
  5
B7
330
79
100
AcDbEntity
  8
レイヤー 1
 62
   250
420
  2299925
370
     9
100
AcDbLine
 10
77.7446881349788
 20
-145.9280135266583
 30
0.0
 11
75.28455708663087
 21
-145.9280135266583
 31
0.0
  0
INSERT
  5
B9
330
79
100
AcDbEntity
  8
レイヤー 1
100
AcDbBlockReference
  2
Block_1
 10
0.0
 20
0.0
 30
0.0
  0
LINE
  5
C7
330
79
100
AcDbEntity
  8
レイヤー 1
 62
   250
420
  2299925
370
     9
100
AcDbLine
 10
80.28475862573177
 20
-140.6659801946407
 30
0.0
 11
101.286077812166
 21
-140.6659801946407
 31
0.0
  0
LINE
  5
C8
330
79
100
AcDbEntity
  8
レイヤー 1
 62
   250
420
  2299925
370
     9
100
AcDbLine
 10
80.28475862573177
 20
-142.8880568607514
 30
0.0
 11
80.28475862573177
 21
-139.6662079726682
 31
0.0
  0
INSERT
  5
CA
330
79
100
AcDbEntity
  8
レイヤー 1
100
AcDbBlockReference
  2
Block_3
 10
0.0
 20
0.0
 30
0.0
  0
LINE
  5
D5
330
79
100
AcDbEntity
  8
レイヤー 1
 62
   250
420
  2299925
370
     9
100
AcDbLine
 10
76.28464678333867
 20
-145.9280135266583
 30
0.0
 11
76.28464678333867
 21
-153.9282021357691
 31
0.0
  0
LINE
  5
D6
330
79
100
AcDbEntity
  8
レイヤー 1
 62
   250
420
  2299925
370
     9
100
AcDbLine
 10
97.74658790246594
 20
-153.9282021357691
 30
0.0
 11
75.28455708663087
 21
-153.9282021357691
 31
0.0
  0
INSERT
  5
D8
330
79
100
AcDbEntity
  8
レイヤー 1
100
AcDbBlockReference
  2
Block_5
 10
0.0
 20
0.0
 30
0.0
  0
LINE
  5
DF
330
79
100
AcDbEntity
  8
レイヤー 1
 62
   250
420
  2299925
370
     9
100
AcDbLine
 10
101.286077812166
 20
-140.6659801946407
 30
0.0
 11
110.285698769464
 21
-140.6659801946407
 31
0.0
  0
LINE
  5
E0
330
79
100
AcDbEntity
  8
レイヤー 1
 62
   250
420
  2299925
370
     9
100
AcDbLine
 10
101.286077812166
 20
-142.1260215831644
 30
0.0
 11
101.286077812166
 21
-139.6662079726682
 31
0.0
  0
LINE
  5
E1
330
79
100
AcDbEntity
  8
レイヤー 1
 62
   250
420
  2299925
370
     9
100
AcDbLine
 10
110.285698684693
 20
-142.1260215831644
 30
0.0
 11
110.285698684693
 21
-139.6662079726682
 31
0.0
  0
INSERT
  5
E3
330
79
100
AcDbEntity
  8
レイヤー 1
100
AcDbBlockReference
  2
Block_6
 10
0.0
 20
0.0
 30
0.0
  0
SPLINE
  5
E9
330
79
100
AcDbEntity
  8
レイヤー 1
 62
   250
420
  2299925
370
     9
100
AcDbSpline
210
0.0
220
0.0
230
1.0
 70
     9
 71
     3
 72
    17
 73
    13
 74
     0
 42
0.0000000001
 43
0.0000000001
 40
0.0
 40
0.0
 40
0.0
 40
0.0
 40
1.0
 40
1.0
 40
1.0
 40
2.0
 40
2.0
 40
2.0
 40
3.0
 40
3.0
 40
3.0
 40
4.0
 40
4.0
 40
4.0
 40
4.0
 10
100.3862122795676
 20
-158.0416615791859
 30
0.0
 10
100.3862122795676
 20
-157.9865576903103
 30
0.0
 10
100.3407419121239
 20
-157.9417549125436
 30
0.0
 10
100.2856000599122
 20
-157.9417549125436
 30
0.0
 10
100.2304961724291
 20
-157.9417549125436
 30
0.0
 10
100.1856933957944
 20
-157.9865576903103
 30
0.0
 10
100.1856933957944
 20
-158.0416615791859
 30
0.0
 10
100.1856933957944
 20
-158.0968007458383
 30
0.0
 10
100.2304961724291
 20
-158.1415682458269
 30
0.0
 10
100.2856000599122
 20
-158.1415682458269
 30
0.0
 10
100.3407419121239
 20
-158.1415682458269
 30
0.0
 10
100.3862122795676
 20
-158.0968007458383
 30
0.0
 10
100.3862122795676
 20
-158.0416615791859
 30
0.0
  0
CIRCLE
  5
EA
330
79
100
AcDbEntity
  8
レイヤー 1
 62
   250
420
  2299925
370
     9
100
AcDbCircle
 10
111.2861411591696
 20
-158.0416615791856
 30
0.0
 40
0.0999066653798969
  0
LINE
  5
EB
330
79
100
AcDbEntity
  8
レイヤー 1
 62
   250
420
  2299925
370
     9
100
AcDbLine
 10
111.2861412439406
 20
-158.0416615791859
 30
0.0
 11
100.2856000599122
 21
-158.0416615791859
 31
0.0
  0
LINE
  5
EC
330
79
100
AcDbEntity
  8
レイヤー 1
 62
   250
420
  2299925
370
     9
100
AcDbLine
 10
111.2861411591696
 20
-156.5816201906609
 30
0.0
 11
111.2861411591696
 21
-159.0414338011578
 31
0.0
  0
LINE
  5
ED
330
79
100
AcDbEntity
  8
レイヤー 1
 62
   250
420
  2299925
370
     9
100
AcDbLine
 10
100.2856000599122
 20
-156.5816201906609
 30
0.0
 11
100.2856000599122
 21
-159.0414338011578
 31
0.0
  0
INSERT
  5
EF
330
79
100
AcDbEntity
  8
レイヤー 1
100
AcDbBlockReference
  2
Block_7
 10
0.0
 20
0.0
 30
0.0
  0
LINE
  5
FA
330
79
100
AcDbEntity
  8
レイヤー 1
 62
   250
420
  2299925
370
    25
100
AcDbLine
 10
111.2861411591696
 20
-144.665739360307
 30
0.0
 11
110.285698684693
 21
-144.665739360307
 31
0.0
  0
LINE
  5
FB
330
79
100
AcDbEntity
  8
レイヤー 1
 62
   250
420
  2299925
370
     9
100
AcDbLine
 10
108.2275932240296
 20
-150.0731524145106
 30
0.0
 11
116.2278169088157
 21
-150.0731524145106
 31
0.0
  0
INSERT
  5
FD
330
79
100
AcDbEntity
  8
レイヤー 1
100
AcDbBlockReference
  2
Block_9
 10
0.0
 20
0.0
 30
0.0
  0
INSERT
  5
103
330
79
100
AcDbEntity
  8
レイヤー 1
100
AcDbBlockReference
  2
Block_10
 10
0.0
 20
0.0
 30
0.0
  0
LINE
  5
126
330
79
100
AcDbEntity
  8
レイヤー 1
  6
AI-Linetype-0
 62
   154
420
    23468
370
    25
100
AcDbLine
 10
80.28475862573177
 20
-146.8037490819945
 30
0.0
 11
90.28449142617288
 21
-146.8037490819945
 31
0.0
  0
INSERT
  5
129
330
79
100
AcDbEntity
  8
レイヤー 1
100
AcDbBlockReference
  2
Block_11
 10
0.0
 20
0.0
 30
0.0
  0
ENDBLK
  5
7C
330
79
100
AcDbEntity
  8
0
100
AcDbBlockEnd
  0
BLOCK
  5
BA
330
B8
100
AcDbEntity
  8
0
100
AcDbBlockBegin
  2
Block_1
 70
     0
 10
0.0
 20
0.0
 30
0.0
  3
Block_1
  1

  0
INSERT
  5
BD
330
B8
100
AcDbEntity
  8
レイヤー 1
100
AcDbBlockReference
  2
Block_2
 10
0.0
 20
0.0
 30
0.0
  0
ENDBLK
  5
BB
330
B8
100
AcDbEntity
  8
0
100
AcDbBlockEnd
  0
BLOCK
  5
BE
330
BC
100
AcDbEntity
  8
0
100
AcDbBlockBegin
  2
Block_2
 70
     0
 10
0.0
 20
0.0
 30
0.0
  3
Block_2
  1

  0
SPLINE
  5
C0
330
BC
100
AcDbEntity
  8
レイヤー 1
100
AcDbSpline
210
0.0
220
0.0
230
1.0
 70
     9
 71
     3
 72
    17
 73
    13
 74
     0
 42
0.0000000001
 43
0.0000000001
 40
0.0
 40
0.0
 40
0.0
 40
0.0
 40
1.0
 40
1.0
 40
1.0
 40
2.0
 40
2.0
 40
2.0
 40
3.0
 40
3.0
 40
3.0
 40
4.0
 40
4.0
 40
4.0
 40
4.0
 10
73.44030624249062
 20
-146.5419595987811
 30
0.0
 10
73.44030624249062
 20
-146.7917290214618
 30
0.0
 10
73.72366534615242
 20
-146.8382378105127
 30
0.0
 10
74.06851940422592
 20
-146.8382378105127
 30
0.0
 10
74.38805201048285
 20
-146.8382378105127
 30
0.0
 10
74.69690482073549
 20
-146.8020643079175
 30
0.0
 10
74.69690482073549
 20
-146.5419595987811
 30
0.0
 10
74.69690482073549
 20
-146.2942572333917
 30
0.0
 10
74.41544051959059
 20
-146.2456813870497
 30
0.0
 10
74.06851940422592
 20
-146.2456813870497
 30
0.0
 10
73.74915905274327
 20
-146.2456813870497
 30
0.0
 10
73.44030624249062
 20
-146.2839219469359
 30
0.0
 10
73.44030624249062
 20
-146.5419595987811
 30
0.0
  0
SPLINE
  5
C1
330
BC
100
AcDbEntity
  8
レイヤー 1
100
AcDbSpline
210
0.0
220
0.0
230
1.0
 70
     9
 71
     3
 72
    29
 73
    25
 74
     0
 42
0.0000000001
 43
0.0000000001
 40
0.0
 40
0.0
 40
0.0
 40
0.0
 40
1.0
 40
1.0
 40
1.0
 40
2.0
 40
2.0
 40
2.0
 40
3.0
 40
3.0
 40
3.0
 40
4.0
 40
4.0
 40
4.0
 40
5.0
 40
5.0
 40
5.0
 40
6.0
 40
6.0
 40
6.0
 40
7.0
 40
7.0
 40
7.0
 40
8.0
 40
8.0
 40
8.0
 40
8.0
 10
74.66297063020579
 20
-146.1440510702348
 30
0.0
 10
74.87243243570897
 20
-146.2522270684717
 30
0.0
 10
74.89155271565211
 20
-146.4255153713797
 30
0.0
 10
74.89155271565211
 20
-146.5419595987811
 30
0.0
 10
74.89155271565211
 20
-146.7028455579423
 30
0.0
 10
74.84504392660125
 20
-146.8444389823861
 30
0.0
 10
74.66297063020579
 20
-146.939523617779
 30
0.0
 10
74.46849499006344
 20
-147.043220991885
 30
0.0
 10
74.23147242067824
 20
-147.0625135266024
 30
0.0
 10
74.06851940422592
 20
-147.0625135266024
 30
0.0
 10
73.92468666771674
 20
-147.0625135266024
 30
0.0
 10
73.67302244251925
 20
-147.0452880491762
 30
0.0
 10
73.47406817824607
 20
-146.939523617779
 30
0.0
 10
73.27097979939058
 20
-146.8316921290907
 30
0.0
 10
73.24772540486515
 20
-146.6708061699295
 30
0.0
 10
73.24772540486515
 20
-146.5419595987811
 30
0.0
 10
73.24772540486515
 20
-146.3831406969111
 30
0.0
 10
73.29216713662488
 20
-146.2394802151762
 30
0.0
 10
73.47406817824607
 20
-146.1440510702348
 30
0.0
 10
73.66664901587154
 20
-146.0448323202596
 30
0.0
 10
73.89505884654361
 20
-146.0214056709599
 30
0.0
 10
74.06851940422592
 20
-146.0214056709599
 30
0.0
 10
74.23991290461711
 20
-146.0214056709599
 30
0.0
 10
74.47056204735459
 20
-146.0427652629685
 30
0.0
 10
74.66297063020579
 20
-146.1440510702348
 30
0.0
  0
HATCH
  5
C2
330
BC
100
AcDbEntity
  8
レイヤー 1
 62
   250
420
  2299925
440
 33554687
100
AcDbHatch
 10
0.0
 20
0.0
 30
0.0
210
0.0
220
0.0
230
1.0
  2
SOLID
 70
     1
 71
     1
 91
        2
 92
        1
 93
        1
 72
     4
 94
        3
 73
     0
 74
     0
 95
       17
 96
       13
 40
0.0
 40
0.0
 40
0.0
 40
0.0
 40
1.0
 40
1.0
 40
1.0
 40
2.0
 40
2.0
 40
2.0
 40
3.0
 40
3.0
 40
3.0
 40
4.0
 40
4.0
 40
4.0
 40
4.0
 10
73.44030624249062
 20
-146.5419595987811
 10
73.44030624249062
 20
-146.7917290214618
 10
73.72366534615242
 20
-146.8382378105127
 10
74.06851940422592
 20
-146.8382378105127
 10
74.38805201048285
 20
-146.8382378105127
 10
74.69690482073549
 20
-146.8020643079175
 10
74.69690482073549
 20
-146.5419595987811
 10
74.69690482073549
 20
-146.2942572333917
 10
74.41544051959059
 20
-146.2456813870497
 10
74.06851940422592
 20
-146.2456813870497
 10
73.74915905274327
 20
-146.2456813870497
 10
73.44030624249062
 20
-146.2839219469359
 10
73.44030624249062
 20
-146.5419595987811
 97
        0
 97
        1
330
C0
 92
        1
 93
        1
 72
     4
 94
        3
 73
     0
 74
     0
 95
       29
 96
       25
 40
0.0
 40
0.0
 40
0.0
 40
0.0
 40
1.0
 40
1.0
 40
1.0
 40
2.0
 40
2.0
 40
2.0
 40
3.0
 40
3.0
 40
3.0
 40
4.0
 40
4.0
 40
4.0
 40
5.0
 40
5.0
 40
5.0
 40
6.0
 40
6.0
 40
6.0
 40
7.0
 40
7.0
 40
7.0
 40
8.0
 40
8.0
 40
8.0
 40
8.0
 10
74.66297063020579
 20
-146.1440510702348
 10
74.87243243570897
 20
-146.2522270684717
 10
74.89155271565211
 20
-146.4255153713797
 10
74.89155271565211
 20
-146.5419595987811
 10
74.89155271565211
 20
-146.7028455579423
 10
74.84504392660125
 20
-146.8444389823861
 10
74.66297063020579
 20
-146.939523617779
 10
74.46849499006344
 20
-147.043220991885
 10
74.23147242067824
 20
-147.0625135266024
 10
74.06851940422592
 20
-147.0625135266024
 10
73.92468666771674
 20
-147.0625135266024
 10
73.67302244251925
 20
-147.0452880491762
 10
73.47406817824607
 20
-146.939523617779
 10
73.27097979939058
 20
-146.8316921290907
 10
73.24772540486515
 20
-146.6708061699295
 10
73.24772540486515
 20
-146.5419595987811
 10
73.24772540486515
 20
-146.3831406969111
 10
73.29216713662488
 20
-146.2394802151762
 10
73.47406817824607
 20
-146.1440510702348
 10
73.66664901587154
 20
-146.0448323202596
 10
73.89505884654361
 20
-146.0214056709599
 10
74.06851940422592
 20
-146.0214056709599
 10
74.23991290461711
 20
-146.0214056709599
 10
74.47056204735459
 20
-146.0427652629685
 10
74.66297063020579
 20
-146.1440510702348
 97
        0
 97
        1
330
C1
 75
     2
 76
     1
 98
        1
 10
0.0
 20
0.0
450
        0
451
        0
460
0.0
461
0.0
452
        0
462
0.0
453
        0
470

  0
SPLINE
  5
C3
330
BC
100
AcDbEntity
  8
レイヤー 1
100
AcDbSpline
210
0.0
220
0.0
230
1.0
 70
    11
 71
     3
 72
    17
 73
    13
 74
     0
 42
0.0000000001
 43
0.0000000001
 40
0.0
 40
0.0
 40
0.0
 40
0.0
 40
1.0
 40
1.0
 40
1.0
 40
2.0
 40
2.0
 40
2.0
 40
3.0
 40
3.0
 40
3.0
 40
4.0
 40
4.0
 40
4.0
 40
4.0
 10
74.84073755724468
 20
-145.8050536744862
 30
0.0
 10
74.84073755724468
 20
-145.8050536744862
 30
0.0
 10
74.58907333204717
 20
-145.8050536744862
 30
0.0
 10
74.58907333204717
 20
-145.8050536744862
 30
0.0
 10
74.58907333204717
 20
-145.8050536744862
 30
0.0
 10
74.58907333204717
 20
-145.5532171945145
 30
0.0
 10
74.58907333204717
 20
-145.5532171945145
 30
0.0
 10
74.58907333204717
 20
-145.5532171945145
 30
0.0
 10
74.84073755724468
 20
-145.5532171945145
 30
0.0
 10
74.84073755724468
 20
-145.5532171945145
 30
0.0
 10
74.84073755724468
 20
-145.5532171945145
 30
0.0
 10
74.84073755724468
 20
-145.8050536744862
 30
0.0
 10
74.84073755724468
 20
-145.8050536744862
 30
0.0
  0
HATCH
  5
C4
330
BC
100
AcDbEntity
  8
レイヤー 1
 62
   250
420
  2299925
440
 33554687
100
AcDbHatch
 10
0.0
 20
0.0
 30
0.0
210
0.0
220
0.0
230
1.0
  2
SOLID
 70
     1
 71
     1
 91
        1
 92
        1
 93
        1
 72
     4
 94
        3
 73
     0
 74
     0
 95
       17
 96
       13
 40
0.0
 40
0.0
 40
0.0
 40
0.0
 40
1.0
 40
1.0
 40
1.0
 40
2.0
 40
2.0
 40
2.0
 40
3.0
 40
3.0
 40
3.0
 40
4.0
 40
4.0
 40
4.0
 40
4.0
 10
74.84073755724468
 20
-145.8050536744862
 10
74.84073755724468
 20
-145.8050536744862
 10
74.58907333204717
 20
-145.8050536744862
 10
74.58907333204717
 20
-145.8050536744862
 10
74.58907333204717
 20
-145.8050536744862
 10
74.58907333204717
 20
-145.5532171945145
 10
74.58907333204717
 20
-145.5532171945145
 10
74.58907333204717
 20
-145.5532171945145
 10
74.84073755724468
 20
-145.5532171945145
 10
74.84073755724468
 20
-145.5532171945145
 10
74.84073755724468
 20
-145.5532171945145
 10
74.84073755724468
 20
-145.8050536744862
 10
74.84073755724468
 20
-145.8050536744862
 97
        0
 97
        1
330
C3
 75
     2
 76
     1
 98
        1
 10
0.0
 20
0.0
450
        0
451
        0
460
0.0
461
0.0
452
        0
462
0.0
453
        0
470

  0
SPLINE
  5
C5
330
BC
100
AcDbEntity
  8
レイヤー 1
100
AcDbSpline
210
0.0
220
0.0
230
1.0
 70
     9
 71
     3
 72
    53
 73
    49
 74
     0
 42
0.0000000001
 43
0.0000000001
 40
0.0
 40
0.0
 40
0.0
 40
0.0
 40
1.0
 40
1.0
 40
1.0
 40
2.0
 40
2.0
 40
2.0
 40
3.0
 40
3.0
 40
3.0
 40
4.0
 40
4.0
 40
4.0
 40
5.0
 40
5.0
 40
5.0
 40
6.0
 40
6.0
 40
6.0
 40
7.0
 40
7.0
 40
7.0
 40
8.0
 40
8.0
 40
8.0
 40
9.0
 40
9.0
 40
9.0
 40
10.0
 40
10.0
 40
10.0
 40
11.0
 40
11.0
 40
11.0
 40
12.0
 40
12.0
 40
12.0
 40
13.0
 40
13.0
 40
13.0
 40
14.0
 40
14.0
 40
14.0
 40
15.0
 40
15.0
 40
15.0
 40
16.0
 40
16.0
 40
16.0
 40
16.0
 10
74.89155271565211
 20
-144.8359483144854
 30
0.0
 10
74.89155271565211
 20
-144.9141519820006
 30
0.0
 10
74.87467174777439
 20
-145.0157822988155
 30
0.0
 10
74.81110973607153
 20
-145.1174126156304
 30
0.0
 10
74.7010389353178
 20
-145.2907009185384
 30
0.0
 10
74.56995305210404
 20
-145.312060510547
 30
0.0
 10
74.46212156341572
 20
-145.3310085357158
 30
0.0
 10
74.46212156341572
 20
-145.3310085357158
 30
0.0
 10
74.46212156341572
 20
-145.1087998769172
 30
0.0
 10
74.46212156341572
 20
-145.1087998769172
 30
0.0
 10
74.66090357291463
 20
-145.0540228587018
 30
0.0
 10
74.69053139408778
 20
-144.9268988352961
 30
0.0
 10
74.69053139408778
 20
-144.8338812571943
 30
0.0
 10
74.69053139408778
 20
-144.6943548900417
 30
0.0
 10
74.59114038933833
 20
-144.5420816695936
 30
0.0
 10
74.3584241893097
 20
-144.5420816695936
 30
0.0
 10
74.10245359475564
 20
-144.5420816695936
 30
0.0
 10
74.03269041117933
 20
-144.7219156539237
 30
0.0
 10
74.03269041117933
 20
-144.8424939959074
 30
0.0
 10
74.03269041117933
 20
-144.8741888743717
 30
0.0
 10
74.03269041117933
 20
-145.0157822988155
 30
0.0
 10
74.16170923710193
 20
-145.1046657623349
 30
0.0
 10
74.16170923710193
 20
-145.1046657623349
 30
0.0
 10
74.14258895715881
 20
-145.2803656320827
 30
0.0
 10
74.14258895715881
 20
-145.2803656320827
 30
0.0
 10
74.14258895715881
 20
-145.2803656320827
 30
0.0
 10
73.29647350598143
 20
-145.159787290099
 30
0.0
 10
73.29647350598143
 20
-145.159787290099
 30
0.0
 10
73.29647350598143
 20
-145.159787290099
 30
0.0
 10
73.29647350598143
 20
-144.3811957104325
 30
0.0
 10
73.29647350598143
 20
-144.3811957104325
 30
0.0
 10
73.29647350598143
 20
-144.3811957104325
 30
0.0
 10
73.49112140089805
 20
-144.3811957104325
 30
0.0
 10
73.49112140089805
 20
-144.3811957104325
 30
0.0
 10
73.49112140089805
 20
-144.3811957104325
 30
0.0
 10
73.49112140089805
 20
-144.9968342736466
 30
0.0
 10
73.49112140089805
 20
-144.9968342736466
 30
0.0
 10
73.49112140089805
 20
-144.9968342736466
 30
0.0
 10
73.91417912648673
 20
-145.0622910878664
 30
0.0
 10
73.91417912648673
 20
-145.0622910878664
 30
0.0
 10
73.88024493595702
 20
-145.0009683882289
 30
0.0
 10
73.84010957355386
 20
-144.9186306061315
 30
0.0
 10
73.84010957355386
 20
-144.8001193214389
 30
0.0
 10
73.84010957355386
 20
-144.5462157841759
 30
0.0
 10
74.02631698453162
 20
-144.3091932147907
 30
0.0
 10
74.33930390936656
 20
-144.3091932147907
 30
0.0
 10
74.65676945833234
 20
-144.3091932147907
 30
0.0
 10
74.89155271565211
 20
-144.5334689308805
 30
0.0
 10
74.89155271565211
 20
-144.8359483144854
 30
0.0
  0
HATCH
  5
C6
330
BC
100
AcDbEntity
  8
レイヤー 1
 62
   250
420
  2299925
440
 33554687
100
AcDbHatch
 10
0.0
 20
0.0
 30
0.0
210
0.0
220
0.0
230
1.0
  2
SOLID
 70
     1
 71
     1
 91
        1
 92
        1
 93
        1
 72
     4
 94
        3
 73
     0
 74
     0
 95
       53
 96
       49
 40
0.0
 40
0.0
 40
0.0
 40
0.0
 40
1.0
 40
1.0
 40
1.0
 40
2.0
 40
2.0
 40
2.0
 40
3.0
 40
3.0
 40
3.0
 40
4.0
 40
4.0
 40
4.0
 40
5.0
 40
5.0
 40
5.0
 40
6.0
 40
6.0
 40
6.0
 40
7.0
 40
7.0
 40
7.0
 40
8.0
 40
8.0
 40
8.0
 40
9.0
 40
9.0
 40
9.0
 40
10.0
 40
10.0
 40
10.0
 40
11.0
 40
11.0
 40
11.0
 40
12.0
 40
12.0
 40
12.0
 40
13.0
 40
13.0
 40
13.0
 40
14.0
 40
14.0
 40
14.0
 40
15.0
 40
15.0
 40
15.0
 40
16.0
 40
16.0
 40
16.0
 40
16.0
 10
74.89155271565211
 20
-144.8359483144854
 10
74.89155271565211
 20
-144.9141519820006
 10
74.87467174777439
 20
-145.0157822988155
 10
74.81110973607153
 20
-145.1174126156304
 10
74.7010389353178
 20
-145.2907009185384
 10
74.56995305210404
 20
-145.312060510547
 10
74.46212156341572
 20
-145.3310085357158
 10
74.46212156341572
 20
-145.3310085357158
 10
74.46212156341572
 20
-145.1087998769172
 10
74.46212156341572
 20
-145.1087998769172
 10
74.66090357291463
 20
-145.0540228587018
 10
74.69053139408778
 20
-144.9268988352961
 10
74.69053139408778
 20
-144.8338812571943
 10
74.69053139408778
 20
-144.6943548900417
 10
74.59114038933833
 20
-144.5420816695936
 10
74.3584241893097
 20
-144.5420816695936
 10
74.10245359475564
 20
-144.5420816695936
 10
74.03269041117933
 20
-144.7219156539237
 10
74.03269041117933
 20
-144.8424939959074
 10
74.03269041117933
 20
-144.8741888743717
 10
74.03269041117933
 20
-145.0157822988155
 10
74.16170923710193
 20
-145.1046657623349
 10
74.16170923710193
 20
-145.1046657623349
 10
74.14258895715881
 20
-145.2803656320827
 10
74.14258895715881
 20
-145.2803656320827
 10
74.14258895715881
 20
-145.2803656320827
 10
73.29647350598143
 20
-145.159787290099
 10
73.29647350598143
 20
-145.159787290099
 10
73.29647350598143
 20
-145.159787290099
 10
73.29647350598143
 20
-144.3811957104325
 10
73.29647350598143
 20
-144.3811957104325
 10
73.29647350598143
 20
-144.3811957104325
 10
73.49112140089805
 20
-144.3811957104325
 10
73.49112140089805
 20
-144.3811957104325
 10
73.49112140089805
 20
-144.3811957104325
 10
73.49112140089805
 20
-144.9968342736466
 10
73.49112140089805
 20
-144.9968342736466
 10
73.49112140089805
 20
-144.9968342736466
 10
73.91417912648673
 20
-145.0622910878664
 10
73.91417912648673
 20
-145.0622910878664
 10
73.88024493595702
 20
-145.0009683882289
 10
73.84010957355386
 20
-144.9186306061315
 10
73.84010957355386
 20
-144.8001193214389
 10
73.84010957355386
 20
-144.5462157841759
 10
74.02631698453162
 20
-144.3091932147907
 10
74.33930390936656
 20
-144.3091932147907
 10
74.65676945833234
 20
-144.3091932147907
 10
74.89155271565211
 20
-144.5334689308805
 10
74.89155271565211
 20
-144.8359483144854
 97
        0
 97
        1
330
C5
 75
     2
 76
     1
 98
        1
 10
0.0
 20
0.0
450
        0
451
        0
460
0.0
461
0.0
452
        0
462
0.0
453
        0
470

  0
ENDBLK
  5
BF
330
BC
100
AcDbEntity
  8
0
100
AcDbBlockEnd
  0
BLOCK
  5
CB
330
C9
100
AcDbEntity
  8
0
100
AcDbBlockBegin
  2
Block_3
 70
     0
 10
0.0
 20
0.0
 30
0.0
  3
Block_3
  1

  0
INSERT
  5
CE
330
C9
100
AcDbEntity
  8
レイヤー 1
100
AcDbBlockReference
  2
Block_4
 10
0.0
 20
0.0
 30
0.0
  0
ENDBLK
  5
CC
330
C9
100
AcDbEntity
  8
0
100
AcDbBlockEnd
  0
BLOCK
  5
CF
330
CD
100
AcDbEntity
  8
0
100
AcDbBlockBegin
  2
Block_4
 70
     0
 10
0.0
 20
0.0
 30
0.0
  3
Block_4
  1

  0
SPLINE
  5
D1
330
CD
100
AcDbEntity
  8
レイヤー 1
100
AcDbSpline
210
0.0
220
0.0
230
1.0
 70
     9
 71
     3
 72
    44
 73
    40
 74
     0
 42
0.0000000001
 43
0.0000000001
 40
0.0
 40
0.0
 40
0.0
 40
0.0
 40
1.0
 40
1.0
 40
1.0
 40
2.0
 40
2.0
 40
2.0
 40
3.0
 40
3.0
 40
3.0
 40
4.0
 40
4.0
 40
4.0
 40
5.0
 40
5.0
 40
5.0
 40
6.0
 40
6.0
 40
6.0
 40
7.0
 40
7.0
 40
7.0
 40
8.0
 40
8.0
 40
8.0
 40
9.0
 40
9.0
 40
9.0
 40
10.0
 40
10.0
 40
10.0
 40
11.0
 40
11.0
 40
11.0
 40
12.0
 40
12.0
 40
12.0
 40
13.0
 40
13.0
 40
13.0
 40
13.0
 10
90.28940698697626
 20
-139.3723713844277
 30
0.0
 10
90.07150469753421
 20
-139.5310180315235
 30
0.0
 10
89.9783148646582
 20
-139.6050875844563
 30
0.0
 10
89.92973901831618
 20
-139.7489203209655
 30
0.0
 10
89.92973901831618
 20
-139.7489203209655
 30
0.0
 10
90.70815834320837
 20
-139.7489203209655
 30
0.0
 10
90.70815834320837
 20
-139.7489203209655
 30
0.0
 10
90.70815834320837
 20
-139.7489203209655
 30
0.0
 10
90.70815834320837
 20
-139.9540757571122
 30
0.0
 10
90.70815834320837
 20
-139.9540757571122
 30
0.0
 10
90.70815834320837
 20
-139.9540757571122
 30
0.0
 10
89.68014185040983
 20
-139.9540757571122
 30
0.0
 10
89.68014185040983
 20
-139.9540757571122
 30
0.0
 10
89.71183672887413
 20
-139.5964748457432
 30
0.0
 10
89.77729354309387
 20
-139.5182711782281
 30
0.0
 10
90.16245521834481
 20
-139.2199259092054
 30
0.0
 10
90.41842581289888
 20
-139.0211438997065
 30
0.0
 10
90.48388262711862
 20
-138.9534477734214
 30
0.0
 10
90.48388262711862
 20
-138.8159884635599
 30
0.0
 10
90.48388262711862
 20
-138.6974771788673
 30
0.0
 10
90.41205238625115
 20
-138.5662190408792
 30
0.0
 10
90.21533743404338
 20
-138.5662190408792
 30
0.0
 10
89.95506047013277
 20
-138.5662190408792
 30
0.0
 10
89.9466199861939
 20
-138.7968681836167
 30
0.0
 10
89.94231361683734
 20
-138.9133124110182
 30
0.0
 10
89.94231361683734
 20
-138.9133124110182
 30
0.0
 10
89.71821015552185
 20
-138.9133124110182
 30
0.0
 10
89.71821015552185
 20
-138.9133124110182
 30
0.0
 10
89.7266506394607
 20
-138.7863606423867
 30
0.0
 10
89.73715818069072
 20
-138.6742227843418
 30
0.0
 10
89.8176011602713
 20
-138.5557114996492
 30
0.0
 10
89.92749970625077
 20
-138.3949977952623
 30
0.0
 10
90.11370711722852
 20
-138.3610636047326
 30
0.0
 10
90.23015134462996
 20
-138.3610636047326
 30
0.0
 10
90.50730927641831
 20
-138.3610636047326
 30
0.0
 10
90.7145317698561
 20
-138.5452039584192
 30
0.0
 10
90.7145317698561
 20
-138.818055520851
 30
0.0
 10
90.7145317698561
 20
-139.0464653515231
 30
0.0
 10
90.59825979722891
 20
-139.1460286110468
 30
0.0
 10
90.28940698697626
 20
-139.3723713844277
 30
0.0
  0
HATCH
  5
D2
330
CD
100
AcDbEntity
  8
レイヤー 1
 62
   250
420
  2299925
440
 33554687
100
AcDbHatch
 10
0.0
 20
0.0
 30
0.0
210
0.0
220
0.0
230
1.0
  2
SOLID
 70
     1
 71
     1
 91
        1
 92
        1
 93
        1
 72
     4
 94
        3
 73
     0
 74
     0
 95
       44
 96
       40
 40
0.0
 40
0.0
 40
0.0
 40
0.0
 40
1.0
 40
1.0
 40
1.0
 40
2.0
 40
2.0
 40
2.0
 40
3.0
 40
3.0
 40
3.0
 40
4.0
 40
4.0
 40
4.0
 40
5.0
 40
5.0
 40
5.0
 40
6.0
 40
6.0
 40
6.0
 40
7.0
 40
7.0
 40
7.0
 40
8.0
 40
8.0
 40
8.0
 40
9.0
 40
9.0
 40
9.0
 40
10.0
 40
10.0
 40
10.0
 40
11.0
 40
11.0
 40
11.0
 40
12.0
 40
12.0
 40
12.0
 40
13.0
 40
13.0
 40
13.0
 40
13.0
 10
90.28940698697626
 20
-139.3723713844277
 10
90.07150469753421
 20
-139.5310180315235
 10
89.9783148646582
 20
-139.6050875844563
 10
89.92973901831618
 20
-139.7489203209655
 10
89.92973901831618
 20
-139.7489203209655
 10
90.70815834320837
 20
-139.7489203209655
 10
90.70815834320837
 20
-139.7489203209655
 10
90.70815834320837
 20
-139.7489203209655
 10
90.70815834320837
 20
-139.9540757571122
 10
90.70815834320837
 20
-139.9540757571122
 10
90.70815834320837
 20
-139.9540757571122
 10
89.68014185040983
 20
-139.9540757571122
 10
89.68014185040983
 20
-139.9540757571122
 10
89.71183672887413
 20
-139.5964748457432
 10
89.77729354309387
 20
-139.5182711782281
 10
90.16245521834481
 20
-139.2199259092054
 10
90.41842581289888
 20
-139.0211438997065
 10
90.48388262711862
 20
-138.9534477734214
 10
90.48388262711862
 20
-138.8159884635599
 10
90.48388262711862
 20
-138.6974771788673
 10
90.41205238625115
 20
-138.5662190408792
 10
90.21533743404338
 20
-138.5662190408792
 10
89.95506047013277
 20
-138.5662190408792
 10
89.9466199861939
 20
-138.7968681836167
 10
89.94231361683734
 20
-138.9133124110182
 10
89.94231361683734
 20
-138.9133124110182
 10
89.71821015552185
 20
-138.9133124110182
 10
89.71821015552185
 20
-138.9133124110182
 10
89.7266506394607
 20
-138.7863606423867
 10
89.73715818069072
 20
-138.6742227843418
 10
89.8176011602713
 20
-138.5557114996492
 10
89.92749970625077
 20
-138.3949977952623
 10
90.11370711722852
 20
-138.3610636047326
 10
90.23015134462996
 20
-138.3610636047326
 10
90.50730927641831
 20
-138.3610636047326
 10
90.7145317698561
 20
-138.5452039584192
 10
90.7145317698561
 20
-138.818055520851
 10
90.7145317698561
 20
-139.0464653515231
 10
90.59825979722891
 20
-139.1460286110468
 10
90.28940698697626
 20
-139.3723713844277
 97
        0
 97
        1
330
D1
 75
     2
 76
     1
 98
        1
 10
0.0
 20
0.0
450
        0
451
        0
460
0.0
461
0.0
452
        0
462
0.0
453
        0
470

  0
SPLINE
  5
D3
330
CD
100
AcDbEntity
  8
レイヤー 1
100
AcDbSpline
210
0.0
220
0.0
230
1.0
 70
    11
 71
     3
 72
    26
 73
    22
 74
     0
 42
0.0000000001
 43
0.0000000001
 40
0.0
 40
0.0
 40
0.0
 40
0.0
 40
1.0
 40
1.0
 40
1.0
 40
2.0
 40
2.0
 40
2.0
 40
3.0
 40
3.0
 40
3.0
 40
4.0
 40
4.0
 40
4.0
 40
5.0
 40
5.0
 40
5.0
 40
6.0
 40
6.0
 40
6.0
 40
7.0
 40
7.0
 40
7.0
 40
7.0
 10
91.32448592551957
 20
-139.9540757571122
 30
0.0
 10
91.32448592551957
 20
-139.9540757571122
 30
0.0
 10
91.32448592551957
 20
-138.8497503993153
 30
0.0
 10
91.32448592551957
 20
-138.8497503993153
 30
0.0
 10
91.32448592551957
 20
-138.8497503993153
 30
0.0
 10
90.99444577803264
 20
-138.8497503993153
 30
0.0
 10
90.99444577803264
 20
-138.8497503993153
 30
0.0
 10
90.99444577803264
 20
-138.8497503993153
 30
0.0
 10
90.99444577803264
 20
-138.7016112934496
 30
0.0
 10
90.99444577803264
 20
-138.7016112934496
 30
0.0
 10
91.32655298281072
 20
-138.6869696376373
 30
0.0
 10
91.37306177186159
 20
-138.524016621185
 30
0.0
 10
91.40268959303474
 20
-138.4098117058489
 30
0.0
 10
91.40268959303474
 20
-138.4098117058489
 30
0.0
 10
91.54876164160935
 20
-138.4098117058489
 30
0.0
 10
91.54876164160935
 20
-138.4098117058489
 30
0.0
 10
91.54876164160935
 20
-138.4098117058489
 30
0.0
 10
91.54876164160935
 20
-139.9540757571122
 30
0.0
 10
91.54876164160935
 20
-139.9540757571122
 30
0.0
 10
91.54876164160935
 20
-139.9540757571122
 30
0.0
 10
91.32448592551957
 20
-139.9540757571122
 30
0.0
 10
91.32448592551957
 20
-139.9540757571122
 30
0.0
  0
HATCH
  5
D4
330
CD
100
AcDbEntity
  8
レイヤー 1
 62
   250
420
  2299925
440
 33554687
100
AcDbHatch
 10
0.0
 20
0.0
 30
0.0
210
0.0
220
0.0
230
1.0
  2
SOLID
 70
     1
 71
     1
 91
        1
 92
        1
 93
        1
 72
     4
 94
        3
 73
     0
 74
     0
 95
       26
 96
       22
 40
0.0
 40
0.0
 40
0.0
 40
0.0
 40
1.0
 40
1.0
 40
1.0
 40
2.0
 40
2.0
 40
2.0
 40
3.0
 40
3.0
 40
3.0
 40
4.0
 40
4.0
 40
4.0
 40
5.0
 40
5.0
 40
5.0
 40
6.0
 40
6.0
 40
6.0
 40
7.0
 40
7.0
 40
7.0
 40
7.0
 10
91.32448592551957
 20
-139.9540757571122
 10
91.32448592551957
 20
-139.9540757571122
 10
91.32448592551957
 20
-138.8497503993153
 10
91.32448592551957
 20
-138.8497503993153
 10
91.32448592551957
 20
-138.8497503993153
 10
90.99444577803264
 20
-138.8497503993153
 10
90.99444577803264
 20
-138.8497503993153
 10
90.99444577803264
 20
-138.8497503993153
 10
90.99444577803264
 20
-138.7016112934496
 10
90.99444577803264
 20
-138.7016112934496
 10
91.32655298281072
 20
-138.6869696376373
 10
91.37306177186159
 20
-138.524016621185
 10
91.40268959303474
 20
-138.4098117058489
 10
91.40268959303474
 20
-138.4098117058489
 10
91.54876164160935
 20
-138.4098117058489
 10
91.54876164160935
 20
-138.4098117058489
 10
91.54876164160935
 20
-138.4098117058489
 10
91.54876164160935
 20
-139.9540757571122
 10
91.54876164160935
 20
-139.9540757571122
 10
91.54876164160935
 20
-139.9540757571122
 10
91.32448592551957
 20
-139.9540757571122
 10
91.32448592551957
 20
-139.9540757571122
 97
        0
 97
        1
330
D3
 75
     2
 76
     1
 98
        1
 10
0.0
 20
0.0
450
        0
451
        0
460
0.0
461
0.0
452
        0
462
0.0
453
        0
470

  0
ENDBLK
  5
D0
330
CD
100
AcDbEntity
  8
0
100
AcDbBlockEnd
  0
BLOCK
  5
D9
330
D7
100
AcDbEntity
  8
0
100
AcDbBlockBegin
  2
Block_5
 70
     0
 10
0.0
 20
0.0
 30
0.0
  3
Block_5
  1

  0
SPLINE
  5
DB
330
D7
100
AcDbEntity
  8
レイヤー 1
100
AcDbSpline
210
0.0
220
0.0
230
1.0
 70
     9
 71
     3
 72
    17
 73
    13
 74
     0
 42
0.0000000001
 43
0.0000000001
 40
0.0
 40
0.0
 40
0.0
 40
0.0
 40
1.0
 40
1.0
 40
1.0
 40
2.0
 40
2.0
 40
2.0
 40
3.0
 40
3.0
 40
3.0
 40
4.0
 40
4.0
 40
4.0
 40
4.0
 10
74.83091903511172
 20
-149.9281439512332
 30
0.0
 10
74.83091903511172
 20
-150.0718044329682
 30
0.0
 10
74.91756318656576
 20
-150.2244221629647
 30
0.0
 10
75.12065156542123
 20
-150.2244221629647
 30
0.0
 10
75.32580700156785
 20
-150.2244221629647
 30
0.0
 10
75.42743731838273
 20
-150.097298139559
 30
0.0
 10
75.42743731838273
 20
-149.9281439512332
 30
0.0
 10
75.42743731838273
 20
-149.7421087950297
 30
0.0
 10
75.30479191910782
 20
-149.6318657395017
 30
0.0
 10
75.12702499206894
 20
-149.6318657395017
 30
0.0
 10
74.90481633327033
 20
-149.6318657395017
 30
0.0
 10
74.83091903511172
 20
-149.7948187559541
 30
0.0
 10
74.83091903511172
 20
-149.9281439512332
 30
0.0
  0
SPLINE
  5
DC
330
D7
100
AcDbEntity
  8
レイヤー 1
100
AcDbSpline
210
0.0
220
0.0
230
1.0
 70
     9
 71
     3
 72
    17
 73
    13
 74
     0
 42
0.0000000001
 43
0.0000000001
 40
0.0
 40
0.0
 40
0.0
 40
0.0
 40
1.0
 40
1.0
 40
1.0
 40
2.0
 40
2.0
 40
2.0
 40
3.0
 40
3.0
 40
3.0
 40
4.0
 40
4.0
 40
4.0
 40
4.0
 10
74.17083874013785
 20
-149.9281439512332
 30
0.0
 10
74.17083874013785
 20
-150.0931640249767
 30
0.0
 10
74.26592337553074
 20
-150.1779133739138
 30
0.0
 10
74.40131562810106
 20
-150.1779133739138
 30
0.0
 10
74.52413328215022
 20
-150.1779133739138
 30
0.0
 10
74.64264456684282
 20
-150.1059108782721
 30
0.0
 10
74.64264456684282
 20
-149.9281439512332
 30
0.0
 10
74.64264456684282
 20
-149.7503770241943
 30
0.0
 10
74.52413328215022
 20
-149.6783745285526
 30
0.0
 10
74.40131562810106
 20
-149.6783745285526
 30
0.0
 10
74.26592337553074
 20
-149.6783745285526
 30
0.0
 10
74.17083874013785
 20
-149.7651909347809
 30
0.0
 10
74.17083874013785
 20
-149.9281439512332
 30
0.0
  0
SPLINE
  5
DD
330
D7
100
AcDbEntity
  8
レイヤー 1
100
AcDbSpline
210
0.0
220
0.0
230
1.0
 70
     9
 71
     3
 72
    29
 73
    25
 74
     0
 42
0.0000000001
 43
0.0000000001
 40
0.0
 40
0.0
 40
0.0
 40
0.0
 40
1.0
 40
1.0
 40
1.0
 40
2.0
 40
2.0
 40
2.0
 40
3.0
 40
3.0
 40
3.0
 40
4.0
 40
4.0
 40
4.0
 40
5.0
 40
5.0
 40
5.0
 40
6.0
 40
6.0
 40
6.0
 40
7.0
 40
7.0
 40
7.0
 40
8.0
 40
8.0
 40
8.0
 40
8.0
 10
75.62208521329934
 20
-149.9281439512332
 30
0.0
 10
75.62208521329934
 20
-150.1947943417915
 30
0.0
 10
75.48445364866362
 20
-150.4486978790545
 30
0.0
 10
75.13546547600781
 20
-150.4486978790545
 30
0.0
 10
74.87949488145374
 20
-150.4486978790545
 30
0.0
 10
74.78423799128659
 20
-150.3067599450622
 30
0.0
 10
74.72291529164913
 20
-150.200995513665
 30
0.0
 10
74.66365964930284
 20
-150.3257079702311
 30
0.0
 10
74.54945473396681
 20
-150.4018445804551
 30
0.0
 10
74.3887410295799
 20
-150.4018445804551
 30
0.0
 10
74.1136501550827
 20
-150.4018445804551
 30
0.0
 10
73.97825790251238
 20
-150.2030625709562
 30
0.0
 10
73.97825790251238
 20
-149.9281439512332
 30
0.0
 10
73.97825790251238
 20
-149.6446125927972
 30
0.0
 10
74.12209063902157
 20
-149.4540988124628
 30
0.0
 10
74.3887410295799
 20
-149.4540988124628
 30
0.0
 10
74.54945473396681
 20
-149.4540988124628
 30
0.0
 10
74.66365964930284
 20
-149.5326469895266
 30
0.0
 10
74.72291529164913
 20
-149.6573594460926
 30
0.0
 10
74.77373045005657
 20
-149.5684759825732
 30
0.0
 10
74.86898734022372
 20
-149.4096570807031
 30
0.0
 10
75.13133136142551
 20
-149.4096570807031
 30
0.0
 10
75.5056409858979
 20
-149.4096570807031
 30
0.0
 10
75.62208521329934
 20
-149.6890543245569
 30
0.0
 10
75.62208521329934
 20
-149.9281439512332
 30
0.0
  0
HATCH
  5
DE
330
D7
100
AcDbEntity
  8
レイヤー 1
 62
   250
420
  2299925
440
 33554687
100
AcDbHatch
 10
0.0
 20
0.0
 30
0.0
210
0.0
220
0.0
230
1.0
  2
SOLID
 70
     1
 71
     1
 91
        3
 92
        1
 93
        1
 72
     4
 94
        3
 73
     0
 74
     0
 95
       17
 96
       13
 40
0.0
 40
0.0
 40
0.0
 40
0.0
 40
1.0
 40
1.0
 40
1.0
 40
2.0
 40
2.0
 40
2.0
 40
3.0
 40
3.0
 40
3.0
 40
4.0
 40
4.0
 40
4.0
 40
4.0
 10
74.83091903511172
 20
-149.9281439512332
 10
74.83091903511172
 20
-150.0718044329682
 10
74.91756318656576
 20
-150.2244221629647
 10
75.12065156542123
 20
-150.2244221629647
 10
75.32580700156785
 20
-150.2244221629647
 10
75.42743731838273
 20
-150.097298139559
 10
75.42743731838273
 20
-149.9281439512332
 10
75.42743731838273
 20
-149.7421087950297
 10
75.30479191910782
 20
-149.6318657395017
 10
75.12702499206894
 20
-149.6318657395017
 10
74.90481633327033
 20
-149.6318657395017
 10
74.83091903511172
 20
-149.7948187559541
 10
74.83091903511172
 20
-149.9281439512332
 97
        0
 97
        1
330
DB
 92
        1
 93
        1
 72
     4
 94
        3
 73
     0
 74
     0
 95
       17
 96
       13
 40
0.0
 40
0.0
 40
0.0
 40
0.0
 40
1.0
 40
1.0
 40
1.0
 40
2.0
 40
2.0
 40
2.0
 40
3.0
 40
3.0
 40
3.0
 40
4.0
 40
4.0
 40
4.0
 40
4.0
 10
74.17083874013785
 20
-149.9281439512332
 10
74.17083874013785
 20
-150.0931640249767
 10
74.26592337553074
 20
-150.1779133739138
 10
74.40131562810106
 20
-150.1779133739138
 10
74.52413328215022
 20
-150.1779133739138
 10
74.64264456684282
 20
-150.1059108782721
 10
74.64264456684282
 20
-149.9281439512332
 10
74.64264456684282
 20
-149.7503770241943
 10
74.52413328215022
 20
-149.6783745285526
 10
74.40131562810106
 20
-149.6783745285526
 10
74.26592337553074
 20
-149.6783745285526
 10
74.17083874013785
 20
-149.7651909347809
 10
74.17083874013785
 20
-149.9281439512332
 97
        0
 97
        1
330
DC
 92
        1
 93
        1
 72
     4
 94
        3
 73
     0
 74
     0
 95
       29
 96
       25
 40
0.0
 40
0.0
 40
0.0
 40
0.0
 40
1.0
 40
1.0
 40
1.0
 40
2.0
 40
2.0
 40
2.0
 40
3.0
 40
3.0
 40
3.0
 40
4.0
 40
4.0
 40
4.0
 40
5.0
 40
5.0
 40
5.0
 40
6.0
 40
6.0
 40
6.0
 40
7.0
 40
7.0
 40
7.0
 40
8.0
 40
8.0
 40
8.0
 40
8.0
 10
75.62208521329934
 20
-149.9281439512332
 10
75.62208521329934
 20
-150.1947943417915
 10
75.48445364866362
 20
-150.4486978790545
 10
75.13546547600781
 20
-150.4486978790545
 10
74.87949488145374
 20
-150.4486978790545
 10
74.78423799128659
 20
-150.3067599450622
 10
74.72291529164913
 20
-150.200995513665
 10
74.66365964930284
 20
-150.3257079702311
 10
74.54945473396681
 20
-150.4018445804551
 10
74.3887410295799
 20
-150.4018445804551
 10
74.1136501550827
 20
-150.4018445804551
 10
73.97825790251238
 20
-150.2030625709562
 10
73.97825790251238
 20
-149.9281439512332
 10
73.97825790251238
 20
-149.6446125927972
 10
74.12209063902157
 20
-149.4540988124628
 10
74.3887410295799
 20
-149.4540988124628
 10
74.54945473396681
 20
-149.4540988124628
 10
74.66365964930284
 20
-149.5326469895266
 10
74.72291529164913
 20
-149.6573594460926
 10
74.77373045005657
 20
-149.5684759825732
 10
74.86898734022372
 20
-149.4096570807031
 10
75.13133136142551
 20
-149.4096570807031
 10
75.5056409858979
 20
-149.4096570807031
 10
75.62208521329934
 20
-149.6890543245569
 10
75.62208521329934
 20
-149.9281439512332
 97
        0
 97
        1
330
DD
 75
     2
 76
     1
 98
        1
 10
0.0
 20
0.0
450
        0
451
        0
460
0.0
461
0.0
452
        0
462
0.0
453
        0
470

  0
ENDBLK
  5
DA
330
D7
100
AcDbEntity
  8
0
100
AcDbBlockEnd
  0
BLOCK
  5
E4
330
E2
100
AcDbEntity
  8
0
100
AcDbBlockBegin
  2
Block_6
 70
     0
 10
0.0
 20
0.0
 30
0.0
  3
Block_6
  1

  0
SPLINE
  5
E6
330
E2
100
AcDbEntity
  8
レイヤー 1
100
AcDbSpline
210
0.0
220
0.0
230
1.0
 70
     9
 71
     3
 72
    17
 73
    13
 74
     0
 42
0.0000000001
 43
0.0000000001
 40
0.0
 40
0.0
 40
0.0
 40
0.0
 40
1.0
 40
1.0
 40
1.0
 40
2.0
 40
2.0
 40
2.0
 40
3.0
 40
3.0
 40
3.0
 40
4.0
 40
4.0
 40
4.0
 40
4.0
 10
105.7833794223389
 20
-138.5524386589383
 30
0.0
 10
105.6648681376463
 20
-138.5524386589383
 30
0.0
 10
105.4891682678985
 20
-138.6094549892191
 30
0.0
 10
105.4891682678985
 20
-138.8950534049464
 30
0.0
 10
105.4891682678985
 20
-139.1213961783273
 30
0.0
 10
105.6290391445997
 20
-139.2166530684944
 30
0.0
 10
105.76443139717
 20
-139.2166530684944
 30
0.0
 10
106.0266031635975
 20
-139.2166530684944
 30
0.0
 10
106.0648437234838
 20
-139.0071912629912
 30
0.0
 10
106.0648437234838
 20
-138.8909192903641
 30
0.0
 10
106.0648437234838
 20
-138.7152194206163
 30
0.0
 10
105.9694145785423
 20
-138.5524386589383
 30
0.0
 10
105.7833794223389
 20
-138.5524386589383
 30
0.0
  0
SPLINE
  5
E7
330
E2
100
AcDbEntity
  8
レイヤー 1
100
AcDbSpline
210
0.0
220
0.0
230
1.0
 70
     9
 71
     3
 72
    32
 73
    28
 74
     0
 42
0.0000000001
 43
0.0000000001
 40
0.0
 40
0.0
 40
0.0
 40
0.0
 40
1.0
 40
1.0
 40
1.0
 40
2.0
 40
2.0
 40
2.0
 40
3.0
 40
3.0
 40
3.0
 40
4.0
 40
4.0
 40
4.0
 40
5.0
 40
5.0
 40
5.0
 40
6.0
 40
6.0
 40
6.0
 40
7.0
 40
7.0
 40
7.0
 40
8.0
 40
8.0
 40
8.0
 40
9.0
 40
9.0
 40
9.0
 40
9.0
 10
105.7430718051614
 20
-140.0036851320997
 30
0.0
 10
105.5697835022534
 20
-140.0036851320997
 30
0.0
 10
105.3243204489293
 20
-139.9337496937492
 30
0.0
 10
105.2862521438173
 20
-139.6016424889711
 30
0.0
 10
105.2862521438173
 20
-139.6016424889711
 30
0.0
 10
105.4998480639028
 20
-139.6016424889711
 30
0.0
 10
105.4998480639028
 20
-139.6016424889711
 30
0.0
 10
105.5105278599071
 20
-139.6608981313174
 30
0.0
 10
105.5422227383714
 20
-139.8090372371831
 30
0.0
 10
105.7451388624526
 20
-139.8090372371831
 30
0.0
 10
106.0372829596018
 20
-139.8090372371831
 30
0.0
 10
106.0751790099395
 20
-139.4789970896962
 30
0.0
 10
106.0879258632349
 20
-139.2738416535496
 30
0.0
 10
105.9969753424244
 20
-139.3541123783559
 30
0.0
 10
105.9294514709135
 20
-139.4113009634111
 30
0.0
 10
105.7475504292923
 20
-139.4113009634111
 30
0.0
 10
105.5677164449622
 20
-139.4113009634111
 30
0.0
 10
105.265064806583
 20
-139.3055365320139
 30
0.0
 10
105.265064806583
 20
-138.8993597743029
 30
0.0
 10
105.265064806583
 20
-138.579827168046
 30
0.0
 10
105.4638468160819
 20
-138.3598578213128
 30
0.0
 10
105.7813123650477
 20
-138.3598578213128
 30
0.0
 10
106.295320611447
 20
-138.3598578213128
 30
0.0
 10
106.3060004074513
 20
-138.9141736848895
 30
0.0
 10
106.3060004074513
 20
-139.127769604975
 30
0.0
 10
106.3060004074513
 20
-139.3584187477125
 30
0.0
 10
106.2867078727339
 20
-140.0036851320997
 30
0.0
 10
105.7430718051614
 20
-140.0036851320997
 30
0.0
  0
HATCH
  5
E8
330
E2
100
AcDbEntity
  8
レイヤー 1
 62
   250
420
  2299925
440
 33554687
100
AcDbHatch
 10
0.0
 20
0.0
 30
0.0
210
0.0
220
0.0
230
1.0
  2
SOLID
 70
     1
 71
     1
 91
        2
 92
        1
 93
        1
 72
     4
 94
        3
 73
     0
 74
     0
 95
       17
 96
       13
 40
0.0
 40
0.0
 40
0.0
 40
0.0
 40
1.0
 40
1.0
 40
1.0
 40
2.0
 40
2.0
 40
2.0
 40
3.0
 40
3.0
 40
3.0
 40
4.0
 40
4.0
 40
4.0
 40
4.0
 10
105.7833794223389
 20
-138.5524386589383
 10
105.6648681376463
 20
-138.5524386589383
 10
105.4891682678985
 20
-138.6094549892191
 10
105.4891682678985
 20
-138.8950534049464
 10
105.4891682678985
 20
-139.1213961783273
 10
105.6290391445997
 20
-139.2166530684944
 10
105.76443139717
 20
-139.2166530684944
 10
106.0266031635975
 20
-139.2166530684944
 10
106.0648437234838
 20
-139.0071912629912
 10
106.0648437234838
 20
-138.8909192903641
 10
106.0648437234838
 20
-138.7152194206163
 10
105.9694145785423
 20
-138.5524386589383
 10
105.7833794223389
 20
-138.5524386589383
 97
        0
 97
        1
330
E6
 92
        1
 93
        1
 72
     4
 94
        3
 73
     0
 74
     0
 95
       32
 96
       28
 40
0.0
 40
0.0
 40
0.0
 40
0.0
 40
1.0
 40
1.0
 40
1.0
 40
2.0
 40
2.0
 40
2.0
 40
3.0
 40
3.0
 40
3.0
 40
4.0
 40
4.0
 40
4.0
 40
5.0
 40
5.0
 40
5.0
 40
6.0
 40
6.0
 40
6.0
 40
7.0
 40
7.0
 40
7.0
 40
8.0
 40
8.0
 40
8.0
 40
9.0
 40
9.0
 40
9.0
 40
9.0
 10
105.7430718051614
 20
-140.0036851320997
 10
105.5697835022534
 20
-140.0036851320997
 10
105.3243204489293
 20
-139.9337496937492
 10
105.2862521438173
 20
-139.6016424889711
 10
105.2862521438173
 20
-139.6016424889711
 10
105.4998480639028
 20
-139.6016424889711
 10
105.4998480639028
 20
-139.6016424889711
 10
105.5105278599071
 20
-139.6608981313174
 10
105.5422227383714
 20
-139.8090372371831
 10
105.7451388624526
 20
-139.8090372371831
 10
106.0372829596018
 20
-139.8090372371831
 10
106.0751790099395
 20
-139.4789970896962
 10
106.0879258632349
 20
-139.2738416535496
 10
105.9969753424244
 20
-139.3541123783559
 10
105.9294514709135
 20
-139.4113009634111
 10
105.7475504292923
 20
-139.4113009634111
 10
105.5677164449622
 20
-139.4113009634111
 10
105.265064806583
 20
-139.3055365320139
 10
105.265064806583
 20
-138.8993597743029
 10
105.265064806583
 20
-138.579827168046
 10
105.4638468160819
 20
-138.3598578213128
 10
105.7813123650477
 20
-138.3598578213128
 10
106.295320611447
 20
-138.3598578213128
 10
106.3060004074513
 20
-138.9141736848895
 10
106.3060004074513
 20
-139.127769604975
 10
106.3060004074513
 20
-139.3584187477125
 10
106.2867078727339
 20
-140.0036851320997
 10
105.7430718051614
 20
-140.0036851320997
 97
        0
 97
        1
330
E7
 75
     2
 76
     1
 98
        1
 10
0.0
 20
0.0
450
        0
451
        0
460
0.0
461
0.0
452
        0
462
0.0
453
        0
470

  0
ENDBLK
  5
E5
330
E2
100
AcDbEntity
  8
0
100
AcDbBlockEnd
  0
BLOCK
  5
F0
330
EE
100
AcDbEntity
  8
0
100
AcDbBlockBegin
  2
Block_7
 70
     0
 10
0.0
 20
0.0
 30
0.0
  3
Block_7
  1

  0
INSERT
  5
F3
330
EE
100
AcDbEntity
  8
レイヤー 1
100
AcDbBlockReference
  2
Block_8
 10
0.0
 20
0.0
 30
0.0
  0
ENDBLK
  5
F1
330
EE
100
AcDbEntity
  8
0
100
AcDbBlockEnd
  0
BLOCK
  5
F4
330
F2
100
AcDbEntity
  8
0
100
AcDbBlockBegin
  2
Block_8
 70
     0
 10
0.0
 20
0.0
 30
0.0
  3
Block_8
  1

  0
SPLINE
  5
F6
330
F2
100
AcDbEntity
  8
レイヤー 1
100
AcDbSpline
210
0.0
220
0.0
230
1.0
 70
    11
 71
     3
 72
    26
 73
    22
 74
     0
 42
0.0000000001
 43
0.0000000001
 40
0.0
 40
0.0
 40
0.0
 40
0.0
 40
1.0
 40
1.0
 40
1.0
 40
2.0
 40
2.0
 40
2.0
 40
3.0
 40
3.0
 40
3.0
 40
4.0
 40
4.0
 40
4.0
 40
5.0
 40
5.0
 40
5.0
 40
6.0
 40
6.0
 40
6.0
 40
7.0
 40
7.0
 40
7.0
 40
7.0
 10
105.1486205791816
 20
-157.3299316012925
 30
0.0
 10
105.1486205791816
 20
-157.3299316012925
 30
0.0
 10
105.1486205791816
 20
-156.2257784982699
 30
0.0
 10
105.1486205791816
 20
-156.2257784982699
 30
0.0
 10
105.1486205791816
 20
-156.2257784982699
 30
0.0
 10
104.8185804316946
 20
-156.2257784982699
 30
0.0
 10
104.8185804316946
 20
-156.2257784982699
 30
0.0
 10
104.8185804316946
 20
-156.2257784982699
 30
0.0
 10
104.8185804316946
 20
-156.0776393924042
 30
0.0
 10
104.8185804316946
 20
-156.0776393924042
 30
0.0
 10
105.1506876364727
 20
-156.0628254818176
 30
0.0
 10
105.1971964255236
 20
-155.8998724653653
 30
0.0
 10
105.2268242466967
 20
-155.785495295255
 30
0.0
 10
105.2268242466967
 20
-155.785495295255
 30
0.0
 10
105.3728962952713
 20
-155.785495295255
 30
0.0
 10
105.3728962952713
 20
-155.785495295255
 30
0.0
 10
105.3728962952713
 20
-155.785495295255
 30
0.0
 10
105.3728962952713
 20
-157.3299316012925
 30
0.0
 10
105.3728962952713
 20
-157.3299316012925
 30
0.0
 10
105.3728962952713
 20
-157.3299316012925
 30
0.0
 10
105.1486205791816
 20
-157.3299316012925
 30
0.0
 10
105.1486205791816
 20
-157.3299316012925
 30
0.0
  0
HATCH
  5
F7
330
F2
100
AcDbEntity
  8
レイヤー 1
 62
   250
420
  2299925
440
 33554687
100
AcDbHatch
 10
0.0
 20
0.0
 30
0.0
210
0.0
220
0.0
230
1.0
  2
SOLID
 70
     1
 71
     1
 91
        1
 92
        1
 93
        1
 72
     4
 94
        3
 73
     0
 74
     0
 95
       26
 96
       22
 40
0.0
 40
0.0
 40
0.0
 40
0.0
 40
1.0
 40
1.0
 40
1.0
 40
2.0
 40
2.0
 40
2.0
 40
3.0
 40
3.0
 40
3.0
 40
4.0
 40
4.0
 40
4.0
 40
5.0
 40
5.0
 40
5.0
 40
6.0
 40
6.0
 40
6.0
 40
7.0
 40
7.0
 40
7.0
 40
7.0
 10
105.1486205791816
 20
-157.3299316012925
 10
105.1486205791816
 20
-157.3299316012925
 10
105.1486205791816
 20
-156.2257784982699
 10
105.1486205791816
 20
-156.2257784982699
 10
105.1486205791816
 20
-156.2257784982699
 10
104.8185804316946
 20
-156.2257784982699
 10
104.8185804316946
 20
-156.2257784982699
 10
104.8185804316946
 20
-156.2257784982699
 10
104.8185804316946
 20
-156.0776393924042
 10
104.8185804316946
 20
-156.0776393924042
 10
105.1506876364727
 20
-156.0628254818176
 10
105.1971964255236
 20
-155.8998724653653
 10
105.2268242466967
 20
-155.785495295255
 10
105.2268242466967
 20
-155.785495295255
 10
105.3728962952713
 20
-155.785495295255
 10
105.3728962952713
 20
-155.785495295255
 10
105.3728962952713
 20
-155.785495295255
 10
105.3728962952713
 20
-157.3299316012925
 10
105.3728962952713
 20
-157.3299316012925
 10
105.3728962952713
 20
-157.3299316012925
 10
105.1486205791816
 20
-157.3299316012925
 10
105.1486205791816
 20
-157.3299316012925
 97
        0
 97
        1
330
F6
 75
     2
 76
     1
 98
        1
 10
0.0
 20
0.0
450
        0
451
        0
460
0.0
461
0.0
452
        0
462
0.0
453
        0
470

  0
SPLINE
  5
F8
330
F2
100
AcDbEntity
  8
レイヤー 1
100
AcDbSpline
210
0.0
220
0.0
230
1.0
 70
    11
 71
     3
 72
    26
 73
    22
 74
     0
 42
0.0000000001
 43
0.0000000001
 40
0.0
 40
0.0
 40
0.0
 40
0.0
 40
1.0
 40
1.0
 40
1.0
 40
2.0
 40
2.0
 40
2.0
 40
3.0
 40
3.0
 40
3.0
 40
4.0
 40
4.0
 40
4.0
 40
5.0
 40
5.0
 40
5.0
 40
6.0
 40
6.0
 40
6.0
 40
7.0
 40
7.0
 40
7.0
 40
7.0
 10
106.3252929421687
 20
-157.3299316012925
 30
0.0
 10
106.3252929421687
 20
-157.3299316012925
 30
0.0
 10
106.3252929421687
 20
-156.2257784982699
 30
0.0
 10
106.3252929421687
 20
-156.2257784982699
 30
0.0
 10
106.3252929421687
 20
-156.2257784982699
 30
0.0
 10
105.9952527946817
 20
-156.2257784982699
 30
0.0
 10
105.9952527946817
 20
-156.2257784982699
 30
0.0
 10
105.9952527946817
 20
-156.2257784982699
 30
0.0
 10
105.9952527946817
 20
-156.0776393924042
 30
0.0
 10
105.9952527946817
 20
-156.0776393924042
 30
0.0
 10
106.3273599994598
 20
-156.0628254818176
 30
0.0
 10
106.3738687885107
 20
-155.8998724653653
 30
0.0
 10
106.4034966096838
 20
-155.785495295255
 30
0.0
 10
106.4034966096838
 20
-155.785495295255
 30
0.0
 10
106.5495686582584
 20
-155.785495295255
 30
0.0
 10
106.5495686582584
 20
-155.785495295255
 30
0.0
 10
106.5495686582584
 20
-155.785495295255
 30
0.0
 10
106.5495686582584
 20
-157.3299316012925
 30
0.0
 10
106.5495686582584
 20
-157.3299316012925
 30
0.0
 10
106.5495686582584
 20
-157.3299316012925
 30
0.0
 10
106.3252929421687
 20
-157.3299316012925
 30
0.0
 10
106.3252929421687
 20
-157.3299316012925
 30
0.0
  0
HATCH
  5
F9
330
F2
100
AcDbEntity
  8
レイヤー 1
 62
   250
420
  2299925
440
 33554687
100
AcDbHatch
 10
0.0
 20
0.0
 30
0.0
210
0.0
220
0.0
230
1.0
  2
SOLID
 70
     1
 71
     1
 91
        1
 92
        1
 93
        1
 72
     4
 94
        3
 73
     0
 74
     0
 95
       26
 96
       22
 40
0.0
 40
0.0
 40
0.0
 40
0.0
 40
1.0
 40
1.0
 40
1.0
 40
2.0
 40
2.0
 40
2.0
 40
3.0
 40
3.0
 40
3.0
 40
4.0
 40
4.0
 40
4.0
 40
5.0
 40
5.0
 40
5.0
 40
6.0
 40
6.0
 40
6.0
 40
7.0
 40
7.0
 40
7.0
 40
7.0
 10
106.3252929421687
 20
-157.3299316012925
 10
106.3252929421687
 20
-157.3299316012925
 10
106.3252929421687
 20
-156.2257784982699
 10
106.3252929421687
 20
-156.2257784982699
 10
106.3252929421687
 20
-156.2257784982699
 10
105.9952527946817
 20
-156.2257784982699
 10
105.9952527946817
 20
-156.2257784982699
 10
105.9952527946817
 20
-156.2257784982699
 10
105.9952527946817
 20
-156.0776393924042
 10
105.9952527946817
 20
-156.0776393924042
 10
106.3273599994598
 20
-156.0628254818176
 10
106.3738687885107
 20
-155.8998724653653
 10
106.4034966096838
 20
-155.785495295255
 10
106.4034966096838
 20
-155.785495295255
 10
106.5495686582584
 20
-155.785495295255
 10
106.5495686582584
 20
-155.785495295255
 10
106.5495686582584
 20
-155.785495295255
 10
106.5495686582584
 20
-157.3299316012925
 10
106.5495686582584
 20
-157.3299316012925
 10
106.5495686582584
 20
-157.3299316012925
 10
106.3252929421687
 20
-157.3299316012925
 10
106.3252929421687
 20
-157.3299316012925
 97
        0
 97
        1
330
F8
 75
     2
 76
     1
 98
        1
 10
0.0
 20
0.0
450
        0
451
        0
460
0.0
461
0.0
452
        0
462
0.0
453
        0
470

  0
ENDBLK
  5
F5
330
F2
100
AcDbEntity
  8
0
100
AcDbBlockEnd
  0
BLOCK
  5
FE
330
FC
100
AcDbEntity
  8
0
100
AcDbBlockBegin
  2
Block_9
 70
     0
 10
0.0
 20
0.0
 30
0.0
  3
Block_9
  1

  0
SPLINE
  5
100
330
FC
100
AcDbEntity
  8
レイヤー 1
100
AcDbSpline
210
0.0
220
0.0
230
1.0
 70
    11
 71
     3
 72
    26
 73
    22
 74
     0
 42
0.0000000001
 43
0.0000000001
 40
0.0
 40
0.0
 40
0.0
 40
0.0
 40
1.0
 40
1.0
 40
1.0
 40
2.0
 40
2.0
 40
2.0
 40
3.0
 40
3.0
 40
3.0
 40
4.0
 40
4.0
 40
4.0
 40
5.0
 40
5.0
 40
5.0
 40
6.0
 40
6.0
 40
6.0
 40
7.0
 40
7.0
 40
7.0
 40
7.0
 10
113.1875786392378
 20
-149.3069932352427
 30
0.0
 10
113.1875786392378
 20
-149.3069932352427
 30
0.0
 10
113.1875786392378
 20
-148.2024956226716
 30
0.0
 10
113.1875786392378
 20
-148.2024956226716
 30
0.0
 10
113.1875786392378
 20
-148.2024956226716
 30
0.0
 10
112.8575384917509
 20
-148.2024956226716
 30
0.0
 10
112.8575384917509
 20
-148.2024956226716
 30
0.0
 10
112.8575384917509
 20
-148.2024956226716
 30
0.0
 10
112.8575384917509
 20
-148.0543565168058
 30
0.0
 10
112.8575384917509
 20
-148.0543565168058
 30
0.0
 10
113.189645696529
 20
-148.0397148609935
 30
0.0
 10
113.2361544855798
 20
-147.8767618445412
 30
0.0
 10
113.265782306753
 20
-147.7625569292052
 30
0.0
 10
113.265782306753
 20
-147.7625569292052
 30
0.0
 10
113.4118543553276
 20
-147.7625569292052
 30
0.0
 10
113.4118543553276
 20
-147.7625569292052
 30
0.0
 10
113.4118543553276
 20
-147.7625569292052
 30
0.0
 10
113.4118543553276
 20
-149.3069932352427
 30
0.0
 10
113.4118543553276
 20
-149.3069932352427
 30
0.0
 10
113.4118543553276
 20
-149.3069932352427
 30
0.0
 10
113.1875786392378
 20
-149.3069932352427
 30
0.0
 10
113.1875786392378
 20
-149.3069932352427
 30
0.0
  0
HATCH
  5
101
330
FC
100
AcDbEntity
  8
レイヤー 1
 62
   250
420
  2299925
440
 33554687
100
AcDbHatch
 10
0.0
 20
0.0
 30
0.0
210
0.0
220
0.0
230
1.0
  2
SOLID
 70
     1
 71
     1
 91
        1
 92
        1
 93
        1
 72
     4
 94
        3
 73
     0
 74
     0
 95
       26
 96
       22
 40
0.0
 40
0.0
 40
0.0
 40
0.0
 40
1.0
 40
1.0
 40
1.0
 40
2.0
 40
2.0
 40
2.0
 40
3.0
 40
3.0
 40
3.0
 40
4.0
 40
4.0
 40
4.0
 40
5.0
 40
5.0
 40
5.0
 40
6.0
 40
6.0
 40
6.0
 40
7.0
 40
7.0
 40
7.0
 40
7.0
 10
113.1875786392378
 20
-149.3069932352427
 10
113.1875786392378
 20
-149.3069932352427
 10
113.1875786392378
 20
-148.2024956226716
 10
113.1875786392378
 20
-148.2024956226716
 10
113.1875786392378
 20
-148.2024956226716
 10
112.8575384917509
 20
-148.2024956226716
 10
112.8575384917509
 20
-148.2024956226716
 10
112.8575384917509
 20
-148.2024956226716
 10
112.8575384917509
 20
-148.0543565168058
 10
112.8575384917509
 20
-148.0543565168058
 10
113.189645696529
 20
-148.0397148609935
 10
113.2361544855798
 20
-147.8767618445412
 10
113.265782306753
 20
-147.7625569292052
 10
113.265782306753
 20
-147.7625569292052
 10
113.4118543553276
 20
-147.7625569292052
 10
113.4118543553276
 20
-147.7625569292052
 10
113.4118543553276
 20
-147.7625569292052
 10
113.4118543553276
 20
-149.3069932352427
 10
113.4118543553276
 20
-149.3069932352427
 10
113.4118543553276
 20
-149.3069932352427
 10
113.1875786392378
 20
-149.3069932352427
 10
113.1875786392378
 20
-149.3069932352427
 97
        0
 97
        1
330
100
 75
     2
 76
     1
 98
        1
 10
0.0
 20
0.0
450
        0
451
        0
460
0.0
461
0.0
452
        0
462
0.0
453
        0
470

  0
ENDBLK
  5
FF
330
FC
100
AcDbEntity
  8
0
100
AcDbBlockEnd
  0
BLOCK
  5
104
330
102
100
AcDbEntity
  8
0
100
AcDbBlockBegin
  2
Block_10
 70
     0
 10
0.0
 20
0.0
 30
0.0
  3
Block_10
  1

  0
SPLINE
  5
106
330
102
100
AcDbEntity
  8
レイヤー 1
 62
   250
420
  2299925
370
     9
100
AcDbSpline
210
0.0
220
0.0
230
1.0
 70
     8
 71
     3
 72
    26
 73
    22
 74
     0
 42
0.0000000001
 43
0.0000000001
 40
0.0
 40
0.0
 40
0.0
 40
0.0
 40
1.0
 40
1.0
 40
1.0
 40
2.0
 40
2.0
 40
2.0
 40
3.0
 40
3.0
 40
3.0
 40
4.0
 40
4.0
 40
4.0
 40
5.0
 40
5.0
 40
5.0
 40
6.0
 40
6.0
 40
6.0
 40
7.0
 40
7.0
 40
7.0
 40
7.0
 10
128.3193807246154
 20
-147.3908065818484
 30
0.0
 10
128.3193807246154
 20
-147.3908065818484
 30
0.0
 10
119.7273370549278
 20
-150.4135476922029
 30
0.0
 10
119.7273370549278
 20
-150.4135476922029
 30
0.0
 10
119.7273370549278
 20
-150.4135476922029
 30
0.0
 10
118.3589473676161
 20
-150.6795068588042
 30
0.0
 10
118.8722390211876
 20
-151.135613247578
 30
0.0
 10
118.8722390211876
 20
-151.135613247578
 30
0.0
 10
119.1761217912127
 20
-151.325795747531
 30
0.0
 10
119.7087103887364
 20
-151.5352399141458
 30
0.0
 10
119.7087103887364
 20
-151.5352399141458
 30
0.0
 10
124.7075713723159
 20
-153.5533757469739
 30
0.0
 10
124.7075713723159
 20
-153.5533757469739
 30
0.0
 10
124.7075713723159
 20
-153.5533757469739
 30
0.0
 10
124.7075713723159
 20
-156.6284690795392
 30
0.0
 10
124.7075713723159
 20
-156.6284690795392
 30
0.0
 10
124.7075713723159
 20
-156.6284690795392
 30
0.0
 10
127.3499474160144
 20
-157.9024907458866
 30
0.0
 10
127.3499474160144
 20
-157.9024907458866
 30
0.0
 10
127.3499474160144
 20
-157.9024907458866
 30
0.0
 10
137.5329482673355
 20
-153.4989774136539
 30
0.0
 10
137.5329482673355
 20
-153.4989774136539
 30
0.0
  0
LINE
  5
107
330
102
100
AcDbEntity
  8
レイヤー 1
 62
   250
420
  2299925
370
     9
100
AcDbLine
 10
126.8559174286181
 20
-154.0529443579609
 30
0.0
 11
137.0389182799393
 21
-150.0524796367378
 31
0.0
  0
SPLINE
  5
108
330
102
100
AcDbEntity
  8
レイヤー 1
 62
   250
420
  2299925
370
     9
100
AcDbSpline
210
0.0
220
0.0
230
1.0
 70
     8
 71
     3
 72
    26
 73
    22
 74
     0
 42
0.0000000001
 43
0.0000000001
 40
0.0
 40
0.0
 40
0.0
 40
0.0
 40
1.0
 40
1.0
 40
1.0
 40
2.0
 40
2.0
 40
2.0
 40
3.0
 40
3.0
 40
3.0
 40
4.0
 40
4.0
 40
4.0
 40
5.0
 40
5.0
 40
5.0
 40
6.0
 40
6.0
 40
6.0
 40
7.0
 40
7.0
 40
7.0
 40
7.0
 10
128.4137840555403
 20
-147.5616921373613
 30
0.0
 10
128.4137840555403
 20
-147.5616921373613
 30
0.0
 10
119.5185631713652
 20
-150.6795068588042
 30
0.0
 10
119.5185631713652
 20
-150.6795068588042
 30
0.0
 10
119.5185631713652
 20
-150.6795068588042
 30
0.0
 10
119.0438301279211
 20
-150.7552835254512
 30
0.0
 10
119.0817184602878
 20
-150.9261690809645
 30
0.0
 10
119.0817184602878
 20
-150.9261690809645
 30
0.0
 10
119.0624215163357
 20
-151.002651303167
 30
0.0
 10
119.3669745641214
 20
-151.0977249142551
 30
0.0
 10
119.3669745641214
 20
-151.0977249142551
 30
0.0
 10
125.0493071969308
 20
-153.3404743581379
 30
0.0
 10
125.0493071969308
 20
-153.3404743581379
 30
0.0
 10
125.0493071969308
 20
-153.3404743581379
 30
0.0
 10
125.0493071969308
 20
-156.3060301907306
 30
0.0
 10
125.0493071969308
 20
-156.3060301907306
 30
0.0
 10
125.0493071969308
 20
-156.3060301907306
 30
0.0
 10
126.8559174286181
 20
-157.1610929682948
 30
0.0
 10
126.8559174286181
 20
-157.1610929682948
 30
0.0
 10
126.8559174286181
 20
-157.1610929682948
 30
0.0
 10
126.8559174286181
 20
-154.0529443579609
 30
0.0
 10
126.8559174286181
 20
-154.0529443579609
 30
0.0
  0
LINE
  5
109
330
102
100
AcDbEntity
  8
レイヤー 1
 62
   250
420
  2299925
370
     9
100
AcDbLine
 10
134.364157237067
 20
-149.6149646368472
 30
0.0
 11
125.0493071969308
 21
-153.3404743581379
 31
0.0
  0
LINE
  5
10A
330
102
100
AcDbEntity
  8
レイヤー 1
 62
   250
420
  2299925
370
     9
100
AcDbLine
 10
127.3499474160144
 20
-157.9024907458866
 30
0.0
 11
127.3499474160144
 21
-154.24792463569
 31
0.0
  0
LINE
  5
10B
330
102
100
AcDbEntity
  8
レイヤー 1
 62
   250
420
  2299925
370
     9
100
AcDbLine
 10
125.0493071969308
 20
-156.3060301907306
 30
0.0
 11
126.8559174286181
 21
-155.6542026908929
 31
0.0
  0
SPLINE
  5
10C
330
102
100
AcDbEntity
  8
レイヤー 1
 62
   250
420
  2299925
370
     9
100
AcDbSpline
210
0.0
220
0.0
230
1.0
 70
     9
 71
     3
 72
    17
 73
    13
 74
     0
 42
0.0000000001
 43
0.0000000001
 40
0.0
 40
0.0
 40
0.0
 40
0.0
 40
1.0
 40
1.0
 40
1.0
 40
2.0
 40
2.0
 40
2.0
 40
3.0
 40
3.0
 40
3.0
 40
4.0
 40
4.0
 40
4.0
 40
4.0
 10
131.6439231397993
 20
-149.3958543591241
 30
0.0
 10
131.6439231397993
 20
-149.6308043590657
 30
0.0
 10
131.3152400926291
 20
-149.8216571367962
 30
0.0
 10
130.9107803807255
 20
-149.8216571367962
 30
0.0
 10
130.5042779309233
 20
-149.8216571367962
 30
0.0
 10
130.177002621668
 20
-149.6308043590657
 30
0.0
 10
130.177002621668
 20
-149.3958543591241
 30
0.0
 10
130.177002621668
 20
-149.1609043591837
 30
0.0
 10
130.5042779309233
 20
-148.9707218592306
 30
0.0
 10
130.9107803807255
 20
-148.9707218592306
 30
0.0
 10
131.3152400926291
 20
-148.9707218592306
 30
0.0
 10
131.6439231397993
 20
-149.1609043591837
 30
0.0
 10
131.6439231397993
 20
-149.3958543591241
 30
0.0
  0
SPLINE
  5
10D
330
102
100
AcDbEntity
  8
レイヤー 1
 62
   250
420
  2299925
370
     9
100
AcDbSpline
210
0.0
220
0.0
230
1.0
 70
     8
 71
     3
 72
    11
 73
     7
 74
     0
 42
0.0000000001
 43
0.0000000001
 40
0.0
 40
0.0
 40
0.0
 40
0.0
 40
1.0
 40
1.0
 40
1.0
 40
2.0
 40
2.0
 40
2.0
 40
2.0
 10
130.3044612295273
 20
-149.6301340812883
 30
0.0
 10
130.3044612295273
 20
-149.6301340812883
 30
0.0
 10
130.2824126189787
 20
-149.1188532480827
 30
0.0
 10
131.1120048200363
 20
-149.1622801925166
 30
0.0
 10
131.1120048200363
 20
-149.1622801925166
 30
0.0
 10
131.6012017520003
 20
-149.2256743591676
 30
0.0
 10
131.516429254163
 20
-149.6087557479601
 30
0.0
  0
SPLINE
  5
10E
330
102
100
AcDbEntity
  8
レイヤー 1
 62
   250
420
  2299925
370
     9
100
AcDbSpline
210
0.0
220
0.0
230
1.0
 70
     9
 71
     3
 72
    17
 73
    13
 74
     0
 42
0.0000000001
 43
0.0000000001
 40
0.0
 40
0.0
 40
0.0
 40
0.0
 40
1.0
 40
1.0
 40
1.0
 40
2.0
 40
2.0
 40
2.0
 40
3.0
 40
3.0
 40
3.0
 40
4.0
 40
4.0
 40
4.0
 40
4.0
 10
131.4075620347182
 20
-148.31547241495
 30
0.0
 10
131.4075620347182
 20
-148.5504224148917
 30
0.0
 10
131.078914265325
 20
-148.7412751926215
 30
0.0
 10
130.6744545534214
 20
-148.7412751926215
 30
0.0
 10
130.2686223754262
 20
-148.7412751926215
 30
0.0
 10
129.9406415165869
 20
-148.5504224148917
 30
0.0
 10
129.9406415165869
 20
-148.31547241495
 30
0.0
 10
129.9406415165869
 20
-148.080522415009
 30
0.0
 10
130.2686223754262
 20
-147.8896696372786
 30
0.0
 10
130.6744545534214
 20
-147.8896696372786
 30
0.0
 10
131.078914265325
 20
-147.8896696372786
 30
0.0
 10
131.4075620347182
 20
-148.080522415009
 30
0.0
 10
131.4075620347182
 20
-148.31547241495
 30
0.0
  0
SPLINE
  5
10F
330
102
100
AcDbEntity
  8
レイヤー 1
 62
   250
420
  2299925
370
     9
100
AcDbSpline
210
0.0
220
0.0
230
1.0
 70
     8
 71
     3
 72
    11
 73
     7
 74
     0
 42
0.0000000001
 43
0.0000000001
 40
0.0
 40
0.0
 40
0.0
 40
0.0
 40
1.0
 40
1.0
 40
1.0
 40
2.0
 40
2.0
 40
2.0
 40
2.0
 10
130.0681354022232
 20
-148.5490465815588
 30
0.0
 10
130.0681354022232
 20
-148.5490465815588
 30
0.0
 10
130.0467570694352
 20
-148.0384713039081
 30
0.0
 10
130.8763492704928
 20
-148.0818982483419
 30
0.0
 10
130.8763492704928
 20
-148.0818982483419
 30
0.0
 10
131.3648759246961
 20
-148.1445868594374
 30
0.0
 10
131.2801034268589
 20
-148.5283738037861
 30
0.0
  0
SPLINE
  5
110
330
102
100
AcDbEntity
  8
レイヤー 1
 62
   250
420
  2299925
370
     9
100
AcDbSpline
210
0.0
220
0.0
230
1.0
 70
     9
 71
     3
 72
    17
 73
    13
 74
     0
 42
0.0000000001
 43
0.0000000001
 40
0.0
 40
0.0
 40
0.0
 40
0.0
 40
1.0
 40
1.0
 40
1.0
 40
2.0
 40
2.0
 40
2.0
 40
3.0
 40
3.0
 40
3.0
 40
4.0
 40
4.0
 40
4.0
 40
4.0
 10
121.7509761699671
 20
-150.915127136522
 30
0.0
 10
121.7509761699671
 20
-151.1500771364636
 30
0.0
 10
121.4223284005739
 20
-151.3409651919722
 30
0.0
 10
121.0171631331327
 20
-151.3409651919722
 30
0.0
 10
120.6120362667293
 20
-151.3409651919722
 30
0.0
 10
120.2833500962983
 20
-151.1500771364636
 30
0.0
 10
120.2833500962983
 20
-150.915127136522
 30
0.0
 10
120.2833500962983
 20
-150.6801771365816
 30
0.0
 10
120.6120362667293
 20
-150.4893243588512
 30
0.0
 10
121.0171631331327
 20
-150.4893243588512
 30
0.0
 10
121.4223284005739
 20
-150.4893243588512
 30
0.0
 10
121.7509761699671
 20
-150.6801771365816
 30
0.0
 10
121.7509761699671
 20
-150.915127136522
 30
0.0
  0
SPLINE
  5
111
330
102
100
AcDbEntity
  8
レイヤー 1
 62
   250
420
  2299925
370
     9
100
AcDbSpline
210
0.0
220
0.0
230
1.0
 70
     8
 71
     3
 72
    11
 73
     7
 74
     0
 42
0.0000000001
 43
0.0000000001
 40
0.0
 40
0.0
 40
0.0
 40
0.0
 40
1.0
 40
1.0
 40
1.0
 40
2.0
 40
2.0
 40
2.0
 40
2.0
 10
120.4115142596952
 20
-151.1494068586863
 30
0.0
 10
120.4115142596952
 20
-151.1494068586863
 30
0.0
 10
120.3894656491466
 20
-150.6381613032588
 30
0.0
 10
121.2190578502042
 20
-150.6815529699145
 30
0.0
 10
121.2190578502042
 20
-150.6815529699145
 30
0.0
 10
121.7082547821682
 20
-150.7449471365655
 30
0.0
 10
121.6235175621078
 20
-151.128028525358
 30
0.0
  0
SPLINE
  5
112
330
102
100
AcDbEntity
  8
レイヤー 1
 62
   250
420
  2299925
370
     9
100
AcDbSpline
210
0.0
220
0.0
230
1.0
 70
     9
 71
     3
 72
    17
 73
    13
 74
     0
 42
0.0000000001
 43
0.0000000001
 40
0.0
 40
0.0
 40
0.0
 40
0.0
 40
1.0
 40
1.0
 40
1.0
 40
2.0
 40
2.0
 40
2.0
 40
3.0
 40
3.0
 40
3.0
 40
4.0
 40
4.0
 40
4.0
 40
4.0
 10
129.449398473564
 20
-150.4762363032984
 30
0.0
 10
129.449398473564
 20
-150.7111863032401
 30
0.0
 10
129.1193395930956
 20
-150.9020390809705
 30
0.0
 10
128.7148798811921
 20
-150.9020390809705
 30
0.0
 10
128.3104554470653
 20
-150.9020390809705
 30
0.0
 10
127.9817723998952
 20
-150.7111863032401
 30
0.0
 10
127.9817723998952
 20
-150.4762363032984
 30
0.0
 10
127.9817723998952
 20
-150.2419565811354
 30
0.0
 10
128.3104554470653
 20
-150.051103803405
 30
0.0
 10
128.7148798811921
 20
-150.051103803405
 30
0.0
 10
129.1193395930956
 20
-150.051103803405
 30
0.0
 10
129.449398473564
 20
-150.2419565811354
 30
0.0
 10
129.449398473564
 20
-150.4762363032984
 30
0.0
  0
SPLINE
  5
113
330
102
100
AcDbEntity
  8
レイヤー 1
 62
   250
420
  2299925
370
     9
100
AcDbSpline
210
0.0
220
0.0
230
1.0
 70
     8
 71
     3
 72
    11
 73
     7
 74
     0
 42
0.0000000001
 43
0.0000000001
 40
0.0
 40
0.0
 40
0.0
 40
0.0
 40
1.0
 40
1.0
 40
1.0
 40
2.0
 40
2.0
 40
2.0
 40
2.0
 10
128.1092310077545
 20
-150.7105160254627
 30
0.0
 10
128.1092310077545
 20
-150.7105160254627
 30
0.0
 10
128.0878879527435
 20
-150.1992351922571
 30
0.0
 10
128.9174834868757
 20
-150.2426621366909
 30
0.0
 10
128.9174834868757
 20
-150.2426621366909
 30
0.0
 10
129.4066770857651
 20
-150.306056303342
 30
0.0
 10
129.3212343101671
 20
-150.6891376921345
 30
0.0
  0
SPLINE
  5
114
330
102
100
AcDbEntity
  8
レイヤー 1
 62
   250
420
  2299925
370
     9
100
AcDbSpline
210
0.0
220
0.0
230
1.0
 70
     9
 71
     3
 72
    17
 73
    13
 74
     0
 42
0.0000000001
 43
0.0000000001
 40
0.0
 40
0.0
 40
0.0
 40
0.0
 40
1.0
 40
1.0
 40
1.0
 40
2.0
 40
2.0
 40
2.0
 40
3.0
 40
3.0
 40
3.0
 40
4.0
 40
4.0
 40
4.0
 40
4.0
 10
129.2123670907223
 20
-149.3958543591241
 30
0.0
 10
129.2123670907223
 20
-149.6308043590657
 30
0.0
 10
128.883719321329
 20
-149.8216571367962
 30
0.0
 10
128.4785540538879
 20
-149.8216571367962
 30
0.0
 10
128.0740943419843
 20
-149.8216571367962
 30
0.0
 10
127.7447410170535
 20
-149.6308043590657
 30
0.0
 10
127.7447410170535
 20
-149.3958543591241
 30
0.0
 10
127.7447410170535
 20
-149.1609043591837
 30
0.0
 10
128.0740943419843
 20
-148.9707218592306
 30
0.0
 10
128.4785540538879
 20
-148.9707218592306
 30
0.0
 10
128.883719321329
 20
-148.9707218592306
 30
0.0
 10
129.2123670907223
 20
-149.1609043591837
 30
0.0
 10
129.2123670907223
 20
-149.3958543591241
 30
0.0
  0
SPLINE
  5
115
330
102
100
AcDbEntity
  8
レイヤー 1
 62
   250
420
  2299925
370
     9
100
AcDbSpline
210
0.0
220
0.0
230
1.0
 70
     8
 71
     3
 72
    11
 73
     7
 74
     0
 42
0.0000000001
 43
0.0000000001
 40
0.0
 40
0.0
 40
0.0
 40
0.0
 40
1.0
 40
1.0
 40
1.0
 40
2.0
 40
2.0
 40
2.0
 40
2.0
 10
127.8736140426913
 20
-149.6301340812883
 30
0.0
 10
127.8736140426913
 20
-149.6301340812883
 30
0.0
 10
127.8515621254393
 20
-149.1188532480827
 30
0.0
 10
128.6804487709593
 20
-149.1622801925166
 30
0.0
 10
128.6804487709593
 20
-149.1622801925166
 30
0.0
 10
129.1696457029233
 20
-149.2256743591676
 30
0.0
 10
129.084908482863
 20
-149.6087557479601
 30
0.0
  0
SPLINE
  5
116
330
102
100
AcDbEntity
  8
レイヤー 1
 62
   250
420
  2299925
370
     9
100
AcDbSpline
210
0.0
220
0.0
230
1.0
 70
     9
 71
     3
 72
    17
 73
    13
 74
     0
 42
0.0000000001
 43
0.0000000001
 40
0.0
 40
0.0
 40
0.0
 40
0.0
 40
1.0
 40
1.0
 40
1.0
 40
2.0
 40
2.0
 40
2.0
 40
3.0
 40
3.0
 40
3.0
 40
4.0
 40
4.0
 40
4.0
 40
4.0
 10
128.6728640489306
 20
-148.4505157482501
 30
0.0
 10
128.6728640489306
 20
-148.685465748191
 30
0.0
 10
128.3435140425746
 20
-148.8763185259212
 30
0.0
 10
127.9390510120962
 20
-148.8763185259212
 30
0.0
 10
127.5339210224319
 20
-148.8763185259212
 30
0.0
 10
127.2045676975011
 20
-148.685465748191
 30
0.0
 10
127.2045676975011
 20
-148.4505157482501
 30
0.0
 10
127.2045676975011
 20
-148.2155657483084
 30
0.0
 10
127.5339210224319
 20
-148.025383248356
 30
0.0
 10
127.9390510120962
 20
-148.025383248356
 30
0.0
 10
128.3435140425746
 20
-148.025383248356
 30
0.0
 10
128.6728640489306
 20
-148.2155657483084
 30
0.0
 10
128.6728640489306
 20
-148.4505157482501
 30
0.0
  0
SPLINE
  5
117
330
102
100
AcDbEntity
  8
レイヤー 1
 62
   250
420
  2299925
370
     9
100
AcDbSpline
210
0.0
220
0.0
230
1.0
 70
     8
 71
     3
 72
    11
 73
     7
 74
     0
 42
0.0000000001
 43
0.0000000001
 40
0.0
 40
0.0
 40
0.0
 40
0.0
 40
1.0
 40
1.0
 40
1.0
 40
2.0
 40
2.0
 40
2.0
 40
2.0
 10
127.332731860898
 20
-148.6847954704137
 30
0.0
 10
127.332731860898
 20
-148.6847954704137
 30
0.0
 10
127.3120590836477
 20
-148.1735146372084
 30
0.0
 10
128.1402401736301
 20
-148.216941581641
 30
0.0
 10
128.1402401736301
 20
-148.216941581641
 30
0.0
 10
128.6294371055941
 20
-148.2803357482923
 30
0.0
 10
128.5446998855337
 20
-148.6634171370854
 30
0.0
  0
SPLINE
  5
118
330
102
100
AcDbEntity
  8
レイヤー 1
 62
   250
420
  2299925
370
     9
100
AcDbSpline
210
0.0
220
0.0
230
1.0
 70
    11
 71
     3
 72
    17
 73
    13
 74
     0
 42
0.0000000001
 43
0.0000000001
 40
0.0
 40
0.0
 40
0.0
 40
0.0
 40
1.0
 40
1.0
 40
1.0
 40
2.0
 40
2.0
 40
2.0
 40
3.0
 40
3.0
 40
3.0
 40
4.0
 40
4.0
 40
4.0
 40
4.0
 10
127.1528890428723
 20
-151.286531580874
 30
0.0
 10
127.1528890428723
 20
-151.5214815808157
 30
0.0
 10
126.8235324294443
 20
-151.7123343585461
 30
0.0
 10
126.4190727175408
 20
-151.7123343585461
 30
0.0
 10
126.0132371723389
 20
-151.7123343585461
 30
0.0
 10
125.6859652362439
 20
-151.5214815808157
 30
0.0
 10
125.6859652362439
 20
-151.286531580874
 30
0.0
 10
125.6859652362439
 20
-151.0515815809324
 30
0.0
 10
126.0132371723389
 20
-150.8613990809806
 30
0.0
 10
126.4190727175408
 20
-150.8613990809806
 30
0.0
 10
126.8235324294443
 20
-150.8613990809806
 30
0.0
 10
127.1528890428723
 20
-151.0515815809324
 30
0.0
 10
127.1528890428723
 20
-151.286531580874
 30
0.0
  0
SPLINE
  5
119
330
102
100
AcDbEntity
  8
レイヤー 1
 62
   250
420
  2299925
370
     9
100
AcDbSpline
210
0.0
220
0.0
230
1.0
 70
     8
 71
     3
 72
    11
 73
     7
 74
     0
 42
0.0000000001
 43
0.0000000001
 40
0.0
 40
0.0
 40
0.0
 40
0.0
 40
1.0
 40
1.0
 40
1.0
 40
2.0
 40
2.0
 40
2.0
 40
2.0
 10
125.8134238441033
 20
-151.5207760252601
 30
0.0
 10
125.8134238441033
 20
-151.5207760252601
 30
0.0
 10
125.7913752335547
 20
-151.0095304698327
 30
0.0
 10
126.6216377123729
 20
-151.0529574142653
 30
0.0
 10
126.6216377123729
 20
-151.0529574142653
 30
0.0
 10
127.1101643665762
 20
-151.1163163031394
 30
0.0
 10
127.0247215909783
 20
-151.4994329697101
 30
0.0
  0
SPLINE
  5
11A
330
102
100
AcDbEntity
  8
レイヤー 1
 62
   250
420
  2299925
370
     9
100
AcDbSpline
210
0.0
220
0.0
230
1.0
 70
     9
 71
     3
 72
    17
 73
    13
 74
     0
 42
0.0000000001
 43
0.0000000001
 40
0.0
 40
0.0
 40
0.0
 40
0.0
 40
1.0
 40
1.0
 40
1.0
 40
2.0
 40
2.0
 40
2.0
 40
3.0
 40
3.0
 40
3.0
 40
4.0
 40
4.0
 40
4.0
 40
4.0
 10
126.9158543715334
 20
-150.2061496366997
 30
0.0
 10
126.9158543715334
 20
-150.4410996366413
 30
0.0
 10
126.5872066021402
 20
-150.6319524143718
 30
0.0
 10
126.1827501542259
 20
-150.6319524143718
 30
0.0
 10
125.7776169005723
 20
-150.6319524143718
 30
0.0
 10
125.4489338534022
 20
-150.4410996366413
 30
0.0
 10
125.4489338534022
 20
-150.2061496366997
 30
0.0
 10
125.4489338534022
 20
-149.9718699145367
 30
0.0
 10
125.7776169005723
 20
-149.7803115812507
 30
0.0
 10
126.1827501542259
 20
-149.7803115812507
 30
0.0
 10
126.5872066021402
 20
-149.7803115812507
 30
0.0
 10
126.9158543715334
 20
-149.9718699145367
 30
0.0
 10
126.9158543715334
 20
-150.2061496366997
 30
0.0
  0
SPLINE
  5
11B
330
102
100
AcDbEntity
  8
レイヤー 1
 62
   250
420
  2299925
370
     9
100
AcDbSpline
210
0.0
220
0.0
230
1.0
 70
     8
 71
     3
 72
    11
 73
     7
 74
     0
 42
0.0000000001
 43
0.0000000001
 40
0.0
 40
0.0
 40
0.0
 40
0.0
 40
1.0
 40
1.0
 40
1.0
 40
2.0
 40
2.0
 40
2.0
 40
2.0
 10
125.5770980167991
 20
-150.4397238033084
 30
0.0
 10
125.5770980167991
 20
-150.4397238033084
 30
0.0
 10
125.5557549617881
 20
-149.9291485256584
 30
0.0
 10
126.3846416073081
 20
-149.9725754700909
 30
0.0
 10
126.3846416073081
 20
-149.9725754700909
 30
0.0
 10
126.8738418207194
 20
-150.0359343589651
 30
0.0
 10
126.7883957636741
 20
-150.4190510255357
 30
0.0
  0
SPLINE
  5
11C
330
102
100
AcDbEntity
  8
レイヤー 1
 62
   250
420
  2299925
370
     9
100
AcDbSpline
210
0.0
220
0.0
230
1.0
 70
     9
 71
     3
 72
    17
 73
    13
 74
     0
 42
0.0000000001
 43
0.0000000001
 40
0.0
 40
0.0
 40
0.0
 40
0.0
 40
1.0
 40
1.0
 40
1.0
 40
2.0
 40
2.0
 40
2.0
 40
3.0
 40
3.0
 40
3.0
 40
4.0
 40
4.0
 40
4.0
 40
4.0
 10
126.3763513297418
 20
-149.2608110258247
 30
0.0
 10
126.3763513297418
 20
-149.4957610257664
 30
0.0
 10
126.046998004811
 20
-149.6859435257181
 30
0.0
 10
125.6432438484449
 20
-149.6859435257181
 30
0.0
 10
125.2374083032431
 20
-149.6859435257181
 30
0.0
 10
124.9087605338498
 20
-149.4957610257664
 30
0.0
 10
124.9087605338498
 20
-149.2608110258247
 30
0.0
 10
124.9087605338498
 20
-149.0258610258843
 30
0.0
 10
125.2374083032431
 20
-148.8356785259316
 30
0.0
 10
125.6432438484449
 20
-148.8356785259316
 30
0.0
 10
126.046998004811
 20
-148.8356785259316
 30
0.0
 10
126.3763513297418
 20
-149.0258610258843
 30
0.0
 10
126.3763513297418
 20
-149.2608110258247
 30
0.0
  0
SPLINE
  5
11D
330
102
100
AcDbEntity
  8
レイヤー 1
 62
   250
420
  2299925
370
     9
100
AcDbSpline
210
0.0
220
0.0
230
1.0
 70
     8
 71
     3
 72
    11
 73
     7
 74
     0
 42
0.0000000001
 43
0.0000000001
 40
0.0
 40
0.0
 40
0.0
 40
0.0
 40
1.0
 40
1.0
 40
1.0
 40
2.0
 40
2.0
 40
2.0
 40
2.0
 10
125.0369279322903
 20
-149.4943851924334
 30
0.0
 10
125.0369279322903
 20
-149.4943851924334
 30
0.0
 10
125.0155463644588
 20
-148.9838099147834
 30
0.0
 10
125.8437627322181
 20
-149.0272368592172
 30
0.0
 10
125.8437627322181
 20
-149.0272368592172
 30
0.0
 10
126.3336299419428
 20
-149.090631025867
 30
0.0
 10
126.2488927218824
 20
-149.4737124146607
 30
0.0
  0
SPLINE
  5
11E
330
102
100
AcDbEntity
  8
レイヤー 1
 62
   250
420
  2299925
370
     9
100
AcDbSpline
210
0.0
220
0.0
230
1.0
 70
     9
 71
     3
 72
    17
 73
    13
 74
     0
 42
0.0000000001
 43
0.0000000001
 40
0.0
 40
0.0
 40
0.0
 40
0.0
 40
1.0
 40
1.0
 40
1.0
 40
2.0
 40
2.0
 40
2.0
 40
3.0
 40
3.0
 40
3.0
 40
4.0
 40
4.0
 40
4.0
 40
4.0
 10
124.7213297052982
 20
-152.097497136227
 30
0.0
 10
124.7213297052982
 20
-152.33177685839
 30
0.0
 10
124.392681935905
 20
-152.5226296361205
 30
0.0
 10
123.9875166684638
 20
-152.5226296361205
 30
0.0
 10
123.5823866787995
 20
-152.5226296361205
 30
0.0
 10
123.2537389094062
 20
-152.33177685839
 30
0.0
 10
123.2537389094062
 20
-152.097497136227
 30
0.0
 10
123.2537389094062
 20
-151.8625471362854
 30
0.0
 10
123.5823866787995
 20
-151.6716943585562
 30
0.0
 10
123.9875166684638
 20
-151.6716943585562
 30
0.0
 10
124.392681935905
 20
-151.6716943585562
 30
0.0
 10
124.7213297052982
 20
-151.8625471362854
 30
0.0
 10
124.7213297052982
 20
-152.097497136227
 30
0.0
  0
SPLINE
  5
11F
330
102
100
AcDbEntity
  8
レイヤー 1
 62
   250
420
  2299925
370
     9
100
AcDbSpline
210
0.0
220
0.0
230
1.0
 70
     8
 71
     3
 72
    11
 73
     7
 74
     0
 42
0.0000000001
 43
0.0000000001
 40
0.0
 40
0.0
 40
0.0
 40
0.0
 40
1.0
 40
1.0
 40
1.0
 40
2.0
 40
2.0
 40
2.0
 40
2.0
 10
123.3818677950263
 20
-152.3310713028358
 30
0.0
 10
123.3818677950263
 20
-152.3310713028358
 30
0.0
 10
123.3598223771537
 20
-151.8204960251857
 30
0.0
 10
124.1901169410728
 20
-151.8632174140627
 30
0.0
 10
124.1901169410728
 20
-151.8632174140627
 30
0.0
 10
124.6786083174993
 20
-151.9266115807138
 30
0.0
 10
124.5945445990673
 20
-152.310398525063
 30
0.0
  0
SPLINE
  5
120
330
102
100
AcDbEntity
  8
レイヤー 1
 62
   250
420
  2299925
370
     9
100
AcDbSpline
210
0.0
220
0.0
230
1.0
 70
     9
 71
     3
 72
    17
 73
    13
 74
     0
 42
0.0000000001
 43
0.0000000001
 40
0.0
 40
0.0
 40
0.0
 40
0.0
 40
1.0
 40
1.0
 40
1.0
 40
2.0
 40
2.0
 40
2.0
 40
3.0
 40
3.0
 40
3.0
 40
4.0
 40
4.0
 40
4.0
 40
4.0
 10
124.4857094335316
 20
-151.0164096364972
 30
0.0
 10
124.4857094335316
 20
-151.2513949142157
 30
0.0
 10
124.1556505530633
 20
-151.4422476919461
 30
0.0
 10
123.7511908411596
 20
-151.4422476919461
 30
0.0
 10
123.3460640438236
 20
-151.4422476919461
 30
0.0
 10
123.0180833598628
 20
-151.2513949142157
 30
0.0
 10
123.0180833598628
 20
-151.0164096364972
 30
0.0
 10
123.0180833598628
 20
-150.7814596365555
 30
0.0
 10
123.3460640438236
 20
-150.5913124143819
 30
0.0
 10
123.7511908411596
 20
-150.5913124143819
 30
0.0
 10
124.1556505530633
 20
-150.5913124143819
 30
0.0
 10
124.4857094335316
 20
-150.7814596365555
 30
0.0
 10
124.4857094335316
 20
-151.0164096364972
 30
0.0
  0
SPLINE
  5
121
330
102
100
AcDbEntity
  8
レイヤー 1
 62
   250
420
  2299925
370
     9
100
AcDbSpline
210
0.0
220
0.0
230
1.0
 70
     8
 71
     3
 72
    11
 73
     7
 74
     0
 42
0.0000000001
 43
0.0000000001
 40
0.0
 40
0.0
 40
0.0
 40
0.0
 40
1.0
 40
1.0
 40
1.0
 40
2.0
 40
2.0
 40
2.0
 40
2.0
 10
123.1448716899615
 20
-151.2506893586614
 30
0.0
 10
123.1448716899615
 20
-151.2506893586614
 30
0.0
 10
123.1241989127111
 20
-150.7394438032327
 30
0.0
 10
123.9537558359918
 20
-150.7828354698884
 30
0.0
 10
123.9537558359918
 20
-150.7828354698884
 30
0.0
 10
124.4429880457327
 20
-150.8462296365394
 30
0.0
 10
124.3575452701347
 20
-151.2293463031101
 30
0.0
  0
SPLINE
  5
122
330
102
100
AcDbEntity
  8
レイヤー 1
 62
   250
420
  2299925
370
     9
100
AcDbSpline
210
0.0
220
0.0
230
1.0
 70
     9
 71
     3
 72
    17
 73
    13
 74
     0
 42
0.0000000001
 43
0.0000000001
 40
0.0
 40
0.0
 40
0.0
 40
0.0
 40
1.0
 40
1.0
 40
1.0
 40
2.0
 40
2.0
 40
2.0
 40
3.0
 40
3.0
 40
3.0
 40
4.0
 40
4.0
 40
4.0
 40
4.0
 10
123.9448305584417
 20
-150.0711063034003
 30
0.0
 10
123.9448305584417
 20
-150.306056303342
 30
0.0
 10
123.6161475112716
 20
-150.4969090810711
 30
0.0
 10
123.2116877993679
 20
-150.4969090810711
 30
0.0
 10
122.8058522541661
 20
-150.4969090810711
 30
0.0
 10
122.4778779329298
 20
-150.306056303342
 30
0.0
 10
122.4778779329298
 20
-150.0711063034003
 30
0.0
 10
122.4778779329298
 20
-149.8361210256818
 30
0.0
 10
122.8058522541661
 20
-149.6459738035069
 30
0.0
 10
123.2116877993679
 20
-149.6459738035069
 30
0.0
 10
123.6161475112716
 20
-149.6459738035069
 30
0.0
 10
123.9448305584417
 20
-149.8361210256818
 30
0.0
 10
123.9448305584417
 20
-150.0711063034003
 30
0.0
  0
SPLINE
  5
123
330
102
100
AcDbEntity
  8
レイヤー 1
 62
   250
420
  2299925
370
     9
100
AcDbSpline
210
0.0
220
0.0
230
1.0
 70
     8
 71
     3
 72
    11
 73
     7
 74
     0
 42
0.0000000001
 43
0.0000000001
 40
0.0
 40
0.0
 40
0.0
 40
0.0
 40
1.0
 40
1.0
 40
1.0
 40
2.0
 40
2.0
 40
2.0
 40
2.0
 10
122.6060389259305
 20
-150.3053507477864
 30
0.0
 10
122.6060389259305
 20
-150.3053507477864
 30
0.0
 10
122.5839903153818
 20
-149.794105192359
 30
0.0
 10
123.4135825164394
 20
-149.8374968590147
 30
0.0
 10
123.4135825164394
 20
-149.8374968590147
 30
0.0
 10
123.9027794484034
 20
-149.9008910256644
 30
0.0
 10
123.8173366728055
 20
-150.2840076922363
 30
0.0
  0
LINE
  5
124
330
102
100
AcDbEntity
  8
レイヤー 1
 62
   250
420
  2299925
370
     9
100
AcDbLine
 10
126.8552471508574
 20
-154.0529443579609
 30
0.0
 11
127.3499474160144
 21
-154.24792463569
 31
0.0
  0
LINE
  5
125
330
102
100
AcDbEntity
  8
レイヤー 1
 62
   250
420
  2299925
370
     9
100
AcDbLine
 10
127.3499474160144
 20
-154.24792463569
 30
0.0
 11
137.5329482673355
 21
-150.2474951922451
 31
0.0
  0
ENDBLK
  5
105
330
102
100
AcDbEntity
  8
0
100
AcDbBlockEnd
  0
BLOCK
  5
12A
330
128
100
AcDbEntity
  8
0
100
AcDbBlockBegin
  2
Block_11
 70
     0
 10
0.0
 20
0.0
 30
0.0
  3
Block_11
  1

  0
INSERT
  5
12D
330
128
100
AcDbEntity
  8
レイヤー 1
100
AcDbBlockReference
  2
Block_12
 10
0.0
 20
0.0
 30
0.0
  0
INSERT
  5
134
330
128
100
AcDbEntity
  8
レイヤー 1
100
AcDbBlockReference
  2
Block_13
 10
0.0
 20
0.0
 30
0.0
  0
ENDBLK
  5
12B
330
128
100
AcDbEntity
  8
0
100
AcDbBlockEnd
  0
BLOCK
  5
12E
330
12C
100
AcDbEntity
  8
0
100
AcDbBlockBegin
  2
Block_12
 70
     0
 10
0.0
 20
0.0
 30
0.0
  3
Block_12
  1

  0
LINE
  5
130
330
12C
100
AcDbEntity
  8
レイヤー 1
 62
    18
420
        0
370
     9
100
AcDbLine
 10
84.541692683795
 20
-146.9036557486368
 30
0.0
 11
85.35301099642987
 21
-147.4886318596016
 31
0.0
  0
LINE
  5
131
330
12C
100
AcDbEntity
  8
レイヤー 1
 62
    18
420
        0
370
     9
100
AcDbLine
 10
84.541692683795
 20
-146.9036557486368
 30
0.0
 11
87.11929872914589
 21
-150.0607699145133
 31
0.0
  0
LINE
  5
132
330
12C
100
AcDbEntity
  8
レイヤー 1
 62
    18
420
        0
370
     9
100
AcDbLine
 10
84.541692683795
 20
-146.9036557486368
 30
0.0
 11
84.9520085066603
 21
-147.8159390817419
 31
0.0
  0
ENDBLK
  5
12F
330
12C
100
AcDbEntity
  8
0
100
AcDbBlockEnd
  0
BLOCK
  5
135
330
133
100
AcDbEntity
  8
0
100
AcDbBlockBegin
  2
Block_13
 70
     0
 10
0.0
 20
0.0
 30
0.0
  3
Block_13
  1

  0
INSERT
  5
138
330
133
100
AcDbEntity
  8
レイヤー 1
100
AcDbBlockReference
  2
Block_14
 10
0.0
 20
0.0
 30
0.0
  0
ENDBLK
  5
136
330
133
100
AcDbEntity
  8
0
100
AcDbBlockEnd
  0
BLOCK
  5
139
330
137
100
AcDbEntity
  8
0
100
AcDbBlockBegin
  2
Block_14
 70
     0
 10
0.0
 20
0.0
 30
0.0
  3
Block_14
  1

  0
SPLINE
  5
13B
330
137
100
AcDbEntity
  8
レイヤー 1
100
AcDbSpline
210
0.0
220
0.0
230
1.0
 70
     9
 71
     3
 72
    17
 73
    13
 74
     0
 42
0.0000000001
 43
0.0000000001
 40
0.0
 40
0.0
 40
0.0
 40
0.0
 40
1.0
 40
1.0
 40
1.0
 40
2.0
 40
2.0
 40
2.0
 40
3.0
 40
3.0
 40
3.0
 40
4.0
 40
4.0
 40
4.0
 40
4.0
 10
88.78579506243898
 20
-150.5086425404978
 30
0.0
 10
88.76891409456126
 20
-150.5382703616709
 30
0.0
 10
88.71809893615381
 20
-150.6312879397727
 30
0.0
 10
88.70759139492379
 20
-150.6502359649416
 30
0.0
 10
88.89793292048386
 20
-150.7094916072879
 30
0.0
 10
88.91912025771814
 20
-150.7160372887098
 30
0.0
 10
88.99112275335985
 20
-150.7432535430433
 30
0.0
 10
89.04607202634959
 20
-150.6567816463635
 30
0.0
 10
89.06932642087502
 20
-150.5827120934307
 30
0.0
 10
89.08414033146161
 20
-150.5086425404978
 30
0.0
 10
89.08414033146161
 20
-150.5086425404978
 30
0.0
 10
88.78579506243898
 20
-150.5086425404978
 30
0.0
 10
88.78579506243898
 20
-150.5086425404978
 30
0.0
  0
SPLINE
  5
13C
330
137
100
AcDbEntity
  8
レイヤー 1
100
AcDbSpline
210
0.0
220
0.0
230
1.0
 70
    11
 71
     3
 72
    20
 73
    16
 74
     0
 42
0.0000000001
 43
0.0000000001
 40
0.0
 40
0.0
 40
0.0
 40
0.0
 40
1.0
 40
1.0
 40
1.0
 40
2.0
 40
2.0
 40
2.0
 40
3.0
 40
3.0
 40
3.0
 40
4.0
 40
4.0
 40
4.0
 40
5.0
 40
5.0
 40
5.0
 40
5.0
 10
88.72240530551037
 20
-149.6580484651896
 30
0.0
 10
88.72240530551037
 20
-149.6580484651896
 30
0.0
 10
88.69071042704607
 20
-149.6580484651896
 30
0.0
 10
88.69071042704607
 20
-149.6580484651896
 30
0.0
 10
88.73721921609694
 20
-149.7576117247134
 30
0.0
 10
88.76891409456126
 20
-149.8378824495197
 30
0.0
 10
88.80284828509095
 20
-149.9650064729254
 30
0.0
 10
88.80284828509095
 20
-149.9650064729254
 30
0.0
 10
89.01007077852874
 20
-149.9650064729254
 30
0.0
 10
89.01007077852874
 20
-149.9650064729254
 30
0.0
 10
89.04176565699303
 20
-149.8719888948237
 30
0.0
 10
89.06502005151848
 20
-149.7872395458865
 30
0.0
 10
89.08844670081817
 20
-149.6580484651896
 30
0.0
 10
89.08844670081817
 20
-149.6580484651896
 30
0.0
 10
88.72240530551037
 20
-149.6580484651896
 30
0.0
 10
88.72240530551037
 20
-149.6580484651896
 30
0.0
  0
SPLINE
  5
13D
330
137
100
AcDbEntity
  8
レイヤー 1
100
AcDbSpline
210
0.0
220
0.0
230
1.0
 70
     9
 71
     3
 72
   242
 73
   238
 74
     0
 42
0.0000000001
 43
0.0000000001
 40
0.0
 40
0.0
 40
0.0
 40
0.0
 40
1.0
 40
1.0
 40
1.0
 40
2.0
 40
2.0
 40
2.0
 40
3.0
 40
3.0
 40
3.0
 40
4.0
 40
4.0
 40
4.0
 40
5.0
 40
5.0
 40
5.0
 40
6.0
 40
6.0
 40
6.0
 40
7.0
 40
7.0
 40
7.0
 40
8.0
 40
8.0
 40
8.0
 40
9.0
 40
9.0
 40
9.0
 40
10.0
 40
10.0
 40
10.0
 40
11.0
 40
11.0
 40
11.0
 40
12.0
 40
12.0
 40
12.0
 40
13.0
 40
13.0
 40
13.0
 40
14.0
 40
14.0
 40
14.0
 40
15.0
 40
15.0
 40
15.0
 40
16.0
 40
16.0
 40
16.0
 40
17.0
 40
17.0
 40
17.0
 40
18.0
 40
18.0
 40
18.0
 40
19.0
 40
19.0
 40
19.0
 40
20.0
 40
20.0
 40
20.0
 40
21.0
 40
21.0
 40
21.0
 40
22.0
 40
22.0
 40
22.0
 40
23.0
 40
23.0
 40
23.0
 40
24.0
 40
24.0
 40
24.0
 40
25.0
 40
25.0
 40
25.0
 40
26.0
 40
26.0
 40
26.0
 40
27.0
 40
27.0
 40
27.0
 40
28.0
 40
28.0
 40
28.0
 40
29.0
 40
29.0
 40
29.0
 40
30.0
 40
30.0
 40
30.0
 40
31.0
 40
31.0
 40
31.0
 40
32.0
 40
32.0
 40
32.0
 40
33.0
 40
33.0
 40
33.0
 40
34.0
 40
34.0
 40
34.0
 40
35.0
 40
35.0
 40
35.0
 40
36.0
 40
36.0
 40
36.0
 40
37.0
 40
37.0
 40
37.0
 40
38.0
 40
38.0
 40
38.0
 40
39.0
 40
39.0
 40
39.0
 40
40.0
 40
40.0
 40
40.0
 40
41.0
 40
41.0
 40
41.0
 40
42.0
 40
42.0
 40
42.0
 40
43.0
 40
43.0
 40
43.0
 40
44.0
 40
44.0
 40
44.0
 40
45.0
 40
45.0
 40
45.0
 40
46.0
 40
46.0
 40
46.0
 40
47.0
 40
47.0
 40
47.0
 40
48.0
 40
48.0
 40
48.0
 40
49.0
 40
49.0
 40
49.0
 40
50.0
 40
50.0
 40
50.0
 40
51.0
 40
51.0
 40
51.0
 40
52.0
 40
52.0
 40
52.0
 40
53.0
 40
53.0
 40
53.0
 40
54.0
 40
54.0
 40
54.0
 40
55.0
 40
55.0
 40
55.0
 40
56.0
 40
56.0
 40
56.0
 40
57.0
 40
57.0
 40
57.0
 40
58.0
 40
58.0
 40
58.0
 40
59.0
 40
59.0
 40
59.0
 40
60.0
 40
60.0
 40
60.0
 40
61.0
 40
61.0
 40
61.0
 40
62.0
 40
62.0
 40
62.0
 40
63.0
 40
63.0
 40
63.0
 40
64.0
 40
64.0
 40
64.0
 40
65.0
 40
65.0
 40
65.0
 40
66.0
 40
66.0
 40
66.0
 40
67.0
 40
67.0
 40
67.0
 40
68.0
 40
68.0
 40
68.0
 40
69.0
 40
69.0
 40
69.0
 40
70.0
 40
70.0
 40
70.0
 40
71.0
 40
71.0
 40
71.0
 40
72.0
 40
72.0
 40
72.0
 40
73.0
 40
73.0
 40
73.0
 40
74.0
 40
74.0
 40
74.0
 40
75.0
 40
75.0
 40
75.0
 40
76.0
 40
76.0
 40
76.0
 40
77.0
 40
77.0
 40
77.0
 40
78.0
 40
78.0
 40
78.0
 40
79.0
 40
79.0
 40
79.0
 40
79.0
 10
89.35061846724568
 20
-150.1234808652469
 30
0.0
 10
89.35061846724568
 20
-150.1234808652469
 30
0.0
 10
89.09688718475704
 20
-150.1234808652469
 30
0.0
 10
89.09688718475704
 20
-150.1234808652469
 30
0.0
 10
89.09688718475704
 20
-150.1234808652469
 30
0.0
 10
88.81972925296869
 20
-150.1234808652469
 30
0.0
 10
88.81972925296869
 20
-150.1234808652469
 30
0.0
 10
88.81972925296869
 20
-150.1234808652469
 30
0.0
 10
88.94668102160014
 20
-150.1658555397155
 30
0.0
 10
88.94668102160014
 20
-150.1658555397155
 30
0.0
 10
88.95718856283016
 20
-150.1699896542977
 30
0.0
 10
88.96993541612557
 20
-150.1765353357197
 30
0.0
 10
88.96993541612557
 20
-150.1892821890152
 30
0.0
 10
88.96993541612557
 20
-150.2102972714752
 30
0.0
 10
88.93824053766127
 20
-150.2164984433486
 30
0.0
 10
88.91705320042699
 20
-150.2209770674794
 30
0.0
 10
88.90637340442273
 20
-150.2440592072306
 30
0.0
 10
88.87674558324958
 20
-150.3098605309989
 30
0.0
 10
88.85779755808069
 20
-150.3543022627586
 30
0.0
 10
88.85779755808069
 20
-150.3543022627586
 30
0.0
 10
89.12858206322132
 20
-150.3543022627586
 30
0.0
 10
89.12858206322132
 20
-150.3543022627586
 30
0.0
 10
89.21953258403192
 20
-150.3543022627586
 30
0.0
 10
89.41624753623969
 20
-150.3498236386278
 30
0.0
 10
89.55801321545772
 20
-150.3415554094632
 30
0.0
 10
89.55801321545772
 20
-150.3415554094632
 30
0.0
 10
89.55801321545772
 20
-150.5193223365021
 30
0.0
 10
89.55801321545772
 20
-150.5193223365021
 30
0.0
 10
89.47550317858599
 20
-150.5148437123713
 30
0.0
 10
89.45431584135169
 20
-150.5148437123713
 30
0.0
 10
89.27448185702166
 20
-150.510709597789
 30
0.0
 10
89.24278697855736
 20
-150.6650498755282
 30
0.0
 10
89.19834524679764
 20
-150.745665109883
 30
0.0
 10
89.15390351503791
 20
-150.8152560386851
 30
0.0
 10
89.27448185702166
 20
-150.8745116810314
 30
0.0
 10
89.38024628841883
 20
-150.9423800620908
 30
0.0
 10
89.48394366252484
 20
-151.0247178441882
 30
0.0
 10
89.48394366252484
 20
-151.0247178441882
 30
0.0
 10
89.36543237783226
 20
-151.1918049752229
 30
0.0
 10
89.36543237783226
 20
-151.1918049752229
 30
0.0
 10
89.34217798330683
 20
-151.172856950054
 30
0.0
 10
89.32960338478565
 20
-151.1642442113409
 30
0.0
 10
89.21746552674077
 20
-151.0798393719522
 30
0.0
 10
89.16871742562449
 20
-151.041598812066
 30
0.0
 10
89.10946178327819
 20
-151.0057698190194
 30
0.0
 10
89.02919105847187
 20
-150.9613280872597
 30
0.0
 10
88.81766219567753
 20
-151.1473632434631
 30
0.0
 10
88.61233450475664
 20
-151.1707898927628
 30
0.0
 10
88.32260197444712
 20
-151.200417713936
 30
0.0
 10
88.32260197444712
 20
-151.200417713936
 30
0.0
 10
88.2189046003411
 20
-151.0205837296059
 30
0.0
 10
88.2189046003411
 20
-151.0205837296059
 30
0.0
 10
88.53619789453262
 20
-151.0164496150236
 30
0.0
 10
88.71172550950609
 20
-150.9909559084328
 30
0.0
 10
88.8641709847284
 20
-150.8810573624533
 30
0.0
 10
88.74565970003581
 20
-150.8300699492716
 30
0.0
 10
88.65677623651636
 20
-150.8025091853896
 30
0.0
 10
88.62077498869551
 20
-150.7901068416428
 30
0.0
 10
88.60182696352664
 20
-150.8173230959762
 30
0.0
 10
88.58701305294005
 20
-150.8366156306936
 30
0.0
 10
88.55945228905806
 20
-150.8703775664491
 30
0.0
 10
88.55945228905806
 20
-150.8703775664491
 30
0.0
 10
88.36273733685029
 20
-150.787695274803
 30
0.0
 10
88.36273733685029
 20
-150.787695274803
 30
0.0
 10
88.44524737372202
 20
-150.7074245499967
 30
0.0
 10
88.50657007335946
 20
-150.6123399146038
 30
0.0
 10
88.56375865841462
 20
-150.510709597789
 30
0.0
 10
88.37324487808031
 20
-150.5148437123713
 30
0.0
 10
88.35222979562027
 20
-150.5148437123713
 30
0.0
 10
88.26971975874855
 20
-150.5193223365021
 30
0.0
 10
88.26971975874855
 20
-150.5193223365021
 30
0.0
 10
88.26971975874855
 20
-150.3415554094632
 30
0.0
 10
88.26971975874855
 20
-150.3415554094632
 30
0.0
 10
88.40924612590116
 20
-150.3477565813367
 30
0.0
 10
88.61870793140436
 20
-150.3518906959189
 30
0.0
 10
88.64402938322093
 20
-150.3518906959189
 30
0.0
 10
88.66108260587294
 20
-150.3181287601635
 30
0.0
 10
88.71603187886266
 20
-150.1975504181798
 30
0.0
 10
88.7351521588058
 20
-150.1234808652469
 30
0.0
 10
88.71603187886266
 20
-150.1234808652469
 30
0.0
 10
88.53826495182378
 20
-150.1300265466689
 30
0.0
 10
88.34361705690715
 20
-150.1427733999643
 30
0.0
 10
88.34361705690715
 20
-150.1427733999643
 30
0.0
 10
88.34361705690715
 20
-150.2757540856949
 30
0.0
 10
88.34361705690715
 20
-150.2757540856949
 30
0.0
 10
88.29504121056514
 20
-150.3012477922858
 30
0.0
 10
88.23578556821884
 20
-150.3329426707501
 30
0.0
 10
88.10246037293966
 20
-150.3987439945183
 30
0.0
 10
88.10246037293966
 20
-150.3987439945183
 30
0.0
 10
88.10246037293966
 20
-150.5444715335444
 30
0.0
 10
88.10246037293966
 20
-150.5444715335444
 30
0.0
 10
88.10246037293966
 20
-150.5444715335444
 30
0.0
 10
88.10246037293966
 20
-151.0119709908928
 30
0.0
 10
88.10246037293966
 20
-151.0119709908928
 30
0.0
 10
88.10246037293966
 20
-151.1390950142985
 30
0.0
 10
88.06663137989307
 20
-151.1983506566448
 30
0.0
 10
87.78310002145699
 20
-151.1897379179317
 30
0.0
 10
87.78310002145699
 20
-151.1897379179317
 30
0.0
 10
87.67940264735099
 20
-150.9823431697197
 30
0.0
 10
87.67940264735099
 20
-150.9823431697197
 30
0.0
 10
87.74296465905385
 20
-150.9950900230151
 30
0.0
 10
87.79154050539586
 20
-150.9992241375974
 30
0.0
 10
87.83167586779903
 20
-150.9992241375974
 30
0.0
 10
87.90798473279732
 20
-150.9992241375974
 30
0.0
 10
87.91849227402734
 20
-150.9761419978462
 30
0.0
 10
87.91849227402734
 20
-150.9106851836265
 30
0.0
 10
87.91849227402734
 20
-150.9106851836265
 30
0.0
 10
87.91849227402734
 20
-150.4810817766158
 30
0.0
 10
87.91849227402734
 20
-150.4810817766158
 30
0.0
 10
87.82116832656901
 20
-150.5213893937932
 30
0.0
 10
87.80428735869129
 20
-150.5275905656667
 30
0.0
 10
87.75777856964042
 20
-150.5465385908355
 30
0.0
 10
87.75347220028384
 20
-150.5678981828441
 30
0.0
 10
87.7491658309273
 20
-150.5975260040172
 30
0.0
 10
87.73021780575843
 20
-150.5975260040172
 30
0.0
 10
87.72177732181956
 20
-150.5975260040172
 30
0.0
 10
87.71109752581528
 20
-150.593391889435
 30
0.0
 10
87.70489635394183
 20
-150.5699652401353
 30
0.0
 10
87.70489635394183
 20
-150.5699652401353
 30
0.0
 10
87.65201413824325
 20
-150.3773844025098
 30
0.0
 10
87.65201413824325
 20
-150.3773844025098
 30
0.0
 10
87.79791393204359
 20
-150.3308756134589
 30
0.0
 10
87.86354300103758
 20
-150.3077934737078
 30
0.0
 10
87.91849227402734
 20
-150.2864338816992
 30
0.0
 10
87.91849227402734
 20
-150.2864338816992
 30
0.0
 10
87.91849227402734
 20
-149.8740559521148
 30
0.0
 10
87.91849227402734
 20
-149.8740559521148
 30
0.0
 10
87.91849227402734
 20
-149.8740559521148
 30
0.0
 10
87.86561005832874
 20
-149.8740559521148
 30
0.0
 10
87.86561005832874
 20
-149.8740559521148
 30
0.0
 10
87.86561005832874
 20
-149.8740559521148
 30
0.0
 10
87.78740639081357
 20
-149.8740559521148
 30
0.0
 10
87.78740639081357
 20
-149.8740559521148
 30
0.0
 10
87.71971026452842
 20
-149.8740559521148
 30
0.0
 10
87.71109752581528
 20
-149.8740559521148
 30
0.0
 10
87.67526853276867
 20
-149.8802571239883
 30
0.0
 10
87.67526853276867
 20
-149.8802571239883
 30
0.0
 10
87.67526853276867
 20
-149.6856092290717
 30
0.0
 10
87.67526853276867
 20
-149.6856092290717
 30
0.0
 10
87.70265704187641
 20
-149.6921549104936
 30
0.0
 10
87.71109752581528
 20
-149.6921549104936
 30
0.0
 10
87.78103296416587
 20
-149.6921549104936
 30
0.0
 10
87.78103296416587
 20
-149.6921549104936
 30
0.0
 10
87.91418590467076
 20
-149.6921549104936
 30
0.0
 10
87.91418590467076
 20
-149.6921549104936
 30
0.0
 10
87.91418590467076
 20
-149.622219472143
 30
0.0
 10
87.91418590467076
 20
-149.539537180497
 30
0.0
 10
87.91211884737961
 20
-149.5354030659147
 30
0.0
 10
87.90367836344074
 20
-149.3555690815847
 30
0.0
 10
87.90367836344074
 20
-149.3366210564158
 30
0.0
 10
87.9016113061496
 20
-149.2901122673649
 30
0.0
 10
87.9016113061496
 20
-149.2901122673649
 30
0.0
 10
88.11727428352623
 20
-149.2983804965295
 30
0.0
 10
88.11727428352623
 20
-149.2983804965295
 30
0.0
 10
88.12795407953052
 20
-149.2983804965295
 30
0.0
 10
88.1491414167648
 20
-149.3007920633692
 30
0.0
 10
88.1491414167648
 20
-149.317673031247
 30
0.0
 10
88.1491414167648
 20
-149.3366210564158
 30
0.0
 10
88.13432750617822
 20
-149.3473008524201
 30
0.0
 10
88.10883379958736
 20
-149.366248877589
 30
0.0
 10
88.10883379958736
 20
-149.4168917812221
 30
0.0
 10
88.10246037293966
 20
-149.6453016118942
 30
0.0
 10
88.10469968500507
 20
-149.6921549104936
 30
0.0
 10
88.23371851092769
 20
-149.6921549104936
 30
0.0
 10
88.24646536422312
 20
-149.6921549104936
 30
0.0
 10
88.34361705690715
 20
-149.6835421717805
 30
0.0
 10
88.34361705690715
 20
-149.6835421717805
 30
0.0
 10
88.34361705690715
 20
-149.8781900666971
 30
0.0
 10
88.34361705690715
 20
-149.8781900666971
 30
0.0
 10
88.30554875179513
 20
-149.876123009406
 30
0.0
 10
88.23785262550998
 20
-149.8719888948237
 30
0.0
 10
88.10246037293966
 20
-149.8740559521148
 30
0.0
 10
88.10246037293966
 20
-149.8740559521148
 30
0.0
 10
88.10246037293966
 20
-150.2123643287663
 30
0.0
 10
88.10246037293966
 20
-150.2123643287663
 30
0.0
 10
88.15758190070367
 20
-150.1892821890152
 30
0.0
 10
88.22303871492341
 20
-150.1617214251331
 30
0.0
 10
88.27178681603969
 20
-150.1382947758335
 30
0.0
 10
88.27178681603969
 20
-150.1382947758335
 30
0.0
 10
88.27178681603969
 20
-149.9605278487946
 30
0.0
 10
88.27178681603969
 20
-149.9605278487946
 30
0.0
 10
88.38599173137572
 20
-149.97327470209
 30
0.0
 10
88.50450301606832
 20
-149.97327470209
 30
0.0
 10
88.62077498869551
 20
-149.97327470209
 30
0.0
 10
88.59752059417006
 20
-149.8781900666971
 30
0.0
 10
88.57013208506232
 20
-149.7955077750511
 30
0.0
 10
88.50657007335946
 20
-149.6625270893205
 30
0.0
 10
88.46212834159976
 20
-149.6645941466116
 30
0.0
 10
88.37961830472801
 20
-149.6687282611939
 30
0.0
 10
88.34154999961601
 20
-149.6707953184851
 30
0.0
 10
88.34154999961601
 20
-149.6707953184851
 30
0.0
 10
88.34154999961601
 20
-149.490961334155
 30
0.0
 10
88.34154999961601
 20
-149.490961334155
 30
0.0
 10
88.4664347109563
 20
-149.4995740728682
 30
0.0
 10
88.63989526863864
 20
-149.5037081874504
 30
0.0
 10
88.72240530551037
 20
-149.5037081874504
 30
0.0
 10
88.72240530551037
 20
-149.5037081874504
 30
0.0
 10
88.8049153423821
 20
-149.5037081874504
 30
0.0
 10
88.8049153423821
 20
-149.5037081874504
 30
0.0
 10
88.8049153423821
 20
-149.3407551709981
 30
0.0
 10
88.8049153423821
 20
-149.3304198845424
 30
0.0
 10
88.80284828509095
 20
-149.2752983567784
 30
0.0
 10
88.80284828509095
 20
-149.2752983567784
 30
0.0
 10
89.02695174640646
 20
-149.3007920633692
 30
0.0
 10
89.02695174640646
 20
-149.3007920633692
 30
0.0
 10
89.03125811576302
 20
-149.3007920633692
 30
0.0
 10
89.0524454529973
 20
-149.3028591206604
 30
0.0
 10
89.0524454529973
 20
-149.3197400885381
 30
0.0
 10
89.0524454529973
 20
-149.3345539991247
 30
0.0
 10
89.04176565699303
 20
-149.3428222282893
 30
0.0
 10
89.0143771478853
 20
-149.3576361388758
 30
0.0
 10
89.00800372123759
 20
-149.4234374626441
 30
0.0
 10
89.00593666394644
 20
-149.4444525451042
 30
0.0
 10
89.00593666394644
 20
-149.5037081874504
 30
0.0
 10
89.00593666394644
 20
-149.5037081874504
 30
0.0
 10
89.10102129933934
 20
-149.5037081874504
 30
0.0
 10
89.10102129933934
 20
-149.5037081874504
 30
0.0
 10
89.18353133621106
 20
-149.5037081874504
 30
0.0
 10
89.35699189389339
 20
-149.4995740728682
 30
0.0
 10
89.48187660523371
 20
-149.490961334155
 30
0.0
 10
89.48187660523371
 20
-149.490961334155
 30
0.0
 10
89.48187660523371
 20
-149.6707953184851
 30
0.0
 10
89.48187660523371
 20
-149.6707953184851
 30
0.0
 10
89.45224878406056
 20
-149.6687282611939
 30
0.0
 10
89.33373749936796
 20
-149.6645941466116
 30
0.0
 10
89.2936021369648
 20
-149.6625270893205
 30
0.0
 10
89.27878822637822
 20
-149.7131699929536
 30
0.0
 10
89.24485403584851
 20
-149.8251355962243
 30
0.0
 10
89.17939722162875
 20
-149.9650064729254
 30
0.0
 10
89.22159964132308
 20
-149.9650064729254
 30
0.0
 10
89.49875757311142
 20
-149.945713938208
 30
0.0
 10
89.56008027274888
 20
-149.9436468809169
 30
0.0
 10
89.56008027274888
 20
-149.9436468809169
 30
0.0
 10
89.56008027274888
 20
-150.1279594893777
 30
0.0
 10
89.56008027274888
 20
-150.1279594893777
 30
0.0
 10
89.53045245157573
 20
-150.1279594893777
 30
0.0
 10
89.51357148369799
 20
-150.1234808652469
 30
0.0
 10
89.35061846724568
 20
-150.1234808652469
 30
0.0
  0
HATCH
  5
13E
330
137
100
AcDbEntity
  8
レイヤー 1
 62
    18
420
        0
440
 33554687
100
AcDbHatch
 10
0.0
 20
0.0
 30
0.0
210
0.0
220
0.0
230
1.0
  2
SOLID
 70
     1
 71
     1
 91
        3
 92
        1
 93
        1
 72
     4
 94
        3
 73
     0
 74
     0
 95
       17
 96
       13
 40
0.0
 40
0.0
 40
0.0
 40
0.0
 40
1.0
 40
1.0
 40
1.0
 40
2.0
 40
2.0
 40
2.0
 40
3.0
 40
3.0
 40
3.0
 40
4.0
 40
4.0
 40
4.0
 40
4.0
 10
88.78579506243898
 20
-150.5086425404978
 10
88.76891409456126
 20
-150.5382703616709
 10
88.71809893615381
 20
-150.6312879397727
 10
88.70759139492379
 20
-150.6502359649416
 10
88.89793292048386
 20
-150.7094916072879
 10
88.91912025771814
 20
-150.7160372887098
 10
88.99112275335985
 20
-150.7432535430433
 10
89.04607202634959
 20
-150.6567816463635
 10
89.06932642087502
 20
-150.5827120934307
 10
89.08414033146161
 20
-150.5086425404978
 10
89.08414033146161
 20
-150.5086425404978
 10
88.78579506243898
 20
-150.5086425404978
 10
88.78579506243898
 20
-150.5086425404978
 97
        0
 97
        1
330
13B
 92
        1
 93
        1
 72
     4
 94
        3
 73
     0
 74
     0
 95
       20
 96
       16
 40
0.0
 40
0.0
 40
0.0
 40
0.0
 40
1.0
 40
1.0
 40
1.0
 40
2.0
 40
2.0
 40
2.0
 40
3.0
 40
3.0
 40
3.0
 40
4.0
 40
4.0
 40
4.0
 40
5.0
 40
5.0
 40
5.0
 40
5.0
 10
88.72240530551037
 20
-149.6580484651896
 10
88.72240530551037
 20
-149.6580484651896
 10
88.69071042704607
 20
-149.6580484651896
 10
88.69071042704607
 20
-149.6580484651896
 10
88.73721921609694
 20
-149.7576117247134
 10
88.76891409456126
 20
-149.8378824495197
 10
88.80284828509095
 20
-149.9650064729254
 10
88.80284828509095
 20
-149.9650064729254
 10
89.01007077852874
 20
-149.9650064729254
 10
89.01007077852874
 20
-149.9650064729254
 10
89.04176565699303
 20
-149.8719888948237
 10
89.06502005151848
 20
-149.7872395458865
 10
89.08844670081817
 20
-149.6580484651896
 10
89.08844670081817
 20
-149.6580484651896
 10
88.72240530551037
 20
-149.6580484651896
 10
88.72240530551037
 20
-149.6580484651896
 97
        0
 97
        1
330
13C
 92
        1
 93
        1
 72
     4
 94
        3
 73
     0
 74
     0
 95
      242
 96
      238
 40
0.0
 40
0.0
 40
0.0
 40
0.0
 40
1.0
 40
1.0
 40
1.0
 40
2.0
 40
2.0
 40
2.0
 40
3.0
 40
3.0
 40
3.0
 40
4.0
 40
4.0
 40
4.0
 40
5.0
 40
5.0
 40
5.0
 40
6.0
 40
6.0
 40
6.0
 40
7.0
 40
7.0
 40
7.0
 40
8.0
 40
8.0
 40
8.0
 40
9.0
 40
9.0
 40
9.0
 40
10.0
 40
10.0
 40
10.0
 40
11.0
 40
11.0
 40
11.0
 40
12.0
 40
12.0
 40
12.0
 40
13.0
 40
13.0
 40
13.0
 40
14.0
 40
14.0
 40
14.0
 40
15.0
 40
15.0
 40
15.0
 40
16.0
 40
16.0
 40
16.0
 40
17.0
 40
17.0
 40
17.0
 40
18.0
 40
18.0
 40
18.0
 40
19.0
 40
19.0
 40
19.0
 40
20.0
 40
20.0
 40
20.0
 40
21.0
 40
21.0
 40
21.0
 40
22.0
 40
22.0
 40
22.0
 40
23.0
 40
23.0
 40
23.0
 40
24.0
 40
24.0
 40
24.0
 40
25.0
 40
25.0
 40
25.0
 40
26.0
 40
26.0
 40
26.0
 40
27.0
 40
27.0
 40
27.0
 40
28.0
 40
28.0
 40
28.0
 40
29.0
 40
29.0
 40
29.0
 40
30.0
 40
30.0
 40
30.0
 40
31.0
 40
31.0
 40
31.0
 40
32.0
 40
32.0
 40
32.0
 40
33.0
 40
33.0
 40
33.0
 40
34.0
 40
34.0
 40
34.0
 40
35.0
 40
35.0
 40
35.0
 40
36.0
 40
36.0
 40
36.0
 40
37.0
 40
37.0
 40
37.0
 40
38.0
 40
38.0
 40
38.0
 40
39.0
 40
39.0
 40
39.0
 40
40.0
 40
40.0
 40
40.0
 40
41.0
 40
41.0
 40
41.0
 40
42.0
 40
42.0
 40
42.0
 40
43.0
 40
43.0
 40
43.0
 40
44.0
 40
44.0
 40
44.0
 40
45.0
 40
45.0
 40
45.0
 40
46.0
 40
46.0
 40
46.0
 40
47.0
 40
47.0
 40
47.0
 40
48.0
 40
48.0
 40
48.0
 40
49.0
 40
49.0
 40
49.0
 40
50.0
 40
50.0
 40
50.0
 40
51.0
 40
51.0
 40
51.0
 40
52.0
 40
52.0
 40
52.0
 40
53.0
 40
53.0
 40
53.0
 40
54.0
 40
54.0
 40
54.0
 40
55.0
 40
55.0
 40
55.0
 40
56.0
 40
56.0
 40
56.0
 40
57.0
 40
57.0
 40
57.0
 40
58.0
 40
58.0
 40
58.0
 40
59.0
 40
59.0
 40
59.0
 40
60.0
 40
60.0
 40
60.0
 40
61.0
 40
61.0
 40
61.0
 40
62.0
 40
62.0
 40
62.0
 40
63.0
 40
63.0
 40
63.0
 40
64.0
 40
64.0
 40
64.0
 40
65.0
 40
65.0
 40
65.0
 40
66.0
 40
66.0
 40
66.0
 40
67.0
 40
67.0
 40
67.0
 40
68.0
 40
68.0
 40
68.0
 40
69.0
 40
69.0
 40
69.0
 40
70.0
 40
70.0
 40
70.0
 40
71.0
 40
71.0
 40
71.0
 40
72.0
 40
72.0
 40
72.0
 40
73.0
 40
73.0
 40
73.0
 40
74.0
 40
74.0
 40
74.0
 40
75.0
 40
75.0
 40
75.0
 40
76.0
 40
76.0
 40
76.0
 40
77.0
 40
77.0
 40
77.0
 40
78.0
 40
78.0
 40
78.0
 40
79.0
 40
79.0
 40
79.0
 40
79.0
 10
89.35061846724568
 20
-150.1234808652469
 10
89.35061846724568
 20
-150.1234808652469
 10
89.09688718475704
 20
-150.1234808652469
 10
89.09688718475704
 20
-150.1234808652469
 10
89.09688718475704
 20
-150.1234808652469
 10
88.81972925296869
 20
-150.1234808652469
 10
88.81972925296869
 20
-150.1234808652469
 10
88.81972925296869
 20
-150.1234808652469
 10
88.94668102160014
 20
-150.1658555397155
 10
88.94668102160014
 20
-150.1658555397155
 10
88.95718856283016
 20
-150.1699896542977
 10
88.96993541612557
 20
-150.1765353357197
 10
88.96993541612557
 20
-150.1892821890152
 10
88.96993541612557
 20
-150.2102972714752
 10
88.93824053766127
 20
-150.2164984433486
 10
88.91705320042699
 20
-150.2209770674794
 10
88.90637340442273
 20
-150.2440592072306
 10
88.87674558324958
 20
-150.3098605309989
 10
88.85779755808069
 20
-150.3543022627586
 10
88.85779755808069
 20
-150.3543022627586
 10
89.12858206322132
 20
-150.3543022627586
 10
89.12858206322132
 20
-150.3543022627586
 10
89.21953258403192
 20
-150.3543022627586
 10
89.41624753623969
 20
-150.3498236386278
 10
89.55801321545772
 20
-150.3415554094632
 10
89.55801321545772
 20
-150.3415554094632
 10
89.55801321545772
 20
-150.5193223365021
 10
89.55801321545772
 20
-150.5193223365021
 10
89.47550317858599
 20
-150.5148437123713
 10
89.45431584135169
 20
-150.5148437123713
 10
89.27448185702166
 20
-150.510709597789
 10
89.24278697855736
 20
-150.6650498755282
 10
89.19834524679764
 20
-150.745665109883
 10
89.15390351503791
 20
-150.8152560386851
 10
89.27448185702166
 20
-150.8745116810314
 10
89.38024628841883
 20
-150.9423800620908
 10
89.48394366252484
 20
-151.0247178441882
 10
89.48394366252484
 20
-151.0247178441882
 10
89.36543237783226
 20
-151.1918049752229
 10
89.36543237783226
 20
-151.1918049752229
 10
89.34217798330683
 20
-151.172856950054
 10
89.32960338478565
 20
-151.1642442113409
 10
89.21746552674077
 20
-151.0798393719522
 10
89.16871742562449
 20
-151.041598812066
 10
89.10946178327819
 20
-151.0057698190194
 10
89.02919105847187
 20
-150.9613280872597
 10
88.81766219567753
 20
-151.1473632434631
 10
88.61233450475664
 20
-151.1707898927628
 10
88.32260197444712
 20
-151.200417713936
 10
88.32260197444712
 20
-151.200417713936
 10
88.2189046003411
 20
-151.0205837296059
 10
88.2189046003411
 20
-151.0205837296059
 10
88.53619789453262
 20
-151.0164496150236
 10
88.71172550950609
 20
-150.9909559084328
 10
88.8641709847284
 20
-150.8810573624533
 10
88.74565970003581
 20
-150.8300699492716
 10
88.65677623651636
 20
-150.8025091853896
 10
88.62077498869551
 20
-150.7901068416428
 10
88.60182696352664
 20
-150.8173230959762
 10
88.58701305294005
 20
-150.8366156306936
 10
88.55945228905806
 20
-150.8703775664491
 10
88.55945228905806
 20
-150.8703775664491
 10
88.36273733685029
 20
-150.787695274803
 10
88.36273733685029
 20
-150.787695274803
 10
88.44524737372202
 20
-150.7074245499967
 10
88.50657007335946
 20
-150.6123399146038
 10
88.56375865841462
 20
-150.510709597789
 10
88.37324487808031
 20
-150.5148437123713
 10
88.35222979562027
 20
-150.5148437123713
 10
88.26971975874855
 20
-150.5193223365021
 10
88.26971975874855
 20
-150.5193223365021
 10
88.26971975874855
 20
-150.3415554094632
 10
88.26971975874855
 20
-150.3415554094632
 10
88.40924612590116
 20
-150.3477565813367
 10
88.61870793140436
 20
-150.3518906959189
 10
88.64402938322093
 20
-150.3518906959189
 10
88.66108260587294
 20
-150.3181287601635
 10
88.71603187886266
 20
-150.1975504181798
 10
88.7351521588058
 20
-150.1234808652469
 10
88.71603187886266
 20
-150.1234808652469
 10
88.53826495182378
 20
-150.1300265466689
 10
88.34361705690715
 20
-150.1427733999643
 10
88.34361705690715
 20
-150.1427733999643
 10
88.34361705690715
 20
-150.2757540856949
 10
88.34361705690715
 20
-150.2757540856949
 10
88.29504121056514
 20
-150.3012477922858
 10
88.23578556821884
 20
-150.3329426707501
 10
88.10246037293966
 20
-150.3987439945183
 10
88.10246037293966
 20
-150.3987439945183
 10
88.10246037293966
 20
-150.5444715335444
 10
88.10246037293966
 20
-150.5444715335444
 10
88.10246037293966
 20
-150.5444715335444
 10
88.10246037293966
 20
-151.0119709908928
 10
88.10246037293966
 20
-151.0119709908928
 10
88.10246037293966
 20
-151.1390950142985
 10
88.06663137989307
 20
-151.1983506566448
 10
87.78310002145699
 20
-151.1897379179317
 10
87.78310002145699
 20
-151.1897379179317
 10
87.67940264735099
 20
-150.9823431697197
 10
87.67940264735099
 20
-150.9823431697197
 10
87.74296465905385
 20
-150.9950900230151
 10
87.79154050539586
 20
-150.9992241375974
 10
87.83167586779903
 20
-150.9992241375974
 10
87.90798473279732
 20
-150.9992241375974
 10
87.91849227402734
 20
-150.9761419978462
 10
87.91849227402734
 20
-150.9106851836265
 10
87.91849227402734
 20
-150.9106851836265
 10
87.91849227402734
 20
-150.4810817766158
 10
87.91849227402734
 20
-150.4810817766158
 10
87.82116832656901
 20
-150.5213893937932
 10
87.80428735869129
 20
-150.5275905656667
 10
87.75777856964042
 20
-150.5465385908355
 10
87.75347220028384
 20
-150.5678981828441
 10
87.7491658309273
 20
-150.5975260040172
 10
87.73021780575843
 20
-150.5975260040172
 10
87.72177732181956
 20
-150.5975260040172
 10
87.71109752581528
 20
-150.593391889435
 10
87.70489635394183
 20
-150.5699652401353
 10
87.70489635394183
 20
-150.5699652401353
 10
87.65201413824325
 20
-150.3773844025098
 10
87.65201413824325
 20
-150.3773844025098
 10
87.79791393204359
 20
-150.3308756134589
 10
87.86354300103758
 20
-150.3077934737078
 10
87.91849227402734
 20
-150.2864338816992
 10
87.91849227402734
 20
-150.2864338816992
 10
87.91849227402734
 20
-149.8740559521148
 10
87.91849227402734
 20
-149.8740559521148
 10
87.91849227402734
 20
-149.8740559521148
 10
87.86561005832874
 20
-149.8740559521148
 10
87.86561005832874
 20
-149.8740559521148
 10
87.86561005832874
 20
-149.8740559521148
 10
87.78740639081357
 20
-149.8740559521148
 10
87.78740639081357
 20
-149.8740559521148
 10
87.71971026452842
 20
-149.8740559521148
 10
87.71109752581528
 20
-149.8740559521148
 10
87.67526853276867
 20
-149.8802571239883
 10
87.67526853276867
 20
-149.8802571239883
 10
87.67526853276867
 20
-149.6856092290717
 10
87.67526853276867
 20
-149.6856092290717
 10
87.70265704187641
 20
-149.6921549104936
 10
87.71109752581528
 20
-149.6921549104936
 10
87.78103296416587
 20
-149.6921549104936
 10
87.78103296416587
 20
-149.6921549104936
 10
87.91418590467076
 20
-149.6921549104936
 10
87.91418590467076
 20
-149.6921549104936
 10
87.91418590467076
 20
-149.622219472143
 10
87.91418590467076
 20
-149.539537180497
 10
87.91211884737961
 20
-149.5354030659147
 10
87.90367836344074
 20
-149.3555690815847
 10
87.90367836344074
 20
-149.3366210564158
 10
87.9016113061496
 20
-149.2901122673649
 10
87.9016113061496
 20
-149.2901122673649
 10
88.11727428352623
 20
-149.2983804965295
 10
88.11727428352623
 20
-149.2983804965295
 10
88.12795407953052
 20
-149.2983804965295
 10
88.1491414167648
 20
-149.3007920633692
 10
88.1491414167648
 20
-149.317673031247
 10
88.1491414167648
 20
-149.3366210564158
 10
88.13432750617822
 20
-149.3473008524201
 10
88.10883379958736
 20
-149.366248877589
 10
88.10883379958736
 20
-149.4168917812221
 10
88.10246037293966
 20
-149.6453016118942
 10
88.10469968500507
 20
-149.6921549104936
 10
88.23371851092769
 20
-149.6921549104936
 10
88.24646536422312
 20
-149.6921549104936
 10
88.34361705690715
 20
-149.6835421717805
 10
88.34361705690715
 20
-149.6835421717805
 10
88.34361705690715
 20
-149.8781900666971
 10
88.34361705690715
 20
-149.8781900666971
 10
88.30554875179513
 20
-149.876123009406
 10
88.23785262550998
 20
-149.8719888948237
 10
88.10246037293966
 20
-149.8740559521148
 10
88.10246037293966
 20
-149.8740559521148
 10
88.10246037293966
 20
-150.2123643287663
 10
88.10246037293966
 20
-150.2123643287663
 10
88.15758190070367
 20
-150.1892821890152
 10
88.22303871492341
 20
-150.1617214251331
 10
88.27178681603969
 20
-150.1382947758335
 10
88.27178681603969
 20
-150.1382947758335
 10
88.27178681603969
 20
-149.9605278487946
 10
88.27178681603969
 20
-149.9605278487946
 10
88.38599173137572
 20
-149.97327470209
 10
88.50450301606832
 20
-149.97327470209
 10
88.62077498869551
 20
-149.97327470209
 10
88.59752059417006
 20
-149.8781900666971
 10
88.57013208506232
 20
-149.7955077750511
 10
88.50657007335946
 20
-149.6625270893205
 10
88.46212834159976
 20
-149.6645941466116
 10
88.37961830472801
 20
-149.6687282611939
 10
88.34154999961601
 20
-149.6707953184851
 10
88.34154999961601
 20
-149.6707953184851
 10
88.34154999961601
 20
-149.490961334155
 10
88.34154999961601
 20
-149.490961334155
 10
88.4664347109563
 20
-149.4995740728682
 10
88.63989526863864
 20
-149.5037081874504
 10
88.72240530551037
 20
-149.5037081874504
 10
88.72240530551037
 20
-149.5037081874504
 10
88.8049153423821
 20
-149.5037081874504
 10
88.8049153423821
 20
-149.5037081874504
 10
88.8049153423821
 20
-149.3407551709981
 10
88.8049153423821
 20
-149.3304198845424
 10
88.80284828509095
 20
-149.2752983567784
 10
88.80284828509095
 20
-149.2752983567784
 10
89.02695174640646
 20
-149.3007920633692
 10
89.02695174640646
 20
-149.3007920633692
 10
89.03125811576302
 20
-149.3007920633692
 10
89.0524454529973
 20
-149.3028591206604
 10
89.0524454529973
 20
-149.3197400885381
 10
89.0524454529973
 20
-149.3345539991247
 10
89.04176565699303
 20
-149.3428222282893
 10
89.0143771478853
 20
-149.3576361388758
 10
89.00800372123759
 20
-149.4234374626441
 10
89.00593666394644
 20
-149.4444525451042
 10
89.00593666394644
 20
-149.5037081874504
 10
89.00593666394644
 20
-149.5037081874504
 10
89.10102129933934
 20
-149.5037081874504
 10
89.10102129933934
 20
-149.5037081874504
 10
89.18353133621106
 20
-149.5037081874504
 10
89.35699189389339
 20
-149.4995740728682
 10
89.48187660523371
 20
-149.490961334155
 10
89.48187660523371
 20
-149.490961334155
 10
89.48187660523371
 20
-149.6707953184851
 10
89.48187660523371
 20
-149.6707953184851
 10
89.45224878406056
 20
-149.6687282611939
 10
89.33373749936796
 20
-149.6645941466116
 10
89.2936021369648
 20
-149.6625270893205
 10
89.27878822637822
 20
-149.7131699929536
 10
89.24485403584851
 20
-149.8251355962243
 10
89.17939722162875
 20
-149.9650064729254
 10
89.22159964132308
 20
-149.9650064729254
 10
89.49875757311142
 20
-149.945713938208
 10
89.56008027274888
 20
-149.9436468809169
 10
89.56008027274888
 20
-149.9436468809169
 10
89.56008027274888
 20
-150.1279594893777
 10
89.56008027274888
 20
-150.1279594893777
 10
89.53045245157573
 20
-150.1279594893777
 10
89.51357148369799
 20
-150.1234808652469
 10
89.35061846724568
 20
-150.1234808652469
 97
        0
 97
        1
330
13D
 75
     2
 76
     1
 98
        1
 10
0.0
 20
0.0
450
        0
451
        0
460
0.0
461
0.0
452
        0
462
0.0
453
        0
470

  0
SPLINE
  5
13F
330
137
100
AcDbEntity
  8
レイヤー 1
100
AcDbSpline
210
0.0
220
0.0
230
1.0
 70
    11
 71
     3
 72
    17
 73
    13
 74
     0
 42
0.0000000001
 43
0.0000000001
 40
0.0
 40
0.0
 40
0.0
 40
0.0
 40
1.0
 40
1.0
 40
1.0
 40
2.0
 40
2.0
 40
2.0
 40
3.0
 40
3.0
 40
3.0
 40
4.0
 40
4.0
 40
4.0
 40
4.0
 10
91.20718042424682
 20
-150.9230875273734
 30
0.0
 10
91.20718042424682
 20
-150.9230875273734
 30
0.0
 10
90.50059134022207
 20
-150.9230875273734
 30
0.0
 10
90.50059134022207
 20
-150.9230875273734
 30
0.0
 10
90.50059134022207
 20
-150.9230875273734
 30
0.0
 10
90.50059134022207
 20
-151.0374646974837
 30
0.0
 10
90.50059134022207
 20
-151.0374646974837
 30
0.0
 10
90.50059134022207
 20
-151.0374646974837
 30
0.0
 10
91.20718042424682
 20
-151.0374646974837
 30
0.0
 10
91.20718042424682
 20
-151.0374646974837
 30
0.0
 10
91.20718042424682
 20
-151.0374646974837
 30
0.0
 10
91.20718042424682
 20
-150.9230875273734
 30
0.0
 10
91.20718042424682
 20
-150.9230875273734
 30
0.0
  0
SPLINE
  5
140
330
137
100
AcDbEntity
  8
レイヤー 1
100
AcDbSpline
210
0.0
220
0.0
230
1.0
 70
    11
 71
     3
 72
    17
 73
    13
 74
     0
 42
0.0000000001
 43
0.0000000001
 40
0.0
 40
0.0
 40
0.0
 40
0.0
 40
1.0
 40
1.0
 40
1.0
 40
2.0
 40
2.0
 40
2.0
 40
3.0
 40
3.0
 40
3.0
 40
4.0
 40
4.0
 40
4.0
 40
4.0
 10
91.20718042424682
 20
-150.6798637861147
 30
0.0
 10
91.20718042424682
 20
-150.6798637861147
 30
0.0
 10
90.50059134022207
 20
-150.6798637861147
 30
0.0
 10
90.50059134022207
 20
-150.6798637861147
 30
0.0
 10
90.50059134022207
 20
-150.6798637861147
 30
0.0
 10
90.50059134022207
 20
-150.794240956225
 30
0.0
 10
90.50059134022207
 20
-150.794240956225
 30
0.0
 10
90.50059134022207
 20
-150.794240956225
 30
0.0
 10
91.20718042424682
 20
-150.794240956225
 30
0.0
 10
91.20718042424682
 20
-150.794240956225
 30
0.0
 10
91.20718042424682
 20
-150.794240956225
 30
0.0
 10
91.20718042424682
 20
-150.6798637861147
 30
0.0
 10
91.20718042424682
 20
-150.6798637861147
 30
0.0
  0
SPLINE
  5
141
330
137
100
AcDbEntity
  8
レイヤー 1
100
AcDbSpline
210
0.0
220
0.0
230
1.0
 70
    11
 71
     3
 72
    17
 73
    13
 74
     0
 42
0.0000000001
 43
0.0000000001
 40
0.0
 40
0.0
 40
0.0
 40
0.0
 40
1.0
 40
1.0
 40
1.0
 40
2.0
 40
2.0
 40
2.0
 40
3.0
 40
3.0
 40
3.0
 40
4.0
 40
4.0
 40
4.0
 40
4.0
 10
91.20718042424682
 20
-150.4473198408604
 30
0.0
 10
91.20718042424682
 20
-150.4473198408604
 30
0.0
 10
90.50059134022207
 20
-150.4473198408604
 30
0.0
 10
90.50059134022207
 20
-150.4473198408604
 30
0.0
 10
90.50059134022207
 20
-150.4473198408604
 30
0.0
 10
90.50059134022207
 20
-150.5551513295487
 30
0.0
 10
90.50059134022207
 20
-150.5551513295487
 30
0.0
 10
90.50059134022207
 20
-150.5551513295487
 30
0.0
 10
91.20718042424682
 20
-150.5551513295487
 30
0.0
 10
91.20718042424682
 20
-150.5551513295487
 30
0.0
 10
91.20718042424682
 20
-150.5551513295487
 30
0.0
 10
91.20718042424682
 20
-150.4473198408604
 30
0.0
 10
91.20718042424682
 20
-150.4473198408604
 30
0.0
  0
SPLINE
  5
142
330
137
100
AcDbEntity
  8
レイヤー 1
100
AcDbSpline
210
0.0
220
0.0
230
1.0
 70
     9
 71
     3
 72
   203
 73
   199
 74
     0
 42
0.0000000001
 43
0.0000000001
 40
0.0
 40
0.0
 40
0.0
 40
0.0
 40
1.0
 40
1.0
 40
1.0
 40
2.0
 40
2.0
 40
2.0
 40
3.0
 40
3.0
 40
3.0
 40
4.0
 40
4.0
 40
4.0
 40
5.0
 40
5.0
 40
5.0
 40
6.0
 40
6.0
 40
6.0
 40
7.0
 40
7.0
 40
7.0
 40
8.0
 40
8.0
 40
8.0
 40
9.0
 40
9.0
 40
9.0
 40
10.0
 40
10.0
 40
10.0
 40
11.0
 40
11.0
 40
11.0
 40
12.0
 40
12.0
 40
12.0
 40
13.0
 40
13.0
 40
13.0
 40
14.0
 40
14.0
 40
14.0
 40
15.0
 40
15.0
 40
15.0
 40
16.0
 40
16.0
 40
16.0
 40
17.0
 40
17.0
 40
17.0
 40
18.0
 40
18.0
 40
18.0
 40
19.0
 40
19.0
 40
19.0
 40
20.0
 40
20.0
 40
20.0
 40
21.0
 40
21.0
 40
21.0
 40
22.0
 40
22.0
 40
22.0
 40
23.0
 40
23.0
 40
23.0
 40
24.0
 40
24.0
 40
24.0
 40
25.0
 40
25.0
 40
25.0
 40
26.0
 40
26.0
 40
26.0
 40
27.0
 40
27.0
 40
27.0
 40
28.0
 40
28.0
 40
28.0
 40
29.0
 40
29.0
 40
29.0
 40
30.0
 40
30.0
 40
30.0
 40
31.0
 40
31.0
 40
31.0
 40
32.0
 40
32.0
 40
32.0
 40
33.0
 40
33.0
 40
33.0
 40
34.0
 40
34.0
 40
34.0
 40
35.0
 40
35.0
 40
35.0
 40
36.0
 40
36.0
 40
36.0
 40
37.0
 40
37.0
 40
37.0
 40
38.0
 40
38.0
 40
38.0
 40
39.0
 40
39.0
 40
39.0
 40
40.0
 40
40.0
 40
40.0
 40
41.0
 40
41.0
 40
41.0
 40
42.0
 40
42.0
 40
42.0
 40
43.0
 40
43.0
 40
43.0
 40
44.0
 40
44.0
 40
44.0
 40
45.0
 40
45.0
 40
45.0
 40
46.0
 40
46.0
 40
46.0
 40
47.0
 40
47.0
 40
47.0
 40
48.0
 40
48.0
 40
48.0
 40
49.0
 40
49.0
 40
49.0
 40
50.0
 40
50.0
 40
50.0
 40
51.0
 40
51.0
 40
51.0
 40
52.0
 40
52.0
 40
52.0
 40
53.0
 40
53.0
 40
53.0
 40
54.0
 40
54.0
 40
54.0
 40
55.0
 40
55.0
 40
55.0
 40
56.0
 40
56.0
 40
56.0
 40
57.0
 40
57.0
 40
57.0
 40
58.0
 40
58.0
 40
58.0
 40
59.0
 40
59.0
 40
59.0
 40
60.0
 40
60.0
 40
60.0
 40
61.0
 40
61.0
 40
61.0
 40
62.0
 40
62.0
 40
62.0
 40
63.0
 40
63.0
 40
63.0
 40
64.0
 40
64.0
 40
64.0
 40
65.0
 40
65.0
 40
65.0
 40
66.0
 40
66.0
 40
66.0
 40
66.0
 10
91.04216035050335
 20
-150.1913492463063
 30
0.0
 10
91.04216035050335
 20
-150.1913492463063
 30
0.0
 10
90.48371037234435
 20
-150.1913492463063
 30
0.0
 10
90.48371037234435
 20
-150.1913492463063
 30
0.0
 10
90.47303057634008
 20
-150.235790978066
 30
0.0
 10
90.46459009240122
 20
-150.2674858565303
 30
0.0
 10
90.4518432391058
 20
-150.3053819068681
 30
0.0
 10
90.47733694569664
 20
-150.3053819068681
 30
0.0
 10
90.49215085628322
 20
-150.3077934737078
 30
0.0
 10
90.49852428293092
 20
-150.3077934737078
 30
0.0
 10
90.49852428293092
 20
-150.3077934737078
 30
0.0
 10
90.68679875119983
 20
-150.3077934737078
 30
0.0
 10
90.68679875119983
 20
-150.3077934737078
 30
0.0
 10
90.68679875119983
 20
-150.3077934737078
 30
0.0
 10
91.06110837567223
 20
-150.3077934737078
 30
0.0
 10
91.06110837567223
 20
-150.3077934737078
 30
0.0
 10
91.11192353407966
 20
-150.3077934737078
 30
0.0
 10
91.39545489251572
 20
-150.2950466204123
 30
0.0
 10
91.42714977098002
 20
-150.2950466204123
 30
0.0
 10
91.42508271368887
 20
-150.3226073842943
 30
0.0
 10
91.42284340162346
 20
-150.3415554094632
 30
0.0
 10
91.42284340162346
 20
-150.3711832306364
 30
0.0
 10
91.42077634433231
 20
-150.4028781091006
 30
0.0
 10
91.42077634433231
 20
-150.5382703616709
 30
0.0
 10
91.42077634433231
 20
-150.565831125553
 30
0.0
 10
91.42077634433231
 20
-150.565831125553
 30
0.0
 10
91.42077634433231
 20
-150.8111219241028
 30
0.0
 10
91.42077634433231
 20
-150.8111219241028
 30
0.0
 10
91.42077634433231
 20
-150.8555636558625
 30
0.0
 10
91.42508271368887
 20
-151.0522786080703
 30
0.0
 10
91.42921682827116
 20
-151.2045518285183
 30
0.0
 10
91.42921682827116
 20
-151.2045518285183
 30
0.0
 10
91.20287405489026
 20
-151.2045518285183
 30
0.0
 10
91.20287405489026
 20
-151.2045518285183
 30
0.0
 10
91.20287405489026
 20
-151.2045518285183
 30
0.0
 10
91.20511336695567
 20
-151.1707898927628
 30
0.0
 10
91.20511336695567
 20
-151.1707898927628
 30
0.0
 10
91.20511336695567
 20
-151.1707898927628
 30
0.0
 10
90.50265839751324
 20
-151.1707898927628
 30
0.0
 10
90.50265839751324
 20
-151.1707898927628
 30
0.0
 10
90.50265839751324
 20
-151.1707898927628
 30
0.0
 10
90.50472545480436
 20
-151.2045518285183
 30
0.0
 10
90.50472545480436
 20
-151.2045518285183
 30
0.0
 10
90.50472545480436
 20
-151.2045518285183
 30
0.0
 10
90.28682316536231
 20
-151.2045518285183
 30
0.0
 10
90.28682316536231
 20
-151.2045518285183
 30
0.0
 10
90.29112953471889
 20
-151.1494303007543
 30
0.0
 10
90.29112953471889
 20
-151.1370279570074
 30
0.0
 10
90.2975029613666
 20
-151.0226507868971
 30
0.0
 10
90.29957001865774
 20
-150.9950900230151
 30
0.0
 10
90.30163707594891
 20
-150.8617648277359
 30
0.0
 10
90.30163707594891
 20
-150.8428168025671
 30
0.0
 10
90.30163707594891
 20
-150.8428168025671
 30
0.0
 10
90.30163707594891
 20
-150.6399006784858
 30
0.0
 10
90.30163707594891
 20
-150.6399006784858
 30
0.0
 10
90.16211070879627
 20
-150.8893255916179
 30
0.0
 10
89.99278426569626
 20
-151.0205837296059
 30
0.0
 10
89.88701983429908
 20
-151.0860405438257
 30
0.0
 10
89.88701983429908
 20
-151.0860405438257
 30
0.0
 10
89.71355927661674
 20
-150.9465141766731
 30
0.0
 10
89.71355927661674
 20
-150.9465141766731
 30
0.0
 10
89.80244274013619
 20
-150.8958712730399
 30
0.0
 10
89.94627547664538
 20
-150.8090548668116
 30
0.0
 10
90.08373478650685
 20
-150.614406971895
 30
0.0
 10
90.1748575620917
 20
-150.4872829484893
 30
0.0
 10
90.24031437631146
 20
-150.3436224667543
 30
0.0
 10
90.27424856684117
 20
-150.1913492463063
 30
0.0
 10
90.04566648139483
 20
-150.1934163035975
 30
0.0
 10
89.8658324970648
 20
-150.1996174754709
 30
0.0
 10
89.77074786167191
 20
-150.2016845327621
 30
0.0
 10
89.77074786167191
 20
-150.2016845327621
 30
0.0
 10
89.77074786167191
 20
-150.0242621152717
 30
0.0
 10
89.77074786167191
 20
-150.0242621152717
 30
0.0
 10
89.96746281387967
 20
-150.0304632871451
 30
0.0
 10
90.25099417231572
 20
-150.0345974017274
 30
0.0
 10
90.40120033547262
 20
-150.0345974017274
 30
0.0
 10
90.40120033547262
 20
-150.0345974017274
 30
0.0
 10
90.6147962555581
 20
-150.0345974017274
 30
0.0
 10
90.6147962555581
 20
-150.0345974017274
 30
0.0
 10
90.6147962555581
 20
-150.0345974017274
 30
0.0
 10
90.6147962555581
 20
-149.9267659130391
 30
0.0
 10
90.6147962555581
 20
-149.9267659130391
 30
0.0
 10
90.6147962555581
 20
-149.9267659130391
 30
0.0
 10
90.46889646175777
 20
-149.9267659130391
 30
0.0
 10
90.46889646175777
 20
-149.9267659130391
 30
0.0
 10
90.29957001865774
 20
-149.9267659130391
 30
0.0
 10
90.13041583033198
 20
-149.9309000276214
 30
0.0
 10
89.96315644452311
 20
-149.9374457090434
 30
0.0
 10
89.96315644452311
 20
-149.9374457090434
 30
0.0
 10
89.96315644452311
 20
-149.7662244634265
 30
0.0
 10
89.96315644452311
 20
-149.7662244634265
 30
0.0
 10
90.11766897703656
 20
-149.7765597498822
 30
0.0
 10
90.30387638801432
 20
-149.7765597498822
 30
0.0
 10
90.46889646175777
 20
-149.7765597498822
 30
0.0
 10
90.46889646175777
 20
-149.7765597498822
 30
0.0
 10
90.6147962555581
 20
-149.7765597498822
 30
0.0
 10
90.6147962555581
 20
-149.7765597498822
 30
0.0
 10
90.6147962555581
 20
-149.7765597498822
 30
0.0
 10
90.6147962555581
 20
-149.6580484651896
 30
0.0
 10
90.6147962555581
 20
-149.6580484651896
 30
0.0
 10
90.6147962555581
 20
-149.6580484651896
 30
0.0
 10
90.48371037234435
 20
-149.6580484651896
 30
0.0
 10
90.48371037234435
 20
-149.6580484651896
 30
0.0
 10
90.43702932851921
 20
-149.6580484651896
 30
0.0
 10
90.23394094966375
 20
-149.6666612039027
 30
0.0
 10
90.19173852996942
 20
-149.6666612039027
 30
0.0
 10
89.98865015111396
 20
-149.6707953184851
 30
0.0
 10
89.91251354088992
 20
-149.6728623757762
 30
0.0
 10
89.83413761860049
 20
-149.6749294330673
 30
0.0
 10
89.83413761860049
 20
-149.6749294330673
 30
0.0
 10
89.83413761860049
 20
-149.490961334155
 30
0.0
 10
89.83413761860049
 20
-149.490961334155
 30
0.0
 10
89.94834253393653
 20
-149.4995740728682
 30
0.0
 10
89.99278426569626
 20
-149.4995740728682
 30
0.0
 10
90.37570662888176
 20
-149.5078423020328
 30
0.0
 10
90.31231687195317
 20
-149.4127576666398
 30
0.0
 10
90.28475610807118
 20
-149.3851969027579
 30
0.0
 10
90.24875486025031
 20
-149.3493679097112
 30
0.0
 10
90.24875486025031
 20
-149.3493679097112
 30
0.0
 10
90.42445472999807
 20
-149.2666856180653
 30
0.0
 10
90.42445472999807
 20
-149.2666856180653
 30
0.0
 10
90.46459009240122
 20
-149.3028591206604
 30
0.0
 10
90.50903182416094
 20
-149.3452337951289
 30
0.0
 10
90.58310137709382
 20
-149.4551323411084
 30
0.0
 10
90.58310137709382
 20
-149.4551323411084
 30
0.0
 10
90.46889646175777
 20
-149.5102538688724
 30
0.0
 10
90.46889646175777
 20
-149.5102538688724
 30
0.0
 10
90.46889646175777
 20
-149.5102538688724
 30
0.0
 10
90.47940400298779
 20
-149.5102538688724
 30
0.0
 10
90.47940400298779
 20
-149.5102538688724
 30
0.0
 10
90.47940400298779
 20
-149.5102538688724
 30
0.0
 10
91.00185273332593
 20
-149.5102538688724
 30
0.0
 10
91.00185273332593
 20
-149.5102538688724
 30
0.0
 10
91.00185273332593
 20
-149.5102538688724
 30
0.0
 10
90.90676809793304
 20
-149.4658121371127
 30
0.0
 10
90.90676809793304
 20
-149.4658121371127
 30
0.0
 10
90.93432886181503
 20
-149.4275715772264
 30
0.0
 10
90.99134519209592
 20
-149.3473008524201
 30
0.0
 10
91.00615910268249
 20
-149.2732312994872
 30
0.0
 10
91.00615910268249
 20
-149.2732312994872
 30
0.0
 10
91.21975502276798
 20
-149.3366210564158
 30
0.0
 10
91.21975502276798
 20
-149.3366210564158
 30
0.0
 10
91.2283677614811
 20
-149.338688113707
 30
0.0
 10
91.24938284394113
 20
-149.3493679097112
 30
0.0
 10
91.24938284394113
 20
-149.3703829921713
 30
0.0
 10
91.24938284394113
 20
-149.4086235520575
 30
0.0
 10
91.18392602972138
 20
-149.4086235520575
 30
0.0
 10
91.16480574977826
 20
-149.4086235520575
 30
0.0
 10
91.15429820854824
 20
-149.4275715772264
 30
0.0
 10
91.1310438140228
 20
-149.4678791944038
 30
0.0
 10
91.10141599284965
 20
-149.5078423020328
 30
0.0
 10
91.50121932391289
 20
-149.5016411301593
 30
0.0
 10
91.53084714508604
 20
-149.4995740728682
 30
0.0
 10
91.60698375531007
 20
-149.4930283914461
 30
0.0
 10
91.60698375531007
 20
-149.4930283914461
 30
0.0
 10
91.60698375531007
 20
-149.6749294330673
 30
0.0
 10
91.60698375531007
 20
-149.6749294330673
 30
0.0
 10
91.58786347536693
 20
-149.6749294330673
 30
0.0
 10
91.56254202355034
 20
-149.6728623757762
 30
0.0
 10
91.34257267681714
 20
-149.6645941466116
 30
0.0
 10
91.29175751840971
 20
-149.6625270893205
 30
0.0
 10
91.0717881716765
 20
-149.6580484651896
 30
0.0
 10
91.02734643991679
 20
-149.6580484651896
 30
0.0
 10
91.02734643991679
 20
-149.6580484651896
 30
0.0
 10
90.81151120776587
 20
-149.6580484651896
 30
0.0
 10
90.81151120776587
 20
-149.6580484651896
 30
0.0
 10
90.81151120776587
 20
-149.6580484651896
 30
0.0
 10
90.81151120776587
 20
-149.7765597498822
 30
0.0
 10
90.81151120776587
 20
-149.7765597498822
 30
0.0
 10
90.81151120776587
 20
-149.7765597498822
 30
0.0
 10
90.98497176544821
 20
-149.7765597498822
 30
0.0
 10
90.98497176544821
 20
-149.7765597498822
 30
0.0
 10
91.14792478190052
 20
-149.7765597498822
 30
0.0
 10
91.33826630746057
 20
-149.7765597498822
 30
0.0
 10
91.49484589726517
 20
-149.7662244634265
 30
0.0
 10
91.49484589726517
 20
-149.7662244634265
 30
0.0
 10
91.49484589726517
 20
-149.9374457090434
 30
0.0
 10
91.49484589726517
 20
-149.9374457090434
 30
0.0
 10
91.28538409176199
 20
-149.9288329703303
 30
0.0
 10
91.08866913955422
 20
-149.9267659130391
 30
0.0
 10
90.98497176544821
 20
-149.9267659130391
 30
0.0
 10
90.98497176544821
 20
-149.9267659130391
 30
0.0
 10
90.81151120776587
 20
-149.9267659130391
 30
0.0
 10
90.81151120776587
 20
-149.9267659130391
 30
0.0
 10
90.81151120776587
 20
-149.9267659130391
 30
0.0
 10
90.81151120776587
 20
-150.0345974017274
 30
0.0
 10
90.81151120776587
 20
-150.0345974017274
 30
0.0
 10
90.81151120776587
 20
-150.0345974017274
 30
0.0
 10
91.04216035050335
 20
-150.0345974017274
 30
0.0
 10
91.04216035050335
 20
-150.0345974017274
 30
0.0
 10
91.17548554578252
 20
-150.0345974017274
 30
0.0
 10
91.46315101880089
 20
-150.0304632871451
 30
0.0
 10
91.67261282430407
 20
-150.0242621152717
 30
0.0
 10
91.67261282430407
 20
-150.0242621152717
 30
0.0
 10
91.67261282430407
 20
-150.2016845327621
 30
0.0
 10
91.67261282430407
 20
-150.2016845327621
 30
0.0
 10
91.48003198667861
 20
-150.1954833608886
 30
0.0
 10
91.16687280706939
 20
-150.1913492463063
 30
0.0
 10
91.04216035050335
 20
-150.1913492463063
 30
0.0
  0
HATCH
  5
143
330
137
100
AcDbEntity
  8
レイヤー 1
 62
    18
420
        0
440
 33554687
100
AcDbHatch
 10
0.0
 20
0.0
 30
0.0
210
0.0
220
0.0
230
1.0
  2
SOLID
 70
     1
 71
     1
 91
        4
 92
        1
 93
        1
 72
     4
 94
        3
 73
     0
 74
     0
 95
       17
 96
       13
 40
0.0
 40
0.0
 40
0.0
 40
0.0
 40
1.0
 40
1.0
 40
1.0
 40
2.0
 40
2.0
 40
2.0
 40
3.0
 40
3.0
 40
3.0
 40
4.0
 40
4.0
 40
4.0
 40
4.0
 10
91.20718042424682
 20
-150.9230875273734
 10
91.20718042424682
 20
-150.9230875273734
 10
90.50059134022207
 20
-150.9230875273734
 10
90.50059134022207
 20
-150.9230875273734
 10
90.50059134022207
 20
-150.9230875273734
 10
90.50059134022207
 20
-151.0374646974837
 10
90.50059134022207
 20
-151.0374646974837
 10
90.50059134022207
 20
-151.0374646974837
 10
91.20718042424682
 20
-151.0374646974837
 10
91.20718042424682
 20
-151.0374646974837
 10
91.20718042424682
 20
-151.0374646974837
 10
91.20718042424682
 20
-150.9230875273734
 10
91.20718042424682
 20
-150.9230875273734
 97
        0
 97
        1
330
13F
 92
        1
 93
        1
 72
     4
 94
        3
 73
     0
 74
     0
 95
       17
 96
       13
 40
0.0
 40
0.0
 40
0.0
 40
0.0
 40
1.0
 40
1.0
 40
1.0
 40
2.0
 40
2.0
 40
2.0
 40
3.0
 40
3.0
 40
3.0
 40
4.0
 40
4.0
 40
4.0
 40
4.0
 10
91.20718042424682
 20
-150.6798637861147
 10
91.20718042424682
 20
-150.6798637861147
 10
90.50059134022207
 20
-150.6798637861147
 10
90.50059134022207
 20
-150.6798637861147
 10
90.50059134022207
 20
-150.6798637861147
 10
90.50059134022207
 20
-150.794240956225
 10
90.50059134022207
 20
-150.794240956225
 10
90.50059134022207
 20
-150.794240956225
 10
91.20718042424682
 20
-150.794240956225
 10
91.20718042424682
 20
-150.794240956225
 10
91.20718042424682
 20
-150.794240956225
 10
91.20718042424682
 20
-150.6798637861147
 10
91.20718042424682
 20
-150.6798637861147
 97
        0
 97
        1
330
140
 92
        1
 93
        1
 72
     4
 94
        3
 73
     0
 74
     0
 95
       17
 96
       13
 40
0.0
 40
0.0
 40
0.0
 40
0.0
 40
1.0
 40
1.0
 40
1.0
 40
2.0
 40
2.0
 40
2.0
 40
3.0
 40
3.0
 40
3.0
 40
4.0
 40
4.0
 40
4.0
 40
4.0
 10
91.20718042424682
 20
-150.4473198408604
 10
91.20718042424682
 20
-150.4473198408604
 10
90.50059134022207
 20
-150.4473198408604
 10
90.50059134022207
 20
-150.4473198408604
 10
90.50059134022207
 20
-150.4473198408604
 10
90.50059134022207
 20
-150.5551513295487
 10
90.50059134022207
 20
-150.5551513295487
 10
90.50059134022207
 20
-150.5551513295487
 10
91.20718042424682
 20
-150.5551513295487
 10
91.20718042424682
 20
-150.5551513295487
 10
91.20718042424682
 20
-150.5551513295487
 10
91.20718042424682
 20
-150.4473198408604
 10
91.20718042424682
 20
-150.4473198408604
 97
        0
 97
        1
330
141
 92
        1
 93
        1
 72
     4
 94
        3
 73
     0
 74
     0
 95
      203
 96
      199
 40
0.0
 40
0.0
 40
0.0
 40
0.0
 40
1.0
 40
1.0
 40
1.0
 40
2.0
 40
2.0
 40
2.0
 40
3.0
 40
3.0
 40
3.0
 40
4.0
 40
4.0
 40
4.0
 40
5.0
 40
5.0
 40
5.0
 40
6.0
 40
6.0
 40
6.0
 40
7.0
 40
7.0
 40
7.0
 40
8.0
 40
8.0
 40
8.0
 40
9.0
 40
9.0
 40
9.0
 40
10.0
 40
10.0
 40
10.0
 40
11.0
 40
11.0
 40
11.0
 40
12.0
 40
12.0
 40
12.0
 40
13.0
 40
13.0
 40
13.0
 40
14.0
 40
14.0
 40
14.0
 40
15.0
 40
15.0
 40
15.0
 40
16.0
 40
16.0
 40
16.0
 40
17.0
 40
17.0
 40
17.0
 40
18.0
 40
18.0
 40
18.0
 40
19.0
 40
19.0
 40
19.0
 40
20.0
 40
20.0
 40
20.0
 40
21.0
 40
21.0
 40
21.0
 40
22.0
 40
22.0
 40
22.0
 40
23.0
 40
23.0
 40
23.0
 40
24.0
 40
24.0
 40
24.0
 40
25.0
 40
25.0
 40
25.0
 40
26.0
 40
26.0
 40
26.0
 40
27.0
 40
27.0
 40
27.0
 40
28.0
 40
28.0
 40
28.0
 40
29.0
 40
29.0
 40
29.0
 40
30.0
 40
30.0
 40
30.0
 40
31.0
 40
31.0
 40
31.0
 40
32.0
 40
32.0
 40
32.0
 40
33.0
 40
33.0
 40
33.0
 40
34.0
 40
34.0
 40
34.0
 40
35.0
 40
35.0
 40
35.0
 40
36.0
 40
36.0
 40
36.0
 40
37.0
 40
37.0
 40
37.0
 40
38.0
 40
38.0
 40
38.0
 40
39.0
 40
39.0
 40
39.0
 40
40.0
 40
40.0
 40
40.0
 40
41.0
 40
41.0
 40
41.0
 40
42.0
 40
42.0
 40
42.0
 40
43.0
 40
43.0
 40
43.0
 40
44.0
 40
44.0
 40
44.0
 40
45.0
 40
45.0
 40
45.0
 40
46.0
 40
46.0
 40
46.0
 40
47.0
 40
47.0
 40
47.0
 40
48.0
 40
48.0
 40
48.0
 40
49.0
 40
49.0
 40
49.0
 40
50.0
 40
50.0
 40
50.0
 40
51.0
 40
51.0
 40
51.0
 40
52.0
 40
52.0
 40
52.0
 40
53.0
 40
53.0
 40
53.0
 40
54.0
 40
54.0
 40
54.0
 40
55.0
 40
55.0
 40
55.0
 40
56.0
 40
56.0
 40
56.0
 40
57.0
 40
57.0
 40
57.0
 40
58.0
 40
58.0
 40
58.0
 40
59.0
 40
59.0
 40
59.0
 40
60.0
 40
60.0
 40
60.0
 40
61.0
 40
61.0
 40
61.0
 40
62.0
 40
62.0
 40
62.0
 40
63.0
 40
63.0
 40
63.0
 40
64.0
 40
64.0
 40
64.0
 40
65.0
 40
65.0
 40
65.0
 40
66.0
 40
66.0
 40
66.0
 40
66.0
 10
91.04216035050335
 20
-150.1913492463063
 10
91.04216035050335
 20
-150.1913492463063
 10
90.48371037234435
 20
-150.1913492463063
 10
90.48371037234435
 20
-150.1913492463063
 10
90.47303057634008
 20
-150.235790978066
 10
90.46459009240122
 20
-150.2674858565303
 10
90.4518432391058
 20
-150.3053819068681
 10
90.47733694569664
 20
-150.3053819068681
 10
90.49215085628322
 20
-150.3077934737078
 10
90.49852428293092
 20
-150.3077934737078
 10
90.49852428293092
 20
-150.3077934737078
 10
90.68679875119983
 20
-150.3077934737078
 10
90.68679875119983
 20
-150.3077934737078
 10
90.68679875119983
 20
-150.3077934737078
 10
91.06110837567223
 20
-150.3077934737078
 10
91.06110837567223
 20
-150.3077934737078
 10
91.11192353407966
 20
-150.3077934737078
 10
91.39545489251572
 20
-150.2950466204123
 10
91.42714977098002
 20
-150.2950466204123
 10
91.42508271368887
 20
-150.3226073842943
 10
91.42284340162346
 20
-150.3415554094632
 10
91.42284340162346
 20
-150.3711832306364
 10
91.42077634433231
 20
-150.4028781091006
 10
91.42077634433231
 20
-150.5382703616709
 10
91.42077634433231
 20
-150.565831125553
 10
91.42077634433231
 20
-150.565831125553
 10
91.42077634433231
 20
-150.8111219241028
 10
91.42077634433231
 20
-150.8111219241028
 10
91.42077634433231
 20
-150.8555636558625
 10
91.42508271368887
 20
-151.0522786080703
 10
91.42921682827116
 20
-151.2045518285183
 10
91.42921682827116
 20
-151.2045518285183
 10
91.20287405489026
 20
-151.2045518285183
 10
91.20287405489026
 20
-151.2045518285183
 10
91.20287405489026
 20
-151.2045518285183
 10
91.20511336695567
 20
-151.1707898927628
 10
91.20511336695567
 20
-151.1707898927628
 10
91.20511336695567
 20
-151.1707898927628
 10
90.50265839751324
 20
-151.1707898927628
 10
90.50265839751324
 20
-151.1707898927628
 10
90.50265839751324
 20
-151.1707898927628
 10
90.50472545480436
 20
-151.2045518285183
 10
90.50472545480436
 20
-151.2045518285183
 10
90.50472545480436
 20
-151.2045518285183
 10
90.28682316536231
 20
-151.2045518285183
 10
90.28682316536231
 20
-151.2045518285183
 10
90.29112953471889
 20
-151.1494303007543
 10
90.29112953471889
 20
-151.1370279570074
 10
90.2975029613666
 20
-151.0226507868971
 10
90.29957001865774
 20
-150.9950900230151
 10
90.30163707594891
 20
-150.8617648277359
 10
90.30163707594891
 20
-150.8428168025671
 10
90.30163707594891
 20
-150.8428168025671
 10
90.30163707594891
 20
-150.6399006784858
 10
90.30163707594891
 20
-150.6399006784858
 10
90.16211070879627
 20
-150.8893255916179
 10
89.99278426569626
 20
-151.0205837296059
 10
89.88701983429908
 20
-151.0860405438257
 10
89.88701983429908
 20
-151.0860405438257
 10
89.71355927661674
 20
-150.9465141766731
 10
89.71355927661674
 20
-150.9465141766731
 10
89.80244274013619
 20
-150.8958712730399
 10
89.94627547664538
 20
-150.8090548668116
 10
90.08373478650685
 20
-150.614406971895
 10
90.1748575620917
 20
-150.4872829484893
 10
90.24031437631146
 20
-150.3436224667543
 10
90.27424856684117
 20
-150.1913492463063
 10
90.04566648139483
 20
-150.1934163035975
 10
89.8658324970648
 20
-150.1996174754709
 10
89.77074786167191
 20
-150.2016845327621
 10
89.77074786167191
 20
-150.2016845327621
 10
89.77074786167191
 20
-150.0242621152717
 10
89.77074786167191
 20
-150.0242621152717
 10
89.96746281387967
 20
-150.0304632871451
 10
90.25099417231572
 20
-150.0345974017274
 10
90.40120033547262
 20
-150.0345974017274
 10
90.40120033547262
 20
-150.0345974017274
 10
90.6147962555581
 20
-150.0345974017274
 10
90.6147962555581
 20
-150.0345974017274
 10
90.6147962555581
 20
-150.0345974017274
 10
90.6147962555581
 20
-149.9267659130391
 10
90.6147962555581
 20
-149.9267659130391
 10
90.6147962555581
 20
-149.9267659130391
 10
90.46889646175777
 20
-149.9267659130391
 10
90.46889646175777
 20
-149.9267659130391
 10
90.29957001865774
 20
-149.9267659130391
 10
90.13041583033198
 20
-149.9309000276214
 10
89.96315644452311
 20
-149.9374457090434
 10
89.96315644452311
 20
-149.9374457090434
 10
89.96315644452311
 20
-149.7662244634265
 10
89.96315644452311
 20
-149.7662244634265
 10
90.11766897703656
 20
-149.7765597498822
 10
90.30387638801432
 20
-149.7765597498822
 10
90.46889646175777
 20
-149.7765597498822
 10
90.46889646175777
 20
-149.7765597498822
 10
90.6147962555581
 20
-149.7765597498822
 10
90.6147962555581
 20
-149.7765597498822
 10
90.6147962555581
 20
-149.7765597498822
 10
90.6147962555581
 20
-149.6580484651896
 10
90.6147962555581
 20
-149.6580484651896
 10
90.6147962555581
 20
-149.6580484651896
 10
90.48371037234435
 20
-149.6580484651896
 10
90.48371037234435
 20
-149.6580484651896
 10
90.43702932851921
 20
-149.6580484651896
 10
90.23394094966375
 20
-149.6666612039027
 10
90.19173852996942
 20
-149.6666612039027
 10
89.98865015111396
 20
-149.6707953184851
 10
89.91251354088992
 20
-149.6728623757762
 10
89.83413761860049
 20
-149.6749294330673
 10
89.83413761860049
 20
-149.6749294330673
 10
89.83413761860049
 20
-149.490961334155
 10
89.83413761860049
 20
-149.490961334155
 10
89.94834253393653
 20
-149.4995740728682
 10
89.99278426569626
 20
-149.4995740728682
 10
90.37570662888176
 20
-149.5078423020328
 10
90.31231687195317
 20
-149.4127576666398
 10
90.28475610807118
 20
-149.3851969027579
 10
90.24875486025031
 20
-149.3493679097112
 10
90.24875486025031
 20
-149.3493679097112
 10
90.42445472999807
 20
-149.2666856180653
 10
90.42445472999807
 20
-149.2666856180653
 10
90.46459009240122
 20
-149.3028591206604
 10
90.50903182416094
 20
-149.3452337951289
 10
90.58310137709382
 20
-149.4551323411084
 10
90.58310137709382
 20
-149.4551323411084
 10
90.46889646175777
 20
-149.5102538688724
 10
90.46889646175777
 20
-149.5102538688724
 10
90.46889646175777
 20
-149.5102538688724
 10
90.47940400298779
 20
-149.5102538688724
 10
90.47940400298779
 20
-149.5102538688724
 10
90.47940400298779
 20
-149.5102538688724
 10
91.00185273332593
 20
-149.5102538688724
 10
91.00185273332593
 20
-149.5102538688724
 10
91.00185273332593
 20
-149.5102538688724
 10
90.90676809793304
 20
-149.4658121371127
 10
90.90676809793304
 20
-149.4658121371127
 10
90.93432886181503
 20
-149.4275715772264
 10
90.99134519209592
 20
-149.3473008524201
 10
91.00615910268249
 20
-149.2732312994872
 10
91.00615910268249
 20
-149.2732312994872
 10
91.21975502276798
 20
-149.3366210564158
 10
91.21975502276798
 20
-149.3366210564158
 10
91.2283677614811
 20
-149.338688113707
 10
91.24938284394113
 20
-149.3493679097112
 10
91.24938284394113
 20
-149.3703829921713
 10
91.24938284394113
 20
-149.4086235520575
 10
91.18392602972138
 20
-149.4086235520575
 10
91.16480574977826
 20
-149.4086235520575
 10
91.15429820854824
 20
-149.4275715772264
 10
91.1310438140228
 20
-149.4678791944038
 10
91.10141599284965
 20
-149.5078423020328
 10
91.50121932391289
 20
-149.5016411301593
 10
91.53084714508604
 20
-149.4995740728682
 10
91.60698375531007
 20
-149.4930283914461
 10
91.60698375531007
 20
-149.4930283914461
 10
91.60698375531007
 20
-149.6749294330673
 10
91.60698375531007
 20
-149.6749294330673
 10
91.58786347536693
 20
-149.6749294330673
 10
91.56254202355034
 20
-149.6728623757762
 10
91.34257267681714
 20
-149.6645941466116
 10
91.29175751840971
 20
-149.6625270893205
 10
91.0717881716765
 20
-149.6580484651896
 10
91.02734643991679
 20
-149.6580484651896
 10
91.02734643991679
 20
-149.6580484651896
 10
90.81151120776587
 20
-149.6580484651896
 10
90.81151120776587
 20
-149.6580484651896
 10
90.81151120776587
 20
-149.6580484651896
 10
90.81151120776587
 20
-149.7765597498822
 10
90.81151120776587
 20
-149.7765597498822
 10
90.81151120776587
 20
-149.7765597498822
 10
90.98497176544821
 20
-149.7765597498822
 10
90.98497176544821
 20
-149.7765597498822
 10
91.14792478190052
 20
-149.7765597498822
 10
91.33826630746057
 20
-149.7765597498822
 10
91.49484589726517
 20
-149.7662244634265
 10
91.49484589726517
 20
-149.7662244634265
 10
91.49484589726517
 20
-149.9374457090434
 10
91.49484589726517
 20
-149.9374457090434
 10
91.28538409176199
 20
-149.9288329703303
 10
91.08866913955422
 20
-149.9267659130391
 10
90.98497176544821
 20
-149.9267659130391
 10
90.98497176544821
 20
-149.9267659130391
 10
90.81151120776587
 20
-149.9267659130391
 10
90.81151120776587
 20
-149.9267659130391
 10
90.81151120776587
 20
-149.9267659130391
 10
90.81151120776587
 20
-150.0345974017274
 10
90.81151120776587
 20
-150.0345974017274
 10
90.81151120776587
 20
-150.0345974017274
 10
91.04216035050335
 20
-150.0345974017274
 10
91.04216035050335
 20
-150.0345974017274
 10
91.17548554578252
 20
-150.0345974017274
 10
91.46315101880089
 20
-150.0304632871451
 10
91.67261282430407
 20
-150.0242621152717
 10
91.67261282430407
 20
-150.0242621152717
 10
91.67261282430407
 20
-150.2016845327621
 10
91.67261282430407
 20
-150.2016845327621
 10
91.48003198667861
 20
-150.1954833608886
 10
91.16687280706939
 20
-150.1913492463063
 10
91.04216035050335
 20
-150.1913492463063
 97
        0
 97
        1
330
142
 75
     2
 76
     1
 98
        1
 10
0.0
 20
0.0
450
        0
451
        0
460
0.0
461
0.0
452
        0
462
0.0
453
        0
470

  0
SPLINE
  5
144
330
137
100
AcDbEntity
  8
レイヤー 1
100
AcDbSpline
210
0.0
220
0.0
230
1.0
 70
     9
 71
     3
 72
    29
 73
    25
 74
     0
 42
0.0000000001
 43
0.0000000001
 40
0.0
 40
0.0
 40
0.0
 40
0.0
 40
1.0
 40
1.0
 40
1.0
 40
2.0
 40
2.0
 40
2.0
 40
3.0
 40
3.0
 40
3.0
 40
4.0
 40
4.0
 40
4.0
 40
5.0
 40
5.0
 40
5.0
 40
6.0
 40
6.0
 40
6.0
 40
7.0
 40
7.0
 40
7.0
 40
8.0
 40
8.0
 40
8.0
 40
8.0
 10
92.91767033267337
 20
-149.6391004400208
 30
0.0
 10
92.91767033267337
 20
-149.6391004400208
 30
0.0
 10
92.56437579066099
 20
-149.6391004400208
 30
0.0
 10
92.56437579066099
 20
-149.6391004400208
 30
0.0
 10
92.45223793261612
 20
-149.6391004400208
 30
0.0
 10
92.31253931068923
 20
-149.6453016118942
 30
0.0
 10
92.20470782200091
 20
-149.6580484651896
 30
0.0
 10
92.20470782200091
 20
-149.6580484651896
 30
0.0
 10
92.20470782200091
 20
-149.4234374626441
 30
0.0
 10
92.20470782200091
 20
-149.4234374626441
 30
0.0
 10
92.3232191066935
 20
-149.4382513732307
 30
0.0
 10
92.50718720560584
 20
-149.442385487813
 30
0.0
 10
92.56437579066099
 20
-149.442385487813
 30
0.0
 10
92.56437579066099
 20
-149.442385487813
 30
0.0
 10
92.91767033267337
 20
-149.442385487813
 30
0.0
 10
92.91767033267337
 20
-149.442385487813
 30
0.0
 10
92.93661835784224
 20
-149.442385487813
 30
0.0
 10
93.13970673669771
 20
-149.442385487813
 30
0.0
 10
93.28147241591574
 20
-149.4234374626441
 30
0.0
 10
93.28147241591574
 20
-149.4234374626441
 30
0.0
 10
93.28147241591574
 20
-149.6580484651896
 30
0.0
 10
93.28147241591574
 20
-149.6580484651896
 30
0.0
 10
93.12489282611114
 20
-149.6391004400208
 30
0.0
 10
92.93455130055109
 20
-149.6391004400208
 30
0.0
 10
92.91767033267337
 20
-149.6391004400208
 30
0.0
  0
SPLINE
  5
145
330
137
100
AcDbEntity
  8
レイヤー 1
100
AcDbSpline
210
0.0
220
0.0
230
1.0
 70
     9
 71
     3
 72
    47
 73
    43
 74
     0
 42
0.0000000001
 43
0.0000000001
 40
0.0
 40
0.0
 40
0.0
 40
0.0
 40
1.0
 40
1.0
 40
1.0
 40
2.0
 40
2.0
 40
2.0
 40
3.0
 40
3.0
 40
3.0
 40
4.0
 40
4.0
 40
4.0
 40
5.0
 40
5.0
 40
5.0
 40
6.0
 40
6.0
 40
6.0
 40
7.0
 40
7.0
 40
7.0
 40
8.0
 40
8.0
 40
8.0
 40
9.0
 40
9.0
 40
9.0
 40
10.0
 40
10.0
 40
10.0
 40
11.0
 40
11.0
 40
11.0
 40
12.0
 40
12.0
 40
12.0
 40
13.0
 40
13.0
 40
13.0
 40
14.0
 40
14.0
 40
14.0
 40
14.0
 10
93.01912839471397
 20
-150.1679225970066
 30
0.0
 10
93.01912839471397
 20
-150.1679225970066
 30
0.0
 10
92.91767033267337
 20
-150.1679225970066
 30
0.0
 10
92.91767033267337
 20
-150.1679225970066
 30
0.0
 10
92.91767033267337
 20
-150.2547390032349
 30
0.0
 10
92.89648299543907
 20
-150.6440347930681
 30
0.0
 10
92.69976804323132
 20
-150.8641763945756
 30
0.0
 10
92.54732256800901
 20
-151.0333305829013
 30
0.0
 10
92.34010007457122
 20
-151.1029215117034
 30
0.0
 10
92.25552298040835
 20
-151.1304822755854
 30
0.0
 10
92.25552298040835
 20
-151.1304822755854
 30
0.0
 10
92.06087508549172
 20
-150.9633951445508
 30
0.0
 10
92.06087508549172
 20
-150.9633951445508
 30
0.0
 10
92.15819903295004
 20
-150.9506482912554
 30
0.0
 10
92.33372664792351
 20
-150.9275661515042
 30
0.0
 10
92.52200111619243
 20
-150.739119428461
 30
0.0
 10
92.59607066912529
 20
-150.6671169328193
 30
0.0
 10
92.69976804323132
 20
-150.5275905656667
 30
0.0
 10
92.69976804323132
 20
-150.1679225970066
 30
0.0
 10
92.69976804323132
 20
-150.1679225970066
 30
0.0
 10
92.46911890049384
 20
-150.1679225970066
 30
0.0
 10
92.46911890049384
 20
-150.1679225970066
 30
0.0
 10
92.28291148951608
 20
-150.1679225970066
 30
0.0
 10
92.09670407853833
 20
-150.1724012211374
 30
0.0
 10
91.91066892233484
 20
-150.1868706221755
 30
0.0
 10
91.91066892233484
 20
-150.1868706221755
 30
0.0
 10
91.91066892233484
 20
-149.9670735302165
 30
0.0
 10
91.91066892233484
 20
-149.9670735302165
 30
0.0
 10
92.09894339060374
 20
-149.9818874408031
 30
0.0
 10
92.38454180633096
 20
-149.9860215553854
 30
0.0
 10
92.46911890049384
 20
-149.9860215553854
 30
0.0
 10
92.46911890049384
 20
-149.9860215553854
 30
0.0
 10
93.01912839471397
 20
-149.9860215553854
 30
0.0
 10
93.01912839471397
 20
-149.9860215553854
 30
0.0
 10
93.03824867465712
 20
-149.9860215553854
 30
0.0
 10
93.35554196884862
 20
-149.9860215553854
 30
0.0
 10
93.58395179952067
 20
-149.9670735302165
 30
0.0
 10
93.58395179952067
 20
-149.9670735302165
 30
0.0
 10
93.58395179952067
 20
-150.1868706221755
 30
0.0
 10
93.58395179952067
 20
-150.1868706221755
 30
0.0
 10
93.39567733125177
 20
-150.1724012211374
 30
0.0
 10
93.20740286298287
 20
-150.1679225970066
 30
0.0
 10
93.01912839471397
 20
-150.1679225970066
 30
0.0
  0
HATCH
  5
146
330
137
100
AcDbEntity
  8
レイヤー 1
 62
    18
420
        0
440
 33554687
100
AcDbHatch
 10
0.0
 20
0.0
 30
0.0
210
0.0
220
0.0
230
1.0
  2
SOLID
 70
     1
 71
     1
 91
        2
 92
        1
 93
        1
 72
     4
 94
        3
 73
     0
 74
     0
 95
       29
 96
       25
 40
0.0
 40
0.0
 40
0.0
 40
0.0
 40
1.0
 40
1.0
 40
1.0
 40
2.0
 40
2.0
 40
2.0
 40
3.0
 40
3.0
 40
3.0
 40
4.0
 40
4.0
 40
4.0
 40
5.0
 40
5.0
 40
5.0
 40
6.0
 40
6.0
 40
6.0
 40
7.0
 40
7.0
 40
7.0
 40
8.0
 40
8.0
 40
8.0
 40
8.0
 10
92.91767033267337
 20
-149.6391004400208
 10
92.91767033267337
 20
-149.6391004400208
 10
92.56437579066099
 20
-149.6391004400208
 10
92.56437579066099
 20
-149.6391004400208
 10
92.45223793261612
 20
-149.6391004400208
 10
92.31253931068923
 20
-149.6453016118942
 10
92.20470782200091
 20
-149.6580484651896
 10
92.20470782200091
 20
-149.6580484651896
 10
92.20470782200091
 20
-149.4234374626441
 10
92.20470782200091
 20
-149.4234374626441
 10
92.3232191066935
 20
-149.4382513732307
 10
92.50718720560584
 20
-149.442385487813
 10
92.56437579066099
 20
-149.442385487813
 10
92.56437579066099
 20
-149.442385487813
 10
92.91767033267337
 20
-149.442385487813
 10
92.91767033267337
 20
-149.442385487813
 10
92.93661835784224
 20
-149.442385487813
 10
93.13970673669771
 20
-149.442385487813
 10
93.28147241591574
 20
-149.4234374626441
 10
93.28147241591574
 20
-149.4234374626441
 10
93.28147241591574
 20
-149.6580484651896
 10
93.28147241591574
 20
-149.6580484651896
 10
93.12489282611114
 20
-149.6391004400208
 10
92.93455130055109
 20
-149.6391004400208
 10
92.91767033267337
 20
-149.6391004400208
 97
        0
 97
        1
330
144
 92
        1
 93
        1
 72
     4
 94
        3
 73
     0
 74
     0
 95
       47
 96
       43
 40
0.0
 40
0.0
 40
0.0
 40
0.0
 40
1.0
 40
1.0
 40
1.0
 40
2.0
 40
2.0
 40
2.0
 40
3.0
 40
3.0
 40
3.0
 40
4.0
 40
4.0
 40
4.0
 40
5.0
 40
5.0
 40
5.0
 40
6.0
 40
6.0
 40
6.0
 40
7.0
 40
7.0
 40
7.0
 40
8.0
 40
8.0
 40
8.0
 40
9.0
 40
9.0
 40
9.0
 40
10.0
 40
10.0
 40
10.0
 40
11.0
 40
11.0
 40
11.0
 40
12.0
 40
12.0
 40
12.0
 40
13.0
 40
13.0
 40
13.0
 40
14.0
 40
14.0
 40
14.0
 40
14.0
 10
93.01912839471397
 20
-150.1679225970066
 10
93.01912839471397
 20
-150.1679225970066
 10
92.91767033267337
 20
-150.1679225970066
 10
92.91767033267337
 20
-150.1679225970066
 10
92.91767033267337
 20
-150.2547390032349
 10
92.89648299543907
 20
-150.6440347930681
 10
92.69976804323132
 20
-150.8641763945756
 10
92.54732256800901
 20
-151.0333305829013
 10
92.34010007457122
 20
-151.1029215117034
 10
92.25552298040835
 20
-151.1304822755854
 10
92.25552298040835
 20
-151.1304822755854
 10
92.06087508549172
 20
-150.9633951445508
 10
92.06087508549172
 20
-150.9633951445508
 10
92.15819903295004
 20
-150.9506482912554
 10
92.33372664792351
 20
-150.9275661515042
 10
92.52200111619243
 20
-150.739119428461
 10
92.59607066912529
 20
-150.6671169328193
 10
92.69976804323132
 20
-150.5275905656667
 10
92.69976804323132
 20
-150.1679225970066
 10
92.69976804323132
 20
-150.1679225970066
 10
92.46911890049384
 20
-150.1679225970066
 10
92.46911890049384
 20
-150.1679225970066
 10
92.28291148951608
 20
-150.1679225970066
 10
92.09670407853833
 20
-150.1724012211374
 10
91.91066892233484
 20
-150.1868706221755
 10
91.91066892233484
 20
-150.1868706221755
 10
91.91066892233484
 20
-149.9670735302165
 10
91.91066892233484
 20
-149.9670735302165
 10
92.09894339060374
 20
-149.9818874408031
 10
92.38454180633096
 20
-149.9860215553854
 10
92.46911890049384
 20
-149.9860215553854
 10
92.46911890049384
 20
-149.9860215553854
 10
93.01912839471397
 20
-149.9860215553854
 10
93.01912839471397
 20
-149.9860215553854
 10
93.03824867465712
 20
-149.9860215553854
 10
93.35554196884862
 20
-149.9860215553854
 10
93.58395179952067
 20
-149.9670735302165
 10
93.58395179952067
 20
-149.9670735302165
 10
93.58395179952067
 20
-150.1868706221755
 10
93.58395179952067
 20
-150.1868706221755
 10
93.39567733125177
 20
-150.1724012211374
 10
93.20740286298287
 20
-150.1679225970066
 10
93.01912839471397
 20
-150.1679225970066
 97
        0
 97
        1
330
145
 75
     2
 76
     1
 98
        1
 10
0.0
 20
0.0
450
        0
451
        0
460
0.0
461
0.0
452
        0
462
0.0
453
        0
470

  0
SPLINE
  5
147
330
137
100
AcDbEntity
  8
レイヤー 1
100
AcDbSpline
210
0.0
220
0.0
230
1.0
 70
     9
 71
     3
 72
    29
 73
    25
 74
     0
 42
0.0000000001
 43
0.0000000001
 40
0.0
 40
0.0
 40
0.0
 40
0.0
 40
1.0
 40
1.0
 40
1.0
 40
2.0
 40
2.0
 40
2.0
 40
3.0
 40
3.0
 40
3.0
 40
4.0
 40
4.0
 40
4.0
 40
5.0
 40
5.0
 40
5.0
 40
6.0
 40
6.0
 40
6.0
 40
7.0
 40
7.0
 40
7.0
 40
8.0
 40
8.0
 40
8.0
 40
8.0
 10
94.86483830093657
 20
-150.3308756134589
 30
0.0
 10
94.86483830093657
 20
-150.3308756134589
 30
0.0
 10
94.38045787571045
 20
-150.3308756134589
 30
0.0
 10
94.38045787571045
 20
-150.3308756134589
 30
0.0
 10
94.35289711182845
 20
-150.3308756134589
 30
0.0
 10
94.03560381763695
 20
-150.3308756134589
 30
0.0
 10
93.8240749548426
 20
-150.3563693200498
 30
0.0
 10
93.8240749548426
 20
-150.3563693200498
 30
0.0
 10
93.8240749548426
 20
-150.125547922538
 30
0.0
 10
93.8240749548426
 20
-150.125547922538
 30
0.0
 10
93.98272160193835
 20
-150.1489745718377
 30
0.0
 10
94.17306312749841
 20
-150.1510416291289
 30
0.0
 10
94.38045787571045
 20
-150.1510416291289
 30
0.0
 10
94.38045787571045
 20
-150.1510416291289
 30
0.0
 10
94.86483830093657
 20
-150.1510416291289
 30
0.0
 10
94.86483830093657
 20
-150.1510416291289
 30
0.0
 10
95.05104571191433
 20
-150.1510416291289
 30
0.0
 10
95.23725312289208
 20
-150.1489745718377
 30
0.0
 10
95.42122122180442
 20
-150.125547922538
 30
0.0
 10
95.42122122180442
 20
-150.125547922538
 30
0.0
 10
95.42122122180442
 20
-150.3563693200498
 30
0.0
 10
95.42122122180442
 20
-150.3563693200498
 30
0.0
 10
95.23725312289208
 20
-150.3329426707501
 30
0.0
 10
94.98972301227688
 20
-150.3308756134589
 30
0.0
 10
94.86483830093657
 20
-150.3308756134589
 30
0.0
  0
HATCH
  5
148
330
137
100
AcDbEntity
  8
レイヤー 1
 62
    18
420
        0
440
 33554687
100
AcDbHatch
 10
0.0
 20
0.0
 30
0.0
210
0.0
220
0.0
230
1.0
  2
SOLID
 70
     1
 71
     1
 91
        1
 92
        1
 93
        1
 72
     4
 94
        3
 73
     0
 74
     0
 95
       29
 96
       25
 40
0.0
 40
0.0
 40
0.0
 40
0.0
 40
1.0
 40
1.0
 40
1.0
 40
2.0
 40
2.0
 40
2.0
 40
3.0
 40
3.0
 40
3.0
 40
4.0
 40
4.0
 40
4.0
 40
5.0
 40
5.0
 40
5.0
 40
6.0
 40
6.0
 40
6.0
 40
7.0
 40
7.0
 40
7.0
 40
8.0
 40
8.0
 40
8.0
 40
8.0
 10
94.86483830093657
 20
-150.3308756134589
 10
94.86483830093657
 20
-150.3308756134589
 10
94.38045787571045
 20
-150.3308756134589
 10
94.38045787571045
 20
-150.3308756134589
 10
94.35289711182845
 20
-150.3308756134589
 10
94.03560381763695
 20
-150.3308756134589
 10
93.8240749548426
 20
-150.3563693200498
 10
93.8240749548426
 20
-150.3563693200498
 10
93.8240749548426
 20
-150.125547922538
 10
93.8240749548426
 20
-150.125547922538
 10
93.98272160193835
 20
-150.1489745718377
 10
94.17306312749841
 20
-150.1510416291289
 10
94.38045787571045
 20
-150.1510416291289
 10
94.38045787571045
 20
-150.1510416291289
 10
94.86483830093657
 20
-150.1510416291289
 10
94.86483830093657
 20
-150.1510416291289
 10
95.05104571191433
 20
-150.1510416291289
 10
95.23725312289208
 20
-150.1489745718377
 10
95.42122122180442
 20
-150.125547922538
 10
95.42122122180442
 20
-150.125547922538
 10
95.42122122180442
 20
-150.3563693200498
 10
95.42122122180442
 20
-150.3563693200498
 10
95.23725312289208
 20
-150.3329426707501
 10
94.98972301227688
 20
-150.3308756134589
 10
94.86483830093657
 20
-150.3308756134589
 97
        0
 97
        1
330
147
 75
     2
 76
     1
 98
        1
 10
0.0
 20
0.0
450
        0
451
        0
460
0.0
461
0.0
452
        0
462
0.0
453
        0
470

  0
SPLINE
  5
149
330
137
100
AcDbEntity
  8
レイヤー 1
100
AcDbSpline
210
0.0
220
0.0
230
1.0
 70
     9
 71
     3
 72
    47
 73
    43
 74
     0
 42
0.0000000001
 43
0.0000000001
 40
0.0
 40
0.0
 40
0.0
 40
0.0
 40
1.0
 40
1.0
 40
1.0
 40
2.0
 40
2.0
 40
2.0
 40
3.0
 40
3.0
 40
3.0
 40
4.0
 40
4.0
 40
4.0
 40
5.0
 40
5.0
 40
5.0
 40
6.0
 40
6.0
 40
6.0
 40
7.0
 40
7.0
 40
7.0
 40
8.0
 40
8.0
 40
8.0
 40
9.0
 40
9.0
 40
9.0
 40
10.0
 40
10.0
 40
10.0
 40
11.0
 40
11.0
 40
11.0
 40
12.0
 40
12.0
 40
12.0
 40
13.0
 40
13.0
 40
13.0
 40
14.0
 40
14.0
 40
14.0
 40
14.0
 10
97.08503008640583
 20
-149.7365966422533
 30
0.0
 10
97.01526690282953
 20
-150.0156493765586
 30
0.0
 10
96.93913029260549
 20
-150.3201958174547
 30
0.0
 10
96.62597111299628
 20
-150.6523030222327
 30
0.0
 10
96.38912079838537
 20
-150.9020724449134
 30
0.0
 10
96.14365774506133
 20
-151.0016357044371
 30
0.0
 10
96.03789331366414
 20
-151.0436658693571
 30
0.0
 10
96.03789331366414
 20
-151.0436658693571
 30
0.0
 10
95.84324541874753
 20
-150.8617648277359
 30
0.0
 10
95.84324541874753
 20
-150.8617648277359
 30
0.0
 10
96.02945282972529
 20
-150.8152560386851
 30
0.0
 10
96.39118785567651
 20
-150.7222384605833
 30
0.0
 10
96.68729381263375
 20
-150.2271782393529
 30
0.0
 10
96.84817977179491
 20
-149.9605278487946
 30
0.0
 10
96.86075437031608
 20
-149.7872395458865
 30
0.0
 10
96.86936710902919
 20
-149.6962890250759
 30
0.0
 10
96.86936710902919
 20
-149.6962890250759
 30
0.0
 10
96.36362709179451
 20
-149.6962890250759
 30
0.0
 10
96.36362709179451
 20
-149.6962890250759
 30
0.0
 10
96.24528806187619
 20
-149.6962890250759
 30
0.0
 10
95.82429739357865
 20
-149.7152370502448
 30
0.0
 10
95.67185191835635
 20
-149.725916846249
 30
0.0
 10
95.67185191835635
 20
-149.725916846249
 30
0.0
 10
95.67185191835635
 20
-149.5164550407459
 30
0.0
 10
95.67185191835635
 20
-149.5164550407459
 30
0.0
 10
95.81361759757438
 20
-149.5292018940413
 30
0.0
 10
96.09077552936273
 20
-149.5333360086236
 30
0.0
 10
96.20721975676417
 20
-149.5333360086236
 30
0.0
 10
96.20721975676417
 20
-149.5333360086236
 30
0.0
 10
96.56258135606769
 20
-149.5333360086236
 30
0.0
 10
96.56258135606769
 20
-149.5333360086236
 30
0.0
 10
96.58996986517543
 20
-149.5333360086236
 30
0.0
 10
96.75085582433659
 20
-149.5312689513324
 30
0.0
 10
96.86075437031608
 20
-149.5164550407459
 30
0.0
 10
96.91794295537121
 20
-149.5102538688724
 30
0.0
 10
96.93482392324895
 20
-149.490961334155
 30
0.0
 10
96.95807831777438
 20
-149.4678791944038
 30
0.0
 10
96.95807831777438
 20
-149.4678791944038
 30
0.0
 10
97.14635278604328
 20
-149.6180853575608
 30
0.0
 10
97.14635278604328
 20
-149.6180853575608
 30
0.0
 10
97.1315388754567
 20
-149.6477131787339
 30
0.0
 10
97.12103133422669
 20
-149.6666612039027
 30
0.0
 10
97.08503008640583
 20
-149.7365966422533
 30
0.0
  0
HATCH
  5
14A
330
137
100
AcDbEntity
  8
レイヤー 1
 62
    18
420
        0
440
 33554687
100
AcDbHatch
 10
0.0
 20
0.0
 30
0.0
210
0.0
220
0.0
230
1.0
  2
SOLID
 70
     1
 71
     1
 91
        1
 92
        1
 93
        1
 72
     4
 94
        3
 73
     0
 74
     0
 95
       47
 96
       43
 40
0.0
 40
0.0
 40
0.0
 40
0.0
 40
1.0
 40
1.0
 40
1.0
 40
2.0
 40
2.0
 40
2.0
 40
3.0
 40
3.0
 40
3.0
 40
4.0
 40
4.0
 40
4.0
 40
5.0
 40
5.0
 40
5.0
 40
6.0
 40
6.0
 40
6.0
 40
7.0
 40
7.0
 40
7.0
 40
8.0
 40
8.0
 40
8.0
 40
9.0
 40
9.0
 40
9.0
 40
10.0
 40
10.0
 40
10.0
 40
11.0
 40
11.0
 40
11.0
 40
12.0
 40
12.0
 40
12.0
 40
13.0
 40
13.0
 40
13.0
 40
14.0
 40
14.0
 40
14.0
 40
14.0
 10
97.08503008640583
 20
-149.7365966422533
 10
97.01526690282953
 20
-150.0156493765586
 10
96.93913029260549
 20
-150.3201958174547
 10
96.62597111299628
 20
-150.6523030222327
 10
96.38912079838537
 20
-150.9020724449134
 10
96.14365774506133
 20
-151.0016357044371
 10
96.03789331366414
 20
-151.0436658693571
 10
96.03789331366414
 20
-151.0436658693571
 10
95.84324541874753
 20
-150.8617648277359
 10
95.84324541874753
 20
-150.8617648277359
 10
96.02945282972529
 20
-150.8152560386851
 10
96.39118785567651
 20
-150.7222384605833
 10
96.68729381263375
 20
-150.2271782393529
 10
96.84817977179491
 20
-149.9605278487946
 10
96.86075437031608
 20
-149.7872395458865
 10
96.86936710902919
 20
-149.6962890250759
 10
96.86936710902919
 20
-149.6962890250759
 10
96.36362709179451
 20
-149.6962890250759
 10
96.36362709179451
 20
-149.6962890250759
 10
96.24528806187619
 20
-149.6962890250759
 10
95.82429739357865
 20
-149.7152370502448
 10
95.67185191835635
 20
-149.725916846249
 10
95.67185191835635
 20
-149.725916846249
 10
95.67185191835635
 20
-149.5164550407459
 10
95.67185191835635
 20
-149.5164550407459
 10
95.81361759757438
 20
-149.5292018940413
 10
96.09077552936273
 20
-149.5333360086236
 10
96.20721975676417
 20
-149.5333360086236
 10
96.20721975676417
 20
-149.5333360086236
 10
96.56258135606769
 20
-149.5333360086236
 10
96.56258135606769
 20
-149.5333360086236
 10
96.58996986517543
 20
-149.5333360086236
 10
96.75085582433659
 20
-149.5312689513324
 10
96.86075437031608
 20
-149.5164550407459
 10
96.91794295537121
 20
-149.5102538688724
 10
96.93482392324895
 20
-149.490961334155
 10
96.95807831777438
 20
-149.4678791944038
 10
96.95807831777438
 20
-149.4678791944038
 10
97.14635278604328
 20
-149.6180853575608
 10
97.14635278604328
 20
-149.6180853575608
 10
97.1315388754567
 20
-149.6477131787339
 10
97.12103133422669
 20
-149.6666612039027
 10
97.08503008640583
 20
-149.7365966422533
 97
        0
 97
        1
330
149
 75
     2
 76
     1
 98
        1
 10
0.0
 20
0.0
450
        0
451
        0
460
0.0
461
0.0
452
        0
462
0.0
453
        0
470

  0
SPLINE
  5
14B
330
137
100
AcDbEntity
  8
レイヤー 1
100
AcDbSpline
210
0.0
220
0.0
230
1.0
 70
    11
 71
     3
 72
    17
 73
    13
 74
     0
 42
0.0000000001
 43
0.0000000001
 40
0.0
 40
0.0
 40
0.0
 40
0.0
 40
1.0
 40
1.0
 40
1.0
 40
2.0
 40
2.0
 40
2.0
 40
3.0
 40
3.0
 40
3.0
 40
4.0
 40
4.0
 40
4.0
 40
4.0
 10
97.47535940488464
 20
-149.518522098037
 30
0.0
 10
97.47535940488464
 20
-149.5777777403833
 30
0.0
 10
97.5218681939355
 20
-149.6242865294342
 30
0.0
 10
97.5811238362818
 20
-149.6242865294342
 30
0.0
 10
97.6403794786281
 20
-149.6242865294342
 30
0.0
 10
97.68895532497012
 20
-149.5777777403833
 30
0.0
 10
97.68895532497012
 20
-149.518522098037
 30
0.0
 10
97.68895532497012
 20
-149.4592664556907
 30
0.0
 10
97.6403794786281
 20
-149.4106906093487
 30
0.0
 10
97.5811238362818
 20
-149.4106906093487
 30
0.0
 10
97.5218681939355
 20
-149.4106906093487
 30
0.0
 10
97.47535940488464
 20
-149.4592664556907
 30
0.0
 10
97.47535940488464
 20
-149.518522098037
 30
0.0
  0
SPLINE
  5
14C
330
137
100
AcDbEntity
  8
レイヤー 1
100
AcDbSpline
210
0.0
220
0.0
230
1.0
 70
     9
 71
     3
 72
    17
 73
    13
 74
     0
 42
0.0000000001
 43
0.0000000001
 40
0.0
 40
0.0
 40
0.0
 40
0.0
 40
1.0
 40
1.0
 40
1.0
 40
2.0
 40
2.0
 40
2.0
 40
3.0
 40
3.0
 40
3.0
 40
4.0
 40
4.0
 40
4.0
 40
4.0
 10
97.790585641785
 20
-149.518522098037
 30
0.0
 10
97.790585641785
 20
-149.6328992681473
 30
0.0
 10
97.69739580890899
 20
-149.7279839035402
 30
0.0
 10
97.5811238362818
 20
-149.7279839035402
 30
0.0
 10
97.46691892094577
 20
-149.7279839035402
 30
0.0
 10
97.37166203077862
 20
-149.6328992681473
 30
0.0
 10
97.37166203077862
 20
-149.518522098037
 30
0.0
 10
97.37166203077862
 20
-149.4020778706356
 30
0.0
 10
97.46691892094577
 20
-149.3090602925338
 30
0.0
 10
97.5811238362818
 20
-149.3090602925338
 30
0.0
 10
97.69532875161784
 20
-149.3090602925338
 30
0.0
 10
97.790585641785
 20
-149.4020778706356
 30
0.0
 10
97.790585641785
 20
-149.518522098037
 30
0.0
  0
HATCH
  5
14D
330
137
100
AcDbEntity
  8
レイヤー 1
 62
    18
420
        0
440
 33554687
100
AcDbHatch
 10
0.0
 20
0.0
 30
0.0
210
0.0
220
0.0
230
1.0
  2
SOLID
 70
     1
 71
     1
 91
        2
 92
        1
 93
        1
 72
     4
 94
        3
 73
     0
 74
     0
 95
       17
 96
       13
 40
0.0
 40
0.0
 40
0.0
 40
0.0
 40
1.0
 40
1.0
 40
1.0
 40
2.0
 40
2.0
 40
2.0
 40
3.0
 40
3.0
 40
3.0
 40
4.0
 40
4.0
 40
4.0
 40
4.0
 10
97.47535940488464
 20
-149.518522098037
 10
97.47535940488464
 20
-149.5777777403833
 10
97.5218681939355
 20
-149.6242865294342
 10
97.5811238362818
 20
-149.6242865294342
 10
97.6403794786281
 20
-149.6242865294342
 10
97.68895532497012
 20
-149.5777777403833
 10
97.68895532497012
 20
-149.518522098037
 10
97.68895532497012
 20
-149.4592664556907
 10
97.6403794786281
 20
-149.4106906093487
 10
97.5811238362818
 20
-149.4106906093487
 10
97.5218681939355
 20
-149.4106906093487
 10
97.47535940488464
 20
-149.4592664556907
 10
97.47535940488464
 20
-149.518522098037
 97
        0
 97
        1
330
14B
 92
        1
 93
        1
 72
     4
 94
        3
 73
     0
 74
     0
 95
       17
 96
       13
 40
0.0
 40
0.0
 40
0.0
 40
0.0
 40
1.0
 40
1.0
 40
1.0
 40
2.0
 40
2.0
 40
2.0
 40
3.0
 40
3.0
 40
3.0
 40
4.0
 40
4.0
 40
4.0
 40
4.0
 10
97.790585641785
 20
-149.518522098037
 10
97.790585641785
 20
-149.6328992681473
 10
97.69739580890899
 20
-149.7279839035402
 10
97.5811238362818
 20
-149.7279839035402
 10
97.46691892094577
 20
-149.7279839035402
 10
97.37166203077862
 20
-149.6328992681473
 10
97.37166203077862
 20
-149.518522098037
 10
97.37166203077862
 20
-149.4020778706356
 10
97.46691892094577
 20
-149.3090602925338
 10
97.5811238362818
 20
-149.3090602925338
 10
97.69532875161784
 20
-149.3090602925338
 10
97.790585641785
 20
-149.4020778706356
 10
97.790585641785
 20
-149.518522098037
 97
        0
 97
        1
330
14C
 75
     2
 76
     1
 98
        1
 10
0.0
 20
0.0
450
        0
451
        0
460
0.0
461
0.0
452
        0
462
0.0
453
        0
470

  0
ENDBLK
  5
13A
330
137
100
AcDbEntity
  8
0
100
AcDbBlockEnd
  0
ENDSEC
  0
SECTION
  2
ENTITIES
  0
INSERT
  5
7A
330
70
100
AcDbEntity
  8
レイヤー 1
100
AcDbBlockReference
  2
Block_0
 10
0.0
 20
0.0
 30
0.0
  0
ENDSEC
  0
SECTION
  2
OBJECTS
  0
DICTIONARY
  5
C
330
0
100
AcDbDictionary
281
     1
  3
ACAD_COLOR
350
63
  3
ACAD_DETAILVIEWSTYLE
350
6A
  3
ACAD_GROUP
350
D
  3
ACAD_LAYOUT
350
62
  3
ACAD_MATERIAL
350
10
  3
ACAD_MLEADERSTYLE
350
66
  3
ACAD_MLINESTYLE
350
5F
  3
ACAD_PLOTSETTINGS
350
61
  3
ACAD_PLOTSTYLENAME
350
E
  3
ACAD_SCALELIST
350
42
  3
ACAD_SECTIONVIEWSTYLE
350
68
  3
ACAD_TABLESTYLE
350
64
  3
ACAD_VISUALSTYLE
350
29
  3
ACDB_RECOMPOSE_DATA
350
156
  3
AcDbVariableDictionary
350
14E
  0
DICTIONARY
  5
63
102
{ACAD_REACTORS
330
C
102
}
330
C
100
AcDbDictionary
281
     1
  0
DICTIONARY
  5
6A
102
{ACAD_REACTORS
330
C
102
}
330
C
100
AcDbDictionary
281
     1
  3
Imperial24
350
6B
  0
DICTIONARY
  5
D
102
{ACAD_REACTORS
330
C
102
}
330
C
100
AcDbDictionary
281
     1
  0
DICTIONARY
  5
62
102
{ACAD_REACTORS
330
C
102
}
330
C
100
AcDbDictionary
281
     1
  3
Layout1
350
6F
  3
Layout2
350
77
  3
Model
350
73
  0
DICTIONARY
  5
10
102
{ACAD_REACTORS
330
C
102
}
330
C
100
AcDbDictionary
281
     1
  3
ByBlock
350
19
  3
ByLayer
350
11
  3
Global
350
21
  0
DICTIONARY
  5
66
102
{ACAD_REACTORS
330
C
102
}
330
C
100
AcDbDictionary
281
     1
  3
Standard
350
67
  0
DICTIONARY
  5
5F
102
{ACAD_REACTORS
330
C
102
}
330
C
100
AcDbDictionary
281
     1
  3
Standard
350
60
  0
DICTIONARY
  5
61
102
{ACAD_REACTORS
330
C
102
}
330
C
100
AcDbDictionary
281
     1
  0
ACDBDICTIONARYWDFLT
  5
E
102
{ACAD_REACTORS
330
C
102
}
330
C
100
AcDbDictionary
281
     1
  3
Normal
350
F
100
AcDbDictionaryWithDefault
340
F
  0
DICTIONARY
  5
42
102
{ACAD_REACTORS
330
C
102
}
330
C
100
AcDbDictionary
281
     1
  3
A0
350
43
  3
A1
350
44
  3
A2
350
45
  3
A3
350
46
  3
A4
350
47
  3
A5
350
48
  3
A6
350
49
  3
A7
350
4A
  3
A8
350
4B
  3
A9
350
4C
  3
B0
350
4D
  3
B1
350
4E
  3
B2
350
4F
  3
B3
350
50
  3
B4
350
51
  3
B5
350
52
  3
B6
350
53
  0
DICTIONARY
  5
68
102
{ACAD_REACTORS
330
C
102
}
330
C
100
AcDbDictionary
281
     1
  3
Imperial24
350
69
  0
DICTIONARY
  5
64
102
{ACAD_REACTORS
330
C
102
}
330
C
100
AcDbDictionary
281
     1
  3
Standard
350
65
  0
DICTIONARY
  5
29
102
{ACAD_REACTORS
330
C
102
}
330
C
100
AcDbDictionary
281
     1
  3
2dWireframe
350
2F
  3
Basic
350
2E
  3
Brighten
350
35
  3
ColorChange
350
39
  3
Conceptual
350
32
  3
Dim
350
34
  3
EdgeColorOff
350
41
  3
Facepattern
350
38
  3
Flat
350
2A
  3
FlatWithEdges
350
2B
  3
Gouraud
350
2C
  3
GouraudWithEdges
350
2D
  3
Hidden
350
31
  3
JitterOff
350
3F
  3
Linepattern
350
37
  3
OverhangOff
350
40
  3
Realistic
350
33
  3
Shaded
350
3E
  3
Shaded with edges
350
3D
  3
Shades of Gray
350
3A
  3
Sketchy
350
3B
  3
Thicken
350
36
  3
Wireframe
350
30
  3
X-Ray
350
3C
  0
XRECORD
  5
156
102
{ACAD_REACTORS
330
C
102
}
330
C
100
AcDbXrecord
280
     1
 90
        1
330
65
  0
DICTIONARY
  5
14E
102
{ACAD_REACTORS
330
C
102
}
330
C
100
AcDbDictionary
281
     1
  3
CANNOSCALE
350
153
  3
CMLEADERSTYLE
350
150
  3
CTABLESTYLE
350
14F
  3
CVIEWDETAILSTYLE
350
151
  3
CVIEWSECTIONSTYLE
350
152
  0
ACDBDETAILVIEWSTYLE
  5
6B
102
{ACAD_XDICTIONARY
360
18B
102
}
102
{ACAD_REACTORS
330
6A
102
}
330
6A
100
AcDbModelDocViewStyle
 70
     0
  3
Imperial24
290
     0
100
AcDbDetailViewStyle
 70
     0
 71
     0
 90
        3
 71
     1
340
55
 62
   256
 40
0.24
340
0
 62
   256
 40
0.24
300

 40
0.36
280
     3
 71
     2
340
5D
 90
       25
 62
   256
 71
     3
340
55
 62
   256
 40
0.24
 90
        1
 40
0.75
 90
        1
300
%<\AcVar ViewType \f "%tc1">% %<\AcVar ViewDetailId>%\PSCALE %<\AcVar ViewScale \f "%sn">%
 71
     4
340
5D
 90
       25
 62
   256
340
5D
 90
       25
 62
   256
280
     0
  0
LAYOUT
  5
6F
102
{ACAD_REACTORS
330
62
102
}
330
62
100
AcDbPlotSettings
  1

  2

  4

  6

 40
0.0
 41
0.0
 42
0.0
 43
0.0
 44
0.0
 45
0.0
 46
0.0
 47
0.0
 48
0.0
 49
0.0
140
0.0
141
0.0
142
1.0
143
1.0
 70
   688
 72
     0
 73
     0
 74
     5
  7

 75
    16
147
1.0
 76
     0
 77
     2
 78
   300
148
0.0
149
0.0
100
AcDbLayout
  1
Layout1
 70
     1
 71
     1
 10
0.0
 20
0.0
 11
12.0
 21
9.0
 12
0.0
 22
0.0
 32
0.0
 14
0.0
 24
0.0
 34
0.0
 15
0.0
 25
0.0
 35
0.0
146
0.0
 13
0.0
 23
0.0
 33
0.0
 16
1.0
 26
0.0
 36
0.0
 17
0.0
 27
1.0
 37
0.0
 76
     0
330
6C
  0
LAYOUT
  5
77
102
{ACAD_REACTORS
330
62
102
}
330
62
100
AcDbPlotSettings
  1

  2

  4

  6

 40
0.0
 41
0.0
 42
0.0
 43
0.0
 44
0.0
 45
0.0
 46
0.0
 47
0.0
 48
0.0
 49
0.0
140
0.0
141
0.0
142
1.0
143
1.0
 70
   688
 72
     0
 73
     0
 74
     5
  7

 75
    16
147
1.0
 76
     0
 77
     2
 78
   300
148
0.0
149
0.0
100
AcDbLayout
  1
Layout2
 70
     1
 71
     2
 10
0.0
 20
0.0
 11
12.0
 21
9.0
 12
0.0
 22
0.0
 32
0.0
 14
0.0
 24
0.0
 34
0.0
 15
0.0
 25
0.0
 35
0.0
146
0.0
 13
0.0
 23
0.0
 33
0.0
 16
1.0
 26
0.0
 36
0.0
 17
0.0
 27
1.0
 37
0.0
 76
     0
330
74
  0
LAYOUT
  5
73
102
{ACAD_REACTORS
330
62
102
}
330
62
100
AcDbPlotSettings
  1

  2

  4

  6

 40
0.0
 41
0.0
 42
0.0
 43
0.0
 44
0.0
 45
0.0
 46
0.0
 47
0.0
 48
0.0
 49
0.0
140
0.0
141
0.0
142
1.0
143
1.0
 70
  1712
 72
     0
 73
     0
 74
     0
  7

 75
     0
147
1.0
 76
     0
 77
     2
 78
   300
148
0.0
149
0.0
100
AcDbLayout
  1
Model
 70
     1
 71
     0
 10
0.0
 20
0.0
 11
12.0
 21
9.0
 12
0.0
 22
0.0
 32
0.0
 14
0.0
 24
0.0
 34
0.0
 15
0.0
 25
0.0
 35
0.0
146
0.0
 13
0.0
 23
0.0
 33
0.0
 16
1.0
 26
0.0
 36
0.0
 17
0.0
 27
1.0
 37
0.0
 76
     0
330
70
  0
MATERIAL
  5
19
102
{ACAD_XDICTIONARY
360
1A
102
}
102
{ACAD_REACTORS
330
10
102
}
330
10
100
AcDbMaterial
  1
ByBlock
 72
     0
 43
0.0208333333333333
 43
0.0
 43
0.0
 43
0.0
 43
0.0
 43
0.0208333333333333
 43
0.0
 43
0.0
 43
0.0
 43
0.0
 43
1.0
 43
0.0
 43
0.0
 43
0.0
 43
0.0
 43
1.0
 77
     0
 47
0.0208333333333333
 47
0.0
 47
0.0
 47
0.0
 47
0.0
 47
0.0208333333333333
 47
0.0
 47
0.0
 47
0.0
 47
0.0
 47
1.0
 47
0.0
 47
0.0
 47
0.0
 47
0.0
 47
1.0
171
     0
 49
0.0208333333333333
 49
0.0
 49
0.0
 49
0.0
 49
0.0
 49
0.0208333333333333
 49
0.0
 49
0.0
 49
0.0
 49
0.0
 49
1.0
 49
0.0
 49
0.0
 49
0.0
 49
0.0
 49
1.0
175
     0
142
0.0208333333333333
142
0.0
142
0.0
142
0.0
142
0.0
142
0.0208333333333333
142
0.0
142
0.0
142
0.0
142
0.0
142
1.0
142
0.0
142
0.0
142
0.0
142
0.0
142
1.0
179
     0
144
0.0208333333333333
144
0.0
144
0.0
144
0.0
144
0.0
144
0.0208333333333333
144
0.0
144
0.0
144
0.0
144
0.0
144
1.0
144
0.0
144
0.0
144
0.0
144
0.0
144
1.0
147
0.0208333333333333
147
0.0
147
0.0
147
0.0
147
0.0
147
0.0208333333333333
147
0.0
147
0.0
147
0.0
147
0.0
147
1.0
147
0.0
147
0.0
147
0.0
147
0.0
147
1.0
  0
MATERIAL
  5
11
102
{ACAD_XDICTIONARY
360
12
102
}
102
{ACAD_REACTORS
330
10
102
}
330
10
100
AcDbMaterial
  1
ByLayer
 72
     0
 43
0.0208333333333333
 43
0.0
 43
0.0
 43
0.0
 43
0.0
 43
0.0208333333333333
 43
0.0
 43
0.0
 43
0.0
 43
0.0
 43
1.0
 43
0.0
 43
0.0
 43
0.0
 43
0.0
 43
1.0
 77
     0
 47
0.0208333333333333
 47
0.0
 47
0.0
 47
0.0
 47
0.0
 47
0.0208333333333333
 47
0.0
 47
0.0
 47
0.0
 47
0.0
 47
1.0
 47
0.0
 47
0.0
 47
0.0
 47
0.0
 47
1.0
171
     0
 49
0.0208333333333333
 49
0.0
 49
0.0
 49
0.0
 49
0.0
 49
0.0208333333333333
 49
0.0
 49
0.0
 49
0.0
 49
0.0
 49
1.0
 49
0.0
 49
0.0
 49
0.0
 49
0.0
 49
1.0
175
     0
142
0.0208333333333333
142
0.0
142
0.0
142
0.0
142
0.0
142
0.0208333333333333
142
0.0
142
0.0
142
0.0
142
0.0
142
1.0
142
0.0
142
0.0
142
0.0
142
0.0
142
1.0
179
     0
144
0.0208333333333333
144
0.0
144
0.0
144
0.0
144
0.0
144
0.0208333333333333
144
0.0
144
0.0
144
0.0
144
0.0
144
1.0
144
0.0
144
0.0
144
0.0
144
0.0
144
1.0
147
0.0208333333333333
147
0.0
147
0.0
147
0.0
147
0.0
147
0.0208333333333333
147
0.0
147
0.0
147
0.0
147
0.0
147
1.0
147
0.0
147
0.0
147
0.0
147
0.0
147
1.0
  0
MATERIAL
  5
21
102
{ACAD_XDICTIONARY
360
22
102
}
102
{ACAD_REACTORS
330
10
102
}
330
10
100
AcDbMaterial
  1
Global
 72
     0
 43
0.0208333333333333
 43
0.0
 43
0.0
 43
0.0
 43
0.0
 43
0.0208333333333333
 43
0.0
 43
0.0
 43
0.0
 43
0.0
 43
1.0
 43
0.0
 43
0.0
 43
0.0
 43
0.0
 43
1.0
 77
     0
 47
0.0208333333333333
 47
0.0
 47
0.0
 47
0.0
 47
0.0
 47
0.0208333333333333
 47
0.0
 47
0.0
 47
0.0
 47
0.0
 47
1.0
 47
0.0
 47
0.0
 47
0.0
 47
0.0
 47
1.0
171
     0
 49
0.0208333333333333
 49
0.0
 49
0.0
 49
0.0
 49
0.0
 49
0.0208333333333333
 49
0.0
 49
0.0
 49
0.0
 49
0.0
 49
1.0
 49
0.0
 49
0.0
 49
0.0
 49
0.0
 49
1.0
175
     0
142
0.0208333333333333
142
0.0
142
0.0
142
0.0
142
0.0
142
0.0208333333333333
142
0.0
142
0.0
142
0.0
142
0.0
142
1.0
142
0.0
142
0.0
142
0.0
142
0.0
142
1.0
179
     0
144
0.0208333333333333
144
0.0
144
0.0
144
0.0
144
0.0
144
0.0208333333333333
144
0.0
144
0.0
144
0.0
144
0.0
144
1.0
144
0.0
144
0.0
144
0.0
144
0.0
144
1.0
147
0.0208333333333333
147
0.0
147
0.0
147
0.0
147
0.0
147
0.0208333333333333
147
0.0
147
0.0
147
0.0
147
0.0
147
1.0
147
0.0
147
0.0
147
0.0
147
0.0
147
1.0
  0
MLEADERSTYLE
  5
67
102
{ACAD_XDICTIONARY
360
187
102
}
102
{ACAD_REACTORS
330
66
102
}
330
66
100
AcDbMLeaderStyle
179
     2
170
     2
171
     1
172
     0
 90
        2
 40
0.0
 41
0.0
173
     1
 91
-1056964608
340
5B
 92
       -2
290
     1
 42
0.09
291
     1
 43
0.36
  3
Standard
 44
0.18
300

342
55
174
     1
178
     6
175
     1
176
     0
 93
-1056964608
 45
0.18
292
     0
297
     0
 46
0.18
 94
-1056964608
 47
1.0
 49
1.0
140
1.0
293
     1
141
0.0
294
     1
177
     0
142
1.0
295
     0
296
     0
143
0.125
271
     0
272
     9
273
     9
  0
MLINESTYLE
  5
60
102
{ACAD_REACTORS
330
5F
102
}
330
5F
100
AcDbMlineStyle
  2
STANDARD
 70
     0
  3

 62
   256
 51
90.0
 52
90.0
 71
     2
 49
0.5
 62
   256
  6
BYLAYER
 49
-0.5
 62
   256
  6
BYLAYER
  0
ACDBPLACEHOLDER
  5
F
102
{ACAD_REACTORS
330
E
102
}
330
E
  0
SCALE
  5
43
102
{ACAD_REACTORS
330
42
102
}
330
42
100
AcDbScale
 70
     0
300
1:1
140
1.0
141
1.0
290
     1
  0
SCALE
  5
44
102
{ACAD_REACTORS
330
42
102
}
330
42
100
AcDbScale
 70
     0
300
1/128" = 1'-0"
140
0.0078125
141
12.0
290
     0
  0
SCALE
  5
45
102
{ACAD_REACTORS
330
42
102
}
330
42
100
AcDbScale
 70
     0
300
1/64" = 1'-0"
140
0.015625
141
12.0
290
     0
  0
SCALE
  5
46
102
{ACAD_REACTORS
330
42
102
}
330
42
100
AcDbScale
 70
     0
300
1/32" = 1'-0"
140
0.03125
141
12.0
290
     0
  0
SCALE
  5
47
102
{ACAD_REACTORS
330
42
102
}
330
42
100
AcDbScale
 70
     0
300
1/16" = 1'-0"
140
0.0625
141
12.0
290
     0
  0
SCALE
  5
48
102
{ACAD_REACTORS
330
42
102
}
330
42
100
AcDbScale
 70
     0
300
3/32" = 1'-0"
140
0.09375
141
12.0
290
     0
  0
SCALE
  5
49
102
{ACAD_REACTORS
330
42
102
}
330
42
100
AcDbScale
 70
     0
300
1/8" = 1'-0"
140
0.125
141
12.0
290
     0
  0
SCALE
  5
4A
102
{ACAD_REACTORS
330
42
102
}
330
42
100
AcDbScale
 70
     0
300
3/16" = 1'-0"
140
0.1875
141
12.0
290
     0
  0
SCALE
  5
4B
102
{ACAD_REACTORS
330
42
102
}
330
42
100
AcDbScale
 70
     0
300
1/4" = 1'-0"
140
0.25
141
12.0
290
     0
  0
SCALE
  5
4C
102
{ACAD_REACTORS
330
42
102
}
330
42
100
AcDbScale
 70
     0
300
3/8" = 1'-0"
140
0.375
141
12.0
290
     0
  0
SCALE
  5
4D
102
{ACAD_REACTORS
330
42
102
}
330
42
100
AcDbScale
 70
     0
300
1/2" = 1'-0"
140
0.5
141
12.0
290
     0
  0
SCALE
  5
4E
102
{ACAD_REACTORS
330
42
102
}
330
42
100
AcDbScale
 70
     0
300
3/4" = 1'-0"
140
0.75
141
12.0
290
     0
  0
SCALE
  5
4F
102
{ACAD_REACTORS
330
42
102
}
330
42
100
AcDbScale
 70
     0
300
1" = 1'-0"
140
1.0
141
12.0
290
     0
  0
SCALE
  5
50
102
{ACAD_REACTORS
330
42
102
}
330
42
100
AcDbScale
 70
     0
300
1-1/2" = 1'-0"
140
1.5
141
12.0
290
     0
  0
SCALE
  5
51
102
{ACAD_REACTORS
330
42
102
}
330
42
100
AcDbScale
 70
     0
300
3" = 1'-0"
140
3.0
141
12.0
290
     0
  0
SCALE
  5
52
102
{ACAD_REACTORS
330
42
102
}
330
42
100
AcDbScale
 70
     0
300
6" = 1'-0"
140
6.0
141
12.0
290
     0
  0
SCALE
  5
53
102
{ACAD_REACTORS
330
42
102
}
330
42
100
AcDbScale
 70
     0
300
1'-0" = 1'-0"
140
12.0
141
12.0
290
     0
  0
ACDBSECTIONVIEWSTYLE
  5
69
102
{ACAD_XDICTIONARY
360
189
102
}
102
{ACAD_REACTORS
330
68
102
}
330
68
100
AcDbModelDocViewStyle
 70
     0
  3
Imperial24
290
     0
100
AcDbSectionViewStyle
 70
     0
 71
     0
 90
       78
 71
     1
340
55
 62
   256
 40
0.24
340
0
340
0
 62
   256
 40
0.24
300
I, O, Q, S, X, Z
 40
0.48
 90
        3
 40
0.18
 90
        1
 71
     2
340
5D
 90
       25
 62
   256
340
5D
 90
       50
 62
   256
 40
0.24
 40
0.0
 40
0.24
 71
     3
340
55
 62
   256
 40
0.24
 90
        1
 40
0.75
 90
        1
300
%<\AcVar ViewType \f "%tc1">% %<\AcVar ViewSectionStartId>%-%<\AcVar ViewSectionEndId>%\PSCALE %<\AcVar ViewScale \f "%sn">%
 71
     4
 62
   256
 62
   257
300
ANSI31
 40
1.0
 90
        0
290
     0
290
     0
 90
        6
 40
0.0
 40
1.570796326794896
 40
0.2617993877991494
 40
1.308996938995747
 40
-0.2617993877991494
 40
1.832595714594046
  0
TABLESTYLE
  5
65
102
{ACAD_XDICTIONARY
360
154
102
}
102
{ACAD_REACTORS
330
64
102
}
330
64
100
AcDbTableStyle
280
     0
  3
Standard
 70
     0
 71
     0
 40
0.06
 41
0.06
280
     0
281
     0
  7
Standard
140
0.18
170
     2
 62
     0
 63
     7
283
     0
 90
      512
 91
        0
  1

274
    -2
284
     1
 64
     0
275
    -2
285
     1
 65
     0
276
    -2
286
     1
 66
     0
277
    -2
287
     1
 67
     0
278
    -2
288
     1
 68
     0
279
    -2
289
     1
 69
     0
  7
Standard
140
0.25
170
     5
 62
     0
 63
     7
283
     0
 90
      512
 91
        0
  1

274
    -2
284
     1
 64
     0
275
    -2
285
     1
 65
     0
276
    -2
286
     1
 66
     0
277
    -2
287
     1
 67
     0
278
    -2
288
     1
 68
     0
279
    -2
289
     1
 69
     0
  7
Standard
140
0.18
170
     5
 62
     0
 63
     7
283
     0
 90
      512
 91
        0
  1

274
    -2
284
     1
 64
     0
275
    -2
285
     1
 65
     0
276
    -2
286
     1
 66
     0
277
    -2
287
     1
 67
     0
278
    -2
288
     1
 68
     0
279
    -2
289
     1
 69
     0
  0
VISUALSTYLE
  5
2F
102
{ACAD_XDICTIONARY
360
161
102
}
102
{ACAD_REACTORS
330
29
102
}
330
29
100
AcDbVisualStyle
  2
2dWireframe
 70
     4
177
     2
291
     0
 71
     0
176
     1
 72
     2
176
     1
 73
     0
176
     1
 90
        0
176
     1
 40
0.6
176
     1
 41
30.0
176
     1
 63
     7
421
 16777215
176
     1
 74
     1
176
     1
 91
        4
176
     1
 64
     7
176
     1
 65
   257
176
     1
 75
     1
176
     1
175
     1
176
     1
 42
1.0
176
     1
 92
        0
176
     1
 66
   257
176
     1
 43
1.0
176
     1
 76
     1
176
     1
 77
     6
176
     1
 78
     2
176
     1
 67
     7
176
     1
 79
     5
176
     1
170
     0
176
     1
171
     0
176
     1
290
     0
176
     1
 93
        1
176
     1
 44
0.0
176
     1
173
     0
176
     1
1001
ACAD
1000
AcDbSavedByObjectVersion
1070
     0
  0
VISUALSTYLE
  5
2E
102
{ACAD_XDICTIONARY
360
15F
102
}
102
{ACAD_REACTORS
330
29
102
}
330
29
100
AcDbVisualStyle
  2
Basic
 70
     7
177
     2
291
     1
 71
     1
176
     1
 72
     0
176
     1
 73
     1
176
     1
 90
        0
176
     1
 40
0.6
176
     1
 41
30.0
176
     1
 63
     7
421
 16777215
176
     1
 74
     0
176
     1
 91
        4
176
     1
 64
     7
176
     1
 65
   257
176
     1
 75
     1
176
     1
175
     1
176
     1
 42
1.0
176
     1
 92
        8
176
     1
 66
     7
176
     1
 43
1.0
176
     1
 76
     1
176
     1
 77
     6
176
     1
 78
     2
176
     1
 67
     7
176
     1
 79
     5
176
     1
170
     0
176
     1
171
     0
176
     1
290
     0
176
     1
 93
        1
176
     1
 44
0.0
176
     1
173
     0
176
     1
1001
ACAD
1000
AcDbSavedByObjectVersion
1070
     0
  0
VISUALSTYLE
  5
35
102
{ACAD_XDICTIONARY
360
16D
102
}
102
{ACAD_REACTORS
330
29
102
}
330
29
100
AcDbVisualStyle
  2
Brighten
 70
    12
177
     2
291
     1
 71
     2
176
     1
 72
     2
176
     1
 73
     0
176
     1
 90
        0
176
     1
 40
0.6
176
     1
 41
30.0
176
     1
 63
     7
421
 16777215
176
     1
 74
     1
176
     1
 91
        4
176
     1
 64
     7
176
     1
 65
   257
176
     1
 75
     1
176
     1
175
     1
176
     1
 42
1.0
176
     1
 92
        8
176
     1
 66
     7
176
     1
 43
1.0
176
     1
 76
     1
176
     1
 77
     6
176
     1
 78
     2
176
     1
 67
     7
176
     1
 79
     5
176
     1
170
     0
176
     1
171
     0
176
     1
290
     0
176
     1
 93
        1
176
     1
 44
50.0
176
     1
173
     0
176
     1
1001
ACAD
1000
AcDbSavedByObjectVersion
1070
     0
  0
VISUALSTYLE
  5
39
102
{ACAD_XDICTIONARY
360
175
102
}
102
{ACAD_REACTORS
330
29
102
}
330
29
100
AcDbVisualStyle
  2
ColorChange
 70
    16
177
     2
291
     1
 71
     2
176
     1
 72
     2
176
     1
 73
     3
176
     1
 90
        0
176
     1
 40
0.6
176
     1
 41
30.0
176
     1
 63
     8
421
  8421504
176
     1
 74
     1
176
     1
 91
        4
176
     1
 64
     7
176
     1
 65
   257
176
     1
 75
     1
176
     1
175
     1
176
     1
 42
1.0
176
     1
 92
        8
176
     1
 66
     8
424
  8421504
176
     1
 43
1.0
176
     1
 76
     1
176
     1
 77
     6
176
     1
 78
     2
176
     1
 67
     7
176
     1
 79
     5
176
     1
170
     0
176
     1
171
     0
176
     1
290
     0
176
     1
 93
        1
176
     1
 44
0.0
176
     1
173
     0
176
     1
1001
ACAD
1000
AcDbSavedByObjectVersion
1070
     0
  0
VISUALSTYLE
  5
32
102
{ACAD_XDICTIONARY
360
167
102
}
102
{ACAD_REACTORS
330
29
102
}
330
29
100
AcDbVisualStyle
  2
Conceptual
 70
     9
177
     2
291
     0
 71
     3
176
     1
 72
     2
176
     1
 73
     0
176
     1
 90
        0
176
     1
 40
0.6
176
     1
 41
30.0
176
     1
 63
     7
421
 16777215
176
     1
 74
     2
176
     1
 91
        2
176
     1
 64
     7
176
     1
 65
   257
176
     1
 75
     1
176
     1
175
     1
176
     1
 42
179.0
176
     1
 92
        8
176
     1
 66
     7
176
     1
 43
1.0
176
     1
 76
     1
176
     1
 77
     6
176
     1
 78
     2
176
     1
 67
     7
176
     1
 79
     3
176
     1
170
     0
176
     1
171
     0
176
     1
290
     0
176
     1
 93
        1
176
     1
 44
0.0
176
     1
173
     0
176
     1
1001
ACAD
1000
AcDbSavedByObjectVersion
1070
     0
  0
VISUALSTYLE
  5
34
102
{ACAD_XDICTIONARY
360
16B
102
}
102
{ACAD_REACTORS
330
29
102
}
330
29
100
AcDbVisualStyle
  2
Dim
 70
    11
177
     2
291
     1
 71
     2
176
     1
 72
     2
176
     1
 73
     0
176
     1
 90
        0
176
     1
 40
0.6
176
     1
 41
30.0
176
     1
 63
     7
421
 16777215
176
     1
 74
     1
176
     1
 91
        4
176
     1
 64
     7
176
     1
 65
   257
176
     1
 75
     1
176
     1
175
     1
176
     1
 42
1.0
176
     1
 92
        8
176
     1
 66
     7
176
     1
 43
1.0
176
     1
 76
     1
176
     1
 77
     6
176
     1
 78
     2
176
     1
 67
     7
176
     1
 79
     5
176
     1
170
     0
176
     1
171
     0
176
     1
290
     0
176
     1
 93
        1
176
     1
 44
-50.0
176
     1
173
     0
176
     1
1001
ACAD
1000
AcDbSavedByObjectVersion
1070
     0
  0
VISUALSTYLE
  5
41
102
{ACAD_XDICTIONARY
360
185
102
}
102
{ACAD_REACTORS
330
29
102
}
330
29
100
AcDbVisualStyle
  2
EdgeColorOff
 70
    22
177
     2
291
     1
 71
     2
176
     0
 72
     2
176
     0
 73
     0
176
     0
 90
        0
176
     0
 40
0.6
176
     0
 41
30.0
176
     0
 63
     7
421
 16777215
176
     0
 74
     1
176
     0
 91
        4
176
     0
 64
     7
176
     0
 65
   257
176
     0
 75
     1
176
     0
175
     1
176
     0
 42
1.0
176
     0
 92
        8
176
     2
 66
     7
176
     0
 43
1.0
176
     0
 76
     1
176
     0
 77
     6
176
     0
 78
     2
176
     0
 67
     7
176
     0
 79
     5
176
     0
170
     0
176
     0
171
     0
176
     0
290
     0
176
     0
 93
        1
176
     0
 44
0.0
176
     0
173
     0
176
     0
1001
ACAD
1000
AcDbSavedByObjectVersion
1070
     0
  0
VISUALSTYLE
  5
38
102
{ACAD_XDICTIONARY
360
173
102
}
102
{ACAD_REACTORS
330
29
102
}
330
29
100
AcDbVisualStyle
  2
Facepattern
 70
    15
177
     2
291
     1
 71
     2
176
     1
 72
     2
176
     1
 73
     0
176
     1
 90
        0
176
     1
 40
0.6
176
     1
 41
30.0
176
     1
 63
     7
421
 16777215
176
     1
 74
     1
176
     1
 91
        4
176
     1
 64
     7
176
     1
 65
   257
176
     1
 75
     1
176
     1
175
     1
176
     1
 42
1.0
176
     1
 92
        8
176
     1
 66
     7
176
     1
 43
1.0
176
     1
 76
     1
176
     1
 77
     6
176
     1
 78
     2
176
     1
 67
     7
176
     1
 79
     5
176
     1
170
     0
176
     1
171
     0
176
     1
290
     0
176
     1
 93
        1
176
     1
 44
0.0
176
     1
173
     0
176
     1
1001
ACAD
1000
AcDbSavedByObjectVersion
1070
     0
  0
VISUALSTYLE
  5
2A
102
{ACAD_XDICTIONARY
360
157
102
}
102
{ACAD_REACTORS
330
29
102
}
330
29
100
AcDbVisualStyle
  2
Flat
 70
     0
177
     2
291
     1
 71
     2
176
     1
 72
     1
176
     1
 73
     1
176
     1
 90
        2
176
     1
 40
0.6
176
     1
 41
30.0
176
     1
 63
     7
421
 16777215
176
     1
 74
     0
176
     1
 91
        0
176
     1
 64
     7
176
     1
 65
   257
176
     1
 75
     1
176
     1
175
     1
176
     1
 42
1.0
176
     1
 92
        8
176
     1
 66
     7
176
     1
 43
1.0
176
     1
 76
     1
176
     1
 77
     6
176
     1
 78
     2
176
     1
 67
     7
176
     1
 79
     5
176
     1
170
     0
176
     1
171
     0
176
     1
290
     0
176
     1
 93
       13
176
     1
 44
0.0
176
     1
173
     0
176
     1
1001
ACAD
1000
AcDbSavedByObjectVersion
1070
     0
  0
VISUALSTYLE
  5
2B
102
{ACAD_XDICTIONARY
360
159
102
}
102
{ACAD_REACTORS
330
29
102
}
330
29
100
AcDbVisualStyle
  2
FlatWithEdges
 70
     1
177
     2
291
     1
 71
     2
176
     1
 72
     1
176
     1
 73
     1
176
     1
 90
        2
176
     1
 40
0.6
176
     1
 41
30.0
176
     1
 63
     7
421
 16777215
176
     1
 74
     1
176
     1
 91
        0
176
     1
 64
     7
176
     1
 65
   257
176
     1
 75
     1
176
     1
175
     1
176
     1
 42
1.0
176
     1
 92
        0
176
     1
 66
   257
176
     1
 43
1.0
176
     1
 76
     1
176
     1
 77
     6
176
     1
 78
     2
176
     1
 67
     7
176
     1
 79
     5
176
     1
170
     0
176
     1
171
     0
176
     1
290
     0
176
     1
 93
       13
176
     1
 44
0.0
176
     1
173
     0
176
     1
1001
ACAD
1000
AcDbSavedByObjectVersion
1070
     0
  0
VISUALSTYLE
  5
2C
102
{ACAD_XDICTIONARY
360
15B
102
}
102
{ACAD_REACTORS
330
29
102
}
330
29
100
AcDbVisualStyle
  2
Gouraud
 70
     2
177
     2
291
     1
 71
     2
176
     1
 72
     2
176
     1
 73
     1
176
     1
 90
        2
176
     1
 40
0.6
176
     1
 41
30.0
176
     1
 63
     7
421
 16777215
176
     1
 74
     0
176
     1
 91
        0
176
     1
 64
     7
176
     1
 65
   257
176
     1
 75
     1
176
     1
175
     1
176
     1
 42
1.0
176
     1
 92
        0
176
     1
 66
     7
176
     1
 43
1.0
176
     1
 76
     1
176
     1
 77
     6
176
     1
 78
     2
176
     1
 67
     7
176
     1
 79
     5
176
     1
170
     0
176
     1
171
     0
176
     1
290
     0
176
     1
 93
       13
176
     1
 44
0.0
176
     1
173
     0
176
     1
1001
ACAD
1000
AcDbSavedByObjectVersion
1070
     0
  0
VISUALSTYLE
  5
2D
102
{ACAD_XDICTIONARY
360
15D
102
}
102
{ACAD_REACTORS
330
29
102
}
330
29
100
AcDbVisualStyle
  2
GouraudWithEdges
 70
     3
177
     2
291
     1
 71
     2
176
     1
 72
     2
176
     1
 73
     1
176
     1
 90
        2
176
     1
 40
0.6
176
     1
 41
30.0
176
     1
 63
     7
421
 16777215
176
     1
 74
     1
176
     1
 91
        0
176
     1
 64
     7
176
     1
 65
   257
176
     1
 75
     1
176
     1
175
     1
176
     1
 42
1.0
176
     1
 92
        0
176
     1
 66
   257
176
     1
 43
1.0
176
     1
 76
     1
176
     1
 77
     6
176
     1
 78
     2
176
     1
 67
     7
176
     1
 79
     5
176
     1
170
     0
176
     1
171
     0
176
     1
290
     0
176
     1
 93
       13
176
     1
 44
0.0
176
     1
173
     0
176
     1
1001
ACAD
1000
AcDbSavedByObjectVersion
1070
     0
  0
VISUALSTYLE
  5
31
102
{ACAD_XDICTIONARY
360
165
102
}
102
{ACAD_REACTORS
330
29
102
}
330
29
100
AcDbVisualStyle
  2
Hidden
 70
     6
177
     2
291
     0
 71
     1
176
     1
 72
     2
176
     1
 73
     2
176
     1
 90
        0
176
     1
 40
0.6
176
     1
 41
30.0
176
     1
 63
     7
421
 16777215
176
     1
 74
     2
176
     1
 91
        2
176
     1
 64
     7
176
     1
 65
   257
176
     1
 75
     2
176
     1
175
     1
176
     1
 42
40.0
176
     1
 92
        0
176
     1
 66
   257
176
     1
 43
1.0
176
     1
 76
     1
176
     1
 77
     6
176
     1
 78
     2
176
     1
 67
     7
176
     1
 79
     3
176
     1
170
     0
176
     1
171
     0
176
     1
290
     0
176
     1
 93
        1
176
     1
 44
0.0
176
     1
173
     0
176
     1
1001
ACAD
1000
AcDbSavedByObjectVersion
1070
     0
  0
VISUALSTYLE
  5
3F
102
{ACAD_XDICTIONARY
360
181
102
}
102
{ACAD_REACTORS
330
29
102
}
330
29
100
AcDbVisualStyle
  2
JitterOff
 70
    20
177
     2
291
     1
 71
     2
176
     0
 72
     2
176
     0
 73
     0
176
     0
 90
        0
176
     0
 40
0.6
176
     0
 41
30.0
176
     0
 63
     7
421
 16777215
176
     0
 74
     1
176
     0
 91
        4
176
     0
 64
     7
176
     0
 65
   257
176
     0
 75
     1
176
     0
175
     1
176
     0
 42
1.0
176
     0
 92
       10
176
     2
 66
     7
176
     0
 43
1.0
176
     0
 76
     1
176
     0
 77
     6
176
     0
 78
     2
176
     0
 67
     7
176
     0
 79
     5
176
     0
170
     0
176
     0
171
     0
176
     0
290
     0
176
     0
 93
        1
176
     0
 44
0.0
176
     0
173
     0
176
     0
1001
ACAD
1000
AcDbSavedByObjectVersion
1070
     0
  0
VISUALSTYLE
  5
37
102
{ACAD_XDICTIONARY
360
171
102
}
102
{ACAD_REACTORS
330
29
102
}
330
29
100
AcDbVisualStyle
  2
Linepattern
 70
    14
177
     2
291
     1
 71
     2
176
     1
 72
     2
176
     1
 73
     0
176
     1
 90
        0
176
     1
 40
0.6
176
     1
 41
30.0
176
     1
 63
     7
421
 16777215
176
     1
 74
     1
176
     1
 91
        4
176
     1
 64
     7
176
     1
 65
   257
176
     1
 75
     7
176
     1
175
     7
176
     1
 42
1.0
176
     1
 92
        8
176
     1
 66
     7
176
     1
 43
1.0
176
     1
 76
     1
176
     1
 77
     6
176
     1
 78
     2
176
     1
 67
     7
176
     1
 79
     5
176
     1
170
     0
176
     1
171
     0
176
     1
290
     0
176
     1
 93
        1
176
     1
 44
0.0
176
     1
173
     0
176
     1
1001
ACAD
1000
AcDbSavedByObjectVersion
1070
     0
  0
VISUALSTYLE
  5
40
102
{ACAD_XDICTIONARY
360
183
102
}
102
{ACAD_REACTORS
330
29
102
}
330
29
100
AcDbVisualStyle
  2
OverhangOff
 70
    21
177
     2
291
     1
 71
     2
176
     0
 72
     2
176
     0
 73
     0
176
     0
 90
        0
176
     0
 40
0.6
176
     0
 41
30.0
176
     0
 63
     7
421
 16777215
176
     0
 74
     1
176
     0
 91
        4
176
     0
 64
     7
176
     0
 65
   257
176
     0
 75
     1
176
     0
175
     1
176
     0
 42
1.0
176
     0
 92
        9
176
     2
 66
     7
176
     0
 43
1.0
176
     0
 76
     1
176
     0
 77
     6
176
     0
 78
     2
176
     0
 67
     7
176
     0
 79
     5
176
     0
170
     0
176
     0
171
     0
176
     0
290
     0
176
     0
 93
        1
176
     0
 44
0.0
176
     0
173
     0
176
     0
1001
ACAD
1000
AcDbSavedByObjectVersion
1070
     0
  0
VISUALSTYLE
  5
33
102
{ACAD_XDICTIONARY
360
169
102
}
102
{ACAD_REACTORS
330
29
102
}
330
29
100
AcDbVisualStyle
  2
Realistic
 70
     8
177
     2
291
     0
 71
     2
176
     1
 72
     3
176
     1
 73
     0
176
     1
 90
        2
176
     1
 40
0.6
176
     1
 41
30.0
176
     1
 63
     7
421
 16777215
176
     1
 74
     0
176
     1
 91
        0
176
     1
 64
     7
176
     1
 65
   257
176
     1
 75
     1
176
     1
175
     1
176
     1
 42
1.0
176
     1
 92
        8
176
     1
 66
   257
176
     1
 43
1.0
176
     1
 76
     1
176
     1
 77
     6
176
     1
 78
     2
176
     1
 67
     7
176
     1
 79
     3
176
     1
170
     0
176
     1
171
     0
176
     1
290
     0
176
     1
 93
       13
176
     1
 44
0.0
176
     1
173
     0
176
     1
1001
ACAD
1000
AcDbSavedByObjectVersion
1070
     0
  0
VISUALSTYLE
  5
3E
102
{ACAD_XDICTIONARY
360
17F
102
}
102
{ACAD_REACTORS
330
29
102
}
330
29
100
AcDbVisualStyle
  2
Shaded
 70
    27
177
     2
291
     0
 71
     2
176
     1
 72
     2
176
     1
 73
     1
176
     1
 90
        2
176
     1
 40
0.6
176
     1
 41
30.0
176
     1
 63
     7
421
 16777215
176
     1
 74
     0
176
     1
 91
        4
176
     1
 64
     7
176
     1
 65
   257
176
     1
 75
     1
176
     1
175
     1
176
     1
 42
1.0
176
     1
 92
        8
176
     1
 66
   257
176
     1
 43
1.0
176
     1
 76
     1
176
     1
 77
     6
176
     1
 78
     2
176
     1
 67
     8
425
  7895160
176
     1
 79
     3
176
     1
170
     0
176
     1
171
     0
176
     1
290
     0
176
     1
 93
        5
176
     1
 44
0.0
176
     1
173
     0
176
     1
1001
ACAD
1000
AcDbSavedByObjectVersion
1070
     0
  0
VISUALSTYLE
  5
3D
102
{ACAD_XDICTIONARY
360
17D
102
}
102
{ACAD_REACTORS
330
29
102
}
330
29
100
AcDbVisualStyle
  2
Shaded with edges
 70
    26
177
     2
291
     0
 71
     2
176
     1
 72
     2
176
     1
 73
     1
176
     1
 90
        2
176
     1
 40
0.6
176
     1
 41
30.0
176
     1
 63
     7
421
 16777215
176
     1
 74
     1
176
     1
 91
        2
176
     1
 64
     7
176
     1
 65
   257
176
     1
 75
     2
176
     1
175
     1
176
     1
 42
1.0
176
     1
 92
        8
176
     1
 66
   257
176
     1
 43
1.0
176
     1
 76
     1
176
     1
 77
     6
176
     1
 78
     2
176
     1
 67
     7
176
     1
 79
     3
176
     1
170
     0
176
     1
171
     0
176
     1
290
     0
176
     1
 93
        5
176
     1
 44
0.0
176
     1
173
     0
176
     1
1001
ACAD
1000
AcDbSavedByObjectVersion
1070
     0
  0
VISUALSTYLE
  5
3A
102
{ACAD_XDICTIONARY
360
177
102
}
102
{ACAD_REACTORS
330
29
102
}
330
29
100
AcDbVisualStyle
  2
Shades of Gray
 70
    23
177
     2
291
     0
 71
     2
176
     1
 72
     2
176
     1
 73
     3
176
     1
 90
        0
176
     1
 40
0.6
176
     1
 41
30.0
176
     1
 63
     7
421
 16777215
176
     1
 74
     2
176
     1
 91
        2
176
     1
 64
     7
176
     1
 65
     7
176
     1
 75
     1
176
     1
175
     1
176
     1
 42
40.0
176
     1
 92
        8
176
     1
 66
     7
176
     1
 43
1.0
176
     1
 76
     1
176
     1
 77
     6
176
     1
 78
     2
176
     1
 67
     7
176
     1
 79
     3
176
     1
170
     0
176
     1
171
     0
176
     1
290
     0
176
     1
 93
        1
176
     1
 44
0.0
176
     1
173
     0
176
     1
1001
ACAD
1000
AcDbSavedByObjectVersion
1070
     0
  0
VISUALSTYLE
  5
3B
102
{ACAD_XDICTIONARY
360
179
102
}
102
{ACAD_REACTORS
330
29
102
}
330
29
100
AcDbVisualStyle
  2
Sketchy
 70
    24
177
     2
291
     0
 71
     1
176
     1
 72
     2
176
     1
 73
     2
176
     1
 90
        0
176
     1
 40
0.6
176
     1
 41
30.0
176
     1
 63
     7
421
 16777215
176
     1
 74
     2
176
     1
 91
        2
176
     1
 64
     7
176
     1
 65
     7
176
     1
 75
     1
176
     1
175
     1
176
     1
 42
40.0
176
     1
 92
       11
176
     1
 66
     7
176
     1
 43
1.0
176
     1
 76
     1
176
     1
 77
     6
176
     1
 78
     2
176
     1
 67
     7
176
     1
 79
     6
176
     1
170
     0
176
     1
171
     0
176
     1
290
     0
176
     1
 93
        1
176
     1
 44
0.0
176
     1
173
     0
176
     1
1001
ACAD
1000
AcDbSavedByObjectVersion
1070
     0
  0
VISUALSTYLE
  5
36
102
{ACAD_XDICTIONARY
360
16F
102
}
102
{ACAD_REACTORS
330
29
102
}
330
29
100
AcDbVisualStyle
  2
Thicken
 70
    13
177
     2
291
     1
 71
     2
176
     1
 72
     2
176
     1
 73
     0
176
     1
 90
        0
176
     1
 40
0.6
176
     1
 41
30.0
176
     1
 63
     7
421
 16777215
176
     1
 74
     1
176
     1
 91
        4
176
     1
 64
     7
176
     1
 65
   257
176
     1
 75
     1
176
     1
175
     1
176
     1
 42
1.0
176
     1
 92
       12
176
     1
 66
     7
176
     1
 43
1.0
176
     1
 76
     1
176
     1
 77
     6
176
     1
 78
     2
176
     1
 67
     7
176
     1
 79
     5
176
     1
170
     0
176
     1
171
     0
176
     1
290
     0
176
     1
 93
        1
176
     1
 44
0.0
176
     1
173
     0
176
     1
1001
ACAD
1000
AcDbSavedByObjectVersion
1070
     0
  0
VISUALSTYLE
  5
30
102
{ACAD_XDICTIONARY
360
163
102
}
102
{ACAD_REACTORS
330
29
102
}
330
29
100
AcDbVisualStyle
  2
Wireframe
 70
     5
177
     2
291
     0
 71
     0
176
     1
 72
     2
176
     1
 73
     0
176
     1
 90
        0
176
     1
 40
0.6
176
     1
 41
30.0
176
     1
 63
     7
421
 16777215
176
     1
 74
     1
176
     1
 91
        4
176
     1
 64
     7
176
     1
 65
   257
176
     1
 75
     1
176
     1
175
     1
176
     1
 42
1.0
176
     1
 92
        0
176
     1
 66
   257
176
     1
 43
1.0
176
     1
 76
     1
176
     1
 77
     6
176
     1
 78
     2
176
     1
 67
     7
176
     1
 79
     3
176
     1
170
     0
176
     1
171
     0
176
     1
290
     0
176
     1
 93
        1
176
     1
 44
0.0
176
     1
173
     0
176
     1
1001
ACAD
1000
AcDbSavedByObjectVersion
1070
     0
  0
VISUALSTYLE
  5
3C
102
{ACAD_XDICTIONARY
360
17B
102
}
102
{ACAD_REACTORS
330
29
102
}
330
29
100
AcDbVisualStyle
  2
X-Ray
 70
    25
177
     2
291
     0
 71
     2
176
     1
 72
     2
176
     1
 73
     1
176
     1
 90
        1
176
     1
 40
0.5
176
     1
 41
30.0
176
     1
 63
     7
421
 16777215
176
     1
 74
     1
176
     1
 91
        0
176
     1
 64
     7
176
     1
 65
   257
176
     1
 75
     1
176
     1
175
     1
176
     1
 42
1.0
176
     1
 92
        8
176
     1
 66
     7
176
     1
 43
1.0
176
     1
 76
     1
176
     1
 77
     6
176
     1
 78
     2
176
     1
 67
     7
176
     1
 79
     3
176
     1
170
     0
176
     1
171
     0
176
     1
290
     0
176
     1
 93
       13
176
     1
 44
0.0
176
     1
173
     0
176
     1
1001
ACAD
1000
AcDbSavedByObjectVersion
1070
     0
  0
DICTIONARYVAR
  5
153
102
{ACAD_REACTORS
330
14E
102
}
330
14E
100
DictionaryVariables
280
     0
  1
1:1
  0
DICTIONARYVAR
  5
150
102
{ACAD_REACTORS
330
14E
102
}
330
14E
100
DictionaryVariables
280
     0
  1
STANDARD
  0
DICTIONARYVAR
  5
14F
102
{ACAD_REACTORS
330
14E
102
}
330
14E
100
DictionaryVariables
280
     0
  1
STANDARD
  0
DICTIONARYVAR
  5
151
102
{ACAD_REACTORS
330
14E
102
}
330
14E
100
DictionaryVariables
280
     0
  1
Imperial24
  0
DICTIONARYVAR
  5
152
102
{ACAD_REACTORS
330
14E
102
}
330
14E
100
DictionaryVariables
280
     0
  1
Imperial24
  0
DICTIONARY
  5
18B
330
6B
100
AcDbDictionary
280
     1
281
     1
  3
ACAD_XREC_ROUNDTRIP
360
18C
  0
DICTIONARY
  5
1A
330
19
100
AcDbDictionary
280
     1
281
     1
  3
BUMPTILE
360
1C
  3
DIFFUSETILE
360
1B
  3
OPACITYTILE
360
1F
  3
REFLECTIONTILE
360
1E
  3
REFRACTIONTILE
360
20
  3
SPECULARTILE
360
1D
  0
DICTIONARY
  5
12
330
11
100
AcDbDictionary
280
     1
281
     1
  3
BUMPTILE
360
14
  3
DIFFUSETILE
360
13
  3
OPACITYTILE
360
17
  3
REFLECTIONTILE
360
16
  3
REFRACTIONTILE
360
18
  3
SPECULARTILE
360
15
  0
DICTIONARY
  5
22
330
21
100
AcDbDictionary
280
     1
281
     1
  3
BUMPTILE
360
24
  3
DIFFUSETILE
360
23
  3
OPACITYTILE
360
27
  3
REFLECTIONTILE
360
26
  3
REFRACTIONTILE
360
28
  3
SPECULARTILE
360
25
  0
DICTIONARY
  5
187
330
67
100
AcDbDictionary
280
     1
281
     1
  3
ACAD_XREC_ROUNDTRIP
360
188
  0
DICTIONARY
  5
189
330
69
100
AcDbDictionary
280
     1
281
     1
  3
ACAD_XREC_ROUNDTRIP
360
18A
  0
DICTIONARY
  5
154
330
65
100
AcDbDictionary
280
     1
281
     1
  3
ACAD_ROUNDTRIP_2008_TABLESTYLE_CELLSTYLEMAP
360
155
  0
DICTIONARY
  5
161
330
2F
100
AcDbDictionary
280
     1
281
     1
  3
ACAD_XREC_ROUNDTRIP
360
162
  0
DICTIONARY
  5
15F
330
2E
100
AcDbDictionary
280
     1
281
     1
  3
ACAD_XREC_ROUNDTRIP
360
160
  0
DICTIONARY
  5
16D
330
35
100
AcDbDictionary
280
     1
281
     1
  3
ACAD_XREC_ROUNDTRIP
360
16E
  0
DICTIONARY
  5
175
330
39
100
AcDbDictionary
280
     1
281
     1
  3
ACAD_XREC_ROUNDTRIP
360
176
  0
DICTIONARY
  5
167
330
32
100
AcDbDictionary
280
     1
281
     1
  3
ACAD_XREC_ROUNDTRIP
360
168
  0
DICTIONARY
  5
16B
330
34
100
AcDbDictionary
280
     1
281
     1
  3
ACAD_XREC_ROUNDTRIP
360
16C
  0
DICTIONARY
  5
185
330
41
100
AcDbDictionary
280
     1
281
     1
  3
ACAD_XREC_ROUNDTRIP
360
186
  0
DICTIONARY
  5
173
330
38
100
AcDbDictionary
280
     1
281
     1
  3
ACAD_XREC_ROUNDTRIP
360
174
  0
DICTIONARY
  5
157
330
2A
100
AcDbDictionary
280
     1
281
     1
  3
ACAD_XREC_ROUNDTRIP
360
158
  0
DICTIONARY
  5
159
330
2B
100
AcDbDictionary
280
     1
281
     1
  3
ACAD_XREC_ROUNDTRIP
360
15A
  0
DICTIONARY
  5
15B
330
2C
100
AcDbDictionary
280
     1
281
     1
  3
ACAD_XREC_ROUNDTRIP
360
15C
  0
DICTIONARY
  5
15D
330
2D
100
AcDbDictionary
280
     1
281
     1
  3
ACAD_XREC_ROUNDTRIP
360
15E
  0
DICTIONARY
  5
165
330
31
100
AcDbDictionary
280
     1
281
     1
  3
ACAD_XREC_ROUNDTRIP
360
166
  0
DICTIONARY
  5
181
330
3F
100
AcDbDictionary
280
     1
281
     1
  3
ACAD_XREC_ROUNDTRIP
360
182
  0
DICTIONARY
  5
171
330
37
100
AcDbDictionary
280
     1
281
     1
  3
ACAD_XREC_ROUNDTRIP
360
172
  0
DICTIONARY
  5
183
330
40
100
AcDbDictionary
280
     1
281
     1
  3
ACAD_XREC_ROUNDTRIP
360
184
  0
DICTIONARY
  5
169
330
33
100
AcDbDictionary
280
     1
281
     1
  3
ACAD_XREC_ROUNDTRIP
360
16A
  0
DICTIONARY
  5
17F
330
3E
100
AcDbDictionary
280
     1
281
     1
  3
ACAD_XREC_ROUNDTRIP
360
180
  0
DICTIONARY
  5
17D
330
3D
100
AcDbDictionary
280
     1
281
     1
  3
ACAD_XREC_ROUNDTRIP
360
17E
  0
DICTIONARY
  5
177
330
3A
100
AcDbDictionary
280
     1
281
     1
  3
ACAD_XREC_ROUNDTRIP
360
178
  0
DICTIONARY
  5
179
330
3B
100
AcDbDictionary
280
     1
281
     1
  3
ACAD_XREC_ROUNDTRIP
360
17A
  0
DICTIONARY
  5
16F
330
36
100
AcDbDictionary
280
     1
281
     1
  3
ACAD_XREC_ROUNDTRIP
360
170
  0
DICTIONARY
  5
163
330
30
100
AcDbDictionary
280
     1
281
     1
  3
ACAD_XREC_ROUNDTRIP
360
164
  0
DICTIONARY
  5
17B
330
3C
100
AcDbDictionary
280
     1
281
     1
  3
ACAD_XREC_ROUNDTRIP
360
17C
  0
XRECORD
  5
18C
102
{ACAD_REACTORS
330
18B
102
}
330
18B
100
AcDbXrecord
280
     1
102
DISPLAYNAME
  1
Imperial24
102
FLAGS
 90
        0
  0
XRECORD
  5
1C
102
{ACAD_REACTORS
330
1A
102
}
330
1A
100
AcDbXrecord
280
     1
270
     1
271
     1
  0
XRECORD
  5
1B
102
{ACAD_REACTORS
330
1A
102
}
330
1A
100
AcDbXrecord
280
     1
270
     1
271
     1
  0
XRECORD
  5
1F
102
{ACAD_REACTORS
330
1A
102
}
330
1A
100
AcDbXrecord
280
     1
270
     1
271
     1
  0
XRECORD
  5
1E
102
{ACAD_REACTORS
330
1A
102
}
330
1A
100
AcDbXrecord
280
     1
270
     1
271
     1
  0
XRECORD
  5
20
102
{ACAD_REACTORS
330
1A
102
}
330
1A
100
AcDbXrecord
280
     1
270
     1
271
     1
  0
XRECORD
  5
1D
102
{ACAD_REACTORS
330
1A
102
}
330
1A
100
AcDbXrecord
280
     1
270
     1
271
     1
  0
XRECORD
  5
14
102
{ACAD_REACTORS
330
12
102
}
330
12
100
AcDbXrecord
280
     1
270
     1
271
     1
  0
XRECORD
  5
13
102
{ACAD_REACTORS
330
12
102
}
330
12
100
AcDbXrecord
280
     1
270
     1
271
     1
  0
XRECORD
  5
17
102
{ACAD_REACTORS
330
12
102
}
330
12
100
AcDbXrecord
280
     1
270
     1
271
     1
  0
XRECORD
  5
16
102
{ACAD_REACTORS
330
12
102
}
330
12
100
AcDbXrecord
280
     1
270
     1
271
     1
  0
XRECORD
  5
18
102
{ACAD_REACTORS
330
12
102
}
330
12
100
AcDbXrecord
280
     1
270
     1
271
     1
  0
XRECORD
  5
15
102
{ACAD_REACTORS
330
12
102
}
330
12
100
AcDbXrecord
280
     1
270
     1
271
     1
  0
XRECORD
  5
24
102
{ACAD_REACTORS
330
22
102
}
330
22
100
AcDbXrecord
280
     1
270
     1
271
     1
  0
XRECORD
  5
23
102
{ACAD_REACTORS
330
22
102
}
330
22
100
AcDbXrecord
280
     1
270
     1
271
     1
  0
XRECORD
  5
27
102
{ACAD_REACTORS
330
22
102
}
330
22
100
AcDbXrecord
280
     1
270
     1
271
     1
  0
XRECORD
  5
26
102
{ACAD_REACTORS
330
22
102
}
330
22
100
AcDbXrecord
280
     1
270
     1
271
     1
  0
XRECORD
  5
28
102
{ACAD_REACTORS
330
22
102
}
330
22
100
AcDbXrecord
280
     1
270
     1
271
     1
  0
XRECORD
  5
25
102
{ACAD_REACTORS
330
22
102
}
330
22
100
AcDbXrecord
280
     1
270
     1
271
     1
  0
XRECORD
  5
188
102
{ACAD_REACTORS
330
187
102
}
330
187
100
AcDbXrecord
280
     1
102
ACAD_ROUNDTRIP_2012_MLEADER_STYLE
298
     1
  0
XRECORD
  5
18A
102
{ACAD_REACTORS
330
189
102
}
330
189
100
AcDbXrecord
280
     1
102
DISPLAYNAME
  1
Imperial24
102
FLAGS
 90
        0
  0
CELLSTYLEMAP
  5
155
102
{ACAD_REACTORS
330
154
102
}
330
154
100
AcDbCellStyleMap
 90
        3
300
CELLSTYLE
  1
TABLEFORMAT_BEGIN
 90
        5
170
     1
 91
        0
 92
    32768
 62
   257
 93
        1
300
CONTENTFORMAT
  1
CONTENTFORMAT_BEGIN
 90
        0
 91
        0
 92
      512
 93
        0
300

 40
0.0
140
1.0
 94
        5
 62
     0
340
55
144
0.25
309
CONTENTFORMAT_END
171
     0
 94
        0
309
TABLEFORMAT_END
  1
CELLSTYLE_BEGIN
 90
        1
 91
        1
300
_TITLE
309
CELLSTYLE_END
300
CELLSTYLE
  1
TABLEFORMAT_BEGIN
 90
        5
170
     1
 91
        0
 92
        0
 62
   257
 93
        1
300
CONTENTFORMAT
  1
CONTENTFORMAT_BEGIN
 90
        0
 91
        0
 92
      512
 93
        0
300

 40
0.0
140
1.0
 94
        5
 62
     0
340
55
144
0.18
309
CONTENTFORMAT_END
171
     0
 94
        0
309
TABLEFORMAT_END
  1
CELLSTYLE_BEGIN
 90
        2
 91
        1
300
_HEADER
309
CELLSTYLE_END
300
CELLSTYLE
  1
TABLEFORMAT_BEGIN
 90
        5
170
     1
 91
        0
 92
        0
 62
   257
 93
        1
300
CONTENTFORMAT
  1
CONTENTFORMAT_BEGIN
 90
        0
 91
        0
 92
      512
 93
        0
300

 40
0.0
140
1.0
 94
        2
 62
     0
340
55
144
0.18
309
CONTENTFORMAT_END
171
     0
 94
        0
309
TABLEFORMAT_END
  1
CELLSTYLE_BEGIN
 90
        3
 91
        2
300
_DATA
309
CELLSTYLE_END
  0
XRECORD
  5
162
102
{ACAD_REACTORS
330
161
102
}
330
161
100
AcDbXrecord
280
     1
102
RTVSPost2010Prop28
280
     1
102
RTVSPost2010PropOp28
 70
     1
102
RTVSPost2010Prop29
280
     1
102
RTVSPost2010PropOp29
 70
     1
102
RTVSPost2010Prop30
280
     0
102
RTVSPost2010PropOp30
 70
     1
102
RTVSPost2010Prop31
280
     0
102
RTVSPost2010PropOp31
 70
     1
102
RTVSPost2010Prop32
280
     0
102
RTVSPost2010PropOp32
 70
     1
102
RTVSPost2010Prop33
280
     0
102
RTVSPost2010PropOp33
 70
     1
102
RTVSPost2010Prop34
280
     0
102
RTVSPost2010PropOp34
 70
     1
102
RTVSPost2010Prop35
280
     0
102
RTVSPost2010PropOp35
 70
     1
102
RTVSPost2010Prop36
280
     0
102
RTVSPost2010PropOp36
 70
     1
102
RTVSPost2010Prop37
 90
       50
102
RTVSPost2010PropOp37
 70
     1
102
RTVSPost2010Prop38
140
0.0
102
RTVSPost2010PropOp38
 70
     1
102
RTVSPost2010Prop39
140
1.0
102
RTVSPost2010PropOp39
 70
     1
102
RTVSPost2010Prop40
 90
        0
102
RTVSPost2010PropOp40
 70
     1
102
RTVSPost2010Prop41ColorIndex
 90
       18
102
RTVSPost2010Prop41ColorRGB
 90
        0
102
RTVSPost2010PropOp41
 70
     1
102
RTVSPost2010Prop42
 90
       50
102
RTVSPost2010PropOp42
 70
     1
102
RTVSPost2010Prop43
 90
        3
102
RTVSPost2010PropOp43
 70
     1
102
RTVSPost2010Prop44ColorIndex
 90
        5
102
RTVSPost2010Prop44ColorRGB
 90
      255
102
RTVSPost2010PropOp44
 70
     1
102
RTVSPost2010Prop45
280
     0
102
RTVSPost2010PropOp45
 70
     1
102
RTVSPost2010Prop46
 90
       50
102
RTVSPost2010PropOp46
 70
     1
102
RTVSPost2010Prop47
 90
       50
102
RTVSPost2010PropOp47
 70
     1
102
RTVSPost2010Prop48
 90
       50
102
RTVSPost2010PropOp48
 70
     1
102
RTVSPost2010Prop49
280
     0
102
RTVSPost2010PropOp49
 70
     1
102
RTVSPost2010Prop50
 90
       50
102
RTVSPost2010PropOp50
 70
     1
102
RTVSPost2010Prop51ColorIndex
 90
      256
102
RTVSPost2010Prop51ColorRGB
 90
-16777216
102
RTVSPost2010PropOp51
 70
     0
102
RTVSPost2010Prop52
140
1.0
102
RTVSPost2010PropOp52
 70
     0
102
RTVSPost2010Prop53
 90
        2
102
RTVSPost2010PropOp53
 70
     1
102
RTVSPost2010Prop54
  1
strokes_ogs.tif
102
RTVSPost2010PropOp54
 70
     1
102
RTVSPost2010Prop55
280
     0
102
RTVSPost2010PropOp55
 70
     1
102
RTVSPost2010Prop56
140
1.0
102
RTVSPost2010PropOp56
 70
     1
102
RTVSPost2010Prop57
140
1.0
102
RTVSPost2010PropOp57
 70
     1
  0
XRECORD
  5
160
102
{ACAD_REACTORS
330
15F
102
}
330
15F
100
AcDbXrecord
280
     1
102
RTVSPost2010Prop28
280
     0
102
RTVSPost2010PropOp28
 70
     1
102
RTVSPost2010Prop29
280
     1
102
RTVSPost2010PropOp29
 70
     1
102
RTVSPost2010Prop30
280
     1
102
RTVSPost2010PropOp30
 70
     1
102
RTVSPost2010Prop31
280
     0
102
RTVSPost2010PropOp31
 70
     1
102
RTVSPost2010Prop32
280
     0
102
RTVSPost2010PropOp32
 70
     1
102
RTVSPost2010Prop33
280
     0
102
RTVSPost2010PropOp33
 70
     1
102
RTVSPost2010Prop34
280
     0
102
RTVSPost2010PropOp34
 70
     1
102
RTVSPost2010Prop35
280
     0
102
RTVSPost2010PropOp35
 70
     1
102
RTVSPost2010Prop36
280
     0
102
RTVSPost2010PropOp36
 70
     1
102
RTVSPost2010Prop37
 90
       50
102
RTVSPost2010PropOp37
 70
     1
102
RTVSPost2010Prop38
140
0.0
102
RTVSPost2010PropOp38
 70
     1
102
RTVSPost2010Prop39
140
1.0
102
RTVSPost2010PropOp39
 70
     1
102
RTVSPost2010Prop40
 90
        0
102
RTVSPost2010PropOp40
 70
     1
102
RTVSPost2010Prop41ColorIndex
 90
       18
102
RTVSPost2010Prop41ColorRGB
 90
        0
102
RTVSPost2010PropOp41
 70
     1
102
RTVSPost2010Prop42
 90
       50
102
RTVSPost2010PropOp42
 70
     1
102
RTVSPost2010Prop43
 90
        3
102
RTVSPost2010PropOp43
 70
     1
102
RTVSPost2010Prop44ColorIndex
 90
        5
102
RTVSPost2010Prop44ColorRGB
 90
      255
102
RTVSPost2010PropOp44
 70
     1
102
RTVSPost2010Prop45
280
     0
102
RTVSPost2010PropOp45
 70
     1
102
RTVSPost2010Prop46
 90
       50
102
RTVSPost2010PropOp46
 70
     1
102
RTVSPost2010Prop47
 90
       50
102
RTVSPost2010PropOp47
 70
     1
102
RTVSPost2010Prop48
 90
       50
102
RTVSPost2010PropOp48
 70
     1
102
RTVSPost2010Prop49
280
     0
102
RTVSPost2010PropOp49
 70
     1
102
RTVSPost2010Prop50
 90
       50
102
RTVSPost2010PropOp50
 70
     1
102
RTVSPost2010Prop51ColorIndex
 90
      256
102
RTVSPost2010Prop51ColorRGB
 90
-16777216
102
RTVSPost2010PropOp51
 70
     0
102
RTVSPost2010Prop52
140
1.0
102
RTVSPost2010PropOp52
 70
     0
102
RTVSPost2010Prop53
 90
        2
102
RTVSPost2010PropOp53
 70
     1
102
RTVSPost2010Prop54
  1
strokes_ogs.tif
102
RTVSPost2010PropOp54
 70
     1
102
RTVSPost2010Prop55
280
     0
102
RTVSPost2010PropOp55
 70
     1
102
RTVSPost2010Prop56
140
1.0
102
RTVSPost2010PropOp56
 70
     1
102
RTVSPost2010Prop57
140
1.0
102
RTVSPost2010PropOp57
 70
     1
  0
XRECORD
  5
16E
102
{ACAD_REACTORS
330
16D
102
}
330
16D
100
AcDbXrecord
280
     1
102
RTVSPost2010Prop28
280
     0
102
RTVSPost2010PropOp28
 70
     1
102
RTVSPost2010Prop29
280
     1
102
RTVSPost2010PropOp29
 70
     1
102
RTVSPost2010Prop30
280
     1
102
RTVSPost2010PropOp30
 70
     1
102
RTVSPost2010Prop31
280
     0
102
RTVSPost2010PropOp31
 70
     1
102
RTVSPost2010Prop32
280
     0
102
RTVSPost2010PropOp32
 70
     1
102
RTVSPost2010Prop33
280
     0
102
RTVSPost2010PropOp33
 70
     1
102
RTVSPost2010Prop34
280
     0
102
RTVSPost2010PropOp34
 70
     1
102
RTVSPost2010Prop35
280
     0
102
RTVSPost2010PropOp35
 70
     1
102
RTVSPost2010Prop36
280
     0
102
RTVSPost2010PropOp36
 70
     1
102
RTVSPost2010Prop37
 90
       50
102
RTVSPost2010PropOp37
 70
     1
102
RTVSPost2010Prop38
140
0.0
102
RTVSPost2010PropOp38
 70
     1
102
RTVSPost2010Prop39
140
1.0
102
RTVSPost2010PropOp39
 70
     1
102
RTVSPost2010Prop40
 90
        0
102
RTVSPost2010PropOp40
 70
     1
102
RTVSPost2010Prop41ColorIndex
 90
       18
102
RTVSPost2010Prop41ColorRGB
 90
        0
102
RTVSPost2010PropOp41
 70
     1
102
RTVSPost2010Prop42
 90
       50
102
RTVSPost2010PropOp42
 70
     1
102
RTVSPost2010Prop43
 90
        3
102
RTVSPost2010PropOp43
 70
     1
102
RTVSPost2010Prop44ColorIndex
 90
        5
102
RTVSPost2010Prop44ColorRGB
 90
      255
102
RTVSPost2010PropOp44
 70
     1
102
RTVSPost2010Prop45
280
     0
102
RTVSPost2010PropOp45
 70
     1
102
RTVSPost2010Prop46
 90
       50
102
RTVSPost2010PropOp46
 70
     1
102
RTVSPost2010Prop47
 90
       50
102
RTVSPost2010PropOp47
 70
     1
102
RTVSPost2010Prop48
 90
       50
102
RTVSPost2010PropOp48
 70
     1
102
RTVSPost2010Prop49
280
     0
102
RTVSPost2010PropOp49
 70
     1
102
RTVSPost2010Prop50
 90
       50
102
RTVSPost2010PropOp50
 70
     1
102
RTVSPost2010Prop51ColorIndex
 90
      256
102
RTVSPost2010Prop51ColorRGB
 90
-16777216
102
RTVSPost2010PropOp51
 70
     0
102
RTVSPost2010Prop52
140
1.0
102
RTVSPost2010PropOp52
 70
     0
102
RTVSPost2010Prop53
 90
        2
102
RTVSPost2010PropOp53
 70
     1
102
RTVSPost2010Prop54
  1
strokes_ogs.tif
102
RTVSPost2010PropOp54
 70
     1
102
RTVSPost2010Prop55
280
     0
102
RTVSPost2010PropOp55
 70
     1
102
RTVSPost2010Prop56
140
1.0
102
RTVSPost2010PropOp56
 70
     1
102
RTVSPost2010Prop57
140
1.0
102
RTVSPost2010PropOp57
 70
     1
  0
XRECORD
  5
176
102
{ACAD_REACTORS
330
175
102
}
330
175
100
AcDbXrecord
280
     1
102
RTVSPost2010Prop28
280
     0
102
RTVSPost2010PropOp28
 70
     1
102
RTVSPost2010Prop29
280
     1
102
RTVSPost2010PropOp29
 70
     1
102
RTVSPost2010Prop30
280
     1
102
RTVSPost2010PropOp30
 70
     1
102
RTVSPost2010Prop31
280
     0
102
RTVSPost2010PropOp31
 70
     1
102
RTVSPost2010Prop32
280
     0
102
RTVSPost2010PropOp32
 70
     1
102
RTVSPost2010Prop33
280
     0
102
RTVSPost2010PropOp33
 70
     1
102
RTVSPost2010Prop34
280
     0
102
RTVSPost2010PropOp34
 70
     1
102
RTVSPost2010Prop35
280
     0
102
RTVSPost2010PropOp35
 70
     1
102
RTVSPost2010Prop36
280
     0
102
RTVSPost2010PropOp36
 70
     1
102
RTVSPost2010Prop37
 90
       50
102
RTVSPost2010PropOp37
 70
     1
102
RTVSPost2010Prop38
140
0.0
102
RTVSPost2010PropOp38
 70
     1
102
RTVSPost2010Prop39
140
1.0
102
RTVSPost2010PropOp39
 70
     1
102
RTVSPost2010Prop40
 90
        0
102
RTVSPost2010PropOp40
 70
     1
102
RTVSPost2010Prop41ColorIndex
 90
       18
102
RTVSPost2010Prop41ColorRGB
 90
        0
102
RTVSPost2010PropOp41
 70
     1
102
RTVSPost2010Prop42
 90
       50
102
RTVSPost2010PropOp42
 70
     1
102
RTVSPost2010Prop43
 90
        3
102
RTVSPost2010PropOp43
 70
     1
102
RTVSPost2010Prop44ColorIndex
 90
        5
102
RTVSPost2010Prop44ColorRGB
 90
      255
102
RTVSPost2010PropOp44
 70
     1
102
RTVSPost2010Prop45
280
     0
102
RTVSPost2010PropOp45
 70
     1
102
RTVSPost2010Prop46
 90
       50
102
RTVSPost2010PropOp46
 70
     1
102
RTVSPost2010Prop47
 90
       50
102
RTVSPost2010PropOp47
 70
     1
102
RTVSPost2010Prop48
 90
       50
102
RTVSPost2010PropOp48
 70
     1
102
RTVSPost2010Prop49
280
     0
102
RTVSPost2010PropOp49
 70
     1
102
RTVSPost2010Prop50
 90
       50
102
RTVSPost2010PropOp50
 70
     1
102
RTVSPost2010Prop51ColorIndex
 90
      256
102
RTVSPost2010Prop51ColorRGB
 90
-16777216
102
RTVSPost2010PropOp51
 70
     0
102
RTVSPost2010Prop52
140
1.0
102
RTVSPost2010PropOp52
 70
     0
102
RTVSPost2010Prop53
 90
        2
102
RTVSPost2010PropOp53
 70
     1
102
RTVSPost2010Prop54
  1
strokes_ogs.tif
102
RTVSPost2010PropOp54
 70
     1
102
RTVSPost2010Prop55
280
     0
102
RTVSPost2010PropOp55
 70
     1
102
RTVSPost2010Prop56
140
1.0
102
RTVSPost2010PropOp56
 70
     1
102
RTVSPost2010Prop57
140
1.0
102
RTVSPost2010PropOp57
 70
     1
  0
XRECORD
  5
168
102
{ACAD_REACTORS
330
167
102
}
330
167
100
AcDbXrecord
280
     1
102
RTVSPost2010Prop28
280
     0
102
RTVSPost2010PropOp28
 70
     1
102
RTVSPost2010Prop29
280
     1
102
RTVSPost2010PropOp29
 70
     1
102
RTVSPost2010Prop30
280
     1
102
RTVSPost2010PropOp30
 70
     1
102
RTVSPost2010Prop31
280
     0
102
RTVSPost2010PropOp31
 70
     1
102
RTVSPost2010Prop32
280
     0
102
RTVSPost2010PropOp32
 70
     1
102
RTVSPost2010Prop33
280
     0
102
RTVSPost2010PropOp33
 70
     1
102
RTVSPost2010Prop34
280
     0
102
RTVSPost2010PropOp34
 70
     1
102
RTVSPost2010Prop35
280
     0
102
RTVSPost2010PropOp35
 70
     1
102
RTVSPost2010Prop36
280
     0
102
RTVSPost2010PropOp36
 70
     1
102
RTVSPost2010Prop37
 90
       50
102
RTVSPost2010PropOp37
 70
     1
102
RTVSPost2010Prop38
140
0.0
102
RTVSPost2010PropOp38
 70
     1
102
RTVSPost2010Prop39
140
1.0
102
RTVSPost2010PropOp39
 70
     1
102
RTVSPost2010Prop40
 90
        0
102
RTVSPost2010PropOp40
 70
     1
102
RTVSPost2010Prop41ColorIndex
 90
       18
102
RTVSPost2010Prop41ColorRGB
 90
        0
102
RTVSPost2010PropOp41
 70
     1
102
RTVSPost2010Prop42
 90
       50
102
RTVSPost2010PropOp42
 70
     1
102
RTVSPost2010Prop43
 90
        3
102
RTVSPost2010PropOp43
 70
     1
102
RTVSPost2010Prop44ColorIndex
 90
        5
102
RTVSPost2010Prop44ColorRGB
 90
      255
102
RTVSPost2010PropOp44
 70
     1
102
RTVSPost2010Prop45
280
     0
102
RTVSPost2010PropOp45
 70
     1
102
RTVSPost2010Prop46
 90
       50
102
RTVSPost2010PropOp46
 70
     1
102
RTVSPost2010Prop47
 90
       50
102
RTVSPost2010PropOp47
 70
     1
102
RTVSPost2010Prop48
 90
       50
102
RTVSPost2010PropOp48
 70
     1
102
RTVSPost2010Prop49
280
     0
102
RTVSPost2010PropOp49
 70
     1
102
RTVSPost2010Prop50
 90
       50
102
RTVSPost2010PropOp50
 70
     1
102
RTVSPost2010Prop51ColorIndex
 90
      256
102
RTVSPost2010Prop51ColorRGB
 90
-16777216
102
RTVSPost2010PropOp51
 70
     0
102
RTVSPost2010Prop52
140
1.0
102
RTVSPost2010PropOp52
 70
     0
102
RTVSPost2010Prop53
 90
        2
102
RTVSPost2010PropOp53
 70
     1
102
RTVSPost2010Prop54
  1
strokes_ogs.tif
102
RTVSPost2010PropOp54
 70
     1
102
RTVSPost2010Prop55
280
     0
102
RTVSPost2010PropOp55
 70
     1
102
RTVSPost2010Prop56
140
1.0
102
RTVSPost2010PropOp56
 70
     1
102
RTVSPost2010Prop57
140
1.0
102
RTVSPost2010PropOp57
 70
     1
  0
XRECORD
  5
16C
102
{ACAD_REACTORS
330
16B
102
}
330
16B
100
AcDbXrecord
280
     1
102
RTVSPost2010Prop28
280
     0
102
RTVSPost2010PropOp28
 70
     1
102
RTVSPost2010Prop29
280
     1
102
RTVSPost2010PropOp29
 70
     1
102
RTVSPost2010Prop30
280
     1
102
RTVSPost2010PropOp30
 70
     1
102
RTVSPost2010Prop31
280
     0
102
RTVSPost2010PropOp31
 70
     1
102
RTVSPost2010Prop32
280
     0
102
RTVSPost2010PropOp32
 70
     1
102
RTVSPost2010Prop33
280
     0
102
RTVSPost2010PropOp33
 70
     1
102
RTVSPost2010Prop34
280
     0
102
RTVSPost2010PropOp34
 70
     1
102
RTVSPost2010Prop35
280
     0
102
RTVSPost2010PropOp35
 70
     1
102
RTVSPost2010Prop36
280
     0
102
RTVSPost2010PropOp36
 70
     1
102
RTVSPost2010Prop37
 90
       50
102
RTVSPost2010PropOp37
 70
     1
102
RTVSPost2010Prop38
140
0.0
102
RTVSPost2010PropOp38
 70
     1
102
RTVSPost2010Prop39
140
1.0
102
RTVSPost2010PropOp39
 70
     1
102
RTVSPost2010Prop40
 90
        0
102
RTVSPost2010PropOp40
 70
     1
102
RTVSPost2010Prop41ColorIndex
 90
       18
102
RTVSPost2010Prop41ColorRGB
 90
        0
102
RTVSPost2010PropOp41
 70
     1
102
RTVSPost2010Prop42
 90
       50
102
RTVSPost2010PropOp42
 70
     1
102
RTVSPost2010Prop43
 90
        3
102
RTVSPost2010PropOp43
 70
     1
102
RTVSPost2010Prop44ColorIndex
 90
        5
102
RTVSPost2010Prop44ColorRGB
 90
      255
102
RTVSPost2010PropOp44
 70
     1
102
RTVSPost2010Prop45
280
     0
102
RTVSPost2010PropOp45
 70
     1
102
RTVSPost2010Prop46
 90
       50
102
RTVSPost2010PropOp46
 70
     1
102
RTVSPost2010Prop47
 90
       50
102
RTVSPost2010PropOp47
 70
     1
102
RTVSPost2010Prop48
 90
       50
102
RTVSPost2010PropOp48
 70
     1
102
RTVSPost2010Prop49
280
     0
102
RTVSPost2010PropOp49
 70
     1
102
RTVSPost2010Prop50
 90
       50
102
RTVSPost2010PropOp50
 70
     1
102
RTVSPost2010Prop51ColorIndex
 90
      256
102
RTVSPost2010Prop51ColorRGB
 90
-16777216
102
RTVSPost2010PropOp51
 70
     0
102
RTVSPost2010Prop52
140
1.0
102
RTVSPost2010PropOp52
 70
     0
102
RTVSPost2010Prop53
 90
        2
102
RTVSPost2010PropOp53
 70
     1
102
RTVSPost2010Prop54
  1
strokes_ogs.tif
102
RTVSPost2010PropOp54
 70
     1
102
RTVSPost2010Prop55
280
     0
102
RTVSPost2010PropOp55
 70
     1
102
RTVSPost2010Prop56
140
1.0
102
RTVSPost2010PropOp56
 70
     1
102
RTVSPost2010Prop57
140
1.0
102
RTVSPost2010PropOp57
 70
     1
  0
XRECORD
  5
186
102
{ACAD_REACTORS
330
185
102
}
330
185
100
AcDbXrecord
280
     1
102
RTVSPost2010Prop28
280
     0
102
RTVSPost2010PropOp28
 70
     0
102
RTVSPost2010Prop29
280
     1
102
RTVSPost2010PropOp29
 70
     0
102
RTVSPost2010Prop30
280
     1
102
RTVSPost2010PropOp30
 70
     0
102
RTVSPost2010Prop31
280
     0
102
RTVSPost2010PropOp31
 70
     0
102
RTVSPost2010Prop32
280
     0
102
RTVSPost2010PropOp32
 70
     0
102
RTVSPost2010Prop33
280
     0
102
RTVSPost2010PropOp33
 70
     0
102
RTVSPost2010Prop34
280
     0
102
RTVSPost2010PropOp34
 70
     0
102
RTVSPost2010Prop35
280
     0
102
RTVSPost2010PropOp35
 70
     0
102
RTVSPost2010Prop36
280
     0
102
RTVSPost2010PropOp36
 70
     0
102
RTVSPost2010Prop37
 90
       50
102
RTVSPost2010PropOp37
 70
     0
102
RTVSPost2010Prop38
140
0.0
102
RTVSPost2010PropOp38
 70
     0
102
RTVSPost2010Prop39
140
1.0
102
RTVSPost2010PropOp39
 70
     0
102
RTVSPost2010Prop40
 90
        0
102
RTVSPost2010PropOp40
 70
     0
102
RTVSPost2010Prop41ColorIndex
 90
       18
102
RTVSPost2010Prop41ColorRGB
 90
        0
102
RTVSPost2010PropOp41
 70
     0
102
RTVSPost2010Prop42
 90
       50
102
RTVSPost2010PropOp42
 70
     0
102
RTVSPost2010Prop43
 90
        3
102
RTVSPost2010PropOp43
 70
     0
102
RTVSPost2010Prop44ColorIndex
 90
        5
102
RTVSPost2010Prop44ColorRGB
 90
      255
102
RTVSPost2010PropOp44
 70
     0
102
RTVSPost2010Prop45
280
     0
102
RTVSPost2010PropOp45
 70
     0
102
RTVSPost2010Prop46
 90
       50
102
RTVSPost2010PropOp46
 70
     0
102
RTVSPost2010Prop47
 90
       50
102
RTVSPost2010PropOp47
 70
     0
102
RTVSPost2010Prop48
 90
       50
102
RTVSPost2010PropOp48
 70
     0
102
RTVSPost2010Prop49
280
     0
102
RTVSPost2010PropOp49
 70
     0
102
RTVSPost2010Prop50
 90
       50
102
RTVSPost2010PropOp50
 70
     0
102
RTVSPost2010Prop51ColorIndex
 90
      256
102
RTVSPost2010Prop51ColorRGB
 90
-16777216
102
RTVSPost2010PropOp51
 70
     0
102
RTVSPost2010Prop52
140
1.0
102
RTVSPost2010PropOp52
 70
     0
102
RTVSPost2010Prop53
 90
        2
102
RTVSPost2010PropOp53
 70
     0
102
RTVSPost2010Prop54
  1
strokes_ogs.tif
102
RTVSPost2010PropOp54
 70
     0
102
RTVSPost2010Prop55
280
     0
102
RTVSPost2010PropOp55
 70
     0
102
RTVSPost2010Prop56
140
1.0
102
RTVSPost2010PropOp56
 70
     0
102
RTVSPost2010Prop57
140
1.0
102
RTVSPost2010PropOp57
 70
     0
  0
XRECORD
  5
174
102
{ACAD_REACTORS
330
173
102
}
330
173
100
AcDbXrecord
280
     1
102
RTVSPost2010Prop28
280
     0
102
RTVSPost2010PropOp28
 70
     1
102
RTVSPost2010Prop29
280
     1
102
RTVSPost2010PropOp29
 70
     1
102
RTVSPost2010Prop30
280
     1
102
RTVSPost2010PropOp30
 70
     1
102
RTVSPost2010Prop31
280
     0
102
RTVSPost2010PropOp31
 70
     1
102
RTVSPost2010Prop32
280
     0
102
RTVSPost2010PropOp32
 70
     1
102
RTVSPost2010Prop33
280
     0
102
RTVSPost2010PropOp33
 70
     1
102
RTVSPost2010Prop34
280
     0
102
RTVSPost2010PropOp34
 70
     1
102
RTVSPost2010Prop35
280
     0
102
RTVSPost2010PropOp35
 70
     1
102
RTVSPost2010Prop36
280
     0
102
RTVSPost2010PropOp36
 70
     1
102
RTVSPost2010Prop37
 90
       50
102
RTVSPost2010PropOp37
 70
     1
102
RTVSPost2010Prop38
140
0.0
102
RTVSPost2010PropOp38
 70
     1
102
RTVSPost2010Prop39
140
1.0
102
RTVSPost2010PropOp39
 70
     1
102
RTVSPost2010Prop40
 90
        0
102
RTVSPost2010PropOp40
 70
     1
102
RTVSPost2010Prop41ColorIndex
 90
       18
102
RTVSPost2010Prop41ColorRGB
 90
        0
102
RTVSPost2010PropOp41
 70
     1
102
RTVSPost2010Prop42
 90
       50
102
RTVSPost2010PropOp42
 70
     1
102
RTVSPost2010Prop43
 90
        3
102
RTVSPost2010PropOp43
 70
     1
102
RTVSPost2010Prop44ColorIndex
 90
        5
102
RTVSPost2010Prop44ColorRGB
 90
      255
102
RTVSPost2010PropOp44
 70
     1
102
RTVSPost2010Prop45
280
     0
102
RTVSPost2010PropOp45
 70
     1
102
RTVSPost2010Prop46
 90
       50
102
RTVSPost2010PropOp46
 70
     1
102
RTVSPost2010Prop47
 90
       50
102
RTVSPost2010PropOp47
 70
     1
102
RTVSPost2010Prop48
 90
       50
102
RTVSPost2010PropOp48
 70
     1
102
RTVSPost2010Prop49
280
     0
102
RTVSPost2010PropOp49
 70
     1
102
RTVSPost2010Prop50
 90
       50
102
RTVSPost2010PropOp50
 70
     1
102
RTVSPost2010Prop51ColorIndex
 90
      256
102
RTVSPost2010Prop51ColorRGB
 90
-16777216
102
RTVSPost2010PropOp51
 70
     0
102
RTVSPost2010Prop52
140
1.0
102
RTVSPost2010PropOp52
 70
     0
102
RTVSPost2010Prop53
 90
        2
102
RTVSPost2010PropOp53
 70
     1
102
RTVSPost2010Prop54
  1
strokes_ogs.tif
102
RTVSPost2010PropOp54
 70
     1
102
RTVSPost2010Prop55
280
     0
102
RTVSPost2010PropOp55
 70
     1
102
RTVSPost2010Prop56
140
1.0
102
RTVSPost2010PropOp56
 70
     1
102
RTVSPost2010Prop57
140
1.0
102
RTVSPost2010PropOp57
 70
     1
  0
XRECORD
  5
158
102
{ACAD_REACTORS
330
157
102
}
330
157
100
AcDbXrecord
280
     1
102
RTVSPost2010Prop28
280
     0
102
RTVSPost2010PropOp28
 70
     1
102
RTVSPost2010Prop29
280
     1
102
RTVSPost2010PropOp29
 70
     1
102
RTVSPost2010Prop30
280
     1
102
RTVSPost2010PropOp30
 70
     1
102
RTVSPost2010Prop31
280
     0
102
RTVSPost2010PropOp31
 70
     1
102
RTVSPost2010Prop32
280
     0
102
RTVSPost2010PropOp32
 70
     1
102
RTVSPost2010Prop33
280
     0
102
RTVSPost2010PropOp33
 70
     1
102
RTVSPost2010Prop34
280
     0
102
RTVSPost2010PropOp34
 70
     1
102
RTVSPost2010Prop35
280
     0
102
RTVSPost2010PropOp35
 70
     1
102
RTVSPost2010Prop36
280
     0
102
RTVSPost2010PropOp36
 70
     1
102
RTVSPost2010Prop37
 90
       50
102
RTVSPost2010PropOp37
 70
     1
102
RTVSPost2010Prop38
140
0.0
102
RTVSPost2010PropOp38
 70
     1
102
RTVSPost2010Prop39
140
1.0
102
RTVSPost2010PropOp39
 70
     1
102
RTVSPost2010Prop40
 90
        0
102
RTVSPost2010PropOp40
 70
     1
102
RTVSPost2010Prop41ColorIndex
 90
       18
102
RTVSPost2010Prop41ColorRGB
 90
        0
102
RTVSPost2010PropOp41
 70
     1
102
RTVSPost2010Prop42
 90
       50
102
RTVSPost2010PropOp42
 70
     1
102
RTVSPost2010Prop43
 90
        3
102
RTVSPost2010PropOp43
 70
     1
102
RTVSPost2010Prop44ColorIndex
 90
        5
102
RTVSPost2010Prop44ColorRGB
 90
      255
102
RTVSPost2010PropOp44
 70
     1
102
RTVSPost2010Prop45
280
     0
102
RTVSPost2010PropOp45
 70
     1
102
RTVSPost2010Prop46
 90
       50
102
RTVSPost2010PropOp46
 70
     1
102
RTVSPost2010Prop47
 90
       50
102
RTVSPost2010PropOp47
 70
     1
102
RTVSPost2010Prop48
 90
       50
102
RTVSPost2010PropOp48
 70
     1
102
RTVSPost2010Prop49
280
     0
102
RTVSPost2010PropOp49
 70
     1
102
RTVSPost2010Prop50
 90
       50
102
RTVSPost2010PropOp50
 70
     1
102
RTVSPost2010Prop51ColorIndex
 90
      256
102
RTVSPost2010Prop51ColorRGB
 90
-16777216
102
RTVSPost2010PropOp51
 70
     0
102
RTVSPost2010Prop52
140
1.0
102
RTVSPost2010PropOp52
 70
     0
102
RTVSPost2010Prop53
 90
        2
102
RTVSPost2010PropOp53
 70
     1
102
RTVSPost2010Prop54
  1
strokes_ogs.tif
102
RTVSPost2010PropOp54
 70
     1
102
RTVSPost2010Prop55
280
     0
102
RTVSPost2010PropOp55
 70
     1
102
RTVSPost2010Prop56
140
1.0
102
RTVSPost2010PropOp56
 70
     1
102
RTVSPost2010Prop57
140
1.0
102
RTVSPost2010PropOp57
 70
     1
  0
XRECORD
  5
15A
102
{ACAD_REACTORS
330
159
102
}
330
159
100
AcDbXrecord
280
     1
102
RTVSPost2010Prop28
280
     0
102
RTVSPost2010PropOp28
 70
     1
102
RTVSPost2010Prop29
280
     1
102
RTVSPost2010PropOp29
 70
     1
102
RTVSPost2010Prop30
280
     1
102
RTVSPost2010PropOp30
 70
     1
102
RTVSPost2010Prop31
280
     0
102
RTVSPost2010PropOp31
 70
     1
102
RTVSPost2010Prop32
280
     0
102
RTVSPost2010PropOp32
 70
     1
102
RTVSPost2010Prop33
280
     0
102
RTVSPost2010PropOp33
 70
     1
102
RTVSPost2010Prop34
280
     0
102
RTVSPost2010PropOp34
 70
     1
102
RTVSPost2010Prop35
280
     0
102
RTVSPost2010PropOp35
 70
     1
102
RTVSPost2010Prop36
280
     0
102
RTVSPost2010PropOp36
 70
     1
102
RTVSPost2010Prop37
 90
       50
102
RTVSPost2010PropOp37
 70
     1
102
RTVSPost2010Prop38
140
0.0
102
RTVSPost2010PropOp38
 70
     1
102
RTVSPost2010Prop39
140
1.0
102
RTVSPost2010PropOp39
 70
     1
102
RTVSPost2010Prop40
 90
        0
102
RTVSPost2010PropOp40
 70
     1
102
RTVSPost2010Prop41ColorIndex
 90
       18
102
RTVSPost2010Prop41ColorRGB
 90
        0
102
RTVSPost2010PropOp41
 70
     1
102
RTVSPost2010Prop42
 90
       50
102
RTVSPost2010PropOp42
 70
     1
102
RTVSPost2010Prop43
 90
        3
102
RTVSPost2010PropOp43
 70
     1
102
RTVSPost2010Prop44ColorIndex
 90
        5
102
RTVSPost2010Prop44ColorRGB
 90
      255
102
RTVSPost2010PropOp44
 70
     1
102
RTVSPost2010Prop45
280
     0
102
RTVSPost2010PropOp45
 70
     1
102
RTVSPost2010Prop46
 90
       50
102
RTVSPost2010PropOp46
 70
     1
102
RTVSPost2010Prop47
 90
       50
102
RTVSPost2010PropOp47
 70
     1
102
RTVSPost2010Prop48
 90
       50
102
RTVSPost2010PropOp48
 70
     1
102
RTVSPost2010Prop49
280
     0
102
RTVSPost2010PropOp49
 70
     1
102
RTVSPost2010Prop50
 90
       50
102
RTVSPost2010PropOp50
 70
     1
102
RTVSPost2010Prop51ColorIndex
 90
      256
102
RTVSPost2010Prop51ColorRGB
 90
-16777216
102
RTVSPost2010PropOp51
 70
     0
102
RTVSPost2010Prop52
140
1.0
102
RTVSPost2010PropOp52
 70
     0
102
RTVSPost2010Prop53
 90
        2
102
RTVSPost2010PropOp53
 70
     1
102
RTVSPost2010Prop54
  1
strokes_ogs.tif
102
RTVSPost2010PropOp54
 70
     1
102
RTVSPost2010Prop55
280
     0
102
RTVSPost2010PropOp55
 70
     1
102
RTVSPost2010Prop56
140
1.0
102
RTVSPost2010PropOp56
 70
     1
102
RTVSPost2010Prop57
140
1.0
102
RTVSPost2010PropOp57
 70
     1
  0
XRECORD
  5
15C
102
{ACAD_REACTORS
330
15B
102
}
330
15B
100
AcDbXrecord
280
     1
102
RTVSPost2010Prop28
280
     0
102
RTVSPost2010PropOp28
 70
     1
102
RTVSPost2010Prop29
280
     1
102
RTVSPost2010PropOp29
 70
     1
102
RTVSPost2010Prop30
280
     1
102
RTVSPost2010PropOp30
 70
     1
102
RTVSPost2010Prop31
280
     0
102
RTVSPost2010PropOp31
 70
     1
102
RTVSPost2010Prop32
280
     0
102
RTVSPost2010PropOp32
 70
     1
102
RTVSPost2010Prop33
280
     0
102
RTVSPost2010PropOp33
 70
     1
102
RTVSPost2010Prop34
280
     0
102
RTVSPost2010PropOp34
 70
     1
102
RTVSPost2010Prop35
280
     0
102
RTVSPost2010PropOp35
 70
     1
102
RTVSPost2010Prop36
280
     0
102
RTVSPost2010PropOp36
 70
     1
102
RTVSPost2010Prop37
 90
       50
102
RTVSPost2010PropOp37
 70
     1
102
RTVSPost2010Prop38
140
0.0
102
RTVSPost2010PropOp38
 70
     1
102
RTVSPost2010Prop39
140
1.0
102
RTVSPost2010PropOp39
 70
     1
102
RTVSPost2010Prop40
 90
        0
102
RTVSPost2010PropOp40
 70
     1
102
RTVSPost2010Prop41ColorIndex
 90
       18
102
RTVSPost2010Prop41ColorRGB
 90
        0
102
RTVSPost2010PropOp41
 70
     1
102
RTVSPost2010Prop42
 90
       50
102
RTVSPost2010PropOp42
 70
     1
102
RTVSPost2010Prop43
 90
        3
102
RTVSPost2010PropOp43
 70
     1
102
RTVSPost2010Prop44ColorIndex
 90
        5
102
RTVSPost2010Prop44ColorRGB
 90
      255
102
RTVSPost2010PropOp44
 70
     1
102
RTVSPost2010Prop45
280
     0
102
RTVSPost2010PropOp45
 70
     1
102
RTVSPost2010Prop46
 90
       50
102
RTVSPost2010PropOp46
 70
     1
102
RTVSPost2010Prop47
 90
       50
102
RTVSPost2010PropOp47
 70
     1
102
RTVSPost2010Prop48
 90
       50
102
RTVSPost2010PropOp48
 70
     1
102
RTVSPost2010Prop49
280
     0
102
RTVSPost2010PropOp49
 70
     1
102
RTVSPost2010Prop50
 90
       50
102
RTVSPost2010PropOp50
 70
     1
102
RTVSPost2010Prop51ColorIndex
 90
      256
102
RTVSPost2010Prop51ColorRGB
 90
-16777216
102
RTVSPost2010PropOp51
 70
     0
102
RTVSPost2010Prop52
140
1.0
102
RTVSPost2010PropOp52
 70
     0
102
RTVSPost2010Prop53
 90
        2
102
RTVSPost2010PropOp53
 70
     1
102
RTVSPost2010Prop54
  1
strokes_ogs.tif
102
RTVSPost2010PropOp54
 70
     1
102
RTVSPost2010Prop55
280
     0
102
RTVSPost2010PropOp55
 70
     1
102
RTVSPost2010Prop56
140
1.0
102
RTVSPost2010PropOp56
 70
     1
102
RTVSPost2010Prop57
140
1.0
102
RTVSPost2010PropOp57
 70
     1
  0
XRECORD
  5
15E
102
{ACAD_REACTORS
330
15D
102
}
330
15D
100
AcDbXrecord
280
     1
102
RTVSPost2010Prop28
280
     0
102
RTVSPost2010PropOp28
 70
     1
102
RTVSPost2010Prop29
280
     1
102
RTVSPost2010PropOp29
 70
     1
102
RTVSPost2010Prop30
280
     1
102
RTVSPost2010PropOp30
 70
     1
102
RTVSPost2010Prop31
280
     0
102
RTVSPost2010PropOp31
 70
     1
102
RTVSPost2010Prop32
280
     0
102
RTVSPost2010PropOp32
 70
     1
102
RTVSPost2010Prop33
280
     0
102
RTVSPost2010PropOp33
 70
     1
102
RTVSPost2010Prop34
280
     0
102
RTVSPost2010PropOp34
 70
     1
102
RTVSPost2010Prop35
280
     0
102
RTVSPost2010PropOp35
 70
     1
102
RTVSPost2010Prop36
280
     0
102
RTVSPost2010PropOp36
 70
     1
102
RTVSPost2010Prop37
 90
       50
102
RTVSPost2010PropOp37
 70
     1
102
RTVSPost2010Prop38
140
0.0
102
RTVSPost2010PropOp38
 70
     1
102
RTVSPost2010Prop39
140
1.0
102
RTVSPost2010PropOp39
 70
     1
102
RTVSPost2010Prop40
 90
        0
102
RTVSPost2010PropOp40
 70
     1
102
RTVSPost2010Prop41ColorIndex
 90
       18
102
RTVSPost2010Prop41ColorRGB
 90
        0
102
RTVSPost2010PropOp41
 70
     1
102
RTVSPost2010Prop42
 90
       50
102
RTVSPost2010PropOp42
 70
     1
102
RTVSPost2010Prop43
 90
        3
102
RTVSPost2010PropOp43
 70
     1
102
RTVSPost2010Prop44ColorIndex
 90
        5
102
RTVSPost2010Prop44ColorRGB
 90
      255
102
RTVSPost2010PropOp44
 70
     1
102
RTVSPost2010Prop45
280
     0
102
RTVSPost2010PropOp45
 70
     1
102
RTVSPost2010Prop46
 90
       50
102
RTVSPost2010PropOp46
 70
     1
102
RTVSPost2010Prop47
 90
       50
102
RTVSPost2010PropOp47
 70
     1
102
RTVSPost2010Prop48
 90
       50
102
RTVSPost2010PropOp48
 70
     1
102
RTVSPost2010Prop49
280
     0
102
RTVSPost2010PropOp49
 70
     1
102
RTVSPost2010Prop50
 90
       50
102
RTVSPost2010PropOp50
 70
     1
102
RTVSPost2010Prop51ColorIndex
 90
      256
102
RTVSPost2010Prop51ColorRGB
 90
-16777216
102
RTVSPost2010PropOp51
 70
     0
102
RTVSPost2010Prop52
140
1.0
102
RTVSPost2010PropOp52
 70
     0
102
RTVSPost2010Prop53
 90
        2
102
RTVSPost2010PropOp53
 70
     1
102
RTVSPost2010Prop54
  1
strokes_ogs.tif
102
RTVSPost2010PropOp54
 70
     1
102
RTVSPost2010Prop55
280
     0
102
RTVSPost2010PropOp55
 70
     1
102
RTVSPost2010Prop56
140
1.0
102
RTVSPost2010PropOp56
 70
     1
102
RTVSPost2010Prop57
140
1.0
102
RTVSPost2010PropOp57
 70
     1
  0
XRECORD
  5
166
102
{ACAD_REACTORS
330
165
102
}
330
165
100
AcDbXrecord
280
     1
102
RTVSPost2010Prop28
280
     0
102
RTVSPost2010PropOp28
 70
     1
102
RTVSPost2010Prop29
280
     1
102
RTVSPost2010PropOp29
 70
     1
102
RTVSPost2010Prop30
280
     1
102
RTVSPost2010PropOp30
 70
     1
102
RTVSPost2010Prop31
280
     0
102
RTVSPost2010PropOp31
 70
     1
102
RTVSPost2010Prop32
280
     0
102
RTVSPost2010PropOp32
 70
     1
102
RTVSPost2010Prop33
280
     0
102
RTVSPost2010PropOp33
 70
     1
102
RTVSPost2010Prop34
280
     0
102
RTVSPost2010PropOp34
 70
     1
102
RTVSPost2010Prop35
280
     0
102
RTVSPost2010PropOp35
 70
     1
102
RTVSPost2010Prop36
280
     0
102
RTVSPost2010PropOp36
 70
     1
102
RTVSPost2010Prop37
 90
       50
102
RTVSPost2010PropOp37
 70
     1
102
RTVSPost2010Prop38
140
0.0
102
RTVSPost2010PropOp38
 70
     1
102
RTVSPost2010Prop39
140
1.0
102
RTVSPost2010PropOp39
 70
     1
102
RTVSPost2010Prop40
 90
        0
102
RTVSPost2010PropOp40
 70
     1
102
RTVSPost2010Prop41ColorIndex
 90
       18
102
RTVSPost2010Prop41ColorRGB
 90
        0
102
RTVSPost2010PropOp41
 70
     1
102
RTVSPost2010Prop42
 90
       50
102
RTVSPost2010PropOp42
 70
     1
102
RTVSPost2010Prop43
 90
        3
102
RTVSPost2010PropOp43
 70
     1
102
RTVSPost2010Prop44ColorIndex
 90
        5
102
RTVSPost2010Prop44ColorRGB
 90
      255
102
RTVSPost2010PropOp44
 70
     1
102
RTVSPost2010Prop45
280
     0
102
RTVSPost2010PropOp45
 70
     1
102
RTVSPost2010Prop46
 90
       50
102
RTVSPost2010PropOp46
 70
     1
102
RTVSPost2010Prop47
 90
       50
102
RTVSPost2010PropOp47
 70
     1
102
RTVSPost2010Prop48
 90
       50
102
RTVSPost2010PropOp48
 70
     1
102
RTVSPost2010Prop49
280
     0
102
RTVSPost2010PropOp49
 70
     1
102
RTVSPost2010Prop50
 90
       50
102
RTVSPost2010PropOp50
 70
     1
102
RTVSPost2010Prop51ColorIndex
 90
      256
102
RTVSPost2010Prop51ColorRGB
 90
-16777216
102
RTVSPost2010PropOp51
 70
     0
102
RTVSPost2010Prop52
140
1.0
102
RTVSPost2010PropOp52
 70
     0
102
RTVSPost2010Prop53
 90
        2
102
RTVSPost2010PropOp53
 70
     1
102
RTVSPost2010Prop54
  1
strokes_ogs.tif
102
RTVSPost2010PropOp54
 70
     1
102
RTVSPost2010Prop55
280
     0
102
RTVSPost2010PropOp55
 70
     1
102
RTVSPost2010Prop56
140
1.0
102
RTVSPost2010PropOp56
 70
     1
102
RTVSPost2010Prop57
140
1.0
102
RTVSPost2010PropOp57
 70
     1
  0
XRECORD
  5
182
102
{ACAD_REACTORS
330
181
102
}
330
181
100
AcDbXrecord
280
     1
102
RTVSPost2010Prop28
280
     0
102
RTVSPost2010PropOp28
 70
     0
102
RTVSPost2010Prop29
280
     1
102
RTVSPost2010PropOp29
 70
     0
102
RTVSPost2010Prop30
280
     1
102
RTVSPost2010PropOp30
 70
     0
102
RTVSPost2010Prop31
280
     0
102
RTVSPost2010PropOp31
 70
     0
102
RTVSPost2010Prop32
280
     0
102
RTVSPost2010PropOp32
 70
     0
102
RTVSPost2010Prop33
280
     0
102
RTVSPost2010PropOp33
 70
     0
102
RTVSPost2010Prop34
280
     0
102
RTVSPost2010PropOp34
 70
     0
102
RTVSPost2010Prop35
280
     0
102
RTVSPost2010PropOp35
 70
     0
102
RTVSPost2010Prop36
280
     0
102
RTVSPost2010PropOp36
 70
     0
102
RTVSPost2010Prop37
 90
       50
102
RTVSPost2010PropOp37
 70
     0
102
RTVSPost2010Prop38
140
0.0
102
RTVSPost2010PropOp38
 70
     0
102
RTVSPost2010Prop39
140
1.0
102
RTVSPost2010PropOp39
 70
     0
102
RTVSPost2010Prop40
 90
        0
102
RTVSPost2010PropOp40
 70
     0
102
RTVSPost2010Prop41ColorIndex
 90
       18
102
RTVSPost2010Prop41ColorRGB
 90
        0
102
RTVSPost2010PropOp41
 70
     0
102
RTVSPost2010Prop42
 90
       50
102
RTVSPost2010PropOp42
 70
     0
102
RTVSPost2010Prop43
 90
        3
102
RTVSPost2010PropOp43
 70
     0
102
RTVSPost2010Prop44ColorIndex
 90
        5
102
RTVSPost2010Prop44ColorRGB
 90
      255
102
RTVSPost2010PropOp44
 70
     0
102
RTVSPost2010Prop45
280
     0
102
RTVSPost2010PropOp45
 70
     0
102
RTVSPost2010Prop46
 90
       50
102
RTVSPost2010PropOp46
 70
     0
102
RTVSPost2010Prop47
 90
       50
102
RTVSPost2010PropOp47
 70
     0
102
RTVSPost2010Prop48
 90
       50
102
RTVSPost2010PropOp48
 70
     0
102
RTVSPost2010Prop49
280
     0
102
RTVSPost2010PropOp49
 70
     0
102
RTVSPost2010Prop50
 90
       50
102
RTVSPost2010PropOp50
 70
     0
102
RTVSPost2010Prop51ColorIndex
 90
      256
102
RTVSPost2010Prop51ColorRGB
 90
-16777216
102
RTVSPost2010PropOp51
 70
     0
102
RTVSPost2010Prop52
140
1.0
102
RTVSPost2010PropOp52
 70
     0
102
RTVSPost2010Prop53
 90
        2
102
RTVSPost2010PropOp53
 70
     0
102
RTVSPost2010Prop54
  1
strokes_ogs.tif
102
RTVSPost2010PropOp54
 70
     0
102
RTVSPost2010Prop55
280
     0
102
RTVSPost2010PropOp55
 70
     0
102
RTVSPost2010Prop56
140
1.0
102
RTVSPost2010PropOp56
 70
     0
102
RTVSPost2010Prop57
140
1.0
102
RTVSPost2010PropOp57
 70
     0
  0
XRECORD
  5
172
102
{ACAD_REACTORS
330
171
102
}
330
171
100
AcDbXrecord
280
     1
102
RTVSPost2010Prop28
280
     0
102
RTVSPost2010PropOp28
 70
     1
102
RTVSPost2010Prop29
280
     1
102
RTVSPost2010PropOp29
 70
     1
102
RTVSPost2010Prop30
280
     1
102
RTVSPost2010PropOp30
 70
     1
102
RTVSPost2010Prop31
280
     0
102
RTVSPost2010PropOp31
 70
     1
102
RTVSPost2010Prop32
280
     0
102
RTVSPost2010PropOp32
 70
     1
102
RTVSPost2010Prop33
280
     0
102
RTVSPost2010PropOp33
 70
     1
102
RTVSPost2010Prop34
280
     0
102
RTVSPost2010PropOp34
 70
     1
102
RTVSPost2010Prop35
280
     0
102
RTVSPost2010PropOp35
 70
     1
102
RTVSPost2010Prop36
280
     0
102
RTVSPost2010PropOp36
 70
     1
102
RTVSPost2010Prop37
 90
       50
102
RTVSPost2010PropOp37
 70
     1
102
RTVSPost2010Prop38
140
0.0
102
RTVSPost2010PropOp38
 70
     1
102
RTVSPost2010Prop39
140
1.0
102
RTVSPost2010PropOp39
 70
     1
102
RTVSPost2010Prop40
 90
        0
102
RTVSPost2010PropOp40
 70
     1
102
RTVSPost2010Prop41ColorIndex
 90
       18
102
RTVSPost2010Prop41ColorRGB
 90
        0
102
RTVSPost2010PropOp41
 70
     1
102
RTVSPost2010Prop42
 90
       50
102
RTVSPost2010PropOp42
 70
     1
102
RTVSPost2010Prop43
 90
        3
102
RTVSPost2010PropOp43
 70
     1
102
RTVSPost2010Prop44ColorIndex
 90
        5
102
RTVSPost2010Prop44ColorRGB
 90
      255
102
RTVSPost2010PropOp44
 70
     1
102
RTVSPost2010Prop45
280
     0
102
RTVSPost2010PropOp45
 70
     1
102
RTVSPost2010Prop46
 90
       50
102
RTVSPost2010PropOp46
 70
     1
102
RTVSPost2010Prop47
 90
       50
102
RTVSPost2010PropOp47
 70
     1
102
RTVSPost2010Prop48
 90
       50
102
RTVSPost2010PropOp48
 70
     1
102
RTVSPost2010Prop49
280
     0
102
RTVSPost2010PropOp49
 70
     1
102
RTVSPost2010Prop50
 90
       50
102
RTVSPost2010PropOp50
 70
     1
102
RTVSPost2010Prop51ColorIndex
 90
      256
102
RTVSPost2010Prop51ColorRGB
 90
-16777216
102
RTVSPost2010PropOp51
 70
     0
102
RTVSPost2010Prop52
140
1.0
102
RTVSPost2010PropOp52
 70
     0
102
RTVSPost2010Prop53
 90
        2
102
RTVSPost2010PropOp53
 70
     1
102
RTVSPost2010Prop54
  1
strokes_ogs.tif
102
RTVSPost2010PropOp54
 70
     1
102
RTVSPost2010Prop55
280
     0
102
RTVSPost2010PropOp55
 70
     1
102
RTVSPost2010Prop56
140
1.0
102
RTVSPost2010PropOp56
 70
     1
102
RTVSPost2010Prop57
140
1.0
102
RTVSPost2010PropOp57
 70
     1
  0
XRECORD
  5
184
102
{ACAD_REACTORS
330
183
102
}
330
183
100
AcDbXrecord
280
     1
102
RTVSPost2010Prop28
280
     0
102
RTVSPost2010PropOp28
 70
     0
102
RTVSPost2010Prop29
280
     1
102
RTVSPost2010PropOp29
 70
     0
102
RTVSPost2010Prop30
280
     1
102
RTVSPost2010PropOp30
 70
     0
102
RTVSPost2010Prop31
280
     0
102
RTVSPost2010PropOp31
 70
     0
102
RTVSPost2010Prop32
280
     0
102
RTVSPost2010PropOp32
 70
     0
102
RTVSPost2010Prop33
280
     0
102
RTVSPost2010PropOp33
 70
     0
102
RTVSPost2010Prop34
280
     0
102
RTVSPost2010PropOp34
 70
     0
102
RTVSPost2010Prop35
280
     0
102
RTVSPost2010PropOp35
 70
     0
102
RTVSPost2010Prop36
280
     0
102
RTVSPost2010PropOp36
 70
     0
102
RTVSPost2010Prop37
 90
       50
102
RTVSPost2010PropOp37
 70
     0
102
RTVSPost2010Prop38
140
0.0
102
RTVSPost2010PropOp38
 70
     0
102
RTVSPost2010Prop39
140
1.0
102
RTVSPost2010PropOp39
 70
     0
102
RTVSPost2010Prop40
 90
        0
102
RTVSPost2010PropOp40
 70
     0
102
RTVSPost2010Prop41ColorIndex
 90
       18
102
RTVSPost2010Prop41ColorRGB
 90
        0
102
RTVSPost2010PropOp41
 70
     0
102
RTVSPost2010Prop42
 90
       50
102
RTVSPost2010PropOp42
 70
     0
102
RTVSPost2010Prop43
 90
        3
102
RTVSPost2010PropOp43
 70
     0
102
RTVSPost2010Prop44ColorIndex
 90
        5
102
RTVSPost2010Prop44ColorRGB
 90
      255
102
RTVSPost2010PropOp44
 70
     0
102
RTVSPost2010Prop45
280
     0
102
RTVSPost2010PropOp45
 70
     0
102
RTVSPost2010Prop46
 90
       50
102
RTVSPost2010PropOp46
 70
     0
102
RTVSPost2010Prop47
 90
       50
102
RTVSPost2010PropOp47
 70
     0
102
RTVSPost2010Prop48
 90
       50
102
RTVSPost2010PropOp48
 70
     0
102
RTVSPost2010Prop49
280
     0
102
RTVSPost2010PropOp49
 70
     0
102
RTVSPost2010Prop50
 90
       50
102
RTVSPost2010PropOp50
 70
     0
102
RTVSPost2010Prop51ColorIndex
 90
      256
102
RTVSPost2010Prop51ColorRGB
 90
-16777216
102
RTVSPost2010PropOp51
 70
     0
102
RTVSPost2010Prop52
140
1.0
102
RTVSPost2010PropOp52
 70
     0
102
RTVSPost2010Prop53
 90
        2
102
RTVSPost2010PropOp53
 70
     0
102
RTVSPost2010Prop54
  1
strokes_ogs.tif
102
RTVSPost2010PropOp54
 70
     0
102
RTVSPost2010Prop55
280
     0
102
RTVSPost2010PropOp55
 70
     0
102
RTVSPost2010Prop56
140
1.0
102
RTVSPost2010PropOp56
 70
     0
102
RTVSPost2010Prop57
140
1.0
102
RTVSPost2010PropOp57
 70
     0
  0
XRECORD
  5
16A
102
{ACAD_REACTORS
330
169
102
}
330
169
100
AcDbXrecord
280
     1
102
RTVSPost2010Prop28
280
     0
102
RTVSPost2010PropOp28
 70
     1
102
RTVSPost2010Prop29
280
     1
102
RTVSPost2010PropOp29
 70
     1
102
RTVSPost2010Prop30
280
     1
102
RTVSPost2010PropOp30
 70
     1
102
RTVSPost2010Prop31
280
     0
102
RTVSPost2010PropOp31
 70
     1
102
RTVSPost2010Prop32
280
     0
102
RTVSPost2010PropOp32
 70
     1
102
RTVSPost2010Prop33
280
     0
102
RTVSPost2010PropOp33
 70
     1
102
RTVSPost2010Prop34
280
     0
102
RTVSPost2010PropOp34
 70
     1
102
RTVSPost2010Prop35
280
     0
102
RTVSPost2010PropOp35
 70
     1
102
RTVSPost2010Prop36
280
     0
102
RTVSPost2010PropOp36
 70
     1
102
RTVSPost2010Prop37
 90
       50
102
RTVSPost2010PropOp37
 70
     1
102
RTVSPost2010Prop38
140
0.0
102
RTVSPost2010PropOp38
 70
     1
102
RTVSPost2010Prop39
140
1.0
102
RTVSPost2010PropOp39
 70
     1
102
RTVSPost2010Prop40
 90
        0
102
RTVSPost2010PropOp40
 70
     1
102
RTVSPost2010Prop41ColorIndex
 90
       18
102
RTVSPost2010Prop41ColorRGB
 90
        0
102
RTVSPost2010PropOp41
 70
     1
102
RTVSPost2010Prop42
 90
       50
102
RTVSPost2010PropOp42
 70
     1
102
RTVSPost2010Prop43
 90
        3
102
RTVSPost2010PropOp43
 70
     1
102
RTVSPost2010Prop44ColorIndex
 90
        5
102
RTVSPost2010Prop44ColorRGB
 90
      255
102
RTVSPost2010PropOp44
 70
     1
102
RTVSPost2010Prop45
280
     0
102
RTVSPost2010PropOp45
 70
     1
102
RTVSPost2010Prop46
 90
       50
102
RTVSPost2010PropOp46
 70
     1
102
RTVSPost2010Prop47
 90
       50
102
RTVSPost2010PropOp47
 70
     1
102
RTVSPost2010Prop48
 90
       50
102
RTVSPost2010PropOp48
 70
     1
102
RTVSPost2010Prop49
280
     0
102
RTVSPost2010PropOp49
 70
     1
102
RTVSPost2010Prop50
 90
       50
102
RTVSPost2010PropOp50
 70
     1
102
RTVSPost2010Prop51ColorIndex
 90
      256
102
RTVSPost2010Prop51ColorRGB
 90
-16777216
102
RTVSPost2010PropOp51
 70
     0
102
RTVSPost2010Prop52
140
1.0
102
RTVSPost2010PropOp52
 70
     0
102
RTVSPost2010Prop53
 90
        2
102
RTVSPost2010PropOp53
 70
     1
102
RTVSPost2010Prop54
  1
strokes_ogs.tif
102
RTVSPost2010PropOp54
 70
     1
102
RTVSPost2010Prop55
280
     0
102
RTVSPost2010PropOp55
 70
     1
102
RTVSPost2010Prop56
140
1.0
102
RTVSPost2010PropOp56
 70
     1
102
RTVSPost2010Prop57
140
1.0
102
RTVSPost2010PropOp57
 70
     1
  0
XRECORD
  5
180
102
{ACAD_REACTORS
330
17F
102
}
330
17F
100
AcDbXrecord
280
     1
102
RTVSPost2010Prop28
280
     0
102
RTVSPost2010PropOp28
 70
     1
102
RTVSPost2010Prop29
280
     1
102
RTVSPost2010PropOp29
 70
     1
102
RTVSPost2010Prop30
280
     1
102
RTVSPost2010PropOp30
 70
     1
102
RTVSPost2010Prop31
280
     0
102
RTVSPost2010PropOp31
 70
     1
102
RTVSPost2010Prop32
280
     0
102
RTVSPost2010PropOp32
 70
     1
102
RTVSPost2010Prop33
280
     0
102
RTVSPost2010PropOp33
 70
     1
102
RTVSPost2010Prop34
280
     0
102
RTVSPost2010PropOp34
 70
     1
102
RTVSPost2010Prop35
280
     0
102
RTVSPost2010PropOp35
 70
     1
102
RTVSPost2010Prop36
280
     0
102
RTVSPost2010PropOp36
 70
     1
102
RTVSPost2010Prop37
 90
       50
102
RTVSPost2010PropOp37
 70
     1
102
RTVSPost2010Prop38
140
0.0
102
RTVSPost2010PropOp38
 70
     1
102
RTVSPost2010Prop39
140
1.0
102
RTVSPost2010PropOp39
 70
     1
102
RTVSPost2010Prop40
 90
        0
102
RTVSPost2010PropOp40
 70
     1
102
RTVSPost2010Prop41ColorIndex
 90
       18
102
RTVSPost2010Prop41ColorRGB
 90
        0
102
RTVSPost2010PropOp41
 70
     1
102
RTVSPost2010Prop42
 90
       50
102
RTVSPost2010PropOp42
 70
     1
102
RTVSPost2010Prop43
 90
        3
102
RTVSPost2010PropOp43
 70
     1
102
RTVSPost2010Prop44ColorIndex
 90
        5
102
RTVSPost2010Prop44ColorRGB
 90
      255
102
RTVSPost2010PropOp44
 70
     1
102
RTVSPost2010Prop45
280
     0
102
RTVSPost2010PropOp45
 70
     1
102
RTVSPost2010Prop46
 90
       50
102
RTVSPost2010PropOp46
 70
     1
102
RTVSPost2010Prop47
 90
       50
102
RTVSPost2010PropOp47
 70
     1
102
RTVSPost2010Prop48
 90
       50
102
RTVSPost2010PropOp48
 70
     1
102
RTVSPost2010Prop49
280
     0
102
RTVSPost2010PropOp49
 70
     1
102
RTVSPost2010Prop50
 90
       50
102
RTVSPost2010PropOp50
 70
     1
102
RTVSPost2010Prop51ColorIndex
 90
      256
102
RTVSPost2010Prop51ColorRGB
 90
-16777216
102
RTVSPost2010PropOp51
 70
     0
102
RTVSPost2010Prop52
140
1.0
102
RTVSPost2010PropOp52
 70
     0
102
RTVSPost2010Prop53
 90
        2
102
RTVSPost2010PropOp53
 70
     1
102
RTVSPost2010Prop54
  1
strokes_ogs.tif
102
RTVSPost2010PropOp54
 70
     1
102
RTVSPost2010Prop55
280
     0
102
RTVSPost2010PropOp55
 70
     1
102
RTVSPost2010Prop56
140
1.0
102
RTVSPost2010PropOp56
 70
     1
102
RTVSPost2010Prop57
140
1.0
102
RTVSPost2010PropOp57
 70
     1
  0
XRECORD
  5
17E
102
{ACAD_REACTORS
330
17D
102
}
330
17D
100
AcDbXrecord
280
     1
102
RTVSPost2010Prop28
280
     0
102
RTVSPost2010PropOp28
 70
     1
102
RTVSPost2010Prop29
280
     1
102
RTVSPost2010PropOp29
 70
     1
102
RTVSPost2010Prop30
280
     1
102
RTVSPost2010PropOp30
 70
     1
102
RTVSPost2010Prop31
280
     0
102
RTVSPost2010PropOp31
 70
     1
102
RTVSPost2010Prop32
280
     0
102
RTVSPost2010PropOp32
 70
     1
102
RTVSPost2010Prop33
280
     0
102
RTVSPost2010PropOp33
 70
     1
102
RTVSPost2010Prop34
280
     0
102
RTVSPost2010PropOp34
 70
     1
102
RTVSPost2010Prop35
280
     0
102
RTVSPost2010PropOp35
 70
     1
102
RTVSPost2010Prop36
280
     0
102
RTVSPost2010PropOp36
 70
     1
102
RTVSPost2010Prop37
 90
       50
102
RTVSPost2010PropOp37
 70
     1
102
RTVSPost2010Prop38
140
0.0
102
RTVSPost2010PropOp38
 70
     1
102
RTVSPost2010Prop39
140
1.0
102
RTVSPost2010PropOp39
 70
     1
102
RTVSPost2010Prop40
 90
        0
102
RTVSPost2010PropOp40
 70
     1
102
RTVSPost2010Prop41ColorIndex
 90
       18
102
RTVSPost2010Prop41ColorRGB
 90
        0
102
RTVSPost2010PropOp41
 70
     1
102
RTVSPost2010Prop42
 90
       50
102
RTVSPost2010PropOp42
 70
     1
102
RTVSPost2010Prop43
 90
        3
102
RTVSPost2010PropOp43
 70
     1
102
RTVSPost2010Prop44ColorIndex
 90
        5
102
RTVSPost2010Prop44ColorRGB
 90
      255
102
RTVSPost2010PropOp44
 70
     1
102
RTVSPost2010Prop45
280
     0
102
RTVSPost2010PropOp45
 70
     1
102
RTVSPost2010Prop46
 90
       50
102
RTVSPost2010PropOp46
 70
     1
102
RTVSPost2010Prop47
 90
       50
102
RTVSPost2010PropOp47
 70
     1
102
RTVSPost2010Prop48
 90
       50
102
RTVSPost2010PropOp48
 70
     1
102
RTVSPost2010Prop49
280
     0
102
RTVSPost2010PropOp49
 70
     1
102
RTVSPost2010Prop50
 90
       50
102
RTVSPost2010PropOp50
 70
     1
102
RTVSPost2010Prop51ColorIndex
 90
      256
102
RTVSPost2010Prop51ColorRGB
 90
-16777216
102
RTVSPost2010PropOp51
 70
     0
102
RTVSPost2010Prop52
140
1.0
102
RTVSPost2010PropOp52
 70
     0
102
RTVSPost2010Prop53
 90
        2
102
RTVSPost2010PropOp53
 70
     1
102
RTVSPost2010Prop54
  1
strokes_ogs.tif
102
RTVSPost2010PropOp54
 70
     1
102
RTVSPost2010Prop55
280
     0
102
RTVSPost2010PropOp55
 70
     1
102
RTVSPost2010Prop56
140
1.0
102
RTVSPost2010PropOp56
 70
     1
102
RTVSPost2010Prop57
140
1.0
102
RTVSPost2010PropOp57
 70
     1
  0
XRECORD
  5
178
102
{ACAD_REACTORS
330
177
102
}
330
177
100
AcDbXrecord
280
     1
102
RTVSPost2010Prop28
280
     0
102
RTVSPost2010PropOp28
 70
     1
102
RTVSPost2010Prop29
280
     1
102
RTVSPost2010PropOp29
 70
     1
102
RTVSPost2010Prop30
280
     1
102
RTVSPost2010PropOp30
 70
     1
102
RTVSPost2010Prop31
280
     0
102
RTVSPost2010PropOp31
 70
     1
102
RTVSPost2010Prop32
280
     0
102
RTVSPost2010PropOp32
 70
     1
102
RTVSPost2010Prop33
280
     0
102
RTVSPost2010PropOp33
 70
     1
102
RTVSPost2010Prop34
280
     0
102
RTVSPost2010PropOp34
 70
     1
102
RTVSPost2010Prop35
280
     0
102
RTVSPost2010PropOp35
 70
     1
102
RTVSPost2010Prop36
280
     0
102
RTVSPost2010PropOp36
 70
     1
102
RTVSPost2010Prop37
 90
       50
102
RTVSPost2010PropOp37
 70
     1
102
RTVSPost2010Prop38
140
0.0
102
RTVSPost2010PropOp38
 70
     1
102
RTVSPost2010Prop39
140
1.0
102
RTVSPost2010PropOp39
 70
     1
102
RTVSPost2010Prop40
 90
        0
102
RTVSPost2010PropOp40
 70
     1
102
RTVSPost2010Prop41ColorIndex
 90
       18
102
RTVSPost2010Prop41ColorRGB
 90
        0
102
RTVSPost2010PropOp41
 70
     1
102
RTVSPost2010Prop42
 90
       50
102
RTVSPost2010PropOp42
 70
     1
102
RTVSPost2010Prop43
 90
        3
102
RTVSPost2010PropOp43
 70
     1
102
RTVSPost2010Prop44ColorIndex
 90
        5
102
RTVSPost2010Prop44ColorRGB
 90
      255
102
RTVSPost2010PropOp44
 70
     1
102
RTVSPost2010Prop45
280
     0
102
RTVSPost2010PropOp45
 70
     1
102
RTVSPost2010Prop46
 90
       50
102
RTVSPost2010PropOp46
 70
     1
102
RTVSPost2010Prop47
 90
       50
102
RTVSPost2010PropOp47
 70
     1
102
RTVSPost2010Prop48
 90
       50
102
RTVSPost2010PropOp48
 70
     1
102
RTVSPost2010Prop49
280
     0
102
RTVSPost2010PropOp49
 70
     1
102
RTVSPost2010Prop50
 90
       50
102
RTVSPost2010PropOp50
 70
     1
102
RTVSPost2010Prop51ColorIndex
 90
      256
102
RTVSPost2010Prop51ColorRGB
 90
-16777216
102
RTVSPost2010PropOp51
 70
     0
102
RTVSPost2010Prop52
140
1.0
102
RTVSPost2010PropOp52
 70
     0
102
RTVSPost2010Prop53
 90
        2
102
RTVSPost2010PropOp53
 70
     1
102
RTVSPost2010Prop54
  1
strokes_ogs.tif
102
RTVSPost2010PropOp54
 70
     1
102
RTVSPost2010Prop55
280
     0
102
RTVSPost2010PropOp55
 70
     1
102
RTVSPost2010Prop56
140
1.0
102
RTVSPost2010PropOp56
 70
     1
102
RTVSPost2010Prop57
140
1.0
102
RTVSPost2010PropOp57
 70
     1
  0
XRECORD
  5
17A
102
{ACAD_REACTORS
330
179
102
}
330
179
100
AcDbXrecord
280
     1
102
RTVSPost2010Prop28
280
     0
102
RTVSPost2010PropOp28
 70
     1
102
RTVSPost2010Prop29
280
     1
102
RTVSPost2010PropOp29
 70
     1
102
RTVSPost2010Prop30
280
     1
102
RTVSPost2010PropOp30
 70
     1
102
RTVSPost2010Prop31
280
     0
102
RTVSPost2010PropOp31
 70
     1
102
RTVSPost2010Prop32
280
     0
102
RTVSPost2010PropOp32
 70
     1
102
RTVSPost2010Prop33
280
     0
102
RTVSPost2010PropOp33
 70
     1
102
RTVSPost2010Prop34
280
     0
102
RTVSPost2010PropOp34
 70
     1
102
RTVSPost2010Prop35
280
     0
102
RTVSPost2010PropOp35
 70
     1
102
RTVSPost2010Prop36
280
     0
102
RTVSPost2010PropOp36
 70
     1
102
RTVSPost2010Prop37
 90
       50
102
RTVSPost2010PropOp37
 70
     1
102
RTVSPost2010Prop38
140
0.0
102
RTVSPost2010PropOp38
 70
     1
102
RTVSPost2010Prop39
140
1.0
102
RTVSPost2010PropOp39
 70
     1
102
RTVSPost2010Prop40
 90
        0
102
RTVSPost2010PropOp40
 70
     1
102
RTVSPost2010Prop41ColorIndex
 90
       18
102
RTVSPost2010Prop41ColorRGB
 90
        0
102
RTVSPost2010PropOp41
 70
     1
102
RTVSPost2010Prop42
 90
       50
102
RTVSPost2010PropOp42
 70
     1
102
RTVSPost2010Prop43
 90
        3
102
RTVSPost2010PropOp43
 70
     1
102
RTVSPost2010Prop44ColorIndex
 90
        5
102
RTVSPost2010Prop44ColorRGB
 90
      255
102
RTVSPost2010PropOp44
 70
     1
102
RTVSPost2010Prop45
280
     0
102
RTVSPost2010PropOp45
 70
     1
102
RTVSPost2010Prop46
 90
       50
102
RTVSPost2010PropOp46
 70
     1
102
RTVSPost2010Prop47
 90
       50
102
RTVSPost2010PropOp47
 70
     1
102
RTVSPost2010Prop48
 90
       50
102
RTVSPost2010PropOp48
 70
     1
102
RTVSPost2010Prop49
280
     0
102
RTVSPost2010PropOp49
 70
     1
102
RTVSPost2010Prop50
 90
       50
102
RTVSPost2010PropOp50
 70
     1
102
RTVSPost2010Prop51ColorIndex
 90
      256
102
RTVSPost2010Prop51ColorRGB
 90
-16777216
102
RTVSPost2010PropOp51
 70
     0
102
RTVSPost2010Prop52
140
1.0
102
RTVSPost2010PropOp52
 70
     0
102
RTVSPost2010Prop53
 90
        2
102
RTVSPost2010PropOp53
 70
     1
102
RTVSPost2010Prop54
  1
strokes_ogs.tif
102
RTVSPost2010PropOp54
 70
     1
102
RTVSPost2010Prop55
280
     0
102
RTVSPost2010PropOp55
 70
     1
102
RTVSPost2010Prop56
140
1.0
102
RTVSPost2010PropOp56
 70
     1
102
RTVSPost2010Prop57
140
1.0
102
RTVSPost2010PropOp57
 70
     1
  0
XRECORD
  5
170
102
{ACAD_REACTORS
330
16F
102
}
330
16F
100
AcDbXrecord
280
     1
102
RTVSPost2010Prop28
280
     0
102
RTVSPost2010PropOp28
 70
     1
102
RTVSPost2010Prop29
280
     1
102
RTVSPost2010PropOp29
 70
     1
102
RTVSPost2010Prop30
280
     1
102
RTVSPost2010PropOp30
 70
     1
102
RTVSPost2010Prop31
280
     0
102
RTVSPost2010PropOp31
 70
     1
102
RTVSPost2010Prop32
280
     0
102
RTVSPost2010PropOp32
 70
     1
102
RTVSPost2010Prop33
280
     0
102
RTVSPost2010PropOp33
 70
     1
102
RTVSPost2010Prop34
280
     0
102
RTVSPost2010PropOp34
 70
     1
102
RTVSPost2010Prop35
280
     0
102
RTVSPost2010PropOp35
 70
     1
102
RTVSPost2010Prop36
280
     0
102
RTVSPost2010PropOp36
 70
     1
102
RTVSPost2010Prop37
 90
       50
102
RTVSPost2010PropOp37
 70
     1
102
RTVSPost2010Prop38
140
0.0
102
RTVSPost2010PropOp38
 70
     1
102
RTVSPost2010Prop39
140
1.0
102
RTVSPost2010PropOp39
 70
     1
102
RTVSPost2010Prop40
 90
        0
102
RTVSPost2010PropOp40
 70
     1
102
RTVSPost2010Prop41ColorIndex
 90
       18
102
RTVSPost2010Prop41ColorRGB
 90
        0
102
RTVSPost2010PropOp41
 70
     1
102
RTVSPost2010Prop42
 90
       50
102
RTVSPost2010PropOp42
 70
     1
102
RTVSPost2010Prop43
 90
        3
102
RTVSPost2010PropOp43
 70
     1
102
RTVSPost2010Prop44ColorIndex
 90
        5
102
RTVSPost2010Prop44ColorRGB
 90
      255
102
RTVSPost2010PropOp44
 70
     1
102
RTVSPost2010Prop45
280
     0
102
RTVSPost2010PropOp45
 70
     1
102
RTVSPost2010Prop46
 90
       50
102
RTVSPost2010PropOp46
 70
     1
102
RTVSPost2010Prop47
 90
       50
102
RTVSPost2010PropOp47
 70
     1
102
RTVSPost2010Prop48
 90
       50
102
RTVSPost2010PropOp48
 70
     1
102
RTVSPost2010Prop49
280
     0
102
RTVSPost2010PropOp49
 70
     1
102
RTVSPost2010Prop50
 90
       50
102
RTVSPost2010PropOp50
 70
     1
102
RTVSPost2010Prop51ColorIndex
 90
      256
102
RTVSPost2010Prop51ColorRGB
 90
-16777216
102
RTVSPost2010PropOp51
 70
     0
102
RTVSPost2010Prop52
140
1.0
102
RTVSPost2010PropOp52
 70
     0
102
RTVSPost2010Prop53
 90
        2
102
RTVSPost2010PropOp53
 70
     1
102
RTVSPost2010Prop54
  1
strokes_ogs.tif
102
RTVSPost2010PropOp54
 70
     1
102
RTVSPost2010Prop55
280
     0
102
RTVSPost2010PropOp55
 70
     1
102
RTVSPost2010Prop56
140
1.0
102
RTVSPost2010PropOp56
 70
     1
102
RTVSPost2010Prop57
140
1.0
102
RTVSPost2010PropOp57
 70
     1
  0
XRECORD
  5
164
102
{ACAD_REACTORS
330
163
102
}
330
163
100
AcDbXrecord
280
     1
102
RTVSPost2010Prop28
280
     0
102
RTVSPost2010PropOp28
 70
     1
102
RTVSPost2010Prop29
280
     1
102
RTVSPost2010PropOp29
 70
     1
102
RTVSPost2010Prop30
280
     1
102
RTVSPost2010PropOp30
 70
     1
102
RTVSPost2010Prop31
280
     0
102
RTVSPost2010PropOp31
 70
     1
102
RTVSPost2010Prop32
280
     0
102
RTVSPost2010PropOp32
 70
     1
102
RTVSPost2010Prop33
280
     0
102
RTVSPost2010PropOp33
 70
     1
102
RTVSPost2010Prop34
280
     0
102
RTVSPost2010PropOp34
 70
     1
102
RTVSPost2010Prop35
280
     0
102
RTVSPost2010PropOp35
 70
     1
102
RTVSPost2010Prop36
280
     0
102
RTVSPost2010PropOp36
 70
     1
102
RTVSPost2010Prop37
 90
       50
102
RTVSPost2010PropOp37
 70
     1
102
RTVSPost2010Prop38
140
0.0
102
RTVSPost2010PropOp38
 70
     1
102
RTVSPost2010Prop39
140
1.0
102
RTVSPost2010PropOp39
 70
     1
102
RTVSPost2010Prop40
 90
        0
102
RTVSPost2010PropOp40
 70
     1
102
RTVSPost2010Prop41ColorIndex
 90
       18
102
RTVSPost2010Prop41ColorRGB
 90
        0
102
RTVSPost2010PropOp41
 70
     1
102
RTVSPost2010Prop42
 90
       50
102
RTVSPost2010PropOp42
 70
     1
102
RTVSPost2010Prop43
 90
        3
102
RTVSPost2010PropOp43
 70
     1
102
RTVSPost2010Prop44ColorIndex
 90
        5
102
RTVSPost2010Prop44ColorRGB
 90
      255
102
RTVSPost2010PropOp44
 70
     1
102
RTVSPost2010Prop45
280
     0
102
RTVSPost2010PropOp45
 70
     1
102
RTVSPost2010Prop46
 90
       50
102
RTVSPost2010PropOp46
 70
     1
102
RTVSPost2010Prop47
 90
       50
102
RTVSPost2010PropOp47
 70
     1
102
RTVSPost2010Prop48
 90
       50
102
RTVSPost2010PropOp48
 70
     1
102
RTVSPost2010Prop49
280
     0
102
RTVSPost2010PropOp49
 70
     1
102
RTVSPost2010Prop50
 90
       50
102
RTVSPost2010PropOp50
 70
     1
102
RTVSPost2010Prop51ColorIndex
 90
      256
102
RTVSPost2010Prop51ColorRGB
 90
-16777216
102
RTVSPost2010PropOp51
 70
     0
102
RTVSPost2010Prop52
140
1.0
102
RTVSPost2010PropOp52
 70
     0
102
RTVSPost2010Prop53
 90
        2
102
RTVSPost2010PropOp53
 70
     1
102
RTVSPost2010Prop54
  1
strokes_ogs.tif
102
RTVSPost2010PropOp54
 70
     1
102
RTVSPost2010Prop55
280
     0
102
RTVSPost2010PropOp55
 70
     1
102
RTVSPost2010Prop56
140
1.0
102
RTVSPost2010PropOp56
 70
     1
102
RTVSPost2010Prop57
140
1.0
102
RTVSPost2010PropOp57
 70
     1
  0
XRECORD
  5
17C
102
{ACAD_REACTORS
330
17B
102
}
330
17B
100
AcDbXrecord
280
     1
102
RTVSPost2010Prop28
280
     0
102
RTVSPost2010PropOp28
 70
     1
102
RTVSPost2010Prop29
280
     1
102
RTVSPost2010PropOp29
 70
     1
102
RTVSPost2010Prop30
280
     1
102
RTVSPost2010PropOp30
 70
     1
102
RTVSPost2010Prop31
280
     0
102
RTVSPost2010PropOp31
 70
     1
102
RTVSPost2010Prop32
280
     0
102
RTVSPost2010PropOp32
 70
     1
102
RTVSPost2010Prop33
280
     0
102
RTVSPost2010PropOp33
 70
     1
102
RTVSPost2010Prop34
280
     0
102
RTVSPost2010PropOp34
 70
     1
102
RTVSPost2010Prop35
280
     0
102
RTVSPost2010PropOp35
 70
     1
102
RTVSPost2010Prop36
280
     0
102
RTVSPost2010PropOp36
 70
     1
102
RTVSPost2010Prop37
 90
       50
102
RTVSPost2010PropOp37
 70
     1
102
RTVSPost2010Prop38
140
0.0
102
RTVSPost2010PropOp38
 70
     1
102
RTVSPost2010Prop39
140
1.0
102
RTVSPost2010PropOp39
 70
     1
102
RTVSPost2010Prop40
 90
        0
102
RTVSPost2010PropOp40
 70
     1
102
RTVSPost2010Prop41ColorIndex
 90
       18
102
RTVSPost2010Prop41ColorRGB
 90
        0
102
RTVSPost2010PropOp41
 70
     1
102
RTVSPost2010Prop42
 90
       50
102
RTVSPost2010PropOp42
 70
     1
102
RTVSPost2010Prop43
 90
        3
102
RTVSPost2010PropOp43
 70
     1
102
RTVSPost2010Prop44ColorIndex
 90
        5
102
RTVSPost2010Prop44ColorRGB
 90
      255
102
RTVSPost2010PropOp44
 70
     1
102
RTVSPost2010Prop45
280
     0
102
RTVSPost2010PropOp45
 70
     1
102
RTVSPost2010Prop46
 90
       50
102
RTVSPost2010PropOp46
 70
     1
102
RTVSPost2010Prop47
 90
       50
102
RTVSPost2010PropOp47
 70
     1
102
RTVSPost2010Prop48
 90
       50
102
RTVSPost2010PropOp48
 70
     1
102
RTVSPost2010Prop49
280
     0
102
RTVSPost2010PropOp49
 70
     1
102
RTVSPost2010Prop50
 90
       50
102
RTVSPost2010PropOp50
 70
     1
102
RTVSPost2010Prop51ColorIndex
 90
      256
102
RTVSPost2010Prop51ColorRGB
 90
-16777216
102
RTVSPost2010PropOp51
 70
     0
102
RTVSPost2010Prop52
140
1.0
102
RTVSPost2010PropOp52
 70
     0
102
RTVSPost2010Prop53
 90
        2
102
RTVSPost2010PropOp53
 70
     1
102
RTVSPost2010Prop54
  1
strokes_ogs.tif
102
RTVSPost2010PropOp54
 70
     1
102
RTVSPost2010Prop55
280
     0
102
RTVSPost2010PropOp55
 70
     1
102
RTVSPost2010Prop56
140
1.0
102
RTVSPost2010PropOp56
 70
     1
102
RTVSPost2010Prop57
140
1.0
102
RTVSPost2010PropOp57
 70
     1
  0
ENDSEC
  0
EOF
