  0
SECTION
  2
HEADER
  9
$ACADVER
  1
AC1024
  9
$ACADMAINTVER
 70
   226
  9
$DWGCODEPAGE
  3
ANSI_932
  9
$INSBASE
 10
0.0
 20
0.0
 30
0.0
  9
$EXTMIN
 10
1.000000000000000E+20
 20
1.000000000000000E+20
 30
1.000000000000000E+20
  9
$EXTMAX
 10
-1.000000000000000E+20
 20
-1.000000000000000E+20
 30
-1.000000000000000E+20
  9
$LIMMIN
 10
0.0
 20
0.0
  9
$LIMMAX
 10
12.0
 20
9.0
  9
$ORTHOMODE
 70
     0
  9
$REGENMODE
 70
     1
  9
$FILLMODE
 70
     1
  9
$QTEXTMODE
 70
     0
  9
$MIRRTEXT
 70
     0
  9
$LTSCALE
 40
1.0
  9
$ATTMODE
 70
     1
  9
$TEXTSIZE
 40
0.2
  9
$TRACEWID
 40
0.05
  9
$TEXTSTYLE
  7
Standard
  9
$CLAYER
  8
0
  9
$CELTYPE
  6
ByLayer
  9
$CECOLOR
 62
   256
  9
$CELTSCALE
 40
1.0
  9
$DISPSILH
 70
     0
  9
$DIMSCALE
 40
1.0
  9
$DIMASZ
 40
0.18
  9
$DIMEXO
 40
0.0625
  9
$DIMDLI
 40
0.38
  9
$DIMRND
 40
0.0
  9
$DIMDLE
 40
0.0
  9
$DIMEXE
 40
0.18
  9
$DIMTP
 40
0.0
  9
$DIMTM
 40
0.0
  9
$DIMTXT
 40
0.18
  9
$DIMCEN
 40
0.09
  9
$DIMTSZ
 40
0.0
  9
$DIMTOL
 70
     0
  9
$DIMLIM
 70
     0
  9
$DIMTIH
 70
     1
  9
$DIMTOH
 70
     1
  9
$DIMSE1
 70
     0
  9
$DIMSE2
 70
     0
  9
$DIMTAD
 70
     0
  9
$DIMZIN
 70
     0
  9
$DIMBLK
  1

  9
$DIMASO
 70
     1
  9
$DIMSHO
 70
     1
  9
$DIMPOST
  1

  9
$DIMAPOST
  1

  9
$DIMALT
 70
     0
  9
$DIMALTD
 70
     2
  9
$DIMALTF
 40
25.4
  9
$DIMLFAC
 40
1.0
  9
$DIMTOFL
 70
     0
  9
$DIMTVP
 40
0.0
  9
$DIMTIX
 70
     0
  9
$DIMSOXD
 70
     0
  9
$DIMSAH
 70
     0
  9
$DIMBLK1
  1

  9
$DIMBLK2
  1

  9
$DIMSTYLE
  2
Standard
  9
$DIMCLRD
 70
     0
  9
$DIMCLRE
 70
     0
  9
$DIMCLRT
 70
     0
  9
$DIMTFAC
 40
1.0
  9
$DIMGAP
 40
0.09
  9
$DIMJUST
 70
     0
  9
$DIMSD1
 70
     0
  9
$DIMSD2
 70
     0
  9
$DIMTOLJ
 70
     1
  9
$DIMTZIN
 70
     0
  9
$DIMALTZ
 70
     0
  9
$DIMALTTZ
 70
     0
  9
$DIMUPT
 70
     0
  9
$DIMDEC
 70
     4
  9
$DIMTDEC
 70
     4
  9
$DIMALTU
 70
     2
  9
$DIMALTTD
 70
     2
  9
$DIMTXSTY
  7
Standard
  9
$DIMAUNIT
 70
     0
  9
$DIMADEC
 70
     0
  9
$DIMALTRND
 40
0.0
  9
$DIMAZIN
 70
     0
  9
$DIMDSEP
 70
    46
  9
$DIMATFIT
 70
     3
  9
$DIMFRAC
 70
     0
  9
$DIMLDRBLK
  1

  9
$DIMLUNIT
 70
     2
  9
$DIMLWD
 70
    -2
  9
$DIMLWE
 70
    -2
  9
$DIMTMOVE
 70
     0
  9
$DIMFXL
 40
1.0
  9
$DIMFXLON
 70
     0
  9
$DIMJOGANG
 40
0.7853981633974483
  9
$DIMTFILL
 70
     0
  9
$DIMTFILLCLR
 70
     0
  9
$DIMARCSYM
 70
     0
  9
$DIMLTYPE
  6

  9
$DIMLTEX1
  6

  9
$DIMLTEX2
  6

  9
$DIMTXTDIRECTION
 70
     0
  9
$LUNITS
 70
     2
  9
$LUPREC
 70
     4
  9
$SKETCHINC
 40
0.1
  9
$FILLETRAD
 40
0.0
  9
$AUNITS
 70
     0
  9
$AUPREC
 70
     0
  9
$MENU
  1
.
  9
$ELEVATION
 40
0.0
  9
$PELEVATION
 40
0.0
  9
$THICKNESS
 40
0.0
  9
$LIMCHECK
 70
     0
  9
$CHAMFERA
 40
0.0
  9
$CHAMFERB
 40
0.0
  9
$CHAMFERC
 40
0.0
  9
$CHAMFERD
 40
0.0
  9
$SKPOLY
 70
     0
  9
$TDCREATE
 40
2459569.489166667
  9
$TDUCREATE
 40
2459569.114166667
  9
$TDUPDATE
 40
2459569.489166667
  9
$TDUUPDATE
 40
2459569.114166667
  9
$TDINDWG
 40
0.0000000000
  9
$TDUSRTIMER
 40
0.0000000000
  9
$USRTIMER
 70
     1
  9
$ANGBASE
 50
0.0
  9
$ANGDIR
 70
     0
  9
$PDMODE
 70
     0
  9
$PDSIZE
 40
0.0
  9
$PLINEWID
 40
0.0
  9
$SPLFRAME
 70
     0
  9
$SPLINETYPE
 70
     6
  9
$SPLINESEGS
 70
     8
  9
$HANDSEED
  5
165
  9
$SURFTAB1
 70
     6
  9
$SURFTAB2
 70
     6
  9
$SURFTYPE
 70
     6
  9
$SURFU
 70
     6
  9
$SURFV
 70
     6
  9
$UCSBASE
  2

  9
$UCSNAME
  2

  9
$UCSORG
 10
0.0
 20
0.0
 30
0.0
  9
$UCSXDIR
 10
1.0
 20
0.0
 30
0.0
  9
$UCSYDIR
 10
0.0
 20
1.0
 30
0.0
  9
$UCSORTHOREF
  2

  9
$UCSORTHOVIEW
 70
     0
  9
$UCSORGTOP
 10
0.0
 20
0.0
 30
0.0
  9
$UCSORGBOTTOM
 10
0.0
 20
0.0
 30
0.0
  9
$UCSORGLEFT
 10
0.0
 20
0.0
 30
0.0
  9
$UCSORGRIGHT
 10
0.0
 20
0.0
 30
0.0
  9
$UCSORGFRONT
 10
0.0
 20
0.0
 30
0.0
  9
$UCSORGBACK
 10
0.0
 20
0.0
 30
0.0
  9
$PUCSBASE
  2

  9
$PUCSNAME
  2

  9
$PUCSORG
 10
0.0
 20
0.0
 30
0.0
  9
$PUCSXDIR
 10
1.0
 20
0.0
 30
0.0
  9
$PUCSYDIR
 10
0.0
 20
1.0
 30
0.0
  9
$PUCSORTHOREF
  2

  9
$PUCSORTHOVIEW
 70
     0
  9
$PUCSORGTOP
 10
0.0
 20
0.0
 30
0.0
  9
$PUCSORGBOTTOM
 10
0.0
 20
0.0
 30
0.0
  9
$PUCSORGLEFT
 10
0.0
 20
0.0
 30
0.0
  9
$PUCSORGRIGHT
 10
0.0
 20
0.0
 30
0.0
  9
$PUCSORGFRONT
 10
0.0
 20
0.0
 30
0.0
  9
$PUCSORGBACK
 10
0.0
 20
0.0
 30
0.0
  9
$USERI1
 70
     0
  9
$USERI2
 70
     0
  9
$USERI3
 70
     0
  9
$USERI4
 70
     0
  9
$USERI5
 70
     0
  9
$USERR1
 40
0.0
  9
$USERR2
 40
0.0
  9
$USERR3
 40
0.0
  9
$USERR4
 40
0.0
  9
$USERR5
 40
0.0
  9
$WORLDVIEW
 70
     1
  9
$SHADEDGE
 70
     3
  9
$SHADEDIF
 70
    70
  9
$TILEMODE
 70
     1
  9
$MAXACTVP
 70
    64
  9
$PINSBASE
 10
0.0
 20
0.0
 30
0.0
  9
$PLIMCHECK
 70
     0
  9
$PEXTMIN
 10
1.000000000000000E+20
 20
1.000000000000000E+20
 30
1.000000000000000E+20
  9
$PEXTMAX
 10
-1.000000000000000E+20
 20
-1.000000000000000E+20
 30
-1.000000000000000E+20
  9
$PLIMMIN
 10
0.0
 20
0.0
  9
$PLIMMAX
 10
12.0
 20
9.0
  9
$UNITMODE
 70
     0
  9
$VISRETAIN
 70
     1
  9
$PLINEGEN
 70
     0
  9
$PSLTSCALE
 70
     1
  9
$TREEDEPTH
 70
  3020
  9
$CMLSTYLE
  2
Standard
  9
$CMLJUST
 70
     0
  9
$CMLSCALE
 40
1.0
  9
$PROXYGRAPHICS
 70
     1
  9
$MEASUREMENT
 70
     0
  9
$CELWEIGHT
370
    -1
  9
$ENDCAPS
280
     0
  9
$JOINSTYLE
280
     0
  9
$LWDISPLAY
290
     1
  9
$INSUNITS
 70
     4
  9
$HYPERLINKBASE
  1

  9
$STYLESHEET
  1

  9
$XEDIT
290
     1
  9
$CEPSNTYPE
380
     0
  9
$PSTYLEMODE
290
     1
  9
$FINGERPRINTGUID
  2
{CB30E11F-F42A-8D40-B4AF-0F9A2C9B102E}
  9
$VERSIONGUID
  2
{C3AE40A9-DCAB-AE48-BDBE-00EA35AD7488}
  9
$EXTNAMES
290
     1
  9
$PSVPSCALE
 40
0.0
  9
$OLESTARTUP
290
     0
  9
$SORTENTS
280
   127
  9
$INDEXCTL
280
     0
  9
$HIDETEXT
280
     1
  9
$XCLIPFRAME
280
     2
  9
$HALOGAP
280
     0
  9
$OBSCOLOR
 70
   257
  9
$OBSLTYPE
280
     0
  9
$INTERSECTIONDISPLAY
280
     0
  9
$INTERSECTIONCOLOR
 70
   257
  9
$DIMASSOC
280
     2
  9
$PROJECTNAME
  1

  9
$CAMERADISPLAY
290
     0
  9
$LENSLENGTH
 40
50.0
  9
$CAMERAHEIGHT
 40
0.0
  9
$STEPSPERSEC
 40
2.0
  9
$STEPSIZE
 40
6.0
  9
$3DDWFPREC
 40
2.0
  9
$PSOLWIDTH
 40
0.25
  9
$PSOLHEIGHT
 40
4.0
  9
$LOFTANG1
 40
1.570796326794896
  9
$LOFTANG2
 40
1.570796326794896
  9
$LOFTMAG1
 40
0.0
  9
$LOFTMAG2
 40
0.0
  9
$LOFTPARAM
 70
     7
  9
$LOFTNORMALS
280
     1
  9
$LATITUDE
 40
37.795
  9
$LONGITUDE
 40
-122.394
  9
$NORTHDIRECTION
 40
0.0
  9
$TIMEZONE
 70
 -8000
  9
$LIGHTGLYPHDISPLAY
280
     1
  9
$TILEMODELIGHTSYNCH
280
     1
  9
$CMATERIAL
347
11
  9
$SOLIDHIST
280
     0
  9
$SHOWHIST
280
     1
  9
$DWFFRAME
280
     2
  9
$DGNFRAME
280
     0
  9
$REALWORLDSCALE
290
     1
  9
$INTERFERECOLOR
 62
     1
  9
$INTERFEREOBJVS
345
33
  9
$INTERFEREVPVS
346
30
  9
$CSHADOW
280
     0
  9
$SHADOWPLANELOCATION
 40
0.0
  0
ENDSEC
  0
SECTION
  2
CLASSES
  0
CLASS
  1
ACDBDICTIONARYWDFLT
  2
AcDbDictionaryWithDefault
  3
ObjectDBX Classes
 90
        0
 91
        1
280
     0
281
     0
  0
CLASS
  1
MATERIAL
  2
AcDbMaterial
  3
ObjectDBX Classes
 90
     1153
 91
        3
280
     0
281
     0
  0
CLASS
  1
VISUALSTYLE
  2
AcDbVisualStyle
  3
ObjectDBX Classes
 90
     4095
 91
       24
280
     0
281
     0
  0
CLASS
  1
SCALE
  2
AcDbScale
  3
ObjectDBX Classes
 90
     1153
 91
       17
280
     0
281
     0
  0
CLASS
  1
TABLESTYLE
  2
AcDbTableStyle
  3
ObjectDBX Classes
 90
     4095
 91
        1
280
     0
281
     0
  0
CLASS
  1
MLEADERSTYLE
  2
AcDbMLeaderStyle
  3
ACDB_MLEADERSTYLE_CLASS
 90
     4095
 91
        1
280
     0
281
     0
  0
CLASS
  1
ACDBSECTIONVIEWSTYLE
  2
AcDbSectionViewStyle
  3
ObjectDBX Classes
 90
     1025
 91
        1
280
     0
281
     0
  0
CLASS
  1
ACDBDETAILVIEWSTYLE
  2
AcDbDetailViewStyle
  3
ObjectDBX Classes
 90
     1025
 91
        1
280
     0
281
     0
  0
CLASS
  1
DICTIONARYVAR
  2
AcDbDictionaryVar
  3
ObjectDBX Classes
 90
        0
 91
        5
280
     0
281
     0
  0
CLASS
  1
CELLSTYLEMAP
  2
AcDbCellStyleMap
  3
ObjectDBX Classes
 90
     1152
 91
        1
280
     0
281
     0
  0
ENDSEC
  0
SECTION
  2
TABLES
  0
TABLE
  2
VPORT
  5
8
330
0
100
AcDbSymbolTable
 70
     1
  0
VPORT
  5
57
330
8
100
AcDbSymbolTableRecord
100
AcDbViewportTableRecord
  2
*Active
 70
     0
 10
0.0
 20
0.0
 11
1.0
 21
1.0
 12
0.0
 22
0.0
 13
0.0
 23
0.0
 14
1.0
 24
1.0
 15
0.0
 25
0.0
 16
0.0
 26
0.0
 36
1.0
 17
104.9999999737534
 27
-148.4999999628701
 37
0.0
 40
302.939999924255
 41
0.7070707070707534
 42
50.0
 43
0.0
 44
0.0
 50
0.0
 51
0.0
 71
     0
 72
   100
 73
     1
 74
     0
 75
     1
 76
     0
 77
     0
 78
     0
281
     0
 65
     1
110
0.0
120
0.0
130
0.0
111
1.0
121
0.0
131
0.0
112
0.0
122
1.0
132
0.0
 79
     0
146
0.0
 60
     3
 61
     5
292
     1
282
     1
141
0.0
142
0.0
 63
   250
421
  3355443
  0
ENDTAB
  0
TABLE
  2
LTYPE
  5
5
330
0
100
AcDbSymbolTable
 70
     2
  0
LTYPE
  5
5B
330
5
100
AcDbSymbolTableRecord
100
AcDbLinetypeTableRecord
  2
ByBlock
 70
     0
  3

 72
    65
 73
     0
 40
0.0
  0
LTYPE
  5
5C
330
5
100
AcDbSymbolTableRecord
100
AcDbLinetypeTableRecord
  2
ByLayer
 70
     0
  3

 72
    65
 73
     0
 40
0.0
  0
LTYPE
  5
5D
330
5
100
AcDbSymbolTableRecord
100
AcDbLinetypeTableRecord
  2
Continuous
 70
     0
  3
Solid line
 72
    65
 73
     0
 40
0.0
  0
LTYPE
  5
FF
330
5
100
AcDbSymbolTableRecord
100
AcDbLinetypeTableRecord
  2
AI-Linetype-0
 70
     0
  3
Adobe Illustrator Linetype No. 0
 72
    65
 73
     2
 40
1.411111110758333
 49
0.7055555553791667
 74
     0
 49
-0.7055555553791667
 74
     0
  0
ENDTAB
  0
TABLE
  2
LAYER
  5
2
330
0
100
AcDbSymbolTable
 70
     2
  0
LAYER
  5
54
330
2
100
AcDbSymbolTableRecord
100
AcDbLayerTableRecord
  2
0
 70
     0
 62
     7
  6
Continuous
370
    -3
390
F
347
21
  0
LAYER
  5
78
330
2
100
AcDbSymbolTableRecord
100
AcDbLayerTableRecord
  2
レイヤー 1
 70
     0
 62
     7
  6
Continuous
370
     0
390
F
347
21
  0
ENDTAB
  0
TABLE
  2
STYLE
  5
3
330
0
100
AcDbSymbolTable
 70
     2
  0
STYLE
  5
55
330
3
100
AcDbSymbolTableRecord
100
AcDbTextStyleTableRecord
  2
Standard
 70
     0
 40
0.0
 41
1.0
 50
0.0
 71
     0
 42
0.2
  3
txt
  4

  0
STYLE
  5
5A
330
3
100
AcDbSymbolTableRecord
100
AcDbTextStyleTableRecord
  2
Annotative
 70
     0
 40
0.0
 41
1.0
 50
0.0
 71
     0
 42
0.2
  3
txt
  4

1001
AcadAnnotative
1000
AnnotativeData
1002
{
1070
     1
1070
     1
1002
}
  0
ENDTAB
  0
TABLE
  2
VIEW
  5
6
330
0
100
AcDbSymbolTable
 70
     0
  0
ENDTAB
  0
TABLE
  2
UCS
  5
7
330
0
100
AcDbSymbolTable
 70
     0
  0
ENDTAB
  0
TABLE
  2
APPID
  5
9
330
0
100
AcDbSymbolTable
 70
     2
  0
APPID
  5
56
330
9
100
AcDbSymbolTableRecord
100
AcDbRegAppTableRecord
  2
ACAD
 70
     0
  0
APPID
  5
5E
330
9
100
AcDbSymbolTableRecord
100
AcDbRegAppTableRecord
  2
AcadAnnotative
 70
     0
  0
ENDTAB
  0
TABLE
  2
DIMSTYLE
  5
A
330
0
100
AcDbSymbolTable
 70
     2
100
AcDbDimStyleTable
 71
     0
  0
DIMSTYLE
105
58
330
A
100
AcDbSymbolTableRecord
100
AcDbDimStyleTableRecord
  2
Standard
 70
     0
340
55
  0
DIMSTYLE
105
59
330
A
100
AcDbSymbolTableRecord
100
AcDbDimStyleTableRecord
  2
Annotative
 70
     0
340
55
1001
AcadAnnotative
1000
AnnotativeData
1002
{
1070
     1
1070
     1
1002
}
  0
ENDTAB
  0
TABLE
  2
BLOCK_RECORD
  5
1
330
0
100
AcDbSymbolTable
 70
    14
  0
BLOCK_RECORD
  5
70
330
1
100
AcDbSymbolTableRecord
100
AcDbBlockTableRecord
  2
*Model_Space
340
73
 70
     0
280
     1
281
     0
  0
BLOCK_RECORD
  5
6C
330
1
100
AcDbSymbolTableRecord
100
AcDbBlockTableRecord
  2
*Paper_Space
340
6F
 70
     0
280
     1
281
     0
  0
BLOCK_RECORD
  5
74
330
1
100
AcDbSymbolTableRecord
100
AcDbBlockTableRecord
  2
*Paper_Space0
340
77
 70
     0
280
     1
281
     0
  0
BLOCK_RECORD
  5
B4
330
1
100
AcDbSymbolTableRecord
100
AcDbBlockTableRecord
  2
Block_0
340
0
102
{BLKREFS
331
B5
102
}
 70
     0
280
     1
281
     0
  0
BLOCK_RECORD
  5
B8
330
1
100
AcDbSymbolTableRecord
100
AcDbBlockTableRecord
  2
Block_1
340
0
102
{BLKREFS
331
B9
102
}
 70
     0
280
     1
281
     0
  0
BLOCK_RECORD
  5
C5
330
1
100
AcDbSymbolTableRecord
100
AcDbBlockTableRecord
  2
Block_2
340
0
102
{BLKREFS
331
C6
102
}
 70
     0
280
     1
281
     0
  0
BLOCK_RECORD
  5
C9
330
1
100
AcDbSymbolTableRecord
100
AcDbBlockTableRecord
  2
Block_3
340
0
102
{BLKREFS
331
CA
102
}
 70
     0
280
     1
281
     0
  0
BLOCK_RECORD
  5
D3
330
1
100
AcDbSymbolTableRecord
100
AcDbBlockTableRecord
  2
Block_4
340
0
102
{BLKREFS
331
D4
102
}
 70
     0
280
     1
281
     0
  0
BLOCK_RECORD
  5
DE
330
1
100
AcDbSymbolTableRecord
100
AcDbBlockTableRecord
  2
Block_5
340
0
102
{BLKREFS
331
DF
102
}
 70
     0
280
     1
281
     0
  0
BLOCK_RECORD
  5
EA
330
1
100
AcDbSymbolTableRecord
100
AcDbBlockTableRecord
  2
Block_6
340
0
102
{BLKREFS
331
EB
102
}
 70
     0
280
     1
281
     0
  0
BLOCK_RECORD
  5
EE
330
1
100
AcDbSymbolTableRecord
100
AcDbBlockTableRecord
  2
Block_7
340
0
102
{BLKREFS
331
EF
102
}
 70
     0
280
     1
281
     0
  0
BLOCK_RECORD
  5
F8
330
1
100
AcDbSymbolTableRecord
100
AcDbBlockTableRecord
  2
Block_8
340
0
102
{BLKREFS
331
F9
102
}
 70
     0
280
     1
281
     0
  0
BLOCK_RECORD
  5
100
330
1
100
AcDbSymbolTableRecord
100
AcDbBlockTableRecord
  2
Block_9
340
0
102
{BLKREFS
331
101
102
}
 70
     0
280
     1
281
     0
  0
BLOCK_RECORD
  5
104
330
1
100
AcDbSymbolTableRecord
100
AcDbBlockTableRecord
  2
Block_10
340
0
102
{BLKREFS
331
105
102
}
 70
     0
280
     1
281
     0
  0
BLOCK_RECORD
  5
10B
330
1
100
AcDbSymbolTableRecord
100
AcDbBlockTableRecord
  2
Block_11
340
0
102
{BLKREFS
331
10C
102
}
 70
     0
280
     1
281
     0
  0
BLOCK_RECORD
  5
10F
330
1
100
AcDbSymbolTableRecord
100
AcDbBlockTableRecord
  2
Block_12
340
0
102
{BLKREFS
331
110
102
}
 70
     0
280
     1
281
     0
  0
ENDTAB
  0
ENDSEC
  0
SECTION
  2
BLOCKS
  0
BLOCK
  5
71
330
70
100
AcDbEntity
  8
0
100
AcDbBlockBegin
  2
*Model_Space
 70
     0
 10
0.0
 20
0.0
 30
0.0
  3
*Model_Space
  1

  0
ENDBLK
  5
72
330
70
100
AcDbEntity
  8
0
100
AcDbBlockEnd
  0
BLOCK
  5
6D
330
6C
100
AcDbEntity
 67
     1
  8
0
100
AcDbBlockBegin
  2
*Paper_Space
 70
     0
 10
0.0
 20
0.0
 30
0.0
  3
*Paper_Space
  1

  0
ENDBLK
  5
6E
330
6C
100
AcDbEntity
 67
     1
  8
0
100
AcDbBlockEnd
  0
BLOCK
  5
75
330
74
100
AcDbEntity
 67
     1
  8
0
100
AcDbBlockBegin
  2
*Paper_Space0
 70
     0
 10
0.0
 20
0.0
 30
0.0
  3
*Paper_Space0
  1

  0
ENDBLK
  5
76
330
74
100
AcDbEntity
 67
     1
  8
0
100
AcDbBlockEnd
  0
BLOCK
  5
B6
330
B4
100
AcDbEntity
  8
0
100
AcDbBlockBegin
  2
Block_0
 70
     0
 10
0.0
 20
0.0
 30
0.0
  3
Block_0
  1

  0
INSERT
  5
B9
330
B4
100
AcDbEntity
  8
レイヤー 1
100
AcDbBlockReference
  2
Block_1
 10
0.0
 20
0.0
 30
0.0
  0
ENDBLK
  5
B7
330
B4
100
AcDbEntity
  8
0
100
AcDbBlockEnd
  0
BLOCK
  5
BA
330
B8
100
AcDbEntity
  8
0
100
AcDbBlockBegin
  2
Block_1
 70
     0
 10
0.0
 20
0.0
 30
0.0
  3
Block_1
  1

  0
SPLINE
  5
BC
330
B8
100
AcDbEntity
  8
レイヤー 1
100
AcDbSpline
210
0.0
220
0.0
230
1.0
 70
     9
 71
     3
 72
    17
 73
    13
 74
     0
 42
0.0000000001
 43
0.0000000001
 40
0.0
 40
0.0
 40
0.0
 40
0.0
 40
1.0
 40
1.0
 40
1.0
 40
2.0
 40
2.0
 40
2.0
 40
3.0
 40
3.0
 40
3.0
 40
4.0
 40
4.0
 40
4.0
 40
4.0
 10
84.09271373765738
 20
-146.5416150892326
 30
0.0
 10
84.09271373765738
 20
-146.7913845119132
 30
0.0
 10
84.37607284131919
 20
-146.8378933009641
 30
0.0
 10
84.7209268993927
 20
-146.8378933009641
 30
0.0
 10
85.04045950564961
 20
-146.8378933009641
 30
0.0
 10
85.34931231590226
 20
-146.801719798369
 30
0.0
 10
85.34931231590226
 20
-146.5416150892326
 30
0.0
 10
85.34931231590226
 20
-146.2939127238432
 30
0.0
 10
85.06784801475735
 20
-146.2453368775011
 30
0.0
 10
84.7209268993927
 20
-146.2453368775011
 30
0.0
 10
84.40156654791001
 20
-146.2453368775011
 30
0.0
 10
84.09271373765738
 20
-146.2835774373874
 30
0.0
 10
84.09271373765738
 20
-146.5416150892326
 30
0.0
  0
SPLINE
  5
BD
330
B8
100
AcDbEntity
  8
レイヤー 1
100
AcDbSpline
210
0.0
220
0.0
230
1.0
 70
     9
 71
     3
 72
    29
 73
    25
 74
     0
 42
0.0000000001
 43
0.0000000001
 40
0.0
 40
0.0
 40
0.0
 40
0.0
 40
1.0
 40
1.0
 40
1.0
 40
2.0
 40
2.0
 40
2.0
 40
3.0
 40
3.0
 40
3.0
 40
4.0
 40
4.0
 40
4.0
 40
5.0
 40
5.0
 40
5.0
 40
6.0
 40
6.0
 40
6.0
 40
7.0
 40
7.0
 40
7.0
 40
8.0
 40
8.0
 40
8.0
 40
8.0
 10
85.31537812537255
 20
-146.1437065606863
 30
0.0
 10
85.52483993087575
 20
-146.2518825589231
 30
0.0
 10
85.54396021081888
 20
-146.4251708618312
 30
0.0
 10
85.54396021081888
 20
-146.5416150892326
 30
0.0
 10
85.54396021081888
 20
-146.7025010483938
 30
0.0
 10
85.49745142176801
 20
-146.8440944728376
 30
0.0
 10
85.31537812537255
 20
-146.9391791082305
 30
0.0
 10
85.12090248523019
 20
-147.0428764823365
 30
0.0
 10
84.88387991584501
 20
-147.0621690170539
 30
0.0
 10
84.7209268993927
 20
-147.0621690170539
 30
0.0
 10
84.5770941628835
 20
-147.0621690170539
 30
0.0
 10
84.32542993768601
 20
-147.0449435396276
 30
0.0
 10
84.12647567341283
 20
-146.9391791082305
 30
0.0
 10
83.92338729455735
 20
-146.8313476195421
 30
0.0
 10
83.90013290003192
 20
-146.670461660381
 30
0.0
 10
83.90013290003192
 20
-146.5416150892326
 30
0.0
 10
83.90013290003192
 20
-146.3827961873626
 30
0.0
 10
83.94457463179163
 20
-146.2391357056277
 30
0.0
 10
84.12647567341283
 20
-146.1437065606863
 30
0.0
 10
84.3190565110383
 20
-146.0444878107111
 30
0.0
 10
84.54746634171035
 20
-146.0210611614114
 30
0.0
 10
84.7209268993927
 20
-146.0210611614114
 30
0.0
 10
84.89232039978388
 20
-146.0210611614114
 30
0.0
 10
85.12296954252134
 20
-146.0424207534199
 30
0.0
 10
85.31537812537255
 20
-146.1437065606863
 30
0.0
  0
HATCH
  5
BE
330
B8
100
AcDbEntity
  8
レイヤー 1
 62
   250
420
  2299925
440
 33554687
100
AcDbHatch
 10
0.0
 20
0.0
 30
0.0
210
0.0
220
0.0
230
1.0
  2
SOLID
 70
     1
 71
     1
 91
        2
 92
        1
 93
        1
 72
     4
 94
        3
 73
     0
 74
     0
 95
       17
 96
       13
 40
0.0
 40
0.0
 40
0.0
 40
0.0
 40
1.0
 40
1.0
 40
1.0
 40
2.0
 40
2.0
 40
2.0
 40
3.0
 40
3.0
 40
3.0
 40
4.0
 40
4.0
 40
4.0
 40
4.0
 10
84.09271373765738
 20
-146.5416150892326
 10
84.09271373765738
 20
-146.7913845119132
 10
84.37607284131919
 20
-146.8378933009641
 10
84.7209268993927
 20
-146.8378933009641
 10
85.04045950564961
 20
-146.8378933009641
 10
85.34931231590226
 20
-146.801719798369
 10
85.34931231590226
 20
-146.5416150892326
 10
85.34931231590226
 20
-146.2939127238432
 10
85.06784801475735
 20
-146.2453368775011
 10
84.7209268993927
 20
-146.2453368775011
 10
84.40156654791001
 20
-146.2453368775011
 10
84.09271373765738
 20
-146.2835774373874
 10
84.09271373765738
 20
-146.5416150892326
 97
        0
 97
        1
330
BC
 92
        1
 93
        1
 72
     4
 94
        3
 73
     0
 74
     0
 95
       29
 96
       25
 40
0.0
 40
0.0
 40
0.0
 40
0.0
 40
1.0
 40
1.0
 40
1.0
 40
2.0
 40
2.0
 40
2.0
 40
3.0
 40
3.0
 40
3.0
 40
4.0
 40
4.0
 40
4.0
 40
5.0
 40
5.0
 40
5.0
 40
6.0
 40
6.0
 40
6.0
 40
7.0
 40
7.0
 40
7.0
 40
8.0
 40
8.0
 40
8.0
 40
8.0
 10
85.31537812537255
 20
-146.1437065606863
 10
85.52483993087575
 20
-146.2518825589231
 10
85.54396021081888
 20
-146.4251708618312
 10
85.54396021081888
 20
-146.5416150892326
 10
85.54396021081888
 20
-146.7025010483938
 10
85.49745142176801
 20
-146.8440944728376
 10
85.31537812537255
 20
-146.9391791082305
 10
85.12090248523019
 20
-147.0428764823365
 10
84.88387991584501
 20
-147.0621690170539
 10
84.7209268993927
 20
-147.0621690170539
 10
84.5770941628835
 20
-147.0621690170539
 10
84.32542993768601
 20
-147.0449435396276
 10
84.12647567341283
 20
-146.9391791082305
 10
83.92338729455735
 20
-146.8313476195421
 10
83.90013290003192
 20
-146.670461660381
 10
83.90013290003192
 20
-146.5416150892326
 10
83.90013290003192
 20
-146.3827961873626
 10
83.94457463179163
 20
-146.2391357056277
 10
84.12647567341283
 20
-146.1437065606863
 10
84.3190565110383
 20
-146.0444878107111
 10
84.54746634171035
 20
-146.0210611614114
 10
84.7209268993927
 20
-146.0210611614114
 10
84.89232039978388
 20
-146.0210611614114
 10
85.12296954252134
 20
-146.0424207534199
 10
85.31537812537255
 20
-146.1437065606863
 97
        0
 97
        1
330
BD
 75
     2
 76
     1
 98
        1
 10
0.0
 20
0.0
450
        0
451
        0
460
0.0
461
0.0
452
        0
462
0.0
453
        0
470

  0
SPLINE
  5
BF
330
B8
100
AcDbEntity
  8
レイヤー 1
100
AcDbSpline
210
0.0
220
0.0
230
1.0
 70
    11
 71
     3
 72
    17
 73
    13
 74
     0
 42
0.0000000001
 43
0.0000000001
 40
0.0
 40
0.0
 40
0.0
 40
0.0
 40
1.0
 40
1.0
 40
1.0
 40
2.0
 40
2.0
 40
2.0
 40
3.0
 40
3.0
 40
3.0
 40
4.0
 40
4.0
 40
4.0
 40
4.0
 10
85.49314505241143
 20
-145.8047091649377
 30
0.0
 10
85.49314505241143
 20
-145.8047091649377
 30
0.0
 10
85.24148082721394
 20
-145.8047091649377
 30
0.0
 10
85.24148082721394
 20
-145.8047091649377
 30
0.0
 10
85.24148082721394
 20
-145.8047091649377
 30
0.0
 10
85.24148082721394
 20
-145.5528726849659
 30
0.0
 10
85.24148082721394
 20
-145.5528726849659
 30
0.0
 10
85.24148082721394
 20
-145.5528726849659
 30
0.0
 10
85.49314505241143
 20
-145.5528726849659
 30
0.0
 10
85.49314505241143
 20
-145.5528726849659
 30
0.0
 10
85.49314505241143
 20
-145.5528726849659
 30
0.0
 10
85.49314505241143
 20
-145.8047091649377
 30
0.0
 10
85.49314505241143
 20
-145.8047091649377
 30
0.0
  0
HATCH
  5
C0
330
B8
100
AcDbEntity
  8
レイヤー 1
 62
   250
420
  2299925
440
 33554687
100
AcDbHatch
 10
0.0
 20
0.0
 30
0.0
210
0.0
220
0.0
230
1.0
  2
SOLID
 70
     1
 71
     1
 91
        1
 92
        1
 93
        1
 72
     4
 94
        3
 73
     0
 74
     0
 95
       17
 96
       13
 40
0.0
 40
0.0
 40
0.0
 40
0.0
 40
1.0
 40
1.0
 40
1.0
 40
2.0
 40
2.0
 40
2.0
 40
3.0
 40
3.0
 40
3.0
 40
4.0
 40
4.0
 40
4.0
 40
4.0
 10
85.49314505241143
 20
-145.8047091649377
 10
85.49314505241143
 20
-145.8047091649377
 10
85.24148082721394
 20
-145.8047091649377
 10
85.24148082721394
 20
-145.8047091649377
 10
85.24148082721394
 20
-145.8047091649377
 10
85.24148082721394
 20
-145.5528726849659
 10
85.24148082721394
 20
-145.5528726849659
 10
85.24148082721394
 20
-145.5528726849659
 10
85.49314505241143
 20
-145.5528726849659
 10
85.49314505241143
 20
-145.5528726849659
 10
85.49314505241143
 20
-145.5528726849659
 10
85.49314505241143
 20
-145.8047091649377
 10
85.49314505241143
 20
-145.8047091649377
 97
        0
 97
        1
330
BF
 75
     2
 76
     1
 98
        1
 10
0.0
 20
0.0
450
        0
451
        0
460
0.0
461
0.0
452
        0
462
0.0
453
        0
470

  0
SPLINE
  5
C1
330
B8
100
AcDbEntity
  8
レイヤー 1
100
AcDbSpline
210
0.0
220
0.0
230
1.0
 70
     9
 71
     3
 72
    53
 73
    49
 74
     0
 42
0.0000000001
 43
0.0000000001
 40
0.0
 40
0.0
 40
0.0
 40
0.0
 40
1.0
 40
1.0
 40
1.0
 40
2.0
 40
2.0
 40
2.0
 40
3.0
 40
3.0
 40
3.0
 40
4.0
 40
4.0
 40
4.0
 40
5.0
 40
5.0
 40
5.0
 40
6.0
 40
6.0
 40
6.0
 40
7.0
 40
7.0
 40
7.0
 40
8.0
 40
8.0
 40
8.0
 40
9.0
 40
9.0
 40
9.0
 40
10.0
 40
10.0
 40
10.0
 40
11.0
 40
11.0
 40
11.0
 40
12.0
 40
12.0
 40
12.0
 40
13.0
 40
13.0
 40
13.0
 40
14.0
 40
14.0
 40
14.0
 40
15.0
 40
15.0
 40
15.0
 40
16.0
 40
16.0
 40
16.0
 40
16.0
 10
85.54396021081888
 20
-144.8356038049369
 30
0.0
 10
85.54396021081888
 20
-144.9138074724521
 30
0.0
 10
85.52707924294116
 20
-145.0154377892669
 30
0.0
 10
85.46351723123828
 20
-145.1170681060818
 30
0.0
 10
85.35344643048455
 20
-145.2903564089899
 30
0.0
 10
85.22236054727079
 20
-145.3117160009985
 30
0.0
 10
85.11452905858247
 20
-145.3306640261673
 30
0.0
 10
85.11452905858247
 20
-145.3306640261673
 30
0.0
 10
85.11452905858247
 20
-145.1084553673687
 30
0.0
 10
85.11452905858247
 20
-145.1084553673687
 30
0.0
 10
85.3133110680814
 20
-145.0536783491532
 30
0.0
 10
85.34293888925454
 20
-144.9265543257475
 30
0.0
 10
85.34293888925454
 20
-144.8335367476458
 30
0.0
 10
85.34293888925454
 20
-144.6940103804932
 30
0.0
 10
85.24354788450509
 20
-144.5417371600451
 30
0.0
 10
85.01083168447646
 20
-144.5417371600451
 30
0.0
 10
84.75486108992241
 20
-144.5417371600451
 30
0.0
 10
84.68509790634609
 20
-144.7215711443751
 30
0.0
 10
84.68509790634609
 20
-144.8421494863589
 30
0.0
 10
84.68509790634609
 20
-144.8738443648232
 30
0.0
 10
84.68509790634609
 20
-145.0154377892669
 30
0.0
 10
84.81411673226871
 20
-145.1043212527864
 30
0.0
 10
84.81411673226871
 20
-145.1043212527864
 30
0.0
 10
84.79499645232555
 20
-145.2800211225341
 30
0.0
 10
84.79499645232555
 20
-145.2800211225341
 30
0.0
 10
84.79499645232555
 20
-145.2800211225341
 30
0.0
 10
83.94888100114819
 20
-145.1594427805504
 30
0.0
 10
83.94888100114819
 20
-145.1594427805504
 30
0.0
 10
83.94888100114819
 20
-145.1594427805504
 30
0.0
 10
83.94888100114819
 20
-144.3808512008839
 30
0.0
 10
83.94888100114819
 20
-144.3808512008839
 30
0.0
 10
83.94888100114819
 20
-144.3808512008839
 30
0.0
 10
84.14352889606481
 20
-144.3808512008839
 30
0.0
 10
84.14352889606481
 20
-144.3808512008839
 30
0.0
 10
84.14352889606481
 20
-144.3808512008839
 30
0.0
 10
84.14352889606481
 20
-144.9964897640981
 30
0.0
 10
84.14352889606481
 20
-144.9964897640981
 30
0.0
 10
84.14352889606481
 20
-144.9964897640981
 30
0.0
 10
84.56658662165351
 20
-145.0619465783178
 30
0.0
 10
84.56658662165351
 20
-145.0619465783178
 30
0.0
 10
84.53265243112378
 20
-145.0006238786804
 30
0.0
 10
84.49251706872063
 20
-144.9182860965829
 30
0.0
 10
84.49251706872063
 20
-144.7997748118903
 30
0.0
 10
84.49251706872063
 20
-144.5458712746274
 30
0.0
 10
84.67872447969837
 20
-144.3088487052422
 30
0.0
 10
84.99171140453332
 20
-144.3088487052422
 30
0.0
 10
85.30917695349911
 20
-144.3088487052422
 30
0.0
 10
85.54396021081888
 20
-144.533124421332
 30
0.0
 10
85.54396021081888
 20
-144.8356038049369
 30
0.0
  0
HATCH
  5
C2
330
B8
100
AcDbEntity
  8
レイヤー 1
 62
   250
420
  2299925
440
 33554687
100
AcDbHatch
 10
0.0
 20
0.0
 30
0.0
210
0.0
220
0.0
230
1.0
  2
SOLID
 70
     1
 71
     1
 91
        1
 92
        1
 93
        1
 72
     4
 94
        3
 73
     0
 74
     0
 95
       53
 96
       49
 40
0.0
 40
0.0
 40
0.0
 40
0.0
 40
1.0
 40
1.0
 40
1.0
 40
2.0
 40
2.0
 40
2.0
 40
3.0
 40
3.0
 40
3.0
 40
4.0
 40
4.0
 40
4.0
 40
5.0
 40
5.0
 40
5.0
 40
6.0
 40
6.0
 40
6.0
 40
7.0
 40
7.0
 40
7.0
 40
8.0
 40
8.0
 40
8.0
 40
9.0
 40
9.0
 40
9.0
 40
10.0
 40
10.0
 40
10.0
 40
11.0
 40
11.0
 40
11.0
 40
12.0
 40
12.0
 40
12.0
 40
13.0
 40
13.0
 40
13.0
 40
14.0
 40
14.0
 40
14.0
 40
15.0
 40
15.0
 40
15.0
 40
16.0
 40
16.0
 40
16.0
 40
16.0
 10
85.54396021081888
 20
-144.8356038049369
 10
85.54396021081888
 20
-144.9138074724521
 10
85.52707924294116
 20
-145.0154377892669
 10
85.46351723123828
 20
-145.1170681060818
 10
85.35344643048455
 20
-145.2903564089899
 10
85.22236054727079
 20
-145.3117160009985
 10
85.11452905858247
 20
-145.3306640261673
 10
85.11452905858247
 20
-145.3306640261673
 10
85.11452905858247
 20
-145.1084553673687
 10
85.11452905858247
 20
-145.1084553673687
 10
85.3133110680814
 20
-145.0536783491532
 10
85.34293888925454
 20
-144.9265543257475
 10
85.34293888925454
 20
-144.8335367476458
 10
85.34293888925454
 20
-144.6940103804932
 10
85.24354788450509
 20
-144.5417371600451
 10
85.01083168447646
 20
-144.5417371600451
 10
84.75486108992241
 20
-144.5417371600451
 10
84.68509790634609
 20
-144.7215711443751
 10
84.68509790634609
 20
-144.8421494863589
 10
84.68509790634609
 20
-144.8738443648232
 10
84.68509790634609
 20
-145.0154377892669
 10
84.81411673226871
 20
-145.1043212527864
 10
84.81411673226871
 20
-145.1043212527864
 10
84.79499645232555
 20
-145.2800211225341
 10
84.79499645232555
 20
-145.2800211225341
 10
84.79499645232555
 20
-145.2800211225341
 10
83.94888100114819
 20
-145.1594427805504
 10
83.94888100114819
 20
-145.1594427805504
 10
83.94888100114819
 20
-145.1594427805504
 10
83.94888100114819
 20
-144.3808512008839
 10
83.94888100114819
 20
-144.3808512008839
 10
83.94888100114819
 20
-144.3808512008839
 10
84.14352889606481
 20
-144.3808512008839
 10
84.14352889606481
 20
-144.3808512008839
 10
84.14352889606481
 20
-144.3808512008839
 10
84.14352889606481
 20
-144.9964897640981
 10
84.14352889606481
 20
-144.9964897640981
 10
84.14352889606481
 20
-144.9964897640981
 10
84.56658662165351
 20
-145.0619465783178
 10
84.56658662165351
 20
-145.0619465783178
 10
84.53265243112378
 20
-145.0006238786804
 10
84.49251706872063
 20
-144.9182860965829
 10
84.49251706872063
 20
-144.7997748118903
 10
84.49251706872063
 20
-144.5458712746274
 10
84.67872447969837
 20
-144.3088487052422
 10
84.99171140453332
 20
-144.3088487052422
 10
85.30917695349911
 20
-144.3088487052422
 10
85.54396021081888
 20
-144.533124421332
 10
85.54396021081888
 20
-144.8356038049369
 97
        0
 97
        1
330
C1
 75
     2
 76
     1
 98
        1
 10
0.0
 20
0.0
450
        0
451
        0
460
0.0
461
0.0
452
        0
462
0.0
453
        0
470

  0
ENDBLK
  5
BB
330
B8
100
AcDbEntity
  8
0
100
AcDbBlockEnd
  0
BLOCK
  5
C7
330
C5
100
AcDbEntity
  8
0
100
AcDbBlockBegin
  2
Block_2
 70
     0
 10
0.0
 20
0.0
 30
0.0
  3
Block_2
  1

  0
INSERT
  5
CA
330
C5
100
AcDbEntity
  8
レイヤー 1
100
AcDbBlockReference
  2
Block_3
 10
0.0
 20
0.0
 30
0.0
  0
ENDBLK
  5
C8
330
C5
100
AcDbEntity
  8
0
100
AcDbBlockEnd
  0
BLOCK
  5
CB
330
C9
100
AcDbEntity
  8
0
100
AcDbBlockBegin
  2
Block_3
 70
     0
 10
0.0
 20
0.0
 30
0.0
  3
Block_3
  1

  0
SPLINE
  5
CD
330
C9
100
AcDbEntity
  8
レイヤー 1
100
AcDbSpline
210
0.0
220
0.0
230
1.0
 70
     9
 71
     3
 72
    44
 73
    40
 74
     0
 42
0.0000000001
 43
0.0000000001
 40
0.0
 40
0.0
 40
0.0
 40
0.0
 40
1.0
 40
1.0
 40
1.0
 40
2.0
 40
2.0
 40
2.0
 40
3.0
 40
3.0
 40
3.0
 40
4.0
 40
4.0
 40
4.0
 40
5.0
 40
5.0
 40
5.0
 40
6.0
 40
6.0
 40
6.0
 40
7.0
 40
7.0
 40
7.0
 40
8.0
 40
8.0
 40
8.0
 40
9.0
 40
9.0
 40
9.0
 40
10.0
 40
10.0
 40
10.0
 40
11.0
 40
11.0
 40
11.0
 40
12.0
 40
12.0
 40
12.0
 40
13.0
 40
13.0
 40
13.0
 40
13.0
 10
100.941814482143
 20
-139.3720268748792
 30
0.0
 10
100.7239121927009
 20
-139.530673521975
 30
0.0
 10
100.6307223598249
 20
-139.6047430749078
 30
0.0
 10
100.5821465134829
 20
-139.748575811417
 30
0.0
 10
100.5821465134829
 20
-139.748575811417
 30
0.0
 10
101.3605658383751
 20
-139.748575811417
 30
0.0
 10
101.3605658383751
 20
-139.748575811417
 30
0.0
 10
101.3605658383751
 20
-139.748575811417
 30
0.0
 10
101.3605658383751
 20
-139.9537312475636
 30
0.0
 10
101.3605658383751
 20
-139.9537312475636
 30
0.0
 10
101.3605658383751
 20
-139.9537312475636
 30
0.0
 10
100.3325493455766
 20
-139.9537312475636
 30
0.0
 10
100.3325493455766
 20
-139.9537312475636
 30
0.0
 10
100.3642442240409
 20
-139.5961303361947
 30
0.0
 10
100.4297010382606
 20
-139.5179266686795
 30
0.0
 10
100.8148627135115
 20
-139.2195813996569
 30
0.0
 10
101.0708333080656
 20
-139.020799390158
 30
0.0
 10
101.1362901222853
 20
-138.9531032638728
 30
0.0
 10
101.1362901222853
 20
-138.8156439540113
 30
0.0
 10
101.1362901222853
 20
-138.6971326693188
 30
0.0
 10
101.0644598814179
 20
-138.5658745313307
 30
0.0
 10
100.8677449292101
 20
-138.5658745313307
 30
0.0
 10
100.6074679652995
 20
-138.5658745313307
 30
0.0
 10
100.5990274813606
 20
-138.7965236740682
 30
0.0
 10
100.5947211120041
 20
-138.9129679014696
 30
0.0
 10
100.5947211120041
 20
-138.9129679014696
 30
0.0
 10
100.3706176506886
 20
-138.9129679014696
 30
0.0
 10
100.3706176506886
 20
-138.9129679014696
 30
0.0
 10
100.3790581346274
 20
-138.7860161328382
 30
0.0
 10
100.3895656758574
 20
-138.6738782747933
 30
0.0
 10
100.470008655438
 20
-138.5553669901007
 30
0.0
 10
100.5799072014175
 20
-138.3946532857138
 30
0.0
 10
100.7661146123953
 20
-138.3607190951841
 30
0.0
 10
100.8825588397967
 20
-138.3607190951841
 30
0.0
 10
101.1597167715851
 20
-138.3607190951841
 30
0.0
 10
101.3669392650228
 20
-138.5448594488707
 30
0.0
 10
101.3669392650228
 20
-138.8177110113025
 30
0.0
 10
101.3669392650228
 20
-139.0461208419746
 30
0.0
 10
101.2506672923956
 20
-139.1456841014983
 30
0.0
 10
100.941814482143
 20
-139.3720268748792
 30
0.0
  0
HATCH
  5
CE
330
C9
100
AcDbEntity
  8
レイヤー 1
 62
   250
420
  2299925
440
 33554687
100
AcDbHatch
 10
0.0
 20
0.0
 30
0.0
210
0.0
220
0.0
230
1.0
  2
SOLID
 70
     1
 71
     1
 91
        1
 92
        1
 93
        1
 72
     4
 94
        3
 73
     0
 74
     0
 95
       44
 96
       40
 40
0.0
 40
0.0
 40
0.0
 40
0.0
 40
1.0
 40
1.0
 40
1.0
 40
2.0
 40
2.0
 40
2.0
 40
3.0
 40
3.0
 40
3.0
 40
4.0
 40
4.0
 40
4.0
 40
5.0
 40
5.0
 40
5.0
 40
6.0
 40
6.0
 40
6.0
 40
7.0
 40
7.0
 40
7.0
 40
8.0
 40
8.0
 40
8.0
 40
9.0
 40
9.0
 40
9.0
 40
10.0
 40
10.0
 40
10.0
 40
11.0
 40
11.0
 40
11.0
 40
12.0
 40
12.0
 40
12.0
 40
13.0
 40
13.0
 40
13.0
 40
13.0
 10
100.941814482143
 20
-139.3720268748792
 10
100.7239121927009
 20
-139.530673521975
 10
100.6307223598249
 20
-139.6047430749078
 10
100.5821465134829
 20
-139.748575811417
 10
100.5821465134829
 20
-139.748575811417
 10
101.3605658383751
 20
-139.748575811417
 10
101.3605658383751
 20
-139.748575811417
 10
101.3605658383751
 20
-139.748575811417
 10
101.3605658383751
 20
-139.9537312475636
 10
101.3605658383751
 20
-139.9537312475636
 10
101.3605658383751
 20
-139.9537312475636
 10
100.3325493455766
 20
-139.9537312475636
 10
100.3325493455766
 20
-139.9537312475636
 10
100.3642442240409
 20
-139.5961303361947
 10
100.4297010382606
 20
-139.5179266686795
 10
100.8148627135115
 20
-139.2195813996569
 10
101.0708333080656
 20
-139.020799390158
 10
101.1362901222853
 20
-138.9531032638728
 10
101.1362901222853
 20
-138.8156439540113
 10
101.1362901222853
 20
-138.6971326693188
 10
101.0644598814179
 20
-138.5658745313307
 10
100.8677449292101
 20
-138.5658745313307
 10
100.6074679652995
 20
-138.5658745313307
 10
100.5990274813606
 20
-138.7965236740682
 10
100.5947211120041
 20
-138.9129679014696
 10
100.5947211120041
 20
-138.9129679014696
 10
100.3706176506886
 20
-138.9129679014696
 10
100.3706176506886
 20
-138.9129679014696
 10
100.3790581346274
 20
-138.7860161328382
 10
100.3895656758574
 20
-138.6738782747933
 10
100.470008655438
 20
-138.5553669901007
 10
100.5799072014175
 20
-138.3946532857138
 10
100.7661146123953
 20
-138.3607190951841
 10
100.8825588397967
 20
-138.3607190951841
 10
101.1597167715851
 20
-138.3607190951841
 10
101.3669392650228
 20
-138.5448594488707
 10
101.3669392650228
 20
-138.8177110113025
 10
101.3669392650228
 20
-139.0461208419746
 10
101.2506672923956
 20
-139.1456841014983
 10
100.941814482143
 20
-139.3720268748792
 97
        0
 97
        1
330
CD
 75
     2
 76
     1
 98
        1
 10
0.0
 20
0.0
450
        0
451
        0
460
0.0
461
0.0
452
        0
462
0.0
453
        0
470

  0
SPLINE
  5
CF
330
C9
100
AcDbEntity
  8
レイヤー 1
100
AcDbSpline
210
0.0
220
0.0
230
1.0
 70
    11
 71
     3
 72
    26
 73
    22
 74
     0
 42
0.0000000001
 43
0.0000000001
 40
0.0
 40
0.0
 40
0.0
 40
0.0
 40
1.0
 40
1.0
 40
1.0
 40
2.0
 40
2.0
 40
2.0
 40
3.0
 40
3.0
 40
3.0
 40
4.0
 40
4.0
 40
4.0
 40
5.0
 40
5.0
 40
5.0
 40
6.0
 40
6.0
 40
6.0
 40
7.0
 40
7.0
 40
7.0
 40
7.0
 10
101.9768934206863
 20
-139.9537312475636
 30
0.0
 10
101.9768934206863
 20
-139.9537312475636
 30
0.0
 10
101.9768934206863
 20
-138.8494058897668
 30
0.0
 10
101.9768934206863
 20
-138.8494058897668
 30
0.0
 10
101.9768934206863
 20
-138.8494058897668
 30
0.0
 10
101.6468532731994
 20
-138.8494058897668
 30
0.0
 10
101.6468532731994
 20
-138.8494058897668
 30
0.0
 10
101.6468532731994
 20
-138.8494058897668
 30
0.0
 10
101.6468532731994
 20
-138.7012667839011
 30
0.0
 10
101.6468532731994
 20
-138.7012667839011
 30
0.0
 10
101.9789604779774
 20
-138.6866251280887
 30
0.0
 10
102.0254692670283
 20
-138.5236721116364
 30
0.0
 10
102.0550970882015
 20
-138.4094671963004
 30
0.0
 10
102.0550970882015
 20
-138.4094671963004
 30
0.0
 10
102.2011691367761
 20
-138.4094671963004
 30
0.0
 10
102.2011691367761
 20
-138.4094671963004
 30
0.0
 10
102.2011691367761
 20
-138.4094671963004
 30
0.0
 10
102.2011691367761
 20
-139.9537312475636
 30
0.0
 10
102.2011691367761
 20
-139.9537312475636
 30
0.0
 10
102.2011691367761
 20
-139.9537312475636
 30
0.0
 10
101.9768934206863
 20
-139.9537312475636
 30
0.0
 10
101.9768934206863
 20
-139.9537312475636
 30
0.0
  0
HATCH
  5
D0
330
C9
100
AcDbEntity
  8
レイヤー 1
 62
   250
420
  2299925
440
 33554687
100
AcDbHatch
 10
0.0
 20
0.0
 30
0.0
210
0.0
220
0.0
230
1.0
  2
SOLID
 70
     1
 71
     1
 91
        1
 92
        1
 93
        1
 72
     4
 94
        3
 73
     0
 74
     0
 95
       26
 96
       22
 40
0.0
 40
0.0
 40
0.0
 40
0.0
 40
1.0
 40
1.0
 40
1.0
 40
2.0
 40
2.0
 40
2.0
 40
3.0
 40
3.0
 40
3.0
 40
4.0
 40
4.0
 40
4.0
 40
5.0
 40
5.0
 40
5.0
 40
6.0
 40
6.0
 40
6.0
 40
7.0
 40
7.0
 40
7.0
 40
7.0
 10
101.9768934206863
 20
-139.9537312475636
 10
101.9768934206863
 20
-139.9537312475636
 10
101.9768934206863
 20
-138.8494058897668
 10
101.9768934206863
 20
-138.8494058897668
 10
101.9768934206863
 20
-138.8494058897668
 10
101.6468532731994
 20
-138.8494058897668
 10
101.6468532731994
 20
-138.8494058897668
 10
101.6468532731994
 20
-138.8494058897668
 10
101.6468532731994
 20
-138.7012667839011
 10
101.6468532731994
 20
-138.7012667839011
 10
101.9789604779774
 20
-138.6866251280887
 10
102.0254692670283
 20
-138.5236721116364
 10
102.0550970882015
 20
-138.4094671963004
 10
102.0550970882015
 20
-138.4094671963004
 10
102.2011691367761
 20
-138.4094671963004
 10
102.2011691367761
 20
-138.4094671963004
 10
102.2011691367761
 20
-138.4094671963004
 10
102.2011691367761
 20
-139.9537312475636
 10
102.2011691367761
 20
-139.9537312475636
 10
102.2011691367761
 20
-139.9537312475636
 10
101.9768934206863
 20
-139.9537312475636
 10
101.9768934206863
 20
-139.9537312475636
 97
        0
 97
        1
330
CF
 75
     2
 76
     1
 98
        1
 10
0.0
 20
0.0
450
        0
451
        0
460
0.0
461
0.0
452
        0
462
0.0
453
        0
470

  0
ENDBLK
  5
CC
330
C9
100
AcDbEntity
  8
0
100
AcDbBlockEnd
  0
BLOCK
  5
D5
330
D3
100
AcDbEntity
  8
0
100
AcDbBlockBegin
  2
Block_4
 70
     0
 10
0.0
 20
0.0
 30
0.0
  3
Block_4
  1

  0
SPLINE
  5
D7
330
D3
100
AcDbEntity
  8
レイヤー 1
100
AcDbSpline
210
0.0
220
0.0
230
1.0
 70
     9
 71
     3
 72
    17
 73
    13
 74
     0
 42
0.0000000001
 43
0.0000000001
 40
0.0
 40
0.0
 40
0.0
 40
0.0
 40
1.0
 40
1.0
 40
1.0
 40
2.0
 40
2.0
 40
2.0
 40
3.0
 40
3.0
 40
3.0
 40
4.0
 40
4.0
 40
4.0
 40
4.0
 10
85.48332653027847
 20
-149.9281439512332
 30
0.0
 10
85.48332653027847
 20
-150.0718044329682
 30
0.0
 10
85.56997068173251
 20
-150.2244221629647
 30
0.0
 10
85.77305906058798
 20
-150.2244221629647
 30
0.0
 10
85.97821449673462
 20
-150.2244221629647
 30
0.0
 10
86.07984481354948
 20
-150.097298139559
 30
0.0
 10
86.07984481354948
 20
-149.9281439512332
 30
0.0
 10
86.07984481354948
 20
-149.7421087950297
 30
0.0
 10
85.95719941427459
 20
-149.6318657395017
 30
0.0
 10
85.77943248723569
 20
-149.6318657395017
 30
0.0
 10
85.55722382843709
 20
-149.6318657395017
 30
0.0
 10
85.48332653027847
 20
-149.7948187559541
 30
0.0
 10
85.48332653027847
 20
-149.9281439512332
 30
0.0
  0
SPLINE
  5
D8
330
D3
100
AcDbEntity
  8
レイヤー 1
100
AcDbSpline
210
0.0
220
0.0
230
1.0
 70
     9
 71
     3
 72
    17
 73
    13
 74
     0
 42
0.0000000001
 43
0.0000000001
 40
0.0
 40
0.0
 40
0.0
 40
0.0
 40
1.0
 40
1.0
 40
1.0
 40
2.0
 40
2.0
 40
2.0
 40
3.0
 40
3.0
 40
3.0
 40
4.0
 40
4.0
 40
4.0
 40
4.0
 10
84.82324623530461
 20
-149.9281439512332
 30
0.0
 10
84.82324623530461
 20
-150.0931640249767
 30
0.0
 10
84.9183308706975
 20
-150.1779133739138
 30
0.0
 10
85.05372312326782
 20
-150.1779133739138
 30
0.0
 10
85.17654077731696
 20
-150.1779133739138
 30
0.0
 10
85.29505206200957
 20
-150.1059108782721
 30
0.0
 10
85.29505206200957
 20
-149.9281439512332
 30
0.0
 10
85.29505206200957
 20
-149.7503770241943
 30
0.0
 10
85.17654077731696
 20
-149.6783745285526
 30
0.0
 10
85.05372312326782
 20
-149.6783745285526
 30
0.0
 10
84.9183308706975
 20
-149.6783745285526
 30
0.0
 10
84.82324623530461
 20
-149.7651909347809
 30
0.0
 10
84.82324623530461
 20
-149.9281439512332
 30
0.0
  0
SPLINE
  5
D9
330
D3
100
AcDbEntity
  8
レイヤー 1
100
AcDbSpline
210
0.0
220
0.0
230
1.0
 70
     9
 71
     3
 72
    29
 73
    25
 74
     0
 42
0.0000000001
 43
0.0000000001
 40
0.0
 40
0.0
 40
0.0
 40
0.0
 40
1.0
 40
1.0
 40
1.0
 40
2.0
 40
2.0
 40
2.0
 40
3.0
 40
3.0
 40
3.0
 40
4.0
 40
4.0
 40
4.0
 40
5.0
 40
5.0
 40
5.0
 40
6.0
 40
6.0
 40
6.0
 40
7.0
 40
7.0
 40
7.0
 40
8.0
 40
8.0
 40
8.0
 40
8.0
 10
86.27449270846609
 20
-149.9281439512332
 30
0.0
 10
86.27449270846609
 20
-150.1947943417915
 30
0.0
 10
86.13686114383037
 20
-150.4486978790545
 30
0.0
 10
85.78787297117456
 20
-150.4486978790545
 30
0.0
 10
85.53190237662049
 20
-150.4486978790545
 30
0.0
 10
85.43664548645335
 20
-150.3067599450622
 30
0.0
 10
85.3753227868159
 20
-150.200995513665
 30
0.0
 10
85.3160671444696
 20
-150.3257079702311
 30
0.0
 10
85.20186222913357
 20
-150.4018445804551
 30
0.0
 10
85.04114852474666
 20
-150.4018445804551
 30
0.0
 10
84.76605765024947
 20
-150.4018445804551
 30
0.0
 10
84.63066539767913
 20
-150.2030625709562
 30
0.0
 10
84.63066539767913
 20
-149.9281439512332
 30
0.0
 10
84.63066539767913
 20
-149.6446125927972
 30
0.0
 10
84.77449813418832
 20
-149.4540988124628
 30
0.0
 10
85.04114852474666
 20
-149.4540988124628
 30
0.0
 10
85.20186222913357
 20
-149.4540988124628
 30
0.0
 10
85.3160671444696
 20
-149.5326469895266
 30
0.0
 10
85.3753227868159
 20
-149.6573594460926
 30
0.0
 10
85.42613794522333
 20
-149.5684759825732
 30
0.0
 10
85.52139483539049
 20
-149.4096570807031
 30
0.0
 10
85.783566601818
 20
-149.4096570807031
 30
0.0
 10
86.15804848106465
 20
-149.4096570807031
 30
0.0
 10
86.27449270846609
 20
-149.6890543245569
 30
0.0
 10
86.27449270846609
 20
-149.9281439512332
 30
0.0
  0
HATCH
  5
DA
330
D3
100
AcDbEntity
  8
レイヤー 1
 62
   250
420
  2299925
440
 33554687
100
AcDbHatch
 10
0.0
 20
0.0
 30
0.0
210
0.0
220
0.0
230
1.0
  2
SOLID
 70
     1
 71
     1
 91
        3
 92
        1
 93
        1
 72
     4
 94
        3
 73
     0
 74
     0
 95
       17
 96
       13
 40
0.0
 40
0.0
 40
0.0
 40
0.0
 40
1.0
 40
1.0
 40
1.0
 40
2.0
 40
2.0
 40
2.0
 40
3.0
 40
3.0
 40
3.0
 40
4.0
 40
4.0
 40
4.0
 40
4.0
 10
85.48332653027847
 20
-149.9281439512332
 10
85.48332653027847
 20
-150.0718044329682
 10
85.56997068173251
 20
-150.2244221629647
 10
85.77305906058798
 20
-150.2244221629647
 10
85.97821449673462
 20
-150.2244221629647
 10
86.07984481354948
 20
-150.097298139559
 10
86.07984481354948
 20
-149.9281439512332
 10
86.07984481354948
 20
-149.7421087950297
 10
85.95719941427459
 20
-149.6318657395017
 10
85.77943248723569
 20
-149.6318657395017
 10
85.55722382843709
 20
-149.6318657395017
 10
85.48332653027847
 20
-149.7948187559541
 10
85.48332653027847
 20
-149.9281439512332
 97
        0
 97
        1
330
D7
 92
        1
 93
        1
 72
     4
 94
        3
 73
     0
 74
     0
 95
       17
 96
       13
 40
0.0
 40
0.0
 40
0.0
 40
0.0
 40
1.0
 40
1.0
 40
1.0
 40
2.0
 40
2.0
 40
2.0
 40
3.0
 40
3.0
 40
3.0
 40
4.0
 40
4.0
 40
4.0
 40
4.0
 10
84.82324623530461
 20
-149.9281439512332
 10
84.82324623530461
 20
-150.0931640249767
 10
84.9183308706975
 20
-150.1779133739138
 10
85.05372312326782
 20
-150.1779133739138
 10
85.17654077731696
 20
-150.1779133739138
 10
85.29505206200957
 20
-150.1059108782721
 10
85.29505206200957
 20
-149.9281439512332
 10
85.29505206200957
 20
-149.7503770241943
 10
85.17654077731696
 20
-149.6783745285526
 10
85.05372312326782
 20
-149.6783745285526
 10
84.9183308706975
 20
-149.6783745285526
 10
84.82324623530461
 20
-149.7651909347809
 10
84.82324623530461
 20
-149.9281439512332
 97
        0
 97
        1
330
D8
 92
        1
 93
        1
 72
     4
 94
        3
 73
     0
 74
     0
 95
       29
 96
       25
 40
0.0
 40
0.0
 40
0.0
 40
0.0
 40
1.0
 40
1.0
 40
1.0
 40
2.0
 40
2.0
 40
2.0
 40
3.0
 40
3.0
 40
3.0
 40
4.0
 40
4.0
 40
4.0
 40
5.0
 40
5.0
 40
5.0
 40
6.0
 40
6.0
 40
6.0
 40
7.0
 40
7.0
 40
7.0
 40
8.0
 40
8.0
 40
8.0
 40
8.0
 10
86.27449270846609
 20
-149.9281439512332
 10
86.27449270846609
 20
-150.1947943417915
 10
86.13686114383037
 20
-150.4486978790545
 10
85.78787297117456
 20
-150.4486978790545
 10
85.53190237662049
 20
-150.4486978790545
 10
85.43664548645335
 20
-150.3067599450622
 10
85.3753227868159
 20
-150.200995513665
 10
85.3160671444696
 20
-150.3257079702311
 10
85.20186222913357
 20
-150.4018445804551
 10
85.04114852474666
 20
-150.4018445804551
 10
84.76605765024947
 20
-150.4018445804551
 10
84.63066539767913
 20
-150.2030625709562
 10
84.63066539767913
 20
-149.9281439512332
 10
84.63066539767913
 20
-149.6446125927972
 10
84.77449813418832
 20
-149.4540988124628
 10
85.04114852474666
 20
-149.4540988124628
 10
85.20186222913357
 20
-149.4540988124628
 10
85.3160671444696
 20
-149.5326469895266
 10
85.3753227868159
 20
-149.6573594460926
 10
85.42613794522333
 20
-149.5684759825732
 10
85.52139483539049
 20
-149.4096570807031
 10
85.783566601818
 20
-149.4096570807031
 10
86.15804848106465
 20
-149.4096570807031
 10
86.27449270846609
 20
-149.6890543245569
 10
86.27449270846609
 20
-149.9281439512332
 97
        0
 97
        1
330
D9
 75
     2
 76
     1
 98
        1
 10
0.0
 20
0.0
450
        0
451
        0
460
0.0
461
0.0
452
        0
462
0.0
453
        0
470

  0
ENDBLK
  5
D6
330
D3
100
AcDbEntity
  8
0
100
AcDbBlockEnd
  0
BLOCK
  5
E0
330
DE
100
AcDbEntity
  8
0
100
AcDbBlockBegin
  2
Block_5
 70
     0
 10
0.0
 20
0.0
 30
0.0
  3
Block_5
  1

  0
SPLINE
  5
E2
330
DE
100
AcDbEntity
  8
レイヤー 1
100
AcDbSpline
210
0.0
220
0.0
230
1.0
 70
     9
 71
     3
 72
    17
 73
    13
 74
     0
 42
0.0000000001
 43
0.0000000001
 40
0.0
 40
0.0
 40
0.0
 40
0.0
 40
1.0
 40
1.0
 40
1.0
 40
2.0
 40
2.0
 40
2.0
 40
3.0
 40
3.0
 40
3.0
 40
4.0
 40
4.0
 40
4.0
 40
4.0
 10
116.4359591722799
 20
-138.5524386589383
 30
0.0
 10
116.3174478875873
 20
-138.5524386589383
 30
0.0
 10
116.1417480178396
 20
-138.6094549892191
 30
0.0
 10
116.1417480178396
 20
-138.8950534049464
 30
0.0
 10
116.1417480178396
 20
-139.1213961783273
 30
0.0
 10
116.2816188945407
 20
-139.2166530684944
 30
0.0
 10
116.417011147111
 20
-139.2166530684944
 30
0.0
 10
116.6791829135385
 20
-139.2166530684944
 30
0.0
 10
116.7174234734248
 20
-139.0071912629912
 30
0.0
 10
116.7174234734248
 20
-138.8909192903641
 30
0.0
 10
116.7174234734248
 20
-138.7152194206163
 30
0.0
 10
116.6219943284834
 20
-138.5524386589383
 30
0.0
 10
116.4359591722799
 20
-138.5524386589383
 30
0.0
  0
SPLINE
  5
E3
330
DE
100
AcDbEntity
  8
レイヤー 1
100
AcDbSpline
210
0.0
220
0.0
230
1.0
 70
     9
 71
     3
 72
    32
 73
    28
 74
     0
 42
0.0000000001
 43
0.0000000001
 40
0.0
 40
0.0
 40
0.0
 40
0.0
 40
1.0
 40
1.0
 40
1.0
 40
2.0
 40
2.0
 40
2.0
 40
3.0
 40
3.0
 40
3.0
 40
4.0
 40
4.0
 40
4.0
 40
5.0
 40
5.0
 40
5.0
 40
6.0
 40
6.0
 40
6.0
 40
7.0
 40
7.0
 40
7.0
 40
8.0
 40
8.0
 40
8.0
 40
9.0
 40
9.0
 40
9.0
 40
9.0
 10
116.3956515551024
 20
-140.0036851320997
 30
0.0
 10
116.2223632521944
 20
-140.0036851320997
 30
0.0
 10
115.9767279440961
 20
-139.9337496937492
 30
0.0
 10
115.9388318937583
 20
-139.6016424889711
 30
0.0
 10
115.9388318937583
 20
-139.6016424889711
 30
0.0
 10
116.1524278138438
 20
-139.6016424889711
 30
0.0
 10
116.1524278138438
 20
-139.6016424889711
 30
0.0
 10
116.1631076098481
 20
-139.6608981313174
 30
0.0
 10
116.1948024883124
 20
-139.8090372371831
 30
0.0
 10
116.3977186123936
 20
-139.8090372371831
 30
0.0
 10
116.6898627095428
 20
-139.8090372371831
 30
0.0
 10
116.7277587598805
 20
-139.4789970896962
 30
0.0
 10
116.740505613176
 20
-139.2738416535496
 30
0.0
 10
116.6495550923654
 20
-139.3541123783559
 30
0.0
 10
116.5820312208545
 20
-139.4113009634111
 30
0.0
 10
116.4001301792333
 20
-139.4113009634111
 30
0.0
 10
116.2202961949033
 20
-139.4113009634111
 30
0.0
 10
115.9174723017498
 20
-139.3055365320139
 30
0.0
 10
115.9174723017498
 20
-138.8993597743029
 30
0.0
 10
115.9174723017498
 20
-138.579827168046
 30
0.0
 10
116.1165988207972
 20
-138.3598578213128
 30
0.0
 10
116.4338921149887
 20
-138.3598578213128
 30
0.0
 10
116.947900361388
 20
-138.3598578213128
 30
0.0
 10
116.9585801573923
 20
-138.9141736848895
 30
0.0
 10
116.9585801573923
 20
-139.127769604975
 30
0.0
 10
116.9585801573923
 20
-139.3584187477125
 30
0.0
 10
116.9392876226749
 20
-140.0036851320997
 30
0.0
 10
116.3956515551024
 20
-140.0036851320997
 30
0.0
  0
HATCH
  5
E4
330
DE
100
AcDbEntity
  8
レイヤー 1
 62
   250
420
  2299925
440
 33554687
100
AcDbHatch
 10
0.0
 20
0.0
 30
0.0
210
0.0
220
0.0
230
1.0
  2
SOLID
 70
     1
 71
     1
 91
        2
 92
        1
 93
        1
 72
     4
 94
        3
 73
     0
 74
     0
 95
       17
 96
       13
 40
0.0
 40
0.0
 40
0.0
 40
0.0
 40
1.0
 40
1.0
 40
1.0
 40
2.0
 40
2.0
 40
2.0
 40
3.0
 40
3.0
 40
3.0
 40
4.0
 40
4.0
 40
4.0
 40
4.0
 10
116.4359591722799
 20
-138.5524386589383
 10
116.3174478875873
 20
-138.5524386589383
 10
116.1417480178396
 20
-138.6094549892191
 10
116.1417480178396
 20
-138.8950534049464
 10
116.1417480178396
 20
-139.1213961783273
 10
116.2816188945407
 20
-139.2166530684944
 10
116.417011147111
 20
-139.2166530684944
 10
116.6791829135385
 20
-139.2166530684944
 10
116.7174234734248
 20
-139.0071912629912
 10
116.7174234734248
 20
-138.8909192903641
 10
116.7174234734248
 20
-138.7152194206163
 10
116.6219943284834
 20
-138.5524386589383
 10
116.4359591722799
 20
-138.5524386589383
 97
        0
 97
        1
330
E2
 92
        1
 93
        1
 72
     4
 94
        3
 73
     0
 74
     0
 95
       32
 96
       28
 40
0.0
 40
0.0
 40
0.0
 40
0.0
 40
1.0
 40
1.0
 40
1.0
 40
2.0
 40
2.0
 40
2.0
 40
3.0
 40
3.0
 40
3.0
 40
4.0
 40
4.0
 40
4.0
 40
5.0
 40
5.0
 40
5.0
 40
6.0
 40
6.0
 40
6.0
 40
7.0
 40
7.0
 40
7.0
 40
8.0
 40
8.0
 40
8.0
 40
9.0
 40
9.0
 40
9.0
 40
9.0
 10
116.3956515551024
 20
-140.0036851320997
 10
116.2223632521944
 20
-140.0036851320997
 10
115.9767279440961
 20
-139.9337496937492
 10
115.9388318937583
 20
-139.6016424889711
 10
115.9388318937583
 20
-139.6016424889711
 10
116.1524278138438
 20
-139.6016424889711
 10
116.1524278138438
 20
-139.6016424889711
 10
116.1631076098481
 20
-139.6608981313174
 10
116.1948024883124
 20
-139.8090372371831
 10
116.3977186123936
 20
-139.8090372371831
 10
116.6898627095428
 20
-139.8090372371831
 10
116.7277587598805
 20
-139.4789970896962
 10
116.740505613176
 20
-139.2738416535496
 10
116.6495550923654
 20
-139.3541123783559
 10
116.5820312208545
 20
-139.4113009634111
 10
116.4001301792333
 20
-139.4113009634111
 10
116.2202961949033
 20
-139.4113009634111
 10
115.9174723017498
 20
-139.3055365320139
 10
115.9174723017498
 20
-138.8993597743029
 10
115.9174723017498
 20
-138.579827168046
 10
116.1165988207972
 20
-138.3598578213128
 10
116.4338921149887
 20
-138.3598578213128
 10
116.947900361388
 20
-138.3598578213128
 10
116.9585801573923
 20
-138.9141736848895
 10
116.9585801573923
 20
-139.127769604975
 10
116.9585801573923
 20
-139.3584187477125
 10
116.9392876226749
 20
-140.0036851320997
 10
116.3956515551024
 20
-140.0036851320997
 97
        0
 97
        1
330
E3
 75
     2
 76
     1
 98
        1
 10
0.0
 20
0.0
450
        0
451
        0
460
0.0
461
0.0
452
        0
462
0.0
453
        0
470

  0
ENDBLK
  5
E1
330
DE
100
AcDbEntity
  8
0
100
AcDbBlockEnd
  0
BLOCK
  5
EC
330
EA
100
AcDbEntity
  8
0
100
AcDbBlockBegin
  2
Block_6
 70
     0
 10
0.0
 20
0.0
 30
0.0
  3
Block_6
  1

  0
INSERT
  5
EF
330
EA
100
AcDbEntity
  8
レイヤー 1
100
AcDbBlockReference
  2
Block_7
 10
0.0
 20
0.0
 30
0.0
  0
ENDBLK
  5
ED
330
EA
100
AcDbEntity
  8
0
100
AcDbBlockEnd
  0
BLOCK
  5
F0
330
EE
100
AcDbEntity
  8
0
100
AcDbBlockBegin
  2
Block_7
 70
     0
 10
0.0
 20
0.0
 30
0.0
  3
Block_7
  1

  0
SPLINE
  5
F2
330
EE
100
AcDbEntity
  8
レイヤー 1
100
AcDbSpline
210
0.0
220
0.0
230
1.0
 70
    11
 71
     3
 72
    26
 73
    22
 74
     0
 42
0.0000000001
 43
0.0000000001
 40
0.0
 40
0.0
 40
0.0
 40
0.0
 40
1.0
 40
1.0
 40
1.0
 40
2.0
 40
2.0
 40
2.0
 40
3.0
 40
3.0
 40
3.0
 40
4.0
 40
4.0
 40
4.0
 40
5.0
 40
5.0
 40
5.0
 40
6.0
 40
6.0
 40
6.0
 40
7.0
 40
7.0
 40
7.0
 40
7.0
 10
115.8010280743483
 20
-157.329587091744
 30
0.0
 10
115.8010280743483
 20
-157.329587091744
 30
0.0
 10
115.8010280743483
 20
-156.2254339887214
 30
0.0
 10
115.8010280743483
 20
-156.2254339887214
 30
0.0
 10
115.8010280743483
 20
-156.2254339887214
 30
0.0
 10
115.4709879268614
 20
-156.2254339887214
 30
0.0
 10
115.4709879268614
 20
-156.2254339887214
 30
0.0
 10
115.4709879268614
 20
-156.2254339887214
 30
0.0
 10
115.4709879268614
 20
-156.0772948828557
 30
0.0
 10
115.4709879268614
 20
-156.0772948828557
 30
0.0
 10
115.8030951316395
 20
-156.0624809722691
 30
0.0
 10
115.8496039206904
 20
-155.8995279558168
 30
0.0
 10
115.8792317418635
 20
-155.7851507857065
 30
0.0
 10
115.8792317418635
 20
-155.7851507857065
 30
0.0
 10
116.0253037904381
 20
-155.7851507857065
 30
0.0
 10
116.0253037904381
 20
-155.7851507857065
 30
0.0
 10
116.0253037904381
 20
-155.7851507857065
 30
0.0
 10
116.0253037904381
 20
-157.329587091744
 30
0.0
 10
116.0253037904381
 20
-157.329587091744
 30
0.0
 10
116.0253037904381
 20
-157.329587091744
 30
0.0
 10
115.8010280743483
 20
-157.329587091744
 30
0.0
 10
115.8010280743483
 20
-157.329587091744
 30
0.0
  0
HATCH
  5
F3
330
EE
100
AcDbEntity
  8
レイヤー 1
 62
   250
420
  2299925
440
 33554687
100
AcDbHatch
 10
0.0
 20
0.0
 30
0.0
210
0.0
220
0.0
230
1.0
  2
SOLID
 70
     1
 71
     1
 91
        1
 92
        1
 93
        1
 72
     4
 94
        3
 73
     0
 74
     0
 95
       26
 96
       22
 40
0.0
 40
0.0
 40
0.0
 40
0.0
 40
1.0
 40
1.0
 40
1.0
 40
2.0
 40
2.0
 40
2.0
 40
3.0
 40
3.0
 40
3.0
 40
4.0
 40
4.0
 40
4.0
 40
5.0
 40
5.0
 40
5.0
 40
6.0
 40
6.0
 40
6.0
 40
7.0
 40
7.0
 40
7.0
 40
7.0
 10
115.8010280743483
 20
-157.329587091744
 10
115.8010280743483
 20
-157.329587091744
 10
115.8010280743483
 20
-156.2254339887214
 10
115.8010280743483
 20
-156.2254339887214
 10
115.8010280743483
 20
-156.2254339887214
 10
115.4709879268614
 20
-156.2254339887214
 10
115.4709879268614
 20
-156.2254339887214
 10
115.4709879268614
 20
-156.2254339887214
 10
115.4709879268614
 20
-156.0772948828557
 10
115.4709879268614
 20
-156.0772948828557
 10
115.8030951316395
 20
-156.0624809722691
 10
115.8496039206904
 20
-155.8995279558168
 10
115.8792317418635
 20
-155.7851507857065
 10
115.8792317418635
 20
-155.7851507857065
 10
116.0253037904381
 20
-155.7851507857065
 10
116.0253037904381
 20
-155.7851507857065
 10
116.0253037904381
 20
-155.7851507857065
 10
116.0253037904381
 20
-157.329587091744
 10
116.0253037904381
 20
-157.329587091744
 10
116.0253037904381
 20
-157.329587091744
 10
115.8010280743483
 20
-157.329587091744
 10
115.8010280743483
 20
-157.329587091744
 97
        0
 97
        1
330
F2
 75
     2
 76
     1
 98
        1
 10
0.0
 20
0.0
450
        0
451
        0
460
0.0
461
0.0
452
        0
462
0.0
453
        0
470

  0
SPLINE
  5
F4
330
EE
100
AcDbEntity
  8
レイヤー 1
100
AcDbSpline
210
0.0
220
0.0
230
1.0
 70
    11
 71
     3
 72
    26
 73
    22
 74
     0
 42
0.0000000001
 43
0.0000000001
 40
0.0
 40
0.0
 40
0.0
 40
0.0
 40
1.0
 40
1.0
 40
1.0
 40
2.0
 40
2.0
 40
2.0
 40
3.0
 40
3.0
 40
3.0
 40
4.0
 40
4.0
 40
4.0
 40
5.0
 40
5.0
 40
5.0
 40
6.0
 40
6.0
 40
6.0
 40
7.0
 40
7.0
 40
7.0
 40
7.0
 10
116.9778726921097
 20
-157.329587091744
 30
0.0
 10
116.9778726921097
 20
-157.329587091744
 30
0.0
 10
116.9778726921097
 20
-156.2254339887214
 30
0.0
 10
116.9778726921097
 20
-156.2254339887214
 30
0.0
 10
116.9778726921097
 20
-156.2254339887214
 30
0.0
 10
116.6478325446227
 20
-156.2254339887214
 30
0.0
 10
116.6478325446227
 20
-156.2254339887214
 30
0.0
 10
116.6478325446227
 20
-156.2254339887214
 30
0.0
 10
116.6478325446227
 20
-156.0772948828557
 30
0.0
 10
116.6478325446227
 20
-156.0772948828557
 30
0.0
 10
116.9799397494008
 20
-156.0624809722691
 30
0.0
 10
117.0264485384517
 20
-155.8995279558168
 30
0.0
 10
117.0560763596249
 20
-155.7851507857065
 30
0.0
 10
117.0560763596249
 20
-155.7851507857065
 30
0.0
 10
117.2021484081994
 20
-155.7851507857065
 30
0.0
 10
117.2021484081994
 20
-155.7851507857065
 30
0.0
 10
117.2021484081994
 20
-155.7851507857065
 30
0.0
 10
117.2021484081994
 20
-157.329587091744
 30
0.0
 10
117.2021484081994
 20
-157.329587091744
 30
0.0
 10
117.2021484081994
 20
-157.329587091744
 30
0.0
 10
116.9778726921097
 20
-157.329587091744
 30
0.0
 10
116.9778726921097
 20
-157.329587091744
 30
0.0
  0
HATCH
  5
F5
330
EE
100
AcDbEntity
  8
レイヤー 1
 62
   250
420
  2299925
440
 33554687
100
AcDbHatch
 10
0.0
 20
0.0
 30
0.0
210
0.0
220
0.0
230
1.0
  2
SOLID
 70
     1
 71
     1
 91
        1
 92
        1
 93
        1
 72
     4
 94
        3
 73
     0
 74
     0
 95
       26
 96
       22
 40
0.0
 40
0.0
 40
0.0
 40
0.0
 40
1.0
 40
1.0
 40
1.0
 40
2.0
 40
2.0
 40
2.0
 40
3.0
 40
3.0
 40
3.0
 40
4.0
 40
4.0
 40
4.0
 40
5.0
 40
5.0
 40
5.0
 40
6.0
 40
6.0
 40
6.0
 40
7.0
 40
7.0
 40
7.0
 40
7.0
 10
116.9778726921097
 20
-157.329587091744
 10
116.9778726921097
 20
-157.329587091744
 10
116.9778726921097
 20
-156.2254339887214
 10
116.9778726921097
 20
-156.2254339887214
 10
116.9778726921097
 20
-156.2254339887214
 10
116.6478325446227
 20
-156.2254339887214
 10
116.6478325446227
 20
-156.2254339887214
 10
116.6478325446227
 20
-156.2254339887214
 10
116.6478325446227
 20
-156.0772948828557
 10
116.6478325446227
 20
-156.0772948828557
 10
116.9799397494008
 20
-156.0624809722691
 10
117.0264485384517
 20
-155.8995279558168
 10
117.0560763596249
 20
-155.7851507857065
 10
117.0560763596249
 20
-155.7851507857065
 10
117.2021484081994
 20
-155.7851507857065
 10
117.2021484081994
 20
-155.7851507857065
 10
117.2021484081994
 20
-155.7851507857065
 10
117.2021484081994
 20
-157.329587091744
 10
117.2021484081994
 20
-157.329587091744
 10
117.2021484081994
 20
-157.329587091744
 10
116.9778726921097
 20
-157.329587091744
 10
116.9778726921097
 20
-157.329587091744
 97
        0
 97
        1
330
F4
 75
     2
 76
     1
 98
        1
 10
0.0
 20
0.0
450
        0
451
        0
460
0.0
461
0.0
452
        0
462
0.0
453
        0
470

  0
ENDBLK
  5
F1
330
EE
100
AcDbEntity
  8
0
100
AcDbBlockEnd
  0
BLOCK
  5
FA
330
F8
100
AcDbEntity
  8
0
100
AcDbBlockBegin
  2
Block_8
 70
     0
 10
0.0
 20
0.0
 30
0.0
  3
Block_8
  1

  0
SPLINE
  5
FC
330
F8
100
AcDbEntity
  8
レイヤー 1
100
AcDbSpline
210
0.0
220
0.0
230
1.0
 70
    11
 71
     3
 72
    26
 73
    22
 74
     0
 42
0.0000000001
 43
0.0000000001
 40
0.0
 40
0.0
 40
0.0
 40
0.0
 40
1.0
 40
1.0
 40
1.0
 40
2.0
 40
2.0
 40
2.0
 40
3.0
 40
3.0
 40
3.0
 40
4.0
 40
4.0
 40
4.0
 40
5.0
 40
5.0
 40
5.0
 40
6.0
 40
6.0
 40
6.0
 40
7.0
 40
7.0
 40
7.0
 40
7.0
 10
123.8401583891788
 20
-149.3063042161456
 30
0.0
 10
123.8401583891788
 20
-149.3063042161456
 30
0.0
 10
123.8401583891788
 20
-148.2021511131231
 30
0.0
 10
123.8401583891788
 20
-148.2021511131231
 30
0.0
 10
123.8401583891788
 20
-148.2021511131231
 30
0.0
 10
123.5101182416919
 20
-148.2021511131231
 30
0.0
 10
123.5101182416919
 20
-148.2021511131231
 30
0.0
 10
123.5101182416919
 20
-148.2021511131231
 30
0.0
 10
123.5101182416919
 20
-148.0540120072573
 30
0.0
 10
123.5101182416919
 20
-148.0540120072573
 30
0.0
 10
123.84222544647
 20
-148.039370351445
 30
0.0
 10
123.8887342355208
 20
-147.8764173349927
 30
0.0
 10
123.918362056694
 20
-147.7622124196566
 30
0.0
 10
123.918362056694
 20
-147.7622124196566
 30
0.0
 10
124.0644341052686
 20
-147.7622124196566
 30
0.0
 10
124.0644341052686
 20
-147.7622124196566
 30
0.0
 10
124.0644341052686
 20
-147.7622124196566
 30
0.0
 10
124.0644341052686
 20
-149.3063042161456
 30
0.0
 10
124.0644341052686
 20
-149.3063042161456
 30
0.0
 10
124.0644341052686
 20
-149.3063042161456
 30
0.0
 10
123.8401583891788
 20
-149.3063042161456
 30
0.0
 10
123.8401583891788
 20
-149.3063042161456
 30
0.0
  0
HATCH
  5
FD
330
F8
100
AcDbEntity
  8
レイヤー 1
 62
   250
420
  2299925
440
 33554687
100
AcDbHatch
 10
0.0
 20
0.0
 30
0.0
210
0.0
220
0.0
230
1.0
  2
SOLID
 70
     1
 71
     1
 91
        1
 92
        1
 93
        1
 72
     4
 94
        3
 73
     0
 74
     0
 95
       26
 96
       22
 40
0.0
 40
0.0
 40
0.0
 40
0.0
 40
1.0
 40
1.0
 40
1.0
 40
2.0
 40
2.0
 40
2.0
 40
3.0
 40
3.0
 40
3.0
 40
4.0
 40
4.0
 40
4.0
 40
5.0
 40
5.0
 40
5.0
 40
6.0
 40
6.0
 40
6.0
 40
7.0
 40
7.0
 40
7.0
 40
7.0
 10
123.8401583891788
 20
-149.3063042161456
 10
123.8401583891788
 20
-149.3063042161456
 10
123.8401583891788
 20
-148.2021511131231
 10
123.8401583891788
 20
-148.2021511131231
 10
123.8401583891788
 20
-148.2021511131231
 10
123.5101182416919
 20
-148.2021511131231
 10
123.5101182416919
 20
-148.2021511131231
 10
123.5101182416919
 20
-148.2021511131231
 10
123.5101182416919
 20
-148.0540120072573
 10
123.5101182416919
 20
-148.0540120072573
 10
123.84222544647
 20
-148.039370351445
 10
123.8887342355208
 20
-147.8764173349927
 10
123.918362056694
 20
-147.7622124196566
 10
123.918362056694
 20
-147.7622124196566
 10
124.0644341052686
 20
-147.7622124196566
 10
124.0644341052686
 20
-147.7622124196566
 10
124.0644341052686
 20
-147.7622124196566
 10
124.0644341052686
 20
-149.3063042161456
 10
124.0644341052686
 20
-149.3063042161456
 10
124.0644341052686
 20
-149.3063042161456
 10
123.8401583891788
 20
-149.3063042161456
 10
123.8401583891788
 20
-149.3063042161456
 97
        0
 97
        1
330
FC
 75
     2
 76
     1
 98
        1
 10
0.0
 20
0.0
450
        0
451
        0
460
0.0
461
0.0
452
        0
462
0.0
453
        0
470

  0
ENDBLK
  5
FB
330
F8
100
AcDbEntity
  8
0
100
AcDbBlockEnd
  0
BLOCK
  5
102
330
100
100
AcDbEntity
  8
0
100
AcDbBlockBegin
  2
Block_9
 70
     0
 10
0.0
 20
0.0
 30
0.0
  3
Block_9
  1

  0
INSERT
  5
105
330
100
100
AcDbEntity
  8
レイヤー 1
100
AcDbBlockReference
  2
Block_10
 10
0.0
 20
0.0
 30
0.0
  0
INSERT
  5
10C
330
100
100
AcDbEntity
  8
レイヤー 1
100
AcDbBlockReference
  2
Block_11
 10
0.0
 20
0.0
 30
0.0
  0
ENDBLK
  5
103
330
100
100
AcDbEntity
  8
0
100
AcDbBlockEnd
  0
BLOCK
  5
106
330
104
100
AcDbEntity
  8
0
100
AcDbBlockBegin
  2
Block_10
 70
     0
 10
0.0
 20
0.0
 30
0.0
  3
Block_10
  1

  0
LINE
  5
108
330
104
100
AcDbEntity
  8
レイヤー 1
 62
    18
420
        0
370
     9
100
AcDbLine
 10
95.1942583630552
 20
-146.9319085632999
 30
0.0
 11
96.00557667569008
 21
-147.5168846742647
 31
0.0
  0
LINE
  5
109
330
104
100
AcDbEntity
  8
レイヤー 1
 62
    18
420
        0
370
     9
100
AcDbLine
 10
95.1942583630552
 20
-146.9319085632999
 30
0.0
 11
97.7718644084061
 21
-150.0890227291777
 31
0.0
  0
LINE
  5
10A
330
104
100
AcDbEntity
  8
レイヤー 1
 62
    18
420
        0
370
     9
100
AcDbLine
 10
95.1942583630552
 20
-146.9319085632999
 30
0.0
 11
95.60457418592049
 21
-147.8441918964055
 31
0.0
  0
ENDBLK
  5
107
330
104
100
AcDbEntity
  8
0
100
AcDbBlockEnd
  0
BLOCK
  5
10D
330
10B
100
AcDbEntity
  8
0
100
AcDbBlockBegin
  2
Block_11
 70
     0
 10
0.0
 20
0.0
 30
0.0
  3
Block_11
  1

  0
INSERT
  5
110
330
10B
100
AcDbEntity
  8
レイヤー 1
100
AcDbBlockReference
  2
Block_12
 10
0.0
 20
0.0
 30
0.0
  0
ENDBLK
  5
10E
330
10B
100
AcDbEntity
  8
0
100
AcDbBlockEnd
  0
BLOCK
  5
111
330
10F
100
AcDbEntity
  8
0
100
AcDbBlockBegin
  2
Block_12
 70
     0
 10
0.0
 20
0.0
 30
0.0
  3
Block_12
  1

  0
SPLINE
  5
113
330
10F
100
AcDbEntity
  8
レイヤー 1
100
AcDbSpline
210
0.0
220
0.0
230
1.0
 70
     9
 71
     3
 72
    17
 73
    13
 74
     0
 42
0.0000000001
 43
0.0000000001
 40
0.0
 40
0.0
 40
0.0
 40
0.0
 40
1.0
 40
1.0
 40
1.0
 40
2.0
 40
2.0
 40
2.0
 40
3.0
 40
3.0
 40
3.0
 40
4.0
 40
4.0
 40
4.0
 40
4.0
 10
99.43820255760574
 20
-150.5368923234769
 30
0.0
 10
99.42132158972802
 20
-150.56652014465
 30
0.0
 10
99.37050643132058
 20
-150.6595377227518
 30
0.0
 10
99.35999889009057
 20
-150.6784857479206
 30
0.0
 10
99.55034041565061
 20
-150.7377413902669
 30
0.0
 10
99.57152775288491
 20
-150.7442870716889
 30
0.0
 10
99.64353024852663
 20
-150.7715033260224
 30
0.0
 10
99.69847952151637
 20
-150.6850314293426
 30
0.0
 10
99.72173391604179
 20
-150.6109618764097
 30
0.0
 10
99.73654782662837
 20
-150.5368923234769
 30
0.0
 10
99.73654782662837
 20
-150.5368923234769
 30
0.0
 10
99.43820255760574
 20
-150.5368923234769
 30
0.0
 10
99.43820255760574
 20
-150.5368923234769
 30
0.0
  0
SPLINE
  5
114
330
10F
100
AcDbEntity
  8
レイヤー 1
100
AcDbSpline
210
0.0
220
0.0
230
1.0
 70
    11
 71
     3
 72
    20
 73
    16
 74
     0
 42
0.0000000001
 43
0.0000000001
 40
0.0
 40
0.0
 40
0.0
 40
0.0
 40
1.0
 40
1.0
 40
1.0
 40
2.0
 40
2.0
 40
2.0
 40
3.0
 40
3.0
 40
3.0
 40
4.0
 40
4.0
 40
4.0
 40
5.0
 40
5.0
 40
5.0
 40
5.0
 10
99.37481280067714
 20
-149.6862982481687
 30
0.0
 10
99.37481280067714
 20
-149.6862982481687
 30
0.0
 10
99.34311792221285
 20
-149.6862982481687
 30
0.0
 10
99.34311792221285
 20
-149.6862982481687
 30
0.0
 10
99.3896267112637
 20
-149.7858615076924
 30
0.0
 10
99.42132158972802
 20
-149.8661322324987
 30
0.0
 10
99.45525578025772
 20
-149.9932562559044
 30
0.0
 10
99.45525578025772
 20
-149.9932562559044
 30
0.0
 10
99.66247827369549
 20
-149.9932562559044
 30
0.0
 10
99.66247827369549
 20
-149.9932562559044
 30
0.0
 10
99.69417315215979
 20
-149.9002386778027
 30
0.0
 10
99.71742754668524
 20
-149.8154893288655
 30
0.0
 10
99.74068194121066
 20
-149.6862982481687
 30
0.0
 10
99.74068194121066
 20
-149.6862982481687
 30
0.0
 10
99.37481280067714
 20
-149.6862982481687
 30
0.0
 10
99.37481280067714
 20
-149.6862982481687
 30
0.0
  0
SPLINE
  5
115
330
10F
100
AcDbEntity
  8
レイヤー 1
100
AcDbSpline
210
0.0
220
0.0
230
1.0
 70
     9
 71
     3
 72
   242
 73
   238
 74
     0
 42
0.0000000001
 43
0.0000000001
 40
0.0
 40
0.0
 40
0.0
 40
0.0
 40
1.0
 40
1.0
 40
1.0
 40
2.0
 40
2.0
 40
2.0
 40
3.0
 40
3.0
 40
3.0
 40
4.0
 40
4.0
 40
4.0
 40
5.0
 40
5.0
 40
5.0
 40
6.0
 40
6.0
 40
6.0
 40
7.0
 40
7.0
 40
7.0
 40
8.0
 40
8.0
 40
8.0
 40
9.0
 40
9.0
 40
9.0
 40
10.0
 40
10.0
 40
10.0
 40
11.0
 40
11.0
 40
11.0
 40
12.0
 40
12.0
 40
12.0
 40
13.0
 40
13.0
 40
13.0
 40
14.0
 40
14.0
 40
14.0
 40
15.0
 40
15.0
 40
15.0
 40
16.0
 40
16.0
 40
16.0
 40
17.0
 40
17.0
 40
17.0
 40
18.0
 40
18.0
 40
18.0
 40
19.0
 40
19.0
 40
19.0
 40
20.0
 40
20.0
 40
20.0
 40
21.0
 40
21.0
 40
21.0
 40
22.0
 40
22.0
 40
22.0
 40
23.0
 40
23.0
 40
23.0
 40
24.0
 40
24.0
 40
24.0
 40
25.0
 40
25.0
 40
25.0
 40
26.0
 40
26.0
 40
26.0
 40
27.0
 40
27.0
 40
27.0
 40
28.0
 40
28.0
 40
28.0
 40
29.0
 40
29.0
 40
29.0
 40
30.0
 40
30.0
 40
30.0
 40
31.0
 40
31.0
 40
31.0
 40
32.0
 40
32.0
 40
32.0
 40
33.0
 40
33.0
 40
33.0
 40
34.0
 40
34.0
 40
34.0
 40
35.0
 40
35.0
 40
35.0
 40
36.0
 40
36.0
 40
36.0
 40
37.0
 40
37.0
 40
37.0
 40
38.0
 40
38.0
 40
38.0
 40
39.0
 40
39.0
 40
39.0
 40
40.0
 40
40.0
 40
40.0
 40
41.0
 40
41.0
 40
41.0
 40
42.0
 40
42.0
 40
42.0
 40
43.0
 40
43.0
 40
43.0
 40
44.0
 40
44.0
 40
44.0
 40
45.0
 40
45.0
 40
45.0
 40
46.0
 40
46.0
 40
46.0
 40
47.0
 40
47.0
 40
47.0
 40
48.0
 40
48.0
 40
48.0
 40
49.0
 40
49.0
 40
49.0
 40
50.0
 40
50.0
 40
50.0
 40
51.0
 40
51.0
 40
51.0
 40
52.0
 40
52.0
 40
52.0
 40
53.0
 40
53.0
 40
53.0
 40
54.0
 40
54.0
 40
54.0
 40
55.0
 40
55.0
 40
55.0
 40
56.0
 40
56.0
 40
56.0
 40
57.0
 40
57.0
 40
57.0
 40
58.0
 40
58.0
 40
58.0
 40
59.0
 40
59.0
 40
59.0
 40
60.0
 40
60.0
 40
60.0
 40
61.0
 40
61.0
 40
61.0
 40
62.0
 40
62.0
 40
62.0
 40
63.0
 40
63.0
 40
63.0
 40
64.0
 40
64.0
 40
64.0
 40
65.0
 40
65.0
 40
65.0
 40
66.0
 40
66.0
 40
66.0
 40
67.0
 40
67.0
 40
67.0
 40
68.0
 40
68.0
 40
68.0
 40
69.0
 40
69.0
 40
69.0
 40
70.0
 40
70.0
 40
70.0
 40
71.0
 40
71.0
 40
71.0
 40
72.0
 40
72.0
 40
72.0
 40
73.0
 40
73.0
 40
73.0
 40
74.0
 40
74.0
 40
74.0
 40
75.0
 40
75.0
 40
75.0
 40
76.0
 40
76.0
 40
76.0
 40
77.0
 40
77.0
 40
77.0
 40
78.0
 40
78.0
 40
78.0
 40
79.0
 40
79.0
 40
79.0
 40
79.0
 10
100.0030259624124
 20
-150.1517306482259
 30
0.0
 10
100.0030259624124
 20
-150.1517306482259
 30
0.0
 10
99.7492946799238
 20
-150.1517306482259
 30
0.0
 10
99.7492946799238
 20
-150.1517306482259
 30
0.0
 10
99.7492946799238
 20
-150.1517306482259
 30
0.0
 10
99.47213674813545
 20
-150.1517306482259
 30
0.0
 10
99.47213674813545
 20
-150.1517306482259
 30
0.0
 10
99.47213674813545
 20
-150.1517306482259
 30
0.0
 10
99.5990885167669
 20
-150.1941053226945
 30
0.0
 10
99.5990885167669
 20
-150.1941053226945
 30
0.0
 10
99.60959605799692
 20
-150.1982394372768
 30
0.0
 10
99.62234291129234
 20
-150.2047851186988
 30
0.0
 10
99.62234291129234
 20
-150.2175319719942
 30
0.0
 10
99.62234291129234
 20
-150.2385470544543
 30
0.0
 10
99.59064803282805
 20
-150.2447482263277
 30
0.0
 10
99.56946069559375
 20
-150.2492268504585
 30
0.0
 10
99.55878089958948
 20
-150.2723089902097
 30
0.0
 10
99.52915307841633
 20
-150.338110313978
 30
0.0
 10
99.51020505324745
 20
-150.3825520457377
 30
0.0
 10
99.51020505324745
 20
-150.3825520457377
 30
0.0
 10
99.7809895583881
 20
-150.3825520457377
 30
0.0
 10
99.7809895583881
 20
-150.3825520457377
 30
0.0
 10
99.87194007919867
 20
-150.3825520457377
 30
0.0
 10
100.0686550314064
 20
-150.3780734216068
 30
0.0
 10
100.2104207106244
 20
-150.3698051924422
 30
0.0
 10
100.2104207106244
 20
-150.3698051924422
 30
0.0
 10
100.2104207106244
 20
-150.5475721194811
 30
0.0
 10
100.2104207106244
 20
-150.5475721194811
 30
0.0
 10
100.1279106737527
 20
-150.5430934953503
 30
0.0
 10
100.1067233365184
 20
-150.5430934953503
 30
0.0
 10
99.92688935218843
 20
-150.538959380768
 30
0.0
 10
99.89519447372412
 20
-150.6932996585072
 30
0.0
 10
99.85075274196439
 20
-150.7739148928621
 30
0.0
 10
99.80631101020469
 20
-150.8435058216641
 30
0.0
 10
99.92688935218843
 20
-150.9027614640104
 30
0.0
 10
100.0326537835856
 20
-150.9706298450698
 30
0.0
 10
100.1363511576916
 20
-151.0529676271673
 30
0.0
 10
100.1363511576916
 20
-151.0529676271673
 30
0.0
 10
100.017839872999
 20
-151.2200547582019
 30
0.0
 10
100.017839872999
 20
-151.2200547582019
 30
0.0
 10
99.99458547847359
 20
-151.2011067330331
 30
0.0
 10
99.98201087995241
 20
-151.1924939943199
 30
0.0
 10
99.86987302190755
 20
-151.1080891549313
 30
0.0
 10
99.82112492079124
 20
-151.069848595045
 30
0.0
 10
99.76186927844494
 20
-151.0340196019984
 30
0.0
 10
99.68159855363865
 20
-150.9895778702387
 30
0.0
 10
99.46989743607003
 20
-151.1756130264422
 30
0.0
 10
99.26474199992341
 20
-151.1990396757419
 30
0.0
 10
98.9750094696139
 20
-151.228667496915
 30
0.0
 10
98.9750094696139
 20
-151.228667496915
 30
0.0
 10
98.87131209550787
 20
-151.048833512585
 30
0.0
 10
98.87131209550787
 20
-151.048833512585
 30
0.0
 10
99.18860538969937
 20
-151.0446993980027
 30
0.0
 10
99.36413300467286
 20
-151.0192056914119
 30
0.0
 10
99.51657847989515
 20
-150.9093071454324
 30
0.0
 10
99.39806719520257
 20
-150.8583197322507
 30
0.0
 10
99.30918373168312
 20
-150.8307589683687
 30
0.0
 10
99.27318248386228
 20
-150.8183566246218
 30
0.0
 10
99.2542344586934
 20
-150.8455728789552
 30
0.0
 10
99.23942054810682
 20
-150.8648654136726
 30
0.0
 10
99.21185978422482
 20
-150.8986273494281
 30
0.0
 10
99.21185978422482
 20
-150.8986273494281
 30
0.0
 10
99.01514483201706
 20
-150.8159450577821
 30
0.0
 10
99.01514483201706
 20
-150.8159450577821
 30
0.0
 10
99.09765486888879
 20
-150.7356743329758
 30
0.0
 10
99.15897756852622
 20
-150.6405896975829
 30
0.0
 10
99.21616615358139
 20
-150.538959380768
 30
0.0
 10
99.02565237324708
 20
-150.5430934953503
 30
0.0
 10
99.00463729078705
 20
-150.5430934953503
 30
0.0
 10
98.9221272539153
 20
-150.5475721194811
 30
0.0
 10
98.9221272539153
 20
-150.5475721194811
 30
0.0
 10
98.9221272539153
 20
-150.3698051924422
 30
0.0
 10
98.9221272539153
 20
-150.3698051924422
 30
0.0
 10
99.06165362106792
 20
-150.3760063643157
 30
0.0
 10
99.27111542657112
 20
-150.380140478898
 30
0.0
 10
99.29643687838769
 20
-150.380140478898
 30
0.0
 10
99.3134901010397
 20
-150.3463785431426
 30
0.0
 10
99.36843937402942
 20
-150.2258002011588
 30
0.0
 10
99.38755965397255
 20
-150.1517306482259
 30
0.0
 10
99.36843937402942
 20
-150.1517306482259
 30
0.0
 10
99.19067244699053
 20
-150.1582763296479
 30
0.0
 10
98.99619680684818
 20
-150.1710231829433
 30
0.0
 10
98.99619680684818
 20
-150.1710231829433
 30
0.0
 10
98.99619680684818
 20
-150.304003868674
 30
0.0
 10
98.99619680684818
 20
-150.304003868674
 30
0.0
 10
98.94744870573189
 20
-150.3294975752648
 30
0.0
 10
98.88819306338561
 20
-150.3611924537291
 30
0.0
 10
98.75486786810643
 20
-150.4269937774974
 30
0.0
 10
98.75486786810643
 20
-150.4269937774974
 30
0.0
 10
98.75486786810643
 20
-150.5727213165235
 30
0.0
 10
98.75486786810643
 20
-150.5727213165235
 30
0.0
 10
98.75486786810643
 20
-150.5727213165235
 30
0.0
 10
98.75486786810643
 20
-151.0402207738719
 30
0.0
 10
98.75486786810643
 20
-151.0402207738719
 30
0.0
 10
98.75486786810643
 20
-151.1673447972776
 30
0.0
 10
98.71903887505983
 20
-151.2266004396239
 30
0.0
 10
98.43550751662377
 20
-151.2179877009108
 30
0.0
 10
98.43550751662377
 20
-151.2179877009108
 30
0.0
 10
98.33181014251776
 20
-151.0105929526987
 30
0.0
 10
98.33181014251776
 20
-151.0105929526987
 30
0.0
 10
98.39537215422062
 20
-151.0233398059942
 30
0.0
 10
98.44394800056264
 20
-151.0274739205765
 30
0.0
 10
98.48408336296579
 20
-151.0274739205765
 30
0.0
 10
98.56039222796407
 20
-151.0274739205765
 30
0.0
 10
98.57089976919409
 20
-151.0043917808253
 30
0.0
 10
98.57089976919409
 20
-150.9389349666055
 30
0.0
 10
98.57089976919409
 20
-150.9389349666055
 30
0.0
 10
98.57089976919409
 20
-150.5093315595949
 30
0.0
 10
98.57089976919409
 20
-150.5093315595949
 30
0.0
 10
98.47357582173579
 20
-150.5496391767723
 30
0.0
 10
98.45669485385805
 20
-150.5558403486458
 30
0.0
 10
98.41018606480718
 20
-150.5747883738146
 30
0.0
 10
98.40587969545062
 20
-150.5961479658232
 30
0.0
 10
98.40157332609406
 20
-150.6257757869963
 30
0.0
 10
98.38262530092519
 20
-150.6257757869963
 30
0.0
 10
98.37418481698632
 20
-150.6257757869963
 30
0.0
 10
98.36350502098206
 20
-150.621641672414
 30
0.0
 10
98.3573038491086
 20
-150.5982150231143
 30
0.0
 10
98.3573038491086
 20
-150.5982150231143
 30
0.0
 10
98.30442163341002
 20
-150.4056341854889
 30
0.0
 10
98.30442163341002
 20
-150.4056341854889
 30
0.0
 10
98.45032142721034
 20
-150.359125396438
 30
0.0
 10
98.51595049620435
 20
-150.3360432566868
 30
0.0
 10
98.57089976919409
 20
-150.3146836646783
 30
0.0
 10
98.57089976919409
 20
-150.3146836646783
 30
0.0
 10
98.57089976919409
 20
-149.9023057350939
 30
0.0
 10
98.57089976919409
 20
-149.9023057350939
 30
0.0
 10
98.57089976919409
 20
-149.9023057350939
 30
0.0
 10
98.5180175534955
 20
-149.9023057350939
 30
0.0
 10
98.5180175534955
 20
-149.9023057350939
 30
0.0
 10
98.5180175534955
 20
-149.9023057350939
 30
0.0
 10
98.43981388598033
 20
-149.9023057350939
 30
0.0
 10
98.43981388598033
 20
-149.9023057350939
 30
0.0
 10
98.37211775969517
 20
-149.9023057350939
 30
0.0
 10
98.36350502098206
 20
-149.9023057350939
 30
0.0
 10
98.32767602793545
 20
-149.9085069069673
 30
0.0
 10
98.32767602793545
 20
-149.9085069069673
 30
0.0
 10
98.32767602793545
 20
-149.7138590120507
 30
0.0
 10
98.32767602793545
 20
-149.7138590120507
 30
0.0
 10
98.35506453704319
 20
-149.7204046934727
 30
0.0
 10
98.36350502098206
 20
-149.7204046934727
 30
0.0
 10
98.43344045933262
 20
-149.7204046934727
 30
0.0
 10
98.43344045933262
 20
-149.7204046934727
 30
0.0
 10
98.56659339983753
 20
-149.7204046934727
 30
0.0
 10
98.56659339983753
 20
-149.7204046934727
 30
0.0
 10
98.56659339983753
 20
-149.6504692551221
 30
0.0
 10
98.56659339983753
 20
-149.5677869634761
 30
0.0
 10
98.56452634254637
 20
-149.5636528488938
 30
0.0
 10
98.55608585860752
 20
-149.3838188645637
 30
0.0
 10
98.55608585860752
 20
-149.3648708393949
 30
0.0
 10
98.55401880131637
 20
-149.318362050344
 30
0.0
 10
98.55401880131637
 20
-149.318362050344
 30
0.0
 10
98.76968177869301
 20
-149.3266302795086
 30
0.0
 10
98.76968177869301
 20
-149.3266302795086
 30
0.0
 10
98.78036157469729
 20
-149.3266302795086
 30
0.0
 10
98.80154891193157
 20
-149.3290418463483
 30
0.0
 10
98.80154891193157
 20
-149.345922814226
 30
0.0
 10
98.80154891193157
 20
-149.3648708393949
 30
0.0
 10
98.786735001345
 20
-149.3755506353991
 30
0.0
 10
98.76124129475414
 20
-149.394498660568
 30
0.0
 10
98.76124129475414
 20
-149.4451415642012
 30
0.0
 10
98.75486786810643
 20
-149.6735513948733
 30
0.0
 10
98.75710718017185
 20
-149.7204046934727
 30
0.0
 10
98.88612600609445
 20
-149.7204046934727
 30
0.0
 10
98.89887285938987
 20
-149.7204046934727
 30
0.0
 10
98.99619680684818
 20
-149.7117919547595
 30
0.0
 10
98.99619680684818
 20
-149.7117919547595
 30
0.0
 10
98.99619680684818
 20
-149.9064398496761
 30
0.0
 10
98.99619680684818
 20
-149.9064398496761
 30
0.0
 10
98.95795624696191
 20
-149.904372792385
 30
0.0
 10
98.89026012067674
 20
-149.9002386778027
 30
0.0
 10
98.75486786810643
 20
-149.9023057350939
 30
0.0
 10
98.75486786810643
 20
-149.9023057350939
 30
0.0
 10
98.75486786810643
 20
-150.2406141117454
 30
0.0
 10
98.75486786810643
 20
-150.2406141117454
 30
0.0
 10
98.80998939587042
 20
-150.2175319719942
 30
0.0
 10
98.87544621009018
 20
-150.1899712081122
 30
0.0
 10
98.92419431120645
 20
-150.1665445588125
 30
0.0
 10
98.92419431120645
 20
-150.1665445588125
 30
0.0
 10
98.92419431120645
 20
-149.9887776317736
 30
0.0
 10
98.92419431120645
 20
-149.9887776317736
 30
0.0
 10
99.03839922654249
 20
-150.001524485069
 30
0.0
 10
99.15691051123509
 20
-150.001524485069
 30
0.0
 10
99.27318248386228
 20
-150.001524485069
 30
0.0
 10
99.24992808933684
 20
-149.9064398496761
 30
0.0
 10
99.2225395802291
 20
-149.8237575580301
 30
0.0
 10
99.15897756852622
 20
-149.6907768722995
 30
0.0
 10
99.11453583676651
 20
-149.6928439295906
 30
0.0
 10
99.03202579989478
 20
-149.696978044173
 30
0.0
 10
98.99395749478276
 20
-149.6990451014641
 30
0.0
 10
98.99395749478276
 20
-149.6990451014641
 30
0.0
 10
98.99395749478276
 20
-149.5192111171341
 30
0.0
 10
98.99395749478276
 20
-149.5192111171341
 30
0.0
 10
99.11884220612307
 20
-149.5278238558472
 30
0.0
 10
99.2923027638054
 20
-149.5319579704295
 30
0.0
 10
99.37481280067714
 20
-149.5319579704295
 30
0.0
 10
99.37481280067714
 20
-149.5319579704295
 30
0.0
 10
99.45732283754887
 20
-149.5319579704295
 30
0.0
 10
99.45732283754887
 20
-149.5319579704295
 30
0.0
 10
99.45732283754887
 20
-149.3690049539772
 30
0.0
 10
99.45732283754887
 20
-149.3586696675214
 30
0.0
 10
99.45525578025772
 20
-149.3035481397574
 30
0.0
 10
99.45525578025772
 20
-149.3035481397574
 30
0.0
 10
99.67935924157323
 20
-149.3290418463483
 30
0.0
 10
99.67935924157323
 20
-149.3290418463483
 30
0.0
 10
99.68366561092977
 20
-149.3290418463483
 30
0.0
 10
99.70485294816407
 20
-149.3311089036394
 30
0.0
 10
99.70485294816407
 20
-149.3479898715172
 30
0.0
 10
99.70485294816407
 20
-149.3628037821037
 30
0.0
 10
99.69417315215979
 20
-149.3710720112683
 30
0.0
 10
99.66678464305205
 20
-149.3858859218549
 30
0.0
 10
99.66041121640435
 20
-149.4516872456232
 30
0.0
 10
99.6583441591132
 20
-149.4727023280832
 30
0.0
 10
99.6583441591132
 20
-149.5319579704295
 30
0.0
 10
99.6583441591132
 20
-149.5319579704295
 30
0.0
 10
99.75342879450609
 20
-149.5319579704295
 30
0.0
 10
99.75342879450609
 20
-149.5319579704295
 30
0.0
 10
99.83593883137784
 20
-149.5319579704295
 30
0.0
 10
100.0093993890601
 20
-149.5278238558472
 30
0.0
 10
100.1342841004004
 20
-149.5192111171341
 30
0.0
 10
100.1342841004004
 20
-149.5192111171341
 30
0.0
 10
100.1342841004004
 20
-149.6990451014641
 30
0.0
 10
100.1342841004004
 20
-149.6990451014641
 30
0.0
 10
100.1046562792273
 20
-149.696978044173
 30
0.0
 10
99.98614499453472
 20
-149.6928439295906
 30
0.0
 10
99.94600963213157
 20
-149.6907768722995
 30
0.0
 10
99.93119572154498
 20
-149.7414197759327
 30
0.0
 10
99.89726153101528
 20
-149.8533853792033
 30
0.0
 10
99.83180471679553
 20
-149.9932562559044
 30
0.0
 10
99.87400713648984
 20
-149.9932562559044
 30
0.0
 10
100.1511650682782
 20
-149.973963721187
 30
0.0
 10
100.2124877679156
 20
-149.9718966638959
 30
0.0
 10
100.2124877679156
 20
-149.9718966638959
 30
0.0
 10
100.2124877679156
 20
-150.1562092723568
 30
0.0
 10
100.2124877679156
 20
-150.1562092723568
 30
0.0
 10
100.1828599467424
 20
-150.1562092723568
 30
0.0
 10
100.1659789788647
 20
-150.1517306482259
 30
0.0
 10
100.0030259624124
 20
-150.1517306482259
 30
0.0
  0
HATCH
  5
116
330
10F
100
AcDbEntity
  8
レイヤー 1
 62
    18
420
        0
440
 33554687
100
AcDbHatch
 10
0.0
 20
0.0
 30
0.0
210
0.0
220
0.0
230
1.0
  2
SOLID
 70
     1
 71
     1
 91
        3
 92
        1
 93
        1
 72
     4
 94
        3
 73
     0
 74
     0
 95
       17
 96
       13
 40
0.0
 40
0.0
 40
0.0
 40
0.0
 40
1.0
 40
1.0
 40
1.0
 40
2.0
 40
2.0
 40
2.0
 40
3.0
 40
3.0
 40
3.0
 40
4.0
 40
4.0
 40
4.0
 40
4.0
 10
99.43820255760574
 20
-150.5368923234769
 10
99.42132158972802
 20
-150.56652014465
 10
99.37050643132058
 20
-150.6595377227518
 10
99.35999889009057
 20
-150.6784857479206
 10
99.55034041565061
 20
-150.7377413902669
 10
99.57152775288491
 20
-150.7442870716889
 10
99.64353024852663
 20
-150.7715033260224
 10
99.69847952151637
 20
-150.6850314293426
 10
99.72173391604179
 20
-150.6109618764097
 10
99.73654782662837
 20
-150.5368923234769
 10
99.73654782662837
 20
-150.5368923234769
 10
99.43820255760574
 20
-150.5368923234769
 10
99.43820255760574
 20
-150.5368923234769
 97
        0
 97
        1
330
113
 92
        1
 93
        1
 72
     4
 94
        3
 73
     0
 74
     0
 95
       20
 96
       16
 40
0.0
 40
0.0
 40
0.0
 40
0.0
 40
1.0
 40
1.0
 40
1.0
 40
2.0
 40
2.0
 40
2.0
 40
3.0
 40
3.0
 40
3.0
 40
4.0
 40
4.0
 40
4.0
 40
5.0
 40
5.0
 40
5.0
 40
5.0
 10
99.37481280067714
 20
-149.6862982481687
 10
99.37481280067714
 20
-149.6862982481687
 10
99.34311792221285
 20
-149.6862982481687
 10
99.34311792221285
 20
-149.6862982481687
 10
99.3896267112637
 20
-149.7858615076924
 10
99.42132158972802
 20
-149.8661322324987
 10
99.45525578025772
 20
-149.9932562559044
 10
99.45525578025772
 20
-149.9932562559044
 10
99.66247827369549
 20
-149.9932562559044
 10
99.66247827369549
 20
-149.9932562559044
 10
99.69417315215979
 20
-149.9002386778027
 10
99.71742754668524
 20
-149.8154893288655
 10
99.74068194121066
 20
-149.6862982481687
 10
99.74068194121066
 20
-149.6862982481687
 10
99.37481280067714
 20
-149.6862982481687
 10
99.37481280067714
 20
-149.6862982481687
 97
        0
 97
        1
330
114
 92
        1
 93
        1
 72
     4
 94
        3
 73
     0
 74
     0
 95
      242
 96
      238
 40
0.0
 40
0.0
 40
0.0
 40
0.0
 40
1.0
 40
1.0
 40
1.0
 40
2.0
 40
2.0
 40
2.0
 40
3.0
 40
3.0
 40
3.0
 40
4.0
 40
4.0
 40
4.0
 40
5.0
 40
5.0
 40
5.0
 40
6.0
 40
6.0
 40
6.0
 40
7.0
 40
7.0
 40
7.0
 40
8.0
 40
8.0
 40
8.0
 40
9.0
 40
9.0
 40
9.0
 40
10.0
 40
10.0
 40
10.0
 40
11.0
 40
11.0
 40
11.0
 40
12.0
 40
12.0
 40
12.0
 40
13.0
 40
13.0
 40
13.0
 40
14.0
 40
14.0
 40
14.0
 40
15.0
 40
15.0
 40
15.0
 40
16.0
 40
16.0
 40
16.0
 40
17.0
 40
17.0
 40
17.0
 40
18.0
 40
18.0
 40
18.0
 40
19.0
 40
19.0
 40
19.0
 40
20.0
 40
20.0
 40
20.0
 40
21.0
 40
21.0
 40
21.0
 40
22.0
 40
22.0
 40
22.0
 40
23.0
 40
23.0
 40
23.0
 40
24.0
 40
24.0
 40
24.0
 40
25.0
 40
25.0
 40
25.0
 40
26.0
 40
26.0
 40
26.0
 40
27.0
 40
27.0
 40
27.0
 40
28.0
 40
28.0
 40
28.0
 40
29.0
 40
29.0
 40
29.0
 40
30.0
 40
30.0
 40
30.0
 40
31.0
 40
31.0
 40
31.0
 40
32.0
 40
32.0
 40
32.0
 40
33.0
 40
33.0
 40
33.0
 40
34.0
 40
34.0
 40
34.0
 40
35.0
 40
35.0
 40
35.0
 40
36.0
 40
36.0
 40
36.0
 40
37.0
 40
37.0
 40
37.0
 40
38.0
 40
38.0
 40
38.0
 40
39.0
 40
39.0
 40
39.0
 40
40.0
 40
40.0
 40
40.0
 40
41.0
 40
41.0
 40
41.0
 40
42.0
 40
42.0
 40
42.0
 40
43.0
 40
43.0
 40
43.0
 40
44.0
 40
44.0
 40
44.0
 40
45.0
 40
45.0
 40
45.0
 40
46.0
 40
46.0
 40
46.0
 40
47.0
 40
47.0
 40
47.0
 40
48.0
 40
48.0
 40
48.0
 40
49.0
 40
49.0
 40
49.0
 40
50.0
 40
50.0
 40
50.0
 40
51.0
 40
51.0
 40
51.0
 40
52.0
 40
52.0
 40
52.0
 40
53.0
 40
53.0
 40
53.0
 40
54.0
 40
54.0
 40
54.0
 40
55.0
 40
55.0
 40
55.0
 40
56.0
 40
56.0
 40
56.0
 40
57.0
 40
57.0
 40
57.0
 40
58.0
 40
58.0
 40
58.0
 40
59.0
 40
59.0
 40
59.0
 40
60.0
 40
60.0
 40
60.0
 40
61.0
 40
61.0
 40
61.0
 40
62.0
 40
62.0
 40
62.0
 40
63.0
 40
63.0
 40
63.0
 40
64.0
 40
64.0
 40
64.0
 40
65.0
 40
65.0
 40
65.0
 40
66.0
 40
66.0
 40
66.0
 40
67.0
 40
67.0
 40
67.0
 40
68.0
 40
68.0
 40
68.0
 40
69.0
 40
69.0
 40
69.0
 40
70.0
 40
70.0
 40
70.0
 40
71.0
 40
71.0
 40
71.0
 40
72.0
 40
72.0
 40
72.0
 40
73.0
 40
73.0
 40
73.0
 40
74.0
 40
74.0
 40
74.0
 40
75.0
 40
75.0
 40
75.0
 40
76.0
 40
76.0
 40
76.0
 40
77.0
 40
77.0
 40
77.0
 40
78.0
 40
78.0
 40
78.0
 40
79.0
 40
79.0
 40
79.0
 40
79.0
 10
100.0030259624124
 20
-150.1517306482259
 10
100.0030259624124
 20
-150.1517306482259
 10
99.7492946799238
 20
-150.1517306482259
 10
99.7492946799238
 20
-150.1517306482259
 10
99.7492946799238
 20
-150.1517306482259
 10
99.47213674813545
 20
-150.1517306482259
 10
99.47213674813545
 20
-150.1517306482259
 10
99.47213674813545
 20
-150.1517306482259
 10
99.5990885167669
 20
-150.1941053226945
 10
99.5990885167669
 20
-150.1941053226945
 10
99.60959605799692
 20
-150.1982394372768
 10
99.62234291129234
 20
-150.2047851186988
 10
99.62234291129234
 20
-150.2175319719942
 10
99.62234291129234
 20
-150.2385470544543
 10
99.59064803282805
 20
-150.2447482263277
 10
99.56946069559375
 20
-150.2492268504585
 10
99.55878089958948
 20
-150.2723089902097
 10
99.52915307841633
 20
-150.338110313978
 10
99.51020505324745
 20
-150.3825520457377
 10
99.51020505324745
 20
-150.3825520457377
 10
99.7809895583881
 20
-150.3825520457377
 10
99.7809895583881
 20
-150.3825520457377
 10
99.87194007919867
 20
-150.3825520457377
 10
100.0686550314064
 20
-150.3780734216068
 10
100.2104207106244
 20
-150.3698051924422
 10
100.2104207106244
 20
-150.3698051924422
 10
100.2104207106244
 20
-150.5475721194811
 10
100.2104207106244
 20
-150.5475721194811
 10
100.1279106737527
 20
-150.5430934953503
 10
100.1067233365184
 20
-150.5430934953503
 10
99.92688935218843
 20
-150.538959380768
 10
99.89519447372412
 20
-150.6932996585072
 10
99.85075274196439
 20
-150.7739148928621
 10
99.80631101020469
 20
-150.8435058216641
 10
99.92688935218843
 20
-150.9027614640104
 10
100.0326537835856
 20
-150.9706298450698
 10
100.1363511576916
 20
-151.0529676271673
 10
100.1363511576916
 20
-151.0529676271673
 10
100.017839872999
 20
-151.2200547582019
 10
100.017839872999
 20
-151.2200547582019
 10
99.99458547847359
 20
-151.2011067330331
 10
99.98201087995241
 20
-151.1924939943199
 10
99.86987302190755
 20
-151.1080891549313
 10
99.82112492079124
 20
-151.069848595045
 10
99.76186927844494
 20
-151.0340196019984
 10
99.68159855363865
 20
-150.9895778702387
 10
99.46989743607003
 20
-151.1756130264422
 10
99.26474199992341
 20
-151.1990396757419
 10
98.9750094696139
 20
-151.228667496915
 10
98.9750094696139
 20
-151.228667496915
 10
98.87131209550787
 20
-151.048833512585
 10
98.87131209550787
 20
-151.048833512585
 10
99.18860538969937
 20
-151.0446993980027
 10
99.36413300467286
 20
-151.0192056914119
 10
99.51657847989515
 20
-150.9093071454324
 10
99.39806719520257
 20
-150.8583197322507
 10
99.30918373168312
 20
-150.8307589683687
 10
99.27318248386228
 20
-150.8183566246218
 10
99.2542344586934
 20
-150.8455728789552
 10
99.23942054810682
 20
-150.8648654136726
 10
99.21185978422482
 20
-150.8986273494281
 10
99.21185978422482
 20
-150.8986273494281
 10
99.01514483201706
 20
-150.8159450577821
 10
99.01514483201706
 20
-150.8159450577821
 10
99.09765486888879
 20
-150.7356743329758
 10
99.15897756852622
 20
-150.6405896975829
 10
99.21616615358139
 20
-150.538959380768
 10
99.02565237324708
 20
-150.5430934953503
 10
99.00463729078705
 20
-150.5430934953503
 10
98.9221272539153
 20
-150.5475721194811
 10
98.9221272539153
 20
-150.5475721194811
 10
98.9221272539153
 20
-150.3698051924422
 10
98.9221272539153
 20
-150.3698051924422
 10
99.06165362106792
 20
-150.3760063643157
 10
99.27111542657112
 20
-150.380140478898
 10
99.29643687838769
 20
-150.380140478898
 10
99.3134901010397
 20
-150.3463785431426
 10
99.36843937402942
 20
-150.2258002011588
 10
99.38755965397255
 20
-150.1517306482259
 10
99.36843937402942
 20
-150.1517306482259
 10
99.19067244699053
 20
-150.1582763296479
 10
98.99619680684818
 20
-150.1710231829433
 10
98.99619680684818
 20
-150.1710231829433
 10
98.99619680684818
 20
-150.304003868674
 10
98.99619680684818
 20
-150.304003868674
 10
98.94744870573189
 20
-150.3294975752648
 10
98.88819306338561
 20
-150.3611924537291
 10
98.75486786810643
 20
-150.4269937774974
 10
98.75486786810643
 20
-150.4269937774974
 10
98.75486786810643
 20
-150.5727213165235
 10
98.75486786810643
 20
-150.5727213165235
 10
98.75486786810643
 20
-150.5727213165235
 10
98.75486786810643
 20
-151.0402207738719
 10
98.75486786810643
 20
-151.0402207738719
 10
98.75486786810643
 20
-151.1673447972776
 10
98.71903887505983
 20
-151.2266004396239
 10
98.43550751662377
 20
-151.2179877009108
 10
98.43550751662377
 20
-151.2179877009108
 10
98.33181014251776
 20
-151.0105929526987
 10
98.33181014251776
 20
-151.0105929526987
 10
98.39537215422062
 20
-151.0233398059942
 10
98.44394800056264
 20
-151.0274739205765
 10
98.48408336296579
 20
-151.0274739205765
 10
98.56039222796407
 20
-151.0274739205765
 10
98.57089976919409
 20
-151.0043917808253
 10
98.57089976919409
 20
-150.9389349666055
 10
98.57089976919409
 20
-150.9389349666055
 10
98.57089976919409
 20
-150.5093315595949
 10
98.57089976919409
 20
-150.5093315595949
 10
98.47357582173579
 20
-150.5496391767723
 10
98.45669485385805
 20
-150.5558403486458
 10
98.41018606480718
 20
-150.5747883738146
 10
98.40587969545062
 20
-150.5961479658232
 10
98.40157332609406
 20
-150.6257757869963
 10
98.38262530092519
 20
-150.6257757869963
 10
98.37418481698632
 20
-150.6257757869963
 10
98.36350502098206
 20
-150.621641672414
 10
98.3573038491086
 20
-150.5982150231143
 10
98.3573038491086
 20
-150.5982150231143
 10
98.30442163341002
 20
-150.4056341854889
 10
98.30442163341002
 20
-150.4056341854889
 10
98.45032142721034
 20
-150.359125396438
 10
98.51595049620435
 20
-150.3360432566868
 10
98.57089976919409
 20
-150.3146836646783
 10
98.57089976919409
 20
-150.3146836646783
 10
98.57089976919409
 20
-149.9023057350939
 10
98.57089976919409
 20
-149.9023057350939
 10
98.57089976919409
 20
-149.9023057350939
 10
98.5180175534955
 20
-149.9023057350939
 10
98.5180175534955
 20
-149.9023057350939
 10
98.5180175534955
 20
-149.9023057350939
 10
98.43981388598033
 20
-149.9023057350939
 10
98.43981388598033
 20
-149.9023057350939
 10
98.37211775969517
 20
-149.9023057350939
 10
98.36350502098206
 20
-149.9023057350939
 10
98.32767602793545
 20
-149.9085069069673
 10
98.32767602793545
 20
-149.9085069069673
 10
98.32767602793545
 20
-149.7138590120507
 10
98.32767602793545
 20
-149.7138590120507
 10
98.35506453704319
 20
-149.7204046934727
 10
98.36350502098206
 20
-149.7204046934727
 10
98.43344045933262
 20
-149.7204046934727
 10
98.43344045933262
 20
-149.7204046934727
 10
98.56659339983753
 20
-149.7204046934727
 10
98.56659339983753
 20
-149.7204046934727
 10
98.56659339983753
 20
-149.6504692551221
 10
98.56659339983753
 20
-149.5677869634761
 10
98.56452634254637
 20
-149.5636528488938
 10
98.55608585860752
 20
-149.3838188645637
 10
98.55608585860752
 20
-149.3648708393949
 10
98.55401880131637
 20
-149.318362050344
 10
98.55401880131637
 20
-149.318362050344
 10
98.76968177869301
 20
-149.3266302795086
 10
98.76968177869301
 20
-149.3266302795086
 10
98.78036157469729
 20
-149.3266302795086
 10
98.80154891193157
 20
-149.3290418463483
 10
98.80154891193157
 20
-149.345922814226
 10
98.80154891193157
 20
-149.3648708393949
 10
98.786735001345
 20
-149.3755506353991
 10
98.76124129475414
 20
-149.394498660568
 10
98.76124129475414
 20
-149.4451415642012
 10
98.75486786810643
 20
-149.6735513948733
 10
98.75710718017185
 20
-149.7204046934727
 10
98.88612600609445
 20
-149.7204046934727
 10
98.89887285938987
 20
-149.7204046934727
 10
98.99619680684818
 20
-149.7117919547595
 10
98.99619680684818
 20
-149.7117919547595
 10
98.99619680684818
 20
-149.9064398496761
 10
98.99619680684818
 20
-149.9064398496761
 10
98.95795624696191
 20
-149.904372792385
 10
98.89026012067674
 20
-149.9002386778027
 10
98.75486786810643
 20
-149.9023057350939
 10
98.75486786810643
 20
-149.9023057350939
 10
98.75486786810643
 20
-150.2406141117454
 10
98.75486786810643
 20
-150.2406141117454
 10
98.80998939587042
 20
-150.2175319719942
 10
98.87544621009018
 20
-150.1899712081122
 10
98.92419431120645
 20
-150.1665445588125
 10
98.92419431120645
 20
-150.1665445588125
 10
98.92419431120645
 20
-149.9887776317736
 10
98.92419431120645
 20
-149.9887776317736
 10
99.03839922654249
 20
-150.001524485069
 10
99.15691051123509
 20
-150.001524485069
 10
99.27318248386228
 20
-150.001524485069
 10
99.24992808933684
 20
-149.9064398496761
 10
99.2225395802291
 20
-149.8237575580301
 10
99.15897756852622
 20
-149.6907768722995
 10
99.11453583676651
 20
-149.6928439295906
 10
99.03202579989478
 20
-149.696978044173
 10
98.99395749478276
 20
-149.6990451014641
 10
98.99395749478276
 20
-149.6990451014641
 10
98.99395749478276
 20
-149.5192111171341
 10
98.99395749478276
 20
-149.5192111171341
 10
99.11884220612307
 20
-149.5278238558472
 10
99.2923027638054
 20
-149.5319579704295
 10
99.37481280067714
 20
-149.5319579704295
 10
99.37481280067714
 20
-149.5319579704295
 10
99.45732283754887
 20
-149.5319579704295
 10
99.45732283754887
 20
-149.5319579704295
 10
99.45732283754887
 20
-149.3690049539772
 10
99.45732283754887
 20
-149.3586696675214
 10
99.45525578025772
 20
-149.3035481397574
 10
99.45525578025772
 20
-149.3035481397574
 10
99.67935924157323
 20
-149.3290418463483
 10
99.67935924157323
 20
-149.3290418463483
 10
99.68366561092977
 20
-149.3290418463483
 10
99.70485294816407
 20
-149.3311089036394
 10
99.70485294816407
 20
-149.3479898715172
 10
99.70485294816407
 20
-149.3628037821037
 10
99.69417315215979
 20
-149.3710720112683
 10
99.66678464305205
 20
-149.3858859218549
 10
99.66041121640435
 20
-149.4516872456232
 10
99.6583441591132
 20
-149.4727023280832
 10
99.6583441591132
 20
-149.5319579704295
 10
99.6583441591132
 20
-149.5319579704295
 10
99.75342879450609
 20
-149.5319579704295
 10
99.75342879450609
 20
-149.5319579704295
 10
99.83593883137784
 20
-149.5319579704295
 10
100.0093993890601
 20
-149.5278238558472
 10
100.1342841004004
 20
-149.5192111171341
 10
100.1342841004004
 20
-149.5192111171341
 10
100.1342841004004
 20
-149.6990451014641
 10
100.1342841004004
 20
-149.6990451014641
 10
100.1046562792273
 20
-149.696978044173
 10
99.98614499453472
 20
-149.6928439295906
 10
99.94600963213157
 20
-149.6907768722995
 10
99.93119572154498
 20
-149.7414197759327
 10
99.89726153101528
 20
-149.8533853792033
 10
99.83180471679553
 20
-149.9932562559044
 10
99.87400713648984
 20
-149.9932562559044
 10
100.1511650682782
 20
-149.973963721187
 10
100.2124877679156
 20
-149.9718966638959
 10
100.2124877679156
 20
-149.9718966638959
 10
100.2124877679156
 20
-150.1562092723568
 10
100.2124877679156
 20
-150.1562092723568
 10
100.1828599467424
 20
-150.1562092723568
 10
100.1659789788647
 20
-150.1517306482259
 10
100.0030259624124
 20
-150.1517306482259
 97
        0
 97
        1
330
115
 75
     2
 76
     1
 98
        1
 10
0.0
 20
0.0
450
        0
451
        0
460
0.0
461
0.0
452
        0
462
0.0
453
        0
470

  0
SPLINE
  5
117
330
10F
100
AcDbEntity
  8
レイヤー 1
100
AcDbSpline
210
0.0
220
0.0
230
1.0
 70
    11
 71
     3
 72
    17
 73
    13
 74
     0
 42
0.0000000001
 43
0.0000000001
 40
0.0
 40
0.0
 40
0.0
 40
0.0
 40
1.0
 40
1.0
 40
1.0
 40
2.0
 40
2.0
 40
2.0
 40
3.0
 40
3.0
 40
3.0
 40
4.0
 40
4.0
 40
4.0
 40
4.0
 10
101.8595879194136
 20
-150.9513373103524
 30
0.0
 10
101.8595879194136
 20
-150.9513373103524
 30
0.0
 10
101.1529988353888
 20
-150.9513373103524
 30
0.0
 10
101.1529988353888
 20
-150.9513373103524
 30
0.0
 10
101.1529988353888
 20
-150.9513373103524
 30
0.0
 10
101.1529988353888
 20
-151.0657144804627
 30
0.0
 10
101.1529988353888
 20
-151.0657144804627
 30
0.0
 10
101.1529988353888
 20
-151.0657144804627
 30
0.0
 10
101.8595879194136
 20
-151.0657144804627
 30
0.0
 10
101.8595879194136
 20
-151.0657144804627
 30
0.0
 10
101.8595879194136
 20
-151.0657144804627
 30
0.0
 10
101.8595879194136
 20
-150.9513373103524
 30
0.0
 10
101.8595879194136
 20
-150.9513373103524
 30
0.0
  0
SPLINE
  5
118
330
10F
100
AcDbEntity
  8
レイヤー 1
100
AcDbSpline
210
0.0
220
0.0
230
1.0
 70
    11
 71
     3
 72
    17
 73
    13
 74
     0
 42
0.0000000001
 43
0.0000000001
 40
0.0
 40
0.0
 40
0.0
 40
0.0
 40
1.0
 40
1.0
 40
1.0
 40
2.0
 40
2.0
 40
2.0
 40
3.0
 40
3.0
 40
3.0
 40
4.0
 40
4.0
 40
4.0
 40
4.0
 10
101.8595879194136
 20
-150.7081135690938
 30
0.0
 10
101.8595879194136
 20
-150.7081135690938
 30
0.0
 10
101.1529988353888
 20
-150.7081135690938
 30
0.0
 10
101.1529988353888
 20
-150.7081135690938
 30
0.0
 10
101.1529988353888
 20
-150.7081135690938
 30
0.0
 10
101.1529988353888
 20
-150.8224907392041
 30
0.0
 10
101.1529988353888
 20
-150.8224907392041
 30
0.0
 10
101.1529988353888
 20
-150.8224907392041
 30
0.0
 10
101.8595879194136
 20
-150.8224907392041
 30
0.0
 10
101.8595879194136
 20
-150.8224907392041
 30
0.0
 10
101.8595879194136
 20
-150.8224907392041
 30
0.0
 10
101.8595879194136
 20
-150.7081135690938
 30
0.0
 10
101.8595879194136
 20
-150.7081135690938
 30
0.0
  0
SPLINE
  5
119
330
10F
100
AcDbEntity
  8
レイヤー 1
100
AcDbSpline
210
0.0
220
0.0
230
1.0
 70
    11
 71
     3
 72
    17
 73
    13
 74
     0
 42
0.0000000001
 43
0.0000000001
 40
0.0
 40
0.0
 40
0.0
 40
0.0
 40
1.0
 40
1.0
 40
1.0
 40
2.0
 40
2.0
 40
2.0
 40
3.0
 40
3.0
 40
3.0
 40
4.0
 40
4.0
 40
4.0
 40
4.0
 10
101.8595879194136
 20
-150.4755696238394
 30
0.0
 10
101.8595879194136
 20
-150.4755696238394
 30
0.0
 10
101.1529988353888
 20
-150.4755696238394
 30
0.0
 10
101.1529988353888
 20
-150.4755696238394
 30
0.0
 10
101.1529988353888
 20
-150.4755696238394
 30
0.0
 10
101.1529988353888
 20
-150.5834011125278
 30
0.0
 10
101.1529988353888
 20
-150.5834011125278
 30
0.0
 10
101.1529988353888
 20
-150.5834011125278
 30
0.0
 10
101.8595879194136
 20
-150.5834011125278
 30
0.0
 10
101.8595879194136
 20
-150.5834011125278
 30
0.0
 10
101.8595879194136
 20
-150.5834011125278
 30
0.0
 10
101.8595879194136
 20
-150.4755696238394
 30
0.0
 10
101.8595879194136
 20
-150.4755696238394
 30
0.0
  0
SPLINE
  5
11A
330
10F
100
AcDbEntity
  8
レイヤー 1
100
AcDbSpline
210
0.0
220
0.0
230
1.0
 70
     9
 71
     3
 72
   203
 73
   199
 74
     0
 42
0.0000000001
 43
0.0000000001
 40
0.0
 40
0.0
 40
0.0
 40
0.0
 40
1.0
 40
1.0
 40
1.0
 40
2.0
 40
2.0
 40
2.0
 40
3.0
 40
3.0
 40
3.0
 40
4.0
 40
4.0
 40
4.0
 40
5.0
 40
5.0
 40
5.0
 40
6.0
 40
6.0
 40
6.0
 40
7.0
 40
7.0
 40
7.0
 40
8.0
 40
8.0
 40
8.0
 40
9.0
 40
9.0
 40
9.0
 40
10.0
 40
10.0
 40
10.0
 40
11.0
 40
11.0
 40
11.0
 40
12.0
 40
12.0
 40
12.0
 40
13.0
 40
13.0
 40
13.0
 40
14.0
 40
14.0
 40
14.0
 40
15.0
 40
15.0
 40
15.0
 40
16.0
 40
16.0
 40
16.0
 40
17.0
 40
17.0
 40
17.0
 40
18.0
 40
18.0
 40
18.0
 40
19.0
 40
19.0
 40
19.0
 40
20.0
 40
20.0
 40
20.0
 40
21.0
 40
21.0
 40
21.0
 40
22.0
 40
22.0
 40
22.0
 40
23.0
 40
23.0
 40
23.0
 40
24.0
 40
24.0
 40
24.0
 40
25.0
 40
25.0
 40
25.0
 40
26.0
 40
26.0
 40
26.0
 40
27.0
 40
27.0
 40
27.0
 40
28.0
 40
28.0
 40
28.0
 40
29.0
 40
29.0
 40
29.0
 40
30.0
 40
30.0
 40
30.0
 40
31.0
 40
31.0
 40
31.0
 40
32.0
 40
32.0
 40
32.0
 40
33.0
 40
33.0
 40
33.0
 40
34.0
 40
34.0
 40
34.0
 40
35.0
 40
35.0
 40
35.0
 40
36.0
 40
36.0
 40
36.0
 40
37.0
 40
37.0
 40
37.0
 40
38.0
 40
38.0
 40
38.0
 40
39.0
 40
39.0
 40
39.0
 40
40.0
 40
40.0
 40
40.0
 40
41.0
 40
41.0
 40
41.0
 40
42.0
 40
42.0
 40
42.0
 40
43.0
 40
43.0
 40
43.0
 40
44.0
 40
44.0
 40
44.0
 40
45.0
 40
45.0
 40
45.0
 40
46.0
 40
46.0
 40
46.0
 40
47.0
 40
47.0
 40
47.0
 40
48.0
 40
48.0
 40
48.0
 40
49.0
 40
49.0
 40
49.0
 40
50.0
 40
50.0
 40
50.0
 40
51.0
 40
51.0
 40
51.0
 40
52.0
 40
52.0
 40
52.0
 40
53.0
 40
53.0
 40
53.0
 40
54.0
 40
54.0
 40
54.0
 40
55.0
 40
55.0
 40
55.0
 40
56.0
 40
56.0
 40
56.0
 40
57.0
 40
57.0
 40
57.0
 40
58.0
 40
58.0
 40
58.0
 40
59.0
 40
59.0
 40
59.0
 40
60.0
 40
60.0
 40
60.0
 40
61.0
 40
61.0
 40
61.0
 40
62.0
 40
62.0
 40
62.0
 40
63.0
 40
63.0
 40
63.0
 40
64.0
 40
64.0
 40
64.0
 40
65.0
 40
65.0
 40
65.0
 40
66.0
 40
66.0
 40
66.0
 40
66.0
 10
101.6945678456701
 20
-150.2195990292854
 30
0.0
 10
101.6945678456701
 20
-150.2195990292854
 30
0.0
 10
101.1361178675111
 20
-150.2195990292854
 30
0.0
 10
101.1361178675111
 20
-150.2195990292854
 30
0.0
 10
101.1254380715068
 20
-150.2640407610451
 30
0.0
 10
101.116997587568
 20
-150.2957356395094
 30
0.0
 10
101.1042507342725
 20
-150.3336316898471
 30
0.0
 10
101.1297444408634
 20
-150.3336316898471
 30
0.0
 10
101.1445583514499
 20
-150.3360432566868
 30
0.0
 10
101.1509317780977
 20
-150.3360432566868
 30
0.0
 10
101.1509317780977
 20
-150.3360432566868
 30
0.0
 10
101.3392062463666
 20
-150.3360432566868
 30
0.0
 10
101.3392062463666
 20
-150.3360432566868
 30
0.0
 10
101.3392062463666
 20
-150.3360432566868
 30
0.0
 10
101.713515870839
 20
-150.3360432566868
 30
0.0
 10
101.713515870839
 20
-150.3360432566868
 30
0.0
 10
101.7643310292464
 20
-150.3360432566868
 30
0.0
 10
102.0478623876825
 20
-150.3232964033914
 30
0.0
 10
102.0795572661467
 20
-150.3232964033914
 30
0.0
 10
102.0774902088556
 20
-150.3508571672734
 30
0.0
 10
102.0752508967902
 20
-150.3698051924422
 30
0.0
 10
102.0752508967902
 20
-150.3994330136154
 30
0.0
 10
102.073183839499
 20
-150.4311278920797
 30
0.0
 10
102.073183839499
 20
-150.56652014465
 30
0.0
 10
102.073183839499
 20
-150.594080908532
 30
0.0
 10
102.073183839499
 20
-150.594080908532
 30
0.0
 10
102.073183839499
 20
-150.8393717070818
 30
0.0
 10
102.073183839499
 20
-150.8393717070818
 30
0.0
 10
102.073183839499
 20
-150.8838134388415
 30
0.0
 10
102.0774902088556
 20
-151.0805283910493
 30
0.0
 10
102.0816243234379
 20
-151.2328016114973
 30
0.0
 10
102.0816243234379
 20
-151.2328016114973
 30
0.0
 10
101.855281550057
 20
-151.2328016114973
 30
0.0
 10
101.855281550057
 20
-151.2328016114973
 30
0.0
 10
101.855281550057
 20
-151.2328016114973
 30
0.0
 10
101.8573486073481
 20
-151.1990396757419
 30
0.0
 10
101.8573486073481
 20
-151.1990396757419
 30
0.0
 10
101.8573486073481
 20
-151.1990396757419
 30
0.0
 10
101.15506589268
 20
-151.1990396757419
 30
0.0
 10
101.15506589268
 20
-151.1990396757419
 30
0.0
 10
101.15506589268
 20
-151.1990396757419
 30
0.0
 10
101.1571329499711
 20
-151.2328016114973
 30
0.0
 10
101.1571329499711
 20
-151.2328016114973
 30
0.0
 10
101.1571329499711
 20
-151.2328016114973
 30
0.0
 10
100.9392306605291
 20
-151.2328016114973
 30
0.0
 10
100.9392306605291
 20
-151.2328016114973
 30
0.0
 10
100.9435370298856
 20
-151.1776800837334
 30
0.0
 10
100.9435370298856
 20
-151.1652777399864
 30
0.0
 10
100.9499104565333
 20
-151.0509005698762
 30
0.0
 10
100.9519775138245
 20
-151.0233398059942
 30
0.0
 10
100.9540445711156
 20
-150.890014610715
 30
0.0
 10
100.9540445711156
 20
-150.8710665855461
 30
0.0
 10
100.9540445711156
 20
-150.8710665855461
 30
0.0
 10
100.9540445711156
 20
-150.6681504614649
 30
0.0
 10
100.9540445711156
 20
-150.6681504614649
 30
0.0
 10
100.814518203963
 20
-150.917575374597
 30
0.0
 10
100.645191760863
 20
-151.048833512585
 30
0.0
 10
100.5394273294658
 20
-151.1142903268047
 30
0.0
 10
100.5394273294658
 20
-151.1142903268047
 30
0.0
 10
100.3659667717835
 20
-150.9747639596521
 30
0.0
 10
100.3659667717835
 20
-150.9747639596521
 30
0.0
 10
100.4548502353029
 20
-150.924121056019
 30
0.0
 10
100.5986829718121
 20
-150.8373046497906
 30
0.0
 10
100.7361422816736
 20
-150.642656754874
 30
0.0
 10
100.8272650572584
 20
-150.5155327314683
 30
0.0
 10
100.8927218714782
 20
-150.3718722497334
 30
0.0
 10
100.9266560620079
 20
-150.2195990292854
 30
0.0
 10
100.6980739765616
 20
-150.2216660865765
 30
0.0
 10
100.5182399922315
 20
-150.22786725845
 30
0.0
 10
100.4231553568386
 20
-150.2299343157411
 30
0.0
 10
100.4231553568386
 20
-150.2299343157411
 30
0.0
 10
100.4231553568386
 20
-150.0525118982507
 30
0.0
 10
100.4231553568386
 20
-150.0525118982507
 30
0.0
 10
100.6198703090464
 20
-150.0587130701242
 30
0.0
 10
100.9034016674825
 20
-150.0628471847065
 30
0.0
 10
101.0536078306394
 20
-150.0628471847065
 30
0.0
 10
101.0536078306394
 20
-150.0628471847065
 30
0.0
 10
101.2672037507248
 20
-150.0628471847065
 30
0.0
 10
101.2672037507248
 20
-150.0628471847065
 30
0.0
 10
101.2672037507248
 20
-150.0628471847065
 30
0.0
 10
101.2672037507248
 20
-149.9550156960182
 30
0.0
 10
101.2672037507248
 20
-149.9550156960182
 30
0.0
 10
101.2672037507248
 20
-149.9550156960182
 30
0.0
 10
101.1213039569245
 20
-149.9550156960182
 30
0.0
 10
101.1213039569245
 20
-149.9550156960182
 30
0.0
 10
100.9519775138245
 20
-149.9550156960182
 30
0.0
 10
100.7828233254987
 20
-149.9591498106005
 30
0.0
 10
100.6155639396898
 20
-149.9656954920224
 30
0.0
 10
100.6155639396898
 20
-149.9656954920224
 30
0.0
 10
100.6155639396898
 20
-149.7944742464055
 30
0.0
 10
100.6155639396898
 20
-149.7944742464055
 30
0.0
 10
100.7700764722033
 20
-149.8048095328613
 30
0.0
 10
100.956283883181
 20
-149.8048095328613
 30
0.0
 10
101.1213039569245
 20
-149.8048095328613
 30
0.0
 10
101.1213039569245
 20
-149.8048095328613
 30
0.0
 10
101.2672037507248
 20
-149.8048095328613
 30
0.0
 10
101.2672037507248
 20
-149.8048095328613
 30
0.0
 10
101.2672037507248
 20
-149.8048095328613
 30
0.0
 10
101.2672037507248
 20
-149.6862982481687
 30
0.0
 10
101.2672037507248
 20
-149.6862982481687
 30
0.0
 10
101.2672037507248
 20
-149.6862982481687
 30
0.0
 10
101.1361178675111
 20
-149.6862982481687
 30
0.0
 10
101.1361178675111
 20
-149.6862982481687
 30
0.0
 10
101.0894368236859
 20
-149.6862982481687
 30
0.0
 10
100.8863484448305
 20
-149.6949109868818
 30
0.0
 10
100.8441460251362
 20
-149.6949109868818
 30
0.0
 10
100.6410576462807
 20
-149.6990451014641
 30
0.0
 10
100.5649210360567
 20
-149.7011121587553
 30
0.0
 10
100.4865451137672
 20
-149.7031792160464
 30
0.0
 10
100.4865451137672
 20
-149.7031792160464
 30
0.0
 10
100.4865451137672
 20
-149.5192111171341
 30
0.0
 10
100.4865451137672
 20
-149.5192111171341
 30
0.0
 10
100.6007500291033
 20
-149.5278238558472
 30
0.0
 10
100.645191760863
 20
-149.5278238558472
 30
0.0
 10
101.0281141240485
 20
-149.5360920850118
 30
0.0
 10
100.9647243671199
 20
-149.4410074496189
 30
0.0
 10
100.9371636032379
 20
-149.4134466857369
 30
0.0
 10
100.901162355417
 20
-149.3776176926903
 30
0.0
 10
100.901162355417
 20
-149.3776176926903
 30
0.0
 10
101.0768622251648
 20
-149.2949354010443
 30
0.0
 10
101.0768622251648
 20
-149.2949354010443
 30
0.0
 10
101.116997587568
 20
-149.3311089036394
 30
0.0
 10
101.1614393193277
 20
-149.373483578108
 30
0.0
 10
101.2355088722605
 20
-149.4833821240875
 30
0.0
 10
101.2355088722605
 20
-149.4833821240875
 30
0.0
 10
101.1213039569245
 20
-149.5385036518515
 30
0.0
 10
101.1213039569245
 20
-149.5385036518515
 30
0.0
 10
101.1213039569245
 20
-149.5385036518515
 30
0.0
 10
101.1318114981545
 20
-149.5385036518515
 30
0.0
 10
101.1318114981545
 20
-149.5385036518515
 30
0.0
 10
101.1318114981545
 20
-149.5385036518515
 30
0.0
 10
101.6544324832669
 20
-149.5385036518515
 30
0.0
 10
101.6544324832669
 20
-149.5385036518515
 30
0.0
 10
101.6544324832669
 20
-149.5385036518515
 30
0.0
 10
101.5591755930998
 20
-149.4940619200917
 30
0.0
 10
101.5591755930998
 20
-149.4940619200917
 30
0.0
 10
101.5865641022075
 20
-149.4558213602055
 30
0.0
 10
101.6437526872626
 20
-149.3755506353991
 30
0.0
 10
101.6585665978492
 20
-149.3014810824663
 30
0.0
 10
101.6585665978492
 20
-149.3014810824663
 30
0.0
 10
101.8721625179347
 20
-149.3648708393949
 30
0.0
 10
101.8721625179347
 20
-149.3648708393949
 30
0.0
 10
101.8807752566478
 20
-149.366937896686
 30
0.0
 10
101.9017903391079
 20
-149.3776176926903
 30
0.0
 10
101.9017903391079
 20
-149.3986327751503
 30
0.0
 10
101.9017903391079
 20
-149.4368733350366
 30
0.0
 10
101.8363335248881
 20
-149.4368733350366
 30
0.0
 10
101.817213244945
 20
-149.4368733350366
 30
0.0
 10
101.806705703715
 20
-149.4558213602055
 30
0.0
 10
101.7834513091895
 20
-149.4961289773829
 30
0.0
 10
101.7538234880164
 20
-149.5360920850118
 30
0.0
 10
102.1536268190796
 20
-149.5298909131383
 30
0.0
 10
102.1832546402528
 20
-149.5278238558472
 30
0.0
 10
102.2593912504768
 20
-149.5212781744252
 30
0.0
 10
102.2593912504768
 20
-149.5212781744252
 30
0.0
 10
102.2593912504768
 20
-149.7031792160464
 30
0.0
 10
102.2593912504768
 20
-149.7031792160464
 30
0.0
 10
102.2402709705337
 20
-149.7031792160464
 30
0.0
 10
102.2149495187171
 20
-149.7011121587553
 30
0.0
 10
101.9949801719839
 20
-149.6928439295906
 30
0.0
 10
101.9441650135764
 20
-149.6907768722995
 30
0.0
 10
101.7241956668432
 20
-149.6862982481687
 30
0.0
 10
101.6797539350835
 20
-149.6862982481687
 30
0.0
 10
101.6797539350835
 20
-149.6862982481687
 30
0.0
 10
101.4639187029326
 20
-149.6862982481687
 30
0.0
 10
101.4639187029326
 20
-149.6862982481687
 30
0.0
 10
101.4639187029326
 20
-149.6862982481687
 30
0.0
 10
101.4639187029326
 20
-149.8048095328613
 30
0.0
 10
101.4639187029326
 20
-149.8048095328613
 30
0.0
 10
101.4639187029326
 20
-149.8048095328613
 30
0.0
 10
101.6373792606149
 20
-149.8048095328613
 30
0.0
 10
101.6373792606149
 20
-149.8048095328613
 30
0.0
 10
101.8003322770673
 20
-149.8048095328613
 30
0.0
 10
101.9906738026273
 20
-149.8048095328613
 30
0.0
 10
102.1472533924319
 20
-149.7944742464055
 30
0.0
 10
102.1472533924319
 20
-149.7944742464055
 30
0.0
 10
102.1472533924319
 20
-149.9656954920224
 30
0.0
 10
102.1472533924319
 20
-149.9656954920224
 30
0.0
 10
101.9377915869287
 20
-149.9570827533093
 30
0.0
 10
101.741076634721
 20
-149.9550156960182
 30
0.0
 10
101.6373792606149
 20
-149.9550156960182
 30
0.0
 10
101.6373792606149
 20
-149.9550156960182
 30
0.0
 10
101.4639187029326
 20
-149.9550156960182
 30
0.0
 10
101.4639187029326
 20
-149.9550156960182
 30
0.0
 10
101.4639187029326
 20
-149.9550156960182
 30
0.0
 10
101.4639187029326
 20
-150.0628471847065
 30
0.0
 10
101.4639187029326
 20
-150.0628471847065
 30
0.0
 10
101.4639187029326
 20
-150.0628471847065
 30
0.0
 10
101.6945678456701
 20
-150.0628471847065
 30
0.0
 10
101.6945678456701
 20
-150.0628471847065
 30
0.0
 10
101.8278930409493
 20
-150.0628471847065
 30
0.0
 10
102.1155585139676
 20
-150.0587130701242
 30
0.0
 10
102.3250203194708
 20
-150.0525118982507
 30
0.0
 10
102.3250203194708
 20
-150.0525118982507
 30
0.0
 10
102.3250203194708
 20
-150.2299343157411
 30
0.0
 10
102.3250203194708
 20
-150.2299343157411
 30
0.0
 10
102.1324394818453
 20
-150.2237331438677
 30
0.0
 10
101.8192803022361
 20
-150.2195990292854
 30
0.0
 10
101.6945678456701
 20
-150.2195990292854
 30
0.0
  0
HATCH
  5
11B
330
10F
100
AcDbEntity
  8
レイヤー 1
 62
    18
420
        0
440
 33554687
100
AcDbHatch
 10
0.0
 20
0.0
 30
0.0
210
0.0
220
0.0
230
1.0
  2
SOLID
 70
     1
 71
     1
 91
        4
 92
        1
 93
        1
 72
     4
 94
        3
 73
     0
 74
     0
 95
       17
 96
       13
 40
0.0
 40
0.0
 40
0.0
 40
0.0
 40
1.0
 40
1.0
 40
1.0
 40
2.0
 40
2.0
 40
2.0
 40
3.0
 40
3.0
 40
3.0
 40
4.0
 40
4.0
 40
4.0
 40
4.0
 10
101.8595879194136
 20
-150.9513373103524
 10
101.8595879194136
 20
-150.9513373103524
 10
101.1529988353888
 20
-150.9513373103524
 10
101.1529988353888
 20
-150.9513373103524
 10
101.1529988353888
 20
-150.9513373103524
 10
101.1529988353888
 20
-151.0657144804627
 10
101.1529988353888
 20
-151.0657144804627
 10
101.1529988353888
 20
-151.0657144804627
 10
101.8595879194136
 20
-151.0657144804627
 10
101.8595879194136
 20
-151.0657144804627
 10
101.8595879194136
 20
-151.0657144804627
 10
101.8595879194136
 20
-150.9513373103524
 10
101.8595879194136
 20
-150.9513373103524
 97
        0
 97
        1
330
117
 92
        1
 93
        1
 72
     4
 94
        3
 73
     0
 74
     0
 95
       17
 96
       13
 40
0.0
 40
0.0
 40
0.0
 40
0.0
 40
1.0
 40
1.0
 40
1.0
 40
2.0
 40
2.0
 40
2.0
 40
3.0
 40
3.0
 40
3.0
 40
4.0
 40
4.0
 40
4.0
 40
4.0
 10
101.8595879194136
 20
-150.7081135690938
 10
101.8595879194136
 20
-150.7081135690938
 10
101.1529988353888
 20
-150.7081135690938
 10
101.1529988353888
 20
-150.7081135690938
 10
101.1529988353888
 20
-150.7081135690938
 10
101.1529988353888
 20
-150.8224907392041
 10
101.1529988353888
 20
-150.8224907392041
 10
101.1529988353888
 20
-150.8224907392041
 10
101.8595879194136
 20
-150.8224907392041
 10
101.8595879194136
 20
-150.8224907392041
 10
101.8595879194136
 20
-150.8224907392041
 10
101.8595879194136
 20
-150.7081135690938
 10
101.8595879194136
 20
-150.7081135690938
 97
        0
 97
        1
330
118
 92
        1
 93
        1
 72
     4
 94
        3
 73
     0
 74
     0
 95
       17
 96
       13
 40
0.0
 40
0.0
 40
0.0
 40
0.0
 40
1.0
 40
1.0
 40
1.0
 40
2.0
 40
2.0
 40
2.0
 40
3.0
 40
3.0
 40
3.0
 40
4.0
 40
4.0
 40
4.0
 40
4.0
 10
101.8595879194136
 20
-150.4755696238394
 10
101.8595879194136
 20
-150.4755696238394
 10
101.1529988353888
 20
-150.4755696238394
 10
101.1529988353888
 20
-150.4755696238394
 10
101.1529988353888
 20
-150.4755696238394
 10
101.1529988353888
 20
-150.5834011125278
 10
101.1529988353888
 20
-150.5834011125278
 10
101.1529988353888
 20
-150.5834011125278
 10
101.8595879194136
 20
-150.5834011125278
 10
101.8595879194136
 20
-150.5834011125278
 10
101.8595879194136
 20
-150.5834011125278
 10
101.8595879194136
 20
-150.4755696238394
 10
101.8595879194136
 20
-150.4755696238394
 97
        0
 97
        1
330
119
 92
        1
 93
        1
 72
     4
 94
        3
 73
     0
 74
     0
 95
      203
 96
      199
 40
0.0
 40
0.0
 40
0.0
 40
0.0
 40
1.0
 40
1.0
 40
1.0
 40
2.0
 40
2.0
 40
2.0
 40
3.0
 40
3.0
 40
3.0
 40
4.0
 40
4.0
 40
4.0
 40
5.0
 40
5.0
 40
5.0
 40
6.0
 40
6.0
 40
6.0
 40
7.0
 40
7.0
 40
7.0
 40
8.0
 40
8.0
 40
8.0
 40
9.0
 40
9.0
 40
9.0
 40
10.0
 40
10.0
 40
10.0
 40
11.0
 40
11.0
 40
11.0
 40
12.0
 40
12.0
 40
12.0
 40
13.0
 40
13.0
 40
13.0
 40
14.0
 40
14.0
 40
14.0
 40
15.0
 40
15.0
 40
15.0
 40
16.0
 40
16.0
 40
16.0
 40
17.0
 40
17.0
 40
17.0
 40
18.0
 40
18.0
 40
18.0
 40
19.0
 40
19.0
 40
19.0
 40
20.0
 40
20.0
 40
20.0
 40
21.0
 40
21.0
 40
21.0
 40
22.0
 40
22.0
 40
22.0
 40
23.0
 40
23.0
 40
23.0
 40
24.0
 40
24.0
 40
24.0
 40
25.0
 40
25.0
 40
25.0
 40
26.0
 40
26.0
 40
26.0
 40
27.0
 40
27.0
 40
27.0
 40
28.0
 40
28.0
 40
28.0
 40
29.0
 40
29.0
 40
29.0
 40
30.0
 40
30.0
 40
30.0
 40
31.0
 40
31.0
 40
31.0
 40
32.0
 40
32.0
 40
32.0
 40
33.0
 40
33.0
 40
33.0
 40
34.0
 40
34.0
 40
34.0
 40
35.0
 40
35.0
 40
35.0
 40
36.0
 40
36.0
 40
36.0
 40
37.0
 40
37.0
 40
37.0
 40
38.0
 40
38.0
 40
38.0
 40
39.0
 40
39.0
 40
39.0
 40
40.0
 40
40.0
 40
40.0
 40
41.0
 40
41.0
 40
41.0
 40
42.0
 40
42.0
 40
42.0
 40
43.0
 40
43.0
 40
43.0
 40
44.0
 40
44.0
 40
44.0
 40
45.0
 40
45.0
 40
45.0
 40
46.0
 40
46.0
 40
46.0
 40
47.0
 40
47.0
 40
47.0
 40
48.0
 40
48.0
 40
48.0
 40
49.0
 40
49.0
 40
49.0
 40
50.0
 40
50.0
 40
50.0
 40
51.0
 40
51.0
 40
51.0
 40
52.0
 40
52.0
 40
52.0
 40
53.0
 40
53.0
 40
53.0
 40
54.0
 40
54.0
 40
54.0
 40
55.0
 40
55.0
 40
55.0
 40
56.0
 40
56.0
 40
56.0
 40
57.0
 40
57.0
 40
57.0
 40
58.0
 40
58.0
 40
58.0
 40
59.0
 40
59.0
 40
59.0
 40
60.0
 40
60.0
 40
60.0
 40
61.0
 40
61.0
 40
61.0
 40
62.0
 40
62.0
 40
62.0
 40
63.0
 40
63.0
 40
63.0
 40
64.0
 40
64.0
 40
64.0
 40
65.0
 40
65.0
 40
65.0
 40
66.0
 40
66.0
 40
66.0
 40
66.0
 10
101.6945678456701
 20
-150.2195990292854
 10
101.6945678456701
 20
-150.2195990292854
 10
101.1361178675111
 20
-150.2195990292854
 10
101.1361178675111
 20
-150.2195990292854
 10
101.1254380715068
 20
-150.2640407610451
 10
101.116997587568
 20
-150.2957356395094
 10
101.1042507342725
 20
-150.3336316898471
 10
101.1297444408634
 20
-150.3336316898471
 10
101.1445583514499
 20
-150.3360432566868
 10
101.1509317780977
 20
-150.3360432566868
 10
101.1509317780977
 20
-150.3360432566868
 10
101.3392062463666
 20
-150.3360432566868
 10
101.3392062463666
 20
-150.3360432566868
 10
101.3392062463666
 20
-150.3360432566868
 10
101.713515870839
 20
-150.3360432566868
 10
101.713515870839
 20
-150.3360432566868
 10
101.7643310292464
 20
-150.3360432566868
 10
102.0478623876825
 20
-150.3232964033914
 10
102.0795572661467
 20
-150.3232964033914
 10
102.0774902088556
 20
-150.3508571672734
 10
102.0752508967902
 20
-150.3698051924422
 10
102.0752508967902
 20
-150.3994330136154
 10
102.073183839499
 20
-150.4311278920797
 10
102.073183839499
 20
-150.56652014465
 10
102.073183839499
 20
-150.594080908532
 10
102.073183839499
 20
-150.594080908532
 10
102.073183839499
 20
-150.8393717070818
 10
102.073183839499
 20
-150.8393717070818
 10
102.073183839499
 20
-150.8838134388415
 10
102.0774902088556
 20
-151.0805283910493
 10
102.0816243234379
 20
-151.2328016114973
 10
102.0816243234379
 20
-151.2328016114973
 10
101.855281550057
 20
-151.2328016114973
 10
101.855281550057
 20
-151.2328016114973
 10
101.855281550057
 20
-151.2328016114973
 10
101.8573486073481
 20
-151.1990396757419
 10
101.8573486073481
 20
-151.1990396757419
 10
101.8573486073481
 20
-151.1990396757419
 10
101.15506589268
 20
-151.1990396757419
 10
101.15506589268
 20
-151.1990396757419
 10
101.15506589268
 20
-151.1990396757419
 10
101.1571329499711
 20
-151.2328016114973
 10
101.1571329499711
 20
-151.2328016114973
 10
101.1571329499711
 20
-151.2328016114973
 10
100.9392306605291
 20
-151.2328016114973
 10
100.9392306605291
 20
-151.2328016114973
 10
100.9435370298856
 20
-151.1776800837334
 10
100.9435370298856
 20
-151.1652777399864
 10
100.9499104565333
 20
-151.0509005698762
 10
100.9519775138245
 20
-151.0233398059942
 10
100.9540445711156
 20
-150.890014610715
 10
100.9540445711156
 20
-150.8710665855461
 10
100.9540445711156
 20
-150.8710665855461
 10
100.9540445711156
 20
-150.6681504614649
 10
100.9540445711156
 20
-150.6681504614649
 10
100.814518203963
 20
-150.917575374597
 10
100.645191760863
 20
-151.048833512585
 10
100.5394273294658
 20
-151.1142903268047
 10
100.5394273294658
 20
-151.1142903268047
 10
100.3659667717835
 20
-150.9747639596521
 10
100.3659667717835
 20
-150.9747639596521
 10
100.4548502353029
 20
-150.924121056019
 10
100.5986829718121
 20
-150.8373046497906
 10
100.7361422816736
 20
-150.642656754874
 10
100.8272650572584
 20
-150.5155327314683
 10
100.8927218714782
 20
-150.3718722497334
 10
100.9266560620079
 20
-150.2195990292854
 10
100.6980739765616
 20
-150.2216660865765
 10
100.5182399922315
 20
-150.22786725845
 10
100.4231553568386
 20
-150.2299343157411
 10
100.4231553568386
 20
-150.2299343157411
 10
100.4231553568386
 20
-150.0525118982507
 10
100.4231553568386
 20
-150.0525118982507
 10
100.6198703090464
 20
-150.0587130701242
 10
100.9034016674825
 20
-150.0628471847065
 10
101.0536078306394
 20
-150.0628471847065
 10
101.0536078306394
 20
-150.0628471847065
 10
101.2672037507248
 20
-150.0628471847065
 10
101.2672037507248
 20
-150.0628471847065
 10
101.2672037507248
 20
-150.0628471847065
 10
101.2672037507248
 20
-149.9550156960182
 10
101.2672037507248
 20
-149.9550156960182
 10
101.2672037507248
 20
-149.9550156960182
 10
101.1213039569245
 20
-149.9550156960182
 10
101.1213039569245
 20
-149.9550156960182
 10
100.9519775138245
 20
-149.9550156960182
 10
100.7828233254987
 20
-149.9591498106005
 10
100.6155639396898
 20
-149.9656954920224
 10
100.6155639396898
 20
-149.9656954920224
 10
100.6155639396898
 20
-149.7944742464055
 10
100.6155639396898
 20
-149.7944742464055
 10
100.7700764722033
 20
-149.8048095328613
 10
100.956283883181
 20
-149.8048095328613
 10
101.1213039569245
 20
-149.8048095328613
 10
101.1213039569245
 20
-149.8048095328613
 10
101.2672037507248
 20
-149.8048095328613
 10
101.2672037507248
 20
-149.8048095328613
 10
101.2672037507248
 20
-149.8048095328613
 10
101.2672037507248
 20
-149.6862982481687
 10
101.2672037507248
 20
-149.6862982481687
 10
101.2672037507248
 20
-149.6862982481687
 10
101.1361178675111
 20
-149.6862982481687
 10
101.1361178675111
 20
-149.6862982481687
 10
101.0894368236859
 20
-149.6862982481687
 10
100.8863484448305
 20
-149.6949109868818
 10
100.8441460251362
 20
-149.6949109868818
 10
100.6410576462807
 20
-149.6990451014641
 10
100.5649210360567
 20
-149.7011121587553
 10
100.4865451137672
 20
-149.7031792160464
 10
100.4865451137672
 20
-149.7031792160464
 10
100.4865451137672
 20
-149.5192111171341
 10
100.4865451137672
 20
-149.5192111171341
 10
100.6007500291033
 20
-149.5278238558472
 10
100.645191760863
 20
-149.5278238558472
 10
101.0281141240485
 20
-149.5360920850118
 10
100.9647243671199
 20
-149.4410074496189
 10
100.9371636032379
 20
-149.4134466857369
 10
100.901162355417
 20
-149.3776176926903
 10
100.901162355417
 20
-149.3776176926903
 10
101.0768622251648
 20
-149.2949354010443
 10
101.0768622251648
 20
-149.2949354010443
 10
101.116997587568
 20
-149.3311089036394
 10
101.1614393193277
 20
-149.373483578108
 10
101.2355088722605
 20
-149.4833821240875
 10
101.2355088722605
 20
-149.4833821240875
 10
101.1213039569245
 20
-149.5385036518515
 10
101.1213039569245
 20
-149.5385036518515
 10
101.1213039569245
 20
-149.5385036518515
 10
101.1318114981545
 20
-149.5385036518515
 10
101.1318114981545
 20
-149.5385036518515
 10
101.1318114981545
 20
-149.5385036518515
 10
101.6544324832669
 20
-149.5385036518515
 10
101.6544324832669
 20
-149.5385036518515
 10
101.6544324832669
 20
-149.5385036518515
 10
101.5591755930998
 20
-149.4940619200917
 10
101.5591755930998
 20
-149.4940619200917
 10
101.5865641022075
 20
-149.4558213602055
 10
101.6437526872626
 20
-149.3755506353991
 10
101.6585665978492
 20
-149.3014810824663
 10
101.6585665978492
 20
-149.3014810824663
 10
101.8721625179347
 20
-149.3648708393949
 10
101.8721625179347
 20
-149.3648708393949
 10
101.8807752566478
 20
-149.366937896686
 10
101.9017903391079
 20
-149.3776176926903
 10
101.9017903391079
 20
-149.3986327751503
 10
101.9017903391079
 20
-149.4368733350366
 10
101.8363335248881
 20
-149.4368733350366
 10
101.817213244945
 20
-149.4368733350366
 10
101.806705703715
 20
-149.4558213602055
 10
101.7834513091895
 20
-149.4961289773829
 10
101.7538234880164
 20
-149.5360920850118
 10
102.1536268190796
 20
-149.5298909131383
 10
102.1832546402528
 20
-149.5278238558472
 10
102.2593912504768
 20
-149.5212781744252
 10
102.2593912504768
 20
-149.5212781744252
 10
102.2593912504768
 20
-149.7031792160464
 10
102.2593912504768
 20
-149.7031792160464
 10
102.2402709705337
 20
-149.7031792160464
 10
102.2149495187171
 20
-149.7011121587553
 10
101.9949801719839
 20
-149.6928439295906
 10
101.9441650135764
 20
-149.6907768722995
 10
101.7241956668432
 20
-149.6862982481687
 10
101.6797539350835
 20
-149.6862982481687
 10
101.6797539350835
 20
-149.6862982481687
 10
101.4639187029326
 20
-149.6862982481687
 10
101.4639187029326
 20
-149.6862982481687
 10
101.4639187029326
 20
-149.6862982481687
 10
101.4639187029326
 20
-149.8048095328613
 10
101.4639187029326
 20
-149.8048095328613
 10
101.4639187029326
 20
-149.8048095328613
 10
101.6373792606149
 20
-149.8048095328613
 10
101.6373792606149
 20
-149.8048095328613
 10
101.8003322770673
 20
-149.8048095328613
 10
101.9906738026273
 20
-149.8048095328613
 10
102.1472533924319
 20
-149.7944742464055
 10
102.1472533924319
 20
-149.7944742464055
 10
102.1472533924319
 20
-149.9656954920224
 10
102.1472533924319
 20
-149.9656954920224
 10
101.9377915869287
 20
-149.9570827533093
 10
101.741076634721
 20
-149.9550156960182
 10
101.6373792606149
 20
-149.9550156960182
 10
101.6373792606149
 20
-149.9550156960182
 10
101.4639187029326
 20
-149.9550156960182
 10
101.4639187029326
 20
-149.9550156960182
 10
101.4639187029326
 20
-149.9550156960182
 10
101.4639187029326
 20
-150.0628471847065
 10
101.4639187029326
 20
-150.0628471847065
 10
101.4639187029326
 20
-150.0628471847065
 10
101.6945678456701
 20
-150.0628471847065
 10
101.6945678456701
 20
-150.0628471847065
 10
101.8278930409493
 20
-150.0628471847065
 10
102.1155585139676
 20
-150.0587130701242
 10
102.3250203194708
 20
-150.0525118982507
 10
102.3250203194708
 20
-150.0525118982507
 10
102.3250203194708
 20
-150.2299343157411
 10
102.3250203194708
 20
-150.2299343157411
 10
102.1324394818453
 20
-150.2237331438677
 10
101.8192803022361
 20
-150.2195990292854
 10
101.6945678456701
 20
-150.2195990292854
 97
        0
 97
        1
330
11A
 75
     2
 76
     1
 98
        1
 10
0.0
 20
0.0
450
        0
451
        0
460
0.0
461
0.0
452
        0
462
0.0
453
        0
470

  0
SPLINE
  5
11C
330
10F
100
AcDbEntity
  8
レイヤー 1
100
AcDbSpline
210
0.0
220
0.0
230
1.0
 70
     9
 71
     3
 72
    29
 73
    25
 74
     0
 42
0.0000000001
 43
0.0000000001
 40
0.0
 40
0.0
 40
0.0
 40
0.0
 40
1.0
 40
1.0
 40
1.0
 40
2.0
 40
2.0
 40
2.0
 40
3.0
 40
3.0
 40
3.0
 40
4.0
 40
4.0
 40
4.0
 40
5.0
 40
5.0
 40
5.0
 40
6.0
 40
6.0
 40
6.0
 40
7.0
 40
7.0
 40
7.0
 40
8.0
 40
8.0
 40
8.0
 40
8.0
 10
103.5700778278401
 20
-149.6673502229998
 30
0.0
 10
103.5700778278401
 20
-149.6673502229998
 30
0.0
 10
103.2167832858277
 20
-149.6673502229998
 30
0.0
 10
103.2167832858277
 20
-149.6673502229998
 30
0.0
 10
103.1046454277829
 20
-149.6673502229998
 30
0.0
 10
102.964946805856
 20
-149.6735513948733
 30
0.0
 10
102.8571153171677
 20
-149.6862982481687
 30
0.0
 10
102.8571153171677
 20
-149.6862982481687
 30
0.0
 10
102.8571153171677
 20
-149.4516872456232
 30
0.0
 10
102.8571153171677
 20
-149.4516872456232
 30
0.0
 10
102.9756266018603
 20
-149.4665011562098
 30
0.0
 10
103.1595947007726
 20
-149.470635270792
 30
0.0
 10
103.2167832858277
 20
-149.470635270792
 30
0.0
 10
103.2167832858277
 20
-149.470635270792
 30
0.0
 10
103.5700778278401
 20
-149.470635270792
 30
0.0
 10
103.5700778278401
 20
-149.470635270792
 30
0.0
 10
103.589025853009
 20
-149.470635270792
 30
0.0
 10
103.7921142318644
 20
-149.470635270792
 30
0.0
 10
103.9338799110825
 20
-149.4516872456232
 30
0.0
 10
103.9338799110825
 20
-149.4516872456232
 30
0.0
 10
103.9338799110825
 20
-149.6862982481687
 30
0.0
 10
103.9338799110825
 20
-149.6862982481687
 30
0.0
 10
103.7773003212779
 20
-149.6673502229998
 30
0.0
 10
103.5869587957178
 20
-149.6673502229998
 30
0.0
 10
103.5700778278401
 20
-149.6673502229998
 30
0.0
  0
SPLINE
  5
11D
330
10F
100
AcDbEntity
  8
レイヤー 1
100
AcDbSpline
210
0.0
220
0.0
230
1.0
 70
     9
 71
     3
 72
    47
 73
    43
 74
     0
 42
0.0000000001
 43
0.0000000001
 40
0.0
 40
0.0
 40
0.0
 40
0.0
 40
1.0
 40
1.0
 40
1.0
 40
2.0
 40
2.0
 40
2.0
 40
3.0
 40
3.0
 40
3.0
 40
4.0
 40
4.0
 40
4.0
 40
5.0
 40
5.0
 40
5.0
 40
6.0
 40
6.0
 40
6.0
 40
7.0
 40
7.0
 40
7.0
 40
8.0
 40
8.0
 40
8.0
 40
9.0
 40
9.0
 40
9.0
 40
10.0
 40
10.0
 40
10.0
 40
11.0
 40
11.0
 40
11.0
 40
12.0
 40
12.0
 40
12.0
 40
13.0
 40
13.0
 40
13.0
 40
14.0
 40
14.0
 40
14.0
 40
14.0
 10
103.6715358898807
 20
-150.1961723799857
 30
0.0
 10
103.6715358898807
 20
-150.1961723799857
 30
0.0
 10
103.5700778278401
 20
-150.1961723799857
 30
0.0
 10
103.5700778278401
 20
-150.1961723799857
 30
0.0
 10
103.5700778278401
 20
-150.282988786214
 30
0.0
 10
103.5488904906058
 20
-150.6722845760472
 30
0.0
 10
103.3521755383981
 20
-150.8924261775547
 30
0.0
 10
103.1997300631757
 20
-151.0615803658804
 30
0.0
 10
102.992507569738
 20
-151.1311712946825
 30
0.0
 10
102.9079304755751
 20
-151.1587320585645
 30
0.0
 10
102.9079304755751
 20
-151.1587320585645
 30
0.0
 10
102.7132825806585
 20
-150.9916449275299
 30
0.0
 10
102.7132825806585
 20
-150.9916449275299
 30
0.0
 10
102.8106065281168
 20
-150.9788980742344
 30
0.0
 10
102.9861341430903
 20
-150.9558159344832
 30
0.0
 10
103.1744086113592
 20
-150.7673692114401
 30
0.0
 10
103.248478164292
 20
-150.6953667157984
 30
0.0
 10
103.3521755383981
 20
-150.5558403486458
 30
0.0
 10
103.3521755383981
 20
-150.1961723799857
 30
0.0
 10
103.3521755383981
 20
-150.1961723799857
 30
0.0
 10
103.1215263956606
 20
-150.1961723799857
 30
0.0
 10
103.1215263956606
 20
-150.1961723799857
 30
0.0
 10
102.9353189846828
 20
-150.1961723799857
 30
0.0
 10
102.7491115737051
 20
-150.2006510041165
 30
0.0
 10
102.5630764175016
 20
-150.2151204051545
 30
0.0
 10
102.5630764175016
 20
-150.2151204051545
 30
0.0
 10
102.5630764175016
 20
-149.9953233131956
 30
0.0
 10
102.5630764175016
 20
-149.9953233131956
 30
0.0
 10
102.7513508857705
 20
-150.0101372237821
 30
0.0
 10
103.0369493014977
 20
-150.0142713383645
 30
0.0
 10
103.1215263956606
 20
-150.0142713383645
 30
0.0
 10
103.1215263956606
 20
-150.0142713383645
 30
0.0
 10
103.6715358898807
 20
-150.0142713383645
 30
0.0
 10
103.6715358898807
 20
-150.0142713383645
 30
0.0
 10
103.6906561698238
 20
-150.0142713383645
 30
0.0
 10
104.0079494640154
 20
-150.0142713383645
 30
0.0
 10
104.2363592946874
 20
-149.9953233131956
 30
0.0
 10
104.2363592946874
 20
-149.9953233131956
 30
0.0
 10
104.2363592946874
 20
-150.2151204051545
 30
0.0
 10
104.2363592946874
 20
-150.2151204051545
 30
0.0
 10
104.0480848264185
 20
-150.2006510041165
 30
0.0
 10
103.8598103581496
 20
-150.1961723799857
 30
0.0
 10
103.6715358898807
 20
-150.1961723799857
 30
0.0
  0
HATCH
  5
11E
330
10F
100
AcDbEntity
  8
レイヤー 1
 62
    18
420
        0
440
 33554687
100
AcDbHatch
 10
0.0
 20
0.0
 30
0.0
210
0.0
220
0.0
230
1.0
  2
SOLID
 70
     1
 71
     1
 91
        2
 92
        1
 93
        1
 72
     4
 94
        3
 73
     0
 74
     0
 95
       29
 96
       25
 40
0.0
 40
0.0
 40
0.0
 40
0.0
 40
1.0
 40
1.0
 40
1.0
 40
2.0
 40
2.0
 40
2.0
 40
3.0
 40
3.0
 40
3.0
 40
4.0
 40
4.0
 40
4.0
 40
5.0
 40
5.0
 40
5.0
 40
6.0
 40
6.0
 40
6.0
 40
7.0
 40
7.0
 40
7.0
 40
8.0
 40
8.0
 40
8.0
 40
8.0
 10
103.5700778278401
 20
-149.6673502229998
 10
103.5700778278401
 20
-149.6673502229998
 10
103.2167832858277
 20
-149.6673502229998
 10
103.2167832858277
 20
-149.6673502229998
 10
103.1046454277829
 20
-149.6673502229998
 10
102.964946805856
 20
-149.6735513948733
 10
102.8571153171677
 20
-149.6862982481687
 10
102.8571153171677
 20
-149.6862982481687
 10
102.8571153171677
 20
-149.4516872456232
 10
102.8571153171677
 20
-149.4516872456232
 10
102.9756266018603
 20
-149.4665011562098
 10
103.1595947007726
 20
-149.470635270792
 10
103.2167832858277
 20
-149.470635270792
 10
103.2167832858277
 20
-149.470635270792
 10
103.5700778278401
 20
-149.470635270792
 10
103.5700778278401
 20
-149.470635270792
 10
103.589025853009
 20
-149.470635270792
 10
103.7921142318644
 20
-149.470635270792
 10
103.9338799110825
 20
-149.4516872456232
 10
103.9338799110825
 20
-149.4516872456232
 10
103.9338799110825
 20
-149.6862982481687
 10
103.9338799110825
 20
-149.6862982481687
 10
103.7773003212779
 20
-149.6673502229998
 10
103.5869587957178
 20
-149.6673502229998
 10
103.5700778278401
 20
-149.6673502229998
 97
        0
 97
        1
330
11C
 92
        1
 93
        1
 72
     4
 94
        3
 73
     0
 74
     0
 95
       47
 96
       43
 40
0.0
 40
0.0
 40
0.0
 40
0.0
 40
1.0
 40
1.0
 40
1.0
 40
2.0
 40
2.0
 40
2.0
 40
3.0
 40
3.0
 40
3.0
 40
4.0
 40
4.0
 40
4.0
 40
5.0
 40
5.0
 40
5.0
 40
6.0
 40
6.0
 40
6.0
 40
7.0
 40
7.0
 40
7.0
 40
8.0
 40
8.0
 40
8.0
 40
9.0
 40
9.0
 40
9.0
 40
10.0
 40
10.0
 40
10.0
 40
11.0
 40
11.0
 40
11.0
 40
12.0
 40
12.0
 40
12.0
 40
13.0
 40
13.0
 40
13.0
 40
14.0
 40
14.0
 40
14.0
 40
14.0
 10
103.6715358898807
 20
-150.1961723799857
 10
103.6715358898807
 20
-150.1961723799857
 10
103.5700778278401
 20
-150.1961723799857
 10
103.5700778278401
 20
-150.1961723799857
 10
103.5700778278401
 20
-150.282988786214
 10
103.5488904906058
 20
-150.6722845760472
 10
103.3521755383981
 20
-150.8924261775547
 10
103.1997300631757
 20
-151.0615803658804
 10
102.992507569738
 20
-151.1311712946825
 10
102.9079304755751
 20
-151.1587320585645
 10
102.9079304755751
 20
-151.1587320585645
 10
102.7132825806585
 20
-150.9916449275299
 10
102.7132825806585
 20
-150.9916449275299
 10
102.8106065281168
 20
-150.9788980742344
 10
102.9861341430903
 20
-150.9558159344832
 10
103.1744086113592
 20
-150.7673692114401
 10
103.248478164292
 20
-150.6953667157984
 10
103.3521755383981
 20
-150.5558403486458
 10
103.3521755383981
 20
-150.1961723799857
 10
103.3521755383981
 20
-150.1961723799857
 10
103.1215263956606
 20
-150.1961723799857
 10
103.1215263956606
 20
-150.1961723799857
 10
102.9353189846828
 20
-150.1961723799857
 10
102.7491115737051
 20
-150.2006510041165
 10
102.5630764175016
 20
-150.2151204051545
 10
102.5630764175016
 20
-150.2151204051545
 10
102.5630764175016
 20
-149.9953233131956
 10
102.5630764175016
 20
-149.9953233131956
 10
102.7513508857705
 20
-150.0101372237821
 10
103.0369493014977
 20
-150.0142713383645
 10
103.1215263956606
 20
-150.0142713383645
 10
103.1215263956606
 20
-150.0142713383645
 10
103.6715358898807
 20
-150.0142713383645
 10
103.6715358898807
 20
-150.0142713383645
 10
103.6906561698238
 20
-150.0142713383645
 10
104.0079494640154
 20
-150.0142713383645
 10
104.2363592946874
 20
-149.9953233131956
 10
104.2363592946874
 20
-149.9953233131956
 10
104.2363592946874
 20
-150.2151204051545
 10
104.2363592946874
 20
-150.2151204051545
 10
104.0480848264185
 20
-150.2006510041165
 10
103.8598103581496
 20
-150.1961723799857
 10
103.6715358898807
 20
-150.1961723799857
 97
        0
 97
        1
330
11D
 75
     2
 76
     1
 98
        1
 10
0.0
 20
0.0
450
        0
451
        0
460
0.0
461
0.0
452
        0
462
0.0
453
        0
470

  0
SPLINE
  5
11F
330
10F
100
AcDbEntity
  8
レイヤー 1
100
AcDbSpline
210
0.0
220
0.0
230
1.0
 70
     9
 71
     3
 72
    29
 73
    25
 74
     0
 42
0.0000000001
 43
0.0000000001
 40
0.0
 40
0.0
 40
0.0
 40
0.0
 40
1.0
 40
1.0
 40
1.0
 40
2.0
 40
2.0
 40
2.0
 40
3.0
 40
3.0
 40
3.0
 40
4.0
 40
4.0
 40
4.0
 40
5.0
 40
5.0
 40
5.0
 40
6.0
 40
6.0
 40
6.0
 40
7.0
 40
7.0
 40
7.0
 40
8.0
 40
8.0
 40
8.0
 40
8.0
 10
105.5174180508776
 20
-150.359125396438
 30
0.0
 10
105.5174180508776
 20
-150.359125396438
 30
0.0
 10
105.0328653708772
 20
-150.359125396438
 30
0.0
 10
105.0328653708772
 20
-150.359125396438
 30
0.0
 10
105.0053046069952
 20
-150.359125396438
 30
0.0
 10
104.6880113128037
 20
-150.359125396438
 30
0.0
 10
104.4764824500093
 20
-150.3846191030288
 30
0.0
 10
104.4764824500093
 20
-150.3846191030288
 30
0.0
 10
104.4764824500093
 20
-150.1537977055171
 30
0.0
 10
104.4764824500093
 20
-150.1537977055171
 30
0.0
 10
104.6351290971051
 20
-150.1772243548168
 30
0.0
 10
104.8254706226651
 20
-150.179291412108
 30
0.0
 10
105.0328653708772
 20
-150.179291412108
 30
0.0
 10
105.0328653708772
 20
-150.179291412108
 30
0.0
 10
105.5174180508776
 20
-150.179291412108
 30
0.0
 10
105.5174180508776
 20
-150.179291412108
 30
0.0
 10
105.703453207081
 20
-150.179291412108
 30
0.0
 10
105.8894883632846
 20
-150.1772243548168
 30
0.0
 10
106.0738009717454
 20
-150.1537977055171
 30
0.0
 10
106.0738009717454
 20
-150.1537977055171
 30
0.0
 10
106.0738009717454
 20
-150.3846191030288
 30
0.0
 10
106.0738009717454
 20
-150.3846191030288
 30
0.0
 10
105.8894883632846
 20
-150.3611924537291
 30
0.0
 10
105.6421305074436
 20
-150.359125396438
 30
0.0
 10
105.5174180508776
 20
-150.359125396438
 30
0.0
  0
HATCH
  5
120
330
10F
100
AcDbEntity
  8
レイヤー 1
 62
    18
420
        0
440
 33554687
100
AcDbHatch
 10
0.0
 20
0.0
 30
0.0
210
0.0
220
0.0
230
1.0
  2
SOLID
 70
     1
 71
     1
 91
        1
 92
        1
 93
        1
 72
     4
 94
        3
 73
     0
 74
     0
 95
       29
 96
       25
 40
0.0
 40
0.0
 40
0.0
 40
0.0
 40
1.0
 40
1.0
 40
1.0
 40
2.0
 40
2.0
 40
2.0
 40
3.0
 40
3.0
 40
3.0
 40
4.0
 40
4.0
 40
4.0
 40
5.0
 40
5.0
 40
5.0
 40
6.0
 40
6.0
 40
6.0
 40
7.0
 40
7.0
 40
7.0
 40
8.0
 40
8.0
 40
8.0
 40
8.0
 10
105.5174180508776
 20
-150.359125396438
 10
105.5174180508776
 20
-150.359125396438
 10
105.0328653708772
 20
-150.359125396438
 10
105.0328653708772
 20
-150.359125396438
 10
105.0053046069952
 20
-150.359125396438
 10
104.6880113128037
 20
-150.359125396438
 10
104.4764824500093
 20
-150.3846191030288
 10
104.4764824500093
 20
-150.3846191030288
 10
104.4764824500093
 20
-150.1537977055171
 10
104.4764824500093
 20
-150.1537977055171
 10
104.6351290971051
 20
-150.1772243548168
 10
104.8254706226651
 20
-150.179291412108
 10
105.0328653708772
 20
-150.179291412108
 10
105.0328653708772
 20
-150.179291412108
 10
105.5174180508776
 20
-150.179291412108
 10
105.5174180508776
 20
-150.179291412108
 10
105.703453207081
 20
-150.179291412108
 10
105.8894883632846
 20
-150.1772243548168
 10
106.0738009717454
 20
-150.1537977055171
 10
106.0738009717454
 20
-150.1537977055171
 10
106.0738009717454
 20
-150.3846191030288
 10
106.0738009717454
 20
-150.3846191030288
 10
105.8894883632846
 20
-150.3611924537291
 10
105.6421305074436
 20
-150.359125396438
 10
105.5174180508776
 20
-150.359125396438
 97
        0
 97
        1
330
11F
 75
     2
 76
     1
 98
        1
 10
0.0
 20
0.0
450
        0
451
        0
460
0.0
461
0.0
452
        0
462
0.0
453
        0
470

  0
SPLINE
  5
121
330
10F
100
AcDbEntity
  8
レイヤー 1
100
AcDbSpline
210
0.0
220
0.0
230
1.0
 70
     9
 71
     3
 72
    47
 73
    43
 74
     0
 42
0.0000000001
 43
0.0000000001
 40
0.0
 40
0.0
 40
0.0
 40
0.0
 40
1.0
 40
1.0
 40
1.0
 40
2.0
 40
2.0
 40
2.0
 40
3.0
 40
3.0
 40
3.0
 40
4.0
 40
4.0
 40
4.0
 40
5.0
 40
5.0
 40
5.0
 40
6.0
 40
6.0
 40
6.0
 40
7.0
 40
7.0
 40
7.0
 40
8.0
 40
8.0
 40
8.0
 40
9.0
 40
9.0
 40
9.0
 40
10.0
 40
10.0
 40
10.0
 40
11.0
 40
11.0
 40
11.0
 40
12.0
 40
12.0
 40
12.0
 40
13.0
 40
13.0
 40
13.0
 40
14.0
 40
14.0
 40
14.0
 40
14.0
 10
107.7374375815726
 20
-149.7648464252324
 30
0.0
 10
107.667502143222
 20
-150.0438991595376
 30
0.0
 10
107.591365532998
 20
-150.3484456004337
 30
0.0
 10
107.2785508629373
 20
-150.6805528052118
 30
0.0
 10
107.0415282935521
 20
-150.9303222278924
 30
0.0
 10
106.7962374950023
 20
-151.0298854874161
 30
0.0
 10
106.6904730636051
 20
-151.0719156523362
 30
0.0
 10
106.6904730636051
 20
-151.0719156523362
 30
0.0
 10
106.4958251686885
 20
-150.890014610715
 30
0.0
 10
106.4958251686885
 20
-150.890014610715
 30
0.0
 10
106.681860324892
 20
-150.8435058216641
 30
0.0
 10
107.0435953508432
 20
-150.7504882435624
 30
0.0
 10
107.3398735625747
 20
-150.255428022332
 30
0.0
 10
107.5004150121874
 20
-149.9887776317736
 30
0.0
 10
107.5131618654828
 20
-149.8154893288655
 30
0.0
 10
107.5217746041959
 20
-149.724538808055
 30
0.0
 10
107.5217746041959
 20
-149.724538808055
 30
0.0
 10
107.0160345869612
 20
-149.724538808055
 30
0.0
 10
107.0160345869612
 20
-149.724538808055
 30
0.0
 10
106.8975233022687
 20
-149.724538808055
 30
0.0
 10
106.4765326339711
 20
-149.7434868332238
 30
0.0
 10
106.3242594135231
 20
-149.7541666292281
 30
0.0
 10
106.3242594135231
 20
-149.7541666292281
 30
0.0
 10
106.3242594135231
 20
-149.5447048237249
 30
0.0
 10
106.3242594135231
 20
-149.5447048237249
 30
0.0
 10
106.4661973475154
 20
-149.5574516770203
 30
0.0
 10
106.7431830245295
 20
-149.5615857916026
 30
0.0
 10
106.8596272519309
 20
-149.5615857916026
 30
0.0
 10
106.8596272519309
 20
-149.5615857916026
 30
0.0
 10
107.2148165964602
 20
-149.5615857916026
 30
0.0
 10
107.2148165964602
 20
-149.5615857916026
 30
0.0
 10
107.2423773603422
 20
-149.5615857916026
 30
0.0
 10
107.4032633195033
 20
-149.5595187343115
 30
0.0
 10
107.5131618654828
 20
-149.5447048237249
 30
0.0
 10
107.5703504505379
 20
-149.5385036518515
 30
0.0
 10
107.5872314184157
 20
-149.5192111171341
 30
0.0
 10
107.6106580677154
 20
-149.4961289773829
 30
0.0
 10
107.6106580677154
 20
-149.4961289773829
 30
0.0
 10
107.79876028121
 20
-149.6463351405398
 30
0.0
 10
107.79876028121
 20
-149.6463351405398
 30
0.0
 10
107.7839463706234
 20
-149.6759629617129
 30
0.0
 10
107.7736110841677
 20
-149.6949109868818
 30
0.0
 10
107.7374375815726
 20
-149.7648464252324
 30
0.0
  0
HATCH
  5
122
330
10F
100
AcDbEntity
  8
レイヤー 1
 62
    18
420
        0
440
 33554687
100
AcDbHatch
 10
0.0
 20
0.0
 30
0.0
210
0.0
220
0.0
230
1.0
  2
SOLID
 70
     1
 71
     1
 91
        1
 92
        1
 93
        1
 72
     4
 94
        3
 73
     0
 74
     0
 95
       47
 96
       43
 40
0.0
 40
0.0
 40
0.0
 40
0.0
 40
1.0
 40
1.0
 40
1.0
 40
2.0
 40
2.0
 40
2.0
 40
3.0
 40
3.0
 40
3.0
 40
4.0
 40
4.0
 40
4.0
 40
5.0
 40
5.0
 40
5.0
 40
6.0
 40
6.0
 40
6.0
 40
7.0
 40
7.0
 40
7.0
 40
8.0
 40
8.0
 40
8.0
 40
9.0
 40
9.0
 40
9.0
 40
10.0
 40
10.0
 40
10.0
 40
11.0
 40
11.0
 40
11.0
 40
12.0
 40
12.0
 40
12.0
 40
13.0
 40
13.0
 40
13.0
 40
14.0
 40
14.0
 40
14.0
 40
14.0
 10
107.7374375815726
 20
-149.7648464252324
 10
107.667502143222
 20
-150.0438991595376
 10
107.591365532998
 20
-150.3484456004337
 10
107.2785508629373
 20
-150.6805528052118
 10
107.0415282935521
 20
-150.9303222278924
 10
106.7962374950023
 20
-151.0298854874161
 10
106.6904730636051
 20
-151.0719156523362
 10
106.6904730636051
 20
-151.0719156523362
 10
106.4958251686885
 20
-150.890014610715
 10
106.4958251686885
 20
-150.890014610715
 10
106.681860324892
 20
-150.8435058216641
 10
107.0435953508432
 20
-150.7504882435624
 10
107.3398735625747
 20
-150.255428022332
 10
107.5004150121874
 20
-149.9887776317736
 10
107.5131618654828
 20
-149.8154893288655
 10
107.5217746041959
 20
-149.724538808055
 10
107.5217746041959
 20
-149.724538808055
 10
107.0160345869612
 20
-149.724538808055
 10
107.0160345869612
 20
-149.724538808055
 10
106.8975233022687
 20
-149.724538808055
 10
106.4765326339711
 20
-149.7434868332238
 10
106.3242594135231
 20
-149.7541666292281
 10
106.3242594135231
 20
-149.7541666292281
 10
106.3242594135231
 20
-149.5447048237249
 10
106.3242594135231
 20
-149.5447048237249
 10
106.4661973475154
 20
-149.5574516770203
 10
106.7431830245295
 20
-149.5615857916026
 10
106.8596272519309
 20
-149.5615857916026
 10
106.8596272519309
 20
-149.5615857916026
 10
107.2148165964602
 20
-149.5615857916026
 10
107.2148165964602
 20
-149.5615857916026
 10
107.2423773603422
 20
-149.5615857916026
 10
107.4032633195033
 20
-149.5595187343115
 10
107.5131618654828
 20
-149.5447048237249
 10
107.5703504505379
 20
-149.5385036518515
 10
107.5872314184157
 20
-149.5192111171341
 10
107.6106580677154
 20
-149.4961289773829
 10
107.6106580677154
 20
-149.4961289773829
 10
107.79876028121
 20
-149.6463351405398
 10
107.79876028121
 20
-149.6463351405398
 10
107.7839463706234
 20
-149.6759629617129
 10
107.7736110841677
 20
-149.6949109868818
 10
107.7374375815726
 20
-149.7648464252324
 97
        0
 97
        1
330
121
 75
     2
 76
     1
 98
        1
 10
0.0
 20
0.0
450
        0
451
        0
460
0.0
461
0.0
452
        0
462
0.0
453
        0
470

  0
SPLINE
  5
123
330
10F
100
AcDbEntity
  8
レイヤー 1
100
AcDbSpline
210
0.0
220
0.0
230
1.0
 70
    11
 71
     3
 72
    17
 73
    13
 74
     0
 42
0.0000000001
 43
0.0000000001
 40
0.0
 40
0.0
 40
0.0
 40
0.0
 40
1.0
 40
1.0
 40
1.0
 40
2.0
 40
2.0
 40
2.0
 40
3.0
 40
3.0
 40
3.0
 40
4.0
 40
4.0
 40
4.0
 40
4.0
 10
108.1277669000514
 20
-149.5467718810161
 30
0.0
 10
108.1277669000514
 20
-149.6060275233624
 30
0.0
 10
108.1742756891022
 20
-149.6525363124133
 30
0.0
 10
108.2335313314485
 20
-149.6525363124133
 30
0.0
 10
108.2927869737948
 20
-149.6525363124133
 30
0.0
 10
108.3413628201369
 20
-149.6060275233624
 30
0.0
 10
108.3413628201369
 20
-149.5467718810161
 30
0.0
 10
108.3413628201369
 20
-149.4875162386698
 30
0.0
 10
108.2927869737948
 20
-149.4389403923277
 30
0.0
 10
108.2335313314485
 20
-149.4389403923277
 30
0.0
 10
108.1742756891022
 20
-149.4389403923277
 30
0.0
 10
108.1277669000514
 20
-149.4875162386698
 30
0.0
 10
108.1277669000514
 20
-149.5467718810161
 30
0.0
  0
SPLINE
  5
124
330
10F
100
AcDbEntity
  8
レイヤー 1
100
AcDbSpline
210
0.0
220
0.0
230
1.0
 70
     9
 71
     3
 72
    17
 73
    13
 74
     0
 42
0.0000000001
 43
0.0000000001
 40
0.0
 40
0.0
 40
0.0
 40
0.0
 40
1.0
 40
1.0
 40
1.0
 40
2.0
 40
2.0
 40
2.0
 40
3.0
 40
3.0
 40
3.0
 40
4.0
 40
4.0
 40
4.0
 40
4.0
 10
108.4429931369517
 20
-149.5467718810161
 30
0.0
 10
108.4429931369517
 20
-149.6611490511264
 30
0.0
 10
108.34997555885
 20
-149.7562336865193
 30
0.0
 10
108.2335313314485
 20
-149.7562336865193
 30
0.0
 10
108.1191541613383
 20
-149.7562336865193
 30
0.0
 10
108.0240695259454
 20
-149.6611490511264
 30
0.0
 10
108.0240695259454
 20
-149.5467718810161
 30
0.0
 10
108.0240695259454
 20
-149.4303276536146
 30
0.0
 10
108.1191541613383
 20
-149.3373100755129
 30
0.0
 10
108.2335313314485
 20
-149.3373100755129
 30
0.0
 10
108.3479085015588
 20
-149.3373100755129
 30
0.0
 10
108.4429931369517
 20
-149.4303276536146
 30
0.0
 10
108.4429931369517
 20
-149.5467718810161
 30
0.0
  0
HATCH
  5
125
330
10F
100
AcDbEntity
  8
レイヤー 1
 62
    18
420
        0
440
 33554687
100
AcDbHatch
 10
0.0
 20
0.0
 30
0.0
210
0.0
220
0.0
230
1.0
  2
SOLID
 70
     1
 71
     1
 91
        2
 92
        1
 93
        1
 72
     4
 94
        3
 73
     0
 74
     0
 95
       17
 96
       13
 40
0.0
 40
0.0
 40
0.0
 40
0.0
 40
1.0
 40
1.0
 40
1.0
 40
2.0
 40
2.0
 40
2.0
 40
3.0
 40
3.0
 40
3.0
 40
4.0
 40
4.0
 40
4.0
 40
4.0
 10
108.1277669000514
 20
-149.5467718810161
 10
108.1277669000514
 20
-149.6060275233624
 10
108.1742756891022
 20
-149.6525363124133
 10
108.2335313314485
 20
-149.6525363124133
 10
108.2927869737948
 20
-149.6525363124133
 10
108.3413628201369
 20
-149.6060275233624
 10
108.3413628201369
 20
-149.5467718810161
 10
108.3413628201369
 20
-149.4875162386698
 10
108.2927869737948
 20
-149.4389403923277
 10
108.2335313314485
 20
-149.4389403923277
 10
108.1742756891022
 20
-149.4389403923277
 10
108.1277669000514
 20
-149.4875162386698
 10
108.1277669000514
 20
-149.5467718810161
 97
        0
 97
        1
330
123
 92
        1
 93
        1
 72
     4
 94
        3
 73
     0
 74
     0
 95
       17
 96
       13
 40
0.0
 40
0.0
 40
0.0
 40
0.0
 40
1.0
 40
1.0
 40
1.0
 40
2.0
 40
2.0
 40
2.0
 40
3.0
 40
3.0
 40
3.0
 40
4.0
 40
4.0
 40
4.0
 40
4.0
 10
108.4429931369517
 20
-149.5467718810161
 10
108.4429931369517
 20
-149.6611490511264
 10
108.34997555885
 20
-149.7562336865193
 10
108.2335313314485
 20
-149.7562336865193
 10
108.1191541613383
 20
-149.7562336865193
 10
108.0240695259454
 20
-149.6611490511264
 10
108.0240695259454
 20
-149.5467718810161
 10
108.0240695259454
 20
-149.4303276536146
 10
108.1191541613383
 20
-149.3373100755129
 10
108.2335313314485
 20
-149.3373100755129
 10
108.3479085015588
 20
-149.3373100755129
 10
108.4429931369517
 20
-149.4303276536146
 10
108.4429931369517
 20
-149.5467718810161
 97
        0
 97
        1
330
124
 75
     2
 76
     1
 98
        1
 10
0.0
 20
0.0
450
        0
451
        0
460
0.0
461
0.0
452
        0
462
0.0
453
        0
470

  0
ENDBLK
  5
112
330
10F
100
AcDbEntity
  8
0
100
AcDbBlockEnd
  0
ENDSEC
  0
SECTION
  2
ENTITIES
  0
LINE
  5
79
330
70
100
AcDbEntity
  8
レイヤー 1
 62
   250
420
  2299925
370
    25
100
AcDbLine
 10
121.9387069232005
 20
-153.9275271726621
 30
0.0
 11
110.93887129471
 21
-153.9275271726621
 31
0.0
  0
LINE
  5
7A
330
70
100
AcDbEntity
  8
レイヤー 1
 62
   250
420
  2299925
370
    25
100
AcDbLine
 10
90.93732430499196
 20
-145.4278052303425
 30
0.0
 11
90.93732430499196
 21
-145.9280088413287
 31
0.0
  0
LINE
  5
7B
330
70
100
AcDbEntity
  8
レイヤー 1
 62
   250
420
  2299925
370
    25
100
AcDbLine
 10
110.93887129471
 20
-145.9280088413287
 30
0.0
 11
90.93732430499196
 21
-145.9280088413287
 31
0.0
  0
LINE
  5
7C
330
70
100
AcDbEntity
  8
レイヤー 1
 62
   250
420
  2299925
370
    25
100
AcDbLine
 10
90.93732430499196
 20
-145.4278052303425
 30
0.0
 11
91.45132151410102
 21
-145.8098635635805
 31
0.0
  0
LINE
  5
7D
330
70
100
AcDbEntity
  8
レイヤー 1
 62
   250
420
  2299925
370
    25
100
AcDbLine
 10
91.45132151410102
 20
-145.8098635635805
 30
0.0
 11
91.93639094617031
 21
-145.392315785907
 31
0.0
  0
LINE
  5
7E
330
70
100
AcDbEntity
  8
レイヤー 1
 62
   250
420
  2299925
370
    25
100
AcDbLine
 10
92.45042343305625
 20
-145.7743741191453
 30
0.0
 11
92.93616314288623
 21
-145.3564735636938
 31
0.0
  0
LINE
  5
7F
330
70
100
AcDbEntity
  8
レイヤー 1
 62
   250
420
  2299925
370
    25
100
AcDbLine
 10
91.93639094617031
 20
-145.392315785907
 30
0.0
 11
92.45042343305625
 21
-145.7743741191453
 31
0.0
  0
LINE
  5
80
330
70
100
AcDbEntity
  8
レイヤー 1
 62
   250
420
  2299925
370
    25
100
AcDbLine
 10
92.93616314288623
 20
-145.3564735636938
 30
0.0
 11
93.45019562977217
 21
-145.7385318969321
 31
0.0
  0
LINE
  5
81
330
70
100
AcDbEntity
  8
レイヤー 1
 62
   250
420
  2299925
370
    25
100
AcDbLine
 10
93.45019562977217
 20
-145.7385318969321
 30
0.0
 11
93.93526506184144
 21
-145.3209841192583
 31
0.0
  0
LINE
  5
82
330
70
100
AcDbEntity
  8
レイヤー 1
 62
   250
420
  2299925
370
    25
100
AcDbLine
 10
93.93526506184144
 20
-145.3209841192583
 30
0.0
 11
94.4492622709505
 21
-145.702724952496
 31
0.0
  0
LINE
  5
83
330
70
100
AcDbEntity
  8
レイヤー 1
 62
   250
420
  2299925
370
    25
100
AcDbLine
 10
94.4492622709505
 20
-145.702724952496
 30
0.0
 11
94.93468448078859
 21
-145.2851771748225
 31
0.0
  0
LINE
  5
84
330
70
100
AcDbEntity
  8
レイヤー 1
 62
   250
420
  2299925
370
    25
100
AcDbLine
 10
94.93468448078859
 20
-145.2851771748225
 30
0.0
 11
95.44868168989765
 21
-145.6668827302828
 31
0.0
  0
LINE
  5
85
330
70
100
AcDbEntity
  8
レイヤー 1
 62
   250
420
  2299925
370
    25
100
AcDbLine
 10
95.44868168989765
 20
-145.6668827302828
 30
0.0
 11
95.93410389973572
 21
-145.2493349526093
 31
0.0
  0
LINE
  5
86
330
70
100
AcDbEntity
  8
レイヤー 1
 62
   250
420
  2299925
370
    25
100
AcDbLine
 10
95.93410389973572
 20
-145.2493349526093
 30
0.0
 11
96.44810110884478
 21
-145.6313932858473
 31
0.0
  0
LINE
  5
87
330
70
100
AcDbEntity
  8
レイヤー 1
 62
   250
420
  2299925
370
    25
100
AcDbLine
 10
96.44810110884478
 20
-145.6313932858473
 30
0.0
 11
96.93352331868284
 21
-145.2138455081738
 31
0.0
  0
LINE
  5
88
330
70
100
AcDbEntity
  8
レイヤー 1
 62
   250
420
  2299925
370
    25
100
AcDbLine
 10
96.93352331868284
 20
-145.2138455081738
 30
0.0
 11
97.44716775002313
 21
-145.5959038414118
 31
0.0
  0
LINE
  5
89
330
70
100
AcDbEntity
  8
レイヤー 1
 62
   250
420
  2299925
370
    25
100
AcDbLine
 10
97.44716775002313
 20
-145.5959038414118
 30
0.0
 11
97.93294273762997
 21
-145.1780385637387
 31
0.0
  0
LINE
  5
8A
330
70
100
AcDbEntity
  8
レイヤー 1
 62
   250
420
  2299925
370
    25
100
AcDbLine
 10
98.44693994673903
 20
-145.5600968969761
 30
0.0
 11
98.93200937880866
 21
-145.1425491193023
 31
0.0
  0
LINE
  5
8B
330
70
100
AcDbEntity
  8
レイヤー 1
 62
   250
420
  2299925
370
    25
100
AcDbLine
 10
97.93294273762997
 20
-145.1780385637387
 30
0.0
 11
98.44693994673903
 21
-145.5600968969761
 31
0.0
  0
LINE
  5
8C
330
70
100
AcDbEntity
  8
レイヤー 1
 62
   250
420
  2299925
370
    25
100
AcDbLine
 10
98.93200937880866
 20
-145.1425491193023
 30
0.0
 11
99.44604186569428
 21
-145.5242546747628
 31
0.0
  0
LINE
  5
8D
330
70
100
AcDbEntity
  8
レイヤー 1
 62
   250
420
  2299925
370
    25
100
AcDbLine
 10
99.44604186569428
 20
-145.5242546747628
 30
0.0
 11
99.93178157552424
 21
-145.1067068970897
 31
0.0
  0
LINE
  5
8E
330
70
100
AcDbEntity
  8
レイヤー 1
 62
   250
420
  2299925
370
    25
100
AcDbLine
 10
100.4457787846333
 20
-145.4884124525496
 30
0.0
 11
100.9308482167026
 21
-145.0708999526543
 31
0.0
  0
LINE
  5
8F
330
70
100
AcDbEntity
  8
レイヤー 1
 62
   250
420
  2299925
370
    25
100
AcDbLine
 10
99.93178157552424
 20
-145.1067068970897
 30
0.0
 11
100.4457787846333
 21
-145.4884124525496
 31
0.0
  0
LINE
  5
90
330
70
100
AcDbEntity
  8
レイヤー 1
 62
   250
420
  2299925
370
    25
100
AcDbLine
 10
101.4448807035885
 20
-145.4529582858916
 30
0.0
 11
101.9306204134185
 21
-145.0354105082188
 31
0.0
  0
LINE
  5
91
330
70
100
AcDbEntity
  8
レイヤー 1
 62
   250
420
  2299925
370
    25
100
AcDbLine
 10
100.9308482167026
 20
-145.0708999526543
 30
0.0
 11
101.4448807035885
 21
-145.4529582858916
 31
0.0
  0
LINE
  5
92
330
70
100
AcDbEntity
  8
レイヤー 1
 62
   250
420
  2299925
370
    25
100
AcDbLine
 10
101.9306204134185
 20
-145.0354105082188
 30
0.0
 11
102.4446529003044
 21
-145.4174688414561
 31
0.0
  0
LINE
  5
93
330
70
100
AcDbEntity
  8
レイヤー 1
 62
   250
420
  2299925
370
    25
100
AcDbLine
 10
102.4446529003044
 20
-145.4174688414561
 30
0.0
 11
102.929722332374
 21
-144.9995682860055
 31
0.0
  0
LINE
  5
94
330
70
100
AcDbEntity
  8
レイヤー 1
 62
   250
420
  2299925
370
    25
100
AcDbLine
 10
102.929722332374
 20
-144.9995682860055
 30
0.0
 11
103.4437195414828
 21
-145.3816266192429
 31
0.0
  0
LINE
  5
95
330
70
100
AcDbEntity
  8
レイヤー 1
 62
   250
420
  2299925
370
    25
100
AcDbLine
 10
103.4437195414828
 20
-145.3816266192429
 30
0.0
 11
103.9287889735521
 21
-144.9640788415694
 31
0.0
  0
LINE
  5
96
330
70
100
AcDbEntity
  8
レイヤー 1
 62
   250
420
  2299925
370
    25
100
AcDbLine
 10
103.9287889735521
 20
-144.9640788415694
 30
0.0
 11
104.4427861826611
 21
-145.3458196748078
 31
0.0
  0
LINE
  5
97
330
70
100
AcDbEntity
  8
レイヤー 1
 62
   250
420
  2299925
370
    25
100
AcDbLine
 10
104.4427861826611
 20
-145.3458196748078
 30
0.0
 11
104.928561170268
 21
-144.9282718971346
 31
0.0
  0
LINE
  5
98
330
70
100
AcDbEntity
  8
レイヤー 1
 62
   250
420
  2299925
370
    25
100
AcDbLine
 10
104.928561170268
 20
-144.9282718971346
 30
0.0
 11
105.4425583793773
 21
-145.3099774525945
 31
0.0
  0
LINE
  5
99
330
70
100
AcDbEntity
  8
レイヤー 1
 62
   250
420
  2299925
370
    25
100
AcDbLine
 10
105.4425583793773
 20
-145.3099774525945
 30
0.0
 11
105.9276278114463
 21
-144.8924296749214
 31
0.0
  0
LINE
  5
9A
330
70
100
AcDbEntity
  8
レイヤー 1
 62
   250
420
  2299925
370
    25
100
AcDbLine
 10
105.9276278114463
 20
-144.8924296749214
 30
0.0
 11
106.4416250205554
 21
-145.2744880081591
 31
0.0
  0
LINE
  5
9B
330
70
100
AcDbEntity
  8
レイヤー 1
 62
   250
420
  2299925
370
    25
100
AcDbLine
 10
106.4416250205554
 20
-145.2744880081591
 30
0.0
 11
106.9274000081622
 21
-144.8569402304856
 31
0.0
  0
LINE
  5
9C
330
70
100
AcDbEntity
  8
レイヤー 1
 62
   250
420
  2299925
370
    25
100
AcDbLine
 10
106.9274000081622
 20
-144.8569402304856
 30
0.0
 11
107.4413972172713
 21
-145.2389985637232
 31
0.0
  0
LINE
  5
9D
330
70
100
AcDbEntity
  8
レイヤー 1
 62
   250
420
  2299925
370
    25
100
AcDbLine
 10
107.4413972172713
 20
-145.2389985637232
 30
0.0
 11
107.9264666493406
 21
-144.8210980082723
 31
0.0
  0
LINE
  5
9E
330
70
100
AcDbEntity
  8
レイヤー 1
 62
   250
420
  2299925
370
    25
100
AcDbLine
 10
107.9264666493406
 20
-144.8210980082723
 30
0.0
 11
108.4404638584496
 21
-145.2031916192878
 31
0.0
  0
LINE
  5
9F
330
70
100
AcDbEntity
  8
レイヤー 1
 62
   250
420
  2299925
370
    25
100
AcDbLine
 10
108.4404638584496
 20
-145.2031916192878
 30
0.0
 11
108.9262388460565
 21
-144.7856438416143
 31
0.0
  0
LINE
  5
A0
330
70
100
AcDbEntity
  8
レイヤー 1
 62
   250
420
  2299925
370
    25
100
AcDbLine
 10
108.9262388460565
 20
-144.7856438416143
 30
0.0
 11
109.4402360551656
 21
-145.1673493970746
 31
0.0
  0
LINE
  5
A1
330
70
100
AcDbEntity
  8
レイヤー 1
 62
   250
420
  2299925
370
    25
100
AcDbLine
 10
109.4402360551656
 20
-145.1673493970746
 30
0.0
 11
109.9253054872348
 21
-144.7498016194011
 31
0.0
  0
LINE
  5
A2
330
70
100
AcDbEntity
  8
レイヤー 1
 62
   250
420
  2299925
370
    25
100
AcDbLine
 10
109.9253054872348
 20
-144.7498016194011
 30
0.0
 11
110.4393379741208
 21
-145.1315071748614
 31
0.0
  0
LINE
  5
A3
330
70
100
AcDbEntity
  8
レイヤー 1
 62
   250
420
  2299925
370
    25
100
AcDbLine
 10
110.4393379741208
 20
-145.1315071748614
 30
0.0
 11
110.9250776839507
 21
-144.7139593971878
 31
0.0
  0
LINE
  5
A4
330
70
100
AcDbEntity
  8
レイヤー 1
 62
   250
420
  2299925
370
    25
100
AcDbLine
 10
110.9990748931688
 20
-144.6657346749777
 30
0.0
 11
111.9386434914259
 21
-144.6657346749777
 31
0.0
  0
LINE
  5
A5
330
70
100
AcDbEntity
  8
レイヤー 1
 62
   250
420
  2299925
370
    25
100
AcDbLine
 10
111.9386434914259
 20
-144.6657346749777
 30
0.0
 11
111.9386434914259
 21
-152.9277549506902
 31
0.0
  0
LINE
  5
A6
330
70
100
AcDbEntity
  8
レイヤー 1
 62
   250
420
  2299925
370
    25
100
AcDbLine
 10
110.93887129471
 20
-145.9280088413287
 30
0.0
 11
110.93887129471
 21
-153.9275271726621
 31
0.0
  0
LINE
  5
A7
330
70
100
AcDbEntity
  8
レイヤー 1
 62
   250
420
  2299925
370
    25
100
AcDbLine
 10
120.9382644487239
 20
-152.9277549506902
 30
0.0
 11
111.9386434914259
 21
-152.9277549506902
 31
0.0
  0
LINE
  5
A8
330
70
100
AcDbEntity
  8
レイヤー 1
 62
   250
420
  2299925
370
    25
100
AcDbLine
 10
120.9382643639528
 20
-144.6657346749777
 30
0.0
 11
120.9382643639528
 21
-152.9277549506902
 31
0.0
  0
LINE
  5
A9
330
70
100
AcDbEntity
  8
レイヤー 1
 62
   250
420
  2299925
370
    25
100
AcDbLine
 10
121.9387068384294
 20
-144.6657346749777
 30
0.0
 11
121.9387068384294
 21
-153.9275271726621
 31
0.0
  0
SPLINE
  5
AA
330
70
100
AcDbEntity
  8
レイヤー 1
 62
   250
420
  2299925
370
     9
100
AcDbSpline
210
0.0
220
0.0
230
1.0
 70
     9
 71
     3
 72
    17
 73
    13
 74
     0
 42
0.0000000001
 43
0.0000000001
 40
0.0
 40
0.0
 40
0.0
 40
0.0
 40
1.0
 40
1.0
 40
1.0
 40
2.0
 40
2.0
 40
2.0
 40
3.0
 40
3.0
 40
3.0
 40
4.0
 40
4.0
 40
4.0
 40
4.0
 10
91.03723096910981
 20
-140.6659755093111
 30
0.0
 10
91.03723096910981
 20
-140.6105188426578
 30
0.0
 10
90.99246347025191
 20
-140.5657160648917
 30
0.0
 10
90.93732430499196
 20
-140.5657160648917
 30
0.0
 10
90.88222041750888
 20
-140.5657160648917
 30
0.0
 10
90.83741764087411
 20
-140.6105188426578
 30
0.0
 10
90.83741764087411
 20
-140.6659755093111
 30
0.0
 10
90.83741764087411
 20
-140.7211146759635
 30
0.0
 10
90.88222041750888
 20
-140.7658821759528
 30
0.0
 10
90.93732430499196
 20
-140.7658821759528
 30
0.0
 10
90.99246347025191
 20
-140.7658821759528
 30
0.0
 10
91.03723096910981
 20
-140.7211146759635
 30
0.0
 10
91.03723096910981
 20
-140.6659755093111
 30
0.0
  0
SPLINE
  5
AB
330
70
100
AcDbEntity
  8
レイヤー 1
 62
   250
420
  2299925
370
     9
100
AcDbSpline
210
0.0
220
0.0
230
1.0
 70
     9
 71
     3
 72
    17
 73
    13
 74
     0
 42
0.0000000001
 43
0.0000000001
 40
0.0
 40
0.0
 40
0.0
 40
0.0
 40
1.0
 40
1.0
 40
1.0
 40
2.0
 40
2.0
 40
2.0
 40
3.0
 40
3.0
 40
3.0
 40
4.0
 40
4.0
 40
4.0
 40
4.0
 10
87.03747190448581
 20
-145.4278052303425
 30
0.0
 10
87.03747190448581
 20
-145.3726660636901
 30
0.0
 10
86.99270440562761
 20
-145.3278985637008
 30
0.0
 10
86.93721246259888
 20
-145.3278985637008
 30
0.0
 10
86.88210857511581
 20
-145.3278985637008
 30
0.0
 10
86.83730579848104
 20
-145.3726660636901
 30
0.0
 10
86.83730579848104
 20
-145.4278052303425
 30
0.0
 10
86.83730579848104
 20
-145.4829091192181
 30
0.0
 10
86.88210857511581
 20
-145.5277118969841
 30
0.0
 10
86.93721246259888
 20
-145.5277118969841
 30
0.0
 10
86.99270440562761
 20
-145.5277118969841
 30
0.0
 10
87.03747190448581
 20
-145.4829091192181
 30
0.0
 10
87.03747190448581
 20
-145.4278052303425
 30
0.0
  0
SPLINE
  5
AC
330
70
100
AcDbEntity
  8
レイヤー 1
 62
   250
420
  2299925
370
     9
100
AcDbSpline
210
0.0
220
0.0
230
1.0
 70
     9
 71
     3
 72
    17
 73
    13
 74
     0
 42
0.0000000001
 43
0.0000000001
 40
0.0
 40
0.0
 40
0.0
 40
0.0
 40
1.0
 40
1.0
 40
1.0
 40
2.0
 40
2.0
 40
2.0
 40
3.0
 40
3.0
 40
3.0
 40
4.0
 40
4.0
 40
4.0
 40
4.0
 10
87.03747190448581
 20
-145.9280088413287
 30
0.0
 10
87.03747190448581
 20
-145.8729049524538
 30
0.0
 10
86.99270440562761
 20
-145.828102174687
 30
0.0
 10
86.93721246259888
 20
-145.828102174687
 30
0.0
 10
86.88210857511581
 20
-145.828102174687
 30
0.0
 10
86.83730579848104
 20
-145.8729049524538
 30
0.0
 10
86.83730579848104
 20
-145.9280088413287
 30
0.0
 10
86.83730579848104
 20
-145.9831480079818
 30
0.0
 10
86.88210857511581
 20
-146.0279155079703
 30
0.0
 10
86.93721246259888
 20
-146.0279155079703
 30
0.0
 10
86.99270440562761
 20
-146.0279155079703
 30
0.0
 10
87.03747190448581
 20
-145.9831480079818
 30
0.0
 10
87.03747190448581
 20
-145.9280088413287
 30
0.0
  0
SPLINE
  5
AD
330
70
100
AcDbEntity
  8
レイヤー 1
 62
   250
420
  2299925
370
     9
100
AcDbSpline
210
0.0
220
0.0
230
1.0
 70
     9
 71
     3
 72
    17
 73
    13
 74
     0
 42
0.0000000001
 43
0.0000000001
 40
0.0
 40
0.0
 40
0.0
 40
0.0
 40
1.0
 40
1.0
 40
1.0
 40
2.0
 40
2.0
 40
2.0
 40
3.0
 40
3.0
 40
3.0
 40
4.0
 40
4.0
 40
4.0
 40
4.0
 10
87.03747190448581
 20
-153.9275271726621
 30
0.0
 10
87.03747190448581
 20
-153.8724232837866
 30
0.0
 10
86.99270440562761
 20
-153.8276205060198
 30
0.0
 10
86.93721246259888
 20
-153.8276205060198
 30
0.0
 10
86.88210857511581
 20
-153.8276205060198
 30
0.0
 10
86.83730579848104
 20
-153.8724232837866
 30
0.0
 10
86.83730579848104
 20
-153.9275271726621
 30
0.0
 10
86.83730579848104
 20
-153.9826663393146
 30
0.0
 10
86.88210857511581
 20
-154.0274338393044
 30
0.0
 10
86.93721246259888
 20
-154.0274338393044
 30
0.0
 10
86.99270440562761
 20
-154.0274338393044
 30
0.0
 10
87.03747190448581
 20
-153.9826663393146
 30
0.0
 10
87.03747190448581
 20
-153.9275271726621
 30
0.0
  0
SPLINE
  5
AE
330
70
100
AcDbEntity
  8
レイヤー 1
 62
   250
420
  2299925
370
     9
100
AcDbSpline
210
0.0
220
0.0
230
1.0
 70
     9
 71
     3
 72
    17
 73
    13
 74
     0
 42
0.0000000001
 43
0.0000000001
 40
0.0
 40
0.0
 40
0.0
 40
0.0
 40
1.0
 40
1.0
 40
1.0
 40
2.0
 40
2.0
 40
2.0
 40
3.0
 40
3.0
 40
3.0
 40
4.0
 40
4.0
 40
4.0
 40
4.0
 10
112.0385501555437
 20
-140.6659755093111
 30
0.0
 10
112.0385501555437
 20
-140.6105188426578
 30
0.0
 10
111.9937473789089
 20
-140.5657160648917
 30
0.0
 10
111.9386434914259
 20
-140.5657160648917
 30
0.0
 10
111.8835043261659
 20
-140.5657160648917
 30
0.0
 10
111.838736827308
 20
-140.6105188426578
 30
0.0
 10
111.838736827308
 20
-140.6659755093111
 30
0.0
 10
111.838736827308
 20
-140.7211146759635
 30
0.0
 10
111.8835043261659
 20
-140.7658821759528
 30
0.0
 10
111.9386434914259
 20
-140.7658821759528
 30
0.0
 10
111.9937473789089
 20
-140.7658821759528
 30
0.0
 10
112.0385501555437
 20
-140.7211146759635
 30
0.0
 10
112.0385501555437
 20
-140.6659755093111
 30
0.0
  0
SPLINE
  5
AF
330
70
100
AcDbEntity
  8
レイヤー 1
 62
   250
420
  2299925
370
     9
100
AcDbSpline
210
0.0
220
0.0
230
1.0
 70
     9
 71
     3
 72
    17
 73
    13
 74
     0
 42
0.0000000001
 43
0.0000000001
 40
0.0
 40
0.0
 40
0.0
 40
0.0
 40
1.0
 40
1.0
 40
1.0
 40
2.0
 40
2.0
 40
2.0
 40
3.0
 40
3.0
 40
3.0
 40
4.0
 40
4.0
 40
4.0
 40
4.0
 10
121.0381710280707
 20
-140.6659755093111
 30
0.0
 10
121.0381710280707
 20
-140.6105188426578
 30
0.0
 10
120.9934035292128
 20
-140.5657160648917
 30
0.0
 10
120.9382643639528
 20
-140.5657160648917
 30
0.0
 10
120.8831604764698
 20
-140.5657160648917
 30
0.0
 10
120.838357699835
 20
-140.6105188426578
 30
0.0
 10
120.838357699835
 20
-140.6659755093111
 30
0.0
 10
120.838357699835
 20
-140.7211146759635
 30
0.0
 10
120.8831604764698
 20
-140.7658821759528
 30
0.0
 10
120.9382643639528
 20
-140.7658821759528
 30
0.0
 10
120.9934035292128
 20
-140.7658821759528
 30
0.0
 10
121.0381710280707
 20
-140.7211146759635
 30
0.0
 10
121.0381710280707
 20
-140.6659755093111
 30
0.0
  0
LINE
  5
B0
330
70
100
AcDbEntity
  8
レイヤー 1
 62
   250
420
  2299925
370
     9
100
AcDbLine
 10
86.93721246259888
 20
-145.4278052303425
 30
0.0
 11
86.93721246259888
 21
-140.1700757872128
 31
0.0
  0
LINE
  5
B1
330
70
100
AcDbEntity
  8
レイヤー 1
 62
   250
420
  2299925
370
     9
100
AcDbLine
 10
86.93721246259888
 20
-145.4278052303425
 30
0.0
 11
86.93721246259888
 21
-145.9280088413287
 31
0.0
  0
LINE
  5
B2
330
70
100
AcDbEntity
  8
レイヤー 1
 62
   250
420
  2299925
370
     9
100
AcDbLine
 10
88.39725381423901
 20
-145.4278052303425
 30
0.0
 11
85.93712276589139
 21
-145.4278052303425
 31
0.0
  0
LINE
  5
B3
330
70
100
AcDbEntity
  8
レイヤー 1
 62
   250
420
  2299925
370
     9
100
AcDbLine
 10
88.39725381423901
 20
-145.9280088413287
 30
0.0
 11
85.93712276589139
 21
-145.9280088413287
 31
0.0
  0
INSERT
  5
B5
330
70
100
AcDbEntity
  8
レイヤー 1
100
AcDbBlockReference
  2
Block_0
 10
0.0
 20
0.0
 30
0.0
  0
LINE
  5
C3
330
70
100
AcDbEntity
  8
レイヤー 1
 62
   250
420
  2299925
370
     9
100
AcDbLine
 10
90.93732430499196
 20
-140.6659755093111
 30
0.0
 11
111.9386434914259
 21
-140.6659755093111
 31
0.0
  0
LINE
  5
C4
330
70
100
AcDbEntity
  8
レイヤー 1
 62
   250
420
  2299925
370
     9
100
AcDbLine
 10
90.93732430499196
 20
-142.8880874532
 30
0.0
 11
90.93732430499196
 21
-139.6660621762275
 31
0.0
  0
INSERT
  5
C6
330
70
100
AcDbEntity
  8
レイヤー 1
100
AcDbBlockReference
  2
Block_2
 10
0.0
 20
0.0
 30
0.0
  0
LINE
  5
D1
330
70
100
AcDbEntity
  8
レイヤー 1
 62
   250
420
  2299925
370
     9
100
AcDbLine
 10
86.93721246259888
 20
-145.9280088413287
 30
0.0
 11
86.93721246259888
 21
-153.9275271726621
 31
0.0
  0
LINE
  5
D2
330
70
100
AcDbEntity
  8
レイヤー 1
 62
   250
420
  2299925
370
     9
100
AcDbLine
 10
108.3991535817258
 20
-153.9275271726621
 30
0.0
 11
85.93712276589139
 21
-153.9275271726621
 31
0.0
  0
INSERT
  5
D4
330
70
100
AcDbEntity
  8
レイヤー 1
100
AcDbBlockReference
  2
Block_4
 10
0.0
 20
0.0
 30
0.0
  0
LINE
  5
DB
330
70
100
AcDbEntity
  8
レイヤー 1
 62
   250
420
  2299925
370
     9
100
AcDbLine
 10
111.9386434914259
 20
-140.6659755093111
 30
0.0
 11
120.9382644487239
 21
-140.6659755093111
 31
0.0
  0
LINE
  5
DC
330
70
100
AcDbEntity
  8
レイヤー 1
 62
   250
420
  2299925
370
     9
100
AcDbLine
 10
111.9386434914259
 20
-142.1260168978348
 30
0.0
 11
111.9386434914259
 21
-139.6660621762275
 31
0.0
  0
LINE
  5
DD
330
70
100
AcDbEntity
  8
レイヤー 1
 62
   250
420
  2299925
370
     9
100
AcDbLine
 10
120.9382643639528
 20
-142.1260168978348
 30
0.0
 11
120.9382643639528
 21
-139.6660621762275
 31
0.0
  0
INSERT
  5
DF
330
70
100
AcDbEntity
  8
レイヤー 1
100
AcDbBlockReference
  2
Block_5
 10
0.0
 20
0.0
 30
0.0
  0
SPLINE
  5
E5
330
70
100
AcDbEntity
  8
レイヤー 1
 62
   250
420
  2299925
370
     9
100
AcDbSpline
210
0.0
220
0.0
230
1.0
 70
     9
 71
     3
 72
    17
 73
    13
 74
     0
 42
0.0000000001
 43
0.0000000001
 40
0.0
 40
0.0
 40
0.0
 40
0.0
 40
1.0
 40
1.0
 40
1.0
 40
2.0
 40
2.0
 40
2.0
 40
3.0
 40
3.0
 40
3.0
 40
4.0
 40
4.0
 40
4.0
 40
4.0
 10
111.0387779588278
 20
-158.0409866160777
 30
0.0
 10
111.0387779588278
 20
-157.9858474494252
 30
0.0
 10
110.9933075913841
 20
-157.9410799494366
 30
0.0
 10
110.9381657391724
 20
-157.9410799494366
 30
0.0
 10
110.8830618516893
 20
-157.9410799494366
 30
0.0
 10
110.8382590750546
 20
-157.9858474494252
 30
0.0
 10
110.8382590750546
 20
-158.0409866160777
 30
0.0
 10
110.8382590750546
 20
-158.0960905049532
 30
0.0
 10
110.8830618516893
 20
-158.1408932827199
 30
0.0
 10
110.9381657391724
 20
-158.1408932827199
 30
0.0
 10
110.9933075913841
 20
-158.1408932827199
 30
0.0
 10
111.0387779588278
 20
-158.0960905049532
 30
0.0
 10
111.0387779588278
 20
-158.0409866160777
 30
0.0
  0
CIRCLE
  5
E6
330
70
100
AcDbEntity
  8
レイヤー 1
 62
   250
420
  2299925
370
     9
100
AcDbCircle
 10
121.9387068384294
 20
-158.040986616078
 30
0.0
 40
0.0999066653795761
  0
LINE
  5
E7
330
70
100
AcDbEntity
  8
レイヤー 1
 62
   250
420
  2299925
370
     9
100
AcDbLine
 10
121.9387069232005
 20
-158.0409866160777
 30
0.0
 11
110.9381657391724
 21
-158.0409866160777
 31
0.0
  0
LINE
  5
E8
330
70
100
AcDbEntity
  8
レイヤー 1
 62
   250
420
  2299925
370
     9
100
AcDbLine
 10
121.9387068384294
 20
-156.5809452275539
 30
0.0
 11
121.9387068384294
 21
-159.0414291158282
 31
0.0
  0
LINE
  5
E9
330
70
100
AcDbEntity
  8
レイヤー 1
 62
   250
420
  2299925
370
     9
100
AcDbLine
 10
110.9381657391724
 20
-156.5809452275539
 30
0.0
 11
110.9381657391724
 21
-159.0414291158282
 31
0.0
  0
INSERT
  5
EB
330
70
100
AcDbEntity
  8
レイヤー 1
100
AcDbBlockReference
  2
Block_6
 10
0.0
 20
0.0
 30
0.0
  0
LINE
  5
F6
330
70
100
AcDbEntity
  8
レイヤー 1
 62
   250
420
  2299925
370
    25
100
AcDbLine
 10
121.9387068384294
 20
-144.6657346749777
 30
0.0
 11
120.9382643639528
 21
-144.6657346749777
 31
0.0
  0
LINE
  5
F7
330
70
100
AcDbEntity
  8
レイヤー 1
 62
   250
420
  2299925
370
     9
100
AcDbLine
 10
118.8801589032894
 20
-150.073147729181
 30
0.0
 11
126.8803825880756
 21
-150.073147729181
 31
0.0
  0
INSERT
  5
F9
330
70
100
AcDbEntity
  8
レイヤー 1
100
AcDbBlockReference
  2
Block_8
 10
0.0
 20
0.0
 30
0.0
  0
LINE
  5
FE
330
70
100
AcDbEntity
  8
レイヤー 1
  6
AI-Linetype-0
 62
   154
420
    23468
370
    25
100
AcDbLine
 10
90.93732430499196
 20
-146.8034268966653
 30
0.0
 11
100.9370571054331
 21
-146.8034268966653
 31
0.0
  0
INSERT
  5
101
330
70
100
AcDbEntity
  8
レイヤー 1
100
AcDbBlockReference
  2
Block_9
 10
0.0
 20
0.0
 30
0.0
  0
ENDSEC
  0
SECTION
  2
OBJECTS
  0
DICTIONARY
  5
C
330
0
100
AcDbDictionary
281
     1
  3
ACAD_COLOR
350
63
  3
ACAD_DETAILVIEWSTYLE
350
6A
  3
ACAD_GROUP
350
D
  3
ACAD_LAYOUT
350
62
  3
ACAD_MATERIAL
350
10
  3
ACAD_MLEADERSTYLE
350
66
  3
ACAD_MLINESTYLE
350
5F
  3
ACAD_PLOTSETTINGS
350
61
  3
ACAD_PLOTSTYLENAME
350
E
  3
ACAD_SCALELIST
350
42
  3
ACAD_SECTIONVIEWSTYLE
350
68
  3
ACAD_TABLESTYLE
350
64
  3
ACAD_VISUALSTYLE
350
29
  3
ACDB_RECOMPOSE_DATA
350
12E
  3
AcDbVariableDictionary
350
126
  0
DICTIONARY
  5
63
102
{ACAD_REACTORS
330
C
102
}
330
C
100
AcDbDictionary
281
     1
  0
DICTIONARY
  5
6A
102
{ACAD_REACTORS
330
C
102
}
330
C
100
AcDbDictionary
281
     1
  3
Imperial24
350
6B
  0
DICTIONARY
  5
D
102
{ACAD_REACTORS
330
C
102
}
330
C
100
AcDbDictionary
281
     1
  0
DICTIONARY
  5
62
102
{ACAD_REACTORS
330
C
102
}
330
C
100
AcDbDictionary
281
     1
  3
Layout1
350
6F
  3
Layout2
350
77
  3
Model
350
73
  0
DICTIONARY
  5
10
102
{ACAD_REACTORS
330
C
102
}
330
C
100
AcDbDictionary
281
     1
  3
ByBlock
350
19
  3
ByLayer
350
11
  3
Global
350
21
  0
DICTIONARY
  5
66
102
{ACAD_REACTORS
330
C
102
}
330
C
100
AcDbDictionary
281
     1
  3
Standard
350
67
  0
DICTIONARY
  5
5F
102
{ACAD_REACTORS
330
C
102
}
330
C
100
AcDbDictionary
281
     1
  3
Standard
350
60
  0
DICTIONARY
  5
61
102
{ACAD_REACTORS
330
C
102
}
330
C
100
AcDbDictionary
281
     1
  0
ACDBDICTIONARYWDFLT
  5
E
102
{ACAD_REACTORS
330
C
102
}
330
C
100
AcDbDictionary
281
     1
  3
Normal
350
F
100
AcDbDictionaryWithDefault
340
F
  0
DICTIONARY
  5
42
102
{ACAD_REACTORS
330
C
102
}
330
C
100
AcDbDictionary
281
     1
  3
A0
350
43
  3
A1
350
44
  3
A2
350
45
  3
A3
350
46
  3
A4
350
47
  3
A5
350
48
  3
A6
350
49
  3
A7
350
4A
  3
A8
350
4B
  3
A9
350
4C
  3
B0
350
4D
  3
B1
350
4E
  3
B2
350
4F
  3
B3
350
50
  3
B4
350
51
  3
B5
350
52
  3
B6
350
53
  0
DICTIONARY
  5
68
102
{ACAD_REACTORS
330
C
102
}
330
C
100
AcDbDictionary
281
     1
  3
Imperial24
350
69
  0
DICTIONARY
  5
64
102
{ACAD_REACTORS
330
C
102
}
330
C
100
AcDbDictionary
281
     1
  3
Standard
350
65
  0
DICTIONARY
  5
29
102
{ACAD_REACTORS
330
C
102
}
330
C
100
AcDbDictionary
281
     1
  3
2dWireframe
350
2F
  3
Basic
350
2E
  3
Brighten
350
35
  3
ColorChange
350
39
  3
Conceptual
350
32
  3
Dim
350
34
  3
EdgeColorOff
350
41
  3
Facepattern
350
38
  3
Flat
350
2A
  3
FlatWithEdges
350
2B
  3
Gouraud
350
2C
  3
GouraudWithEdges
350
2D
  3
Hidden
350
31
  3
JitterOff
350
3F
  3
Linepattern
350
37
  3
OverhangOff
350
40
  3
Realistic
350
33
  3
Shaded
350
3E
  3
Shaded with edges
350
3D
  3
Shades of Gray
350
3A
  3
Sketchy
350
3B
  3
Thicken
350
36
  3
Wireframe
350
30
  3
X-Ray
350
3C
  0
XRECORD
  5
12E
102
{ACAD_REACTORS
330
C
102
}
330
C
100
AcDbXrecord
280
     1
 90
        1
330
65
  0
DICTIONARY
  5
126
102
{ACAD_REACTORS
330
C
102
}
330
C
100
AcDbDictionary
281
     1
  3
CANNOSCALE
350
12B
  3
CMLEADERSTYLE
350
128
  3
CTABLESTYLE
350
127
  3
CVIEWDETAILSTYLE
350
129
  3
CVIEWSECTIONSTYLE
350
12A
  0
ACDBDETAILVIEWSTYLE
  5
6B
102
{ACAD_XDICTIONARY
360
163
102
}
102
{ACAD_REACTORS
330
6A
102
}
330
6A
100
AcDbModelDocViewStyle
 70
     0
  3
Imperial24
290
     0
100
AcDbDetailViewStyle
 70
     0
 71
     0
 90
        3
 71
     1
340
55
 62
   256
 40
0.24
340
0
 62
   256
 40
0.24
300

 40
0.36
280
     3
 71
     2
340
5D
 90
       25
 62
   256
 71
     3
340
55
 62
   256
 40
0.24
 90
        1
 40
0.75
 90
        1
300
%<\AcVar ViewType \f "%tc1">% %<\AcVar ViewDetailId>%\PSCALE %<\AcVar ViewScale \f "%sn">%
 71
     4
340
5D
 90
       25
 62
   256
340
5D
 90
       25
 62
   256
280
     0
  0
LAYOUT
  5
6F
102
{ACAD_REACTORS
330
62
102
}
330
62
100
AcDbPlotSettings
  1

  2

  4

  6

 40
0.0
 41
0.0
 42
0.0
 43
0.0
 44
0.0
 45
0.0
 46
0.0
 47
0.0
 48
0.0
 49
0.0
140
0.0
141
0.0
142
1.0
143
1.0
 70
   688
 72
     0
 73
     0
 74
     5
  7

 75
    16
147
1.0
 76
     0
 77
     2
 78
   300
148
0.0
149
0.0
100
AcDbLayout
  1
Layout1
 70
     1
 71
     1
 10
0.0
 20
0.0
 11
12.0
 21
9.0
 12
0.0
 22
0.0
 32
0.0
 14
0.0
 24
0.0
 34
0.0
 15
0.0
 25
0.0
 35
0.0
146
0.0
 13
0.0
 23
0.0
 33
0.0
 16
1.0
 26
0.0
 36
0.0
 17
0.0
 27
1.0
 37
0.0
 76
     0
330
6C
  0
LAYOUT
  5
77
102
{ACAD_REACTORS
330
62
102
}
330
62
100
AcDbPlotSettings
  1

  2

  4

  6

 40
0.0
 41
0.0
 42
0.0
 43
0.0
 44
0.0
 45
0.0
 46
0.0
 47
0.0
 48
0.0
 49
0.0
140
0.0
141
0.0
142
1.0
143
1.0
 70
   688
 72
     0
 73
     0
 74
     5
  7

 75
    16
147
1.0
 76
     0
 77
     2
 78
   300
148
0.0
149
0.0
100
AcDbLayout
  1
Layout2
 70
     1
 71
     2
 10
0.0
 20
0.0
 11
12.0
 21
9.0
 12
0.0
 22
0.0
 32
0.0
 14
0.0
 24
0.0
 34
0.0
 15
0.0
 25
0.0
 35
0.0
146
0.0
 13
0.0
 23
0.0
 33
0.0
 16
1.0
 26
0.0
 36
0.0
 17
0.0
 27
1.0
 37
0.0
 76
     0
330
74
  0
LAYOUT
  5
73
102
{ACAD_REACTORS
330
62
102
}
330
62
100
AcDbPlotSettings
  1

  2

  4

  6

 40
0.0
 41
0.0
 42
0.0
 43
0.0
 44
0.0
 45
0.0
 46
0.0
 47
0.0
 48
0.0
 49
0.0
140
0.0
141
0.0
142
1.0
143
1.0
 70
  1712
 72
     0
 73
     0
 74
     0
  7

 75
     0
147
1.0
 76
     0
 77
     2
 78
   300
148
0.0
149
0.0
100
AcDbLayout
  1
Model
 70
     1
 71
     0
 10
0.0
 20
0.0
 11
12.0
 21
9.0
 12
0.0
 22
0.0
 32
0.0
 14
0.0
 24
0.0
 34
0.0
 15
0.0
 25
0.0
 35
0.0
146
0.0
 13
0.0
 23
0.0
 33
0.0
 16
1.0
 26
0.0
 36
0.0
 17
0.0
 27
1.0
 37
0.0
 76
     0
330
70
  0
MATERIAL
  5
19
102
{ACAD_XDICTIONARY
360
1A
102
}
102
{ACAD_REACTORS
330
10
102
}
330
10
100
AcDbMaterial
  1
ByBlock
 72
     0
 43
0.0208333333333333
 43
0.0
 43
0.0
 43
0.0
 43
0.0
 43
0.0208333333333333
 43
0.0
 43
0.0
 43
0.0
 43
0.0
 43
1.0
 43
0.0
 43
0.0
 43
0.0
 43
0.0
 43
1.0
 77
     0
 47
0.0208333333333333
 47
0.0
 47
0.0
 47
0.0
 47
0.0
 47
0.0208333333333333
 47
0.0
 47
0.0
 47
0.0
 47
0.0
 47
1.0
 47
0.0
 47
0.0
 47
0.0
 47
0.0
 47
1.0
171
     0
 49
0.0208333333333333
 49
0.0
 49
0.0
 49
0.0
 49
0.0
 49
0.0208333333333333
 49
0.0
 49
0.0
 49
0.0
 49
0.0
 49
1.0
 49
0.0
 49
0.0
 49
0.0
 49
0.0
 49
1.0
175
     0
142
0.0208333333333333
142
0.0
142
0.0
142
0.0
142
0.0
142
0.0208333333333333
142
0.0
142
0.0
142
0.0
142
0.0
142
1.0
142
0.0
142
0.0
142
0.0
142
0.0
142
1.0
179
     0
144
0.0208333333333333
144
0.0
144
0.0
144
0.0
144
0.0
144
0.0208333333333333
144
0.0
144
0.0
144
0.0
144
0.0
144
1.0
144
0.0
144
0.0
144
0.0
144
0.0
144
1.0
147
0.0208333333333333
147
0.0
147
0.0
147
0.0
147
0.0
147
0.0208333333333333
147
0.0
147
0.0
147
0.0
147
0.0
147
1.0
147
0.0
147
0.0
147
0.0
147
0.0
147
1.0
  0
MATERIAL
  5
11
102
{ACAD_XDICTIONARY
360
12
102
}
102
{ACAD_REACTORS
330
10
102
}
330
10
100
AcDbMaterial
  1
ByLayer
 72
     0
 43
0.0208333333333333
 43
0.0
 43
0.0
 43
0.0
 43
0.0
 43
0.0208333333333333
 43
0.0
 43
0.0
 43
0.0
 43
0.0
 43
1.0
 43
0.0
 43
0.0
 43
0.0
 43
0.0
 43
1.0
 77
     0
 47
0.0208333333333333
 47
0.0
 47
0.0
 47
0.0
 47
0.0
 47
0.0208333333333333
 47
0.0
 47
0.0
 47
0.0
 47
0.0
 47
1.0
 47
0.0
 47
0.0
 47
0.0
 47
0.0
 47
1.0
171
     0
 49
0.0208333333333333
 49
0.0
 49
0.0
 49
0.0
 49
0.0
 49
0.0208333333333333
 49
0.0
 49
0.0
 49
0.0
 49
0.0
 49
1.0
 49
0.0
 49
0.0
 49
0.0
 49
0.0
 49
1.0
175
     0
142
0.0208333333333333
142
0.0
142
0.0
142
0.0
142
0.0
142
0.0208333333333333
142
0.0
142
0.0
142
0.0
142
0.0
142
1.0
142
0.0
142
0.0
142
0.0
142
0.0
142
1.0
179
     0
144
0.0208333333333333
144
0.0
144
0.0
144
0.0
144
0.0
144
0.0208333333333333
144
0.0
144
0.0
144
0.0
144
0.0
144
1.0
144
0.0
144
0.0
144
0.0
144
0.0
144
1.0
147
0.0208333333333333
147
0.0
147
0.0
147
0.0
147
0.0
147
0.0208333333333333
147
0.0
147
0.0
147
0.0
147
0.0
147
1.0
147
0.0
147
0.0
147
0.0
147
0.0
147
1.0
  0
MATERIAL
  5
21
102
{ACAD_XDICTIONARY
360
22
102
}
102
{ACAD_REACTORS
330
10
102
}
330
10
100
AcDbMaterial
  1
Global
 72
     0
 43
0.0208333333333333
 43
0.0
 43
0.0
 43
0.0
 43
0.0
 43
0.0208333333333333
 43
0.0
 43
0.0
 43
0.0
 43
0.0
 43
1.0
 43
0.0
 43
0.0
 43
0.0
 43
0.0
 43
1.0
 77
     0
 47
0.0208333333333333
 47
0.0
 47
0.0
 47
0.0
 47
0.0
 47
0.0208333333333333
 47
0.0
 47
0.0
 47
0.0
 47
0.0
 47
1.0
 47
0.0
 47
0.0
 47
0.0
 47
0.0
 47
1.0
171
     0
 49
0.0208333333333333
 49
0.0
 49
0.0
 49
0.0
 49
0.0
 49
0.0208333333333333
 49
0.0
 49
0.0
 49
0.0
 49
0.0
 49
1.0
 49
0.0
 49
0.0
 49
0.0
 49
0.0
 49
1.0
175
     0
142
0.0208333333333333
142
0.0
142
0.0
142
0.0
142
0.0
142
0.0208333333333333
142
0.0
142
0.0
142
0.0
142
0.0
142
1.0
142
0.0
142
0.0
142
0.0
142
0.0
142
1.0
179
     0
144
0.0208333333333333
144
0.0
144
0.0
144
0.0
144
0.0
144
0.0208333333333333
144
0.0
144
0.0
144
0.0
144
0.0
144
1.0
144
0.0
144
0.0
144
0.0
144
0.0
144
1.0
147
0.0208333333333333
147
0.0
147
0.0
147
0.0
147
0.0
147
0.0208333333333333
147
0.0
147
0.0
147
0.0
147
0.0
147
1.0
147
0.0
147
0.0
147
0.0
147
0.0
147
1.0
  0
MLEADERSTYLE
  5
67
102
{ACAD_XDICTIONARY
360
15F
102
}
102
{ACAD_REACTORS
330
66
102
}
330
66
100
AcDbMLeaderStyle
179
     2
170
     2
171
     1
172
     0
 90
        2
 40
0.0
 41
0.0
173
     1
 91
-1056964608
340
5B
 92
       -2
290
     1
 42
0.09
291
     1
 43
0.36
  3
Standard
 44
0.18
300

342
55
174
     1
178
     6
175
     1
176
     0
 93
-1056964608
 45
0.18
292
     0
297
     0
 46
0.18
 94
-1056964608
 47
1.0
 49
1.0
140
1.0
293
     1
141
0.0
294
     1
177
     0
142
1.0
295
     0
296
     0
143
0.125
271
     0
272
     9
273
     9
  0
MLINESTYLE
  5
60
102
{ACAD_REACTORS
330
5F
102
}
330
5F
100
AcDbMlineStyle
  2
STANDARD
 70
     0
  3

 62
   256
 51
90.0
 52
90.0
 71
     2
 49
0.5
 62
   256
  6
BYLAYER
 49
-0.5
 62
   256
  6
BYLAYER
  0
ACDBPLACEHOLDER
  5
F
102
{ACAD_REACTORS
330
E
102
}
330
E
  0
SCALE
  5
43
102
{ACAD_REACTORS
330
42
102
}
330
42
100
AcDbScale
 70
     0
300
1:1
140
1.0
141
1.0
290
     1
  0
SCALE
  5
44
102
{ACAD_REACTORS
330
42
102
}
330
42
100
AcDbScale
 70
     0
300
1/128" = 1'-0"
140
0.0078125
141
12.0
290
     0
  0
SCALE
  5
45
102
{ACAD_REACTORS
330
42
102
}
330
42
100
AcDbScale
 70
     0
300
1/64" = 1'-0"
140
0.015625
141
12.0
290
     0
  0
SCALE
  5
46
102
{ACAD_REACTORS
330
42
102
}
330
42
100
AcDbScale
 70
     0
300
1/32" = 1'-0"
140
0.03125
141
12.0
290
     0
  0
SCALE
  5
47
102
{ACAD_REACTORS
330
42
102
}
330
42
100
AcDbScale
 70
     0
300
1/16" = 1'-0"
140
0.0625
141
12.0
290
     0
  0
SCALE
  5
48
102
{ACAD_REACTORS
330
42
102
}
330
42
100
AcDbScale
 70
     0
300
3/32" = 1'-0"
140
0.09375
141
12.0
290
     0
  0
SCALE
  5
49
102
{ACAD_REACTORS
330
42
102
}
330
42
100
AcDbScale
 70
     0
300
1/8" = 1'-0"
140
0.125
141
12.0
290
     0
  0
SCALE
  5
4A
102
{ACAD_REACTORS
330
42
102
}
330
42
100
AcDbScale
 70
     0
300
3/16" = 1'-0"
140
0.1875
141
12.0
290
     0
  0
SCALE
  5
4B
102
{ACAD_REACTORS
330
42
102
}
330
42
100
AcDbScale
 70
     0
300
1/4" = 1'-0"
140
0.25
141
12.0
290
     0
  0
SCALE
  5
4C
102
{ACAD_REACTORS
330
42
102
}
330
42
100
AcDbScale
 70
     0
300
3/8" = 1'-0"
140
0.375
141
12.0
290
     0
  0
SCALE
  5
4D
102
{ACAD_REACTORS
330
42
102
}
330
42
100
AcDbScale
 70
     0
300
1/2" = 1'-0"
140
0.5
141
12.0
290
     0
  0
SCALE
  5
4E
102
{ACAD_REACTORS
330
42
102
}
330
42
100
AcDbScale
 70
     0
300
3/4" = 1'-0"
140
0.75
141
12.0
290
     0
  0
SCALE
  5
4F
102
{ACAD_REACTORS
330
42
102
}
330
42
100
AcDbScale
 70
     0
300
1" = 1'-0"
140
1.0
141
12.0
290
     0
  0
SCALE
  5
50
102
{ACAD_REACTORS
330
42
102
}
330
42
100
AcDbScale
 70
     0
300
1-1/2" = 1'-0"
140
1.5
141
12.0
290
     0
  0
SCALE
  5
51
102
{ACAD_REACTORS
330
42
102
}
330
42
100
AcDbScale
 70
     0
300
3" = 1'-0"
140
3.0
141
12.0
290
     0
  0
SCALE
  5
52
102
{ACAD_REACTORS
330
42
102
}
330
42
100
AcDbScale
 70
     0
300
6" = 1'-0"
140
6.0
141
12.0
290
     0
  0
SCALE
  5
53
102
{ACAD_REACTORS
330
42
102
}
330
42
100
AcDbScale
 70
     0
300
1'-0" = 1'-0"
140
12.0
141
12.0
290
     0
  0
ACDBSECTIONVIEWSTYLE
  5
69
102
{ACAD_XDICTIONARY
360
161
102
}
102
{ACAD_REACTORS
330
68
102
}
330
68
100
AcDbModelDocViewStyle
 70
     0
  3
Imperial24
290
     0
100
AcDbSectionViewStyle
 70
     0
 71
     0
 90
       78
 71
     1
340
55
 62
   256
 40
0.24
340
0
340
0
 62
   256
 40
0.24
300
I, O, Q, S, X, Z
 40
0.48
 90
        3
 40
0.18
 90
        1
 71
     2
340
5D
 90
       25
 62
   256
340
5D
 90
       50
 62
   256
 40
0.24
 40
0.0
 40
0.24
 71
     3
340
55
 62
   256
 40
0.24
 90
        1
 40
0.75
 90
        1
300
%<\AcVar ViewType \f "%tc1">% %<\AcVar ViewSectionStartId>%-%<\AcVar ViewSectionEndId>%\PSCALE %<\AcVar ViewScale \f "%sn">%
 71
     4
 62
   256
 62
   257
300
ANSI31
 40
1.0
 90
        0
290
     0
290
     0
 90
        6
 40
0.0
 40
1.570796326794896
 40
0.2617993877991494
 40
1.308996938995747
 40
-0.2617993877991494
 40
1.832595714594046
  0
TABLESTYLE
  5
65
102
{ACAD_XDICTIONARY
360
12C
102
}
102
{ACAD_REACTORS
330
64
102
}
330
64
100
AcDbTableStyle
280
     0
  3
Standard
 70
     0
 71
     0
 40
0.06
 41
0.06
280
     0
281
     0
  7
Standard
140
0.18
170
     2
 62
     0
 63
     7
283
     0
 90
      512
 91
        0
  1

274
    -2
284
     1
 64
     0
275
    -2
285
     1
 65
     0
276
    -2
286
     1
 66
     0
277
    -2
287
     1
 67
     0
278
    -2
288
     1
 68
     0
279
    -2
289
     1
 69
     0
  7
Standard
140
0.25
170
     5
 62
     0
 63
     7
283
     0
 90
      512
 91
        0
  1

274
    -2
284
     1
 64
     0
275
    -2
285
     1
 65
     0
276
    -2
286
     1
 66
     0
277
    -2
287
     1
 67
     0
278
    -2
288
     1
 68
     0
279
    -2
289
     1
 69
     0
  7
Standard
140
0.18
170
     5
 62
     0
 63
     7
283
     0
 90
      512
 91
        0
  1

274
    -2
284
     1
 64
     0
275
    -2
285
     1
 65
     0
276
    -2
286
     1
 66
     0
277
    -2
287
     1
 67
     0
278
    -2
288
     1
 68
     0
279
    -2
289
     1
 69
     0
  0
VISUALSTYLE
  5
2F
102
{ACAD_XDICTIONARY
360
139
102
}
102
{ACAD_REACTORS
330
29
102
}
330
29
100
AcDbVisualStyle
  2
2dWireframe
 70
     4
177
     2
291
     0
 71
     0
176
     1
 72
     2
176
     1
 73
     0
176
     1
 90
        0
176
     1
 40
0.6
176
     1
 41
30.0
176
     1
 63
     7
421
 16777215
176
     1
 74
     1
176
     1
 91
        4
176
     1
 64
     7
176
     1
 65
   257
176
     1
 75
     1
176
     1
175
     1
176
     1
 42
1.0
176
     1
 92
        0
176
     1
 66
   257
176
     1
 43
1.0
176
     1
 76
     1
176
     1
 77
     6
176
     1
 78
     2
176
     1
 67
     7
176
     1
 79
     5
176
     1
170
     0
176
     1
171
     0
176
     1
290
     0
176
     1
 93
        1
176
     1
 44
0.0
176
     1
173
     0
176
     1
1001
ACAD
1000
AcDbSavedByObjectVersion
1070
     0
  0
VISUALSTYLE
  5
2E
102
{ACAD_XDICTIONARY
360
137
102
}
102
{ACAD_REACTORS
330
29
102
}
330
29
100
AcDbVisualStyle
  2
Basic
 70
     7
177
     2
291
     1
 71
     1
176
     1
 72
     0
176
     1
 73
     1
176
     1
 90
        0
176
     1
 40
0.6
176
     1
 41
30.0
176
     1
 63
     7
421
 16777215
176
     1
 74
     0
176
     1
 91
        4
176
     1
 64
     7
176
     1
 65
   257
176
     1
 75
     1
176
     1
175
     1
176
     1
 42
1.0
176
     1
 92
        8
176
     1
 66
     7
176
     1
 43
1.0
176
     1
 76
     1
176
     1
 77
     6
176
     1
 78
     2
176
     1
 67
     7
176
     1
 79
     5
176
     1
170
     0
176
     1
171
     0
176
     1
290
     0
176
     1
 93
        1
176
     1
 44
0.0
176
     1
173
     0
176
     1
1001
ACAD
1000
AcDbSavedByObjectVersion
1070
     0
  0
VISUALSTYLE
  5
35
102
{ACAD_XDICTIONARY
360
145
102
}
102
{ACAD_REACTORS
330
29
102
}
330
29
100
AcDbVisualStyle
  2
Brighten
 70
    12
177
     2
291
     1
 71
     2
176
     1
 72
     2
176
     1
 73
     0
176
     1
 90
        0
176
     1
 40
0.6
176
     1
 41
30.0
176
     1
 63
     7
421
 16777215
176
     1
 74
     1
176
     1
 91
        4
176
     1
 64
     7
176
     1
 65
   257
176
     1
 75
     1
176
     1
175
     1
176
     1
 42
1.0
176
     1
 92
        8
176
     1
 66
     7
176
     1
 43
1.0
176
     1
 76
     1
176
     1
 77
     6
176
     1
 78
     2
176
     1
 67
     7
176
     1
 79
     5
176
     1
170
     0
176
     1
171
     0
176
     1
290
     0
176
     1
 93
        1
176
     1
 44
50.0
176
     1
173
     0
176
     1
1001
ACAD
1000
AcDbSavedByObjectVersion
1070
     0
  0
VISUALSTYLE
  5
39
102
{ACAD_XDICTIONARY
360
14D
102
}
102
{ACAD_REACTORS
330
29
102
}
330
29
100
AcDbVisualStyle
  2
ColorChange
 70
    16
177
     2
291
     1
 71
     2
176
     1
 72
     2
176
     1
 73
     3
176
     1
 90
        0
176
     1
 40
0.6
176
     1
 41
30.0
176
     1
 63
     8
421
  8421504
176
     1
 74
     1
176
     1
 91
        4
176
     1
 64
     7
176
     1
 65
   257
176
     1
 75
     1
176
     1
175
     1
176
     1
 42
1.0
176
     1
 92
        8
176
     1
 66
     8
424
  8421504
176
     1
 43
1.0
176
     1
 76
     1
176
     1
 77
     6
176
     1
 78
     2
176
     1
 67
     7
176
     1
 79
     5
176
     1
170
     0
176
     1
171
     0
176
     1
290
     0
176
     1
 93
        1
176
     1
 44
0.0
176
     1
173
     0
176
     1
1001
ACAD
1000
AcDbSavedByObjectVersion
1070
     0
  0
VISUALSTYLE
  5
32
102
{ACAD_XDICTIONARY
360
13F
102
}
102
{ACAD_REACTORS
330
29
102
}
330
29
100
AcDbVisualStyle
  2
Conceptual
 70
     9
177
     2
291
     0
 71
     3
176
     1
 72
     2
176
     1
 73
     0
176
     1
 90
        0
176
     1
 40
0.6
176
     1
 41
30.0
176
     1
 63
     7
421
 16777215
176
     1
 74
     2
176
     1
 91
        2
176
     1
 64
     7
176
     1
 65
   257
176
     1
 75
     1
176
     1
175
     1
176
     1
 42
179.0
176
     1
 92
        8
176
     1
 66
     7
176
     1
 43
1.0
176
     1
 76
     1
176
     1
 77
     6
176
     1
 78
     2
176
     1
 67
     7
176
     1
 79
     3
176
     1
170
     0
176
     1
171
     0
176
     1
290
     0
176
     1
 93
        1
176
     1
 44
0.0
176
     1
173
     0
176
     1
1001
ACAD
1000
AcDbSavedByObjectVersion
1070
     0
  0
VISUALSTYLE
  5
34
102
{ACAD_XDICTIONARY
360
143
102
}
102
{ACAD_REACTORS
330
29
102
}
330
29
100
AcDbVisualStyle
  2
Dim
 70
    11
177
     2
291
     1
 71
     2
176
     1
 72
     2
176
     1
 73
     0
176
     1
 90
        0
176
     1
 40
0.6
176
     1
 41
30.0
176
     1
 63
     7
421
 16777215
176
     1
 74
     1
176
     1
 91
        4
176
     1
 64
     7
176
     1
 65
   257
176
     1
 75
     1
176
     1
175
     1
176
     1
 42
1.0
176
     1
 92
        8
176
     1
 66
     7
176
     1
 43
1.0
176
     1
 76
     1
176
     1
 77
     6
176
     1
 78
     2
176
     1
 67
     7
176
     1
 79
     5
176
     1
170
     0
176
     1
171
     0
176
     1
290
     0
176
     1
 93
        1
176
     1
 44
-50.0
176
     1
173
     0
176
     1
1001
ACAD
1000
AcDbSavedByObjectVersion
1070
     0
  0
VISUALSTYLE
  5
41
102
{ACAD_XDICTIONARY
360
15D
102
}
102
{ACAD_REACTORS
330
29
102
}
330
29
100
AcDbVisualStyle
  2
EdgeColorOff
 70
    22
177
     2
291
     1
 71
     2
176
     0
 72
     2
176
     0
 73
     0
176
     0
 90
        0
176
     0
 40
0.6
176
     0
 41
30.0
176
     0
 63
     7
421
 16777215
176
     0
 74
     1
176
     0
 91
        4
176
     0
 64
     7
176
     0
 65
   257
176
     0
 75
     1
176
     0
175
     1
176
     0
 42
1.0
176
     0
 92
        8
176
     2
 66
     7
176
     0
 43
1.0
176
     0
 76
     1
176
     0
 77
     6
176
     0
 78
     2
176
     0
 67
     7
176
     0
 79
     5
176
     0
170
     0
176
     0
171
     0
176
     0
290
     0
176
     0
 93
        1
176
     0
 44
0.0
176
     0
173
     0
176
     0
1001
ACAD
1000
AcDbSavedByObjectVersion
1070
     0
  0
VISUALSTYLE
  5
38
102
{ACAD_XDICTIONARY
360
14B
102
}
102
{ACAD_REACTORS
330
29
102
}
330
29
100
AcDbVisualStyle
  2
Facepattern
 70
    15
177
     2
291
     1
 71
     2
176
     1
 72
     2
176
     1
 73
     0
176
     1
 90
        0
176
     1
 40
0.6
176
     1
 41
30.0
176
     1
 63
     7
421
 16777215
176
     1
 74
     1
176
     1
 91
        4
176
     1
 64
     7
176
     1
 65
   257
176
     1
 75
     1
176
     1
175
     1
176
     1
 42
1.0
176
     1
 92
        8
176
     1
 66
     7
176
     1
 43
1.0
176
     1
 76
     1
176
     1
 77
     6
176
     1
 78
     2
176
     1
 67
     7
176
     1
 79
     5
176
     1
170
     0
176
     1
171
     0
176
     1
290
     0
176
     1
 93
        1
176
     1
 44
0.0
176
     1
173
     0
176
     1
1001
ACAD
1000
AcDbSavedByObjectVersion
1070
     0
  0
VISUALSTYLE
  5
2A
102
{ACAD_XDICTIONARY
360
12F
102
}
102
{ACAD_REACTORS
330
29
102
}
330
29
100
AcDbVisualStyle
  2
Flat
 70
     0
177
     2
291
     1
 71
     2
176
     1
 72
     1
176
     1
 73
     1
176
     1
 90
        2
176
     1
 40
0.6
176
     1
 41
30.0
176
     1
 63
     7
421
 16777215
176
     1
 74
     0
176
     1
 91
        0
176
     1
 64
     7
176
     1
 65
   257
176
     1
 75
     1
176
     1
175
     1
176
     1
 42
1.0
176
     1
 92
        8
176
     1
 66
     7
176
     1
 43
1.0
176
     1
 76
     1
176
     1
 77
     6
176
     1
 78
     2
176
     1
 67
     7
176
     1
 79
     5
176
     1
170
     0
176
     1
171
     0
176
     1
290
     0
176
     1
 93
       13
176
     1
 44
0.0
176
     1
173
     0
176
     1
1001
ACAD
1000
AcDbSavedByObjectVersion
1070
     0
  0
VISUALSTYLE
  5
2B
102
{ACAD_XDICTIONARY
360
131
102
}
102
{ACAD_REACTORS
330
29
102
}
330
29
100
AcDbVisualStyle
  2
FlatWithEdges
 70
     1
177
     2
291
     1
 71
     2
176
     1
 72
     1
176
     1
 73
     1
176
     1
 90
        2
176
     1
 40
0.6
176
     1
 41
30.0
176
     1
 63
     7
421
 16777215
176
     1
 74
     1
176
     1
 91
        0
176
     1
 64
     7
176
     1
 65
   257
176
     1
 75
     1
176
     1
175
     1
176
     1
 42
1.0
176
     1
 92
        0
176
     1
 66
   257
176
     1
 43
1.0
176
     1
 76
     1
176
     1
 77
     6
176
     1
 78
     2
176
     1
 67
     7
176
     1
 79
     5
176
     1
170
     0
176
     1
171
     0
176
     1
290
     0
176
     1
 93
       13
176
     1
 44
0.0
176
     1
173
     0
176
     1
1001
ACAD
1000
AcDbSavedByObjectVersion
1070
     0
  0
VISUALSTYLE
  5
2C
102
{ACAD_XDICTIONARY
360
133
102
}
102
{ACAD_REACTORS
330
29
102
}
330
29
100
AcDbVisualStyle
  2
Gouraud
 70
     2
177
     2
291
     1
 71
     2
176
     1
 72
     2
176
     1
 73
     1
176
     1
 90
        2
176
     1
 40
0.6
176
     1
 41
30.0
176
     1
 63
     7
421
 16777215
176
     1
 74
     0
176
     1
 91
        0
176
     1
 64
     7
176
     1
 65
   257
176
     1
 75
     1
176
     1
175
     1
176
     1
 42
1.0
176
     1
 92
        0
176
     1
 66
     7
176
     1
 43
1.0
176
     1
 76
     1
176
     1
 77
     6
176
     1
 78
     2
176
     1
 67
     7
176
     1
 79
     5
176
     1
170
     0
176
     1
171
     0
176
     1
290
     0
176
     1
 93
       13
176
     1
 44
0.0
176
     1
173
     0
176
     1
1001
ACAD
1000
AcDbSavedByObjectVersion
1070
     0
  0
VISUALSTYLE
  5
2D
102
{ACAD_XDICTIONARY
360
135
102
}
102
{ACAD_REACTORS
330
29
102
}
330
29
100
AcDbVisualStyle
  2
GouraudWithEdges
 70
     3
177
     2
291
     1
 71
     2
176
     1
 72
     2
176
     1
 73
     1
176
     1
 90
        2
176
     1
 40
0.6
176
     1
 41
30.0
176
     1
 63
     7
421
 16777215
176
     1
 74
     1
176
     1
 91
        0
176
     1
 64
     7
176
     1
 65
   257
176
     1
 75
     1
176
     1
175
     1
176
     1
 42
1.0
176
     1
 92
        0
176
     1
 66
   257
176
     1
 43
1.0
176
     1
 76
     1
176
     1
 77
     6
176
     1
 78
     2
176
     1
 67
     7
176
     1
 79
     5
176
     1
170
     0
176
     1
171
     0
176
     1
290
     0
176
     1
 93
       13
176
     1
 44
0.0
176
     1
173
     0
176
     1
1001
ACAD
1000
AcDbSavedByObjectVersion
1070
     0
  0
VISUALSTYLE
  5
31
102
{ACAD_XDICTIONARY
360
13D
102
}
102
{ACAD_REACTORS
330
29
102
}
330
29
100
AcDbVisualStyle
  2
Hidden
 70
     6
177
     2
291
     0
 71
     1
176
     1
 72
     2
176
     1
 73
     2
176
     1
 90
        0
176
     1
 40
0.6
176
     1
 41
30.0
176
     1
 63
     7
421
 16777215
176
     1
 74
     2
176
     1
 91
        2
176
     1
 64
     7
176
     1
 65
   257
176
     1
 75
     2
176
     1
175
     1
176
     1
 42
40.0
176
     1
 92
        0
176
     1
 66
   257
176
     1
 43
1.0
176
     1
 76
     1
176
     1
 77
     6
176
     1
 78
     2
176
     1
 67
     7
176
     1
 79
     3
176
     1
170
     0
176
     1
171
     0
176
     1
290
     0
176
     1
 93
        1
176
     1
 44
0.0
176
     1
173
     0
176
     1
1001
ACAD
1000
AcDbSavedByObjectVersion
1070
     0
  0
VISUALSTYLE
  5
3F
102
{ACAD_XDICTIONARY
360
159
102
}
102
{ACAD_REACTORS
330
29
102
}
330
29
100
AcDbVisualStyle
  2
JitterOff
 70
    20
177
     2
291
     1
 71
     2
176
     0
 72
     2
176
     0
 73
     0
176
     0
 90
        0
176
     0
 40
0.6
176
     0
 41
30.0
176
     0
 63
     7
421
 16777215
176
     0
 74
     1
176
     0
 91
        4
176
     0
 64
     7
176
     0
 65
   257
176
     0
 75
     1
176
     0
175
     1
176
     0
 42
1.0
176
     0
 92
       10
176
     2
 66
     7
176
     0
 43
1.0
176
     0
 76
     1
176
     0
 77
     6
176
     0
 78
     2
176
     0
 67
     7
176
     0
 79
     5
176
     0
170
     0
176
     0
171
     0
176
     0
290
     0
176
     0
 93
        1
176
     0
 44
0.0
176
     0
173
     0
176
     0
1001
ACAD
1000
AcDbSavedByObjectVersion
1070
     0
  0
VISUALSTYLE
  5
37
102
{ACAD_XDICTIONARY
360
149
102
}
102
{ACAD_REACTORS
330
29
102
}
330
29
100
AcDbVisualStyle
  2
Linepattern
 70
    14
177
     2
291
     1
 71
     2
176
     1
 72
     2
176
     1
 73
     0
176
     1
 90
        0
176
     1
 40
0.6
176
     1
 41
30.0
176
     1
 63
     7
421
 16777215
176
     1
 74
     1
176
     1
 91
        4
176
     1
 64
     7
176
     1
 65
   257
176
     1
 75
     7
176
     1
175
     7
176
     1
 42
1.0
176
     1
 92
        8
176
     1
 66
     7
176
     1
 43
1.0
176
     1
 76
     1
176
     1
 77
     6
176
     1
 78
     2
176
     1
 67
     7
176
     1
 79
     5
176
     1
170
     0
176
     1
171
     0
176
     1
290
     0
176
     1
 93
        1
176
     1
 44
0.0
176
     1
173
     0
176
     1
1001
ACAD
1000
AcDbSavedByObjectVersion
1070
     0
  0
VISUALSTYLE
  5
40
102
{ACAD_XDICTIONARY
360
15B
102
}
102
{ACAD_REACTORS
330
29
102
}
330
29
100
AcDbVisualStyle
  2
OverhangOff
 70
    21
177
     2
291
     1
 71
     2
176
     0
 72
     2
176
     0
 73
     0
176
     0
 90
        0
176
     0
 40
0.6
176
     0
 41
30.0
176
     0
 63
     7
421
 16777215
176
     0
 74
     1
176
     0
 91
        4
176
     0
 64
     7
176
     0
 65
   257
176
     0
 75
     1
176
     0
175
     1
176
     0
 42
1.0
176
     0
 92
        9
176
     2
 66
     7
176
     0
 43
1.0
176
     0
 76
     1
176
     0
 77
     6
176
     0
 78
     2
176
     0
 67
     7
176
     0
 79
     5
176
     0
170
     0
176
     0
171
     0
176
     0
290
     0
176
     0
 93
        1
176
     0
 44
0.0
176
     0
173
     0
176
     0
1001
ACAD
1000
AcDbSavedByObjectVersion
1070
     0
  0
VISUALSTYLE
  5
33
102
{ACAD_XDICTIONARY
360
141
102
}
102
{ACAD_REACTORS
330
29
102
}
330
29
100
AcDbVisualStyle
  2
Realistic
 70
     8
177
     2
291
     0
 71
     2
176
     1
 72
     3
176
     1
 73
     0
176
     1
 90
        2
176
     1
 40
0.6
176
     1
 41
30.0
176
     1
 63
     7
421
 16777215
176
     1
 74
     0
176
     1
 91
        0
176
     1
 64
     7
176
     1
 65
   257
176
     1
 75
     1
176
     1
175
     1
176
     1
 42
1.0
176
     1
 92
        8
176
     1
 66
   257
176
     1
 43
1.0
176
     1
 76
     1
176
     1
 77
     6
176
     1
 78
     2
176
     1
 67
     7
176
     1
 79
     3
176
     1
170
     0
176
     1
171
     0
176
     1
290
     0
176
     1
 93
       13
176
     1
 44
0.0
176
     1
173
     0
176
     1
1001
ACAD
1000
AcDbSavedByObjectVersion
1070
     0
  0
VISUALSTYLE
  5
3E
102
{ACAD_XDICTIONARY
360
157
102
}
102
{ACAD_REACTORS
330
29
102
}
330
29
100
AcDbVisualStyle
  2
Shaded
 70
    27
177
     2
291
     0
 71
     2
176
     1
 72
     2
176
     1
 73
     1
176
     1
 90
        2
176
     1
 40
0.6
176
     1
 41
30.0
176
     1
 63
     7
421
 16777215
176
     1
 74
     0
176
     1
 91
        4
176
     1
 64
     7
176
     1
 65
   257
176
     1
 75
     1
176
     1
175
     1
176
     1
 42
1.0
176
     1
 92
        8
176
     1
 66
   257
176
     1
 43
1.0
176
     1
 76
     1
176
     1
 77
     6
176
     1
 78
     2
176
     1
 67
     8
425
  7895160
176
     1
 79
     3
176
     1
170
     0
176
     1
171
     0
176
     1
290
     0
176
     1
 93
        5
176
     1
 44
0.0
176
     1
173
     0
176
     1
1001
ACAD
1000
AcDbSavedByObjectVersion
1070
     0
  0
VISUALSTYLE
  5
3D
102
{ACAD_XDICTIONARY
360
155
102
}
102
{ACAD_REACTORS
330
29
102
}
330
29
100
AcDbVisualStyle
  2
Shaded with edges
 70
    26
177
     2
291
     0
 71
     2
176
     1
 72
     2
176
     1
 73
     1
176
     1
 90
        2
176
     1
 40
0.6
176
     1
 41
30.0
176
     1
 63
     7
421
 16777215
176
     1
 74
     1
176
     1
 91
        2
176
     1
 64
     7
176
     1
 65
   257
176
     1
 75
     2
176
     1
175
     1
176
     1
 42
1.0
176
     1
 92
        8
176
     1
 66
   257
176
     1
 43
1.0
176
     1
 76
     1
176
     1
 77
     6
176
     1
 78
     2
176
     1
 67
     7
176
     1
 79
     3
176
     1
170
     0
176
     1
171
     0
176
     1
290
     0
176
     1
 93
        5
176
     1
 44
0.0
176
     1
173
     0
176
     1
1001
ACAD
1000
AcDbSavedByObjectVersion
1070
     0
  0
VISUALSTYLE
  5
3A
102
{ACAD_XDICTIONARY
360
14F
102
}
102
{ACAD_REACTORS
330
29
102
}
330
29
100
AcDbVisualStyle
  2
Shades of Gray
 70
    23
177
     2
291
     0
 71
     2
176
     1
 72
     2
176
     1
 73
     3
176
     1
 90
        0
176
     1
 40
0.6
176
     1
 41
30.0
176
     1
 63
     7
421
 16777215
176
     1
 74
     2
176
     1
 91
        2
176
     1
 64
     7
176
     1
 65
     7
176
     1
 75
     1
176
     1
175
     1
176
     1
 42
40.0
176
     1
 92
        8
176
     1
 66
     7
176
     1
 43
1.0
176
     1
 76
     1
176
     1
 77
     6
176
     1
 78
     2
176
     1
 67
     7
176
     1
 79
     3
176
     1
170
     0
176
     1
171
     0
176
     1
290
     0
176
     1
 93
        1
176
     1
 44
0.0
176
     1
173
     0
176
     1
1001
ACAD
1000
AcDbSavedByObjectVersion
1070
     0
  0
VISUALSTYLE
  5
3B
102
{ACAD_XDICTIONARY
360
151
102
}
102
{ACAD_REACTORS
330
29
102
}
330
29
100
AcDbVisualStyle
  2
Sketchy
 70
    24
177
     2
291
     0
 71
     1
176
     1
 72
     2
176
     1
 73
     2
176
     1
 90
        0
176
     1
 40
0.6
176
     1
 41
30.0
176
     1
 63
     7
421
 16777215
176
     1
 74
     2
176
     1
 91
        2
176
     1
 64
     7
176
     1
 65
     7
176
     1
 75
     1
176
     1
175
     1
176
     1
 42
40.0
176
     1
 92
       11
176
     1
 66
     7
176
     1
 43
1.0
176
     1
 76
     1
176
     1
 77
     6
176
     1
 78
     2
176
     1
 67
     7
176
     1
 79
     6
176
     1
170
     0
176
     1
171
     0
176
     1
290
     0
176
     1
 93
        1
176
     1
 44
0.0
176
     1
173
     0
176
     1
1001
ACAD
1000
AcDbSavedByObjectVersion
1070
     0
  0
VISUALSTYLE
  5
36
102
{ACAD_XDICTIONARY
360
147
102
}
102
{ACAD_REACTORS
330
29
102
}
330
29
100
AcDbVisualStyle
  2
Thicken
 70
    13
177
     2
291
     1
 71
     2
176
     1
 72
     2
176
     1
 73
     0
176
     1
 90
        0
176
     1
 40
0.6
176
     1
 41
30.0
176
     1
 63
     7
421
 16777215
176
     1
 74
     1
176
     1
 91
        4
176
     1
 64
     7
176
     1
 65
   257
176
     1
 75
     1
176
     1
175
     1
176
     1
 42
1.0
176
     1
 92
       12
176
     1
 66
     7
176
     1
 43
1.0
176
     1
 76
     1
176
     1
 77
     6
176
     1
 78
     2
176
     1
 67
     7
176
     1
 79
     5
176
     1
170
     0
176
     1
171
     0
176
     1
290
     0
176
     1
 93
        1
176
     1
 44
0.0
176
     1
173
     0
176
     1
1001
ACAD
1000
AcDbSavedByObjectVersion
1070
     0
  0
VISUALSTYLE
  5
30
102
{ACAD_XDICTIONARY
360
13B
102
}
102
{ACAD_REACTORS
330
29
102
}
330
29
100
AcDbVisualStyle
  2
Wireframe
 70
     5
177
     2
291
     0
 71
     0
176
     1
 72
     2
176
     1
 73
     0
176
     1
 90
        0
176
     1
 40
0.6
176
     1
 41
30.0
176
     1
 63
     7
421
 16777215
176
     1
 74
     1
176
     1
 91
        4
176
     1
 64
     7
176
     1
 65
   257
176
     1
 75
     1
176
     1
175
     1
176
     1
 42
1.0
176
     1
 92
        0
176
     1
 66
   257
176
     1
 43
1.0
176
     1
 76
     1
176
     1
 77
     6
176
     1
 78
     2
176
     1
 67
     7
176
     1
 79
     3
176
     1
170
     0
176
     1
171
     0
176
     1
290
     0
176
     1
 93
        1
176
     1
 44
0.0
176
     1
173
     0
176
     1
1001
ACAD
1000
AcDbSavedByObjectVersion
1070
     0
  0
VISUALSTYLE
  5
3C
102
{ACAD_XDICTIONARY
360
153
102
}
102
{ACAD_REACTORS
330
29
102
}
330
29
100
AcDbVisualStyle
  2
X-Ray
 70
    25
177
     2
291
     0
 71
     2
176
     1
 72
     2
176
     1
 73
     1
176
     1
 90
        1
176
     1
 40
0.5
176
     1
 41
30.0
176
     1
 63
     7
421
 16777215
176
     1
 74
     1
176
     1
 91
        0
176
     1
 64
     7
176
     1
 65
   257
176
     1
 75
     1
176
     1
175
     1
176
     1
 42
1.0
176
     1
 92
        8
176
     1
 66
     7
176
     1
 43
1.0
176
     1
 76
     1
176
     1
 77
     6
176
     1
 78
     2
176
     1
 67
     7
176
     1
 79
     3
176
     1
170
     0
176
     1
171
     0
176
     1
290
     0
176
     1
 93
       13
176
     1
 44
0.0
176
     1
173
     0
176
     1
1001
ACAD
1000
AcDbSavedByObjectVersion
1070
     0
  0
DICTIONARYVAR
  5
12B
102
{ACAD_REACTORS
330
126
102
}
330
126
100
DictionaryVariables
280
     0
  1
1:1
  0
DICTIONARYVAR
  5
128
102
{ACAD_REACTORS
330
126
102
}
330
126
100
DictionaryVariables
280
     0
  1
STANDARD
  0
DICTIONARYVAR
  5
127
102
{ACAD_REACTORS
330
126
102
}
330
126
100
DictionaryVariables
280
     0
  1
STANDARD
  0
DICTIONARYVAR
  5
129
102
{ACAD_REACTORS
330
126
102
}
330
126
100
DictionaryVariables
280
     0
  1
Imperial24
  0
DICTIONARYVAR
  5
12A
102
{ACAD_REACTORS
330
126
102
}
330
126
100
DictionaryVariables
280
     0
  1
Imperial24
  0
DICTIONARY
  5
163
330
6B
100
AcDbDictionary
280
     1
281
     1
  3
ACAD_XREC_ROUNDTRIP
360
164
  0
DICTIONARY
  5
1A
330
19
100
AcDbDictionary
280
     1
281
     1
  3
BUMPTILE
360
1C
  3
DIFFUSETILE
360
1B
  3
OPACITYTILE
360
1F
  3
REFLECTIONTILE
360
1E
  3
REFRACTIONTILE
360
20
  3
SPECULARTILE
360
1D
  0
DICTIONARY
  5
12
330
11
100
AcDbDictionary
280
     1
281
     1
  3
BUMPTILE
360
14
  3
DIFFUSETILE
360
13
  3
OPACITYTILE
360
17
  3
REFLECTIONTILE
360
16
  3
REFRACTIONTILE
360
18
  3
SPECULARTILE
360
15
  0
DICTIONARY
  5
22
330
21
100
AcDbDictionary
280
     1
281
     1
  3
BUMPTILE
360
24
  3
DIFFUSETILE
360
23
  3
OPACITYTILE
360
27
  3
REFLECTIONTILE
360
26
  3
REFRACTIONTILE
360
28
  3
SPECULARTILE
360
25
  0
DICTIONARY
  5
15F
330
67
100
AcDbDictionary
280
     1
281
     1
  3
ACAD_XREC_ROUNDTRIP
360
160
  0
DICTIONARY
  5
161
330
69
100
AcDbDictionary
280
     1
281
     1
  3
ACAD_XREC_ROUNDTRIP
360
162
  0
DICTIONARY
  5
12C
330
65
100
AcDbDictionary
280
     1
281
     1
  3
ACAD_ROUNDTRIP_2008_TABLESTYLE_CELLSTYLEMAP
360
12D
  0
DICTIONARY
  5
139
330
2F
100
AcDbDictionary
280
     1
281
     1
  3
ACAD_XREC_ROUNDTRIP
360
13A
  0
DICTIONARY
  5
137
330
2E
100
AcDbDictionary
280
     1
281
     1
  3
ACAD_XREC_ROUNDTRIP
360
138
  0
DICTIONARY
  5
145
330
35
100
AcDbDictionary
280
     1
281
     1
  3
ACAD_XREC_ROUNDTRIP
360
146
  0
DICTIONARY
  5
14D
330
39
100
AcDbDictionary
280
     1
281
     1
  3
ACAD_XREC_ROUNDTRIP
360
14E
  0
DICTIONARY
  5
13F
330
32
100
AcDbDictionary
280
     1
281
     1
  3
ACAD_XREC_ROUNDTRIP
360
140
  0
DICTIONARY
  5
143
330
34
100
AcDbDictionary
280
     1
281
     1
  3
ACAD_XREC_ROUNDTRIP
360
144
  0
DICTIONARY
  5
15D
330
41
100
AcDbDictionary
280
     1
281
     1
  3
ACAD_XREC_ROUNDTRIP
360
15E
  0
DICTIONARY
  5
14B
330
38
100
AcDbDictionary
280
     1
281
     1
  3
ACAD_XREC_ROUNDTRIP
360
14C
  0
DICTIONARY
  5
12F
330
2A
100
AcDbDictionary
280
     1
281
     1
  3
ACAD_XREC_ROUNDTRIP
360
130
  0
DICTIONARY
  5
131
330
2B
100
AcDbDictionary
280
     1
281
     1
  3
ACAD_XREC_ROUNDTRIP
360
132
  0
DICTIONARY
  5
133
330
2C
100
AcDbDictionary
280
     1
281
     1
  3
ACAD_XREC_ROUNDTRIP
360
134
  0
DICTIONARY
  5
135
330
2D
100
AcDbDictionary
280
     1
281
     1
  3
ACAD_XREC_ROUNDTRIP
360
136
  0
DICTIONARY
  5
13D
330
31
100
AcDbDictionary
280
     1
281
     1
  3
ACAD_XREC_ROUNDTRIP
360
13E
  0
DICTIONARY
  5
159
330
3F
100
AcDbDictionary
280
     1
281
     1
  3
ACAD_XREC_ROUNDTRIP
360
15A
  0
DICTIONARY
  5
149
330
37
100
AcDbDictionary
280
     1
281
     1
  3
ACAD_XREC_ROUNDTRIP
360
14A
  0
DICTIONARY
  5
15B
330
40
100
AcDbDictionary
280
     1
281
     1
  3
ACAD_XREC_ROUNDTRIP
360
15C
  0
DICTIONARY
  5
141
330
33
100
AcDbDictionary
280
     1
281
     1
  3
ACAD_XREC_ROUNDTRIP
360
142
  0
DICTIONARY
  5
157
330
3E
100
AcDbDictionary
280
     1
281
     1
  3
ACAD_XREC_ROUNDTRIP
360
158
  0
DICTIONARY
  5
155
330
3D
100
AcDbDictionary
280
     1
281
     1
  3
ACAD_XREC_ROUNDTRIP
360
156
  0
DICTIONARY
  5
14F
330
3A
100
AcDbDictionary
280
     1
281
     1
  3
ACAD_XREC_ROUNDTRIP
360
150
  0
DICTIONARY
  5
151
330
3B
100
AcDbDictionary
280
     1
281
     1
  3
ACAD_XREC_ROUNDTRIP
360
152
  0
DICTIONARY
  5
147
330
36
100
AcDbDictionary
280
     1
281
     1
  3
ACAD_XREC_ROUNDTRIP
360
148
  0
DICTIONARY
  5
13B
330
30
100
AcDbDictionary
280
     1
281
     1
  3
ACAD_XREC_ROUNDTRIP
360
13C
  0
DICTIONARY
  5
153
330
3C
100
AcDbDictionary
280
     1
281
     1
  3
ACAD_XREC_ROUNDTRIP
360
154
  0
XRECORD
  5
164
102
{ACAD_REACTORS
330
163
102
}
330
163
100
AcDbXrecord
280
     1
102
DISPLAYNAME
  1
Imperial24
102
FLAGS
 90
        0
  0
XRECORD
  5
1C
102
{ACAD_REACTORS
330
1A
102
}
330
1A
100
AcDbXrecord
280
     1
270
     1
271
     1
  0
XRECORD
  5
1B
102
{ACAD_REACTORS
330
1A
102
}
330
1A
100
AcDbXrecord
280
     1
270
     1
271
     1
  0
XRECORD
  5
1F
102
{ACAD_REACTORS
330
1A
102
}
330
1A
100
AcDbXrecord
280
     1
270
     1
271
     1
  0
XRECORD
  5
1E
102
{ACAD_REACTORS
330
1A
102
}
330
1A
100
AcDbXrecord
280
     1
270
     1
271
     1
  0
XRECORD
  5
20
102
{ACAD_REACTORS
330
1A
102
}
330
1A
100
AcDbXrecord
280
     1
270
     1
271
     1
  0
XRECORD
  5
1D
102
{ACAD_REACTORS
330
1A
102
}
330
1A
100
AcDbXrecord
280
     1
270
     1
271
     1
  0
XRECORD
  5
14
102
{ACAD_REACTORS
330
12
102
}
330
12
100
AcDbXrecord
280
     1
270
     1
271
     1
  0
XRECORD
  5
13
102
{ACAD_REACTORS
330
12
102
}
330
12
100
AcDbXrecord
280
     1
270
     1
271
     1
  0
XRECORD
  5
17
102
{ACAD_REACTORS
330
12
102
}
330
12
100
AcDbXrecord
280
     1
270
     1
271
     1
  0
XRECORD
  5
16
102
{ACAD_REACTORS
330
12
102
}
330
12
100
AcDbXrecord
280
     1
270
     1
271
     1
  0
XRECORD
  5
18
102
{ACAD_REACTORS
330
12
102
}
330
12
100
AcDbXrecord
280
     1
270
     1
271
     1
  0
XRECORD
  5
15
102
{ACAD_REACTORS
330
12
102
}
330
12
100
AcDbXrecord
280
     1
270
     1
271
     1
  0
XRECORD
  5
24
102
{ACAD_REACTORS
330
22
102
}
330
22
100
AcDbXrecord
280
     1
270
     1
271
     1
  0
XRECORD
  5
23
102
{ACAD_REACTORS
330
22
102
}
330
22
100
AcDbXrecord
280
     1
270
     1
271
     1
  0
XRECORD
  5
27
102
{ACAD_REACTORS
330
22
102
}
330
22
100
AcDbXrecord
280
     1
270
     1
271
     1
  0
XRECORD
  5
26
102
{ACAD_REACTORS
330
22
102
}
330
22
100
AcDbXrecord
280
     1
270
     1
271
     1
  0
XRECORD
  5
28
102
{ACAD_REACTORS
330
22
102
}
330
22
100
AcDbXrecord
280
     1
270
     1
271
     1
  0
XRECORD
  5
25
102
{ACAD_REACTORS
330
22
102
}
330
22
100
AcDbXrecord
280
     1
270
     1
271
     1
  0
XRECORD
  5
160
102
{ACAD_REACTORS
330
15F
102
}
330
15F
100
AcDbXrecord
280
     1
102
ACAD_ROUNDTRIP_2012_MLEADER_STYLE
298
     1
  0
XRECORD
  5
162
102
{ACAD_REACTORS
330
161
102
}
330
161
100
AcDbXrecord
280
     1
102
DISPLAYNAME
  1
Imperial24
102
FLAGS
 90
        0
  0
CELLSTYLEMAP
  5
12D
102
{ACAD_REACTORS
330
12C
102
}
330
12C
100
AcDbCellStyleMap
 90
        3
300
CELLSTYLE
  1
TABLEFORMAT_BEGIN
 90
        5
170
     1
 91
        0
 92
    32768
 62
   257
 93
        1
300
CONTENTFORMAT
  1
CONTENTFORMAT_BEGIN
 90
        0
 91
        0
 92
      512
 93
        0
300

 40
0.0
140
1.0
 94
        5
 62
     0
340
55
144
0.25
309
CONTENTFORMAT_END
171
     0
 94
        0
309
TABLEFORMAT_END
  1
CELLSTYLE_BEGIN
 90
        1
 91
        1
300
_TITLE
309
CELLSTYLE_END
300
CELLSTYLE
  1
TABLEFORMAT_BEGIN
 90
        5
170
     1
 91
        0
 92
        0
 62
   257
 93
        1
300
CONTENTFORMAT
  1
CONTENTFORMAT_BEGIN
 90
        0
 91
        0
 92
      512
 93
        0
300

 40
0.0
140
1.0
 94
        5
 62
     0
340
55
144
0.18
309
CONTENTFORMAT_END
171
     0
 94
        0
309
TABLEFORMAT_END
  1
CELLSTYLE_BEGIN
 90
        2
 91
        1
300
_HEADER
309
CELLSTYLE_END
300
CELLSTYLE
  1
TABLEFORMAT_BEGIN
 90
        5
170
     1
 91
        0
 92
        0
 62
   257
 93
        1
300
CONTENTFORMAT
  1
CONTENTFORMAT_BEGIN
 90
        0
 91
        0
 92
      512
 93
        0
300

 40
0.0
140
1.0
 94
        2
 62
     0
340
55
144
0.18
309
CONTENTFORMAT_END
171
     0
 94
        0
309
TABLEFORMAT_END
  1
CELLSTYLE_BEGIN
 90
        3
 91
        2
300
_DATA
309
CELLSTYLE_END
  0
XRECORD
  5
13A
102
{ACAD_REACTORS
330
139
102
}
330
139
100
AcDbXrecord
280
     1
102
RTVSPost2010Prop28
280
     1
102
RTVSPost2010PropOp28
 70
     1
102
RTVSPost2010Prop29
280
     1
102
RTVSPost2010PropOp29
 70
     1
102
RTVSPost2010Prop30
280
     0
102
RTVSPost2010PropOp30
 70
     1
102
RTVSPost2010Prop31
280
     0
102
RTVSPost2010PropOp31
 70
     1
102
RTVSPost2010Prop32
280
     0
102
RTVSPost2010PropOp32
 70
     1
102
RTVSPost2010Prop33
280
     0
102
RTVSPost2010PropOp33
 70
     1
102
RTVSPost2010Prop34
280
     0
102
RTVSPost2010PropOp34
 70
     1
102
RTVSPost2010Prop35
280
     0
102
RTVSPost2010PropOp35
 70
     1
102
RTVSPost2010Prop36
280
     0
102
RTVSPost2010PropOp36
 70
     1
102
RTVSPost2010Prop37
 90
       50
102
RTVSPost2010PropOp37
 70
     1
102
RTVSPost2010Prop38
140
0.0
102
RTVSPost2010PropOp38
 70
     1
102
RTVSPost2010Prop39
140
1.0
102
RTVSPost2010PropOp39
 70
     1
102
RTVSPost2010Prop40
 90
        0
102
RTVSPost2010PropOp40
 70
     1
102
RTVSPost2010Prop41ColorIndex
 90
       18
102
RTVSPost2010Prop41ColorRGB
 90
        0
102
RTVSPost2010PropOp41
 70
     1
102
RTVSPost2010Prop42
 90
       50
102
RTVSPost2010PropOp42
 70
     1
102
RTVSPost2010Prop43
 90
        3
102
RTVSPost2010PropOp43
 70
     1
102
RTVSPost2010Prop44ColorIndex
 90
        5
102
RTVSPost2010Prop44ColorRGB
 90
      255
102
RTVSPost2010PropOp44
 70
     1
102
RTVSPost2010Prop45
280
     0
102
RTVSPost2010PropOp45
 70
     1
102
RTVSPost2010Prop46
 90
       50
102
RTVSPost2010PropOp46
 70
     1
102
RTVSPost2010Prop47
 90
       50
102
RTVSPost2010PropOp47
 70
     1
102
RTVSPost2010Prop48
 90
       50
102
RTVSPost2010PropOp48
 70
     1
102
RTVSPost2010Prop49
280
     0
102
RTVSPost2010PropOp49
 70
     1
102
RTVSPost2010Prop50
 90
       50
102
RTVSPost2010PropOp50
 70
     1
102
RTVSPost2010Prop51ColorIndex
 90
      256
102
RTVSPost2010Prop51ColorRGB
 90
-16777216
102
RTVSPost2010PropOp51
 70
     0
102
RTVSPost2010Prop52
140
1.0
102
RTVSPost2010PropOp52
 70
     0
102
RTVSPost2010Prop53
 90
        2
102
RTVSPost2010PropOp53
 70
     1
102
RTVSPost2010Prop54
  1
strokes_ogs.tif
102
RTVSPost2010PropOp54
 70
     1
102
RTVSPost2010Prop55
280
     0
102
RTVSPost2010PropOp55
 70
     1
102
RTVSPost2010Prop56
140
1.0
102
RTVSPost2010PropOp56
 70
     1
102
RTVSPost2010Prop57
140
1.0
102
RTVSPost2010PropOp57
 70
     1
  0
XRECORD
  5
138
102
{ACAD_REACTORS
330
137
102
}
330
137
100
AcDbXrecord
280
     1
102
RTVSPost2010Prop28
280
     0
102
RTVSPost2010PropOp28
 70
     1
102
RTVSPost2010Prop29
280
     1
102
RTVSPost2010PropOp29
 70
     1
102
RTVSPost2010Prop30
280
     1
102
RTVSPost2010PropOp30
 70
     1
102
RTVSPost2010Prop31
280
     0
102
RTVSPost2010PropOp31
 70
     1
102
RTVSPost2010Prop32
280
     0
102
RTVSPost2010PropOp32
 70
     1
102
RTVSPost2010Prop33
280
     0
102
RTVSPost2010PropOp33
 70
     1
102
RTVSPost2010Prop34
280
     0
102
RTVSPost2010PropOp34
 70
     1
102
RTVSPost2010Prop35
280
     0
102
RTVSPost2010PropOp35
 70
     1
102
RTVSPost2010Prop36
280
     0
102
RTVSPost2010PropOp36
 70
     1
102
RTVSPost2010Prop37
 90
       50
102
RTVSPost2010PropOp37
 70
     1
102
RTVSPost2010Prop38
140
0.0
102
RTVSPost2010PropOp38
 70
     1
102
RTVSPost2010Prop39
140
1.0
102
RTVSPost2010PropOp39
 70
     1
102
RTVSPost2010Prop40
 90
        0
102
RTVSPost2010PropOp40
 70
     1
102
RTVSPost2010Prop41ColorIndex
 90
       18
102
RTVSPost2010Prop41ColorRGB
 90
        0
102
RTVSPost2010PropOp41
 70
     1
102
RTVSPost2010Prop42
 90
       50
102
RTVSPost2010PropOp42
 70
     1
102
RTVSPost2010Prop43
 90
        3
102
RTVSPost2010PropOp43
 70
     1
102
RTVSPost2010Prop44ColorIndex
 90
        5
102
RTVSPost2010Prop44ColorRGB
 90
      255
102
RTVSPost2010PropOp44
 70
     1
102
RTVSPost2010Prop45
280
     0
102
RTVSPost2010PropOp45
 70
     1
102
RTVSPost2010Prop46
 90
       50
102
RTVSPost2010PropOp46
 70
     1
102
RTVSPost2010Prop47
 90
       50
102
RTVSPost2010PropOp47
 70
     1
102
RTVSPost2010Prop48
 90
       50
102
RTVSPost2010PropOp48
 70
     1
102
RTVSPost2010Prop49
280
     0
102
RTVSPost2010PropOp49
 70
     1
102
RTVSPost2010Prop50
 90
       50
102
RTVSPost2010PropOp50
 70
     1
102
RTVSPost2010Prop51ColorIndex
 90
      256
102
RTVSPost2010Prop51ColorRGB
 90
-16777216
102
RTVSPost2010PropOp51
 70
     0
102
RTVSPost2010Prop52
140
1.0
102
RTVSPost2010PropOp52
 70
     0
102
RTVSPost2010Prop53
 90
        2
102
RTVSPost2010PropOp53
 70
     1
102
RTVSPost2010Prop54
  1
strokes_ogs.tif
102
RTVSPost2010PropOp54
 70
     1
102
RTVSPost2010Prop55
280
     0
102
RTVSPost2010PropOp55
 70
     1
102
RTVSPost2010Prop56
140
1.0
102
RTVSPost2010PropOp56
 70
     1
102
RTVSPost2010Prop57
140
1.0
102
RTVSPost2010PropOp57
 70
     1
  0
XRECORD
  5
146
102
{ACAD_REACTORS
330
145
102
}
330
145
100
AcDbXrecord
280
     1
102
RTVSPost2010Prop28
280
     0
102
RTVSPost2010PropOp28
 70
     1
102
RTVSPost2010Prop29
280
     1
102
RTVSPost2010PropOp29
 70
     1
102
RTVSPost2010Prop30
280
     1
102
RTVSPost2010PropOp30
 70
     1
102
RTVSPost2010Prop31
280
     0
102
RTVSPost2010PropOp31
 70
     1
102
RTVSPost2010Prop32
280
     0
102
RTVSPost2010PropOp32
 70
     1
102
RTVSPost2010Prop33
280
     0
102
RTVSPost2010PropOp33
 70
     1
102
RTVSPost2010Prop34
280
     0
102
RTVSPost2010PropOp34
 70
     1
102
RTVSPost2010Prop35
280
     0
102
RTVSPost2010PropOp35
 70
     1
102
RTVSPost2010Prop36
280
     0
102
RTVSPost2010PropOp36
 70
     1
102
RTVSPost2010Prop37
 90
       50
102
RTVSPost2010PropOp37
 70
     1
102
RTVSPost2010Prop38
140
0.0
102
RTVSPost2010PropOp38
 70
     1
102
RTVSPost2010Prop39
140
1.0
102
RTVSPost2010PropOp39
 70
     1
102
RTVSPost2010Prop40
 90
        0
102
RTVSPost2010PropOp40
 70
     1
102
RTVSPost2010Prop41ColorIndex
 90
       18
102
RTVSPost2010Prop41ColorRGB
 90
        0
102
RTVSPost2010PropOp41
 70
     1
102
RTVSPost2010Prop42
 90
       50
102
RTVSPost2010PropOp42
 70
     1
102
RTVSPost2010Prop43
 90
        3
102
RTVSPost2010PropOp43
 70
     1
102
RTVSPost2010Prop44ColorIndex
 90
        5
102
RTVSPost2010Prop44ColorRGB
 90
      255
102
RTVSPost2010PropOp44
 70
     1
102
RTVSPost2010Prop45
280
     0
102
RTVSPost2010PropOp45
 70
     1
102
RTVSPost2010Prop46
 90
       50
102
RTVSPost2010PropOp46
 70
     1
102
RTVSPost2010Prop47
 90
       50
102
RTVSPost2010PropOp47
 70
     1
102
RTVSPost2010Prop48
 90
       50
102
RTVSPost2010PropOp48
 70
     1
102
RTVSPost2010Prop49
280
     0
102
RTVSPost2010PropOp49
 70
     1
102
RTVSPost2010Prop50
 90
       50
102
RTVSPost2010PropOp50
 70
     1
102
RTVSPost2010Prop51ColorIndex
 90
      256
102
RTVSPost2010Prop51ColorRGB
 90
-16777216
102
RTVSPost2010PropOp51
 70
     0
102
RTVSPost2010Prop52
140
1.0
102
RTVSPost2010PropOp52
 70
     0
102
RTVSPost2010Prop53
 90
        2
102
RTVSPost2010PropOp53
 70
     1
102
RTVSPost2010Prop54
  1
strokes_ogs.tif
102
RTVSPost2010PropOp54
 70
     1
102
RTVSPost2010Prop55
280
     0
102
RTVSPost2010PropOp55
 70
     1
102
RTVSPost2010Prop56
140
1.0
102
RTVSPost2010PropOp56
 70
     1
102
RTVSPost2010Prop57
140
1.0
102
RTVSPost2010PropOp57
 70
     1
  0
XRECORD
  5
14E
102
{ACAD_REACTORS
330
14D
102
}
330
14D
100
AcDbXrecord
280
     1
102
RTVSPost2010Prop28
280
     0
102
RTVSPost2010PropOp28
 70
     1
102
RTVSPost2010Prop29
280
     1
102
RTVSPost2010PropOp29
 70
     1
102
RTVSPost2010Prop30
280
     1
102
RTVSPost2010PropOp30
 70
     1
102
RTVSPost2010Prop31
280
     0
102
RTVSPost2010PropOp31
 70
     1
102
RTVSPost2010Prop32
280
     0
102
RTVSPost2010PropOp32
 70
     1
102
RTVSPost2010Prop33
280
     0
102
RTVSPost2010PropOp33
 70
     1
102
RTVSPost2010Prop34
280
     0
102
RTVSPost2010PropOp34
 70
     1
102
RTVSPost2010Prop35
280
     0
102
RTVSPost2010PropOp35
 70
     1
102
RTVSPost2010Prop36
280
     0
102
RTVSPost2010PropOp36
 70
     1
102
RTVSPost2010Prop37
 90
       50
102
RTVSPost2010PropOp37
 70
     1
102
RTVSPost2010Prop38
140
0.0
102
RTVSPost2010PropOp38
 70
     1
102
RTVSPost2010Prop39
140
1.0
102
RTVSPost2010PropOp39
 70
     1
102
RTVSPost2010Prop40
 90
        0
102
RTVSPost2010PropOp40
 70
     1
102
RTVSPost2010Prop41ColorIndex
 90
       18
102
RTVSPost2010Prop41ColorRGB
 90
        0
102
RTVSPost2010PropOp41
 70
     1
102
RTVSPost2010Prop42
 90
       50
102
RTVSPost2010PropOp42
 70
     1
102
RTVSPost2010Prop43
 90
        3
102
RTVSPost2010PropOp43
 70
     1
102
RTVSPost2010Prop44ColorIndex
 90
        5
102
RTVSPost2010Prop44ColorRGB
 90
      255
102
RTVSPost2010PropOp44
 70
     1
102
RTVSPost2010Prop45
280
     0
102
RTVSPost2010PropOp45
 70
     1
102
RTVSPost2010Prop46
 90
       50
102
RTVSPost2010PropOp46
 70
     1
102
RTVSPost2010Prop47
 90
       50
102
RTVSPost2010PropOp47
 70
     1
102
RTVSPost2010Prop48
 90
       50
102
RTVSPost2010PropOp48
 70
     1
102
RTVSPost2010Prop49
280
     0
102
RTVSPost2010PropOp49
 70
     1
102
RTVSPost2010Prop50
 90
       50
102
RTVSPost2010PropOp50
 70
     1
102
RTVSPost2010Prop51ColorIndex
 90
      256
102
RTVSPost2010Prop51ColorRGB
 90
-16777216
102
RTVSPost2010PropOp51
 70
     0
102
RTVSPost2010Prop52
140
1.0
102
RTVSPost2010PropOp52
 70
     0
102
RTVSPost2010Prop53
 90
        2
102
RTVSPost2010PropOp53
 70
     1
102
RTVSPost2010Prop54
  1
strokes_ogs.tif
102
RTVSPost2010PropOp54
 70
     1
102
RTVSPost2010Prop55
280
     0
102
RTVSPost2010PropOp55
 70
     1
102
RTVSPost2010Prop56
140
1.0
102
RTVSPost2010PropOp56
 70
     1
102
RTVSPost2010Prop57
140
1.0
102
RTVSPost2010PropOp57
 70
     1
  0
XRECORD
  5
140
102
{ACAD_REACTORS
330
13F
102
}
330
13F
100
AcDbXrecord
280
     1
102
RTVSPost2010Prop28
280
     0
102
RTVSPost2010PropOp28
 70
     1
102
RTVSPost2010Prop29
280
     1
102
RTVSPost2010PropOp29
 70
     1
102
RTVSPost2010Prop30
280
     1
102
RTVSPost2010PropOp30
 70
     1
102
RTVSPost2010Prop31
280
     0
102
RTVSPost2010PropOp31
 70
     1
102
RTVSPost2010Prop32
280
     0
102
RTVSPost2010PropOp32
 70
     1
102
RTVSPost2010Prop33
280
     0
102
RTVSPost2010PropOp33
 70
     1
102
RTVSPost2010Prop34
280
     0
102
RTVSPost2010PropOp34
 70
     1
102
RTVSPost2010Prop35
280
     0
102
RTVSPost2010PropOp35
 70
     1
102
RTVSPost2010Prop36
280
     0
102
RTVSPost2010PropOp36
 70
     1
102
RTVSPost2010Prop37
 90
       50
102
RTVSPost2010PropOp37
 70
     1
102
RTVSPost2010Prop38
140
0.0
102
RTVSPost2010PropOp38
 70
     1
102
RTVSPost2010Prop39
140
1.0
102
RTVSPost2010PropOp39
 70
     1
102
RTVSPost2010Prop40
 90
        0
102
RTVSPost2010PropOp40
 70
     1
102
RTVSPost2010Prop41ColorIndex
 90
       18
102
RTVSPost2010Prop41ColorRGB
 90
        0
102
RTVSPost2010PropOp41
 70
     1
102
RTVSPost2010Prop42
 90
       50
102
RTVSPost2010PropOp42
 70
     1
102
RTVSPost2010Prop43
 90
        3
102
RTVSPost2010PropOp43
 70
     1
102
RTVSPost2010Prop44ColorIndex
 90
        5
102
RTVSPost2010Prop44ColorRGB
 90
      255
102
RTVSPost2010PropOp44
 70
     1
102
RTVSPost2010Prop45
280
     0
102
RTVSPost2010PropOp45
 70
     1
102
RTVSPost2010Prop46
 90
       50
102
RTVSPost2010PropOp46
 70
     1
102
RTVSPost2010Prop47
 90
       50
102
RTVSPost2010PropOp47
 70
     1
102
RTVSPost2010Prop48
 90
       50
102
RTVSPost2010PropOp48
 70
     1
102
RTVSPost2010Prop49
280
     0
102
RTVSPost2010PropOp49
 70
     1
102
RTVSPost2010Prop50
 90
       50
102
RTVSPost2010PropOp50
 70
     1
102
RTVSPost2010Prop51ColorIndex
 90
      256
102
RTVSPost2010Prop51ColorRGB
 90
-16777216
102
RTVSPost2010PropOp51
 70
     0
102
RTVSPost2010Prop52
140
1.0
102
RTVSPost2010PropOp52
 70
     0
102
RTVSPost2010Prop53
 90
        2
102
RTVSPost2010PropOp53
 70
     1
102
RTVSPost2010Prop54
  1
strokes_ogs.tif
102
RTVSPost2010PropOp54
 70
     1
102
RTVSPost2010Prop55
280
     0
102
RTVSPost2010PropOp55
 70
     1
102
RTVSPost2010Prop56
140
1.0
102
RTVSPost2010PropOp56
 70
     1
102
RTVSPost2010Prop57
140
1.0
102
RTVSPost2010PropOp57
 70
     1
  0
XRECORD
  5
144
102
{ACAD_REACTORS
330
143
102
}
330
143
100
AcDbXrecord
280
     1
102
RTVSPost2010Prop28
280
     0
102
RTVSPost2010PropOp28
 70
     1
102
RTVSPost2010Prop29
280
     1
102
RTVSPost2010PropOp29
 70
     1
102
RTVSPost2010Prop30
280
     1
102
RTVSPost2010PropOp30
 70
     1
102
RTVSPost2010Prop31
280
     0
102
RTVSPost2010PropOp31
 70
     1
102
RTVSPost2010Prop32
280
     0
102
RTVSPost2010PropOp32
 70
     1
102
RTVSPost2010Prop33
280
     0
102
RTVSPost2010PropOp33
 70
     1
102
RTVSPost2010Prop34
280
     0
102
RTVSPost2010PropOp34
 70
     1
102
RTVSPost2010Prop35
280
     0
102
RTVSPost2010PropOp35
 70
     1
102
RTVSPost2010Prop36
280
     0
102
RTVSPost2010PropOp36
 70
     1
102
RTVSPost2010Prop37
 90
       50
102
RTVSPost2010PropOp37
 70
     1
102
RTVSPost2010Prop38
140
0.0
102
RTVSPost2010PropOp38
 70
     1
102
RTVSPost2010Prop39
140
1.0
102
RTVSPost2010PropOp39
 70
     1
102
RTVSPost2010Prop40
 90
        0
102
RTVSPost2010PropOp40
 70
     1
102
RTVSPost2010Prop41ColorIndex
 90
       18
102
RTVSPost2010Prop41ColorRGB
 90
        0
102
RTVSPost2010PropOp41
 70
     1
102
RTVSPost2010Prop42
 90
       50
102
RTVSPost2010PropOp42
 70
     1
102
RTVSPost2010Prop43
 90
        3
102
RTVSPost2010PropOp43
 70
     1
102
RTVSPost2010Prop44ColorIndex
 90
        5
102
RTVSPost2010Prop44ColorRGB
 90
      255
102
RTVSPost2010PropOp44
 70
     1
102
RTVSPost2010Prop45
280
     0
102
RTVSPost2010PropOp45
 70
     1
102
RTVSPost2010Prop46
 90
       50
102
RTVSPost2010PropOp46
 70
     1
102
RTVSPost2010Prop47
 90
       50
102
RTVSPost2010PropOp47
 70
     1
102
RTVSPost2010Prop48
 90
       50
102
RTVSPost2010PropOp48
 70
     1
102
RTVSPost2010Prop49
280
     0
102
RTVSPost2010PropOp49
 70
     1
102
RTVSPost2010Prop50
 90
       50
102
RTVSPost2010PropOp50
 70
     1
102
RTVSPost2010Prop51ColorIndex
 90
      256
102
RTVSPost2010Prop51ColorRGB
 90
-16777216
102
RTVSPost2010PropOp51
 70
     0
102
RTVSPost2010Prop52
140
1.0
102
RTVSPost2010PropOp52
 70
     0
102
RTVSPost2010Prop53
 90
        2
102
RTVSPost2010PropOp53
 70
     1
102
RTVSPost2010Prop54
  1
strokes_ogs.tif
102
RTVSPost2010PropOp54
 70
     1
102
RTVSPost2010Prop55
280
     0
102
RTVSPost2010PropOp55
 70
     1
102
RTVSPost2010Prop56
140
1.0
102
RTVSPost2010PropOp56
 70
     1
102
RTVSPost2010Prop57
140
1.0
102
RTVSPost2010PropOp57
 70
     1
  0
XRECORD
  5
15E
102
{ACAD_REACTORS
330
15D
102
}
330
15D
100
AcDbXrecord
280
     1
102
RTVSPost2010Prop28
280
     0
102
RTVSPost2010PropOp28
 70
     0
102
RTVSPost2010Prop29
280
     1
102
RTVSPost2010PropOp29
 70
     0
102
RTVSPost2010Prop30
280
     1
102
RTVSPost2010PropOp30
 70
     0
102
RTVSPost2010Prop31
280
     0
102
RTVSPost2010PropOp31
 70
     0
102
RTVSPost2010Prop32
280
     0
102
RTVSPost2010PropOp32
 70
     0
102
RTVSPost2010Prop33
280
     0
102
RTVSPost2010PropOp33
 70
     0
102
RTVSPost2010Prop34
280
     0
102
RTVSPost2010PropOp34
 70
     0
102
RTVSPost2010Prop35
280
     0
102
RTVSPost2010PropOp35
 70
     0
102
RTVSPost2010Prop36
280
     0
102
RTVSPost2010PropOp36
 70
     0
102
RTVSPost2010Prop37
 90
       50
102
RTVSPost2010PropOp37
 70
     0
102
RTVSPost2010Prop38
140
0.0
102
RTVSPost2010PropOp38
 70
     0
102
RTVSPost2010Prop39
140
1.0
102
RTVSPost2010PropOp39
 70
     0
102
RTVSPost2010Prop40
 90
        0
102
RTVSPost2010PropOp40
 70
     0
102
RTVSPost2010Prop41ColorIndex
 90
       18
102
RTVSPost2010Prop41ColorRGB
 90
        0
102
RTVSPost2010PropOp41
 70
     0
102
RTVSPost2010Prop42
 90
       50
102
RTVSPost2010PropOp42
 70
     0
102
RTVSPost2010Prop43
 90
        3
102
RTVSPost2010PropOp43
 70
     0
102
RTVSPost2010Prop44ColorIndex
 90
        5
102
RTVSPost2010Prop44ColorRGB
 90
      255
102
RTVSPost2010PropOp44
 70
     0
102
RTVSPost2010Prop45
280
     0
102
RTVSPost2010PropOp45
 70
     0
102
RTVSPost2010Prop46
 90
       50
102
RTVSPost2010PropOp46
 70
     0
102
RTVSPost2010Prop47
 90
       50
102
RTVSPost2010PropOp47
 70
     0
102
RTVSPost2010Prop48
 90
       50
102
RTVSPost2010PropOp48
 70
     0
102
RTVSPost2010Prop49
280
     0
102
RTVSPost2010PropOp49
 70
     0
102
RTVSPost2010Prop50
 90
       50
102
RTVSPost2010PropOp50
 70
     0
102
RTVSPost2010Prop51ColorIndex
 90
      256
102
RTVSPost2010Prop51ColorRGB
 90
-16777216
102
RTVSPost2010PropOp51
 70
     0
102
RTVSPost2010Prop52
140
1.0
102
RTVSPost2010PropOp52
 70
     0
102
RTVSPost2010Prop53
 90
        2
102
RTVSPost2010PropOp53
 70
     0
102
RTVSPost2010Prop54
  1
strokes_ogs.tif
102
RTVSPost2010PropOp54
 70
     0
102
RTVSPost2010Prop55
280
     0
102
RTVSPost2010PropOp55
 70
     0
102
RTVSPost2010Prop56
140
1.0
102
RTVSPost2010PropOp56
 70
     0
102
RTVSPost2010Prop57
140
1.0
102
RTVSPost2010PropOp57
 70
     0
  0
XRECORD
  5
14C
102
{ACAD_REACTORS
330
14B
102
}
330
14B
100
AcDbXrecord
280
     1
102
RTVSPost2010Prop28
280
     0
102
RTVSPost2010PropOp28
 70
     1
102
RTVSPost2010Prop29
280
     1
102
RTVSPost2010PropOp29
 70
     1
102
RTVSPost2010Prop30
280
     1
102
RTVSPost2010PropOp30
 70
     1
102
RTVSPost2010Prop31
280
     0
102
RTVSPost2010PropOp31
 70
     1
102
RTVSPost2010Prop32
280
     0
102
RTVSPost2010PropOp32
 70
     1
102
RTVSPost2010Prop33
280
     0
102
RTVSPost2010PropOp33
 70
     1
102
RTVSPost2010Prop34
280
     0
102
RTVSPost2010PropOp34
 70
     1
102
RTVSPost2010Prop35
280
     0
102
RTVSPost2010PropOp35
 70
     1
102
RTVSPost2010Prop36
280
     0
102
RTVSPost2010PropOp36
 70
     1
102
RTVSPost2010Prop37
 90
       50
102
RTVSPost2010PropOp37
 70
     1
102
RTVSPost2010Prop38
140
0.0
102
RTVSPost2010PropOp38
 70
     1
102
RTVSPost2010Prop39
140
1.0
102
RTVSPost2010PropOp39
 70
     1
102
RTVSPost2010Prop40
 90
        0
102
RTVSPost2010PropOp40
 70
     1
102
RTVSPost2010Prop41ColorIndex
 90
       18
102
RTVSPost2010Prop41ColorRGB
 90
        0
102
RTVSPost2010PropOp41
 70
     1
102
RTVSPost2010Prop42
 90
       50
102
RTVSPost2010PropOp42
 70
     1
102
RTVSPost2010Prop43
 90
        3
102
RTVSPost2010PropOp43
 70
     1
102
RTVSPost2010Prop44ColorIndex
 90
        5
102
RTVSPost2010Prop44ColorRGB
 90
      255
102
RTVSPost2010PropOp44
 70
     1
102
RTVSPost2010Prop45
280
     0
102
RTVSPost2010PropOp45
 70
     1
102
RTVSPost2010Prop46
 90
       50
102
RTVSPost2010PropOp46
 70
     1
102
RTVSPost2010Prop47
 90
       50
102
RTVSPost2010PropOp47
 70
     1
102
RTVSPost2010Prop48
 90
       50
102
RTVSPost2010PropOp48
 70
     1
102
RTVSPost2010Prop49
280
     0
102
RTVSPost2010PropOp49
 70
     1
102
RTVSPost2010Prop50
 90
       50
102
RTVSPost2010PropOp50
 70
     1
102
RTVSPost2010Prop51ColorIndex
 90
      256
102
RTVSPost2010Prop51ColorRGB
 90
-16777216
102
RTVSPost2010PropOp51
 70
     0
102
RTVSPost2010Prop52
140
1.0
102
RTVSPost2010PropOp52
 70
     0
102
RTVSPost2010Prop53
 90
        2
102
RTVSPost2010PropOp53
 70
     1
102
RTVSPost2010Prop54
  1
strokes_ogs.tif
102
RTVSPost2010PropOp54
 70
     1
102
RTVSPost2010Prop55
280
     0
102
RTVSPost2010PropOp55
 70
     1
102
RTVSPost2010Prop56
140
1.0
102
RTVSPost2010PropOp56
 70
     1
102
RTVSPost2010Prop57
140
1.0
102
RTVSPost2010PropOp57
 70
     1
  0
XRECORD
  5
130
102
{ACAD_REACTORS
330
12F
102
}
330
12F
100
AcDbXrecord
280
     1
102
RTVSPost2010Prop28
280
     0
102
RTVSPost2010PropOp28
 70
     1
102
RTVSPost2010Prop29
280
     1
102
RTVSPost2010PropOp29
 70
     1
102
RTVSPost2010Prop30
280
     1
102
RTVSPost2010PropOp30
 70
     1
102
RTVSPost2010Prop31
280
     0
102
RTVSPost2010PropOp31
 70
     1
102
RTVSPost2010Prop32
280
     0
102
RTVSPost2010PropOp32
 70
     1
102
RTVSPost2010Prop33
280
     0
102
RTVSPost2010PropOp33
 70
     1
102
RTVSPost2010Prop34
280
     0
102
RTVSPost2010PropOp34
 70
     1
102
RTVSPost2010Prop35
280
     0
102
RTVSPost2010PropOp35
 70
     1
102
RTVSPost2010Prop36
280
     0
102
RTVSPost2010PropOp36
 70
     1
102
RTVSPost2010Prop37
 90
       50
102
RTVSPost2010PropOp37
 70
     1
102
RTVSPost2010Prop38
140
0.0
102
RTVSPost2010PropOp38
 70
     1
102
RTVSPost2010Prop39
140
1.0
102
RTVSPost2010PropOp39
 70
     1
102
RTVSPost2010Prop40
 90
        0
102
RTVSPost2010PropOp40
 70
     1
102
RTVSPost2010Prop41ColorIndex
 90
       18
102
RTVSPost2010Prop41ColorRGB
 90
        0
102
RTVSPost2010PropOp41
 70
     1
102
RTVSPost2010Prop42
 90
       50
102
RTVSPost2010PropOp42
 70
     1
102
RTVSPost2010Prop43
 90
        3
102
RTVSPost2010PropOp43
 70
     1
102
RTVSPost2010Prop44ColorIndex
 90
        5
102
RTVSPost2010Prop44ColorRGB
 90
      255
102
RTVSPost2010PropOp44
 70
     1
102
RTVSPost2010Prop45
280
     0
102
RTVSPost2010PropOp45
 70
     1
102
RTVSPost2010Prop46
 90
       50
102
RTVSPost2010PropOp46
 70
     1
102
RTVSPost2010Prop47
 90
       50
102
RTVSPost2010PropOp47
 70
     1
102
RTVSPost2010Prop48
 90
       50
102
RTVSPost2010PropOp48
 70
     1
102
RTVSPost2010Prop49
280
     0
102
RTVSPost2010PropOp49
 70
     1
102
RTVSPost2010Prop50
 90
       50
102
RTVSPost2010PropOp50
 70
     1
102
RTVSPost2010Prop51ColorIndex
 90
      256
102
RTVSPost2010Prop51ColorRGB
 90
-16777216
102
RTVSPost2010PropOp51
 70
     0
102
RTVSPost2010Prop52
140
1.0
102
RTVSPost2010PropOp52
 70
     0
102
RTVSPost2010Prop53
 90
        2
102
RTVSPost2010PropOp53
 70
     1
102
RTVSPost2010Prop54
  1
strokes_ogs.tif
102
RTVSPost2010PropOp54
 70
     1
102
RTVSPost2010Prop55
280
     0
102
RTVSPost2010PropOp55
 70
     1
102
RTVSPost2010Prop56
140
1.0
102
RTVSPost2010PropOp56
 70
     1
102
RTVSPost2010Prop57
140
1.0
102
RTVSPost2010PropOp57
 70
     1
  0
XRECORD
  5
132
102
{ACAD_REACTORS
330
131
102
}
330
131
100
AcDbXrecord
280
     1
102
RTVSPost2010Prop28
280
     0
102
RTVSPost2010PropOp28
 70
     1
102
RTVSPost2010Prop29
280
     1
102
RTVSPost2010PropOp29
 70
     1
102
RTVSPost2010Prop30
280
     1
102
RTVSPost2010PropOp30
 70
     1
102
RTVSPost2010Prop31
280
     0
102
RTVSPost2010PropOp31
 70
     1
102
RTVSPost2010Prop32
280
     0
102
RTVSPost2010PropOp32
 70
     1
102
RTVSPost2010Prop33
280
     0
102
RTVSPost2010PropOp33
 70
     1
102
RTVSPost2010Prop34
280
     0
102
RTVSPost2010PropOp34
 70
     1
102
RTVSPost2010Prop35
280
     0
102
RTVSPost2010PropOp35
 70
     1
102
RTVSPost2010Prop36
280
     0
102
RTVSPost2010PropOp36
 70
     1
102
RTVSPost2010Prop37
 90
       50
102
RTVSPost2010PropOp37
 70
     1
102
RTVSPost2010Prop38
140
0.0
102
RTVSPost2010PropOp38
 70
     1
102
RTVSPost2010Prop39
140
1.0
102
RTVSPost2010PropOp39
 70
     1
102
RTVSPost2010Prop40
 90
        0
102
RTVSPost2010PropOp40
 70
     1
102
RTVSPost2010Prop41ColorIndex
 90
       18
102
RTVSPost2010Prop41ColorRGB
 90
        0
102
RTVSPost2010PropOp41
 70
     1
102
RTVSPost2010Prop42
 90
       50
102
RTVSPost2010PropOp42
 70
     1
102
RTVSPost2010Prop43
 90
        3
102
RTVSPost2010PropOp43
 70
     1
102
RTVSPost2010Prop44ColorIndex
 90
        5
102
RTVSPost2010Prop44ColorRGB
 90
      255
102
RTVSPost2010PropOp44
 70
     1
102
RTVSPost2010Prop45
280
     0
102
RTVSPost2010PropOp45
 70
     1
102
RTVSPost2010Prop46
 90
       50
102
RTVSPost2010PropOp46
 70
     1
102
RTVSPost2010Prop47
 90
       50
102
RTVSPost2010PropOp47
 70
     1
102
RTVSPost2010Prop48
 90
       50
102
RTVSPost2010PropOp48
 70
     1
102
RTVSPost2010Prop49
280
     0
102
RTVSPost2010PropOp49
 70
     1
102
RTVSPost2010Prop50
 90
       50
102
RTVSPost2010PropOp50
 70
     1
102
RTVSPost2010Prop51ColorIndex
 90
      256
102
RTVSPost2010Prop51ColorRGB
 90
-16777216
102
RTVSPost2010PropOp51
 70
     0
102
RTVSPost2010Prop52
140
1.0
102
RTVSPost2010PropOp52
 70
     0
102
RTVSPost2010Prop53
 90
        2
102
RTVSPost2010PropOp53
 70
     1
102
RTVSPost2010Prop54
  1
strokes_ogs.tif
102
RTVSPost2010PropOp54
 70
     1
102
RTVSPost2010Prop55
280
     0
102
RTVSPost2010PropOp55
 70
     1
102
RTVSPost2010Prop56
140
1.0
102
RTVSPost2010PropOp56
 70
     1
102
RTVSPost2010Prop57
140
1.0
102
RTVSPost2010PropOp57
 70
     1
  0
XRECORD
  5
134
102
{ACAD_REACTORS
330
133
102
}
330
133
100
AcDbXrecord
280
     1
102
RTVSPost2010Prop28
280
     0
102
RTVSPost2010PropOp28
 70
     1
102
RTVSPost2010Prop29
280
     1
102
RTVSPost2010PropOp29
 70
     1
102
RTVSPost2010Prop30
280
     1
102
RTVSPost2010PropOp30
 70
     1
102
RTVSPost2010Prop31
280
     0
102
RTVSPost2010PropOp31
 70
     1
102
RTVSPost2010Prop32
280
     0
102
RTVSPost2010PropOp32
 70
     1
102
RTVSPost2010Prop33
280
     0
102
RTVSPost2010PropOp33
 70
     1
102
RTVSPost2010Prop34
280
     0
102
RTVSPost2010PropOp34
 70
     1
102
RTVSPost2010Prop35
280
     0
102
RTVSPost2010PropOp35
 70
     1
102
RTVSPost2010Prop36
280
     0
102
RTVSPost2010PropOp36
 70
     1
102
RTVSPost2010Prop37
 90
       50
102
RTVSPost2010PropOp37
 70
     1
102
RTVSPost2010Prop38
140
0.0
102
RTVSPost2010PropOp38
 70
     1
102
RTVSPost2010Prop39
140
1.0
102
RTVSPost2010PropOp39
 70
     1
102
RTVSPost2010Prop40
 90
        0
102
RTVSPost2010PropOp40
 70
     1
102
RTVSPost2010Prop41ColorIndex
 90
       18
102
RTVSPost2010Prop41ColorRGB
 90
        0
102
RTVSPost2010PropOp41
 70
     1
102
RTVSPost2010Prop42
 90
       50
102
RTVSPost2010PropOp42
 70
     1
102
RTVSPost2010Prop43
 90
        3
102
RTVSPost2010PropOp43
 70
     1
102
RTVSPost2010Prop44ColorIndex
 90
        5
102
RTVSPost2010Prop44ColorRGB
 90
      255
102
RTVSPost2010PropOp44
 70
     1
102
RTVSPost2010Prop45
280
     0
102
RTVSPost2010PropOp45
 70
     1
102
RTVSPost2010Prop46
 90
       50
102
RTVSPost2010PropOp46
 70
     1
102
RTVSPost2010Prop47
 90
       50
102
RTVSPost2010PropOp47
 70
     1
102
RTVSPost2010Prop48
 90
       50
102
RTVSPost2010PropOp48
 70
     1
102
RTVSPost2010Prop49
280
     0
102
RTVSPost2010PropOp49
 70
     1
102
RTVSPost2010Prop50
 90
       50
102
RTVSPost2010PropOp50
 70
     1
102
RTVSPost2010Prop51ColorIndex
 90
      256
102
RTVSPost2010Prop51ColorRGB
 90
-16777216
102
RTVSPost2010PropOp51
 70
     0
102
RTVSPost2010Prop52
140
1.0
102
RTVSPost2010PropOp52
 70
     0
102
RTVSPost2010Prop53
 90
        2
102
RTVSPost2010PropOp53
 70
     1
102
RTVSPost2010Prop54
  1
strokes_ogs.tif
102
RTVSPost2010PropOp54
 70
     1
102
RTVSPost2010Prop55
280
     0
102
RTVSPost2010PropOp55
 70
     1
102
RTVSPost2010Prop56
140
1.0
102
RTVSPost2010PropOp56
 70
     1
102
RTVSPost2010Prop57
140
1.0
102
RTVSPost2010PropOp57
 70
     1
  0
XRECORD
  5
136
102
{ACAD_REACTORS
330
135
102
}
330
135
100
AcDbXrecord
280
     1
102
RTVSPost2010Prop28
280
     0
102
RTVSPost2010PropOp28
 70
     1
102
RTVSPost2010Prop29
280
     1
102
RTVSPost2010PropOp29
 70
     1
102
RTVSPost2010Prop30
280
     1
102
RTVSPost2010PropOp30
 70
     1
102
RTVSPost2010Prop31
280
     0
102
RTVSPost2010PropOp31
 70
     1
102
RTVSPost2010Prop32
280
     0
102
RTVSPost2010PropOp32
 70
     1
102
RTVSPost2010Prop33
280
     0
102
RTVSPost2010PropOp33
 70
     1
102
RTVSPost2010Prop34
280
     0
102
RTVSPost2010PropOp34
 70
     1
102
RTVSPost2010Prop35
280
     0
102
RTVSPost2010PropOp35
 70
     1
102
RTVSPost2010Prop36
280
     0
102
RTVSPost2010PropOp36
 70
     1
102
RTVSPost2010Prop37
 90
       50
102
RTVSPost2010PropOp37
 70
     1
102
RTVSPost2010Prop38
140
0.0
102
RTVSPost2010PropOp38
 70
     1
102
RTVSPost2010Prop39
140
1.0
102
RTVSPost2010PropOp39
 70
     1
102
RTVSPost2010Prop40
 90
        0
102
RTVSPost2010PropOp40
 70
     1
102
RTVSPost2010Prop41ColorIndex
 90
       18
102
RTVSPost2010Prop41ColorRGB
 90
        0
102
RTVSPost2010PropOp41
 70
     1
102
RTVSPost2010Prop42
 90
       50
102
RTVSPost2010PropOp42
 70
     1
102
RTVSPost2010Prop43
 90
        3
102
RTVSPost2010PropOp43
 70
     1
102
RTVSPost2010Prop44ColorIndex
 90
        5
102
RTVSPost2010Prop44ColorRGB
 90
      255
102
RTVSPost2010PropOp44
 70
     1
102
RTVSPost2010Prop45
280
     0
102
RTVSPost2010PropOp45
 70
     1
102
RTVSPost2010Prop46
 90
       50
102
RTVSPost2010PropOp46
 70
     1
102
RTVSPost2010Prop47
 90
       50
102
RTVSPost2010PropOp47
 70
     1
102
RTVSPost2010Prop48
 90
       50
102
RTVSPost2010PropOp48
 70
     1
102
RTVSPost2010Prop49
280
     0
102
RTVSPost2010PropOp49
 70
     1
102
RTVSPost2010Prop50
 90
       50
102
RTVSPost2010PropOp50
 70
     1
102
RTVSPost2010Prop51ColorIndex
 90
      256
102
RTVSPost2010Prop51ColorRGB
 90
-16777216
102
RTVSPost2010PropOp51
 70
     0
102
RTVSPost2010Prop52
140
1.0
102
RTVSPost2010PropOp52
 70
     0
102
RTVSPost2010Prop53
 90
        2
102
RTVSPost2010PropOp53
 70
     1
102
RTVSPost2010Prop54
  1
strokes_ogs.tif
102
RTVSPost2010PropOp54
 70
     1
102
RTVSPost2010Prop55
280
     0
102
RTVSPost2010PropOp55
 70
     1
102
RTVSPost2010Prop56
140
1.0
102
RTVSPost2010PropOp56
 70
     1
102
RTVSPost2010Prop57
140
1.0
102
RTVSPost2010PropOp57
 70
     1
  0
XRECORD
  5
13E
102
{ACAD_REACTORS
330
13D
102
}
330
13D
100
AcDbXrecord
280
     1
102
RTVSPost2010Prop28
280
     0
102
RTVSPost2010PropOp28
 70
     1
102
RTVSPost2010Prop29
280
     1
102
RTVSPost2010PropOp29
 70
     1
102
RTVSPost2010Prop30
280
     1
102
RTVSPost2010PropOp30
 70
     1
102
RTVSPost2010Prop31
280
     0
102
RTVSPost2010PropOp31
 70
     1
102
RTVSPost2010Prop32
280
     0
102
RTVSPost2010PropOp32
 70
     1
102
RTVSPost2010Prop33
280
     0
102
RTVSPost2010PropOp33
 70
     1
102
RTVSPost2010Prop34
280
     0
102
RTVSPost2010PropOp34
 70
     1
102
RTVSPost2010Prop35
280
     0
102
RTVSPost2010PropOp35
 70
     1
102
RTVSPost2010Prop36
280
     0
102
RTVSPost2010PropOp36
 70
     1
102
RTVSPost2010Prop37
 90
       50
102
RTVSPost2010PropOp37
 70
     1
102
RTVSPost2010Prop38
140
0.0
102
RTVSPost2010PropOp38
 70
     1
102
RTVSPost2010Prop39
140
1.0
102
RTVSPost2010PropOp39
 70
     1
102
RTVSPost2010Prop40
 90
        0
102
RTVSPost2010PropOp40
 70
     1
102
RTVSPost2010Prop41ColorIndex
 90
       18
102
RTVSPost2010Prop41ColorRGB
 90
        0
102
RTVSPost2010PropOp41
 70
     1
102
RTVSPost2010Prop42
 90
       50
102
RTVSPost2010PropOp42
 70
     1
102
RTVSPost2010Prop43
 90
        3
102
RTVSPost2010PropOp43
 70
     1
102
RTVSPost2010Prop44ColorIndex
 90
        5
102
RTVSPost2010Prop44ColorRGB
 90
      255
102
RTVSPost2010PropOp44
 70
     1
102
RTVSPost2010Prop45
280
     0
102
RTVSPost2010PropOp45
 70
     1
102
RTVSPost2010Prop46
 90
       50
102
RTVSPost2010PropOp46
 70
     1
102
RTVSPost2010Prop47
 90
       50
102
RTVSPost2010PropOp47
 70
     1
102
RTVSPost2010Prop48
 90
       50
102
RTVSPost2010PropOp48
 70
     1
102
RTVSPost2010Prop49
280
     0
102
RTVSPost2010PropOp49
 70
     1
102
RTVSPost2010Prop50
 90
       50
102
RTVSPost2010PropOp50
 70
     1
102
RTVSPost2010Prop51ColorIndex
 90
      256
102
RTVSPost2010Prop51ColorRGB
 90
-16777216
102
RTVSPost2010PropOp51
 70
     0
102
RTVSPost2010Prop52
140
1.0
102
RTVSPost2010PropOp52
 70
     0
102
RTVSPost2010Prop53
 90
        2
102
RTVSPost2010PropOp53
 70
     1
102
RTVSPost2010Prop54
  1
strokes_ogs.tif
102
RTVSPost2010PropOp54
 70
     1
102
RTVSPost2010Prop55
280
     0
102
RTVSPost2010PropOp55
 70
     1
102
RTVSPost2010Prop56
140
1.0
102
RTVSPost2010PropOp56
 70
     1
102
RTVSPost2010Prop57
140
1.0
102
RTVSPost2010PropOp57
 70
     1
  0
XRECORD
  5
15A
102
{ACAD_REACTORS
330
159
102
}
330
159
100
AcDbXrecord
280
     1
102
RTVSPost2010Prop28
280
     0
102
RTVSPost2010PropOp28
 70
     0
102
RTVSPost2010Prop29
280
     1
102
RTVSPost2010PropOp29
 70
     0
102
RTVSPost2010Prop30
280
     1
102
RTVSPost2010PropOp30
 70
     0
102
RTVSPost2010Prop31
280
     0
102
RTVSPost2010PropOp31
 70
     0
102
RTVSPost2010Prop32
280
     0
102
RTVSPost2010PropOp32
 70
     0
102
RTVSPost2010Prop33
280
     0
102
RTVSPost2010PropOp33
 70
     0
102
RTVSPost2010Prop34
280
     0
102
RTVSPost2010PropOp34
 70
     0
102
RTVSPost2010Prop35
280
     0
102
RTVSPost2010PropOp35
 70
     0
102
RTVSPost2010Prop36
280
     0
102
RTVSPost2010PropOp36
 70
     0
102
RTVSPost2010Prop37
 90
       50
102
RTVSPost2010PropOp37
 70
     0
102
RTVSPost2010Prop38
140
0.0
102
RTVSPost2010PropOp38
 70
     0
102
RTVSPost2010Prop39
140
1.0
102
RTVSPost2010PropOp39
 70
     0
102
RTVSPost2010Prop40
 90
        0
102
RTVSPost2010PropOp40
 70
     0
102
RTVSPost2010Prop41ColorIndex
 90
       18
102
RTVSPost2010Prop41ColorRGB
 90
        0
102
RTVSPost2010PropOp41
 70
     0
102
RTVSPost2010Prop42
 90
       50
102
RTVSPost2010PropOp42
 70
     0
102
RTVSPost2010Prop43
 90
        3
102
RTVSPost2010PropOp43
 70
     0
102
RTVSPost2010Prop44ColorIndex
 90
        5
102
RTVSPost2010Prop44ColorRGB
 90
      255
102
RTVSPost2010PropOp44
 70
     0
102
RTVSPost2010Prop45
280
     0
102
RTVSPost2010PropOp45
 70
     0
102
RTVSPost2010Prop46
 90
       50
102
RTVSPost2010PropOp46
 70
     0
102
RTVSPost2010Prop47
 90
       50
102
RTVSPost2010PropOp47
 70
     0
102
RTVSPost2010Prop48
 90
       50
102
RTVSPost2010PropOp48
 70
     0
102
RTVSPost2010Prop49
280
     0
102
RTVSPost2010PropOp49
 70
     0
102
RTVSPost2010Prop50
 90
       50
102
RTVSPost2010PropOp50
 70
     0
102
RTVSPost2010Prop51ColorIndex
 90
      256
102
RTVSPost2010Prop51ColorRGB
 90
-16777216
102
RTVSPost2010PropOp51
 70
     0
102
RTVSPost2010Prop52
140
1.0
102
RTVSPost2010PropOp52
 70
     0
102
RTVSPost2010Prop53
 90
        2
102
RTVSPost2010PropOp53
 70
     0
102
RTVSPost2010Prop54
  1
strokes_ogs.tif
102
RTVSPost2010PropOp54
 70
     0
102
RTVSPost2010Prop55
280
     0
102
RTVSPost2010PropOp55
 70
     0
102
RTVSPost2010Prop56
140
1.0
102
RTVSPost2010PropOp56
 70
     0
102
RTVSPost2010Prop57
140
1.0
102
RTVSPost2010PropOp57
 70
     0
  0
XRECORD
  5
14A
102
{ACAD_REACTORS
330
149
102
}
330
149
100
AcDbXrecord
280
     1
102
RTVSPost2010Prop28
280
     0
102
RTVSPost2010PropOp28
 70
     1
102
RTVSPost2010Prop29
280
     1
102
RTVSPost2010PropOp29
 70
     1
102
RTVSPost2010Prop30
280
     1
102
RTVSPost2010PropOp30
 70
     1
102
RTVSPost2010Prop31
280
     0
102
RTVSPost2010PropOp31
 70
     1
102
RTVSPost2010Prop32
280
     0
102
RTVSPost2010PropOp32
 70
     1
102
RTVSPost2010Prop33
280
     0
102
RTVSPost2010PropOp33
 70
     1
102
RTVSPost2010Prop34
280
     0
102
RTVSPost2010PropOp34
 70
     1
102
RTVSPost2010Prop35
280
     0
102
RTVSPost2010PropOp35
 70
     1
102
RTVSPost2010Prop36
280
     0
102
RTVSPost2010PropOp36
 70
     1
102
RTVSPost2010Prop37
 90
       50
102
RTVSPost2010PropOp37
 70
     1
102
RTVSPost2010Prop38
140
0.0
102
RTVSPost2010PropOp38
 70
     1
102
RTVSPost2010Prop39
140
1.0
102
RTVSPost2010PropOp39
 70
     1
102
RTVSPost2010Prop40
 90
        0
102
RTVSPost2010PropOp40
 70
     1
102
RTVSPost2010Prop41ColorIndex
 90
       18
102
RTVSPost2010Prop41ColorRGB
 90
        0
102
RTVSPost2010PropOp41
 70
     1
102
RTVSPost2010Prop42
 90
       50
102
RTVSPost2010PropOp42
 70
     1
102
RTVSPost2010Prop43
 90
        3
102
RTVSPost2010PropOp43
 70
     1
102
RTVSPost2010Prop44ColorIndex
 90
        5
102
RTVSPost2010Prop44ColorRGB
 90
      255
102
RTVSPost2010PropOp44
 70
     1
102
RTVSPost2010Prop45
280
     0
102
RTVSPost2010PropOp45
 70
     1
102
RTVSPost2010Prop46
 90
       50
102
RTVSPost2010PropOp46
 70
     1
102
RTVSPost2010Prop47
 90
       50
102
RTVSPost2010PropOp47
 70
     1
102
RTVSPost2010Prop48
 90
       50
102
RTVSPost2010PropOp48
 70
     1
102
RTVSPost2010Prop49
280
     0
102
RTVSPost2010PropOp49
 70
     1
102
RTVSPost2010Prop50
 90
       50
102
RTVSPost2010PropOp50
 70
     1
102
RTVSPost2010Prop51ColorIndex
 90
      256
102
RTVSPost2010Prop51ColorRGB
 90
-16777216
102
RTVSPost2010PropOp51
 70
     0
102
RTVSPost2010Prop52
140
1.0
102
RTVSPost2010PropOp52
 70
     0
102
RTVSPost2010Prop53
 90
        2
102
RTVSPost2010PropOp53
 70
     1
102
RTVSPost2010Prop54
  1
strokes_ogs.tif
102
RTVSPost2010PropOp54
 70
     1
102
RTVSPost2010Prop55
280
     0
102
RTVSPost2010PropOp55
 70
     1
102
RTVSPost2010Prop56
140
1.0
102
RTVSPost2010PropOp56
 70
     1
102
RTVSPost2010Prop57
140
1.0
102
RTVSPost2010PropOp57
 70
     1
  0
XRECORD
  5
15C
102
{ACAD_REACTORS
330
15B
102
}
330
15B
100
AcDbXrecord
280
     1
102
RTVSPost2010Prop28
280
     0
102
RTVSPost2010PropOp28
 70
     0
102
RTVSPost2010Prop29
280
     1
102
RTVSPost2010PropOp29
 70
     0
102
RTVSPost2010Prop30
280
     1
102
RTVSPost2010PropOp30
 70
     0
102
RTVSPost2010Prop31
280
     0
102
RTVSPost2010PropOp31
 70
     0
102
RTVSPost2010Prop32
280
     0
102
RTVSPost2010PropOp32
 70
     0
102
RTVSPost2010Prop33
280
     0
102
RTVSPost2010PropOp33
 70
     0
102
RTVSPost2010Prop34
280
     0
102
RTVSPost2010PropOp34
 70
     0
102
RTVSPost2010Prop35
280
     0
102
RTVSPost2010PropOp35
 70
     0
102
RTVSPost2010Prop36
280
     0
102
RTVSPost2010PropOp36
 70
     0
102
RTVSPost2010Prop37
 90
       50
102
RTVSPost2010PropOp37
 70
     0
102
RTVSPost2010Prop38
140
0.0
102
RTVSPost2010PropOp38
 70
     0
102
RTVSPost2010Prop39
140
1.0
102
RTVSPost2010PropOp39
 70
     0
102
RTVSPost2010Prop40
 90
        0
102
RTVSPost2010PropOp40
 70
     0
102
RTVSPost2010Prop41ColorIndex
 90
       18
102
RTVSPost2010Prop41ColorRGB
 90
        0
102
RTVSPost2010PropOp41
 70
     0
102
RTVSPost2010Prop42
 90
       50
102
RTVSPost2010PropOp42
 70
     0
102
RTVSPost2010Prop43
 90
        3
102
RTVSPost2010PropOp43
 70
     0
102
RTVSPost2010Prop44ColorIndex
 90
        5
102
RTVSPost2010Prop44ColorRGB
 90
      255
102
RTVSPost2010PropOp44
 70
     0
102
RTVSPost2010Prop45
280
     0
102
RTVSPost2010PropOp45
 70
     0
102
RTVSPost2010Prop46
 90
       50
102
RTVSPost2010PropOp46
 70
     0
102
RTVSPost2010Prop47
 90
       50
102
RTVSPost2010PropOp47
 70
     0
102
RTVSPost2010Prop48
 90
       50
102
RTVSPost2010PropOp48
 70
     0
102
RTVSPost2010Prop49
280
     0
102
RTVSPost2010PropOp49
 70
     0
102
RTVSPost2010Prop50
 90
       50
102
RTVSPost2010PropOp50
 70
     0
102
RTVSPost2010Prop51ColorIndex
 90
      256
102
RTVSPost2010Prop51ColorRGB
 90
-16777216
102
RTVSPost2010PropOp51
 70
     0
102
RTVSPost2010Prop52
140
1.0
102
RTVSPost2010PropOp52
 70
     0
102
RTVSPost2010Prop53
 90
        2
102
RTVSPost2010PropOp53
 70
     0
102
RTVSPost2010Prop54
  1
strokes_ogs.tif
102
RTVSPost2010PropOp54
 70
     0
102
RTVSPost2010Prop55
280
     0
102
RTVSPost2010PropOp55
 70
     0
102
RTVSPost2010Prop56
140
1.0
102
RTVSPost2010PropOp56
 70
     0
102
RTVSPost2010Prop57
140
1.0
102
RTVSPost2010PropOp57
 70
     0
  0
XRECORD
  5
142
102
{ACAD_REACTORS
330
141
102
}
330
141
100
AcDbXrecord
280
     1
102
RTVSPost2010Prop28
280
     0
102
RTVSPost2010PropOp28
 70
     1
102
RTVSPost2010Prop29
280
     1
102
RTVSPost2010PropOp29
 70
     1
102
RTVSPost2010Prop30
280
     1
102
RTVSPost2010PropOp30
 70
     1
102
RTVSPost2010Prop31
280
     0
102
RTVSPost2010PropOp31
 70
     1
102
RTVSPost2010Prop32
280
     0
102
RTVSPost2010PropOp32
 70
     1
102
RTVSPost2010Prop33
280
     0
102
RTVSPost2010PropOp33
 70
     1
102
RTVSPost2010Prop34
280
     0
102
RTVSPost2010PropOp34
 70
     1
102
RTVSPost2010Prop35
280
     0
102
RTVSPost2010PropOp35
 70
     1
102
RTVSPost2010Prop36
280
     0
102
RTVSPost2010PropOp36
 70
     1
102
RTVSPost2010Prop37
 90
       50
102
RTVSPost2010PropOp37
 70
     1
102
RTVSPost2010Prop38
140
0.0
102
RTVSPost2010PropOp38
 70
     1
102
RTVSPost2010Prop39
140
1.0
102
RTVSPost2010PropOp39
 70
     1
102
RTVSPost2010Prop40
 90
        0
102
RTVSPost2010PropOp40
 70
     1
102
RTVSPost2010Prop41ColorIndex
 90
       18
102
RTVSPost2010Prop41ColorRGB
 90
        0
102
RTVSPost2010PropOp41
 70
     1
102
RTVSPost2010Prop42
 90
       50
102
RTVSPost2010PropOp42
 70
     1
102
RTVSPost2010Prop43
 90
        3
102
RTVSPost2010PropOp43
 70
     1
102
RTVSPost2010Prop44ColorIndex
 90
        5
102
RTVSPost2010Prop44ColorRGB
 90
      255
102
RTVSPost2010PropOp44
 70
     1
102
RTVSPost2010Prop45
280
     0
102
RTVSPost2010PropOp45
 70
     1
102
RTVSPost2010Prop46
 90
       50
102
RTVSPost2010PropOp46
 70
     1
102
RTVSPost2010Prop47
 90
       50
102
RTVSPost2010PropOp47
 70
     1
102
RTVSPost2010Prop48
 90
       50
102
RTVSPost2010PropOp48
 70
     1
102
RTVSPost2010Prop49
280
     0
102
RTVSPost2010PropOp49
 70
     1
102
RTVSPost2010Prop50
 90
       50
102
RTVSPost2010PropOp50
 70
     1
102
RTVSPost2010Prop51ColorIndex
 90
      256
102
RTVSPost2010Prop51ColorRGB
 90
-16777216
102
RTVSPost2010PropOp51
 70
     0
102
RTVSPost2010Prop52
140
1.0
102
RTVSPost2010PropOp52
 70
     0
102
RTVSPost2010Prop53
 90
        2
102
RTVSPost2010PropOp53
 70
     1
102
RTVSPost2010Prop54
  1
strokes_ogs.tif
102
RTVSPost2010PropOp54
 70
     1
102
RTVSPost2010Prop55
280
     0
102
RTVSPost2010PropOp55
 70
     1
102
RTVSPost2010Prop56
140
1.0
102
RTVSPost2010PropOp56
 70
     1
102
RTVSPost2010Prop57
140
1.0
102
RTVSPost2010PropOp57
 70
     1
  0
XRECORD
  5
158
102
{ACAD_REACTORS
330
157
102
}
330
157
100
AcDbXrecord
280
     1
102
RTVSPost2010Prop28
280
     0
102
RTVSPost2010PropOp28
 70
     1
102
RTVSPost2010Prop29
280
     1
102
RTVSPost2010PropOp29
 70
     1
102
RTVSPost2010Prop30
280
     1
102
RTVSPost2010PropOp30
 70
     1
102
RTVSPost2010Prop31
280
     0
102
RTVSPost2010PropOp31
 70
     1
102
RTVSPost2010Prop32
280
     0
102
RTVSPost2010PropOp32
 70
     1
102
RTVSPost2010Prop33
280
     0
102
RTVSPost2010PropOp33
 70
     1
102
RTVSPost2010Prop34
280
     0
102
RTVSPost2010PropOp34
 70
     1
102
RTVSPost2010Prop35
280
     0
102
RTVSPost2010PropOp35
 70
     1
102
RTVSPost2010Prop36
280
     0
102
RTVSPost2010PropOp36
 70
     1
102
RTVSPost2010Prop37
 90
       50
102
RTVSPost2010PropOp37
 70
     1
102
RTVSPost2010Prop38
140
0.0
102
RTVSPost2010PropOp38
 70
     1
102
RTVSPost2010Prop39
140
1.0
102
RTVSPost2010PropOp39
 70
     1
102
RTVSPost2010Prop40
 90
        0
102
RTVSPost2010PropOp40
 70
     1
102
RTVSPost2010Prop41ColorIndex
 90
       18
102
RTVSPost2010Prop41ColorRGB
 90
        0
102
RTVSPost2010PropOp41
 70
     1
102
RTVSPost2010Prop42
 90
       50
102
RTVSPost2010PropOp42
 70
     1
102
RTVSPost2010Prop43
 90
        3
102
RTVSPost2010PropOp43
 70
     1
102
RTVSPost2010Prop44ColorIndex
 90
        5
102
RTVSPost2010Prop44ColorRGB
 90
      255
102
RTVSPost2010PropOp44
 70
     1
102
RTVSPost2010Prop45
280
     0
102
RTVSPost2010PropOp45
 70
     1
102
RTVSPost2010Prop46
 90
       50
102
RTVSPost2010PropOp46
 70
     1
102
RTVSPost2010Prop47
 90
       50
102
RTVSPost2010PropOp47
 70
     1
102
RTVSPost2010Prop48
 90
       50
102
RTVSPost2010PropOp48
 70
     1
102
RTVSPost2010Prop49
280
     0
102
RTVSPost2010PropOp49
 70
     1
102
RTVSPost2010Prop50
 90
       50
102
RTVSPost2010PropOp50
 70
     1
102
RTVSPost2010Prop51ColorIndex
 90
      256
102
RTVSPost2010Prop51ColorRGB
 90
-16777216
102
RTVSPost2010PropOp51
 70
     0
102
RTVSPost2010Prop52
140
1.0
102
RTVSPost2010PropOp52
 70
     0
102
RTVSPost2010Prop53
 90
        2
102
RTVSPost2010PropOp53
 70
     1
102
RTVSPost2010Prop54
  1
strokes_ogs.tif
102
RTVSPost2010PropOp54
 70
     1
102
RTVSPost2010Prop55
280
     0
102
RTVSPost2010PropOp55
 70
     1
102
RTVSPost2010Prop56
140
1.0
102
RTVSPost2010PropOp56
 70
     1
102
RTVSPost2010Prop57
140
1.0
102
RTVSPost2010PropOp57
 70
     1
  0
XRECORD
  5
156
102
{ACAD_REACTORS
330
155
102
}
330
155
100
AcDbXrecord
280
     1
102
RTVSPost2010Prop28
280
     0
102
RTVSPost2010PropOp28
 70
     1
102
RTVSPost2010Prop29
280
     1
102
RTVSPost2010PropOp29
 70
     1
102
RTVSPost2010Prop30
280
     1
102
RTVSPost2010PropOp30
 70
     1
102
RTVSPost2010Prop31
280
     0
102
RTVSPost2010PropOp31
 70
     1
102
RTVSPost2010Prop32
280
     0
102
RTVSPost2010PropOp32
 70
     1
102
RTVSPost2010Prop33
280
     0
102
RTVSPost2010PropOp33
 70
     1
102
RTVSPost2010Prop34
280
     0
102
RTVSPost2010PropOp34
 70
     1
102
RTVSPost2010Prop35
280
     0
102
RTVSPost2010PropOp35
 70
     1
102
RTVSPost2010Prop36
280
     0
102
RTVSPost2010PropOp36
 70
     1
102
RTVSPost2010Prop37
 90
       50
102
RTVSPost2010PropOp37
 70
     1
102
RTVSPost2010Prop38
140
0.0
102
RTVSPost2010PropOp38
 70
     1
102
RTVSPost2010Prop39
140
1.0
102
RTVSPost2010PropOp39
 70
     1
102
RTVSPost2010Prop40
 90
        0
102
RTVSPost2010PropOp40
 70
     1
102
RTVSPost2010Prop41ColorIndex
 90
       18
102
RTVSPost2010Prop41ColorRGB
 90
        0
102
RTVSPost2010PropOp41
 70
     1
102
RTVSPost2010Prop42
 90
       50
102
RTVSPost2010PropOp42
 70
     1
102
RTVSPost2010Prop43
 90
        3
102
RTVSPost2010PropOp43
 70
     1
102
RTVSPost2010Prop44ColorIndex
 90
        5
102
RTVSPost2010Prop44ColorRGB
 90
      255
102
RTVSPost2010PropOp44
 70
     1
102
RTVSPost2010Prop45
280
     0
102
RTVSPost2010PropOp45
 70
     1
102
RTVSPost2010Prop46
 90
       50
102
RTVSPost2010PropOp46
 70
     1
102
RTVSPost2010Prop47
 90
       50
102
RTVSPost2010PropOp47
 70
     1
102
RTVSPost2010Prop48
 90
       50
102
RTVSPost2010PropOp48
 70
     1
102
RTVSPost2010Prop49
280
     0
102
RTVSPost2010PropOp49
 70
     1
102
RTVSPost2010Prop50
 90
       50
102
RTVSPost2010PropOp50
 70
     1
102
RTVSPost2010Prop51ColorIndex
 90
      256
102
RTVSPost2010Prop51ColorRGB
 90
-16777216
102
RTVSPost2010PropOp51
 70
     0
102
RTVSPost2010Prop52
140
1.0
102
RTVSPost2010PropOp52
 70
     0
102
RTVSPost2010Prop53
 90
        2
102
RTVSPost2010PropOp53
 70
     1
102
RTVSPost2010Prop54
  1
strokes_ogs.tif
102
RTVSPost2010PropOp54
 70
     1
102
RTVSPost2010Prop55
280
     0
102
RTVSPost2010PropOp55
 70
     1
102
RTVSPost2010Prop56
140
1.0
102
RTVSPost2010PropOp56
 70
     1
102
RTVSPost2010Prop57
140
1.0
102
RTVSPost2010PropOp57
 70
     1
  0
XRECORD
  5
150
102
{ACAD_REACTORS
330
14F
102
}
330
14F
100
AcDbXrecord
280
     1
102
RTVSPost2010Prop28
280
     0
102
RTVSPost2010PropOp28
 70
     1
102
RTVSPost2010Prop29
280
     1
102
RTVSPost2010PropOp29
 70
     1
102
RTVSPost2010Prop30
280
     1
102
RTVSPost2010PropOp30
 70
     1
102
RTVSPost2010Prop31
280
     0
102
RTVSPost2010PropOp31
 70
     1
102
RTVSPost2010Prop32
280
     0
102
RTVSPost2010PropOp32
 70
     1
102
RTVSPost2010Prop33
280
     0
102
RTVSPost2010PropOp33
 70
     1
102
RTVSPost2010Prop34
280
     0
102
RTVSPost2010PropOp34
 70
     1
102
RTVSPost2010Prop35
280
     0
102
RTVSPost2010PropOp35
 70
     1
102
RTVSPost2010Prop36
280
     0
102
RTVSPost2010PropOp36
 70
     1
102
RTVSPost2010Prop37
 90
       50
102
RTVSPost2010PropOp37
 70
     1
102
RTVSPost2010Prop38
140
0.0
102
RTVSPost2010PropOp38
 70
     1
102
RTVSPost2010Prop39
140
1.0
102
RTVSPost2010PropOp39
 70
     1
102
RTVSPost2010Prop40
 90
        0
102
RTVSPost2010PropOp40
 70
     1
102
RTVSPost2010Prop41ColorIndex
 90
       18
102
RTVSPost2010Prop41ColorRGB
 90
        0
102
RTVSPost2010PropOp41
 70
     1
102
RTVSPost2010Prop42
 90
       50
102
RTVSPost2010PropOp42
 70
     1
102
RTVSPost2010Prop43
 90
        3
102
RTVSPost2010PropOp43
 70
     1
102
RTVSPost2010Prop44ColorIndex
 90
        5
102
RTVSPost2010Prop44ColorRGB
 90
      255
102
RTVSPost2010PropOp44
 70
     1
102
RTVSPost2010Prop45
280
     0
102
RTVSPost2010PropOp45
 70
     1
102
RTVSPost2010Prop46
 90
       50
102
RTVSPost2010PropOp46
 70
     1
102
RTVSPost2010Prop47
 90
       50
102
RTVSPost2010PropOp47
 70
     1
102
RTVSPost2010Prop48
 90
       50
102
RTVSPost2010PropOp48
 70
     1
102
RTVSPost2010Prop49
280
     0
102
RTVSPost2010PropOp49
 70
     1
102
RTVSPost2010Prop50
 90
       50
102
RTVSPost2010PropOp50
 70
     1
102
RTVSPost2010Prop51ColorIndex
 90
      256
102
RTVSPost2010Prop51ColorRGB
 90
-16777216
102
RTVSPost2010PropOp51
 70
     0
102
RTVSPost2010Prop52
140
1.0
102
RTVSPost2010PropOp52
 70
     0
102
RTVSPost2010Prop53
 90
        2
102
RTVSPost2010PropOp53
 70
     1
102
RTVSPost2010Prop54
  1
strokes_ogs.tif
102
RTVSPost2010PropOp54
 70
     1
102
RTVSPost2010Prop55
280
     0
102
RTVSPost2010PropOp55
 70
     1
102
RTVSPost2010Prop56
140
1.0
102
RTVSPost2010PropOp56
 70
     1
102
RTVSPost2010Prop57
140
1.0
102
RTVSPost2010PropOp57
 70
     1
  0
XRECORD
  5
152
102
{ACAD_REACTORS
330
151
102
}
330
151
100
AcDbXrecord
280
     1
102
RTVSPost2010Prop28
280
     0
102
RTVSPost2010PropOp28
 70
     1
102
RTVSPost2010Prop29
280
     1
102
RTVSPost2010PropOp29
 70
     1
102
RTVSPost2010Prop30
280
     1
102
RTVSPost2010PropOp30
 70
     1
102
RTVSPost2010Prop31
280
     0
102
RTVSPost2010PropOp31
 70
     1
102
RTVSPost2010Prop32
280
     0
102
RTVSPost2010PropOp32
 70
     1
102
RTVSPost2010Prop33
280
     0
102
RTVSPost2010PropOp33
 70
     1
102
RTVSPost2010Prop34
280
     0
102
RTVSPost2010PropOp34
 70
     1
102
RTVSPost2010Prop35
280
     0
102
RTVSPost2010PropOp35
 70
     1
102
RTVSPost2010Prop36
280
     0
102
RTVSPost2010PropOp36
 70
     1
102
RTVSPost2010Prop37
 90
       50
102
RTVSPost2010PropOp37
 70
     1
102
RTVSPost2010Prop38
140
0.0
102
RTVSPost2010PropOp38
 70
     1
102
RTVSPost2010Prop39
140
1.0
102
RTVSPost2010PropOp39
 70
     1
102
RTVSPost2010Prop40
 90
        0
102
RTVSPost2010PropOp40
 70
     1
102
RTVSPost2010Prop41ColorIndex
 90
       18
102
RTVSPost2010Prop41ColorRGB
 90
        0
102
RTVSPost2010PropOp41
 70
     1
102
RTVSPost2010Prop42
 90
       50
102
RTVSPost2010PropOp42
 70
     1
102
RTVSPost2010Prop43
 90
        3
102
RTVSPost2010PropOp43
 70
     1
102
RTVSPost2010Prop44ColorIndex
 90
        5
102
RTVSPost2010Prop44ColorRGB
 90
      255
102
RTVSPost2010PropOp44
 70
     1
102
RTVSPost2010Prop45
280
     0
102
RTVSPost2010PropOp45
 70
     1
102
RTVSPost2010Prop46
 90
       50
102
RTVSPost2010PropOp46
 70
     1
102
RTVSPost2010Prop47
 90
       50
102
RTVSPost2010PropOp47
 70
     1
102
RTVSPost2010Prop48
 90
       50
102
RTVSPost2010PropOp48
 70
     1
102
RTVSPost2010Prop49
280
     0
102
RTVSPost2010PropOp49
 70
     1
102
RTVSPost2010Prop50
 90
       50
102
RTVSPost2010PropOp50
 70
     1
102
RTVSPost2010Prop51ColorIndex
 90
      256
102
RTVSPost2010Prop51ColorRGB
 90
-16777216
102
RTVSPost2010PropOp51
 70
     0
102
RTVSPost2010Prop52
140
1.0
102
RTVSPost2010PropOp52
 70
     0
102
RTVSPost2010Prop53
 90
        2
102
RTVSPost2010PropOp53
 70
     1
102
RTVSPost2010Prop54
  1
strokes_ogs.tif
102
RTVSPost2010PropOp54
 70
     1
102
RTVSPost2010Prop55
280
     0
102
RTVSPost2010PropOp55
 70
     1
102
RTVSPost2010Prop56
140
1.0
102
RTVSPost2010PropOp56
 70
     1
102
RTVSPost2010Prop57
140
1.0
102
RTVSPost2010PropOp57
 70
     1
  0
XRECORD
  5
148
102
{ACAD_REACTORS
330
147
102
}
330
147
100
AcDbXrecord
280
     1
102
RTVSPost2010Prop28
280
     0
102
RTVSPost2010PropOp28
 70
     1
102
RTVSPost2010Prop29
280
     1
102
RTVSPost2010PropOp29
 70
     1
102
RTVSPost2010Prop30
280
     1
102
RTVSPost2010PropOp30
 70
     1
102
RTVSPost2010Prop31
280
     0
102
RTVSPost2010PropOp31
 70
     1
102
RTVSPost2010Prop32
280
     0
102
RTVSPost2010PropOp32
 70
     1
102
RTVSPost2010Prop33
280
     0
102
RTVSPost2010PropOp33
 70
     1
102
RTVSPost2010Prop34
280
     0
102
RTVSPost2010PropOp34
 70
     1
102
RTVSPost2010Prop35
280
     0
102
RTVSPost2010PropOp35
 70
     1
102
RTVSPost2010Prop36
280
     0
102
RTVSPost2010PropOp36
 70
     1
102
RTVSPost2010Prop37
 90
       50
102
RTVSPost2010PropOp37
 70
     1
102
RTVSPost2010Prop38
140
0.0
102
RTVSPost2010PropOp38
 70
     1
102
RTVSPost2010Prop39
140
1.0
102
RTVSPost2010PropOp39
 70
     1
102
RTVSPost2010Prop40
 90
        0
102
RTVSPost2010PropOp40
 70
     1
102
RTVSPost2010Prop41ColorIndex
 90
       18
102
RTVSPost2010Prop41ColorRGB
 90
        0
102
RTVSPost2010PropOp41
 70
     1
102
RTVSPost2010Prop42
 90
       50
102
RTVSPost2010PropOp42
 70
     1
102
RTVSPost2010Prop43
 90
        3
102
RTVSPost2010PropOp43
 70
     1
102
RTVSPost2010Prop44ColorIndex
 90
        5
102
RTVSPost2010Prop44ColorRGB
 90
      255
102
RTVSPost2010PropOp44
 70
     1
102
RTVSPost2010Prop45
280
     0
102
RTVSPost2010PropOp45
 70
     1
102
RTVSPost2010Prop46
 90
       50
102
RTVSPost2010PropOp46
 70
     1
102
RTVSPost2010Prop47
 90
       50
102
RTVSPost2010PropOp47
 70
     1
102
RTVSPost2010Prop48
 90
       50
102
RTVSPost2010PropOp48
 70
     1
102
RTVSPost2010Prop49
280
     0
102
RTVSPost2010PropOp49
 70
     1
102
RTVSPost2010Prop50
 90
       50
102
RTVSPost2010PropOp50
 70
     1
102
RTVSPost2010Prop51ColorIndex
 90
      256
102
RTVSPost2010Prop51ColorRGB
 90
-16777216
102
RTVSPost2010PropOp51
 70
     0
102
RTVSPost2010Prop52
140
1.0
102
RTVSPost2010PropOp52
 70
     0
102
RTVSPost2010Prop53
 90
        2
102
RTVSPost2010PropOp53
 70
     1
102
RTVSPost2010Prop54
  1
strokes_ogs.tif
102
RTVSPost2010PropOp54
 70
     1
102
RTVSPost2010Prop55
280
     0
102
RTVSPost2010PropOp55
 70
     1
102
RTVSPost2010Prop56
140
1.0
102
RTVSPost2010PropOp56
 70
     1
102
RTVSPost2010Prop57
140
1.0
102
RTVSPost2010PropOp57
 70
     1
  0
XRECORD
  5
13C
102
{ACAD_REACTORS
330
13B
102
}
330
13B
100
AcDbXrecord
280
     1
102
RTVSPost2010Prop28
280
     0
102
RTVSPost2010PropOp28
 70
     1
102
RTVSPost2010Prop29
280
     1
102
RTVSPost2010PropOp29
 70
     1
102
RTVSPost2010Prop30
280
     1
102
RTVSPost2010PropOp30
 70
     1
102
RTVSPost2010Prop31
280
     0
102
RTVSPost2010PropOp31
 70
     1
102
RTVSPost2010Prop32
280
     0
102
RTVSPost2010PropOp32
 70
     1
102
RTVSPost2010Prop33
280
     0
102
RTVSPost2010PropOp33
 70
     1
102
RTVSPost2010Prop34
280
     0
102
RTVSPost2010PropOp34
 70
     1
102
RTVSPost2010Prop35
280
     0
102
RTVSPost2010PropOp35
 70
     1
102
RTVSPost2010Prop36
280
     0
102
RTVSPost2010PropOp36
 70
     1
102
RTVSPost2010Prop37
 90
       50
102
RTVSPost2010PropOp37
 70
     1
102
RTVSPost2010Prop38
140
0.0
102
RTVSPost2010PropOp38
 70
     1
102
RTVSPost2010Prop39
140
1.0
102
RTVSPost2010PropOp39
 70
     1
102
RTVSPost2010Prop40
 90
        0
102
RTVSPost2010PropOp40
 70
     1
102
RTVSPost2010Prop41ColorIndex
 90
       18
102
RTVSPost2010Prop41ColorRGB
 90
        0
102
RTVSPost2010PropOp41
 70
     1
102
RTVSPost2010Prop42
 90
       50
102
RTVSPost2010PropOp42
 70
     1
102
RTVSPost2010Prop43
 90
        3
102
RTVSPost2010PropOp43
 70
     1
102
RTVSPost2010Prop44ColorIndex
 90
        5
102
RTVSPost2010Prop44ColorRGB
 90
      255
102
RTVSPost2010PropOp44
 70
     1
102
RTVSPost2010Prop45
280
     0
102
RTVSPost2010PropOp45
 70
     1
102
RTVSPost2010Prop46
 90
       50
102
RTVSPost2010PropOp46
 70
     1
102
RTVSPost2010Prop47
 90
       50
102
RTVSPost2010PropOp47
 70
     1
102
RTVSPost2010Prop48
 90
       50
102
RTVSPost2010PropOp48
 70
     1
102
RTVSPost2010Prop49
280
     0
102
RTVSPost2010PropOp49
 70
     1
102
RTVSPost2010Prop50
 90
       50
102
RTVSPost2010PropOp50
 70
     1
102
RTVSPost2010Prop51ColorIndex
 90
      256
102
RTVSPost2010Prop51ColorRGB
 90
-16777216
102
RTVSPost2010PropOp51
 70
     0
102
RTVSPost2010Prop52
140
1.0
102
RTVSPost2010PropOp52
 70
     0
102
RTVSPost2010Prop53
 90
        2
102
RTVSPost2010PropOp53
 70
     1
102
RTVSPost2010Prop54
  1
strokes_ogs.tif
102
RTVSPost2010PropOp54
 70
     1
102
RTVSPost2010Prop55
280
     0
102
RTVSPost2010PropOp55
 70
     1
102
RTVSPost2010Prop56
140
1.0
102
RTVSPost2010PropOp56
 70
     1
102
RTVSPost2010Prop57
140
1.0
102
RTVSPost2010PropOp57
 70
     1
  0
XRECORD
  5
154
102
{ACAD_REACTORS
330
153
102
}
330
153
100
AcDbXrecord
280
     1
102
RTVSPost2010Prop28
280
     0
102
RTVSPost2010PropOp28
 70
     1
102
RTVSPost2010Prop29
280
     1
102
RTVSPost2010PropOp29
 70
     1
102
RTVSPost2010Prop30
280
     1
102
RTVSPost2010PropOp30
 70
     1
102
RTVSPost2010Prop31
280
     0
102
RTVSPost2010PropOp31
 70
     1
102
RTVSPost2010Prop32
280
     0
102
RTVSPost2010PropOp32
 70
     1
102
RTVSPost2010Prop33
280
     0
102
RTVSPost2010PropOp33
 70
     1
102
RTVSPost2010Prop34
280
     0
102
RTVSPost2010PropOp34
 70
     1
102
RTVSPost2010Prop35
280
     0
102
RTVSPost2010PropOp35
 70
     1
102
RTVSPost2010Prop36
280
     0
102
RTVSPost2010PropOp36
 70
     1
102
RTVSPost2010Prop37
 90
       50
102
RTVSPost2010PropOp37
 70
     1
102
RTVSPost2010Prop38
140
0.0
102
RTVSPost2010PropOp38
 70
     1
102
RTVSPost2010Prop39
140
1.0
102
RTVSPost2010PropOp39
 70
     1
102
RTVSPost2010Prop40
 90
        0
102
RTVSPost2010PropOp40
 70
     1
102
RTVSPost2010Prop41ColorIndex
 90
       18
102
RTVSPost2010Prop41ColorRGB
 90
        0
102
RTVSPost2010PropOp41
 70
     1
102
RTVSPost2010Prop42
 90
       50
102
RTVSPost2010PropOp42
 70
     1
102
RTVSPost2010Prop43
 90
        3
102
RTVSPost2010PropOp43
 70
     1
102
RTVSPost2010Prop44ColorIndex
 90
        5
102
RTVSPost2010Prop44ColorRGB
 90
      255
102
RTVSPost2010PropOp44
 70
     1
102
RTVSPost2010Prop45
280
     0
102
RTVSPost2010PropOp45
 70
     1
102
RTVSPost2010Prop46
 90
       50
102
RTVSPost2010PropOp46
 70
     1
102
RTVSPost2010Prop47
 90
       50
102
RTVSPost2010PropOp47
 70
     1
102
RTVSPost2010Prop48
 90
       50
102
RTVSPost2010PropOp48
 70
     1
102
RTVSPost2010Prop49
280
     0
102
RTVSPost2010PropOp49
 70
     1
102
RTVSPost2010Prop50
 90
       50
102
RTVSPost2010PropOp50
 70
     1
102
RTVSPost2010Prop51ColorIndex
 90
      256
102
RTVSPost2010Prop51ColorRGB
 90
-16777216
102
RTVSPost2010PropOp51
 70
     0
102
RTVSPost2010Prop52
140
1.0
102
RTVSPost2010PropOp52
 70
     0
102
RTVSPost2010Prop53
 90
        2
102
RTVSPost2010PropOp53
 70
     1
102
RTVSPost2010Prop54
  1
strokes_ogs.tif
102
RTVSPost2010PropOp54
 70
     1
102
RTVSPost2010Prop55
280
     0
102
RTVSPost2010PropOp55
 70
     1
102
RTVSPost2010Prop56
140
1.0
102
RTVSPost2010PropOp56
 70
     1
102
RTVSPost2010Prop57
140
1.0
102
RTVSPost2010PropOp57
 70
     1
  0
ENDSEC
  0
EOF
